999
DXF file: vvs-16-dxf.dxf
999
Pro/ENGINEER 2010140 by Parametric Technology Corporation
  0
SECTION
  2
HEADER
  9
$ACADVER
  1
AC1021
  9
$DWGCODEPAGE
  3
ANSI_1252
  9
$EXTMAX
 10
420.0
 20
297.0
 30
0.0
  9
$EXTMIN
 10
0.0
 20
0.0
 30
0.0
  9
$LIMMIN
 10
0.0
 20
0.0
  9
$LIMMAX
 10
420.0
 20
297.0
  9
$VIEWCTR
 10
210.0
 20
148.5
  9
$VIEWSIZE
 40
297.0
  9
$CLAYER
  8
0
  9
$LTSCALE
 40
23.1
  9
$CELTYPE
  6
BYLAYER
  9
$DIMSCALE
 40
1.0
  9
$DIMASZ
 40
3.5
  9
$DIMEXO
 40
2.625
  9
$DIMDLI
 40
15.96
  9
$DIMEXE
 40
7.56
  9
$DIMCEN
 40
3.78
  9
$DIMLFAC
 40
1.0
  9
$DIMBLK
  1
_FILLED
  9
$DIMTXT
 40
3.5
  9
$DIMTOL
 70
1
  9
$DIMLIM
 70
0
  9
$DIMTFAC
 40
1.0
  9
$DIMTP
 40
0.005
  9
$DIMTM
 40
0.005
  9
$PDMODE
 70
3
  9
$PDSIZE
 40
0.3125
  9
$HANDSEED
  5
3C2
  9
$TILEMODE
 70
1
  9
$MEASUREMENT
 70
1
  9
$INSUNITS
 70
4
  0
ENDSEC
  0
SECTION
  2
CLASSES
  0
CLASS
  1
ACDBDICTIONARYWDFLT
  2
AcDbDictionaryWithDefault
  3
AutoCAD 2000
 90
0
 91
1
280
0
281
0
  0
CLASS
  1
ACDBPLACEHOLDER
  2
AcDbPlaceHolder
  3
AutoCAD 2000
 90
0
 91
1
280
0
281
0
  0
CLASS
  1
LAYOUT
  2
AcDbLayout
  3
AutoCAD 2000
 90
0
 91
0
280
0
281
0
  0
ENDSEC
  0
SECTION
  2
TABLES
  0
TABLE
  2
VPORT
  5
8
100
AcDbSymbolTable
 70
2
  0
VPORT
  5
1F4
100
AcDbSymbolTableRecord
100
AcDbViewportTableRecord
  2
*ACTIVE
 70
0
 10
0.0
 20
0.0
 11
1.0
 21
1.0
 12
210.0
 22
148.5
 13
0.0
 23
0.0
 14
1.0
 24
1.0
 15
0.0
 25
0.0
 16
0.0
 26
0.0
 36
1.0
 17
0.0
 27
0.0
 37
0.0
 40
297.0
 41
1.4141414141
 42
50.0
 43
0.0
 44
0.0
 50
0.0
 51
0.0
 71
0
 72
100
 73
1
 74
1
 75
0
 76
0
 77
0
 78
0
  0
ENDTAB
  0
TABLE
  2
LTYPE
  5
5
100
AcDbSymbolTable
 70
6
  0
LTYPE
  5
14
100
AcDbSymbolTableRecord
100
AcDbLinetypeTableRecord
  2
BYBLOCK
 70
0
  3

 72
65
 73
0
 40
0.0
  0
LTYPE
  5
15
100
AcDbSymbolTableRecord
100
AcDbLinetypeTableRecord
  2
BYLAYER
 70
0
  3

 72
65
 73
0
 40
0.0
  0
LTYPE
  5
16
100
AcDbSymbolTableRecord
100
AcDbLinetypeTableRecord
  2
CONTINUOUS
 70
64
  3
Solid line
 72
65
 73
0
 40
0.0
  0
LTYPE
  5
1F5
100
AcDbSymbolTableRecord
100
AcDbLinetypeTableRecord
  2
CENTER
 70
64
  3
____ _ ____ _ ____ _ ____ _ ____ _ ____ _ ____
 72
65
 73
4
 40
0.6
 49
0.375
 74
0
 49
-0.075
 74
0
 49
0.075
 74
0
 49
-0.075
 74
0
  0
LTYPE
  5
1F6
100
AcDbSymbolTableRecord
100
AcDbLinetypeTableRecord
  2
HIDDEN
 70
64
  3
- - - - - - - - - - - - - - - - - - - -
 72
65
 73
2
 40
0.2
 49
0.1
 74
0
 49
-0.1
 74
0
  0
LTYPE
  5
1F7
100
AcDbSymbolTableRecord
100
AcDbLinetypeTableRecord
  2
PHANTOM
 70
64
  3
_____ _ _ _____ _ _ _____ _ _ _____
 72
65
 73
6
 40
0.8
 49
0.45
 74
0
 49
-0.05
 74
0
 49
0.1
 74
0
 49
-0.05
 74
0
 49
0.1
 74
0
 49
-0.05
 74
0
  0
LTYPE
  5
1F8
100
AcDbSymbolTableRecord
100
AcDbLinetypeTableRecord
  2
DOT
 70
64
  3
. . . . . . . . . . . . . . . . . . . .
 72
65
 73
2
 40
0.2
 49
0.1
 74
0
 49
-0.1
 74
0
  0
LTYPE
  5
1F9
100
AcDbSymbolTableRecord
100
AcDbLinetypeTableRecord
  2
DASHED
 70
64
  3
- - - - - - - - - - - - - - - - - - - -
 72
65
 73
2
 40
0.2
 49
0.1
 74
0
 49
-0.1
 74
0
  0
ENDTAB
  0
TABLE
  2
LAYER
  5
2
100
AcDbSymbolTable
 70
36
  0
LAYER
  5
10
100
AcDbSymbolTableRecord
100
AcDbLayerTableRecord
  2
0
 70
0
 62
7
  6
CONTINUOUS
370
-3
390
F
  0
LAYER
  5
1FA
100
AcDbSymbolTableRecord
100
AcDbLayerTableRecord
  2
DEFAULT_1
 70
0
 62
7
  6
CENTER
370
-3
390
F
  0
LAYER
  5
1FB
100
AcDbSymbolTableRecord
100
AcDbLayerTableRecord
  2
DEFAULT_2
 70
0
 62
8
  6
HIDDEN
370
-3
390
F
  0
LAYER
  5
1FC
100
AcDbSymbolTableRecord
100
AcDbLayerTableRecord
  2
DEFAULT_3
 70
0
 62
7
  6
PHANTOM
370
-3
390
F
  0
LAYER
  5
1FD
100
AcDbSymbolTableRecord
100
AcDbLayerTableRecord
  2
AUSFORMSCHRAEGEN
 70
0
 62
7
  6
CONTINUOUS
370
-3
390
F
  0
LAYER
  5
1FE
100
AcDbSymbolTableRecord
100
AcDbLayerTableRecord
  2
BEZUGSACHSEN
 70
0
 62
7
  6
CONTINUOUS
370
-3
390
F
  0
LAYER
  5
1FF
100
AcDbSymbolTableRecord
100
AcDbLayerTableRecord
  2
BEZUGSEBENEN
 70
0
 62
7
  6
CONTINUOUS
370
-3
390
F
  0
LAYER
  5
200
100
AcDbSymbolTableRecord
100
AcDbLayerTableRecord
  2
HILFEN
 70
0
 62
7
  6
CONTINUOUS
370
-3
390
F
  0
LAYER
  5
201
100
AcDbSymbolTableRecord
100
AcDbLayerTableRecord
  2
PLATZIERUNG
 70
0
 62
7
  6
CONTINUOUS
370
-3
390
F
  0
LAYER
  5
202
100
AcDbSymbolTableRecord
100
AcDbLayerTableRecord
  2
RUNDUNGEN
 70
0
 62
7
  6
CONTINUOUS
370
-3
390
F
  0
LAYER
  5
203
100
AcDbSymbolTableRecord
100
AcDbLayerTableRecord
  2
T_STARTBEZUEGE
 70
0
 62
7
  6
CONTINUOUS
370
-3
390
F
  0
LAYER
  5
204
100
AcDbSymbolTableRecord
100
AcDbLayerTableRecord
  2
ZEICHNUNGSBEMASSUNGEN
 70
0
 62
7
  6
CONTINUOUS
370
-3
390
F
  0
ENDTAB
  0
TABLE
  2
STYLE
  5
3
100
AcDbSymbolTable
 70
1
  0
STYLE
  5
11
100
AcDbSymbolTableRecord
100
AcDbTextStyleTableRecord
  2
STANDARD
 70
0
 40
0.0
 41
0.7
 50
0.0
 71
0
 42
0.2
  3
txt
  4

  0
STYLE
  5
205
100
AcDbSymbolTableRecord
100
AcDbTextStyleTableRecord
  2
TEXTSTYLE_1
 70
0
 40
0.0
 41
0.8
 50
0.0
 71
0
 42
0.2
  3
gdt
  4

  0
ENDTAB
  0
TABLE
  2
VIEW
  5
6
100
AcDbSymbolTable
 70
0
  0
ENDTAB
  0
TABLE
  2
UCS
  5
7
100
AcDbSymbolTable
 70
0
  0
ENDTAB
  0
TABLE
  2
APPID
  5
9
100
AcDbSymbolTable
 70
1
  0
APPID
  5
206
100
AcDbSymbolTableRecord
100
AcDbRegAppTableRecord
  2
ACAD
 70
0
  0
ENDTAB
  0
TABLE
  2
BLOCK_RECORD
  5
1
100
AcDbSymbolTable
 70
0
  0
BLOCK_RECORD
  5
207
100
AcDbSymbolTableRecord
100
AcDbBlockTableRecord
  2
*Model_Space
  0
BLOCK_RECORD
  5
208
100
AcDbSymbolTableRecord
100
AcDbBlockTableRecord
  2
*Paper_Space
  0
ENDTAB
  0
TABLE
  2
DIMSTYLE
  5
A
100
AcDbSymbolTable
 70
1
100
AcDbDimStyleTable
 71
0
  0
DIMSTYLE
105
209
100
AcDbSymbolTableRecord
100
AcDbDimStyleTableRecord
  2
STANDARD
 70
0
  3

  4

 40
1.0
 41
3.5
 42
0.0625
 43
0.38
 44
0.18
 45
0.0
 46
0.0
 47
0.005
 48
0.005
140
3.5
141
0.09
142
0.0
143
25.4
144
1.0
145
0.0
146
1.0
147
0.09
 71
1.0
 72
0.0
 73
0
 74
0
 75
0
 76
0
 77
1
 78
8
170
0
171
2
172
0
173
0
174
0
175
0
176
0
177
0
178
5
270
2
271
3
272
3
273
2
274
2
275
0
280
0
281
0
282
0
283
1
284
8
285
0
286
0
287
3
288
0
340
11
  0
ENDTAB
  0
ENDSEC
  0
SECTION
  2
BLOCKS
  0
BLOCK
  5
20
100
AcDbEntity
  8
0
100
AcDbBlockBegin
  2
*Model_Space
 70
0
 10
0.0
 20
0.0
 30
0.0
  3
*Model_Space
  1

  0
ENDBLK
  5
21
100
AcDbEntity
  8
0
100
AcDbBlockEnd
  0
BLOCK
  5
1C
100
AcDbEntity
  8
0
100
AcDbBlockBegin
  2
*Paper_Space
 70
0
 10
0.0
 20
0.0
 30
0.0
  3
*Paper_Space
  1

  0
ENDBLK
  5
1D
100
AcDbEntity
  8
0
100
AcDbBlockEnd
  0
ENDSEC
  0
SECTION
  2
ENTITIES
  0
LINE
  5
20A
100
AcDbEntity
  8
0
100
AcDbLine
 62
7
  6
CONTINUOUS
 10
0.0
 20
0.0
 11
0.0
 21
297.0
  0
LINE
  5
20B
100
AcDbEntity
  8
0
100
AcDbLine
 62
7
  6
CONTINUOUS
 10
0.0
 20
0.0
 11
420.0
 21
0.0
  0
LINE
  5
20C
100
AcDbEntity
  8
0
100
AcDbLine
 62
7
  6
CONTINUOUS
 10
0.0
 20
297.0
 11
420.0
 21
297.0
  0
LINE
  5
20D
100
AcDbEntity
  8
0
100
AcDbLine
 62
7
  6
CONTINUOUS
 10
420.0
 20
0.0
 11
420.0
 21
297.0
  0
LINE
  5
20E
100
AcDbEntity
  8
BEZUGSACHSEN
100
AcDbLine
 62
7
  6
CONTINUOUS
 10
97.0775069346
 20
211.2787743949
 11
96.3608984775
 21
211.0396435043
  0
LINE
  5
20F
100
AcDbEntity
  8
BEZUGSACHSEN
100
AcDbLine
 62
7
  6
CONTINUOUS
 10
103.9187266173
 20
214.2997677997
 11
102.7952168631
 21
213.925293517
  0
LINE
  5
210
100
AcDbEntity
  8
0
100
AcDbLine
 62
7
  6
CONTINUOUS
 10
120.4622076909
 20
75.5795682603
 11
121.6388780394
 21
75.713555383
  0
LINE
  5
211
100
AcDbEntity
  8
0
100
AcDbLine
 62
7
  6
CONTINUOUS
 10
51.5409001071
 20
131.9378511325
 11
51.5409001071
 21
139.2353260908
  0
LINE
  5
212
100
AcDbEntity
  8
0
100
AcDbLine
 62
7
  6
CONTINUOUS
 10
51.5409001071
 20
152.3736551981
 11
51.5409001071
 21
153.8391026121
  0
LINE
  5
213
100
AcDbEntity
  8
BEZUGSACHSEN
100
AcDbLine
 62
7
  6
CONTINUOUS
 10
95.3352662773
 20
210.4475440703
 11
94.7698322832
 21
209.9465493977
  0
LINE
  5
214
100
AcDbEntity
  8
BEZUGSACHSEN
100
AcDbLine
 62
7
  6
CONTINUOUS
 10
96.3608984775
 20
211.0396435043
 11
95.3352662773
 21
210.4475440703
  0
LINE
  5
215
100
AcDbEntity
  8
BEZUGSACHSEN
100
AcDbLine
 62
7
  6
CONTINUOUS
 10
95.7887896795
 20
209.6619527015
 11
96.8144218797
 21
210.2540521356
  0
LINE
  5
216
100
AcDbEntity
  8
BEZUGSACHSEN
100
AcDbLine
 62
7
  6
CONTINUOUS
 10
98.3691661742
 20
209.9296291685
 11
99.138391058
 21
210.3737041675
  0
LINE
  5
217
100
AcDbEntity
  8
BEZUGSACHSEN
100
AcDbLine
 62
7
  6
CONTINUOUS
 10
97.6918230951
 20
208.1420492329
 11
96.9225982114
 21
207.6979742339
  0
LINE
  5
218
100
AcDbEntity
  8
BEZUGSACHSEN
100
AcDbLine
 62
7
  6
CONTINUOUS
 10
97.3761215606
 20
206.9123829569
 11
98.1453464444
 21
207.3564579559
  0
LINE
  5
219
100
AcDbEntity
  8
BEZUGSACHSEN
100
AcDbLine
 62
7
  6
CONTINUOUS
 10
82.9032055606
 20
198.0546845245
 11
82.12617774
 21
197.6676518973
  0
LINE
  5
21A
100
AcDbEntity
  8
BEZUGSACHSEN
100
AcDbLine
 62
7
  6
CONTINUOUS
 10
96.6595131102
 20
206.6732520548
 11
97.3761215606
 21
206.9123829569
  0
LINE
  5
21B
100
AcDbEntity
  8
BEZUGSACHSEN
100
AcDbLine
 62
7
  6
CONTINUOUS
 10
102.7950427832
 20
206.4352845509
 11
103.6376752998
 21
206.71614033
  0
LINE
  5
21C
100
AcDbEntity
  8
BEZUGSACHSEN
100
AcDbLine
 62
7
  6
CONTINUOUS
 10
107.5699606451
 20
208.0268007214
 11
108.4125931616
 21
208.3076565004
  0
LINE
  5
21D
100
AcDbEntity
  8
0
100
AcDbLine
 62
7
  6
CONTINUOUS
 10
135.9616280163
 20
81.3549291534
 11
135.3732232242
 21
81.1898104688
  0
LINE
  5
21E
100
AcDbEntity
  8
0
100
AcDbLine
 62
7
  6
CONTINUOUS
 10
134.4958234759
 20
83.3018142185
 11
135.0842268009
 21
83.466932056
  0
LINE
  5
21F
100
AcDbEntity
  8
0
100
AcDbLine
 62
7
  6
CONTINUOUS
 10
135.8534516847
 20
83.9110070551
 11
136.4418564769
 21
84.0761257396
  0
LINE
  5
220
100
AcDbEntity
  8
0
100
AcDbLine
 62
7
  6
CONTINUOUS
 10
134.6307034517
 20
84.2525233331
 11
134.1705037849
 21
84.161417713
  0
LINE
  5
221
100
AcDbEntity
  8
0
100
AcDbLine
 62
7
  6
CONTINUOUS
 10
134.3417069755
 20
86.529645012
 11
134.8019066423
 21
86.620750632
  0
LINE
  5
222
100
AcDbEntity
  8
0
100
AcDbLine
 62
7
  6
CONTINUOUS
 10
123.1882959518
 20
83.0415521398
 11
122.3057931379
 21
82.9410617918
  0
LINE
  5
223
100
AcDbEntity
  8
0
100
AcDbLine
 62
7
  6
CONTINUOUS
 10
118.1874468132
 20
82.4721068502
 11
117.3049439993
 21
82.3716165021
  0
LINE
  5
224
100
AcDbEntity
  8
0
100
AcDbLine
 62
7
  6
CONTINUOUS
 10
133.831832926
 20
83.2676282605
 11
134.4958234759
 21
83.3018142185
  0
LINE
  5
225
100
AcDbEntity
  8
0
100
AcDbLine
 62
7
  6
CONTINUOUS
 10
136.7805273358
 20
84.9699151922
 11
136.1165367859
 21
84.9357292342
  0
LINE
  5
226
100
AcDbEntity
  8
0
100
AcDbLine
 62
7
  6
CONTINUOUS
 10
134.8307600415
 20
80.3529397854
 11
135.6985429615
 21
80.3302068941
  0
LINE
  5
227
100
AcDbEntity
  8
BEZUGSACHSEN
100
AcDbLine
 62
7
  6
CONTINUOUS
 10
77.7805455873
 20
86.5760236545
 11
53.1894044298
 21
126.1603008406
  0
LINE
  5
228
100
AcDbEntity
  8
BEZUGSACHSEN
100
AcDbLine
 62
7
  6
CONTINUOUS
 10
81.6055073233
 20
197.1202844953
 11
81.2130147101
 21
196.4927482696
  0
LINE
  5
229
100
AcDbEntity
  8
BEZUGSACHSEN
100
AcDbLine
 62
7
  6
CONTINUOUS
 10
81.7754045204
 20
195.9663957355
 11
82.3248956162
 21
196.8449487497
  0
LINE
  5
22A
100
AcDbEntity
  8
RUNDUNGEN
100
AcDbLine
 62
7
  6
CONTINUOUS
 10
57.7808790043
 20
164.4673019575
 11
52.5254933425
 21
156.9618334
  0
LINE
  5
22B
100
AcDbEntity
  8
BEZUGSACHSEN
100
AcDbLine
 62
7
  6
CONTINUOUS
 10
84.8105652162
 20
201.4962254894
 11
84.239849494
 21
200.815642584
  0
LINE
  5
22C
100
AcDbEntity
  8
BEZUGSACHSEN
100
AcDbLine
 62
7
  6
CONTINUOUS
 10
82.12617774
 20
197.6676518973
 11
81.6055073233
 21
197.1202844953
  0
LINE
  5
22D
100
AcDbEntity
  8
BEZUGSACHSEN
100
AcDbLine
 62
7
  6
CONTINUOUS
 10
84.5376766382
 20
193.5403132613
 11
85.0583488404
 21
194.087683543
  0
LINE
  5
22E
100
AcDbEntity
  8
BEZUGSACHSEN
100
AcDbLine
 62
7
  6
CONTINUOUS
 10
95.351559337
 20
209.234970258
 11
95.7887896795
 21
209.6619527015
  0
LINE
  5
22F
100
AcDbEntity
  8
BEZUGSACHSEN
100
AcDbLine
 62
7
  6
CONTINUOUS
 10
82.3248956162
 20
196.8449487497
 11
82.6885693358
 21
197.141302243
  0
LINE
  5
230
100
AcDbEntity
  8
BEZUGSACHSEN
100
AcDbLine
 62
7
  6
CONTINUOUS
 10
84.3389606372
 20
194.3630192325
 11
83.9752869176
 21
194.0666657392
  0
LINE
  5
231
100
AcDbEntity
  8
BEZUGSACHSEN
100
AcDbLine
 62
7
  6
CONTINUOUS
 10
86.596482708
 20
193.1256575176
 11
86.2328089884
 21
192.8293040244
  0
LINE
  5
232
100
AcDbEntity
  8
BEZUGSACHSEN
100
AcDbLine
 62
7
  6
CONTINUOUS
 10
97.2871819124
 20
205.2899206755
 11
96.5179570286
 21
204.8458456764
  0
LINE
  5
233
100
AcDbEntity
  8
BEZUGSACHSEN
100
AcDbLine
 62
7
  6
CONTINUOUS
 10
99.2035678043
 20
205.5234112761
 11
98.4343429205
 21
205.079336277
  0
LINE
  5
234
100
AcDbEntity
  8
BEZUGSACHSEN
100
AcDbLine
 62
7
  6
CONTINUOUS
 10
99.016069928
 20
204.3677572175
 11
99.6570911536
 21
204.7378199991
  0
LINE
  5
235
100
AcDbEntity
  8
BEZUGSACHSEN
100
AcDbLine
 62
7
  6
CONTINUOUS
 10
83.7606506479
 20
193.1532834858
 11
84.5376766382
 21
193.5403132613
  0
LINE
  5
236
100
AcDbEntity
  8
BEZUGSACHSEN
100
AcDbLine
 62
7
  6
CONTINUOUS
 10
86.0181727187
 20
191.9159217709
 11
86.7951987089
 21
192.3029515465
  0
LINE
  5
237
100
AcDbEntity
  8
BEZUGSACHSEN
100
AcDbLine
 62
7
  6
CONTINUOUS
 10
82.6885693358
 20
197.141302243
 11
83.1804208478
 21
197.3574869195
  0
LINE
  5
238
100
AcDbEntity
  8
BEZUGSACHSEN
100
AcDbLine
 62
7
  6
CONTINUOUS
 10
83.9752869176
 20
194.0666657392
 11
83.4834354056
 21
193.8504810627
  0
LINE
  5
239
100
AcDbEntity
  8
BEZUGSACHSEN
100
AcDbLine
 62
7
  6
CONTINUOUS
 10
86.2328089884
 20
192.8293040244
 11
85.7409574764
 21
192.6131193478
  0
LINE
  5
23A
100
AcDbEntity
  8
BEZUGSACHSEN
100
AcDbLine
 62
7
  6
CONTINUOUS
 10
98.2994614776
 20
204.1286263155
 11
99.016069928
 21
204.3677572175
  0
LINE
  5
23B
100
AcDbEntity
  8
0
100
AcDbLine
 62
7
  6
CONTINUOUS
 10
149.1246371938
 20
93.4984497495
 11
149.8728443354
 21
93.5542967645
  0
LINE
  5
23C
100
AcDbEntity
  8
0
100
AcDbLine
 62
7
  6
CONTINUOUS
 10
134.1705037849
 20
84.161417713
 11
133.6347168933
 21
84.2012439725
  0
LINE
  5
23D
100
AcDbEntity
  8
0
100
AcDbLine
 62
7
  6
CONTINUOUS
 10
136.4418564769
 20
84.0761257396
 11
136.9776433685
 21
84.0362994802
  0
LINE
  5
23E
100
AcDbEntity
  8
0
100
AcDbLine
 62
7
  6
CONTINUOUS
 10
135.2161661932
 20
87.383609052
 11
134.4765884184
 21
87.4803549735
  0
LINE
  5
23F
100
AcDbEntity
  8
0
100
AcDbLine
 62
7
  6
CONTINUOUS
 10
135.3732232242
 20
81.1898104688
 11
134.7618490547
 21
81.3605686995
  0
LINE
  5
240
100
AcDbEntity
  8
0
100
AcDbLine
 62
7
  6
CONTINUOUS
 10
133.0166664592
 20
83.4953052144
 11
133.831832926
 21
83.2676282605
  0
LINE
  5
241
100
AcDbEntity
  8
BEZUGSACHSEN
100
AcDbLine
 62
7
  6
CENTER
 10
63.7155707778
 20
145.8044906445
 11
63.7155707778
 21
140.0663192562
  0
LINE
  5
242
100
AcDbEntity
  8
BEZUGSACHSEN
100
AcDbLine
 62
7
  6
CENTER
 10
63.7155707778
 20
145.8044906445
 11
63.7155707778
 21
151.5426620328
  0
LINE
  5
243
100
AcDbEntity
  8
BEZUGSACHSEN
100
AcDbLine
 62
7
  6
CONTINUOUS
 10
81.2130147101
 20
196.4927482696
 11
80.9486981039
 21
195.7850403474
  0
LINE
  5
244
100
AcDbEntity
  8
BEZUGSACHSEN
100
AcDbLine
 62
7
  6
CONTINUOUS
 10
84.888451733
 20
195.2415722466
 11
84.3389606372
 21
194.3630192325
  0
LINE
  5
245
100
AcDbEntity
  8
BEZUGSACHSEN
100
AcDbLine
 62
7
  6
CONTINUOUS
 10
85.0583488404
 20
194.087683543
 11
85.4508414535
 21
194.7152197688
  0
LINE
  5
246
100
AcDbEntity
  8
BEZUGSACHSEN
100
AcDbLine
 62
7
  6
CONTINUOUS
 10
85.1994256167
 20
192.6026090096
 11
84.8069330035
 21
191.9750727839
  0
LINE
  5
247
100
AcDbEntity
  8
BEZUGSACHSEN
100
AcDbLine
 62
7
  6
CONTINUOUS
 10
87.0674745624
 20
193.8787021376
 11
86.596482708
 21
193.1256575176
  0
LINE
  5
248
100
AcDbEntity
  8
BEZUGSACHSEN
100
AcDbLine
 62
7
  6
CONTINUOUS
 10
87.3158691144
 20
192.8503189555
 11
87.629864283
 21
193.3523496597
  0
LINE
  5
249
100
AcDbEntity
  8
BEZUGSACHSEN
100
AcDbLine
 62
7
  6
CONTINUOUS
 10
94.7698322832
 20
209.9465493977
 11
94.4081906527
 21
209.3886358873
  0
LINE
  5
24A
100
AcDbEntity
  8
BEZUGSACHSEN
100
AcDbLine
 62
7
  6
CONTINUOUS
 10
89.6845127373
 20
196.249916807
 11
90.2552284595
 21
196.9304997124
  0
LINE
  5
24B
100
AcDbEntity
  8
BEZUGSACHSEN
100
AcDbLine
 62
7
  6
CONTINUOUS
 10
99.5125930213
 20
205.8763806551
 11
99.2035678043
 21
205.5234112761
  0
LINE
  5
24C
100
AcDbEntity
  8
BEZUGSACHSEN
100
AcDbLine
 62
7
  6
CONTINUOUS
 10
86.7951987089
 20
192.3029515465
 11
87.3158691144
 21
192.8503189555
  0
LINE
  5
24D
100
AcDbEntity
  8
BEZUGSACHSEN
100
AcDbLine
 62
7
  6
CONTINUOUS
 10
99.6570911536
 20
204.7378199991
 11
100.0943200288
 21
205.1648015956
  0
LINE
  5
24E
100
AcDbEntity
  8
0
100
AcDbLine
 62
7
  6
CONTINUOUS
 10
149.2926144904
 20
97.7585002263
 11
149.7059667611
 21
97.8491765086
  0
LINE
  5
24F
100
AcDbEntity
  8
0
100
AcDbLine
 62
7
  6
CONTINUOUS
 10
149.6354285525
 20
98.591713663
 11
149.0153992481
 21
98.4556978032
  0
LINE
  5
250
100
AcDbEntity
  8
0
100
AcDbLine
 62
7
  6
CONTINUOUS
 10
147.5060842741
 20
99.7489065611
 11
146.7578771774
 21
99.6930595181
  0
LINE
  5
251
100
AcDbEntity
  8
0
100
AcDbLine
 62
7
  6
CONTINUOUS
 10
149.5956290483
 20
94.2514943695
 11
149.0540988955
 21
94.2409869601
  0
LINE
  5
252
100
AcDbEntity
  8
0
100
AcDbLine
 62
7
  6
CONTINUOUS
 10
147.0350924197
 20
98.9958619411
 11
147.5766242794
 21
99.0063722794
  0
LINE
  5
253
100
AcDbEntity
  8
0
100
AcDbLine
 62
7
  6
CONTINUOUS
 10
137.5956938025
 20
84.7422382382
 11
136.7805273358
 21
84.9699151922
  0
LINE
  5
254
100
AcDbEntity
  8
0
100
AcDbLine
 62
7
  6
CONTINUOUS
 10
134.8019066423
 20
86.620750632
 11
135.2094898757
 21
86.506912155
  0
LINE
  5
255
100
AcDbEntity
  8
0
100
AcDbLine
 62
7
  6
CONTINUOUS
 10
134.0682113958
 20
80.7855618209
 11
134.8307600415
 21
80.3529397854
  0
LINE
  5
256
100
AcDbEntity
  8
RUNDUNGEN
100
AcDbLine
 62
7
  6
CONTINUOUS
 10
70.6934230252
 20
130.6513764491
 11
70.6934230252
 21
163.2196602852
  0
LINE
  5
257
100
AcDbEntity
  8
BEZUGSACHSEN
100
AcDbLine
 62
7
  6
CONTINUOUS
 10
71.0704411929
 20
132.159498521
 11
71.0704411929
 21
157.4300817445
  0
LINE
  5
258
100
AcDbEntity
  8
BEZUGSACHSEN
100
AcDbLine
 62
7
  6
CONTINUOUS
 10
81.6680863856
 20
195.5097046088
 11
81.7754045204
 21
195.9663957355
  0
LINE
  5
259
100
AcDbEntity
  8
BEZUGSACHSEN
100
AcDbLine
 62
7
  6
CONTINUOUS
 10
84.9957698678
 20
195.6982633733
 11
84.888451733
 21
195.2415722466
  0
LINE
  5
25A
100
AcDbEntity
  8
BEZUGSACHSEN
100
AcDbLine
 62
7
  6
CONTINUOUS
 10
85.4508414535
 20
194.7152197688
 11
85.7151562743
 21
195.4229248112
  0
LINE
  5
25B
100
AcDbEntity
  8
BEZUGSACHSEN
100
AcDbLine
 62
7
  6
CONTINUOUS
 10
87.629864283
 20
193.3523496597
 11
87.8941791037
 21
194.0600547022
  0
LINE
  5
25C
100
AcDbEntity
  8
BEZUGSACHSEN
100
AcDbLine
 62
7
  6
CONTINUOUS
 10
95.1181213978
 20
208.7510689077
 11
95.351559337
 21
209.234970258
  0
LINE
  5
25D
100
AcDbEntity
  8
BEZUGSACHSEN
100
AcDbLine
 62
7
  6
CONTINUOUS
 10
99.7460310135
 20
206.3602819137
 11
99.5125930213
 21
205.8763806551
  0
LINE
  5
25E
100
AcDbEntity
  8
BEZUGSACHSEN
100
AcDbLine
 62
7
  6
CONTINUOUS
 10
100.0943200288
 20
205.1648015956
 11
100.4559616792
 21
205.7227150717
  0
LINE
  5
25F
100
AcDbEntity
  8
0
100
AcDbLine
 62
7
  6
CONTINUOUS
 10
148.3267514563
 20
93.6482799736
 11
149.1246371938
 21
93.4984497495
  0
LINE
  5
260
100
AcDbEntity
  8
0
100
AcDbLine
 62
7
  6
CONTINUOUS
 10
149.0540988955
 20
94.2409869601
 11
148.591066277
 21
94.3559850161
  0
LINE
  5
261
100
AcDbEntity
  8
0
100
AcDbLine
 62
7
  6
CONTINUOUS
 10
135.9031275346
 20
87.0819190336
 11
135.2161661932
 21
87.383609052
  0
LINE
  5
262
100
AcDbEntity
  8
0
100
AcDbLine
 62
7
  6
CONTINUOUS
 10
136.9776433685
 20
84.0362994802
 11
137.4608124655
 21
83.7915280933
  0
LINE
  5
263
100
AcDbEntity
  8
BEZUGSACHSEN
100
AcDbLine
 62
7
  6
CONTINUOUS
 10
80.9486981039
 20
195.7850403474
 11
80.9407389015
 21
194.9169976504
  0
LINE
  5
264
100
AcDbEntity
  8
BEZUGSACHSEN
100
AcDbLine
 62
7
  6
CONTINUOUS
 10
87.1747926973
 20
194.3353932643
 11
87.0674745624
 21
193.8787021376
  0
LINE
  5
265
100
AcDbEntity
  8
BEZUGSACHSEN
100
AcDbLine
 62
7
  6
CONTINUOUS
 10
94.4081906527
 20
209.3886358873
 11
94.1977220114
 21
208.5688577594
  0
LINE
  5
266
100
AcDbEntity
  8
0
100
AcDbLine
 62
7
  6
CONTINUOUS
 10
150.4333142003
 20
98.4418834951
 11
149.6354285525
 21
98.591713663
  0
LINE
  5
267
100
AcDbEntity
  8
0
100
AcDbLine
 62
7
  6
CONTINUOUS
 10
149.7059667611
 20
97.8491765086
 11
150.168999559
 21
97.7341783403
  0
LINE
  5
268
100
AcDbEntity
  8
0
100
AcDbLine
 62
7
  6
CONTINUOUS
 10
147.9691168925
 20
99.6339085051
 11
147.5060842741
 21
99.7489065611
  0
LINE
  5
269
100
AcDbEntity
  8
0
100
AcDbLine
 62
7
  6
CONTINUOUS
 10
147.3510074888
 20
94.0839534088
 11
148.3267514563
 21
93.6482799736
  0
LINE
  5
26A
100
AcDbEntity
  8
0
100
AcDbLine
 62
7
  6
CONTINUOUS
 10
138.1544501244
 20
84.3665349718
 11
137.5956938025
 21
84.7422382382
  0
LINE
  5
26B
100
AcDbEntity
  8
0
100
AcDbLine
 62
7
  6
CONTINUOUS
 10
135.2094898757
 20
86.506912155
 11
135.4888679836
 21
86.3190606135
  0
LINE
  5
26C
100
AcDbEntity
  8
0
100
AcDbLine
 62
7
  6
CONTINUOUS
 10
134.7618490547
 20
81.3605686995
 11
134.4068837219
 21
81.6793521205
  0
LINE
  5
26D
100
AcDbEntity
  8
0
100
AcDbLine
 62
7
  6
CONTINUOUS
 10
133.6347168933
 20
84.2012439725
 11
133.2797515604
 21
84.5200273935
  0
LINE
  5
26E
100
AcDbEntity
  8
BEZUGSACHSEN
100
AcDbLine
 62
7
  6
CONTINUOUS
 10
81.6889460431
 20
194.9728446654
 11
81.6680863856
 21
195.5097046088
  0
LINE
  5
26F
100
AcDbEntity
  8
BEZUGSACHSEN
100
AcDbLine
 62
7
  6
CONTINUOUS
 10
84.9749102103
 20
196.2351233168
 11
84.9957698678
 21
195.6982633733
  0
LINE
  5
270
100
AcDbEntity
  8
BEZUGSACHSEN
100
AcDbLine
 62
7
  6
CONTINUOUS
 10
85.7151562743
 20
195.4229248112
 11
85.6734369593
 21
196.4966446981
  0
LINE
  5
271
100
AcDbEntity
  8
BEZUGSACHSEN
100
AcDbLine
 62
7
  6
CONTINUOUS
 10
87.1539330397
 20
194.8722532077
 11
87.1747926973
 21
194.3353932643
  0
LINE
  5
272
100
AcDbEntity
  8
BEZUGSACHSEN
100
AcDbLine
 62
7
  6
CONTINUOUS
 10
87.8941791037
 20
194.0600547022
 11
87.9021401365
 21
194.9281002508
  0
LINE
  5
273
100
AcDbEntity
  8
BEZUGSACHSEN
100
AcDbLine
 62
7
  6
CONTINUOUS
 10
100.4559616792
 20
205.7227150717
 11
100.666430347
 21
206.5424931537
  0
LINE
  5
274
100
AcDbEntity
  8
0
100
AcDbLine
 62
7
  6
CONTINUOUS
 10
146.4537629422
 20
94.6451351259
 11
147.3510074888
 21
94.0839534088
  0
LINE
  5
275
100
AcDbEntity
  8
0
100
AcDbLine
 62
7
  6
CONTINUOUS
 10
147.1026129368
 20
95.1123365908
 11
146.846257352
 21
95.2726742243
  0
LINE
  5
276
100
AcDbEntity
  8
0
100
AcDbLine
 62
7
  6
CONTINUOUS
 10
136.2580928674
 20
86.7631356126
 11
135.9031275346
 21
87.0819190336
  0
LINE
  5
277
100
AcDbEntity
  8
0
100
AcDbLine
 62
7
  6
CONTINUOUS
 10
133.6376588381
 20
81.2352771214
 11
134.0682113958
 21
80.7855618209
  0
LINE
  5
278
100
AcDbEntity
  8
0
100
AcDbLine
 62
7
  6
CONTINUOUS
 10
132.5861139015
 20
83.9450205149
 11
133.0166664592
 21
83.4953052144
  0
LINE
  5
279
100
AcDbEntity
  8
0
100
AcDbLine
 62
7
  6
CONTINUOUS
 10
129.1322463209
 20
78.3570113626
 11
125.206089251
 21
83.5821805676
  0
LINE
  5
27A
100
AcDbEntity
  8
0
100
AcDbLine
 62
7
  6
CONTINUOUS
 10
124.3634567344
 20
83.3013247886
 11
128.8573232787
 21
77.3092134893
  0
LINE
  5
27B
100
AcDbEntity
  8
BEZUGSACHSEN
100
AcDbLine
 62
7
  6
CONTINUOUS
 10
91.5048258811
 20
166.6526529975
 11
91.5048258811
 21
175.0163468583
  0
LINE
  5
27C
100
AcDbEntity
  8
BEZUGSACHSEN
100
AcDbLine
 62
7
  6
CONTINUOUS
 10
91.5802295147
 20
161.2895124281
 11
91.5802295147
 21
132.1594985017
  0
LINE
  5
27D
100
AcDbEntity
  8
RUNDUNGEN
100
AcDbLine
 62
7
  6
CONTINUOUS
 10
91.8064404153
 20
130.6513764491
 11
91.8064404153
 21
163.2196602852
  0
LINE
  5
27E
100
AcDbEntity
  8
BEZUGSACHSEN
100
AcDbLine
 62
7
  6
CONTINUOUS
 10
95.088475756
 20
208.2102488342
 11
95.1181213978
 21
208.7510689077
  0
LINE
  5
27F
100
AcDbEntity
  8
0
100
AcDbLine
 62
7
  6
CONTINUOUS
 10
148.591066277
 20
94.3559850161
 11
148.2065328999
 21
94.5964914663
  0
LINE
  5
280
100
AcDbEntity
  8
0
100
AcDbLine
 62
7
  6
CONTINUOUS
 10
150.168999559
 20
97.7341783403
 11
150.5535329362
 21
97.4936718901
  0
LINE
  5
281
100
AcDbEntity
  8
0
100
AcDbLine
 62
7
  6
CONTINUOUS
 10
151.0742033417
 20
98.0410392992
 11
150.4333142003
 21
98.4418834951
  0
LINE
  5
282
100
AcDbEntity
  8
0
100
AcDbLine
 62
7
  6
CONTINUOUS
 10
142.7610129093
 20
93.3178970408
 11
143.6877643137
 21
92.5407520482
  0
LINE
  5
283
100
AcDbEntity
  8
0
100
AcDbLine
 62
7
  6
CONTINUOUS
 10
143.4475725165
 20
93.9013368561
 11
147.9654846799
 21
90.1127557996
  0
LINE
  5
284
100
AcDbEntity
  8
0
100
AcDbLine
 62
7
  6
CONTINUOUS
 10
148.536200402
 20
90.793338705
 11
143.0915371587
 21
95.359064482
  0
LINE
  5
285
100
AcDbEntity
  8
0
100
AcDbLine
 62
7
  6
CONTINUOUS
 10
145.6350176369
 20
95.3318252372
 11
146.4537629422
 21
94.6451351259
  0
LINE
  5
286
100
AcDbEntity
  8
0
100
AcDbLine
 62
7
  6
CONTINUOUS
 10
120.9479143196
 20
76.547841277
 11
118.1874468132
 21
82.4721068502
  0
LINE
  5
287
100
AcDbEntity
  8
0
100
AcDbLine
 62
7
  6
CONTINUOUS
 10
117.3049439993
 20
82.3716165021
 11
120.4622076909
 21
75.5795682603
  0
LINE
  5
288
100
AcDbEntity
  8
BEZUGSACHSEN
100
AcDbLine
 62
7
  6
CONTINUOUS
 10
94.1977220114
 20
208.5688577594
 11
94.2436636473
 21
207.8971057147
  0
LINE
  5
289
100
AcDbEntity
  8
BEZUGSACHSEN
100
AcDbLine
 62
7
  6
CONTINUOUS
 10
102.7952168631
 20
213.925293517
 11
102.7950427832
 21
206.4352845509
  0
LINE
  5
28A
100
AcDbEntity
  8
BEZUGSACHSEN
100
AcDbLine
 62
7
  6
CONTINUOUS
 10
111.1371718567
 20
215.895425906
 11
109.5877539443
 21
208.5674291491
  0
LINE
  5
28B
100
AcDbEntity
  8
BEZUGSACHSEN
100
AcDbLine
 62
7
  6
CONTINUOUS
 10
110.4702567582
 20
208.6679194972
 11
111.8281355764
 21
215.061140012
  0
LINE
  5
28C
100
AcDbEntity
  8
BEZUGSACHSEN
100
AcDbLine
 62
7
  6
CONTINUOUS
 10
130.2926048182
 20
126.1995459251
 11
138.7798879629
 21
126.1995459251
  0
LINE
  5
28D
100
AcDbEntity
  8
BEZUGSACHSEN
100
AcDbLine
 62
7
  6
CONTINUOUS
 10
164.2723483887
 20
126.1995459251
 11
173.1808606139
 21
126.1995459251
  0
LINE
  5
28E
100
AcDbEntity
  8
RUNDUNGEN
100
AcDbLine
 62
7
  6
CONTINUOUS
 10
89.6167530384
 20
128.4616549312
 11
72.8831118482
 21
128.4616549312
  0
LINE
  5
28F
100
AcDbEntity
  8
BEZUGSACHSEN
100
AcDbLine
 62
7
  6
CONTINUOUS
 10
73.2601627108
 20
129.9697276019
 11
89.3905079968
 21
129.9697276019
  0
LINE
  5
290
100
AcDbEntity
  8
0
100
AcDbLine
 62
7
  6
CONTINUOUS
 10
146.846257352
 20
95.2726742243
 11
146.1556880424
 21
95.8791926463
  0
LINE
  5
291
100
AcDbEntity
  8
0
100
AcDbLine
 62
7
  6
CONTINUOUS
 10
132.2837647903
 20
84.4687483997
 11
132.5861139015
 21
83.9450205149
  0
LINE
  5
292
100
AcDbEntity
  8
0
100
AcDbLine
 62
7
  6
CONTINUOUS
 10
133.2797515604
 20
84.5200273935
 11
133.1285771107
 21
84.7818911525
  0
LINE
  5
293
100
AcDbEntity
  8
BEZUGSACHSEN
100
AcDbLine
 62
7
  6
CONTINUOUS
 10
80.9407389015
 20
194.9169976504
 11
81.2179541887
 21
194.2198000454
  0
LINE
  5
294
100
AcDbEntity
  8
BEZUGSACHSEN
100
AcDbLine
 62
7
  6
CONTINUOUS
 10
84.8755513115
 20
196.646474866
 11
84.9749102103
 21
196.2351233168
  0
LINE
  5
295
100
AcDbEntity
  8
BEZUGSACHSEN
100
AcDbLine
 62
7
  6
CONTINUOUS
 10
89.0882855823
 20
199.0682292408
 11
89.3284773796
 21
197.7076444328
  0
LINE
  5
296
100
AcDbEntity
  8
BEZUGSACHSEN
100
AcDbLine
 62
7
  6
CONTINUOUS
 10
90.2552284595
 20
196.9304997124
 11
90.0150369867
 21
198.2910842482
  0
LINE
  5
297
100
AcDbEntity
  8
0
100
AcDbLine
 62
7
  6
CONTINUOUS
 10
104.7004617499
 20
163.216344655
 11
104.7004617499
 21
152.1544906445
  0
LINE
  5
298
100
AcDbEntity
  8
0
100
AcDbLine
 62
7
  6
CONTINUOUS
 10
104.7004617499
 20
139.4544906445
 11
104.7004617499
 21
129.9411312532
  0
LINE
  5
299
100
AcDbEntity
  8
BEZUGSACHSEN
100
AcDbLine
 62
7
  6
CONTINUOUS
 10
103.6376752998
 20
206.71614033
 11
103.6438035752
 21
213.2519699264
  0
LINE
  5
29A
100
AcDbEntity
  8
0
100
AcDbLine
 62
7
  6
CONTINUOUS
 10
70.6934230252
 20
139.4544906445
 11
71.0704411929
 21
139.4544906445
  0
LINE
  5
29B
100
AcDbEntity
  8
0
100
AcDbLine
 62
7
  6
CONTINUOUS
 10
91.5802295147
 20
139.4544906445
 11
91.8064404153
 21
139.4544906445
  0
LINE
  5
29C
100
AcDbEntity
  8
0
100
AcDbLine
 62
7
  6
CONTINUOUS
 10
104.7004617499
 20
139.4544906445
 11
128.0755881461
 21
139.4544906445
  0
LINE
  5
29D
100
AcDbEntity
  8
0
100
AcDbLine
 62
7
  6
CONTINUOUS
 10
140.9696094808
 20
139.4544906445
 11
141.1958203814
 21
139.4544906445
  0
LINE
  5
29E
100
AcDbEntity
  8
0
100
AcDbLine
 62
7
  6
CONTINUOUS
 10
161.7056087032
 20
139.4544906445
 11
162.0826268708
 21
139.4544906445
  0
LINE
  5
29F
100
AcDbEntity
  8
0
100
AcDbLine
 62
7
  6
CONTINUOUS
 10
146.1556880424
 20
95.8791926463
 11
145.8496535475
 21
96.2452077153
  0
LINE
  5
2A0
100
AcDbEntity
  8
0
100
AcDbLine
 62
7
  6
CONTINUOUS
 10
148.2065328999
 20
94.5964914663
 11
147.9004985846
 21
94.962506423
  0
LINE
  5
2A1
100
AcDbEntity
  8
0
100
AcDbLine
 62
7
  6
CONTINUOUS
 10
145.1511250019
 20
95.9836834613
 11
145.6350176369
 21
95.3318252372
  0
LINE
  5
2A2
100
AcDbEntity
  8
0
100
AcDbLine
 62
7
  6
CONTINUOUS
 10
137.4608124655
 20
83.7915280933
 11
137.6875741401
 21
83.3987324548
  0
LINE
  5
2A3
100
AcDbEntity
  8
0
100
AcDbLine
 62
7
  6
CONTINUOUS
 10
138.5323862487
 20
83.7118755743
 11
138.1544501244
 21
84.3665349718
  0
LINE
  5
2A4
100
AcDbEntity
  8
BEZUGSACHSEN
100
AcDbLine
 62
7
  6
CONTINUOUS
 10
81.9164828241
 20
194.4813242433
 11
81.6889460431
 21
194.9728446654
  0
LINE
  5
2A5
100
AcDbEntity
  8
BEZUGSACHSEN
100
AcDbLine
 62
7
  6
CONTINUOUS
 10
87.9021401365
 20
194.9281002508
 11
87.6249248942
 21
195.6252978277
  0
LINE
  5
2A6
100
AcDbEntity
  8
T_STARTBEZUEGE
100
AcDbLine
 62
7
  6
CENTER
 10
116.388024948
 20
62.1094353639
 11
116.388024948
 21
229.4995459251
  0
LINE
  5
2A7
100
AcDbEntity
  8
BEZUGSACHSEN
100
AcDbLine
 62
7
  6
CENTER
 10
169.0604791183
 20
145.8044906445
 11
163.32230773
 21
145.8044906445
  0
LINE
  5
2A8
100
AcDbEntity
  8
BEZUGSACHSEN
100
AcDbLine
 62
7
  6
CENTER
 10
63.7155707778
 20
145.8044906445
 11
57.9773993895
 21
145.8044906445
  0
LINE
  5
2A9
100
AcDbEntity
  8
T_STARTBEZUEGE
100
AcDbLine
 62
7
  6
CENTER
 10
48.5379809285
 20
145.8044906445
 11
184.2380689676
 21
145.8044906445
  0
LINE
  5
2AA
100
AcDbEntity
  8
BEZUGSACHSEN
100
AcDbLine
 62
7
  6
CENTER
 10
63.7155707778
 20
145.8044906445
 11
69.4537421661
 21
145.8044906445
  0
LINE
  5
2AB
100
AcDbEntity
  8
BEZUGSACHSEN
100
AcDbLine
 62
7
  6
CENTER
 10
169.0604791183
 20
145.8044906445
 11
174.7986505065
 21
145.8044906445
  0
LINE
  5
2AC
100
AcDbEntity
  8
0
100
AcDbLine
 62
7
  6
CONTINUOUS
 10
150.5535329362
 20
97.4936718901
 11
150.859567072
 21
97.1276570457
  0
LINE
  5
2AD
100
AcDbEntity
  8
0
100
AcDbLine
 62
7
  6
CONTINUOUS
 10
151.5580957074
 20
97.3891812436
 11
151.0742033417
 21
98.0410392992
  0
LINE
  5
2AE
100
AcDbEntity
  8
BEZUGSACHSEN
100
AcDbLine
 62
7
  6
CONTINUOUS
 10
81.2179541887
 20
194.2198000454
 11
81.7018465544
 21
193.5679419898
  0
LINE
  5
2AF
100
AcDbEntity
  8
BEZUGSACHSEN
100
AcDbLine
 62
7
  6
CONTINUOUS
 10
86.9263963485
 20
195.3637735737
 11
87.1539330397
 21
194.8722532077
  0
LINE
  5
2B0
100
AcDbEntity
  8
0
100
AcDbLine
 62
7
  6
CONTINUOUS
 10
132.109619549
 20
85.0664881353
 11
132.2837647903
 21
84.4687483997
  0
LINE
  5
2B1
100
AcDbEntity
  8
BEZUGSACHSEN
100
AcDbLine
 62
7
  6
CONTINUOUS
 10
99.6474727854
 20
206.8270901365
 11
99.7460310135
 21
206.3602819137
  0
LINE
  5
2B2
100
AcDbEntity
  8
0
100
AcDbLine
 62
7
  6
CONTINUOUS
 10
70.6934230252
 20
152.1544906445
 11
71.0704411929
 21
152.1544906445
  0
LINE
  5
2B3
100
AcDbEntity
  8
0
100
AcDbLine
 62
7
  6
CONTINUOUS
 10
91.5802295147
 20
152.1544906445
 11
91.8064404153
 21
152.1544906445
  0
LINE
  5
2B4
100
AcDbEntity
  8
0
100
AcDbLine
 62
7
  6
CONTINUOUS
 10
104.7004617499
 20
152.1544906445
 11
128.0755881461
 21
152.1544906445
  0
LINE
  5
2B5
100
AcDbEntity
  8
0
100
AcDbLine
 62
7
  6
CONTINUOUS
 10
140.9696094808
 20
152.1544906445
 11
141.1958203814
 21
152.1544906445
  0
LINE
  5
2B6
100
AcDbEntity
  8
0
100
AcDbLine
 62
7
  6
CONTINUOUS
 10
161.7056087032
 20
152.1544906445
 11
162.0826268708
 21
152.1544906445
  0
LINE
  5
2B7
100
AcDbEntity
  8
BEZUGSACHSEN
100
AcDbLine
 62
7
  6
CONTINUOUS
 10
82.2225169599
 20
194.1153093989
 11
81.9164828241
 21
194.4813242433
  0
LINE
  5
2B8
100
AcDbEntity
  8
BEZUGSACHSEN
100
AcDbLine
 62
7
  6
CONTINUOUS
 10
87.6249248942
 20
195.6252978277
 11
87.1410322592
 21
196.2771560517
  0
LINE
  5
2B9
100
AcDbEntity
  8
0
100
AcDbLine
 62
7
  6
CONTINUOUS
 10
145.8496535475
 20
96.2452077153
 11
145.6221168563
 21
96.7367280812
  0
LINE
  5
2BA
100
AcDbEntity
  8
BEZUGSACHSEN
100
AcDbLine
 62
7
  6
CONTINUOUS
 10
100.666430347
 20
206.5424931537
 11
100.4922851058
 21
207.1402328892
  0
LINE
  5
2BB
100
AcDbEntity
  8
0
100
AcDbLine
 62
7
  6
CONTINUOUS
 10
133.1285771107
 20
84.7818911525
 11
133.0300188826
 21
85.2486993753
  0
LINE
  5
2BC
100
AcDbEntity
  8
BEZUGSACHSEN
100
AcDbLine
 62
7
  6
CONTINUOUS
 10
128.0755881461
 20
128.392636634
 11
128.0755881461
 21
139.4544906445
  0
LINE
  5
2BD
100
AcDbEntity
  8
BEZUGSACHSEN
100
AcDbLine
 62
7
  6
CONTINUOUS
 10
128.0755881461
 20
152.1544906445
 11
128.0755881461
 21
161.6678500357
  0
LINE
  5
2BE
100
AcDbEntity
  8
0
100
AcDbLine
 62
7
  6
CONTINUOUS
 10
129.980833033
 20
77.683687772
 11
129.9810071128
 21
85.1736967381
  0
LINE
  5
2BF
100
AcDbEntity
  8
0
100
AcDbLine
 62
7
  6
CONTINUOUS
 10
129.1383745962
 20
84.892840959
 11
129.1322463209
 21
78.3570113626
  0
LINE
  5
2C0
100
AcDbEntity
  8
BEZUGSACHSEN
100
AcDbLine
 62
7
  6
CONTINUOUS
 10
84.5695169961
 20
197.0124898227
 11
84.8755513115
 21
196.646474866
  0
LINE
  5
2C1
100
AcDbEntity
  8
BEZUGSACHSEN
100
AcDbLine
 62
7
  6
CONTINUOUS
 10
86.6203618536
 20
195.7297886427
 11
86.9263963485
 21
195.3637735737
  0
LINE
  5
2C2
100
AcDbEntity
  8
BEZUGSACHSEN
100
AcDbLine
 62
7
  6
CONTINUOUS
 10
94.2436636473
 20
207.8971057147
 11
94.6215997717
 21
207.2424463171
  0
LINE
  5
2C3
100
AcDbEntity
  8
BEZUGSACHSEN
100
AcDbLine
 62
7
  6
CONTINUOUS
 10
95.3152374306
 20
207.8174531957
 11
95.088475756
 21
208.2102488342
  0
LINE
  5
2C4
100
AcDbEntity
  8
0
100
AcDbLine
 62
7
  6
CONTINUOUS
 10
150.859567072
 20
97.1276570457
 11
151.0871038529
 21
96.6361366236
  0
LINE
  5
2C5
100
AcDbEntity
  8
0
100
AcDbLine
 62
7
  6
CONTINUOUS
 10
144.8739097596
 20
96.6808810382
 11
145.1511250019
 21
95.9836834613
  0
LINE
  5
2C6
100
AcDbEntity
  8
0
100
AcDbLine
 62
7
  6
CONTINUOUS
 10
138.5783278847
 20
83.0401235296
 11
138.5323862487
 21
83.7118755743
  0
LINE
  5
2C7
100
AcDbEntity
  8
0
100
AcDbLine
 62
7
  6
CONTINUOUS
 10
121.6388780394
 20
75.713555383
 11
123.1882959518
 21
83.0415521398
  0
LINE
  5
2C8
100
AcDbEntity
  8
0
100
AcDbLine
 62
7
  6
CONTINUOUS
 10
122.3057931379
 20
82.9410617918
 11
120.9479143196
 21
76.547841277
  0
LINE
  5
2C9
100
AcDbEntity
  8
0
100
AcDbLine
 62
7
  6
CONTINUOUS
 10
159.5158871853
 20
161.6392536871
 11
143.3855418993
 21
161.6392536871
  0
LINE
  5
2CA
100
AcDbEntity
  8
BEZUGSACHSEN
100
AcDbLine
 62
7
  6
CONTINUOUS
 10
143.1592968577
 20
163.1473263578
 11
159.8929380478
 21
163.1473263578
  0
LINE
  5
2CB
100
AcDbEntity
  8
BEZUGSACHSEN
100
AcDbLine
 62
7
  6
CONTINUOUS
 10
102.4834450779
 20
165.4094353639
 11
93.9961619332
 21
165.4094353639
  0
LINE
  5
2CC
100
AcDbEntity
  8
BEZUGSACHSEN
100
AcDbLine
 62
7
  6
CONTINUOUS
 10
68.5037015073
 20
165.4094353639
 11
59.5951892822
 21
165.4094353639
  0
LINE
  5
2CD
100
AcDbEntity
  8
BEZUGSACHSEN
100
AcDbLine
 62
7
  6
CONTINUOUS
 10
84.239849494
 20
200.815642584
 11
89.6845127373
 21
196.249916807
  0
LINE
  5
2CE
100
AcDbEntity
  8
BEZUGSACHSEN
100
AcDbLine
 62
7
  6
CONTINUOUS
 10
87.1410322592
 20
196.2771560517
 11
86.3222869539
 21
196.9638461631
  0
LINE
  5
2CF
100
AcDbEntity
  8
BEZUGSACHSEN
100
AcDbLine
 62
7
  6
CONTINUOUS
 10
85.929792544
 20
196.3363070647
 11
86.6203618536
 21
195.7297886427
  0
LINE
  5
2D0
100
AcDbEntity
  8
BEZUGSACHSEN
100
AcDbLine
 62
7
  6
CONTINUOUS
 10
99.4962983356
 20
207.0889538955
 11
99.6474727854
 21
206.8270901365
  0
LINE
  5
2D1
100
AcDbEntity
  8
BEZUGSACHSEN
100
AcDbLine
 62
7
  6
CONTINUOUS
 10
100.4922851058
 20
207.1402328892
 11
100.1899359945
 21
207.663960774
  0
LINE
  5
2D2
100
AcDbEntity
  8
0
100
AcDbLine
 62
7
  6
CONTINUOUS
 10
151.8353109945
 20
96.6919836386
 11
151.5580957074
 21
97.3891812436
  0
LINE
  5
2D3
100
AcDbEntity
  8
0
100
AcDbLine
 62
7
  6
CONTINUOUS
 10
147.9004985846
 20
94.962506423
 11
147.8011396857
 21
95.3738579722
  0
LINE
  5
2D4
100
AcDbEntity
  8
0
100
AcDbLine
 62
7
  6
CONTINUOUS
 10
142.5208214366
 20
94.6784815766
 11
142.7610129093
 21
93.3178970408
  0
LINE
  5
2D5
100
AcDbEntity
  8
0
100
AcDbLine
 62
7
  6
CONTINUOUS
 10
143.6877643137
 20
92.5407520482
 11
143.4475725165
 21
93.9013368561
  0
LINE
  5
2D6
100
AcDbEntity
  8
0
100
AcDbLine
 62
7
  6
CONTINUOUS
 10
145.6221168563
 20
96.7367280812
 11
145.6012571988
 21
97.2735880247
  0
LINE
  5
2D7
100
AcDbEntity
  8
BEZUGSACHSEN
100
AcDbLine
 62
7
  6
CONTINUOUS
 10
140.9696094808
 20
128.389267443
 11
140.9696094808
 21
160.9576048399
  0
LINE
  5
2D8
100
AcDbEntity
  8
BEZUGSACHSEN
100
AcDbLine
 62
7
  6
CONTINUOUS
 10
141.1958203814
 20
130.3194688609
 11
141.1958203814
 21
136.2060333048
  0
LINE
  5
2D9
100
AcDbEntity
  8
0
100
AcDbLine
 62
7
  6
CONTINUOUS
 10
141.1958203814
 20
136.2060333048
 11
141.1958203814
 21
153.9235146908
  0
LINE
  5
2DA
100
AcDbEntity
  8
RUNDUNGEN
100
AcDbLine
 62
7
  6
CONTINUOUS
 10
141.1958203814
 20
136.2060333048
 11
141.1958203814
 21
159.4494827873
  0
LINE
  5
2DB
100
AcDbEntity
  8
RUNDUNGEN
100
AcDbLine
 62
7
  6
CONTINUOUS
 10
141.2712240149
 20
124.9563282915
 11
141.2712240149
 21
116.5926344307
  0
LINE
  5
2DC
100
AcDbEntity
  8
0
100
AcDbLine
 62
7
  6
CONTINUOUS
 10
137.6875741401
 20
83.3987324548
 11
137.6579284982
 21
82.8579123812
  0
LINE
  5
2DD
100
AcDbEntity
  8
BEZUGSACHSEN
100
AcDbLine
 62
7
  6
CONTINUOUS
 10
81.7018465544
 20
193.5679419898
 11
82.3427356958
 21
193.1670977939
  0
LINE
  5
2DE
100
AcDbEntity
  8
BEZUGSACHSEN
100
AcDbLine
 62
7
  6
CONTINUOUS
 10
82.607050337
 20
193.8748029487
 11
82.2225169599
 21
194.1153093989
  0
LINE
  5
2DF
100
AcDbEntity
  8
BEZUGSACHSEN
100
AcDbLine
 62
7
  6
CONTINUOUS
 10
84.184983619
 20
197.2529962729
 11
84.5695169961
 21
197.0124898227
  0
LINE
  5
2E0
100
AcDbEntity
  8
BEZUGSACHSEN
100
AcDbLine
 62
7
  6
CONTINUOUS
 10
85.6734369593
 20
196.4966446981
 11
85.929792544
 21
196.3363070647
  0
LINE
  5
2E1
100
AcDbEntity
  8
BEZUGSACHSEN
100
AcDbLine
 62
7
  6
CONTINUOUS
 10
86.3222869539
 20
196.9638461631
 11
85.4250424072
 21
197.5250278802
  0
LINE
  5
2E2
100
AcDbEntity
  8
BEZUGSACHSEN
100
AcDbLine
 62
7
  6
CONTINUOUS
 10
89.3284773796
 20
197.7076444328
 11
84.8105652162
 21
201.4962254894
  0
LINE
  5
2E3
100
AcDbEntity
  8
BEZUGSACHSEN
100
AcDbLine
 62
7
  6
CONTINUOUS
 10
90.0150369867
 20
198.2910842482
 11
89.0882855823
 21
199.0682292408
  0
LINE
  5
2E4
100
AcDbEntity
  8
BEZUGSACHSEN
100
AcDbLine
 62
7
  6
CONTINUOUS
 10
111.8281355764
 20
215.061140012
 11
114.5886030828
 21
209.1368744388
  0
LINE
  5
2E5
100
AcDbEntity
  8
BEZUGSACHSEN
100
AcDbLine
 62
7
  6
CONTINUOUS
 10
115.4711058968
 20
209.2373647868
 11
112.3138422051
 21
216.0294130287
  0
LINE
  5
2E6
100
AcDbEntity
  8
0
100
AcDbLine
 62
7
  6
CONTINUOUS
 10
147.0608936217
 20
96.1860564777
 11
147.1026129368
 21
95.1123365908
  0
LINE
  5
2E7
100
AcDbEntity
  8
0
100
AcDbLine
 62
7
  6
CONTINUOUS
 10
147.8011396857
 20
95.3738579722
 11
147.7802800282
 21
95.9107179156
  0
LINE
  5
2E8
100
AcDbEntity
  8
0
100
AcDbLine
 62
7
  6
CONTINUOUS
 10
151.0871038529
 20
96.6361366236
 11
151.1079635105
 21
96.0992766802
  0
LINE
  5
2E9
100
AcDbEntity
  8
0
100
AcDbLine
 62
7
  6
CONTINUOUS
 10
144.8818707923
 20
97.5489265868
 11
144.8739097596
 21
96.6808810382
  0
LINE
  5
2EA
100
AcDbEntity
  8
0
100
AcDbLine
 62
7
  6
CONTINUOUS
 10
132.3200882168
 20
85.8862662173
 11
132.109619549
 21
85.0664881353
  0
LINE
  5
2EB
100
AcDbEntity
  8
BEZUGSACHSEN
100
AcDbLine
 62
7
  6
CONTINUOUS
 10
85.4250424072
 20
197.5250278802
 11
84.4492984398
 21
197.9607013154
  0
LINE
  5
2EC
100
AcDbEntity
  8
BEZUGSACHSEN
100
AcDbLine
 62
7
  6
CONTINUOUS
 10
96.5179570286
 20
204.8458456764
 11
96.8729223615
 21
204.5270622554
  0
LINE
  5
2ED
100
AcDbEntity
  8
BEZUGSACHSEN
100
AcDbLine
 62
7
  6
CONTINUOUS
 10
99.1413330028
 20
207.4077373165
 11
99.4962983356
 21
207.0889538955
  0
LINE
  5
2EE
100
AcDbEntity
  8
BEZUGSACHSEN
100
AcDbLine
 62
7
  6
CONTINUOUS
 10
100.1899359945
 20
207.663960774
 11
99.7593834368
 21
208.1136760745
  0
LINE
  5
2EF
100
AcDbEntity
  8
BEZUGSACHSEN
100
AcDbLine
 62
7
  6
CONTINUOUS
 10
99.138391058
 20
210.3737041675
 11
98.7078385002
 21
210.823419468
  0
LINE
  5
2F0
100
AcDbEntity
  8
BEZUGSACHSEN
100
AcDbLine
 62
7
  6
CONTINUOUS
 10
103.6438035752
 20
213.2519699264
 11
107.5699606451
 21
208.0268007214
  0
LINE
  5
2F1
100
AcDbEntity
  8
BEZUGSACHSEN
100
AcDbLine
 62
7
  6
CONTINUOUS
 10
108.4125931616
 20
208.3076565004
 11
103.9187266173
 21
214.2997677997
  0
LINE
  5
2F2
100
AcDbEntity
  8
0
100
AcDbLine
 62
7
  6
CONTINUOUS
 10
151.8273517922
 20
95.8239409416
 11
151.8353109945
 21
96.6919836386
  0
LINE
  5
2F3
100
AcDbEntity
  8
0
100
AcDbLine
 62
7
  6
CONTINUOUS
 10
145.6012571988
 20
97.2735880247
 11
145.7085753336
 21
97.7302791514
  0
LINE
  5
2F4
100
AcDbEntity
  8
0
100
AcDbLine
 62
7
  6
CONTINUOUS
 10
147.7802800282
 20
95.9107179156
 11
147.8875981631
 21
96.3674090424
  0
LINE
  5
2F5
100
AcDbEntity
  8
0
100
AcDbLine
 62
7
  6
CONTINUOUS
 10
138.3678592433
 20
82.2203454017
 11
138.5783278847
 21
83.0401235296
  0
LINE
  5
2F6
100
AcDbEntity
  8
0
100
AcDbLine
 62
7
  6
CONTINUOUS
 10
133.0300188826
 20
85.2486993753
 11
133.2634568747
 21
85.7326006339
  0
LINE
  5
2F7
100
AcDbEntity
  8
BEZUGSACHSEN
100
AcDbLine
 62
7
  6
CONTINUOUS
 10
82.3427356958
 20
193.1670977939
 11
83.1406213436
 21
193.017267626
  0
LINE
  5
2F8
100
AcDbEntity
  8
BEZUGSACHSEN
100
AcDbLine
 62
7
  6
CONTINUOUS
 10
84.8069330035
 20
191.9750727839
 11
85.2699656219
 21
191.8600747279
  0
LINE
  5
2F9
100
AcDbEntity
  8
BEZUGSACHSEN
100
AcDbLine
 62
7
  6
CONTINUOUS
 10
83.070083135
 20
193.7598047804
 11
82.607050337
 21
193.8748029487
  0
LINE
  5
2FA
100
AcDbEntity
  8
BEZUGSACHSEN
100
AcDbLine
 62
7
  6
CONTINUOUS
 10
83.7219510006
 20
197.3679943289
 11
84.184983619
 21
197.2529962729
  0
LINE
  5
2FB
100
AcDbEntity
  8
BEZUGSACHSEN
100
AcDbLine
 62
7
  6
CONTINUOUS
 10
97.5665600204
 20
205.102069134
 11
97.2871819124
 21
205.2899206755
  0
LINE
  5
2FC
100
AcDbEntity
  8
BEZUGSACHSEN
100
AcDbLine
 62
7
  6
CONTINUOUS
 10
94.6215997717
 20
207.2424463171
 11
95.1803560935
 21
206.8667430508
  0
LINE
  5
2FD
100
AcDbEntity
  8
BEZUGSACHSEN
100
AcDbLine
 62
7
  6
CONTINUOUS
 10
98.0142008413
 20
210.2484125895
 11
98.3691661742
 21
209.9296291685
  0
LINE
  5
2FE
100
AcDbEntity
  8
BEZUGSACHSEN
100
AcDbLine
 62
7
  6
CONTINUOUS
 10
161.7056087032
 20
136.7350388631
 11
161.7056087032
 21
134.1788995445
  0
LINE
  5
2FF
100
AcDbEntity
  8
RUNDUNGEN
100
AcDbLine
 62
7
  6
CONTINUOUS
 10
161.7056087032
 20
136.7350388631
 11
161.7056087032
 21
159.449482768
  0
LINE
  5
300
100
AcDbEntity
  8
BEZUGSACHSEN
100
AcDbLine
 62
7
  6
CONTINUOUS
 10
162.0826268708
 20
160.9576048399
 11
162.0826268708
 21
128.389267443
  0
LINE
  5
301
100
AcDbEntity
  8
0
100
AcDbLine
 62
7
  6
CONTINUOUS
 10
151.1079635105
 20
96.0992766802
 11
151.0006453756
 21
95.6425855534
  0
LINE
  5
302
100
AcDbEntity
  8
0
100
AcDbLine
 62
7
  6
CONTINUOUS
 10
145.1461856131
 20
98.2566316293
 11
144.8818707923
 21
97.5489265868
  0
LINE
  5
303
100
AcDbEntity
  8
0
100
AcDbLine
 62
7
  6
CONTINUOUS
 10
147.3252084425
 20
96.8937615202
 11
147.0608936217
 21
96.1860564777
  0
LINE
  5
304
100
AcDbEntity
  8
0
100
AcDbLine
 62
7
  6
CONTINUOUS
 10
137.6579284982
 20
82.8579123812
 11
137.424490559
 21
82.374011031
  0
LINE
  5
305
100
AcDbEntity
  8
0
100
AcDbLine
 62
7
  6
CONTINUOUS
 10
132.6817298672
 20
86.4441796934
 11
132.3200882168
 21
85.8862662173
  0
LINE
  5
306
100
AcDbEntity
  8
BEZUGSACHSEN
100
AcDbLine
 62
7
  6
CONTINUOUS
 10
85.2699656219
 20
191.8600747279
 11
86.0181727187
 21
191.9159217709
  0
LINE
  5
307
100
AcDbEntity
  8
BEZUGSACHSEN
100
AcDbLine
 62
7
  6
CONTINUOUS
 10
85.7409574764
 20
192.6131193478
 11
85.1994256167
 21
192.6026090096
  0
LINE
  5
308
100
AcDbEntity
  8
BEZUGSACHSEN
100
AcDbLine
 62
7
  6
CONTINUOUS
 10
84.4492984398
 20
197.9607013154
 11
83.6514127022
 21
198.1105315395
  0
LINE
  5
309
100
AcDbEntity
  8
BEZUGSACHSEN
100
AcDbLine
 62
7
  6
CONTINUOUS
 10
96.8729223615
 20
204.5270622554
 11
97.5598837029
 21
204.2253722369
  0
LINE
  5
30A
100
AcDbEntity
  8
BEZUGSACHSEN
100
AcDbLine
 62
7
  6
CONTINUOUS
 10
95.7984065275
 20
207.5726818088
 11
95.3152374306
 21
207.8174531957
  0
LINE
  5
30B
100
AcDbEntity
  8
BEZUGSACHSEN
100
AcDbLine
 62
7
  6
CONTINUOUS
 10
98.7078385002
 20
210.823419468
 11
97.9452898546
 21
211.2560415036
  0
LINE
  5
30C
100
AcDbEntity
  8
BEZUGSACHSEN
100
AcDbLine
 62
7
  6
CENTER
 10
169.0604791183
 20
145.8044906445
 11
169.0604791183
 21
140.0663192562
  0
LINE
  5
30D
100
AcDbEntity
  8
BEZUGSACHSEN
100
AcDbLine
 62
7
  6
CENTER
 10
169.0604791183
 20
145.8044906445
 11
169.0604791183
 21
151.5426620328
  0
LINE
  5
30E
100
AcDbEntity
  8
0
100
AcDbLine
 62
7
  6
CONTINUOUS
 10
151.5630351859
 20
95.1162330194
 11
151.8273517922
 21
95.8239409416
  0
LINE
  5
30F
100
AcDbEntity
  8
0
100
AcDbLine
 62
7
  6
CONTINUOUS
 10
145.4601807816
 20
98.7586623335
 11
145.1461856131
 21
98.2566316293
  0
LINE
  5
310
100
AcDbEntity
  8
0
100
AcDbLine
 62
7
  6
CONTINUOUS
 10
145.7085753336
 20
97.7302791514
 11
146.1795671881
 21
98.4833237714
  0
LINE
  5
311
100
AcDbEntity
  8
0
100
AcDbLine
 62
7
  6
CONTINUOUS
 10
147.5766242794
 20
99.0063722794
 11
147.9691168925
 21
99.6339085051
  0
LINE
  5
312
100
AcDbEntity
  8
0
100
AcDbLine
 62
7
  6
CONTINUOUS
 10
147.7177010557
 20
97.521297746
 11
147.3252084425
 21
96.8937615202
  0
LINE
  5
313
100
AcDbEntity
  8
0
100
AcDbLine
 62
7
  6
CONTINUOUS
 10
147.8875981631
 20
96.3674090424
 11
148.4370892588
 21
97.2459620565
  0
LINE
  5
314
100
AcDbEntity
  8
0
100
AcDbLine
 62
7
  6
CONTINUOUS
 10
151.0006453756
 20
95.6425855534
 11
150.4511542799
 21
94.7640325393
  0
LINE
  5
315
100
AcDbEntity
  8
0
100
AcDbLine
 62
7
  6
CONTINUOUS
 10
138.0062176128
 20
81.6624318913
 11
138.3678592433
 21
82.2203454017
  0
LINE
  5
316
100
AcDbEntity
  8
0
100
AcDbLine
 62
7
  6
CONTINUOUS
 10
143.0915371587
 20
95.359064482
 11
142.5208214366
 21
94.6784815766
  0
LINE
  5
317
100
AcDbEntity
  8
0
100
AcDbLine
 62
7
  6
CONTINUOUS
 10
133.2634568747
 20
85.7326006339
 11
133.5724820917
 21
86.0855700129
  0
LINE
  5
318
100
AcDbEntity
  8
0
100
AcDbLine
 62
7
  6
CONTINUOUS
 10
145.9808511871
 20
99.3060297425
 11
145.4601807816
 21
98.7586623335
  0
LINE
  5
319
100
AcDbEntity
  8
0
100
AcDbLine
 62
7
  6
CONTINUOUS
 10
148.2383732579
 20
98.0686680277
 11
147.7177010557
 21
97.521297746
  0
LINE
  5
31A
100
AcDbEntity
  8
0
100
AcDbLine
 62
7
  6
CONTINUOUS
 10
133.1189587425
 20
86.8711612899
 11
132.6817298672
 21
86.4441796934
  0
LINE
  5
31B
100
AcDbEntity
  8
0
100
AcDbLine
 62
7
  6
CONTINUOUS
 10
146.1795671881
 20
98.4833237714
 11
146.5432409077
 21
98.7796772646
  0
LINE
  5
31C
100
AcDbEntity
  8
0
100
AcDbLine
 62
7
  6
CONTINUOUS
 10
146.7578771774
 20
99.6930595181
 11
145.9808511871
 21
99.3060297425
  0
LINE
  5
31D
100
AcDbEntity
  8
0
100
AcDbLine
 62
7
  6
CONTINUOUS
 10
146.5432409077
 20
98.7796772646
 11
147.0350924197
 21
98.9958619411
  0
LINE
  5
31E
100
AcDbEntity
  8
BEZUGSACHSEN
100
AcDbLine
 62
7
  6
CONTINUOUS
 10
83.1406213436
 20
193.017267626
 11
83.7606506479
 21
193.1532834858
  0
LINE
  5
31F
100
AcDbEntity
  8
BEZUGSACHSEN
100
AcDbLine
 62
7
  6
CONTINUOUS
 10
83.4834354056
 20
193.8504810627
 11
83.070083135
 21
193.7598047804
  0
LINE
  5
320
100
AcDbEntity
  8
BEZUGSACHSEN
100
AcDbLine
 62
7
  6
CONTINUOUS
 10
83.6514127022
 20
198.1105315395
 11
82.9032055606
 21
198.0546845245
  0
LINE
  5
321
100
AcDbEntity
  8
BEZUGSACHSEN
100
AcDbLine
 62
7
  6
CONTINUOUS
 10
83.1804208478
 20
197.3574869195
 11
83.7219510006
 21
197.3679943289
  0
LINE
  5
322
100
AcDbEntity
  8
BEZUGSACHSEN
100
AcDbLine
 62
7
  6
CONTINUOUS
 10
97.5598837029
 20
204.2253722369
 11
98.2994614776
 21
204.1286263155
  0
LINE
  5
323
100
AcDbEntity
  8
BEZUGSACHSEN
100
AcDbLine
 62
7
  6
CONTINUOUS
 10
97.9741432538
 20
204.988230657
 11
97.5665600204
 21
205.102069134
  0
LINE
  5
324
100
AcDbEntity
  8
BEZUGSACHSEN
100
AcDbLine
 62
7
  6
CONTINUOUS
 10
95.1803560935
 20
206.8667430508
 11
95.9955225603
 21
206.6390660968
  0
LINE
  5
325
100
AcDbEntity
  8
BEZUGSACHSEN
100
AcDbLine
 62
7
  6
CONTINUOUS
 10
99.7593834368
 20
208.1136760745
 11
98.94421697
 21
208.3413530285
  0
LINE
  5
326
100
AcDbEntity
  8
0
100
AcDbLine
 62
7
  6
CONTINUOUS
 10
151.1705425728
 20
94.4886967937
 11
151.5630351859
 21
95.1162330194
  0
LINE
  5
327
100
AcDbEntity
  8
BEZUGSACHSEN
100
AcDbLine
 62
7
  6
CONTINUOUS
 10
174.9951708918
 20
127.1416793314
 11
180.2505565536
 21
134.647147889
  0
LINE
  5
328
100
AcDbEntity
  8
0
100
AcDbLine
 62
7
  6
CONTINUOUS
 10
147.9654846799
 20
90.1127557996
 11
148.536200402
 21
90.793338705
  0
LINE
  5
329
100
AcDbEntity
  8
0
100
AcDbLine
 62
7
  6
CONTINUOUS
 10
150.6498721561
 20
93.9413293917
 11
151.1705425728
 21
94.4886967937
  0
LINE
  5
32A
100
AcDbEntity
  8
0
100
AcDbLine
 62
7
  6
CONTINUOUS
 10
137.424490559
 20
82.374011031
 11
136.9872602166
 21
81.9470285874
  0
LINE
  5
32B
100
AcDbEntity
  8
0
100
AcDbLine
 62
7
  6
CONTINUOUS
 10
137.4407836188
 20
81.1614372187
 11
138.0062176128
 21
81.6624318913
  0
LINE
  5
32C
100
AcDbEntity
  8
0
100
AcDbLine
 62
7
  6
CONTINUOUS
 10
148.4370892588
 20
97.2459620565
 11
148.8007629784
 21
97.5423155498
  0
LINE
  5
32D
100
AcDbEntity
  8
0
100
AcDbLine
 62
7
  6
CONTINUOUS
 10
150.4511542799
 20
94.7640325393
 11
150.0874805603
 21
94.467679046
  0
LINE
  5
32E
100
AcDbEntity
  8
0
100
AcDbLine
 62
7
  6
CONTINUOUS
 10
133.759979968
 20
87.2412240715
 11
133.1189587425
 21
86.8711612899
  0
LINE
  5
32F
100
AcDbEntity
  8
0
100
AcDbLine
 62
7
  6
CONTINUOUS
 10
133.5724820917
 20
86.0855700129
 11
134.3417069755
 21
86.529645012
  0
LINE
  5
330
100
AcDbEntity
  8
0
100
AcDbLine
 62
7
  6
CONTINUOUS
 10
135.4888679836
 20
86.3190606135
 11
136.2580928674
 21
86.7631356126
  0
LINE
  5
331
100
AcDbEntity
  8
0
100
AcDbLine
 62
7
  6
CONTINUOUS
 10
135.3999283355
 20
84.6965983321
 11
134.6307034517
 21
84.2525233331
  0
LINE
  5
332
100
AcDbEntity
  8
0
100
AcDbLine
 62
7
  6
CONTINUOUS
 10
149.0153992481
 20
98.4556978032
 11
148.2383732579
 21
98.0686680277
  0
LINE
  5
333
100
AcDbEntity
  8
0
100
AcDbLine
 62
7
  6
CONTINUOUS
 10
149.8728443354
 20
93.5542967645
 11
150.6498721561
 21
93.9413293917
  0
LINE
  5
334
100
AcDbEntity
  8
0
100
AcDbLine
 62
7
  6
CONTINUOUS
 10
148.8007629784
 20
97.5423155498
 11
149.2926144904
 21
97.7585002263
  0
LINE
  5
335
100
AcDbEntity
  8
0
100
AcDbLine
 62
7
  6
CONTINUOUS
 10
150.0874805603
 20
94.467679046
 11
149.5956290483
 21
94.2514943695
  0
LINE
  5
336
100
AcDbEntity
  8
0
100
AcDbLine
 62
7
  6
CONTINUOUS
 10
134.4765884184
 20
87.4803549735
 11
133.759979968
 21
87.2412240715
  0
LINE
  5
337
100
AcDbEntity
  8
0
100
AcDbLine
 62
7
  6
CONTINUOUS
 10
129.9810071128
 20
85.1736967381
 11
129.1383745962
 21
84.892840959
  0
LINE
  5
338
100
AcDbEntity
  8
0
100
AcDbLine
 62
7
  6
CONTINUOUS
 10
125.206089251
 20
83.5821805676
 11
124.3634567344
 21
83.3013247886
  0
LINE
  5
339
100
AcDbEntity
  8
BEZUGSACHSEN
100
AcDbLine
 62
7
  6
CONTINUOUS
 10
98.4343429205
 20
205.079336277
 11
97.9741432538
 21
204.988230657
  0
LINE
  5
33A
100
AcDbEntity
  8
BEZUGSACHSEN
100
AcDbLine
 62
7
  6
CONTINUOUS
 10
95.9955225603
 20
206.6390660968
 11
96.6595131102
 21
206.6732520548
  0
LINE
  5
33B
100
AcDbEntity
  8
BEZUGSACHSEN
100
AcDbLine
 62
7
  6
CONTINUOUS
 10
96.3341934192
 20
207.5328555493
 11
95.7984065275
 21
207.5726818088
  0
LINE
  5
33C
100
AcDbEntity
  8
BEZUGSACHSEN
100
AcDbLine
 62
7
  6
CONTINUOUS
 10
98.6055461111
 20
207.447563576
 11
99.1413330028
 21
207.4077373165
  0
LINE
  5
33D
100
AcDbEntity
  8
BEZUGSACHSEN
100
AcDbLine
 62
7
  6
CONTINUOUS
 10
97.4028266719
 20
210.4191708202
 11
98.0142008413
 21
210.2484125895
  0
LINE
  5
33E
100
AcDbEntity
  8
BEZUGSACHSEN
100
AcDbLine
 62
7
  6
CONTINUOUS
 10
181.235149789
 20
159.6711301565
 11
181.235149789
 21
152.3736551981
  0
LINE
  5
33F
100
AcDbEntity
  8
BEZUGSACHSEN
100
AcDbLine
 62
7
  6
CONTINUOUS
 10
181.235149789
 20
139.2353260908
 11
181.235149789
 21
137.7698786769
  0
LINE
  5
340
100
AcDbEntity
  8
0
100
AcDbLine
 62
7
  6
CONTINUOUS
 10
135.0842268009
 20
83.466932056
 11
135.8534516847
 21
83.9110070551
  0
LINE
  5
341
100
AcDbEntity
  8
0
100
AcDbLine
 62
7
  6
CONTINUOUS
 10
134.4068837219
 20
81.6793521205
 11
133.6376588381
 21
81.2352771214
  0
LINE
  5
342
100
AcDbEntity
  8
0
100
AcDbLine
 62
7
  6
CONTINUOUS
 10
136.9872602166
 20
81.9470285874
 11
135.9616280163
 21
81.3549291534
  0
LINE
  5
343
100
AcDbEntity
  8
0
100
AcDbLine
 62
7
  6
CONTINUOUS
 10
136.4151514185
 20
80.5693377847
 11
137.4407836188
 21
81.1614372187
  0
LINE
  5
344
100
AcDbEntity
  8
0
100
AcDbLine
 62
7
  6
CONTINUOUS
 10
136.1165367859
 20
84.9357292342
 11
135.3999283355
 21
84.6965983321
  0
LINE
  5
345
100
AcDbEntity
  8
0
100
AcDbLine
 62
7
  6
CONTINUOUS
 10
135.6985429615
 20
80.3302068941
 11
136.4151514185
 21
80.5693377847
  0
LINE
  5
346
100
AcDbEntity
  8
0
100
AcDbLine
 62
7
  6
CONTINUOUS
 10
128.8573232787
 20
77.3092134893
 11
129.980833033
 21
77.683687772
  0
LINE
  5
347
100
AcDbEntity
  8
BEZUGSACHSEN
100
AcDbLine
 62
7
  6
CONTINUOUS
 10
96.9225982114
 20
207.6979742339
 11
96.3341934192
 21
207.5328555493
  0
LINE
  5
348
100
AcDbEntity
  8
BEZUGSACHSEN
100
AcDbLine
 62
7
  6
CONTINUOUS
 10
98.2802264201
 20
208.3071670705
 11
97.6918230951
 21
208.1420492329
  0
LINE
  5
349
100
AcDbEntity
  8
BEZUGSACHSEN
100
AcDbLine
 62
7
  6
CONTINUOUS
 10
96.8144218797
 20
210.2540521356
 11
97.4028266719
 21
210.4191708202
  0
LINE
  5
34A
100
AcDbEntity
  8
BEZUGSACHSEN
100
AcDbLine
 62
7
  6
CONTINUOUS
 10
98.1453464444
 20
207.3564579559
 11
98.6055461111
 21
207.447563576
  0
LINE
  5
34B
100
AcDbEntity
  8
BEZUGSACHSEN
100
AcDbLine
 62
7
  6
CONTINUOUS
 10
109.5877539443
 20
208.5674291491
 11
110.4702567582
 21
208.6679194972
  0
LINE
  5
34C
100
AcDbEntity
  8
BEZUGSACHSEN
100
AcDbLine
 62
7
  6
CONTINUOUS
 10
114.5886030828
 20
209.1368744388
 11
115.4711058968
 21
209.2373647868
  0
LINE
  5
34D
100
AcDbEntity
  8
BEZUGSACHSEN
100
AcDbLine
 62
7
  6
CONTINUOUS
 10
98.94421697
 20
208.3413530285
 11
98.2802264201
 21
208.3071670705
  0
LINE
  5
34E
100
AcDbEntity
  8
BEZUGSACHSEN
100
AcDbLine
 62
7
  6
CONTINUOUS
 10
97.9452898546
 20
211.2560415036
 11
97.0775069346
 21
211.2787743949
  0
LINE
  5
34F
100
AcDbEntity
  8
BEZUGSACHSEN
100
AcDbLine
 62
7
  6
CONTINUOUS
 10
154.9955043088
 20
205.0329576345
 11
179.5866454663
 21
165.4486804484
  0
LINE
  5
350
100
AcDbEntity
  8
BEZUGSACHSEN
100
AcDbLine
 62
7
  6
CONTINUOUS
 10
112.3138422051
 20
216.0294130287
 11
111.1371718567
 21
215.895425906
  0
LINE
  5
351
100
AcDbEntity
  8
BEZUGSACHSEN
100
AcDbLine
 62
7
  6
CONTINUOUS
 10
262.4636864753
 20
65.1094353639
 11
262.5889658904
 21
65.122602761
  0
LINE
  5
352
100
AcDbEntity
  8
AUSFORMSCHRAEGEN
100
AcDbLine
 62
7
  6
CONTINUOUS
 10
262.4636864753
 20
65.1094353639
 11
269.5134179798
 21
65.8503920025
  0
LINE
  5
353
100
AcDbEntity
  8
RUNDUNGEN
100
AcDbLine
 62
7
  6
CONTINUOUS
 10
262.5889658904
 20
65.122602761
 11
269.5134179798
 21
65.8503920025
  0
LINE
  5
354
100
AcDbEntity
  8
BEZUGSACHSEN
100
AcDbLine
 62
7
  6
CONTINUOUS
 10
262.4636864753
 20
65.1094353639
 11
255.4139549707
 21
65.8503920025
  0
LINE
  5
355
100
AcDbEntity
  8
BEZUGSACHSEN
100
AcDbLine
 62
8
  6
HIDDEN
 10
262.4636864753
 20
91.7094353639
 11
259.3996060454
 21
91.2241326999
  0
LINE
  5
356
100
AcDbEntity
  8
BEZUGSACHSEN
100
AcDbLine
 62
8
  6
HIDDEN
 10
262.4636864753
 20
91.7094353639
 11
265.5277669051
 21
91.2241326999
  0
LINE
  5
357
100
AcDbEntity
  8
BEZUGSACHSEN
100
AcDbLine
 62
7
  6
CONTINUOUS
 10
246.8246566494
 20
167.5016394999
 11
246.824688973
 21
167.5016836394
  0
LINE
  5
358
100
AcDbEntity
  8
BEZUGSACHSEN
100
AcDbLine
 62
7
  6
CONTINUOUS
 10
248.1519696154
 20
168.9016093494
 11
247.2612751377
 21
168.0109148718
  0
LINE
  5
359
100
AcDbEntity
  8
BEZUGSACHSEN
100
AcDbLine
 62
7
  6
CONTINUOUS
 10
247.2613229974
 20
123.5980185575
 11
248.1519607745
 21
122.7073807804
  0
LINE
  5
35A
100
AcDbEntity
  8
BEZUGSACHSEN
100
AcDbLine
 62
7
  6
CONTINUOUS
 10
245.9785664753
 20
164.9141807479
 11
245.9785664753
 21
155.750926257
  0
LINE
  5
35B
100
AcDbEntity
  8
RUNDUNGEN
100
AcDbLine
 62
7
  6
CONTINUOUS
 10
245.9785664753
 20
155.750926257
 11
245.9785664753
 21
154.6393613927
  0
LINE
  5
35C
100
AcDbEntity
  8
BEZUGSACHSEN
100
AcDbLine
 62
7
  6
CONTINUOUS
 10
245.9785664753
 20
154.6393613927
 11
245.9785664753
 21
126.6947997807
  0
LINE
  5
35D
100
AcDbEntity
  8
BEZUGSACHSEN
100
AcDbLine
 62
7
  6
CONTINUOUS
 10
252.3661538579
 20
192.5506287756
 11
249.3920582273
 21
171.3888387741
  0
LINE
  5
35E
100
AcDbEntity
  8
BEZUGSACHSEN
100
AcDbLine
 62
7
  6
CONTINUOUS
 10
249.3920590671
 20
120.2201365393
 11
252.3661534316
 21
99.0583555462
  0
LWPOLYLINE
  5
35F
100
AcDbEntity
  8
BEZUGSACHSEN
100
AcDbPolyline
 62
7
  6
CONTINUOUS
 90
6
 70
0
 10
252.4727050318
 20
169.0793889597
 10
252.4803181384
 20
168.8969523873
 10
252.5031045231
 20
168.7157843705
 10
252.5409057446
 20
168.5371446611
 10
252.5934589563
 20
168.3622754291
 10
252.6603987336
 20
168.1923926283
  0
LINE
  5
360
100
AcDbEntity
  8
BEZUGSACHSEN
100
AcDbLine
 62
7
  6
CONTINUOUS
 10
252.4727050318
 20
97.5345973336
 11
252.4727050318
 21
69.1169809939
  0
LINE
  5
361
100
AcDbEntity
  8
BEZUGSACHSEN
100
AcDbLine
 62
7
  6
CONTINUOUS
 10
252.4727050318
 20
169.0795825541
 11
252.4727050318
 21
222.4920002951
  0
LINE
  5
362
100
AcDbEntity
  8
T_STARTBEZUEGE
100
AcDbLine
 62
7
  6
CENTER
 10
262.4636864753
 20
229.4995459251
 11
262.4636864753
 21
62.1094353639
  0
LINE
  5
363
100
AcDbEntity
  8
BEZUGSACHSEN
100
AcDbLine
 62
7
  6
CONTINUOUS
 10
262.4636864753
 20
226.4995459251
 11
262.4636864753
 21
175.079305858
  0
LWPOLYLINE
  5
364
100
AcDbEntity
  8
BEZUGSACHSEN
100
AcDbPolyline
 62
7
  6
CONTINUOUS
 90
7
 70
0
 10
272.2199978198
 20
168.0931728944
 10
272.2669756469
 20
168.1924098116
 10
272.3339149678
 20
168.3622908193
 10
272.3864677843
 20
168.53715809
 10
272.4242686969
 20
168.7157956909
 10
272.4470548826
 20
168.8969614832
 10
272.4546679188
 20
169.0793957357
  0
LINE
  5
365
100
AcDbEntity
  8
T_STARTBEZUEGE
100
AcDbLine
 62
7
  6
CENTER
 10
282.3774419748
 20
145.8044906445
 11
242.9080707418
 21
145.8044906445
  0
LINE
  5
366
100
AcDbEntity
  8
BEZUGSACHSEN
100
AcDbLine
 62
7
  6
CONTINUOUS
 10
252.6603987336
 20
168.1923926283
 11
252.7073765865
 21
168.0931552499
  0
LINE
  5
367
100
AcDbEntity
  8
BEZUGSACHSEN
100
AcDbLine
 62
7
  6
CONTINUOUS
 10
272.4546679188
 20
222.4920002951
 11
272.4546679188
 21
169.0793930983
  0
LINE
  5
368
100
AcDbEntity
  8
RUNDUNGEN
100
AcDbLine
 62
7
  6
CONTINUOUS
 10
272.4546679188
 20
97.5345973336
 11
272.4546679188
 21
69.1169809939
  0
LINE
  5
369
100
AcDbEntity
  8
BEZUGSACHSEN
100
AcDbLine
 62
7
  6
CONTINUOUS
 10
278.9488064753
 20
164.9141807479
 11
278.9488064753
 21
155.750926257
  0
LINE
  5
36A
100
AcDbEntity
  8
RUNDUNGEN
100
AcDbLine
 62
7
  6
CONTINUOUS
 10
278.9488064753
 20
155.750926257
 11
278.9488064753
 21
126.6947997807
  0
LINE
  5
36B
100
AcDbEntity
  8
RUNDUNGEN
100
AcDbLine
 62
7
  6
CONTINUOUS
 10
275.5353138835
 20
120.2201365393
 11
272.5612195189
 21
99.0583555462
  0
LINE
  5
36C
100
AcDbEntity
  8
BEZUGSACHSEN
100
AcDbLine
 62
7
  6
CONTINUOUS
 10
272.5612190927
 20
192.5506287756
 11
275.5353147233
 21
171.3888387741
  0
LINE
  5
36D
100
AcDbEntity
  8
RUNDUNGEN
100
AcDbLine
 62
7
  6
CONTINUOUS
 10
277.6660499531
 20
123.5980185575
 11
276.775412176
 21
122.7073807804
  0
LINE
  5
36E
100
AcDbEntity
  8
BEZUGSACHSEN
100
AcDbLine
 62
7
  6
CONTINUOUS
 10
276.7754033351
 20
168.9016093494
 11
277.6660978128
 21
168.0109148718
  0
LINE
  5
36F
100
AcDbEntity
  8
BEZUGSACHSEN
100
AcDbLine
 62
7
  6
CONTINUOUS
 10
278.1027163011
 20
167.5016394999
 11
278.1026826118
 21
167.5016855044
  0
LINE
  5
370
100
AcDbEntity
  8
BEZUGSACHSEN
100
AcDbLine
 62
8
  6
HIDDEN
 10
262.4636864753
 20
199.8995459251
 11
265.5277669051
 21
200.3848485891
  0
LINE
  5
371
100
AcDbEntity
  8
BEZUGSACHSEN
100
AcDbLine
 62
8
  6
HIDDEN
 10
262.4636864753
 20
199.8995459251
 11
259.3996060454
 21
200.3848485891
  0
LINE
  5
372
100
AcDbEntity
  8
BEZUGSACHSEN
100
AcDbLine
 62
7
  6
CONTINUOUS
 10
262.4636864753
 20
226.4995459251
 11
255.4139549707
 21
225.7585892865
  0
LINE
  5
373
100
AcDbEntity
  8
BEZUGSACHSEN
100
AcDbLine
 62
7
  6
CONTINUOUS
 10
262.4636864753
 20
226.4995459251
 11
269.5134179798
 21
225.7585892865
  0
ARC
  5
374
100
AcDbEntity
  8
BEZUGSACHSEN
100
AcDbCircle
 62
7
  6
CONTINUOUS
 10
93.7518541605
 20
129.9411312532
 40
10.9486075894
100
AcDbArc
 50
319.4303027696
 51
360.0
  0
ARC
  5
375
100
AcDbEntity
  8
BEZUGSACHSEN
100
AcDbCircle
 62
7
  6
CONTINUOUS
 10
62.4895076965
 20
131.9378511325
 40
10.9486075894
100
AcDbArc
 50
180.0
 51
211.85
  0
ARC
  5
376
100
AcDbEntity
  8
BEZUGSACHSEN
100
AcDbCircle
 62
7
  6
CONTINUOUS
 10
89.3905079968
 20
132.1594491198
 40
2.1897215179
100
AcDbArc
 50
270.0
 51
360.0
  0
ARC
  5
377
100
AcDbEntity
  8
BEZUGSACHSEN
100
AcDbCircle
 62
7
  6
CONTINUOUS
 10
73.2601627108
 20
132.1594491198
 40
2.1897215179
100
AcDbArc
 50
180.0
 51
270.0
  0
ARC
  5
378
100
AcDbEntity
  8
RUNDUNGEN
100
AcDbCircle
 62
7
  6
CONTINUOUS
 10
72.8831445431
 20
130.6513764491
 40
2.1897215179
100
AcDbArc
 50
180.0
 51
269.9991445125
  0
ARC
  5
379
100
AcDbEntity
  8
BEZUGSACHSEN
100
AcDbCircle
 62
7
  6
CONTINUOUS
 10
72.8831445431
 20
130.6513764491
 40
2.1897215179
100
AcDbArc
 50
233.4233456835
 51
269.9991445125
  0
ARC
  5
37A
100
AcDbEntity
  8
RUNDUNGEN
100
AcDbCircle
 62
7
  6
CONTINUOUS
 10
89.6167188974
 20
130.6513764491
 40
2.1897215179
100
AcDbArc
 50
270.0008933251
 51
360.0
  0
ARC
  5
37B
100
AcDbEntity
  8
BEZUGSACHSEN
100
AcDbCircle
 62
7
  6
CONTINUOUS
 10
89.6167188974
 20
130.6513764491
 40
2.1897215179
100
AcDbArc
 50
270.0008933251
 51
306.5766543165
  0
ARC
  5
37C
100
AcDbEntity
  8
BEZUGSACHSEN
100
AcDbCircle
 62
7
  6
CONTINUOUS
 10
64.3815012366
 20
163.9013626931
 40
9.3069541127
100
AcDbArc
 50
315.9475377101
 51
76.2882731225
  0
ARC
  5
37D
100
AcDbEntity
  8
BEZUGSACHSEN
100
AcDbCircle
 62
7
  6
CONTINUOUS
 10
100.513181605
 20
163.9013626931
 40
9.3069541127
100
AcDbArc
 50
167.5279813677
 51
196.2980635084
  0
ARC
  5
37E
100
AcDbEntity
  8
BEZUGSACHSEN
100
AcDbCircle
 62
7
  6
CONTINUOUS
 10
56.9838986018
 20
153.8395177001
 40
5.4429985106
100
AcDbArc
 50
144.9956305717
 51
180.0043694283
  0
CIRCLE
  5
37F
100
AcDbEntity
  8
BEZUGSACHSEN
100
AcDbCircle
 62
7
  6
CONTINUOUS
 10
63.7155707778
 20
145.8044906445
 40
2.7381713883
  0
ARC
  5
380
100
AcDbEntity
  8
RUNDUNGEN
100
AcDbCircle
 62
7
  6
CONTINUOUS
 10
68.5037015073
 20
163.219713846
 40
2.1897215179
100
AcDbArc
 50
0.0
 51
90.0
  0
ARC
  5
381
100
AcDbEntity
  8
RUNDUNGEN
100
AcDbCircle
 62
7
  6
CONTINUOUS
 10
93.9961619332
 20
163.219713846
 40
2.1897215179
100
AcDbArc
 50
90.0
 51
180.0
  0
ARC
  5
382
100
AcDbEntity
  8
RUNDUNGEN
100
AcDbCircle
 62
7
  6
CONTINUOUS
 10
116.388024948
 20
116.5926344307
 40
51.4831990669
100
AcDbArc
 50
270.0
 51
359.9299327561
  0
ARC
  5
383
100
AcDbEntity
  8
BEZUGSACHSEN
100
AcDbCircle
 62
7
  6
CONTINUOUS
 10
116.388024948
 20
110.5603437479
 40
45.450908384
100
AcDbArc
 50
211.85
 51
270.0
  0
ARC
  5
384
100
AcDbEntity
  8
BEZUGSACHSEN
100
AcDbCircle
 62
7
  6
CONTINUOUS
 10
116.388024948
 20
116.5926344307
 40
24.8831990669
100
AcDbArc
 50
270.0
 51
360.0
  0
ARC
  5
385
100
AcDbEntity
  8
BEZUGSACHSEN
100
AcDbCircle
 62
7
  6
CONTINUOUS
 10
116.388024948
 20
110.5603437479
 40
18.850908384
100
AcDbArc
 50
139.4303027696
 51
270.0
  0
ARC
  5
386
100
AcDbEntity
  8
BEZUGSACHSEN
100
AcDbCircle
 62
7
  6
CONTINUOUS
 10
168.3945486594
 20
127.7076185959
 40
9.3069541127
100
AcDbArc
 50
135.9475377101
 51
256.2882731225
  0
ARC
  5
387
100
AcDbEntity
  8
BEZUGSACHSEN
100
AcDbCircle
 62
7
  6
CONTINUOUS
 10
132.2628682911
 20
127.7076185959
 40
9.3069541127
100
AcDbArc
 50
347.5279813677
 51
16.2980635084
  0
ARC
  5
388
100
AcDbEntity
  8
RUNDUNGEN
100
AcDbCircle
 62
7
  6
CONTINUOUS
 10
132.2628682911
 20
127.7076185959
 40
9.3069541127
100
AcDbArc
 50
347.5279813677
 51
16.2980635084
  0
ARC
  5
389
100
AcDbEntity
  8
BEZUGSACHSEN
100
AcDbCircle
 62
7
  6
CONTINUOUS
 10
175.7921512943
 20
137.7694635889
 40
5.4429985106
100
AcDbArc
 50
324.9956305717
 51
0.0043694283
  0
ARC
  5
38A
100
AcDbEntity
  8
BEZUGSACHSEN
100
AcDbCircle
 62
7
  6
CONTINUOUS
 10
164.2723483887
 20
128.389267443
 40
2.1897215179
100
AcDbArc
 50
180.0
 51
270.0
  0
ARC
  5
38B
100
AcDbEntity
  8
BEZUGSACHSEN
100
AcDbCircle
 62
7
  6
CONTINUOUS
 10
138.7798879629
 20
128.389267443
 40
2.1897215179
100
AcDbArc
 50
270.0
 51
360.0
  0
ARC
  5
38C
100
AcDbEntity
  8
BEZUGSACHSEN
100
AcDbCircle
 62
7
  6
CONTINUOUS
 10
116.388024948
 20
175.0163468583
 40
51.4831990669
100
AcDbArc
 50
90.0
 51
179.9299327561
  0
ARC
  5
38D
100
AcDbEntity
  8
BEZUGSACHSEN
100
AcDbCircle
 62
7
  6
CONTINUOUS
 10
116.388024948
 20
181.0486375411
 40
45.450908384
100
AcDbArc
 50
31.85
 51
90.0
  0
ARC
  5
38E
100
AcDbEntity
  8
BEZUGSACHSEN
100
AcDbCircle
 62
7
  6
CONTINUOUS
 10
116.388024948
 20
175.0163468583
 40
24.8831990669
100
AcDbArc
 50
90.0
 51
180.0
  0
ARC
  5
38F
100
AcDbEntity
  8
BEZUGSACHSEN
100
AcDbCircle
 62
7
  6
CONTINUOUS
 10
116.388024948
 20
181.0486375411
 40
18.850908384
100
AcDbArc
 50
319.4303027696
 51
90.0
  0
ARC
  5
390
100
AcDbEntity
  8
BEZUGSACHSEN
100
AcDbCircle
 62
7
  6
CONTINUOUS
 10
170.2865421996
 20
159.6711301565
 40
10.9486075894
100
AcDbArc
 50
0.0
 51
31.85
  0
ARC
  5
391
100
AcDbEntity
  8
BEZUGSACHSEN
100
AcDbCircle
 62
7
  6
CONTINUOUS
 10
139.0241957355
 20
161.6678500357
 40
10.9486075894
100
AcDbArc
 50
139.4303027696
 51
180.0
  0
CIRCLE
  5
392
100
AcDbEntity
  8
BEZUGSACHSEN
100
AcDbCircle
 62
7
  6
CONTINUOUS
 10
169.0604791183
 20
145.8044906445
 40
2.7381713883
  0
ARC
  5
393
100
AcDbEntity
  8
RUNDUNGEN
100
AcDbCircle
 62
7
  6
CONTINUOUS
 10
143.3855418993
 20
159.4495321692
 40
2.1897215179
100
AcDbArc
 50
90.0
 51
180.0
  0
ARC
  5
394
100
AcDbEntity
  8
RUNDUNGEN
100
AcDbCircle
 62
7
  6
CONTINUOUS
 10
159.5158871853
 20
159.4495321692
 40
2.1897215179
100
AcDbArc
 50
0.0
 51
90.0
  0
ARC
  5
395
100
AcDbEntity
  8
BEZUGSACHSEN
100
AcDbCircle
 62
7
  6
CONTINUOUS
 10
143.1593309986
 20
160.9576048399
 40
2.1897215179
100
AcDbArc
 50
90.0008933251
 51
180.0
  0
ARC
  5
396
100
AcDbEntity
  8
BEZUGSACHSEN
100
AcDbCircle
 62
7
  6
CONTINUOUS
 10
159.892905353
 20
160.9576048399
 40
2.1897215179
100
AcDbArc
 50
0.0
 51
89.9991445125
  0
ARC
  5
397
100
AcDbEntity
  8
BEZUGSACHSEN
100
AcDbCircle
 62
7
  6
CONTINUOUS
 10
241.5240974423
 20
97.5346002929
 40
10.9486075894
100
AcDbArc
 50
359.9999845135
 51
8.0000189394
  0
ARC
  5
398
100
AcDbEntity
  8
BEZUGSACHSEN
100
AcDbCircle
 62
8
  6
HIDDEN
 10
260.6841607238
 20
83.1137736535
 40
8.2114556921
100
AcDbArc
 50
99.0
 51
180.0
  0
ARC
  5
399
100
AcDbEntity
  8
BEZUGSACHSEN
100
AcDbCircle
 62
7
  6
CONTINUOUS
 10
245.0552362284
 20
119.6106375897
 40
4.3794430358
100
AcDbArc
 50
7.9999773001
 51
45.0001724812
  0
ARC
  5
39A
100
AcDbEntity
  8
BEZUGSACHSEN
100
AcDbCircle
 62
7
  6
CONTINUOUS
 10
250.358009511
 20
126.6947997807
 40
4.3794430358
100
AcDbArc
 50
180.0
 51
224.9999906585
  0
ARC
  5
39B
100
AcDbEntity
  8
BEZUGSACHSEN
100
AcDbCircle
 62
7
  6
CONTINUOUS
 10
255.7572873086
 20
69.1169809939
 40
3.2845822768
100
AcDbArc
 50
180.0
 51
264.0
  0
ARC
  5
39C
100
AcDbEntity
  8
BEZUGSACHSEN
100
AcDbCircle
 62
7
  6
CONTINUOUS
 10
244.3978462911
 20
163.9013626931
 40
9.3069541127
100
AcDbArc
 50
356.5012655482
 51
26.8195688436
  0
ARC
  5
39D
100
AcDbEntity
  8
BEZUGSACHSEN
100
AcDbCircle
 62
7
  6
CONTINUOUS
 10
250.358009511
 20
164.9141815082
 40
4.3794430358
100
AcDbArc
 50
134.9991238413
 51
180.0000099481
  0
ARC
  5
39E
100
AcDbEntity
  8
BEZUGSACHSEN
100
AcDbCircle
 62
7
  6
CONTINUOUS
 10
245.0552362284
 20
171.9983436992
 40
4.3794430358
100
AcDbArc
 50
314.9999910932
 51
351.9999437536
  0
ARC
  5
39F
100
AcDbEntity
  8
BEZUGSACHSEN
100
AcDbCircle
 62
7
  6
CONTINUOUS
 10
249.0330021879
 20
165.8844782551
 40
2.7371518974
100
AcDbArc
 50
143.7848541601
 51
143.900076556
  0
ARC
  5
3A0
100
AcDbEntity
  8
RUNDUNGEN
100
AcDbCircle
 62
7
  6
CONTINUOUS
 10
248.1682879932
 20
155.750926257
 40
2.1897215179
100
AcDbArc
 50
145.1706208901
 51
180.0
  0
ARC
  5
3A1
100
AcDbEntity
  8
BEZUGSACHSEN
100
AcDbCircle
 62
7
  6
CONTINUOUS
 10
241.5240974423
 20
194.0743809961
 40
10.9486075894
100
AcDbArc
 50
351.9999970878
 51
0.0000490893
  0
ARC
  5
3A2
100
AcDbEntity
  8
BEZUGSACHSEN
100
AcDbCircle
 62
8
  6
HIDDEN
 10
260.6841607238
 20
208.4952076355
 40
8.2114556921
100
AcDbArc
 50
180.0
 51
261.0
  0
ARC
  5
3A3
100
AcDbEntity
  8
BEZUGSACHSEN
100
AcDbCircle
 62
7
  6
CONTINUOUS
 10
255.7572873086
 20
222.4920002951
 40
3.2845822768
100
AcDbArc
 50
96.0
 51
180.0
  0
ARC
  5
3A4
100
AcDbEntity
  8
RUNDUNGEN
100
AcDbCircle
 62
7
  6
CONTINUOUS
 10
283.4032755082
 20
97.5346002929
 40
10.9486075894
100
AcDbArc
 50
171.9999810606
 51
180.0000154865
  0
ARC
  5
3A5
100
AcDbEntity
  8
RUNDUNGEN
100
AcDbCircle
 62
8
  6
HIDDEN
 10
264.2432122267
 20
83.1137736535
 40
8.2114556921
100
AcDbArc
 50
0.0
 51
81.0
  0
ARC
  5
3A6
100
AcDbEntity
  8
RUNDUNGEN
100
AcDbCircle
 62
7
  6
CONTINUOUS
 10
279.8721367222
 20
119.6106375897
 40
4.3794430358
100
AcDbArc
 50
134.9998275188
 51
172.0000226999
  0
ARC
  5
3A7
100
AcDbEntity
  8
RUNDUNGEN
100
AcDbCircle
 62
7
  6
CONTINUOUS
 10
274.5693634395
 20
126.6947997807
 40
4.3794430358
100
AcDbArc
 50
315.0000093415
 51
360.0
  0
ARC
  5
3A8
100
AcDbEntity
  8
RUNDUNGEN
100
AcDbCircle
 62
7
  6
CONTINUOUS
 10
269.170085642
 20
69.1169809939
 40
3.2845822768
100
AcDbArc
 50
276.0
 51
360.0
  0
ARC
  5
3A9
100
AcDbEntity
  8
RUNDUNGEN
100
AcDbCircle
 62
7
  6
CONTINUOUS
 10
262.4636864753
 20
145.8044906445
 40
19.6049447194
100
AcDbArc
 50
34.8293791099
 51
145.1706208901
  0
CIRCLE
  5
3AA
100
AcDbEntity
  8
0
100
AcDbCircle
 62
7
  6
CONTINUOUS
 10
262.4636864753
 20
145.8044906445
 40
6.5691645537
  0
ARC
  5
3AB
100
AcDbEntity
  8
BEZUGSACHSEN
100
AcDbCircle
 62
8
  6
HIDDEN
 10
264.2432122267
 20
208.4952076355
 40
8.2114556921
100
AcDbArc
 50
279.0
 51
360.0
  0
ARC
  5
3AC
100
AcDbEntity
  8
BEZUGSACHSEN
100
AcDbCircle
 62
7
  6
CONTINUOUS
 10
269.170085642
 20
222.4920002951
 40
3.2845822768
100
AcDbArc
 50
0.0
 51
84.0
  0
ARC
  5
3AD
100
AcDbEntity
  8
BEZUGSACHSEN
100
AcDbCircle
 62
7
  6
CONTINUOUS
 10
280.5295266595
 20
163.9013626931
 40
9.3069541127
100
AcDbArc
 50
153.226178041
 51
183.5056530348
  0
ARC
  5
3AE
100
AcDbEntity
  8
BEZUGSACHSEN
100
AcDbCircle
 62
7
  6
CONTINUOUS
 10
274.5693634395
 20
164.9141815082
 40
4.3794430358
100
AcDbArc
 50
359.9999900519
 51
45.0008761587
  0
ARC
  5
3AF
100
AcDbEntity
  8
BEZUGSACHSEN
100
AcDbCircle
 62
7
  6
CONTINUOUS
 10
279.8721367222
 20
171.9983436992
 40
4.3794430358
100
AcDbArc
 50
188.0000562464
 51
225.0000089068
  0
ARC
  5
3B0
100
AcDbEntity
  8
BEZUGSACHSEN
100
AcDbCircle
 62
7
  6
CONTINUOUS
 10
275.8943707626
 20
165.8844782551
 40
2.7371518974
100
AcDbArc
 50
36.0999234439
 51
36.2151458399
  0
ARC
  5
3B1
100
AcDbEntity
  8
RUNDUNGEN
100
AcDbCircle
 62
7
  6
CONTINUOUS
 10
276.7590830648
 20
155.7509293548
 40
2.189721545
100
AcDbArc
 50
359.9999189446
 51
34.8292842921
  0
ARC
  5
3B2
100
AcDbEntity
  8
BEZUGSACHSEN
100
AcDbCircle
 62
7
  6
CONTINUOUS
 10
283.4032755082
 20
194.0743809961
 40
10.9486075894
100
AcDbArc
 50
181.4694981466
 51
188.0000029122
  0
SPLINE
  5
3B3
100
AcDbEntity
  8
BEZUGSACHSEN
100
AcDbSpline
 62
7
  6
CONTINUOUS
 70
0
 71
3
 72
8
 73
4
 74
0
 42
0.0000001
 43
0.0000001
 44
0.0000000001
 40
0.0
 40
0.0
 40
0.0
 40
0.0
 40
1.0
 40
1.0
 40
1.0
 40
1.0
 10
91.4258587567
 20
165.9113181059
 30
0.0
 10
91.4796951513
 20
166.1539261601
 30
0.0
 10
91.5048259633
 20
166.4041433893
 30
0.0
 10
91.5048258811
 20
166.6526529975
 30
0.0
  0
SPLINE
  5
3B4
100
AcDbEntity
  8
BEZUGSACHSEN
100
AcDbSpline
 62
7
  6
CONTINUOUS
 70
0
 71
3
 72
11
 73
7
 74
0
 42
0.0000001
 43
0.0000001
 44
0.0000000001
 40
0.0
 40
0.0
 40
0.0
 40
0.0
 40
0.250010631
 40
0.5000175033
 40
0.7500145996
 40
1.0
 40
1.0
 40
1.0
 40
1.0
 10
66.5875936312
 20
172.943074434
 30
0.0
 10
66.3513542694
 20
173.000713271
 30
0.0
 10
65.8945147294
 20
173.1960880187
 30
0.0
 10
65.3444984233
 20
173.6949778823
 30
0.0
 10
64.9868756359
 20
174.3458859804
 30
0.0
 10
64.9045670352
 20
174.8361613557
 30
0.0
 10
64.9048643775
 20
175.079305858
 30
0.0
  0
SPLINE
  5
3B5
100
AcDbEntity
  8
BEZUGSACHSEN
100
AcDbSpline
 62
7
  6
CONTINUOUS
 70
0
 71
3
 72
11
 73
7
 74
0
 42
0.0000001
 43
0.0000001
 44
0.0000000001
 40
0.0
 40
0.0
 40
0.0
 40
0.0
 40
0.2500139961
 40
0.5000034845
 40
0.7499908137
 40
1.0
 40
1.0
 40
1.0
 40
1.0
 10
173.1808606139
 20
126.1995462073
 30
0.0
 10
173.3575218168
 20
126.1995459072
 30
0.0
 10
173.7122693531
 20
126.242061389
 30
0.0
 10
174.2130347451
 20
126.4299459671
 30
0.0
 10
174.6551052659
 20
126.7310552233
 30
0.0
 10
174.8938439887
 20
126.9969698344
 30
0.0
 10
174.9951708918
 20
127.1416793314
 30
0.0
  0
SPLINE
  5
3B6
100
AcDbEntity
  8
BEZUGSACHSEN
100
AcDbSpline
 62
7
  6
CONTINUOUS
 70
0
 71
3
 72
15
 73
11
 74
0
 42
0.0000001
 43
0.0000001
 44
0.0000000001
 40
0.0
 40
0.0
 40
0.0
 40
0.0
 40
0.1250047631
 40
0.2500010338
 40
0.3750036572
 40
0.5000036904
 40
0.6250030325
 40
0.7500039506
 40
0.8749974339
 40
1.0
 40
1.0
 40
1.0
 40
1.0
 10
130.2926048181
 20
126.1995489222
 30
0.0
 10
130.1485234359
 20
126.1995487696
 30
0.0
 10
129.8595938406
 20
126.2275334218
 30
0.0
 10
129.4429742251
 20
126.3520131362
 30
0.0
 10
129.0580001547
 20
126.5545266937
 30
0.0
 10
128.7195809601
 20
126.8278129151
 30
0.0
 10
128.4408448517
 20
127.1617987777
 30
0.0
 10
128.2329930057
 20
127.5440239036
 30
0.0
 10
128.1045647369
 20
127.9595848963
 30
0.0
 10
128.0755881723
 20
128.248557784
 30
0.0
 10
128.0755881461
 20
128.392636634
 30
0.0
  0
SPLINE
  5
3B7
100
AcDbEntity
  8
RUNDUNGEN
100
AcDbSpline
 62
7
  6
CONTINUOUS
 70
0
 71
3
 72
15
 73
11
 74
0
 42
0.0000001
 43
0.0000001
 44
0.0000000001
 40
0.0
 40
0.0
 40
0.0
 40
0.0
 40
0.1250047631
 40
0.2500010338
 40
0.3750036572
 40
0.5000036904
 40
0.6250030325
 40
0.7500039506
 40
0.8749974339
 40
1.0
 40
1.0
 40
1.0
 40
1.0
 10
102.4834450779
 20
165.4094323668
 30
0.0
 10
102.6275264601
 20
165.4094325194
 30
0.0
 10
102.9164560554
 20
165.3814478672
 30
0.0
 10
103.3330756709
 20
165.2569681528
 30
0.0
 10
103.7180497414
 20
165.0544545953
 30
0.0
 10
104.0564689359
 20
164.7811683739
 30
0.0
 10
104.3352050444
 20
164.4471825113
 30
0.0
 10
104.5430568903
 20
164.0649573853
 30
0.0
 10
104.6714851591
 20
163.6493963927
 30
0.0
 10
104.7004617237
 20
163.360423505
 30
0.0
 10
104.7004617499
 20
163.216344655
 30
0.0
  0
SPLINE
  5
3B8
100
AcDbEntity
  8
RUNDUNGEN
100
AcDbSpline
 62
7
  6
CONTINUOUS
 70
0
 71
3
 72
11
 73
7
 74
0
 42
0.0000001
 43
0.0000001
 44
0.0000000001
 40
0.0
 40
0.0
 40
0.0
 40
0.0
 40
0.2500139961
 40
0.5000034845
 40
0.7499908137
 40
1.0
 40
1.0
 40
1.0
 40
1.0
 10
59.5951892822
 20
165.4094350817
 30
0.0
 10
59.4185280793
 20
165.4094353818
 30
0.0
 10
59.0637805429
 20
165.3669198999
 30
0.0
 10
58.563015151
 20
165.1790353219
 30
0.0
 10
58.1209446302
 20
164.8779260657
 30
0.0
 10
57.8822059073
 20
164.6120114546
 30
0.0
 10
57.7808790043
 20
164.4673019575
 30
0.0
  0
SPLINE
  5
3B9
100
AcDbEntity
  8
RUNDUNGEN
100
AcDbSpline
 62
7
  6
CONTINUOUS
 70
0
 71
3
 72
11
 73
7
 74
0
 42
0.0000001
 43
0.0000001
 44
0.0000000001
 40
0.0
 40
0.0
 40
0.0
 40
0.0
 40
0.250010631
 40
0.5000175033
 40
0.7500145996
 40
1.0
 40
1.0
 40
1.0
 40
1.0
 10
166.1884562648
 20
118.665906855
 30
0.0
 10
166.4246956267
 20
118.608268018
 30
0.0
 10
166.8815351666
 20
118.4128932702
 30
0.0
 10
167.4315514727
 20
117.9140034067
 30
0.0
 10
167.7891742601
 20
117.2630953085
 30
0.0
 10
167.8714828608
 20
116.7728199333
 30
0.0
 10
167.8711855185
 20
116.529675431
 30
0.0
  0
SPLINE
  5
3BA
100
AcDbEntity
  8
RUNDUNGEN
100
AcDbSpline
 62
7
  6
CONTINUOUS
 70
0
 71
3
 72
8
 73
4
 74
0
 42
0.0000001
 43
0.0000001
 44
0.0000000001
 40
0.0
 40
0.0
 40
0.0
 40
0.0
 40
1.0
 40
1.0
 40
1.0
 40
1.0
 10
141.3501911393
 20
125.6976631831
 30
0.0
 10
141.2963547448
 20
125.4550551289
 30
0.0
 10
141.2712239327
 20
125.2048378997
 30
0.0
 10
141.2712240149
 20
124.9563282915
 30
0.0
  0
LINE
  5
3BB
100
AcDbEntity
  8
BEZUGSACHSEN
100
AcDbLine
 62
7
  6
CONTINUOUS
 10
262.4636864751
 20
172.943074434
 11
262.4636864753
 21
175.079305858
  0
ELLIPSE
  5
3BC
100
AcDbEntity
  8
0
100
AcDbEllipse
 62
7
  6
CONTINUOUS
 10
51.5409001071
 20
145.8044906445
 30
0.0
 11
0.0
 21
6.5691645537
 31
0.0
 40
0.1051042353
 41
3.1415926536
 42
6.2831853072
  0
ELLIPSE
  5
3BD
100
AcDbEntity
  8
BEZUGSACHSEN
100
AcDbEllipse
 62
7
  6
CONTINUOUS
 10
181.235149789
 20
145.8044906445
 30
0.0
 11
-0.0
 21
6.5691645537
 31
0.0
 40
0.1051042353
 41
0.0
 42
3.1415926536
  0
ELLIPSE
  5
3BE
100
AcDbEntity
  8
BEZUGSACHSEN
100
AcDbEllipse
 62
7
  6
CONTINUOUS
 10
128.0755881461
 20
145.8044906445
 30
0.0
 11
0.0
 21
6.35
 31
0.0
 40
0.1583844403
 41
-3.1415926536
 42
-0.0
  0
ELLIPSE
  5
3BF
100
AcDbEntity
  8
0
100
AcDbEllipse
 62
7
  6
CONTINUOUS
 10
104.7004617499
 20
145.8044906445
 30
0.0
 11
0.0
 21
6.35
 31
0.0
 40
0.1583844403
 41
-0.0
 42
3.1415926536
  0
ENDSEC
  0
SECTION
  2
OBJECTS
  0
DICTIONARY
  5
C
100
AcDbDictionary
280
0
281
1
  3
ACAD_GROUP
350
D
  3
ACAD_MLINESTYLE
350
17
  3
ACAD_LAYOUT
350
1A
  3
ACAD_PLOTSETTINGS
350
19
  3
ACAD_PLOTSTYLENAME
350
E
  0
DICTIONARY
  5
D
102
{ACAD_REACTORS
330
C
102
}
100
AcDbDictionary
280
0
281
1
  0
ACDBDICTIONARYWDFLT
  5
E
102
{ACAD_REACTORS
330
C
102
}
100
AcDbDictionary
281
1
  3
Normal
350
F
100
AcDbDictionaryWithDefault
340
F
  0
DICTIONARY
  5
17
102
{ACAD_REACTORS
330
C
102
}
100
AcDbDictionary
280
0
281
1
  3
Standard
350
18
  0
DICTIONARY
  5
19
102
{ACAD_REACTORS
330
C
102
}
100
AcDbDictionary
281
1
  0
DICTIONARY
  5
1A
102
{ACAD_REACTORS
330
C
102
}
100
AcDbDictionary
281
1
  3
Model
350
3C0
  3
Layout1
350
3C1
  0
ACDBPLACEHOLDER
  5
F
102
{ACAD_REACTORS
330
E
102
}
  0
MLINESTYLE
  5
18
102
{ACAD_REACTORS
330
17
102
}
100
AcDbMlineStyle
  2
STANDARD
 70
0
  3

 62
256
 51
90.0
 52
90.0
 71
2
 49
0.5
 62
256
  6
BYLAYER
 49
-0.5
 62
256
  6
BYLAYER
  0
LAYOUT
  5
3C0
102
{ACAD_REACTORS
330
1A
102
}
100
AcDbPlotSettings
  1

  2
none_device
  4
ISO_A3_(420.00_x_297.00_MM)
  6

 40
0.0
 41
0.0
 42
0.0
 43
0.0
 44
420.0
 45
297.0
 46
0.0
 47
0.0
 48
0.0
 49
0.0
140
0.0
141
0.0
142
1.0
143
1.0
 70
1024
 72
1
 73
0
 74
0
  7

 75
0
147
1.0
148
0.0
149
0.0
100
AcDbLayout
  1
Model
 70
0
 71
0
 10
0.0
 20
0.0
 11
420.0
 21
297.0
 12
0.0
 22
0.0
 32
0.0
 14
0.0
 24
0.0
 34
0.0
 15
0.0
 25
0.0
 35
0.0
146
0.0
 13
0.0
 23
0.0
 33
0.0
 16
1.0
 26
0.0
 36
0.0
 17
0.0
 27
1.0
 37
0.0
 76
0
330
207
345
0
346
0
  0
LAYOUT
  5
3C1
102
{ACAD_REACTORS
330
1A
102
}
100
AcDbPlotSettings
  1

  2
none_device
  4
ISO_A3_(420.00_x_297.00_MM)
  6

 40
0.0
 41
0.0
 42
0.0
 43
0.0
 44
420.0
 45
297.0
 46
0.0
 47
0.0
 48
0.0
 49
0.0
140
0.0
141
0.0
142
1.0
143
1.0
 70
0
 72
1
 73
0
 74
0
  7

 75
0
147
1.0
148
0.0
149
0.0
100
AcDbLayout
  1
Layout1
 70
0
 71
1
 10
0.0
 20
0.0
 11
420.0
 21
297.0
 12
0.0
 22
0.0
 32
0.0
 14
0.0
 24
0.0
 34
0.0
 15
0.0
 25
0.0
 35
0.0
146
0.0
 13
0.0
 23
0.0
 33
0.0
 16
1.0
 26
0.0
 36
0.0
 17
0.0
 27
1.0
 37
0.0
 76
0
330
208
345
0
346
0
  0
ENDSEC
  0
EOF
