999
DXF file: vvs-13-dxf.dxf
999
Pro/ENGINEER 2010140 by Parametric Technology Corporation
  0
SECTION
  2
HEADER
  9
$ACADVER
  1
AC1021
  9
$DWGCODEPAGE
  3
ANSI_1252
  9
$EXTMAX
 10
420.0
 20
297.0
 30
0.0
  9
$EXTMIN
 10
0.0
 20
0.0
 30
0.0
  9
$LIMMIN
 10
0.0
 20
0.0
  9
$LIMMAX
 10
420.0
 20
297.0
  9
$VIEWCTR
 10
210.0
 20
148.5
  9
$VIEWSIZE
 40
297.0
  9
$CLAYER
  8
0
  9
$LTSCALE
 40
23.1
  9
$CELTYPE
  6
BYLAYER
  9
$DIMSCALE
 40
1.0
  9
$DIMASZ
 40
3.5
  9
$DIMEXO
 40
2.625
  9
$DIMDLI
 40
15.96
  9
$DIMEXE
 40
7.56
  9
$DIMCEN
 40
3.78
  9
$DIMLFAC
 40
1.0
  9
$DIMBLK
  1
_FILLED
  9
$DIMTXT
 40
3.5
  9
$DIMTOL
 70
1
  9
$DIMLIM
 70
0
  9
$DIMTFAC
 40
1.0
  9
$DIMTP
 40
0.005
  9
$DIMTM
 40
0.005
  9
$PDMODE
 70
3
  9
$PDSIZE
 40
0.3125
  9
$HANDSEED
  5
3BC
  9
$TILEMODE
 70
1
  9
$MEASUREMENT
 70
1
  9
$INSUNITS
 70
4
  0
ENDSEC
  0
SECTION
  2
CLASSES
  0
CLASS
  1
ACDBDICTIONARYWDFLT
  2
AcDbDictionaryWithDefault
  3
AutoCAD 2000
 90
0
 91
1
280
0
281
0
  0
CLASS
  1
ACDBPLACEHOLDER
  2
AcDbPlaceHolder
  3
AutoCAD 2000
 90
0
 91
1
280
0
281
0
  0
CLASS
  1
LAYOUT
  2
AcDbLayout
  3
AutoCAD 2000
 90
0
 91
0
280
0
281
0
  0
ENDSEC
  0
SECTION
  2
TABLES
  0
TABLE
  2
VPORT
  5
8
100
AcDbSymbolTable
 70
2
  0
VPORT
  5
1F4
100
AcDbSymbolTableRecord
100
AcDbViewportTableRecord
  2
*ACTIVE
 70
0
 10
0.0
 20
0.0
 11
1.0
 21
1.0
 12
210.0
 22
148.5
 13
0.0
 23
0.0
 14
1.0
 24
1.0
 15
0.0
 25
0.0
 16
0.0
 26
0.0
 36
1.0
 17
0.0
 27
0.0
 37
0.0
 40
297.0
 41
1.4141414141
 42
50.0
 43
0.0
 44
0.0
 50
0.0
 51
0.0
 71
0
 72
100
 73
1
 74
1
 75
0
 76
0
 77
0
 78
0
  0
ENDTAB
  0
TABLE
  2
LTYPE
  5
5
100
AcDbSymbolTable
 70
6
  0
LTYPE
  5
14
100
AcDbSymbolTableRecord
100
AcDbLinetypeTableRecord
  2
BYBLOCK
 70
0
  3

 72
65
 73
0
 40
0.0
  0
LTYPE
  5
15
100
AcDbSymbolTableRecord
100
AcDbLinetypeTableRecord
  2
BYLAYER
 70
0
  3

 72
65
 73
0
 40
0.0
  0
LTYPE
  5
16
100
AcDbSymbolTableRecord
100
AcDbLinetypeTableRecord
  2
CONTINUOUS
 70
64
  3
Solid line
 72
65
 73
0
 40
0.0
  0
LTYPE
  5
1F5
100
AcDbSymbolTableRecord
100
AcDbLinetypeTableRecord
  2
CENTER
 70
64
  3
____ _ ____ _ ____ _ ____ _ ____ _ ____ _ ____
 72
65
 73
4
 40
0.6
 49
0.375
 74
0
 49
-0.075
 74
0
 49
0.075
 74
0
 49
-0.075
 74
0
  0
LTYPE
  5
1F6
100
AcDbSymbolTableRecord
100
AcDbLinetypeTableRecord
  2
HIDDEN
 70
64
  3
- - - - - - - - - - - - - - - - - - - -
 72
65
 73
2
 40
0.2
 49
0.1
 74
0
 49
-0.1
 74
0
  0
LTYPE
  5
1F7
100
AcDbSymbolTableRecord
100
AcDbLinetypeTableRecord
  2
PHANTOM
 70
64
  3
_____ _ _ _____ _ _ _____ _ _ _____
 72
65
 73
6
 40
0.8
 49
0.45
 74
0
 49
-0.05
 74
0
 49
0.1
 74
0
 49
-0.05
 74
0
 49
0.1
 74
0
 49
-0.05
 74
0
  0
LTYPE
  5
1F8
100
AcDbSymbolTableRecord
100
AcDbLinetypeTableRecord
  2
DOT
 70
64
  3
. . . . . . . . . . . . . . . . . . . .
 72
65
 73
2
 40
0.2
 49
0.1
 74
0
 49
-0.1
 74
0
  0
LTYPE
  5
1F9
100
AcDbSymbolTableRecord
100
AcDbLinetypeTableRecord
  2
DASHED
 70
64
  3
- - - - - - - - - - - - - - - - - - - -
 72
65
 73
2
 40
0.2
 49
0.1
 74
0
 49
-0.1
 74
0
  0
ENDTAB
  0
TABLE
  2
LAYER
  5
2
100
AcDbSymbolTable
 70
36
  0
LAYER
  5
10
100
AcDbSymbolTableRecord
100
AcDbLayerTableRecord
  2
0
 70
0
 62
7
  6
CONTINUOUS
370
-3
390
F
  0
LAYER
  5
1FA
100
AcDbSymbolTableRecord
100
AcDbLayerTableRecord
  2
DEFAULT_1
 70
0
 62
7
  6
CENTER
370
-3
390
F
  0
LAYER
  5
1FB
100
AcDbSymbolTableRecord
100
AcDbLayerTableRecord
  2
DEFAULT_2
 70
0
 62
8
  6
HIDDEN
370
-3
390
F
  0
LAYER
  5
1FC
100
AcDbSymbolTableRecord
100
AcDbLayerTableRecord
  2
DEFAULT_3
 70
0
 62
7
  6
PHANTOM
370
-3
390
F
  0
LAYER
  5
1FD
100
AcDbSymbolTableRecord
100
AcDbLayerTableRecord
  2
AUSFORMSCHRAEGEN
 70
0
 62
7
  6
CONTINUOUS
370
-3
390
F
  0
LAYER
  5
1FE
100
AcDbSymbolTableRecord
100
AcDbLayerTableRecord
  2
BEZUGSACHSEN
 70
0
 62
7
  6
CONTINUOUS
370
-3
390
F
  0
LAYER
  5
1FF
100
AcDbSymbolTableRecord
100
AcDbLayerTableRecord
  2
BEZUGSEBENEN
 70
0
 62
7
  6
CONTINUOUS
370
-3
390
F
  0
LAYER
  5
200
100
AcDbSymbolTableRecord
100
AcDbLayerTableRecord
  2
HILFEN
 70
0
 62
7
  6
CONTINUOUS
370
-3
390
F
  0
LAYER
  5
201
100
AcDbSymbolTableRecord
100
AcDbLayerTableRecord
  2
PLATZIERUNG
 70
0
 62
7
  6
CONTINUOUS
370
-3
390
F
  0
LAYER
  5
202
100
AcDbSymbolTableRecord
100
AcDbLayerTableRecord
  2
RUNDUNGEN
 70
0
 62
7
  6
CONTINUOUS
370
-3
390
F
  0
LAYER
  5
203
100
AcDbSymbolTableRecord
100
AcDbLayerTableRecord
  2
T_STARTBEZUEGE
 70
0
 62
7
  6
CONTINUOUS
370
-3
390
F
  0
LAYER
  5
204
100
AcDbSymbolTableRecord
100
AcDbLayerTableRecord
  2
ZEICHNUNGSBEMASSUNGEN
 70
0
 62
7
  6
CONTINUOUS
370
-3
390
F
  0
ENDTAB
  0
TABLE
  2
STYLE
  5
3
100
AcDbSymbolTable
 70
1
  0
STYLE
  5
11
100
AcDbSymbolTableRecord
100
AcDbTextStyleTableRecord
  2
STANDARD
 70
0
 40
0.0
 41
0.7
 50
0.0
 71
0
 42
0.2
  3
txt
  4

  0
STYLE
  5
205
100
AcDbSymbolTableRecord
100
AcDbTextStyleTableRecord
  2
TEXTSTYLE_1
 70
0
 40
0.0
 41
0.8
 50
0.0
 71
0
 42
0.2
  3
gdt
  4

  0
ENDTAB
  0
TABLE
  2
VIEW
  5
6
100
AcDbSymbolTable
 70
0
  0
ENDTAB
  0
TABLE
  2
UCS
  5
7
100
AcDbSymbolTable
 70
0
  0
ENDTAB
  0
TABLE
  2
APPID
  5
9
100
AcDbSymbolTable
 70
1
  0
APPID
  5
206
100
AcDbSymbolTableRecord
100
AcDbRegAppTableRecord
  2
ACAD
 70
0
  0
ENDTAB
  0
TABLE
  2
BLOCK_RECORD
  5
1
100
AcDbSymbolTable
 70
0
  0
BLOCK_RECORD
  5
207
100
AcDbSymbolTableRecord
100
AcDbBlockTableRecord
  2
*Model_Space
  0
BLOCK_RECORD
  5
208
100
AcDbSymbolTableRecord
100
AcDbBlockTableRecord
  2
*Paper_Space
  0
ENDTAB
  0
TABLE
  2
DIMSTYLE
  5
A
100
AcDbSymbolTable
 70
1
100
AcDbDimStyleTable
 71
0
  0
DIMSTYLE
105
209
100
AcDbSymbolTableRecord
100
AcDbDimStyleTableRecord
  2
STANDARD
 70
0
  3

  4

 40
1.0
 41
3.5
 42
0.0625
 43
0.38
 44
0.18
 45
0.0
 46
0.0
 47
0.005
 48
0.005
140
3.5
141
0.09
142
0.0
143
25.4
144
1.0
145
0.0
146
1.0
147
0.09
 71
1.0
 72
0.0
 73
0
 74
0
 75
0
 76
0
 77
1
 78
8
170
0
171
2
172
0
173
0
174
0
175
0
176
0
177
0
178
5
270
2
271
3
272
3
273
2
274
2
275
0
280
0
281
0
282
0
283
1
284
8
285
0
286
0
287
3
288
0
340
11
  0
ENDTAB
  0
ENDSEC
  0
SECTION
  2
BLOCKS
  0
BLOCK
  5
20
100
AcDbEntity
  8
0
100
AcDbBlockBegin
  2
*Model_Space
 70
0
 10
0.0
 20
0.0
 30
0.0
  3
*Model_Space
  1

  0
ENDBLK
  5
21
100
AcDbEntity
  8
0
100
AcDbBlockEnd
  0
BLOCK
  5
1C
100
AcDbEntity
  8
0
100
AcDbBlockBegin
  2
*Paper_Space
 70
0
 10
0.0
 20
0.0
 30
0.0
  3
*Paper_Space
  1

  0
ENDBLK
  5
1D
100
AcDbEntity
  8
0
100
AcDbBlockEnd
  0
ENDSEC
  0
SECTION
  2
ENTITIES
  0
LINE
  5
20A
100
AcDbEntity
  8
0
100
AcDbLine
 62
7
  6
CONTINUOUS
 10
0.0
 20
0.0
 11
0.0
 21
297.0
  0
LINE
  5
20B
100
AcDbEntity
  8
0
100
AcDbLine
 62
7
  6
CONTINUOUS
 10
0.0
 20
0.0
 11
420.0
 21
0.0
  0
LINE
  5
20C
100
AcDbEntity
  8
0
100
AcDbLine
 62
7
  6
CONTINUOUS
 10
0.0
 20
297.0
 11
420.0
 21
297.0
  0
LINE
  5
20D
100
AcDbEntity
  8
0
100
AcDbLine
 62
7
  6
CONTINUOUS
 10
420.0
 20
0.0
 11
420.0
 21
297.0
  0
LINE
  5
20E
100
AcDbEntity
  8
BEZUGSACHSEN
100
AcDbLine
 62
7
  6
CONTINUOUS
 10
98.5565453642
 20
204.3367680586
 11
97.6279535826
 21
203.8288752847
  0
LINE
  5
20F
100
AcDbEntity
  8
BEZUGSACHSEN
100
AcDbLine
 62
7
  6
CONTINUOUS
 10
98.0169782049
 20
203.117612818
 11
98.9455699865
 21
203.6255055919
  0
LINE
  5
210
100
AcDbEntity
  8
BEZUGSACHSEN
100
AcDbLine
 62
7
  6
CONTINUOUS
 10
105.3108536263
 20
207.1070941575
 11
104.3021283734
 21
206.7866058843
  0
LINE
  5
211
100
AcDbEntity
  8
BEZUGSACHSEN
100
AcDbLine
 62
7
  6
CONTINUOUS
 10
99.2017536591
 20
204.5356578462
 11
98.5565453642
 21
204.3367680586
  0
LINE
  5
212
100
AcDbEntity
  8
0
100
AcDbLine
 62
7
  6
CONTINUOUS
 10
133.8152363649
 20
87.9205474695
 11
133.2852195762
 21
87.7886393343
  0
LINE
  5
213
100
AcDbEntity
  8
0
100
AcDbLine
 62
7
  6
CONTINUOUS
 10
119.9983618874
 20
83.0318620281
 11
121.0507053411
 21
83.1450566623
  0
LINE
  5
214
100
AcDbEntity
  8
0
100
AcDbLine
 62
7
  6
CONTINUOUS
 10
60.388024948
 20
133.7089635741
 11
60.388024948
 21
139.9334738445
  0
LINE
  5
215
100
AcDbEntity
  8
0
100
AcDbLine
 62
7
  6
CONTINUOUS
 10
60.388024948
 20
151.6755074445
 11
60.388024948
 21
152.9852122504
  0
LINE
  5
216
100
AcDbEntity
  8
BEZUGSACHSEN
100
AcDbLine
 62
7
  6
CONTINUOUS
 10
88.0505802696
 20
196.1829669436
 11
87.5174326663
 21
195.5948440154
  0
LINE
  5
217
100
AcDbEntity
  8
BEZUGSACHSEN
100
AcDbLine
 62
7
  6
CONTINUOUS
 10
85.6817498029
 20
192.1501713857
 11
86.1685074475
 21
192.6180558592
  0
LINE
  5
218
100
AcDbEntity
  8
BEZUGSACHSEN
100
AcDbLine
 62
7
  6
CONTINUOUS
 10
97.6175184153
 20
202.7451219739
 11
98.0169782049
 21
203.117612818
  0
LINE
  5
219
100
AcDbEntity
  8
BEZUGSACHSEN
100
AcDbLine
 62
7
  6
CONTINUOUS
 10
85.6123325516
 20
193.0015689689
 11
85.2006784017
 21
192.6426004236
  0
LINE
  5
21A
100
AcDbEntity
  8
BEZUGSACHSEN
100
AcDbLine
 62
7
  6
CONTINUOUS
 10
97.6279535826
 20
203.8288752847
 11
97.112420158
 21
203.3928980152
  0
LINE
  5
21B
100
AcDbEntity
  8
BEZUGSACHSEN
100
AcDbLine
 62
7
  6
CONTINUOUS
 10
100.3280251483
 20
203.303592895
 11
101.0244696487
 21
203.6845128386
  0
LINE
  5
21C
100
AcDbEntity
  8
BEZUGSACHSEN
100
AcDbLine
 62
7
  6
CONTINUOUS
 10
99.6859842839
 20
201.7203765534
 11
98.9895397835
 21
201.3394566097
  0
LINE
  5
21D
100
AcDbEntity
  8
BEZUGSACHSEN
100
AcDbLine
 62
7
  6
CONTINUOUS
 10
99.3785643605
 20
200.6281942261
 11
100.0750088608
 21
201.0091141697
  0
LINE
  5
21E
100
AcDbEntity
  8
BEZUGSACHSEN
100
AcDbLine
 62
7
  6
CONTINUOUS
 10
99.2656569071
 20
199.1803803748
 11
98.5692124067
 21
198.7994604311
  0
LINE
  5
21F
100
AcDbEntity
  8
BEZUGSACHSEN
100
AcDbLine
 62
7
  6
CONTINUOUS
 10
100.9827330553
 20
199.349501609
 11
100.286288555
 21
198.9685816654
  0
LINE
  5
220
100
AcDbEntity
  8
BEZUGSACHSEN
100
AcDbLine
 62
7
  6
CONTINUOUS
 10
100.7913867725
 20
198.3208056968
 11
101.3717576323
 21
198.6382392253
  0
LINE
  5
221
100
AcDbEntity
  8
BEZUGSACHSEN
100
AcDbLine
 62
7
  6
CONTINUOUS
 10
86.1352216865
 20
193.2838348884
 11
85.6123325516
 21
193.0015689689
  0
LINE
  5
222
100
AcDbEntity
  8
BEZUGSACHSEN
100
AcDbLine
 62
7
  6
CONTINUOUS
 10
86.1685074475
 20
192.6180558592
 11
86.4299511408
 21
192.7591875825
  0
LINE
  5
223
100
AcDbEntity
  8
BEZUGSACHSEN
100
AcDbLine
 62
7
  6
CONTINUOUS
 10
86.5830056077
 20
193.4571823867
 11
86.1352216865
 21
193.2838348884
  0
LINE
  5
224
100
AcDbEntity
  8
BEZUGSACHSEN
100
AcDbLine
 62
7
  6
CONTINUOUS
 10
104.207607244
 20
200.0932761482
 11
104.964151364
 21
200.3336424105
  0
LINE
  5
225
100
AcDbEntity
  8
BEZUGSACHSEN
100
AcDbLine
 62
7
  6
CONTINUOUS
 10
108.4946908314
 20
201.4553517106
 11
109.2512349514
 21
201.6957179729
  0
LINE
  5
226
100
AcDbEntity
  8
BEZUGSACHSEN
100
AcDbLine
 62
7
  6
CONTINUOUS
 10
98.7333560712
 20
200.4293044281
 11
99.3785643605
 21
200.6281942261
  0
LINE
  5
227
100
AcDbEntity
  8
BEZUGSACHSEN
100
AcDbLine
 62
7
  6
CONTINUOUS
 10
100.1461784832
 20
198.1219158988
 11
100.7913867725
 21
198.3208056968
  0
LINE
  5
228
100
AcDbEntity
  8
0
100
AcDbLine
 62
7
  6
CONTINUOUS
 10
132.5573966253
 20
89.6986143442
 11
133.0874120809
 21
89.8305217617
  0
LINE
  5
229
100
AcDbEntity
  8
0
100
AcDbLine
 62
7
  6
CONTINUOUS
 10
133.7863554912
 20
90.2068368622
 11
134.3163722799
 21
90.3387449974
  0
LINE
  5
22A
100
AcDbEntity
  8
0
100
AcDbLine
 62
7
  6
CONTINUOUS
 10
132.703090322
 20
90.5443362232
 11
132.2895649903
 21
90.4751477499
  0
LINE
  5
22B
100
AcDbEntity
  8
0
100
AcDbLine
 62
7
  6
CONTINUOUS
 10
132.5052827818
 20
92.5862187339
 11
132.9188081135
 21
92.6554072072
  0
LINE
  5
22C
100
AcDbEntity
  8
0
100
AcDbLine
 62
7
  6
CONTINUOUS
 10
122.4762244027
 20
89.6855070292
 11
121.6869667654
 21
89.6006110485
  0
LINE
  5
22D
100
AcDbEntity
  8
0
100
AcDbLine
 62
7
  6
CONTINUOUS
 10
118.0037645834
 20
89.2044298186
 11
117.2145069461
 21
89.1195338379
  0
LINE
  5
22E
100
AcDbEntity
  8
0
100
AcDbLine
 62
7
  6
CONTINUOUS
 10
131.9633275432
 20
89.6856760036
 11
132.5573966253
 21
89.6986143442
  0
LINE
  5
22F
100
AcDbEntity
  8
0
100
AcDbLine
 62
7
  6
CONTINUOUS
 10
134.642609727
 20
91.1282167437
 11
134.0485406449
 21
91.1152784031
  0
LINE
  5
230
100
AcDbEntity
  8
0
100
AcDbLine
 62
7
  6
CONTINUOUS
 10
132.7784370678
 20
87.0554169613
 11
133.5530512504
 21
87.0121058557
  0
LINE
  5
231
100
AcDbEntity
  8
0
100
AcDbLine
 62
7
  6
CONTINUOUS
 10
132.2895649903
 20
90.4751477499
 11
131.8119860322
 21
90.5249283535
  0
LINE
  5
232
100
AcDbEntity
  8
0
100
AcDbLine
 62
7
  6
CONTINUOUS
 10
134.3163722799
 20
90.3387449974
 11
134.793951238
 21
90.2889643938
  0
LINE
  5
233
100
AcDbEntity
  8
BEZUGSACHSEN
100
AcDbLine
 62
7
  6
CONTINUOUS
 10
82.5997231324
 20
95.1629126445
 11
61.8613320169
 21
128.5454310504
  0
LINE
  5
234
100
AcDbEntity
  8
BEZUGSACHSEN
100
AcDbLine
 62
7
  6
CENTER
 10
69.313414348
 20
145.8044906445
 11
69.313414348
 21
140.3573225015
  0
LINE
  5
235
100
AcDbEntity
  8
BEZUGSACHSEN
100
AcDbLine
 62
7
  6
CENTER
 10
69.313414348
 20
145.8044906445
 11
69.313414348
 21
151.2516587875
  0
LINE
  5
236
100
AcDbEntity
  8
BEZUGSACHSEN
100
AcDbLine
 62
7
  6
CONTINUOUS
 10
97.112420158
 20
203.3928980152
 11
96.7777991432
 21
202.9018641359
  0
LINE
  5
237
100
AcDbEntity
  8
BEZUGSACHSEN
100
AcDbLine
 62
7
  6
CONTINUOUS
 10
85.2006784017
 20
192.6426004236
 11
84.5998417715
 21
191.7712605872
  0
LINE
  5
238
100
AcDbEntity
  8
BEZUGSACHSEN
100
AcDbLine
 62
7
  6
CONTINUOUS
 10
85.2311219005
 20
191.4966658852
 11
85.6817498029
 21
192.1501713857
  0
LINE
  5
239
100
AcDbEntity
  8
BEZUGSACHSEN
100
AcDbLine
 62
7
  6
CONTINUOUS
 10
87.1002050321
 20
192.7791298289
 11
87.4757294301
 21
193.3237194079
  0
LINE
  5
23A
100
AcDbEntity
  8
BEZUGSACHSEN
100
AcDbLine
 62
7
  6
CONTINUOUS
 10
87.4976392275
 20
190.7373083969
 11
87.1972200529
 21
190.3016372323
  0
LINE
  5
23B
100
AcDbEntity
  8
BEZUGSACHSEN
100
AcDbLine
 62
7
  6
CONTINUOUS
 10
87.6421599151
 20
189.9948267821
 11
87.9425790897
 21
190.4304979468
  0
LINE
  5
23C
100
AcDbEntity
  8
BEZUGSACHSEN
100
AcDbLine
 62
7
  6
CONTINUOUS
 10
90.1814988128
 20
191.2972353577
 11
89.8059761338
 21
190.7526482716
  0
LINE
  5
23D
100
AcDbEntity
  8
RUNDUNGEN
100
AcDbLine
 62
7
  6
CONTINUOUS
 10
65.9648407878
 20
162.4838838701
 11
61.2679790699
 21
155.7760701697
  0
LINE
  5
23E
100
AcDbEntity
  8
BEZUGSACHSEN
100
AcDbLine
 62
7
  6
CONTINUOUS
 10
92.2224160919
 20
191.3296631889
 11
92.7555636952
 21
191.9177861171
  0
LINE
  5
23F
100
AcDbEntity
  8
BEZUGSACHSEN
100
AcDbLine
 62
7
  6
CONTINUOUS
 10
101.266117876
 20
199.6585053115
 11
100.9827330553
 21
199.349501609
  0
LINE
  5
240
100
AcDbEntity
  8
BEZUGSACHSEN
100
AcDbLine
 62
7
  6
CONTINUOUS
 10
89.4162316353
 20
187.807268816
 11
90.0531997266
 21
188.4929901183
  0
LINE
  5
241
100
AcDbEntity
  8
BEZUGSACHSEN
100
AcDbLine
 62
7
  6
CONTINUOUS
 10
87.1972200529
 20
190.3016372323
 11
86.635357185
 21
189.7248343443
  0
LINE
  5
242
100
AcDbEntity
  8
BEZUGSACHSEN
100
AcDbLine
 62
7
  6
CONTINUOUS
 10
89.4219196755
 20
188.7675847666
 11
88.9351620309
 21
188.299700293
  0
LINE
  5
243
100
AcDbEntity
  8
BEZUGSACHSEN
100
AcDbLine
 62
7
  6
CONTINUOUS
 10
101.3717576323
 20
198.6382392253
 11
101.7712160936
 21
199.0107293429
  0
LINE
  5
244
100
AcDbEntity
  8
BEZUGSACHSEN
100
AcDbLine
 62
7
  6
CONTINUOUS
 10
86.2208607437
 20
188.8857103098
 11
86.8188533538
 21
189.2768921709
  0
LINE
  5
245
100
AcDbEntity
  8
BEZUGSACHSEN
100
AcDbLine
 62
7
  6
CONTINUOUS
 10
88.8933442486
 20
187.5250053693
 11
89.4162316353
 21
187.807268816
  0
LINE
  5
246
100
AcDbEntity
  8
BEZUGSACHSEN
100
AcDbLine
 62
7
  6
CONTINUOUS
 10
86.635357185
 20
189.7248343443
 11
86.1875733027
 21
189.5514868192
  0
LINE
  5
247
100
AcDbEntity
  8
BEZUGSACHSEN
100
AcDbLine
 62
7
  6
CONTINUOUS
 10
88.9351620309
 20
188.299700293
 11
88.4873781486
 21
188.1263527679
  0
LINE
  5
248
100
AcDbEntity
  8
0
100
AcDbLine
 62
7
  6
CONTINUOUS
 10
146.40930873
 20
98.6494453436
 11
146.0358337823
 21
98.5897912559
  0
LINE
  5
249
100
AcDbEntity
  8
0
100
AcDbLine
 62
7
  6
CONTINUOUS
 10
133.3091005202
 20
93.3259105944
 11
132.6509778116
 21
93.4319413307
  0
LINE
  5
24A
100
AcDbEntity
  8
0
100
AcDbLine
 62
7
  6
CONTINUOUS
 10
133.2852195762
 20
87.7886393343
 11
132.7435869467
 21
87.9573890981
  0
LINE
  5
24B
100
AcDbEntity
  8
0
100
AcDbLine
 62
7
  6
CONTINUOUS
 10
131.241149875
 20
89.9106750991
 11
131.9633275432
 21
89.6856760036
  0
LINE
  5
24C
100
AcDbEntity
  8
RUNDUNGEN
100
AcDbLine
 62
7
  6
CONTINUOUS
 10
75.549684948
 20
132.2617962445
 11
75.549684948
 21
161.3688850445
  0
LINE
  5
24D
100
AcDbEntity
  8
BEZUGSACHSEN
100
AcDbLine
 62
7
  6
CONTINUOUS
 10
84.5998417715
 20
191.7712605872
 11
84.4106575722
 21
191.2588868033
  0
LINE
  5
24E
100
AcDbEntity
  8
BEZUGSACHSEN
100
AcDbLine
 62
7
  6
CONTINUOUS
 10
84.9668324681
 20
190.8753736936
 11
85.2311219005
 21
191.4966658852
  0
LINE
  5
24F
100
AcDbEntity
  8
BEZUGSACHSEN
100
AcDbLine
 62
7
  6
CONTINUOUS
 10
89.9866265635
 20
189.8245456299
 11
89.7223388501
 21
189.2032559312
  0
LINE
  5
250
100
AcDbEntity
  8
BEZUGSACHSEN
100
AcDbLine
 62
7
  6
CONTINUOUS
 10
90.2034084544
 20
188.7108244541
 11
90.6179066147
 21
189.5499509816
  0
LINE
  5
251
100
AcDbEntity
  8
BEZUGSACHSEN
100
AcDbLine
 62
7
  6
CONTINUOUS
 10
97.3989710695
 20
202.3175744578
 11
97.6175184153
 21
202.7451219739
  0
LINE
  5
252
100
AcDbEntity
  8
BEZUGSACHSEN
100
AcDbLine
 62
7
  6
CONTINUOUS
 10
101.7712160936
 20
199.0107293429
 11
102.1058371254
 21
199.501763191
  0
LINE
  5
253
100
AcDbEntity
  8
BEZUGSACHSEN
100
AcDbLine
 62
7
  6
CONTINUOUS
 10
89.7223388501
 20
189.2032559312
 11
89.4219196755
 21
188.7675847666
  0
LINE
  5
254
100
AcDbEntity
  8
BEZUGSACHSEN
100
AcDbLine
 62
7
  6
CONTINUOUS
 10
90.0531997266
 20
188.4929901183
 11
90.2034084544
 21
188.7108244541
  0
LINE
  5
255
100
AcDbEntity
  8
0
100
AcDbLine
 62
7
  6
CONTINUOUS
 10
144.7600893748
 20
104.0340480245
 11
144.0131413845
 21
103.9147422105
  0
LINE
  5
256
100
AcDbEntity
  8
0
100
AcDbLine
 62
7
  6
CONTINUOUS
 10
145.7636121889
 20
97.9719366494
 11
146.2473289761
 21
97.9534676315
  0
LINE
  5
257
100
AcDbEntity
  8
0
100
AcDbLine
 62
7
  6
CONTINUOUS
 10
147.1517004662
 20
102.5014610858
 11
146.6679819283
 21
102.519927633
  0
LINE
  5
258
100
AcDbEntity
  8
0
100
AcDbLine
 62
7
  6
CONTINUOUS
 10
144.4113739363
 20
103.308245712
 11
144.8950907234
 21
103.2897766941
  0
LINE
  5
259
100
AcDbEntity
  8
0
100
AcDbLine
 62
7
  6
CONTINUOUS
 10
146.0358337823
 20
98.5897912559
 11
145.7388544304
 21
98.638087345
  0
LINE
  5
25A
100
AcDbEntity
  8
0
100
AcDbLine
 62
7
  6
CONTINUOUS
 10
135.3647873953
 20
90.9032176482
 11
134.642609727
 21
91.1282167437
  0
LINE
  5
25B
100
AcDbEntity
  8
0
100
AcDbLine
 62
7
  6
CONTINUOUS
 10
132.9188081135
 20
92.6554072072
 11
133.2798969476
 21
92.5429076595
  0
LINE
  5
25C
100
AcDbEntity
  8
0
100
AcDbLine
 62
7
  6
CONTINUOUS
 10
132.108697163
 20
87.4621049207
 11
132.7784370678
 21
87.0554169613
  0
LINE
  5
25D
100
AcDbEntity
  8
BEZUGSACHSEN
100
AcDbLine
 62
7
  6
CONTINUOUS
 10
75.886634948
 20
133.6096403955
 11
75.886634948
 21
156.1945547235
  0
LINE
  5
25E
100
AcDbEntity
  8
BEZUGSACHSEN
100
AcDbLine
 62
7
  6
CONTINUOUS
 10
84.4106575722
 20
191.2588868033
 11
84.3327100769
 21
190.6698128864
  0
LINE
  5
25F
100
AcDbEntity
  8
BEZUGSACHSEN
100
AcDbLine
 62
7
  6
CONTINUOUS
 10
84.9278587058
 20
190.5808367452
 11
84.9668324681
 21
190.8753736936
  0
LINE
  5
260
100
AcDbEntity
  8
BEZUGSACHSEN
100
AcDbLine
 62
7
  6
CONTINUOUS
 10
87.4140019438
 20
189.1879160566
 11
87.6421599151
 21
189.9948267821
  0
LINE
  5
261
100
AcDbEntity
  8
BEZUGSACHSEN
100
AcDbLine
 62
7
  6
CONTINUOUS
 10
101.4846652672
 20
200.0860527445
 11
101.266117876
 21
199.6585053115
  0
LINE
  5
262
100
AcDbEntity
  8
0
100
AcDbLine
 62
7
  6
CONTINUOUS
 10
146.6927413604
 20
101.8537794628
 11
147.2867019693
 21
101.757189646
  0
LINE
  5
263
100
AcDbEntity
  8
0
100
AcDbLine
 62
7
  6
CONTINUOUS
 10
145.3563873417
 20
98.098351012
 11
145.7636121889
 21
97.9719366494
  0
LINE
  5
264
100
AcDbEntity
  8
0
100
AcDbLine
 62
7
  6
CONTINUOUS
 10
133.9147867313
 20
93.0381918369
 11
133.3091005202
 21
93.3259105944
  0
LINE
  5
265
100
AcDbEntity
  8
0
100
AcDbLine
 62
7
  6
CONTINUOUS
 10
134.793951238
 20
90.2889643938
 11
135.2190924552
 21
90.0574948848
  0
LINE
  5
266
100
AcDbEntity
  8
BEZUGSACHSEN
100
AcDbLine
 62
7
  6
CONTINUOUS
 10
84.3327100769
 20
190.6698128864
 11
84.3298660957
 21
190.1896548842
  0
LINE
  5
267
100
AcDbEntity
  8
BEZUGSACHSEN
100
AcDbLine
 62
7
  6
CONTINUOUS
 10
90.6179066147
 20
189.5499509816
 11
90.6958558582
 21
190.1390273713
  0
LINE
  5
268
100
AcDbEntity
  8
BEZUGSACHSEN
100
AcDbLine
 62
7
  6
CONTINUOUS
 10
96.7777991432
 20
202.9018641359
 11
96.5728516647
 21
202.1737420584
  0
LINE
  5
269
100
AcDbEntity
  8
0
100
AcDbLine
 62
7
  6
CONTINUOUS
 10
147.6691673072
 20
102.2969235082
 11
147.1517004662
 21
102.5014610858
  0
LINE
  5
26A
100
AcDbEntity
  8
0
100
AcDbLine
 62
7
  6
CONTINUOUS
 10
135.8539822389
 20
90.5527790622
 11
135.3647873953
 21
90.9032176482
  0
LINE
  5
26B
100
AcDbEntity
  8
0
100
AcDbLine
 62
7
  6
CONTINUOUS
 10
133.2798969476
 20
92.5429076595
 11
133.5244943245
 21
92.3676884498
  0
LINE
  5
26C
100
AcDbEntity
  8
0
100
AcDbLine
 62
7
  6
CONTINUOUS
 10
132.7435869467
 20
87.9573890981
 11
132.4349359432
 21
88.2515773847
  0
LINE
  5
26D
100
AcDbEntity
  8
0
100
AcDbLine
 62
7
  6
CONTINUOUS
 10
131.8119860322
 20
90.5249283535
 11
131.5033350288
 21
90.8191166401
  0
LINE
  5
26E
100
AcDbEntity
  8
BEZUGSACHSEN
100
AcDbLine
 62
7
  6
CONTINUOUS
 10
86.8188533538
 20
189.2768921709
 11
86.8521390759
 21
188.6111131686
  0
LINE
  5
26F
100
AcDbEntity
  8
BEZUGSACHSEN
100
AcDbLine
 62
7
  6
CONTINUOUS
 10
89.9894705836
 20
190.3047036052
 11
89.9866265635
 21
189.8245456299
  0
LINE
  5
270
100
AcDbEntity
  8
BEZUGSACHSEN
100
AcDbLine
 62
7
  6
CONTINUOUS
 10
97.3613360767
 20
201.8349704358
 11
97.3989710695
 21
202.3175744578
  0
LINE
  5
271
100
AcDbEntity
  8
BEZUGSACHSEN
100
AcDbLine
 62
7
  6
CONTINUOUS
 10
102.1058371254
 20
199.501763191
 11
102.3107846266
 21
200.229885227
  0
LINE
  5
272
100
AcDbEntity
  8
0
100
AcDbLine
 62
7
  6
CONTINUOUS
 10
145.2775578121
 20
103.8295130271
 11
144.7600893748
 21
104.0340480245
  0
LINE
  5
273
100
AcDbEntity
  8
0
100
AcDbLine
 62
7
  6
CONTINUOUS
 10
134.2234377348
 20
92.7440035503
 11
133.9147867313
 21
93.0381918369
  0
LINE
  5
274
100
AcDbEntity
  8
0
100
AcDbLine
 62
7
  6
CONTINUOUS
 10
131.735992533
 20
87.8752622842
 11
132.108697163
 21
87.4621049207
  0
LINE
  5
275
100
AcDbEntity
  8
0
100
AcDbLine
 62
7
  6
CONTINUOUS
 10
130.868445245
 20
90.3238324626
 11
131.241149875
 21
89.9106750991
  0
LINE
  5
276
100
AcDbEntity
  8
0
100
AcDbLine
 62
7
  6
CONTINUOUS
 10
127.7085323296
 20
85.4090729394
 11
124.2848828486
 21
90.1417841965
  0
LINE
  5
277
100
AcDbEntity
  8
0
100
AcDbLine
 62
7
  6
CONTINUOUS
 10
123.5273749625
 20
89.9044726963
 11
127.4458882343
 21
84.4772403502
  0
LINE
  5
278
100
AcDbEntity
  8
BEZUGSACHSEN
100
AcDbLine
 62
7
  6
CONTINUOUS
 10
96.5728516647
 20
202.1737420584
 11
96.6000541468
 21
201.5725942228
  0
LINE
  5
279
100
AcDbEntity
  8
BEZUGSACHSEN
100
AcDbLine
 62
7
  6
CONTINUOUS
 10
94.149324948
 20
164.4369834712
 11
94.149324948
 21
170.4943906445
  0
LINE
  5
27A
100
AcDbEntity
  8
BEZUGSACHSEN
100
AcDbLine
 62
7
  6
CONTINUOUS
 10
94.216714948
 20
159.6438186591
 11
94.216714948
 21
133.6096403782
  0
LINE
  5
27B
100
AcDbEntity
  8
RUNDUNGEN
100
AcDbLine
 62
7
  6
CONTINUOUS
 10
94.418884948
 20
132.2617962445
 11
94.418884948
 21
161.3688850445
  0
LINE
  5
27C
100
AcDbEntity
  8
BEZUGSACHSEN
100
AcDbLine
 62
7
  6
CONTINUOUS
 10
111.7186358553
 20
208.4600407604
 11
110.3021937797
 21
201.9176186215
  0
LINE
  5
27D
100
AcDbEntity
  8
BEZUGSACHSEN
100
AcDbLine
 62
7
  6
CONTINUOUS
 10
111.0913328544
 20
202.0036097046
 11
112.3325493149
 21
207.7114388902
  0
LINE
  5
27E
100
AcDbEntity
  8
BEZUGSACHSEN
100
AcDbLine
 62
7
  6
CONTINUOUS
 10
130.199424869
 20
128.2830906445
 11
136.400159348
 21
128.2830906445
  0
LINE
  5
27F
100
AcDbEntity
  8
BEZUGSACHSEN
100
AcDbLine
 62
7
  6
CONTINUOUS
 10
159.183370548
 20
128.2830906445
 11
165.1897173592
 21
128.2830906445
  0
LINE
  5
280
100
AcDbEntity
  8
0
100
AcDbLine
 62
7
  6
CONTINUOUS
 10
144.9266237093
 20
100.997313283
 11
145.3675983787
 21
100.6848305248
  0
LINE
  5
281
100
AcDbEntity
  8
0
100
AcDbLine
 62
7
  6
CONTINUOUS
 10
144.8950907234
 20
103.2897766941
 11
145.115578367
 21
103.1335350961
  0
LINE
  5
282
100
AcDbEntity
  8
0
100
AcDbLine
 62
7
  6
CONTINUOUS
 10
147.2867019693
 20
101.757189646
 11
147.7276766388
 21
101.4447068877
  0
LINE
  5
283
100
AcDbEntity
  8
0
100
AcDbLine
 62
7
  6
CONTINUOUS
 10
145.4980454557
 20
103.6732714291
 11
145.2775578121
 21
103.8295130271
  0
LINE
  5
284
100
AcDbEntity
  8
0
100
AcDbLine
 62
7
  6
CONTINUOUS
 10
148.1101419767
 20
101.98444075
 11
147.6691673072
 21
102.2969235082
  0
LINE
  5
285
100
AcDbEntity
  8
0
100
AcDbLine
 62
7
  6
CONTINUOUS
 10
140.2519129963
 20
98.3442207992
 11
141.0446976474
 21
97.6094352193
  0
LINE
  5
286
100
AcDbEntity
  8
0
100
AcDbLine
 62
7
  6
CONTINUOUS
 10
140.8906190787
 20
98.8345737276
 11
144.7554434546
 21
95.2524947652
  0
LINE
  5
287
100
AcDbEntity
  8
0
100
AcDbLine
 62
7
  6
CONTINUOUS
 10
120.4378312422
 20
83.8945096861
 11
118.0037645834
 21
89.2044298186
  0
LINE
  5
288
100
AcDbEntity
  8
0
100
AcDbLine
 62
7
  6
CONTINUOUS
 10
117.2145069461
 20
89.1195338379
 11
119.9983618874
 21
83.0318620281
  0
LINE
  5
289
100
AcDbEntity
  8
BEZUGSACHSEN
100
AcDbLine
 62
7
  6
CONTINUOUS
 10
85.000119987
 20
190.2095971306
 11
84.9278587058
 21
190.5808367452
  0
LINE
  5
28A
100
AcDbEntity
  8
BEZUGSACHSEN
100
AcDbLine
 62
7
  6
CONTINUOUS
 10
87.4862631471
 20
188.8166764956
 11
87.4140019438
 21
189.1879160566
  0
LINE
  5
28B
100
AcDbEntity
  8
BEZUGSACHSEN
100
AcDbLine
 62
7
  6
CONTINUOUS
 10
91.7871207421
 20
193.8671370606
 11
91.954715548
 21
192.6437742564
  0
LINE
  5
28C
100
AcDbEntity
  8
BEZUGSACHSEN
100
AcDbLine
 62
7
  6
CONTINUOUS
 10
92.7555636952
 20
191.9177861171
 11
92.5879691697
 21
193.1411486672
  0
LINE
  5
28D
100
AcDbEntity
  8
0
100
AcDbLine
 62
7
  6
CONTINUOUS
 10
104.558024948
 20
161.3658739193
 11
104.558024948
 21
151.3044906445
  0
LINE
  5
28E
100
AcDbEntity
  8
0
100
AcDbLine
 62
7
  6
CONTINUOUS
 10
104.558024948
 20
140.3044906445
 11
104.558024948
 21
131.7123787938
  0
LINE
  5
28F
100
AcDbEntity
  8
BEZUGSACHSEN
100
AcDbLine
 62
7
  6
CONTINUOUS
 10
104.3021283734
 20
206.7866058843
 11
104.207607244
 21
200.0932761482
  0
LINE
  5
290
100
AcDbEntity
  8
BEZUGSACHSEN
100
AcDbLine
 62
7
  6
CONTINUOUS
 10
104.964151364
 20
200.3336424105
 11
105.051971798
 21
206.174209334
  0
LINE
  5
291
100
AcDbEntity
  8
RUNDUNGEN
100
AcDbLine
 62
7
  6
CONTINUOUS
 10
92.4619142634
 20
130.3047906445
 11
77.5067012854
 21
130.3047906445
  0
LINE
  5
292
100
AcDbEntity
  8
BEZUGSACHSEN
100
AcDbLine
 62
7
  6
CONTINUOUS
 10
77.843640548
 20
131.6525906445
 11
92.259709348
 21
131.6525906445
  0
LINE
  5
293
100
AcDbEntity
  8
0
100
AcDbLine
 62
7
  6
CONTINUOUS
 10
145.2950514902
 20
95.8346958589
 11
140.6374427408
 21
100.1515601439
  0
LINE
  5
294
100
AcDbEntity
  8
0
100
AcDbLine
 62
7
  6
CONTINUOUS
 10
130.6122305596
 20
90.7997091036
 11
130.868445245
 21
90.3238324626
  0
LINE
  5
295
100
AcDbEntity
  8
0
100
AcDbLine
 62
7
  6
CONTINUOUS
 10
131.5033350288
 20
90.8191166401
 11
131.3752277758
 21
91.0570547939
  0
LINE
  5
296
100
AcDbEntity
  8
BEZUGSACHSEN
100
AcDbLine
 62
7
  6
CONTINUOUS
 10
84.3298660957
 20
190.1896548842
 11
84.5133605456
 21
189.7417102178
  0
LINE
  5
297
100
AcDbEntity
  8
BEZUGSACHSEN
100
AcDbLine
 62
7
  6
CONTINUOUS
 10
86.8521390759
 20
188.6111131686
 11
87.0356352447
 21
188.1631709951
  0
LINE
  5
298
100
AcDbEntity
  8
BEZUGSACHSEN
100
AcDbLine
 62
7
  6
CONTINUOUS
 10
90.6958558582
 20
190.1390273713
 11
90.5513334516
 21
190.8815064932
  0
LINE
  5
299
100
AcDbEntity
  8
0
100
AcDbLine
 62
7
  6
CONTINUOUS
 10
75.549684948
 20
140.3044906445
 11
75.886634948
 21
140.3044906445
  0
LINE
  5
29A
100
AcDbEntity
  8
0
100
AcDbLine
 62
7
  6
CONTINUOUS
 10
94.216714948
 20
140.3044906445
 11
94.418884948
 21
140.3044906445
  0
LINE
  5
29B
100
AcDbEntity
  8
0
100
AcDbLine
 62
7
  6
CONTINUOUS
 10
104.558024948
 20
140.3044906445
 11
128.218024948
 21
140.3044906445
  0
LINE
  5
29C
100
AcDbEntity
  8
0
100
AcDbLine
 62
7
  6
CONTINUOUS
 10
138.357164948
 20
140.3044906445
 11
138.559334948
 21
140.3044906445
  0
LINE
  5
29D
100
AcDbEntity
  8
0
100
AcDbLine
 62
7
  6
CONTINUOUS
 10
156.889414948
 20
140.3044906445
 11
157.226364948
 21
140.3044906445
  0
LINE
  5
29E
100
AcDbEntity
  8
0
100
AcDbLine
 62
7
  6
CONTINUOUS
 10
142.3123080606
 20
100.5797468588
 11
142.6767889622
 21
100.1593163398
  0
LINE
  5
29F
100
AcDbEntity
  8
0
100
AcDbLine
 62
7
  6
CONTINUOUS
 10
145.8625263573
 20
103.2528409102
 11
145.4980454557
 21
103.6732714291
  0
LINE
  5
2A0
100
AcDbEntity
  8
BEZUGSACHSEN
100
AcDbLine
 62
7
  6
CONTINUOUS
 10
85.1474846947
 20
189.9472734911
 11
85.000119987
 21
190.2095971306
  0
LINE
  5
2A1
100
AcDbEntity
  8
0
100
AcDbLine
 62
7
  6
CONTINUOUS
 10
135.2190924552
 20
90.0574948848
 11
135.4112533347
 21
89.700587654
  0
LINE
  5
2A2
100
AcDbEntity
  8
0
100
AcDbLine
 62
7
  6
CONTINUOUS
 10
136.1742503714
 20
89.9579336776
 11
135.8539822389
 21
90.5527790622
  0
LINE
  5
2A3
100
AcDbEntity
  8
BEZUGSACHSEN
100
AcDbLine
 62
7
  6
CONTINUOUS
 10
89.8059761338
 20
190.7526482716
 11
89.9894705836
 21
190.3047036052
  0
LINE
  5
2A4
100
AcDbEntity
  8
T_STARTBEZUEGE
100
AcDbLine
 62
7
  6
CENTER
 10
116.388024948
 20
73.3758906445
 11
116.388024948
 21
218.2330906445
  0
LINE
  5
2A5
100
AcDbEntity
  8
BEZUGSACHSEN
100
AcDbLine
 62
7
  6
CENTER
 10
163.462635548
 20
145.8044906445
 11
158.015467405
 21
145.8044906445
  0
LINE
  5
2A6
100
AcDbEntity
  8
BEZUGSACHSEN
100
AcDbLine
 62
7
  6
CENTER
 10
69.313414348
 20
145.8044906445
 11
63.866246205
 21
145.8044906445
  0
LINE
  5
2A7
100
AcDbEntity
  8
T_STARTBEZUEGE
100
AcDbLine
 62
7
  6
CENTER
 10
57.3854160095
 20
145.8044906445
 11
175.3906338865
 21
145.8044906445
  0
LINE
  5
2A8
100
AcDbEntity
  8
BEZUGSACHSEN
100
AcDbLine
 62
7
  6
CENTER
 10
69.313414348
 20
145.8044906445
 11
74.760582491
 21
145.8044906445
  0
LINE
  5
2A9
100
AcDbEntity
  8
BEZUGSACHSEN
100
AcDbLine
 62
7
  6
CENTER
 10
163.462635548
 20
145.8044906445
 11
168.909803691
 21
145.8044906445
  0
LINE
  5
2AA
100
AcDbEntity
  8
0
100
AcDbLine
 62
7
  6
CONTINUOUS
 10
148.3643810389
 20
101.6421333366
 11
148.1101419767
 21
101.98444075
  0
LINE
  5
2AB
100
AcDbEntity
  8
BEZUGSACHSEN
100
AcDbLine
 62
7
  6
CONTINUOUS
 10
87.7809942815
 20
188.2920317096
 11
87.4862631471
 21
188.8166764956
  0
LINE
  5
2AC
100
AcDbEntity
  8
BEZUGSACHSEN
100
AcDbLine
 62
7
  6
CONTINUOUS
 10
102.3107846266
 20
200.229885227
 11
102.1675085493
 21
200.7675465645
  0
LINE
  5
2AD
100
AcDbEntity
  8
0
100
AcDbLine
 62
7
  6
CONTINUOUS
 10
130.4725061776
 20
91.3383043555
 11
130.6122305596
 21
90.7997091036
  0
LINE
  5
2AE
100
AcDbEntity
  8
BEZUGSACHSEN
100
AcDbLine
 62
7
  6
CONTINUOUS
 10
101.4062264377
 20
200.5051706836
 11
101.4846652672
 21
200.0860527445
  0
LINE
  5
2AF
100
AcDbEntity
  8
0
100
AcDbLine
 62
7
  6
CONTINUOUS
 10
75.549684948
 20
151.3044906445
 11
75.886634948
 21
151.3044906445
  0
LINE
  5
2B0
100
AcDbEntity
  8
0
100
AcDbLine
 62
7
  6
CONTINUOUS
 10
94.216714948
 20
151.3044906445
 11
94.418884948
 21
151.3044906445
  0
LINE
  5
2B1
100
AcDbEntity
  8
0
100
AcDbLine
 62
7
  6
CONTINUOUS
 10
104.558024948
 20
151.3044906445
 11
128.218024948
 21
151.3044906445
  0
LINE
  5
2B2
100
AcDbEntity
  8
0
100
AcDbLine
 62
7
  6
CONTINUOUS
 10
138.357164948
 20
151.3044906445
 11
138.559334948
 21
151.3044906445
  0
LINE
  5
2B3
100
AcDbEntity
  8
0
100
AcDbLine
 62
7
  6
CONTINUOUS
 10
156.889414948
 20
151.3044906445
 11
157.226364948
 21
151.3044906445
  0
LINE
  5
2B4
100
AcDbEntity
  8
BEZUGSACHSEN
100
AcDbLine
 62
7
  6
CONTINUOUS
 10
87.0356352447
 20
188.1631709951
 11
87.4054698835
 21
187.7474421306
  0
LINE
  5
2B5
100
AcDbEntity
  8
BEZUGSACHSEN
100
AcDbLine
 62
7
  6
CONTINUOUS
 10
84.5133605456
 20
189.7417102178
 11
84.7719620157
 21
189.402686405
  0
LINE
  5
2B6
100
AcDbEntity
  8
0
100
AcDbLine
 62
7
  6
CONTINUOUS
 10
145.115578367
 20
103.1335350961
 11
145.4035672515
 21
102.6051592872
  0
LINE
  5
2B7
100
AcDbEntity
  8
0
100
AcDbLine
 62
7
  6
CONTINUOUS
 10
147.7276766388
 20
101.4447068877
 11
147.8716702056
 21
101.1805177479
  0
LINE
  5
2B8
100
AcDbEntity
  8
0
100
AcDbLine
 62
7
  6
CONTINUOUS
 10
131.3752277758
 20
91.0570547939
 11
131.2995568408
 21
91.4766813021
  0
LINE
  5
2B9
100
AcDbEntity
  8
BEZUGSACHSEN
100
AcDbLine
 62
7
  6
CONTINUOUS
 10
128.218024948
 20
130.2431073697
 11
128.218024948
 21
140.3044906445
  0
LINE
  5
2BA
100
AcDbEntity
  8
BEZUGSACHSEN
100
AcDbLine
 62
7
  6
CONTINUOUS
 10
128.218024948
 20
151.3044906445
 11
128.218024948
 21
160.3266024952
  0
LINE
  5
2BB
100
AcDbEntity
  8
0
100
AcDbLine
 62
7
  6
CONTINUOUS
 10
127.8199198911
 20
91.2492379394
 11
127.7085323296
 21
85.4090729394
  0
LINE
  5
2BC
100
AcDbEntity
  8
BEZUGSACHSEN
100
AcDbLine
 62
7
  6
CONTINUOUS
 10
90.5513334516
 20
190.8815064932
 11
90.1814988128
 21
191.2972353577
  0
LINE
  5
2BD
100
AcDbEntity
  8
BEZUGSACHSEN
100
AcDbLine
 62
7
  6
CONTINUOUS
 10
96.6000541468
 20
201.5725942228
 11
96.9242412943
 21
200.9798755697
  0
LINE
  5
2BE
100
AcDbEntity
  8
BEZUGSACHSEN
100
AcDbLine
 62
7
  6
CONTINUOUS
 10
97.5558483652
 20
201.479339244
 11
97.3613360767
 21
201.8349704358
  0
LINE
  5
2BF
100
AcDbEntity
  8
0
100
AcDbLine
 62
7
  6
CONTINUOUS
 10
143.0592543001
 20
100.6990502021
 11
142.8815108338
 21
101.1493077922
  0
LINE
  5
2C0
100
AcDbEntity
  8
0
100
AcDbLine
 62
7
  6
CONTINUOUS
 10
146.0402715744
 20
102.8025857907
 11
145.8625263573
 21
103.2528409102
  0
LINE
  5
2C1
100
AcDbEntity
  8
0
100
AcDbLine
 62
7
  6
CONTINUOUS
 10
136.1974846743
 20
89.3566193982
 11
136.1742503714
 21
89.9579336776
  0
LINE
  5
2C2
100
AcDbEntity
  8
0
100
AcDbLine
 62
7
  6
CONTINUOUS
 10
128.4558985083
 20
84.7936556084
 11
128.5774277771
 21
91.4865494396
  0
LINE
  5
2C3
100
AcDbEntity
  8
0
100
AcDbLine
 62
7
  6
CONTINUOUS
 10
121.0507053411
 20
83.1450566623
 11
122.4762244027
 21
89.6855070292
  0
LINE
  5
2C4
100
AcDbEntity
  8
0
100
AcDbLine
 62
7
  6
CONTINUOUS
 10
121.6869667654
 20
89.6006110485
 11
120.4378312422
 21
83.8945096861
  0
LINE
  5
2C5
100
AcDbEntity
  8
0
100
AcDbLine
 62
7
  6
CONTINUOUS
 10
154.932409348
 20
159.9563906445
 11
140.516340548
 21
159.9563906445
  0
LINE
  5
2C6
100
AcDbEntity
  8
BEZUGSACHSEN
100
AcDbLine
 62
7
  6
CONTINUOUS
 10
140.3141368354
 20
161.3041906445
 11
155.2693539205
 21
161.3041906445
  0
LINE
  5
2C7
100
AcDbEntity
  8
BEZUGSACHSEN
100
AcDbLine
 62
7
  6
CONTINUOUS
 10
102.5766250271
 20
163.3258906445
 11
96.375890548
 21
163.3258906445
  0
LINE
  5
2C8
100
AcDbEntity
  8
BEZUGSACHSEN
100
AcDbLine
 62
7
  6
CONTINUOUS
 10
73.592679348
 20
163.3258906445
 11
67.5863325369
 21
163.3258906445
  0
LINE
  5
2C9
100
AcDbEntity
  8
BEZUGSACHSEN
100
AcDbLine
 62
7
  6
CONTINUOUS
 10
84.7719620157
 20
189.402686405
 11
85.2169018779
 21
189.0958759548
  0
LINE
  5
2CA
100
AcDbEntity
  8
BEZUGSACHSEN
100
AcDbLine
 62
7
  6
CONTINUOUS
 10
87.4054698835
 20
187.7474421306
 11
87.6279401262
 21
187.5940366906
  0
LINE
  5
2CB
100
AcDbEntity
  8
BEZUGSACHSEN
100
AcDbLine
 62
7
  6
CONTINUOUS
 10
85.5924245569
 20
189.6404630409
 11
85.1474846947
 21
189.9472734911
  0
LINE
  5
2CC
100
AcDbEntity
  8
BEZUGSACHSEN
100
AcDbLine
 62
7
  6
CONTINUOUS
 10
87.5174326663
 20
195.5948440154
 11
92.2224160919
 21
191.3296631889
  0
LINE
  5
2CD
100
AcDbEntity
  8
BEZUGSACHSEN
100
AcDbLine
 62
7
  6
CONTINUOUS
 10
91.954715548
 20
192.6437742564
 11
88.0505802696
 21
196.1829669436
  0
LINE
  5
2CE
100
AcDbEntity
  8
BEZUGSACHSEN
100
AcDbLine
 62
7
  6
CONTINUOUS
 10
101.2765515788
 20
200.7422581448
 11
101.4062264377
 21
200.5051706836
  0
LINE
  5
2CF
100
AcDbEntity
  8
BEZUGSACHSEN
100
AcDbLine
 62
7
  6
CONTINUOUS
 10
102.1675085493
 20
200.7675465645
 11
101.9081586497
 21
201.2417218191
  0
LINE
  5
2D0
100
AcDbEntity
  8
0
100
AcDbLine
 62
7
  6
CONTINUOUS
 10
148.5421245052
 20
101.1918757465
 11
148.3643810389
 21
101.6421333366
  0
LINE
  5
2D1
100
AcDbEntity
  8
0
100
AcDbLine
 62
7
  6
CONTINUOUS
 10
142.1773049612
 20
101.3240157185
 11
142.3123080606
 21
100.5797468588
  0
LINE
  5
2D2
100
AcDbEntity
  8
0
100
AcDbLine
 62
7
  6
CONTINUOUS
 10
140.0978347052
 20
99.5693590502
 11
140.2519129963
 21
98.3442207992
  0
LINE
  5
2D3
100
AcDbEntity
  8
0
100
AcDbLine
 62
7
  6
CONTINUOUS
 10
141.0446976474
 20
97.6094352193
 11
140.8906190787
 21
98.8345737276
  0
LINE
  5
2D4
100
AcDbEntity
  8
BEZUGSACHSEN
100
AcDbLine
 62
7
  6
CONTINUOUS
 10
138.357164948
 20
130.2400962445
 11
138.357164948
 21
159.3471850445
  0
LINE
  5
2D5
100
AcDbEntity
  8
BEZUGSACHSEN
100
AcDbLine
 62
7
  6
CONTINUOUS
 10
138.559334948
 20
131.9651626299
 11
138.559334948
 21
137.2261236642
  0
LINE
  5
2D6
100
AcDbEntity
  8
0
100
AcDbLine
 62
7
  6
CONTINUOUS
 10
138.559334948
 20
137.2261236642
 11
138.559334948
 21
153.0606533097
  0
LINE
  5
2D7
100
AcDbEntity
  8
RUNDUNGEN
100
AcDbLine
 62
7
  6
CONTINUOUS
 10
138.559334948
 20
137.2261236642
 11
138.559334948
 21
157.9993409107
  0
LINE
  5
2D8
100
AcDbEntity
  8
RUNDUNGEN
100
AcDbLine
 62
7
  6
CONTINUOUS
 10
138.626724948
 20
127.1719978177
 11
138.626724948
 21
121.5445906445
  0
LINE
  5
2D9
100
AcDbEntity
  8
0
100
AcDbLine
 62
7
  6
CONTINUOUS
 10
135.4112533347
 20
89.700587654
 11
135.3704339662
 21
89.2182425349
  0
LINE
  5
2DA
100
AcDbEntity
  8
BEZUGSACHSEN
100
AcDbLine
 62
7
  6
CONTINUOUS
 10
88.0034645242
 20
188.1386262696
 11
87.7809942815
 21
188.2920317096
  0
LINE
  5
2DB
100
AcDbEntity
  8
BEZUGSACHSEN
100
AcDbLine
 62
7
  6
CONTINUOUS
 10
87.9425790897
 20
190.4304979468
 11
87.4976392275
 21
190.7373083969
  0
LINE
  5
2DC
100
AcDbEntity
  8
BEZUGSACHSEN
100
AcDbLine
 62
7
  6
CONTINUOUS
 10
92.5879691697
 20
193.1411486672
 11
91.7871207421
 21
193.8671370606
  0
LINE
  5
2DD
100
AcDbEntity
  8
BEZUGSACHSEN
100
AcDbLine
 62
7
  6
CONTINUOUS
 10
112.3325493149
 20
207.7114388902
 11
114.7739817443
 21
202.4049014121
  0
LINE
  5
2DE
100
AcDbEntity
  8
BEZUGSACHSEN
100
AcDbLine
 62
7
  6
CONTINUOUS
 10
115.563120819
 20
202.4908924952
 11
112.7708212256
 21
208.5746955311
  0
LINE
  5
2DF
100
AcDbEntity
  8
0
100
AcDbLine
 62
7
  6
CONTINUOUS
 10
145.4035672515
 20
102.6051592872
 11
145.4710688012
 21
102.2330248573
  0
LINE
  5
2E0
100
AcDbEntity
  8
0
100
AcDbLine
 62
7
  6
CONTINUOUS
 10
147.8716702056
 20
101.1805177479
 11
147.9391718325
 21
100.8083832633
  0
LINE
  5
2E1
100
AcDbEntity
  8
0
100
AcDbLine
 62
7
  6
CONTINUOUS
 10
146.0650292557
 20
102.1364351498
 11
146.0402715744
 21
102.8025857907
  0
LINE
  5
2E2
100
AcDbEntity
  8
0
100
AcDbLine
 62
7
  6
CONTINUOUS
 10
142.8815108338
 20
101.1493077922
 11
142.890503052
 21
101.6293899828
  0
LINE
  5
2E3
100
AcDbEntity
  8
0
100
AcDbLine
 62
7
  6
CONTINUOUS
 10
130.6822548339
 20
92.0650578753
 11
130.4725061776
 21
91.3383043555
  0
LINE
  5
2E4
100
AcDbEntity
  8
BEZUGSACHSEN
100
AcDbLine
 62
7
  6
CONTINUOUS
 10
87.6279401262
 20
187.5940366906
 11
88.1479852118
 21
187.3961446548
  0
LINE
  5
2E5
100
AcDbEntity
  8
BEZUGSACHSEN
100
AcDbLine
 62
7
  6
CONTINUOUS
 10
85.2169018779
 20
189.0958759548
 11
85.7369454003
 21
188.8979813187
  0
LINE
  5
2E6
100
AcDbEntity
  8
BEZUGSACHSEN
100
AcDbLine
 62
7
  6
CONTINUOUS
 10
98.5692124067
 20
198.7994604311
 11
98.8797983358
 21
198.5073156544
  0
LINE
  5
2E7
100
AcDbEntity
  8
BEZUGSACHSEN
100
AcDbLine
 62
7
  6
CONTINUOUS
 10
100.9659656497
 20
201.0344029215
 11
101.2765515788
 21
200.7422581448
  0
LINE
  5
2E8
100
AcDbEntity
  8
BEZUGSACHSEN
100
AcDbLine
 62
7
  6
CONTINUOUS
 10
101.9081586497
 20
201.2417218191
 11
101.5327352911
 21
201.6524103264
  0
LINE
  5
2E9
100
AcDbEntity
  8
BEZUGSACHSEN
100
AcDbLine
 62
7
  6
CONTINUOUS
 10
101.0244696487
 20
203.6845128386
 11
100.6490462901
 21
204.095201346
  0
LINE
  5
2EA
100
AcDbEntity
  8
BEZUGSACHSEN
100
AcDbLine
 62
7
  6
CONTINUOUS
 10
105.051971798
 20
206.174209334
 11
108.4946908314
 21
201.4553517106
  0
LINE
  5
2EB
100
AcDbEntity
  8
BEZUGSACHSEN
100
AcDbLine
 62
7
  6
CONTINUOUS
 10
109.2512349514
 20
201.6957179729
 11
105.3108536263
 21
207.1070941575
  0
LINE
  5
2EC
100
AcDbEntity
  8
0
100
AcDbLine
 62
7
  6
CONTINUOUS
 10
148.5331323256
 20
100.7117935285
 11
148.5421245052
 21
101.1918757465
  0
LINE
  5
2ED
100
AcDbEntity
  8
0
100
AcDbLine
 62
7
  6
CONTINUOUS
 10
142.2627909472
 20
101.9120456698
 11
142.1773049612
 21
101.3240157185
  0
LINE
  5
2EE
100
AcDbEntity
  8
0
100
AcDbLine
 62
7
  6
CONTINUOUS
 10
135.9877360404
 20
88.6298658367
 11
136.1974846743
 21
89.3566193982
  0
LINE
  5
2EF
100
AcDbEntity
  8
BEZUGSACHSEN
100
AcDbLine
 62
7
  6
CONTINUOUS
 10
99.5114054067
 20
199.0067793286
 11
99.2656569071
 21
199.1803803748
  0
LINE
  5
2F0
100
AcDbEntity
  8
BEZUGSACHSEN
100
AcDbLine
 62
7
  6
CONTINUOUS
 10
96.9242412943
 20
200.9798755697
 11
97.4157383843
 21
200.6326733114
  0
LINE
  5
2F1
100
AcDbEntity
  8
BEZUGSACHSEN
100
AcDbLine
 62
7
  6
CONTINUOUS
 10
100.0174392193
 20
203.5957376717
 11
100.3280251483
 21
203.303592895
  0
LINE
  5
2F2
100
AcDbEntity
  8
BEZUGSACHSEN
100
AcDbLine
 62
7
  6
CONTINUOUS
 10
156.889414948
 20
137.6989083683
 11
156.889414948
 21
135.4144265655
  0
LINE
  5
2F3
100
AcDbEntity
  8
RUNDUNGEN
100
AcDbLine
 62
7
  6
CONTINUOUS
 10
156.889414948
 20
137.6989083683
 11
156.889414948
 21
157.9993408935
  0
LINE
  5
2F4
100
AcDbEntity
  8
BEZUGSACHSEN
100
AcDbLine
 62
7
  6
CONTINUOUS
 10
157.226364948
 20
159.3471850445
 11
157.226364948
 21
130.2400962445
  0
LINE
  5
2F5
100
AcDbEntity
  8
0
100
AcDbLine
 62
7
  6
CONTINUOUS
 10
147.9391718325
 20
100.8083832633
 11
147.8964297149
 21
100.514369523
  0
LINE
  5
2F6
100
AcDbEntity
  8
0
100
AcDbLine
 62
7
  6
CONTINUOUS
 10
148.4476481193
 20
100.1237660274
 11
148.5331323256
 21
100.7117935285
  0
LINE
  5
2F7
100
AcDbEntity
  8
0
100
AcDbLine
 62
7
  6
CONTINUOUS
 10
145.4710688012
 20
102.2330248573
 11
145.2325970301
 21
101.4291018552
  0
LINE
  5
2F8
100
AcDbEntity
  8
0
100
AcDbLine
 62
7
  6
CONTINUOUS
 10
142.890503052
 20
101.6293899828
 11
143.1627247225
 21
102.2472445346
  0
LINE
  5
2F9
100
AcDbEntity
  8
0
100
AcDbLine
 62
7
  6
CONTINUOUS
 10
131.2995568408
 20
91.4766813021
 11
131.520921293
 21
91.9027770062
  0
LINE
  5
2FA
100
AcDbEntity
  8
0
100
AcDbLine
 62
7
  6
CONTINUOUS
 10
131.02010941
 20
92.5538725236
 11
130.6822548339
 21
92.0650578753
  0
LINE
  5
2FB
100
AcDbEntity
  8
BEZUGSACHSEN
100
AcDbLine
 62
7
  6
CONTINUOUS
 10
85.7369454003
 20
188.8979813187
 11
86.2208607437
 21
188.8857103098
  0
LINE
  5
2FC
100
AcDbEntity
  8
BEZUGSACHSEN
100
AcDbLine
 62
7
  6
CONTINUOUS
 10
88.4873781486
 20
188.1263527679
 11
88.0034645242
 21
188.1386262696
  0
LINE
  5
2FD
100
AcDbEntity
  8
BEZUGSACHSEN
100
AcDbLine
 62
7
  6
CONTINUOUS
 10
86.1875733027
 20
189.5514868192
 11
85.5924245569
 21
189.6404630409
  0
LINE
  5
2FE
100
AcDbEntity
  8
BEZUGSACHSEN
100
AcDbLine
 62
7
  6
CONTINUOUS
 10
86.8026315966
 20
192.8236191325
 11
87.1002050321
 21
192.7791298289
  0
LINE
  5
2FF
100
AcDbEntity
  8
BEZUGSACHSEN
100
AcDbLine
 62
7
  6
CONTINUOUS
 10
87.4757294301
 20
193.3237194079
 11
87.0669192321
 21
193.4449088849
  0
LINE
  5
300
100
AcDbEntity
  8
BEZUGSACHSEN
100
AcDbLine
 62
7
  6
CONTINUOUS
 10
98.8797983358
 20
198.5073156544
 11
99.487370304
 21
198.2236007037
  0
LINE
  5
301
100
AcDbEntity
  8
BEZUGSACHSEN
100
AcDbLine
 62
7
  6
CONTINUOUS
 10
97.9825080257
 20
201.2506807163
 11
97.5558483652
 21
201.479339244
  0
LINE
  5
302
100
AcDbEntity
  8
BEZUGSACHSEN
100
AcDbLine
 62
7
  6
CONTINUOUS
 10
100.6490462901
 20
204.095201346
 11
99.9766368244
 21
204.4974601518
  0
LINE
  5
303
100
AcDbEntity
  8
BEZUGSACHSEN
100
AcDbLine
 62
7
  6
CENTER
 10
163.462635548
 20
145.8044906445
 11
163.462635548
 21
140.3573225015
  0
LINE
  5
304
100
AcDbEntity
  8
BEZUGSACHSEN
100
AcDbLine
 62
7
  6
CENTER
 10
163.462635548
 20
145.8044906445
 11
163.462635548
 21
151.2516587875
  0
LINE
  5
305
100
AcDbEntity
  8
0
100
AcDbLine
 62
7
  6
CONTINUOUS
 10
148.2519184755
 20
99.6138567588
 11
148.4476481193
 21
100.1237660274
  0
LINE
  5
306
100
AcDbEntity
  8
0
100
AcDbLine
 62
7
  6
CONTINUOUS
 10
147.8964297149
 20
100.514369523
 11
147.6242062935
 21
99.8965125005
  0
LINE
  5
307
100
AcDbEntity
  8
0
100
AcDbLine
 62
7
  6
CONTINUOUS
 10
142.6880001536
 20
102.7457957431
 11
142.2627909472
 21
101.9120456698
  0
LINE
  5
308
100
AcDbEntity
  8
0
100
AcDbLine
 62
7
  6
CONTINUOUS
 10
135.3704339662
 20
89.2182425349
 11
135.1490695589
 21
88.7921467475
  0
LINE
  5
309
100
AcDbEntity
  8
0
100
AcDbLine
 62
7
  6
CONTINUOUS
 10
142.8409859386
 20
102.9616887939
 11
142.6880001536
 21
102.7457957431
  0
LINE
  5
30A
100
AcDbEntity
  8
0
100
AcDbLine
 62
7
  6
CONTINUOUS
 10
143.1627247225
 20
102.2472445346
 11
143.4686980434
 21
102.6790331069
  0
LINE
  5
30B
100
AcDbEntity
  8
0
100
AcDbLine
 62
7
  6
CONTINUOUS
 10
142.6767889622
 20
100.1593163398
 11
143.0592543001
 21
100.6990502021
  0
LINE
  5
30C
100
AcDbEntity
  8
0
100
AcDbLine
 62
7
  6
CONTINUOUS
 10
131.520921293
 20
91.9027770062
 11
131.8063393716
 21
92.2099036334
  0
LINE
  5
30D
100
AcDbEntity
  8
BEZUGSACHSEN
100
AcDbLine
 62
7
  6
CONTINUOUS
 10
88.1479852118
 20
187.3961446548
 11
88.8933442486
 21
187.5250053693
  0
LINE
  5
30E
100
AcDbEntity
  8
BEZUGSACHSEN
100
AcDbLine
 62
7
  6
CONTINUOUS
 10
87.0669192321
 20
193.4449088849
 11
86.5830056077
 21
193.4571823867
  0
LINE
  5
30F
100
AcDbEntity
  8
BEZUGSACHSEN
100
AcDbLine
 62
7
  6
CONTINUOUS
 10
99.8732288753
 20
198.8966654241
 11
99.5114054067
 21
199.0067793286
  0
LINE
  5
310
100
AcDbEntity
  8
BEZUGSACHSEN
100
AcDbLine
 62
7
  6
CONTINUOUS
 10
97.4157383843
 20
200.6326733114
 11
98.1393853214
 21
200.4124455024
  0
LINE
  5
311
100
AcDbEntity
  8
0
100
AcDbLine
 62
7
  6
CONTINUOUS
 10
135.6498814811
 20
88.1410511572
 11
135.9877360404
 21
88.6298658367
  0
LINE
  5
312
100
AcDbEntity
  8
BEZUGSACHSEN
100
AcDbLine
 62
7
  6
CONTINUOUS
 10
166.8112091082
 20
129.1250974189
 11
171.5080708261
 21
135.8329111193
  0
LINE
  5
313
100
AcDbEntity
  8
0
100
AcDbLine
 62
7
  6
CONTINUOUS
 10
145.2325970301
 20
101.4291018552
 11
144.9266237093
 21
100.997313283
  0
LINE
  5
314
100
AcDbEntity
  8
0
100
AcDbLine
 62
7
  6
CONTINUOUS
 10
145.3675983787
 20
100.6848305248
 11
145.6735716996
 21
101.116619097
  0
LINE
  5
315
100
AcDbEntity
  8
0
100
AcDbLine
 62
7
  6
CONTINUOUS
 10
145.7388544304
 20
98.638087345
 11
145.3563873417
 21
98.098351012
  0
LINE
  5
316
100
AcDbEntity
  8
0
100
AcDbLine
 62
7
  6
CONTINUOUS
 10
147.6242062935
 20
99.8965125005
 11
147.1652471877
 21
99.2488308775
  0
LINE
  5
317
100
AcDbEntity
  8
0
100
AcDbLine
 62
7
  6
CONTINUOUS
 10
147.6399735847
 20
98.750282085
 11
148.2519184755
 21
99.6138567588
  0
LINE
  5
318
100
AcDbEntity
  8
0
100
AcDbLine
 62
7
  6
CONTINUOUS
 10
140.6374427408
 20
100.1515601439
 11
140.0978347052
 21
99.5693590502
  0
LINE
  5
319
100
AcDbEntity
  8
0
100
AcDbLine
 62
7
  6
CONTINUOUS
 10
143.4866824797
 20
103.6391974881
 11
142.8409859386
 21
102.9616887939
  0
LINE
  5
31A
100
AcDbEntity
  8
0
100
AcDbLine
 62
7
  6
CONTINUOUS
 10
145.6735716996
 20
101.116619097
 11
146.2427744727
 21
101.6861800304
  0
LINE
  5
31B
100
AcDbEntity
  8
0
100
AcDbLine
 62
7
  6
CONTINUOUS
 10
143.4686980434
 20
102.6790331069
 11
143.9614070486
 21
103.1406462796
  0
LINE
  5
31C
100
AcDbEntity
  8
0
100
AcDbLine
 62
7
  6
CONTINUOUS
 10
131.4220176126
 20
92.9237180949
 11
131.02010941
 21
92.5538725236
  0
LINE
  5
31D
100
AcDbEntity
  8
0
100
AcDbLine
 62
7
  6
CONTINUOUS
 10
146.6679819283
 20
102.519927633
 11
146.0650292557
 21
102.1364351498
  0
LINE
  5
31E
100
AcDbEntity
  8
0
100
AcDbLine
 62
7
  6
CONTINUOUS
 10
132.0044708989
 20
93.2373142513
 11
131.4220176126
 21
92.9237180949
  0
LINE
  5
31F
100
AcDbEntity
  8
0
100
AcDbLine
 62
7
  6
CONTINUOUS
 10
144.0131413845
 20
103.9147422105
 11
143.4866824797
 21
103.6391974881
  0
LINE
  5
320
100
AcDbEntity
  8
0
100
AcDbLine
 62
7
  6
CONTINUOUS
 10
143.9614070486
 20
103.1406462796
 11
144.4113739363
 21
103.308245712
  0
LINE
  5
321
100
AcDbEntity
  8
0
100
AcDbLine
 62
7
  6
CONTINUOUS
 10
146.2427744727
 20
101.6861800304
 11
146.6927413604
 21
101.8537794628
  0
LINE
  5
322
100
AcDbEntity
  8
BEZUGSACHSEN
100
AcDbLine
 62
7
  6
CONTINUOUS
 10
86.4299511408
 20
192.7591875825
 11
86.8026315966
 21
192.8236191325
  0
LINE
  5
323
100
AcDbEntity
  8
BEZUGSACHSEN
100
AcDbLine
 62
7
  6
CONTINUOUS
 10
98.4604051349
 20
201.2040532269
 11
97.9825080257
 21
201.2506807163
  0
LINE
  5
324
100
AcDbEntity
  8
BEZUGSACHSEN
100
AcDbLine
 62
7
  6
CONTINUOUS
 10
100.4880685405
 20
201.0810304109
 11
100.9659656497
 21
201.0344029215
  0
LINE
  5
325
100
AcDbEntity
  8
BEZUGSACHSEN
100
AcDbLine
 62
7
  6
CONTINUOUS
 10
99.487370304
 20
198.2236007037
 11
100.1461784832
 21
198.1219158988
  0
LINE
  5
326
100
AcDbEntity
  8
BEZUGSACHSEN
100
AcDbLine
 62
7
  6
CONTINUOUS
 10
101.5327352911
 20
201.6524103264
 11
100.809088354
 21
201.8726381354
  0
LINE
  5
327
100
AcDbEntity
  8
BEZUGSACHSEN
100
AcDbLine
 62
7
  6
CONTINUOUS
 10
99.4747046352
 20
203.7609089747
 11
100.0174392193
 21
203.5957376717
  0
LINE
  5
328
100
AcDbEntity
  8
BEZUGSACHSEN
100
AcDbLine
 62
7
  6
CONTINUOUS
 10
172.388024948
 20
157.5151565669
 11
172.388024948
 21
151.6755074445
  0
LINE
  5
329
100
AcDbEntity
  8
BEZUGSACHSEN
100
AcDbLine
 62
7
  6
CONTINUOUS
 10
172.388024948
 20
139.9334738445
 11
172.388024948
 21
138.6237690386
  0
LINE
  5
32A
100
AcDbEntity
  8
0
100
AcDbLine
 62
7
  6
CONTINUOUS
 10
144.7554434546
 20
95.2524947652
 11
145.2950514902
 21
95.8346958589
  0
LINE
  5
32B
100
AcDbEntity
  8
0
100
AcDbLine
 62
7
  6
CONTINUOUS
 10
147.1652471877
 20
99.2488308775
 11
146.6725381824
 21
98.7872177048
  0
LINE
  5
32C
100
AcDbEntity
  8
0
100
AcDbLine
 62
7
  6
CONTINUOUS
 10
135.1490695589
 20
88.7921467475
 11
134.7471600231
 21
88.4223004584
  0
LINE
  5
32D
100
AcDbEntity
  8
0
100
AcDbLine
 62
7
  6
CONTINUOUS
 10
147.2237565868
 20
98.3966142092
 11
147.6399735847
 21
98.750282085
  0
LINE
  5
32E
100
AcDbEntity
  8
0
100
AcDbLine
 62
7
  6
CONTINUOUS
 10
135.131481827
 20
87.7084859135
 11
135.6498814811
 21
88.1410511572
  0
LINE
  5
32F
100
AcDbEntity
  8
0
100
AcDbLine
 62
7
  6
CONTINUOUS
 10
131.8063393716
 20
92.2099036334
 11
132.5052827818
 21
92.5862187339
  0
LINE
  5
330
100
AcDbEntity
  8
0
100
AcDbLine
 62
7
  6
CONTINUOUS
 10
133.5244943245
 20
92.3676884498
 11
134.2234377348
 21
92.7440035503
  0
LINE
  5
331
100
AcDbEntity
  8
0
100
AcDbLine
 62
7
  6
CONTINUOUS
 10
133.4020337322
 20
90.9206513237
 11
132.703090322
 21
90.5443362232
  0
LINE
  5
332
100
AcDbEntity
  8
0
100
AcDbLine
 62
7
  6
CONTINUOUS
 10
133.0874120809
 20
89.8305217617
 11
133.7863554912
 21
90.2068368622
  0
LINE
  5
333
100
AcDbEntity
  8
0
100
AcDbLine
 62
7
  6
CONTINUOUS
 10
132.4349359432
 20
88.2515773847
 11
131.735992533
 21
87.8752622842
  0
LINE
  5
334
100
AcDbEntity
  8
0
100
AcDbLine
 62
7
  6
CONTINUOUS
 10
134.7471600231
 20
88.4223004584
 11
133.8152363649
 21
87.9205474695
  0
LINE
  5
335
100
AcDbEntity
  8
0
100
AcDbLine
 62
7
  6
CONTINUOUS
 10
134.1995581687
 20
87.2067329247
 11
135.131481827
 21
87.7084859135
  0
LINE
  5
336
100
AcDbEntity
  8
0
100
AcDbLine
 62
7
  6
CONTINUOUS
 10
146.6972959023
 20
98.1210670365
 11
147.2237565868
 21
98.3966142092
  0
LINE
  5
337
100
AcDbEntity
  8
0
100
AcDbLine
 62
7
  6
CONTINUOUS
 10
146.6725381824
 20
98.7872177048
 11
146.40930873
 21
98.6494453436
  0
LINE
  5
338
100
AcDbEntity
  8
0
100
AcDbLine
 62
7
  6
CONTINUOUS
 10
146.2473289761
 20
97.9534676315
 11
146.6972959023
 21
98.1210670365
  0
LINE
  5
339
100
AcDbEntity
  8
0
100
AcDbLine
 62
7
  6
CONTINUOUS
 10
128.5774277771
 20
91.4865494396
 11
127.8199198911
 21
91.2492379394
  0
LINE
  5
33A
100
AcDbEntity
  8
0
100
AcDbLine
 62
7
  6
CONTINUOUS
 10
124.2848828486
 20
90.1417841965
 11
123.5273749625
 21
89.9044726963
  0
LINE
  5
33B
100
AcDbEntity
  8
0
100
AcDbLine
 62
7
  6
CONTINUOUS
 10
132.6509778116
 20
93.4319413307
 11
132.0044708989
 21
93.2373142513
  0
LINE
  5
33C
100
AcDbEntity
  8
0
100
AcDbLine
 62
7
  6
CONTINUOUS
 10
134.0485406449
 20
91.1152784031
 11
133.4020337322
 21
90.9206513237
  0
LINE
  5
33D
100
AcDbEntity
  8
BEZUGSACHSEN
100
AcDbLine
 62
7
  6
CONTINUOUS
 10
98.9895397835
 20
201.3394566097
 11
98.4604051349
 21
201.2040532269
  0
LINE
  5
33E
100
AcDbEntity
  8
BEZUGSACHSEN
100
AcDbLine
 62
7
  6
CONTINUOUS
 10
100.2151176042
 20
201.8557792097
 11
99.6859842839
 21
201.7203765534
  0
LINE
  5
33F
100
AcDbEntity
  8
BEZUGSACHSEN
100
AcDbLine
 62
7
  6
CONTINUOUS
 10
100.286288555
 20
198.9685816654
 11
99.8732288753
 21
198.8966654241
  0
LINE
  5
340
100
AcDbEntity
  8
BEZUGSACHSEN
100
AcDbLine
 62
7
  6
CONTINUOUS
 10
100.0750088608
 20
201.0091141697
 11
100.4880685405
 21
201.0810304109
  0
LINE
  5
341
100
AcDbEntity
  8
BEZUGSACHSEN
100
AcDbLine
 62
7
  6
CONTINUOUS
 10
110.3021937797
 20
201.9176186215
 11
111.0913328544
 21
202.0036097046
  0
LINE
  5
342
100
AcDbEntity
  8
BEZUGSACHSEN
100
AcDbLine
 62
7
  6
CONTINUOUS
 10
114.7739817443
 20
202.4049014121
 11
115.563120819
 21
202.4908924952
  0
LINE
  5
343
100
AcDbEntity
  8
BEZUGSACHSEN
100
AcDbLine
 62
7
  6
CONTINUOUS
 10
98.1393853214
 20
200.4124455024
 11
98.7333560712
 21
200.4293044281
  0
LINE
  5
344
100
AcDbEntity
  8
BEZUGSACHSEN
100
AcDbLine
 62
7
  6
CONTINUOUS
 10
100.809088354
 20
201.8726381354
 11
100.2151176042
 21
201.8557792097
  0
LINE
  5
345
100
AcDbEntity
  8
BEZUGSACHSEN
100
AcDbLine
 62
7
  6
CONTINUOUS
 10
99.9766368244
 20
204.4974601518
 11
99.2017536591
 21
204.5356578462
  0
LINE
  5
346
100
AcDbEntity
  8
BEZUGSACHSEN
100
AcDbLine
 62
7
  6
CONTINUOUS
 10
149.8110707827
 20
196.6491588201
 11
170.9147178792
 21
162.6786890906
  0
LINE
  5
347
100
AcDbEntity
  8
0
100
AcDbLine
 62
7
  6
CONTINUOUS
 10
127.4458882343
 20
84.4772403502
 11
128.4558985083
 21
84.7936556084
  0
LINE
  5
348
100
AcDbEntity
  8
0
100
AcDbLine
 62
7
  6
CONTINUOUS
 10
133.5530512504
 20
87.0121058557
 11
134.1995581687
 21
87.2067329247
  0
LINE
  5
349
100
AcDbEntity
  8
BEZUGSACHSEN
100
AcDbLine
 62
7
  6
CONTINUOUS
 10
98.9455699865
 20
203.6255055919
 11
99.4747046352
 21
203.7609089747
  0
LINE
  5
34A
100
AcDbEntity
  8
BEZUGSACHSEN
100
AcDbLine
 62
7
  6
CONTINUOUS
 10
112.7708212256
 20
208.5746955311
 11
111.7186358553
 21
208.4600407604
  0
LINE
  5
34B
100
AcDbEntity
  8
BEZUGSACHSEN
100
AcDbLine
 62
7
  6
CONTINUOUS
 10
262.4636862929
 20
76.3758906445
 11
267.7850220749
 21
76.9351855724
  0
LINE
  5
34C
100
AcDbEntity
  8
AUSFORMSCHRAEGEN
100
AcDbLine
 62
7
  6
CONTINUOUS
 10
262.4636862929
 20
76.3758906445
 11
267.7850220749
 21
76.9351855724
  0
LINE
  5
34D
100
AcDbEntity
  8
BEZUGSACHSEN
100
AcDbLine
 62
7
  6
CONTINUOUS
 10
262.4636862929
 20
76.3758906445
 11
257.142350511
 21
76.9351855724
  0
LINE
  5
34E
100
AcDbEntity
  8
BEZUGSACHSEN
100
AcDbLine
 62
8
  6
HIDDEN
 10
262.4636862929
 20
99.3058906445
 11
260.7044205775
 21
99.0272503288
  0
LINE
  5
34F
100
AcDbEntity
  8
BEZUGSACHSEN
100
AcDbLine
 62
8
  6
HIDDEN
 10
262.4636862929
 20
99.3058906445
 11
264.2229520084
 21
99.0272503288
  0
LINE
  5
350
100
AcDbEntity
  8
BEZUGSACHSEN
100
AcDbLine
 62
7
  6
CONTINUOUS
 10
250.6521437202
 20
166.4469288826
 11
249.7600735019
 21
165.5548586643
  0
LINE
  5
351
100
AcDbEntity
  8
BEZUGSACHSEN
100
AcDbLine
 62
7
  6
CONTINUOUS
 10
249.760107149
 20
126.0540889776
 11
250.6521355756
 21
125.1620605509
  0
LINE
  5
352
100
AcDbEntity
  8
BEZUGSACHSEN
100
AcDbLine
 62
7
  6
CONTINUOUS
 10
249.5588342226
 20
126.2711905328
 11
249.5744033905
 21
126.2531791253
  0
LINE
  5
353
100
AcDbEntity
  8
RUNDUNGEN
100
AcDbLine
 62
7
  6
CONTINUOUS
 10
248.6136862929
 20
155.8447624157
 11
248.6136862929
 21
153.7296889
  0
LINE
  5
354
100
AcDbEntity
  8
BEZUGSACHSEN
100
AcDbLine
 62
7
  6
CONTINUOUS
 10
248.6136862929
 20
128.821746356
 11
248.6136862929
 21
162.7872349105
  0
LINE
  5
355
100
AcDbEntity
  8
BEZUGSACHSEN
100
AcDbLine
 62
7
  6
CONTINUOUS
 10
254.4184590061
 20
187.5826132913
 11
251.7604407348
 21
168.6698305622
  0
LINE
  5
356
100
AcDbEntity
  8
BEZUGSACHSEN
100
AcDbLine
 62
7
  6
CONTINUOUS
 10
251.7604405695
 20
122.9391519034
 11
254.4184586229
 21
104.0263707244
  0
LWPOLYLINE
  5
357
100
AcDbEntity
  8
BEZUGSACHSEN
100
AcDbPolyline
 62
7
  6
CONTINUOUS
 90
3
 70
0
 10
254.5136862929
 20
163.5566274663
 10
254.5198901662
 20
163.4009398838
 10
254.5369165882
 20
163.2560186041
  0
LINE
  5
358
100
AcDbEntity
  8
BEZUGSACHSEN
100
AcDbLine
 62
7
  6
CONTINUOUS
 10
254.5136862929
 20
102.6645521868
 11
254.5136862929
 21
79.8546129503
  0
LINE
  5
359
100
AcDbEntity
  8
BEZUGSACHSEN
100
AcDbLine
 62
7
  6
CONTINUOUS
 10
254.5136862929
 20
163.5563662243
 11
254.5136862929
 21
211.7543683387
  0
LINE
  5
35A
100
AcDbEntity
  8
T_STARTBEZUEGE
100
AcDbLine
 62
7
  6
CENTER
 10
262.4636862929
 20
218.2330906445
 11
262.4636862929
 21
73.3758906445
  0
LINE
  5
35B
100
AcDbEntity
  8
BEZUGSACHSEN
100
AcDbLine
 62
7
  6
CONTINUOUS
 10
262.4636862929
 20
215.2330906445
 11
262.4636862929
 21
171.6127718004
  0
LINE
  5
35C
100
AcDbEntity
  8
T_STARTBEZUEGE
100
AcDbLine
 62
7
  6
CENTER
 10
280.5799072184
 20
145.8044906445
 11
245.5748236201
 21
145.8044906445
  0
LINE
  5
35D
100
AcDbEntity
  8
BEZUGSACHSEN
100
AcDbLine
 62
7
  6
CONTINUOUS
 10
270.4136862929
 20
211.7543683387
 11
270.4136862929
 21
163.5563665579
  0
LINE
  5
35E
100
AcDbEntity
  8
RUNDUNGEN
100
AcDbLine
 62
7
  6
CONTINUOUS
 10
270.4136862929
 20
102.6645521868
 11
270.4136862929
 21
79.8546129503
  0
LWPOLYLINE
  5
35F
100
AcDbEntity
  8
BEZUGSACHSEN
100
AcDbPolyline
 62
7
  6
CONTINUOUS
 90
3
 70
0
 10
270.3904557586
 20
163.2560119425
 10
270.4074823352
 20
163.4009352415
 10
270.4136862929
 20
163.5566255384
  0
LINE
  5
360
100
AcDbEntity
  8
BEZUGSACHSEN
100
AcDbLine
 62
7
  6
CONTINUOUS
 10
276.3136862929
 20
162.7872349105
 11
276.3136862929
 21
155.8447624157
  0
LINE
  5
361
100
AcDbEntity
  8
RUNDUNGEN
100
AcDbLine
 62
7
  6
CONTINUOUS
 10
276.3136862929
 20
155.8447624157
 11
276.3136862929
 21
128.821746356
  0
LINE
  5
362
100
AcDbEntity
  8
RUNDUNGEN
100
AcDbLine
 62
7
  6
CONTINUOUS
 10
273.1669320164
 20
122.9391519034
 11
270.5089139629
 21
104.0263707244
  0
LINE
  5
363
100
AcDbEntity
  8
BEZUGSACHSEN
100
AcDbLine
 62
7
  6
CONTINUOUS
 10
270.5089135797
 20
187.5826132913
 11
273.166931851
 21
168.6698305622
  0
LINE
  5
364
100
AcDbEntity
  8
RUNDUNGEN
100
AcDbLine
 62
7
  6
CONTINUOUS
 10
275.3565209648
 20
126.2572758215
 11
275.3685407067
 21
126.2711932614
  0
LINE
  5
365
100
AcDbEntity
  8
RUNDUNGEN
100
AcDbLine
 62
7
  6
CONTINUOUS
 10
275.1672654369
 20
126.0540889776
 11
274.2752370102
 21
125.1620605509
  0
LINE
  5
366
100
AcDbEntity
  8
BEZUGSACHSEN
100
AcDbLine
 62
7
  6
CONTINUOUS
 10
274.2752288656
 20
166.4469288826
 11
275.1672990839
 21
165.5548586643
  0
LINE
  5
367
100
AcDbEntity
  8
BEZUGSACHSEN
100
AcDbLine
 62
7
  6
CONTINUOUS
 10
275.3529691954
 20
165.3558021636
 11
275.3641789514
 21
165.3428217652
  0
LINE
  5
368
100
AcDbEntity
  8
BEZUGSACHSEN
100
AcDbLine
 62
8
  6
HIDDEN
 10
262.4636862929
 20
192.7330906445
 11
264.2229520084
 21
193.0117309602
  0
LINE
  5
369
100
AcDbEntity
  8
BEZUGSACHSEN
100
AcDbLine
 62
8
  6
HIDDEN
 10
262.4636862929
 20
192.7330906445
 11
260.7044205775
 21
193.0117309602
  0
LINE
  5
36A
100
AcDbEntity
  8
BEZUGSACHSEN
100
AcDbLine
 62
7
  6
CONTINUOUS
 10
262.4636862929
 20
215.2330906445
 11
257.142350511
 21
214.6737957165
  0
LINE
  5
36B
100
AcDbEntity
  8
BEZUGSACHSEN
100
AcDbLine
 62
7
  6
CONTINUOUS
 10
262.4636862929
 20
215.2330906445
 11
267.7850220749
 21
214.6737957165
  0
ARC
  5
36C
100
AcDbEntity
  8
BEZUGSACHSEN
100
AcDbCircle
 62
7
  6
CONTINUOUS
 10
94.772996948
 20
131.7123787938
 40
9.785028
100
AcDbArc
 50
324.2528030188
 51
360.0
  0
ARC
  5
36D
100
AcDbEntity
  8
BEZUGSACHSEN
100
AcDbCircle
 62
7
  6
CONTINUOUS
 10
70.173052948
 20
133.7089635741
 40
9.785028
100
AcDbArc
 50
180.0
 51
211.85
  0
CIRCLE
  5
36E
100
AcDbEntity
  8
BEZUGSACHSEN
100
AcDbCircle
 62
7
  6
CONTINUOUS
 10
69.313414348
 20
145.8044906445
 40
2.447168143
  0
ARC
  5
36F
100
AcDbEntity
  8
BEZUGSACHSEN
100
AcDbCircle
 62
7
  6
CONTINUOUS
 10
92.259709348
 20
133.6095962445
 40
1.9570056
100
AcDbArc
 50
270.0
 51
360.0
  0
ARC
  5
370
100
AcDbEntity
  8
BEZUGSACHSEN
100
AcDbCircle
 62
7
  6
CONTINUOUS
 10
77.843640548
 20
133.6095962445
 40
1.9570056
100
AcDbArc
 50
180.0
 51
270.0
  0
ARC
  5
371
100
AcDbEntity
  8
RUNDUNGEN
100
AcDbCircle
 62
7
  6
CONTINUOUS
 10
77.506690548
 20
132.2617962445
 40
1.9570056
100
AcDbArc
 50
180.0
 51
270.0003143616
  0
ARC
  5
372
100
AcDbEntity
  8
RUNDUNGEN
100
AcDbCircle
 62
7
  6
CONTINUOUS
 10
92.461879348
 20
132.2617962445
 40
1.9570056
100
AcDbArc
 50
270.0010222255
 51
360.0
  0
ARC
  5
373
100
AcDbEntity
  8
BEZUGSACHSEN
100
AcDbCircle
 62
7
  6
CONTINUOUS
 10
92.461879348
 20
132.2617962445
 40
1.9570056
100
AcDbArc
 50
270.0010222255
 51
308.6248123973
  0
ARC
  5
374
100
AcDbEntity
  8
BEZUGSACHSEN
100
AcDbCircle
 62
7
  6
CONTINUOUS
 10
69.9085720548
 20
161.9780906445
 40
8.3178436932
100
AcDbArc
 50
315.9475377101
 51
68.763761634
  0
ARC
  5
375
100
AcDbEntity
  8
BEZUGSACHSEN
100
AcDbCircle
 62
7
  6
CONTINUOUS
 10
102.2003042412
 20
161.9780906445
 40
8.3178436932
100
AcDbArc
 50
167.5279813677
 51
196.2980635084
  0
ARC
  5
376
100
AcDbEntity
  8
BEZUGSACHSEN
100
AcDbCircle
 62
7
  6
CONTINUOUS
 10
65.2525606654
 20
152.9855832243
 40
4.8645357316
100
AcDbArc
 50
144.9956305717
 51
180.0043694283
  0
ARC
  5
377
100
AcDbEntity
  8
BEZUGSACHSEN
100
AcDbCircle
 62
7
  6
CONTINUOUS
 10
73.7873319084
 20
171.9549544811
 40
2.3864797876
100
AcDbArc
 50
248.4031419792
 51
248.7179510333
  0
ARC
  5
378
100
AcDbEntity
  8
RUNDUNGEN
100
AcDbCircle
 62
7
  6
CONTINUOUS
 10
73.592679348
 20
161.3688850445
 40
1.9570056
100
AcDbArc
 50
0.0
 51
90.0
  0
ARC
  5
379
100
AcDbEntity
  8
RUNDUNGEN
100
AcDbCircle
 62
7
  6
CONTINUOUS
 10
96.375890548
 20
161.3688850445
 40
1.9570056
100
AcDbArc
 50
90.0
 51
180.0
  0
ARC
  5
37A
100
AcDbEntity
  8
RUNDUNGEN
100
AcDbCircle
 62
7
  6
CONTINUOUS
 10
116.388024948
 20
121.5445906445
 40
45.1687
100
AcDbArc
 50
270.0
 51
357.8140273157
  0
ARC
  5
37B
100
AcDbEntity
  8
BEZUGSACHSEN
100
AcDbCircle
 62
7
  6
CONTINUOUS
 10
116.388024948
 20
116.1533906445
 40
39.7775
100
AcDbArc
 50
211.85
 51
270.0
  0
ARC
  5
37C
100
AcDbEntity
  8
BEZUGSACHSEN
100
AcDbCircle
 62
7
  6
CONTINUOUS
 10
116.388024948
 20
121.5445906445
 40
22.2387
100
AcDbArc
 50
270.0
 51
360.0
  0
ARC
  5
37D
100
AcDbEntity
  8
BEZUGSACHSEN
100
AcDbCircle
 62
7
  6
CONTINUOUS
 10
116.388024948
 20
116.1533906445
 40
16.8475
100
AcDbArc
 50
144.2528030188
 51
270.0
  0
ARC
  5
37E
100
AcDbEntity
  8
BEZUGSACHSEN
100
AcDbCircle
 62
7
  6
CONTINUOUS
 10
162.8674778412
 20
129.6308906445
 40
8.3178436932
100
AcDbArc
 50
135.9475377101
 51
251.2089475682
  0
ARC
  5
37F
100
AcDbEntity
  8
BEZUGSACHSEN
100
AcDbCircle
 62
7
  6
CONTINUOUS
 10
130.5757456548
 20
129.6308906445
 40
8.3178436932
100
AcDbArc
 50
347.5279813677
 51
16.2980635084
  0
ARC
  5
380
100
AcDbEntity
  8
RUNDUNGEN
100
AcDbCircle
 62
7
  6
CONTINUOUS
 10
130.5757456548
 20
129.6308906445
 40
8.3178436932
100
AcDbArc
 50
347.5279813677
 51
16.2980635084
  0
ARC
  5
381
100
AcDbEntity
  8
BEZUGSACHSEN
100
AcDbCircle
 62
7
  6
CONTINUOUS
 10
167.5234892306
 20
138.6233980647
 40
4.8645357316
100
AcDbArc
 50
324.9956305717
 51
0.0043694283
  0
CIRCLE
  5
382
100
AcDbEntity
  8
BEZUGSACHSEN
100
AcDbCircle
 62
7
  6
CONTINUOUS
 10
163.462635548
 20
145.8044906445
 40
2.447168143
  0
ARC
  5
383
100
AcDbEntity
  8
BEZUGSACHSEN
100
AcDbCircle
 62
7
  6
CONTINUOUS
 10
159.183370548
 20
130.2400962445
 40
1.9570056
100
AcDbArc
 50
180.0
 51
270.0
  0
ARC
  5
384
100
AcDbEntity
  8
BEZUGSACHSEN
100
AcDbCircle
 62
7
  6
CONTINUOUS
 10
136.400159348
 20
130.2400962445
 40
1.9570056
100
AcDbArc
 50
270.0
 51
360.0
  0
ARC
  5
385
100
AcDbEntity
  8
BEZUGSACHSEN
100
AcDbCircle
 62
7
  6
CONTINUOUS
 10
116.388024948
 20
170.4943906445
 40
44.7387
100
AcDbArc
 50
90.0
 51
178.5675668759
  0
ARC
  5
386
100
AcDbEntity
  8
BEZUGSACHSEN
100
AcDbCircle
 62
7
  6
CONTINUOUS
 10
116.388024948
 20
175.8855906445
 40
39.3475
100
AcDbArc
 50
31.85
 51
90.0
  0
ARC
  5
387
100
AcDbEntity
  8
BEZUGSACHSEN
100
AcDbCircle
 62
7
  6
CONTINUOUS
 10
116.388024948
 20
170.4943906445
 40
22.2387
100
AcDbArc
 50
90.0
 51
180.0
  0
ARC
  5
388
100
AcDbEntity
  8
BEZUGSACHSEN
100
AcDbCircle
 62
7
  6
CONTINUOUS
 10
116.388024948
 20
175.8855906445
 40
16.8475
100
AcDbArc
 50
324.2528030188
 51
90.0
  0
ARC
  5
389
100
AcDbEntity
  8
BEZUGSACHSEN
100
AcDbCircle
 62
7
  6
CONTINUOUS
 10
162.602996948
 20
157.5151565669
 40
9.785028
100
AcDbArc
 50
0.0
 51
31.85
  0
ARC
  5
38A
100
AcDbEntity
  8
BEZUGSACHSEN
100
AcDbCircle
 62
7
  6
CONTINUOUS
 10
138.003052948
 20
160.3266024952
 40
9.785028
100
AcDbArc
 50
144.2528030188
 51
180.0
  0
ARC
  5
38B
100
AcDbEntity
  8
RUNDUNGEN
100
AcDbCircle
 62
7
  6
CONTINUOUS
 10
140.516340548
 20
157.9993850445
 40
1.9570056
100
AcDbArc
 50
90.0
 51
180.0
  0
ARC
  5
38C
100
AcDbEntity
  8
RUNDUNGEN
100
AcDbCircle
 62
7
  6
CONTINUOUS
 10
154.932409348
 20
157.9993850445
 40
1.9570056
100
AcDbArc
 50
0.0
 51
90.0
  0
ARC
  5
38D
100
AcDbEntity
  8
BEZUGSACHSEN
100
AcDbCircle
 62
7
  6
CONTINUOUS
 10
140.314170548
 20
159.3471850445
 40
1.9570056
100
AcDbArc
 50
90.0009870129
 51
180.0
  0
ARC
  5
38E
100
AcDbEntity
  8
BEZUGSACHSEN
100
AcDbCircle
 62
7
  6
CONTINUOUS
 10
155.269359348
 20
159.3471850445
 40
1.9570056
100
AcDbArc
 50
0.0
 51
90.0001589031
  0
ARC
  5
38F
100
AcDbEntity
  8
BEZUGSACHSEN
100
AcDbCircle
 62
7
  6
CONTINUOUS
 10
244.7286582929
 20
102.6645548317
 40
9.785028
100
AcDbArc
 50
359.9999845129
 51
8.0000189395
  0
ARC
  5
390
100
AcDbEntity
  8
BEZUGSACHSEN
100
AcDbCircle
 62
8
  6
HIDDEN
 10
261.8524572929
 20
91.7788317778
 40
7.338771
100
AcDbArc
 50
99.0
 51
180.0
  0
ARC
  5
391
100
AcDbEntity
  8
BEZUGSACHSEN
100
AcDbCircle
 62
7
  6
CONTINUOUS
 10
247.8845200417
 20
122.3944283626
 40
3.9140112
100
AcDbArc
 50
7.9999773075
 51
45.0001723907
  0
ARC
  5
392
100
AcDbEntity
  8
BEZUGSACHSEN
100
AcDbCircle
 62
7
  6
CONTINUOUS
 10
252.5276974929
 20
128.821746356
 40
3.9140112
100
AcDbArc
 50
180.0
 51
224.9999975948
  0
ARC
  5
393
100
AcDbEntity
  8
BEZUGSACHSEN
100
AcDbCircle
 62
7
  6
CONTINUOUS
 10
257.4491946929
 20
79.8546129503
 40
2.9355084
100
AcDbArc
 50
180.0
 51
264.0
  0
ARC
  5
394
100
AcDbEntity
  8
BEZUGSACHSEN
100
AcDbCircle
 62
7
  6
CONTINUOUS
 10
251.4202122045
 20
127.8585336445
 40
2.446257
100
AcDbArc
 50
220.6885598486
 51
221.0144488482
  0
ARC
  5
395
100
AcDbEntity
  8
BEZUGSACHSEN
100
AcDbCircle
 62
7
  6
CONTINUOUS
 10
244.7286582929
 20
188.9444264573
 40
9.785028
100
AcDbArc
 50
351.9999971836
 51
0.0000154875
  0
ARC
  5
396
100
AcDbEntity
  8
BEZUGSACHSEN
100
AcDbCircle
 62
7
  6
CONTINUOUS
 10
246.3178201997
 20
161.9780906445
 40
8.3178436932
100
AcDbArc
 50
356.4990275492
 51
8.8690729808
  0
ARC
  5
397
100
AcDbEntity
  8
BEZUGSACHSEN
100
AcDbCircle
 62
8
  6
HIDDEN
 10
261.8524572929
 20
200.2601495112
 40
7.338771
100
AcDbArc
 50
180.0
 51
261.0
  0
ARC
  5
398
100
AcDbEntity
  8
BEZUGSACHSEN
100
AcDbCircle
 62
7
  6
CONTINUOUS
 10
252.5276974929
 20
162.787234933
 40
3.9140112
100
AcDbArc
 50
135.0000026882
 51
180.000000329
  0
ARC
  5
399
100
AcDbEntity
  8
BEZUGSACHSEN
100
AcDbCircle
 62
7
  6
CONTINUOUS
 10
247.8845200417
 20
169.2145529264
 40
3.9140112
100
AcDbArc
 50
314.9999962195
 51
352.000040086
  0
ARC
  5
39A
100
AcDbEntity
  8
BEZUGSACHSEN
100
AcDbCircle
 62
7
  6
CONTINUOUS
 10
257.4491946929
 20
211.7543683387
 40
2.9355084
100
AcDbArc
 50
96.0
 51
180.0
  0
ARC
  5
39B
100
AcDbEntity
  8
BEZUGSACHSEN
100
AcDbCircle
 62
7
  6
CONTINUOUS
 10
251.4202122045
 20
163.7504476445
 40
2.446257
100
AcDbArc
 50
138.9855511518
 51
152.7817076912
  0
ARC
  5
39C
100
AcDbEntity
  8
RUNDUNGEN
100
AcDbCircle
 62
7
  6
CONTINUOUS
 10
250.5706918929
 20
155.8447624157
 40
1.9570056
100
AcDbArc
 50
139.8283635656
 51
180.0
  0
ARC
  5
39D
100
AcDbEntity
  8
RUNDUNGEN
100
AcDbCircle
 62
7
  6
CONTINUOUS
 10
280.1987142929
 20
102.6645548317
 40
9.785028
100
AcDbArc
 50
171.9999810605
 51
180.0000154871
  0
ARC
  5
39E
100
AcDbEntity
  8
RUNDUNGEN
100
AcDbCircle
 62
8
  6
HIDDEN
 10
263.0749152929
 20
91.7788317778
 40
7.338771
100
AcDbArc
 50
0.0
 51
81.0
  0
ARC
  5
39F
100
AcDbEntity
  8
RUNDUNGEN
100
AcDbCircle
 62
7
  6
CONTINUOUS
 10
277.0428525442
 20
122.3944283626
 40
3.9140112
100
AcDbArc
 50
134.9998276093
 51
172.0000226925
  0
ARC
  5
3A0
100
AcDbEntity
  8
RUNDUNGEN
100
AcDbCircle
 62
7
  6
CONTINUOUS
 10
272.3996750929
 20
128.821746356
 40
3.9140112
100
AcDbArc
 50
315.0000024052
 51
359.9983354172
  0
ARC
  5
3A1
100
AcDbEntity
  8
RUNDUNGEN
100
AcDbCircle
 62
7
  6
CONTINUOUS
 10
267.4781778929
 20
79.8546129503
 40
2.9355084
100
AcDbArc
 50
276.0
 51
360.0
  0
ARC
  5
3A2
100
AcDbEntity
  8
RUNDUNGEN
100
AcDbCircle
 62
7
  6
CONTINUOUS
 10
273.5071605318
 20
127.858533694
 40
2.4462569725
100
AcDbArc
 50
318.9855479634
 51
319.311336579
  0
ARC
  5
3A3
100
AcDbEntity
  8
RUNDUNGEN
100
AcDbCircle
 62
7
  6
CONTINUOUS
 10
262.4636862929
 20
145.8044906445
 40
17.5214
100
AcDbArc
 50
40.1716364344
 51
139.8283635656
  0
CIRCLE
  5
3A4
100
AcDbEntity
  8
0
100
AcDbCircle
 62
7
  6
CONTINUOUS
 10
262.4636862929
 20
145.8044906445
 40
5.8710168
  0
ARC
  5
3A5
100
AcDbEntity
  8
BEZUGSACHSEN
100
AcDbCircle
 62
8
  6
HIDDEN
 10
263.0749152929
 20
200.2601495112
 40
7.338771
100
AcDbArc
 50
279.0
 51
360.0
  0
ARC
  5
3A6
100
AcDbEntity
  8
BEZUGSACHSEN
100
AcDbCircle
 62
7
  6
CONTINUOUS
 10
267.4781778929
 20
211.7543683387
 40
2.9355084
100
AcDbArc
 50
0.0
 51
84.0
  0
ARC
  5
3A7
100
AcDbEntity
  8
BEZUGSACHSEN
100
AcDbCircle
 62
7
  6
CONTINUOUS
 10
278.6095523861
 20
161.9780906445
 40
8.3178436932
100
AcDbArc
 50
171.1318362513
 51
183.5122388913
  0
ARC
  5
3A8
100
AcDbEntity
  8
BEZUGSACHSEN
100
AcDbCircle
 62
7
  6
CONTINUOUS
 10
272.3996750929
 20
162.787234933
 40
3.9140112
100
AcDbArc
 50
359.999999671
 51
44.9999973118
  0
ARC
  5
3A9
100
AcDbEntity
  8
BEZUGSACHSEN
100
AcDbCircle
 62
7
  6
CONTINUOUS
 10
277.0428525442
 20
169.2145529264
 40
3.9140112
100
AcDbArc
 50
187.999959914
 51
225.0000037805
  0
ARC
  5
3AA
100
AcDbEntity
  8
BEZUGSACHSEN
100
AcDbCircle
 62
7
  6
CONTINUOUS
 10
273.5071603813
 20
163.7504476445
 40
2.446257
100
AcDbArc
 50
27.2182923088
 51
41.0144488482
  0
ARC
  5
3AB
100
AcDbEntity
  8
RUNDUNGEN
100
AcDbCircle
 62
7
  6
CONTINUOUS
 10
274.3566806929
 20
155.8447624157
 40
1.9570056
100
AcDbArc
 50
359.9999182161
 51
40.1716364344
  0
ARC
  5
3AC
100
AcDbEntity
  8
BEZUGSACHSEN
100
AcDbCircle
 62
7
  6
CONTINUOUS
 10
280.1987142929
 20
188.9444264573
 40
9.785028
100
AcDbArc
 50
181.5036679231
 51
188.0000028164
  0
SPLINE
  5
3AD
100
AcDbEntity
  8
BEZUGSACHSEN
100
AcDbSpline
 62
7
  6
CONTINUOUS
 70
0
 71
3
 72
8
 73
4
 74
0
 42
0.0000001
 43
0.0000001
 44
0.0000000001
 40
0.0
 40
0.0
 40
0.0
 40
0.0
 40
1.0
 40
1.0
 40
1.0
 40
1.0
 10
94.0787501632
 20
163.7744350511
 30
0.0
 10
94.126874085
 20
163.9912575598
 30
0.0
 10
94.149325022
 20
164.214884592
 30
0.0
 10
94.149324948
 20
164.4369834712
 30
0.0
  0
SPLINE
  5
3AE
100
AcDbEntity
  8
BEZUGSACHSEN
100
AcDbSpline
 62
7
  6
CONTINUOUS
 70
0
 71
3
 72
11
 73
7
 74
0
 42
0.0000001
 43
0.0000001
 44
0.0000000001
 40
0.0
 40
0.0
 40
0.0
 40
0.0
 40
0.2500104169
 40
0.5000108951
 40
0.75000483
 40
1.0
 40
1.0
 40
1.0
 40
1.0
 10
72.9096800848
 20
169.7357137818
 30
0.0
 10
72.7245281844
 20
169.8090235605
 30
0.0
 10
72.3742502913
 20
170.0132775822
 30
0.0
 10
71.9659682207
 20
170.4615452274
 30
0.0
 10
71.7102372118
 20
171.0113844921
 30
0.0
 10
71.6583280806
 20
171.4137091586
 30
0.0
 10
71.6633058177
 20
171.6127718004
 30
0.0
  0
SPLINE
  5
3AF
100
AcDbEntity
  8
BEZUGSACHSEN
100
AcDbSpline
 62
7
  6
CONTINUOUS
 70
0
 71
3
 72
11
 73
7
 74
0
 42
0.0000001
 43
0.0000001
 44
0.0000000001
 40
0.0
 40
0.0
 40
0.0
 40
0.0
 40
0.2500139657
 40
0.500003507
 40
0.7499908108
 40
1.0
 40
1.0
 40
1.0
 40
1.0
 10
165.1897173592
 20
128.2830910397
 30
0.0
 10
165.3476036625
 20
128.2830910685
 30
0.0
 10
165.6646504501
 20
128.3210846397
 30
0.0
 10
166.1121956968
 20
128.4890044399
 30
0.0
 10
166.5072846039
 20
128.7581125787
 30
0.0
 10
166.7206508934
 20
128.9957670589
 30
0.0
 10
166.8112091082
 20
129.1250974189
 30
0.0
  0
SPLINE
  5
3B0
100
AcDbEntity
  8
BEZUGSACHSEN
100
AcDbSpline
 62
7
  6
CONTINUOUS
 70
0
 71
3
 72
15
 73
11
 74
0
 42
0.0000001
 43
0.0000001
 44
0.0000000001
 40
0.0
 40
0.0
 40
0.0
 40
0.0
 40
0.1250047634
 40
0.2500010335
 40
0.3750036573
 40
0.5000036904
 40
0.6250030325
 40
0.7500039506
 40
0.8749974339
 40
1.0
 40
1.0
 40
1.0
 40
1.0
 10
130.199424869
 20
128.2830932448
 30
0.0
 10
130.0706559474
 20
128.2830930974
 30
0.0
 10
129.8124327799
 20
128.3081037348
 30
0.0
 10
129.4400900114
 20
128.4193541055
 30
0.0
 10
129.0960296276
 20
128.6003452506
 30
0.0
 10
128.7935764304
 20
128.8445875735
 30
0.0
 10
128.544463421
 20
129.1430786062
 30
0.0
 10
128.358701348
 20
129.4846822009
 30
0.0
 10
128.243921996
 20
129.8560788418
 30
0.0
 10
128.2180249671
 20
130.1143407115
 30
0.0
 10
128.218024948
 20
130.2431073697
 30
0.0
  0
SPLINE
  5
3B1
100
AcDbEntity
  8
RUNDUNGEN
100
AcDbSpline
 62
7
  6
CONTINUOUS
 70
0
 71
3
 72
15
 73
11
 74
0
 42
0.0000001
 43
0.0000001
 44
0.0000000001
 40
0.0
 40
0.0
 40
0.0
 40
0.0
 40
0.1250047634
 40
0.2500010335
 40
0.3750036573
 40
0.5000036904
 40
0.6250030324
 40
0.7500039506
 40
0.8749974339
 40
1.0
 40
1.0
 40
1.0
 40
1.0
 10
102.5766250271
 20
163.3258880445
 30
0.0
 10
102.7053939488
 20
163.325888192
 30
0.0
 10
102.9636171172
 20
163.3008775604
 30
0.0
 10
103.3359598857
 20
163.1896271865
 30
0.0
 10
103.6800202699
 20
163.0086360418
 30
0.0
 10
103.982473467
 20
162.7643937179
 30
0.0
 10
104.2315864762
 20
162.4659026845
 30
0.0
 10
104.4173485489
 20
162.1242990892
 30
0.0
 10
104.5321279005
 20
161.7529024476
 30
0.0
 10
104.5580249291
 20
161.4946405777
 30
0.0
 10
104.558024948
 20
161.3658739193
 30
0.0
  0
SPLINE
  5
3B2
100
AcDbEntity
  8
RUNDUNGEN
100
AcDbSpline
 62
7
  6
CONTINUOUS
 70
0
 71
3
 72
11
 73
7
 74
0
 42
0.0000001
 43
0.0000001
 44
0.0000000001
 40
0.0
 40
0.0
 40
0.0
 40
0.0
 40
0.2500139657
 40
0.500003507
 40
0.7499908108
 40
1.0
 40
1.0
 40
1.0
 40
1.0
 10
67.5863325369
 20
163.3258902503
 30
0.0
 10
67.4284462335
 20
163.3258902215
 30
0.0
 10
67.1113994459
 20
163.2878966494
 30
0.0
 10
66.6638541992
 20
163.1199768495
 30
0.0
 10
66.2687652922
 20
162.8508687103
 30
0.0
 10
66.0553990027
 20
162.6132142301
 30
0.0
 10
65.9648407878
 20
162.4838838701
 30
0.0
  0
SPLINE
  5
3B3
100
AcDbEntity
  8
RUNDUNGEN
100
AcDbSpline
 62
7
  6
CONTINUOUS
 70
0
 71
3
 72
11
 73
7
 74
0
 42
0.0000001
 43
0.0000001
 44
0.0000000001
 40
0.0
 40
0.0
 40
0.0
 40
0.0
 40
0.2500129568
 40
0.5000131449
 40
0.7500058437
 40
1.0
 40
1.0
 40
1.0
 40
1.0
 10
160.1881518454
 20
121.7563915549
 30
0.0
 10
160.3860927471
 20
121.68904265
 30
0.0
 10
160.7631348017
 20
121.4896332296
 30
0.0
 10
161.2045328647
 20
121.0295137808
 30
0.0
 10
161.4794991336
 20
120.4541491574
 30
0.0
 10
161.5318295511
 20
120.0306304297
 30
0.0
 10
161.5238549929
 20
119.8217134427
 30
0.0
  0
SPLINE
  5
3B4
100
AcDbEntity
  8
RUNDUNGEN
100
AcDbSpline
 62
7
  6
CONTINUOUS
 70
0
 71
3
 72
8
 73
4
 74
0
 42
0.0000001
 43
0.0000001
 44
0.0000000001
 40
0.0
 40
0.0
 40
0.0
 40
0.0
 40
1.0
 40
1.0
 40
1.0
 40
1.0
 10
138.6972997469
 20
127.8345462346
 30
0.0
 10
138.6491701751
 20
127.6177249806
 30
0.0
 10
138.626724873
 20
127.3940966963
 30
0.0
 10
138.626724948
 20
127.1719978177
 30
0.0
  0
SPLINE
  5
3B5
100
AcDbEntity
  8
BEZUGSACHSEN
100
AcDbSpline
 62
7
  6
CONTINUOUS
 70
0
 71
3
 72
13
 73
9
 74
0
 42
0.0000001
 43
0.0000001
 44
0.0000000001
 40
0.0
 40
0.0
 40
0.0
 40
0.0
 40
0.0698063866
 40
0.160476021
 40
0.2699363088
 40
0.3957094861
 40
0.6843761311
 40
1.0
 40
1.0
 40
1.0
 40
1.0
 10
262.4650943512
 20
169.7357137818
 30
0.0
 10
262.4650935253
 20
169.7793908034
 30
0.0
 10
262.463190492
 20
169.8797893779
 30
0.0
 10
262.4636962376
 20
170.0486897902
 30
0.0
 10
262.4637480857
 20
170.2526018055
 30
0.0
 10
262.4636189777
 20
170.5804005303
 30
0.0
 10
262.4637125127
 20
171.0371922503
 30
0.0
 10
262.4636862927
 20
171.4152897188
 30
0.0
 10
262.4636862929
 20
171.6127718004
 30
0.0
  0
ELLIPSE
  5
3B6
100
AcDbEntity
  8
0
100
AcDbEllipse
 62
7
  6
CONTINUOUS
 10
60.388024948
 20
145.8044906445
 30
0.0
 11
-0.0
 21
5.8710168
 31
0.0
 40
0.1051042353
 41
3.1415926536
 42
6.2831853072
  0
ELLIPSE
  5
3B7
100
AcDbEntity
  8
BEZUGSACHSEN
100
AcDbEllipse
 62
7
  6
CONTINUOUS
 10
172.388024948
 20
145.8044906445
 30
0.0
 11
-0.0
 21
5.8710168
 31
0.0
 40
0.1051042353
 41
0.0
 42
3.1415926536
  0
ELLIPSE
  5
3B8
100
AcDbEntity
  8
BEZUGSACHSEN
100
AcDbEllipse
 62
7
  6
CONTINUOUS
 10
128.218024948
 20
145.8044906445
 30
0.0
 11
0.0
 21
5.5
 31
0.0
 40
0.1583844403
 41
-3.1415926536
 42
-0.0
  0
ELLIPSE
  5
3B9
100
AcDbEntity
  8
0
100
AcDbEllipse
 62
7
  6
CONTINUOUS
 10
104.558024948
 20
145.8044906445
 30
0.0
 11
0.0
 21
5.5
 31
0.0
 40
0.1583844403
 41
-0.0
 42
3.1415926536
  0
ENDSEC
  0
SECTION
  2
OBJECTS
  0
DICTIONARY
  5
C
100
AcDbDictionary
280
0
281
1
  3
ACAD_GROUP
350
D
  3
ACAD_MLINESTYLE
350
17
  3
ACAD_LAYOUT
350
1A
  3
ACAD_PLOTSETTINGS
350
19
  3
ACAD_PLOTSTYLENAME
350
E
  0
DICTIONARY
  5
D
102
{ACAD_REACTORS
330
C
102
}
100
AcDbDictionary
280
0
281
1
  0
ACDBDICTIONARYWDFLT
  5
E
102
{ACAD_REACTORS
330
C
102
}
100
AcDbDictionary
281
1
  3
Normal
350
F
100
AcDbDictionaryWithDefault
340
F
  0
DICTIONARY
  5
17
102
{ACAD_REACTORS
330
C
102
}
100
AcDbDictionary
280
0
281
1
  3
Standard
350
18
  0
DICTIONARY
  5
19
102
{ACAD_REACTORS
330
C
102
}
100
AcDbDictionary
281
1
  0
DICTIONARY
  5
1A
102
{ACAD_REACTORS
330
C
102
}
100
AcDbDictionary
281
1
  3
Model
350
3BA
  3
Layout1
350
3BB
  0
ACDBPLACEHOLDER
  5
F
102
{ACAD_REACTORS
330
E
102
}
  0
MLINESTYLE
  5
18
102
{ACAD_REACTORS
330
17
102
}
100
AcDbMlineStyle
  2
STANDARD
 70
0
  3

 62
256
 51
90.0
 52
90.0
 71
2
 49
0.5
 62
256
  6
BYLAYER
 49
-0.5
 62
256
  6
BYLAYER
  0
LAYOUT
  5
3BA
102
{ACAD_REACTORS
330
1A
102
}
100
AcDbPlotSettings
  1

  2
none_device
  4
ISO_A3_(420.00_x_297.00_MM)
  6

 40
0.0
 41
0.0
 42
0.0
 43
0.0
 44
420.0
 45
297.0
 46
0.0
 47
0.0
 48
0.0
 49
0.0
140
0.0
141
0.0
142
1.0
143
1.0
 70
1024
 72
1
 73
0
 74
0
  7

 75
0
147
1.0
148
0.0
149
0.0
100
AcDbLayout
  1
Model
 70
0
 71
0
 10
0.0
 20
0.0
 11
420.0
 21
297.0
 12
0.0
 22
0.0
 32
0.0
 14
0.0
 24
0.0
 34
0.0
 15
0.0
 25
0.0
 35
0.0
146
0.0
 13
0.0
 23
0.0
 33
0.0
 16
1.0
 26
0.0
 36
0.0
 17
0.0
 27
1.0
 37
0.0
 76
0
330
207
345
0
346
0
  0
LAYOUT
  5
3BB
102
{ACAD_REACTORS
330
1A
102
}
100
AcDbPlotSettings
  1

  2
none_device
  4
ISO_A3_(420.00_x_297.00_MM)
  6

 40
0.0
 41
0.0
 42
0.0
 43
0.0
 44
420.0
 45
297.0
 46
0.0
 47
0.0
 48
0.0
 49
0.0
140
0.0
141
0.0
142
1.0
143
1.0
 70
0
 72
1
 73
0
 74
0
  7

 75
0
147
1.0
148
0.0
149
0.0
100
AcDbLayout
  1
Layout1
 70
0
 71
1
 10
0.0
 20
0.0
 11
420.0
 21
297.0
 12
0.0
 22
0.0
 32
0.0
 14
0.0
 24
0.0
 34
0.0
 15
0.0
 25
0.0
 35
0.0
146
0.0
 13
0.0
 23
0.0
 33
0.0
 16
1.0
 26
0.0
 36
0.0
 17
0.0
 27
1.0
 37
0.0
 76
0
330
208
345
0
346
0
  0
ENDSEC
  0
EOF
