999
DXF file: vvs-10-dxf.dxf
999
Pro/ENGINEER 2010140 by Parametric Technology Corporation
  0
SECTION
  2
HEADER
  9
$ACADVER
  1
AC1021
  9
$DWGCODEPAGE
  3
ANSI_1252
  9
$EXTMAX
 10
420.0
 20
297.0
 30
0.0
  9
$EXTMIN
 10
0.0
 20
0.0
 30
0.0
  9
$LIMMIN
 10
0.0
 20
0.0
  9
$LIMMAX
 10
420.0
 20
297.0
  9
$VIEWCTR
 10
210.0
 20
148.5
  9
$VIEWSIZE
 40
297.0
  9
$CLAYER
  8
0
  9
$LTSCALE
 40
23.1
  9
$CELTYPE
  6
BYLAYER
  9
$DIMSCALE
 40
1.0
  9
$DIMASZ
 40
3.5
  9
$DIMEXO
 40
2.625
  9
$DIMDLI
 40
15.96
  9
$DIMEXE
 40
7.56
  9
$DIMCEN
 40
3.78
  9
$DIMLFAC
 40
1.0
  9
$DIMBLK
  1
_FILLED
  9
$DIMTXT
 40
3.5
  9
$DIMTOL
 70
1
  9
$DIMLIM
 70
0
  9
$DIMTFAC
 40
1.0
  9
$DIMTP
 40
0.005
  9
$DIMTM
 40
0.005
  9
$PDMODE
 70
3
  9
$PDSIZE
 40
0.3125
  9
$HANDSEED
  5
39B
  9
$TILEMODE
 70
1
  9
$MEASUREMENT
 70
1
  9
$INSUNITS
 70
4
  0
ENDSEC
  0
SECTION
  2
CLASSES
  0
CLASS
  1
ACDBDICTIONARYWDFLT
  2
AcDbDictionaryWithDefault
  3
AutoCAD 2000
 90
0
 91
1
280
0
281
0
  0
CLASS
  1
ACDBPLACEHOLDER
  2
AcDbPlaceHolder
  3
AutoCAD 2000
 90
0
 91
1
280
0
281
0
  0
CLASS
  1
LAYOUT
  2
AcDbLayout
  3
AutoCAD 2000
 90
0
 91
0
280
0
281
0
  0
ENDSEC
  0
SECTION
  2
TABLES
  0
TABLE
  2
VPORT
  5
8
100
AcDbSymbolTable
 70
2
  0
VPORT
  5
1F4
100
AcDbSymbolTableRecord
100
AcDbViewportTableRecord
  2
*ACTIVE
 70
0
 10
0.0
 20
0.0
 11
1.0
 21
1.0
 12
210.0
 22
148.5
 13
0.0
 23
0.0
 14
1.0
 24
1.0
 15
0.0
 25
0.0
 16
0.0
 26
0.0
 36
1.0
 17
0.0
 27
0.0
 37
0.0
 40
297.0
 41
1.4141414141
 42
50.0
 43
0.0
 44
0.0
 50
0.0
 51
0.0
 71
0
 72
100
 73
1
 74
1
 75
0
 76
0
 77
0
 78
0
  0
ENDTAB
  0
TABLE
  2
LTYPE
  5
5
100
AcDbSymbolTable
 70
6
  0
LTYPE
  5
14
100
AcDbSymbolTableRecord
100
AcDbLinetypeTableRecord
  2
BYBLOCK
 70
0
  3

 72
65
 73
0
 40
0.0
  0
LTYPE
  5
15
100
AcDbSymbolTableRecord
100
AcDbLinetypeTableRecord
  2
BYLAYER
 70
0
  3

 72
65
 73
0
 40
0.0
  0
LTYPE
  5
16
100
AcDbSymbolTableRecord
100
AcDbLinetypeTableRecord
  2
CONTINUOUS
 70
64
  3
Solid line
 72
65
 73
0
 40
0.0
  0
LTYPE
  5
1F5
100
AcDbSymbolTableRecord
100
AcDbLinetypeTableRecord
  2
CENTER
 70
64
  3
____ _ ____ _ ____ _ ____ _ ____ _ ____ _ ____
 72
65
 73
4
 40
0.6
 49
0.375
 74
0
 49
-0.075
 74
0
 49
0.075
 74
0
 49
-0.075
 74
0
  0
LTYPE
  5
1F6
100
AcDbSymbolTableRecord
100
AcDbLinetypeTableRecord
  2
HIDDEN
 70
64
  3
- - - - - - - - - - - - - - - - - - - -
 72
65
 73
2
 40
0.2
 49
0.1
 74
0
 49
-0.1
 74
0
  0
LTYPE
  5
1F7
100
AcDbSymbolTableRecord
100
AcDbLinetypeTableRecord
  2
PHANTOM
 70
64
  3
_____ _ _ _____ _ _ _____ _ _ _____
 72
65
 73
6
 40
0.8
 49
0.45
 74
0
 49
-0.05
 74
0
 49
0.1
 74
0
 49
-0.05
 74
0
 49
0.1
 74
0
 49
-0.05
 74
0
  0
LTYPE
  5
1F8
100
AcDbSymbolTableRecord
100
AcDbLinetypeTableRecord
  2
DOT
 70
64
  3
. . . . . . . . . . . . . . . . . . . .
 72
65
 73
2
 40
0.2
 49
0.1
 74
0
 49
-0.1
 74
0
  0
LTYPE
  5
1F9
100
AcDbSymbolTableRecord
100
AcDbLinetypeTableRecord
  2
DASHED
 70
64
  3
- - - - - - - - - - - - - - - - - - - -
 72
65
 73
2
 40
0.2
 49
0.1
 74
0
 49
-0.1
 74
0
  0
ENDTAB
  0
TABLE
  2
LAYER
  5
2
100
AcDbSymbolTable
 70
36
  0
LAYER
  5
10
100
AcDbSymbolTableRecord
100
AcDbLayerTableRecord
  2
0
 70
0
 62
7
  6
CONTINUOUS
370
-3
390
F
  0
LAYER
  5
1FA
100
AcDbSymbolTableRecord
100
AcDbLayerTableRecord
  2
DEFAULT_1
 70
0
 62
7
  6
CENTER
370
-3
390
F
  0
LAYER
  5
1FB
100
AcDbSymbolTableRecord
100
AcDbLayerTableRecord
  2
DEFAULT_2
 70
0
 62
8
  6
HIDDEN
370
-3
390
F
  0
LAYER
  5
1FC
100
AcDbSymbolTableRecord
100
AcDbLayerTableRecord
  2
DEFAULT_3
 70
0
 62
7
  6
PHANTOM
370
-3
390
F
  0
LAYER
  5
1FD
100
AcDbSymbolTableRecord
100
AcDbLayerTableRecord
  2
AUSFORMSCHRAEGEN
 70
0
 62
7
  6
CONTINUOUS
370
-3
390
F
  0
LAYER
  5
1FE
100
AcDbSymbolTableRecord
100
AcDbLayerTableRecord
  2
BEZUGSACHSEN
 70
0
 62
7
  6
CONTINUOUS
370
-3
390
F
  0
LAYER
  5
1FF
100
AcDbSymbolTableRecord
100
AcDbLayerTableRecord
  2
BEZUGSEBENEN
 70
0
 62
7
  6
CONTINUOUS
370
-3
390
F
  0
LAYER
  5
200
100
AcDbSymbolTableRecord
100
AcDbLayerTableRecord
  2
HILFEN
 70
0
 62
7
  6
CONTINUOUS
370
-3
390
F
  0
LAYER
  5
201
100
AcDbSymbolTableRecord
100
AcDbLayerTableRecord
  2
PLATZIERUNG
 70
0
 62
7
  6
CONTINUOUS
370
-3
390
F
  0
LAYER
  5
202
100
AcDbSymbolTableRecord
100
AcDbLayerTableRecord
  2
RUNDUNGEN
 70
0
 62
7
  6
CONTINUOUS
370
-3
390
F
  0
LAYER
  5
203
100
AcDbSymbolTableRecord
100
AcDbLayerTableRecord
  2
T_STARTBEZUEGE
 70
0
 62
7
  6
CONTINUOUS
370
-3
390
F
  0
LAYER
  5
204
100
AcDbSymbolTableRecord
100
AcDbLayerTableRecord
  2
ZEICHNUNGSBEMASSUNGEN
 70
0
 62
7
  6
CONTINUOUS
370
-3
390
F
  0
ENDTAB
  0
TABLE
  2
STYLE
  5
3
100
AcDbSymbolTable
 70
1
  0
STYLE
  5
11
100
AcDbSymbolTableRecord
100
AcDbTextStyleTableRecord
  2
STANDARD
 70
0
 40
0.0
 41
0.7
 50
0.0
 71
0
 42
0.2
  3
txt
  4

  0
STYLE
  5
205
100
AcDbSymbolTableRecord
100
AcDbTextStyleTableRecord
  2
TEXTSTYLE_1
 70
0
 40
0.0
 41
0.8
 50
0.0
 71
0
 42
0.2
  3
gdt
  4

  0
ENDTAB
  0
TABLE
  2
VIEW
  5
6
100
AcDbSymbolTable
 70
0
  0
ENDTAB
  0
TABLE
  2
UCS
  5
7
100
AcDbSymbolTable
 70
0
  0
ENDTAB
  0
TABLE
  2
APPID
  5
9
100
AcDbSymbolTable
 70
1
  0
APPID
  5
206
100
AcDbSymbolTableRecord
100
AcDbRegAppTableRecord
  2
ACAD
 70
0
  0
ENDTAB
  0
TABLE
  2
BLOCK_RECORD
  5
1
100
AcDbSymbolTable
 70
0
  0
BLOCK_RECORD
  5
207
100
AcDbSymbolTableRecord
100
AcDbBlockTableRecord
  2
*Model_Space
  0
BLOCK_RECORD
  5
208
100
AcDbSymbolTableRecord
100
AcDbBlockTableRecord
  2
*Paper_Space
  0
ENDTAB
  0
TABLE
  2
DIMSTYLE
  5
A
100
AcDbSymbolTable
 70
1
100
AcDbDimStyleTable
 71
0
  0
DIMSTYLE
105
209
100
AcDbSymbolTableRecord
100
AcDbDimStyleTableRecord
  2
STANDARD
 70
0
  3

  4

 40
1.0
 41
3.5
 42
0.0625
 43
0.38
 44
0.18
 45
0.0
 46
0.0
 47
0.005
 48
0.005
140
3.5
141
0.09
142
0.0
143
25.4
144
1.0
145
0.0
146
1.0
147
0.09
 71
1.0
 72
0.0
 73
0
 74
0
 75
0
 76
0
 77
1
 78
8
170
0
171
2
172
0
173
0
174
0
175
0
176
0
177
0
178
5
270
2
271
3
272
3
273
2
274
2
275
0
280
0
281
0
282
0
283
1
284
8
285
0
286
0
287
3
288
0
340
11
  0
ENDTAB
  0
ENDSEC
  0
SECTION
  2
BLOCKS
  0
BLOCK
  5
20
100
AcDbEntity
  8
0
100
AcDbBlockBegin
  2
*Model_Space
 70
0
 10
0.0
 20
0.0
 30
0.0
  3
*Model_Space
  1

  0
ENDBLK
  5
21
100
AcDbEntity
  8
0
100
AcDbBlockEnd
  0
BLOCK
  5
1C
100
AcDbEntity
  8
0
100
AcDbBlockBegin
  2
*Paper_Space
 70
0
 10
0.0
 20
0.0
 30
0.0
  3
*Paper_Space
  1

  0
ENDBLK
  5
1D
100
AcDbEntity
  8
0
100
AcDbBlockEnd
  0
ENDSEC
  0
SECTION
  2
ENTITIES
  0
LINE
  5
20A
100
AcDbEntity
  8
0
100
AcDbLine
 62
7
  6
CONTINUOUS
 10
0.0
 20
0.0
 11
0.0
 21
297.0
  0
LINE
  5
20B
100
AcDbEntity
  8
0
100
AcDbLine
 62
7
  6
CONTINUOUS
 10
0.0
 20
0.0
 11
420.0
 21
0.0
  0
LINE
  5
20C
100
AcDbEntity
  8
0
100
AcDbLine
 62
7
  6
CONTINUOUS
 10
0.0
 20
297.0
 11
420.0
 21
297.0
  0
LINE
  5
20D
100
AcDbEntity
  8
0
100
AcDbLine
 62
7
  6
CONTINUOUS
 10
420.0
 20
0.0
 11
420.0
 21
297.0
  0
LINE
  5
20E
100
AcDbEntity
  8
BEZUGSACHSEN
100
AcDbLine
 62
7
  6
CONTINUOUS
 10
102.6579116339
 20
190.8747615322
 11
101.9428746277
 21
190.483723105
  0
LINE
  5
20F
100
AcDbEntity
  8
BEZUGSACHSEN
100
AcDbLine
 62
7
  6
CONTINUOUS
 10
107.8587257055
 20
193.0076524756
 11
107.0819990305
 21
192.760902411
  0
LINE
  5
210
100
AcDbEntity
  8
BEZUGSACHSEN
100
AcDbLine
 62
7
  6
CONTINUOUS
 10
103.1547303752
 20
191.0278795647
 11
102.6579116339
 21
190.8747615322
  0
LINE
  5
211
100
AcDbEntity
  8
0
100
AcDbLine
 62
7
  6
CONTINUOUS
 10
129.8186191819
 20
101.2819081973
 11
129.411179815
 21
101.1776698204
  0
LINE
  5
212
100
AcDbEntity
  8
0
100
AcDbLine
 62
7
  6
CONTINUOUS
 10
119.1732281119
 20
97.4714174269
 11
119.9834118591
 21
97.5596923109
  0
LINE
  5
213
100
AcDbEntity
  8
0
100
AcDbLine
 62
7
  6
CONTINUOUS
 10
72.388024948
 20
137.9461943494
 11
72.388024948
 21
141.2838077085
  0
LINE
  5
214
100
AcDbEntity
  8
0
100
AcDbLine
 62
7
  6
CONTINUOUS
 10
72.388024948
 20
150.3251735805
 11
72.388024948
 21
151.333646281
  0
LINE
  5
215
100
AcDbEntity
  8
BEZUGSACHSEN
100
AcDbLine
 62
7
  6
CONTINUOUS
 10
94.567997278
 20
184.5970214844
 11
94.157432297
 21
184.1442042966
  0
LINE
  5
216
100
AcDbEntity
  8
BEZUGSACHSEN
100
AcDbLine
 62
7
  6
CONTINUOUS
 10
92.5746749908
 20
181.9798612801
 11
92.1419935641
 21
181.5357688596
  0
LINE
  5
217
100
AcDbEntity
  8
BEZUGSACHSEN
100
AcDbLine
 62
7
  6
CONTINUOUS
 10
92.5702169802
 20
181.2404184297
 11
92.9450585001
 21
181.6006497983
  0
LINE
  5
218
100
AcDbEntity
  8
BEZUGSACHSEN
100
AcDbLine
 62
7
  6
CONTINUOUS
 10
101.9347940229
 20
189.6492334953
 11
102.242393708
 21
189.9360346644
  0
LINE
  5
219
100
AcDbEntity
  8
BEZUGSACHSEN
100
AcDbLine
 62
7
  6
CONTINUOUS
 10
101.9428746277
 20
190.483723105
 11
101.545895577
 21
190.1480422643
  0
LINE
  5
21A
100
AcDbEntity
  8
BEZUGSACHSEN
100
AcDbLine
 62
7
  6
CONTINUOUS
 10
102.242393708
 20
189.9360346644
 11
102.9574307142
 21
190.3270730916
  0
LINE
  5
21B
100
AcDbEntity
  8
BEZUGSACHSEN
100
AcDbLine
 62
7
  6
CONTINUOUS
 10
104.0219076644
 20
190.0791422416
 11
104.5581859304
 21
190.3724213417
  0
LINE
  5
21C
100
AcDbEntity
  8
BEZUGSACHSEN
100
AcDbLine
 62
7
  6
CONTINUOUS
 10
103.5274696922
 20
188.8600926311
 11
102.9911914261
 21
188.5668135309
  0
LINE
  5
21D
100
AcDbEntity
  8
BEZUGSACHSEN
100
AcDbLine
 62
7
  6
CONTINUOUS
 10
103.2907104714
 20
188.0191251543
 11
103.8269887374
 21
188.3124042544
  0
LINE
  5
21E
100
AcDbEntity
  8
BEZUGSACHSEN
100
AcDbLine
 62
7
  6
CONTINUOUS
 10
103.2037109131
 20
186.9043132334
 11
102.667432647
 21
186.6110341333
  0
LINE
  5
21F
100
AcDbEntity
  8
BEZUGSACHSEN
100
AcDbLine
 62
7
  6
CONTINUOUS
 10
104.5258666496
 20
187.0344644532
 11
103.9895883835
 21
186.741185353
  0
LINE
  5
220
100
AcDbEntity
  8
BEZUGSACHSEN
100
AcDbLine
 62
7
  6
CONTINUOUS
 10
104.3784867989
 20
186.2423766399
 11
104.8253856949
 21
186.4867760765
  0
LINE
  5
221
100
AcDbEntity
  8
BEZUGSACHSEN
100
AcDbLine
 62
7
  6
CONTINUOUS
 10
93.1208058756
 20
182.2219524778
 11
92.5746749908
 21
181.9798612801
  0
LINE
  5
222
100
AcDbEntity
  8
BEZUGSACHSEN
100
AcDbLine
 62
7
  6
CONTINUOUS
 10
92.9450585001
 20
181.6006497983
 11
93.2898662165
 21
181.7340908946
  0
LINE
  5
223
100
AcDbEntity
  8
BEZUGSACHSEN
100
AcDbLine
 62
7
  6
CONTINUOUS
 10
107.009045866
 20
187.6070409446
 11
107.5915910111
 21
187.7921035372
  0
LINE
  5
224
100
AcDbEntity
  8
BEZUGSACHSEN
100
AcDbLine
 62
7
  6
CONTINUOUS
 10
110.3101352067
 20
188.6557290282
 11
110.8926803517
 21
188.8407916208
  0
LINE
  5
225
100
AcDbEntity
  8
BEZUGSACHSEN
100
AcDbLine
 62
7
  6
CONTINUOUS
 10
102.7938917345
 20
187.8660071138
 11
103.2907104714
 21
188.0191251543
  0
LINE
  5
226
100
AcDbEntity
  8
BEZUGSACHSEN
100
AcDbLine
 62
7
  6
CONTINUOUS
 10
103.881668062
 20
186.0892585995
 11
104.3784867989
 21
186.2423766399
  0
LINE
  5
227
100
AcDbEntity
  8
0
100
AcDbLine
 62
7
  6
CONTINUOUS
 10
128.8411418599
 20
102.6446508404
 11
129.2485802039
 21
102.7488886579
  0
LINE
  5
228
100
AcDbEntity
  8
0
100
AcDbLine
 62
7
  6
CONTINUOUS
 10
129.78485847
 20
103.042167758
 11
130.1922978368
 21
103.1464061349
  0
LINE
  5
229
100
AcDbEntity
  8
0
100
AcDbLine
 62
7
  6
CONTINUOUS
 10
128.9490611586
 20
103.2965770346
 11
128.6310021847
 21
103.2412188806
  0
LINE
  5
22A
100
AcDbEntity
  8
0
100
AcDbLine
 62
7
  6
CONTINUOUS
 10
128.7864615125
 20
104.867795936
 11
129.1045204864
 21
104.9231540899
  0
LINE
  5
22B
100
AcDbEntity
  8
0
100
AcDbLine
 62
7
  6
CONTINUOUS
 10
121.0741300182
 20
102.5973448522
 11
120.4664921715
 21
102.5311386852
  0
LINE
  5
22C
100
AcDbEntity
  8
0
100
AcDbLine
 62
7
  6
CONTINUOUS
 10
117.6308489837
 20
102.2221765834
 11
117.023211137
 21
102.1559704165
  0
LINE
  5
22D
100
AcDbEntity
  8
0
100
AcDbLine
 62
7
  6
CONTINUOUS
 10
128.3837836751
 20
102.631694419
 11
128.8411418599
 21
102.6446508404
  0
LINE
  5
22E
100
AcDbEntity
  8
0
100
AcDbLine
 62
7
  6
CONTINUOUS
 10
130.4395163464
 20
103.7559305966
 11
129.9821581616
 21
103.7429741752
  0
LINE
  5
22F
100
AcDbEntity
  8
0
100
AcDbLine
 62
7
  6
CONTINUOUS
 10
129.0246610891
 20
100.6105465
 11
129.6213195208
 21
100.5811017243
  0
LINE
  5
230
100
AcDbEntity
  8
BEZUGSACHSEN
100
AcDbLine
 62
7
  6
CONTINUOUS
 10
90.9283452223
 20
105.9520977608
 11
73.5224713911
 21
133.9702743061
  0
LINE
  5
231
100
AcDbEntity
  8
BEZUGSACHSEN
100
AcDbLine
 62
7
  6
CONTINUOUS
 10
92.1419935641
 20
181.5357688596
 11
91.880601495
 21
180.9735362733
  0
LINE
  5
232
100
AcDbEntity
  8
BEZUGSACHSEN
100
AcDbLine
 62
7
  6
CONTINUOUS
 10
101.545895577
 20
190.1480422643
 11
101.2882167688
 21
189.7699602345
  0
LINE
  5
233
100
AcDbEntity
  8
RUNDUNGEN
100
AcDbLine
 62
7
  6
CONTINUOUS
 10
76.6821731447
 20
158.6476234282
 11
73.0655896219
 21
153.4826068789
  0
LINE
  5
234
100
AcDbEntity
  8
BEZUGSACHSEN
100
AcDbLine
 62
7
  6
CONTINUOUS
 10
97.7799697995
 20
180.8596844483
 11
98.1905347806
 21
181.3125016361
  0
LINE
  5
235
100
AcDbEntity
  8
BEZUGSACHSEN
100
AcDbLine
 62
7
  6
CONTINUOUS
 10
104.7440859418
 20
187.2723853993
 11
104.5258666496
 21
187.0344644532
  0
LINE
  5
236
100
AcDbEntity
  8
BEZUGSACHSEN
100
AcDbLine
 62
7
  6
CONTINUOUS
 10
95.7346121723
 20
178.3153824506
 11
96.1672935915
 21
178.7594748763
  0
LINE
  5
237
100
AcDbEntity
  8
BEZUGSACHSEN
100
AcDbLine
 62
7
  6
CONTINUOUS
 10
95.7390702353
 20
179.0548252648
 11
95.3642273916
 21
178.6945919768
  0
LINE
  5
238
100
AcDbEntity
  8
BEZUGSACHSEN
100
AcDbLine
 62
7
  6
CONTINUOUS
 10
104.8253856949
 20
186.4867760765
 11
105.1329843571
 21
186.7735766862
  0
LINE
  5
239
100
AcDbEntity
  8
BEZUGSACHSEN
100
AcDbLine
 62
7
  6
CONTINUOUS
 10
95.1884799862
 20
178.0732893179
 11
95.7346121723
 21
178.3153824506
  0
LINE
  5
23A
100
AcDbEntity
  8
BEZUGSACHSEN
100
AcDbLine
 62
7
  6
CONTINUOUS
 10
95.3642273916
 20
178.6945919768
 11
95.0194196752
 21
178.5611508805
  0
LINE
  5
23B
100
AcDbEntity
  8
0
100
AcDbLine
 62
7
  6
CONTINUOUS
 10
139.2247916029
 20
109.3126578132
 11
139.6552440205
 21
109.3870288111
  0
LINE
  5
23C
100
AcDbEntity
  8
0
100
AcDbLine
 62
7
  6
CONTINUOUS
 10
128.6310021847
 20
103.2412188806
 11
128.2630233699
 21
103.2771421228
  0
LINE
  5
23D
100
AcDbEntity
  8
0
100
AcDbLine
 62
7
  6
CONTINUOUS
 10
130.1922978368
 20
103.1464061349
 11
130.5602766516
 21
103.1104828928
  0
LINE
  5
23E
100
AcDbEntity
  8
0
100
AcDbLine
 62
7
  6
CONTINUOUS
 10
129.4016598598
 20
105.4413977148
 11
128.8943818341
 21
105.5197226895
  0
LINE
  5
23F
100
AcDbEntity
  8
0
100
AcDbLine
 62
7
  6
CONTINUOUS
 10
129.411179815
 20
101.1776698204
 11
128.9932811244
 21
101.3048745226
  0
LINE
  5
240
100
AcDbEntity
  8
0
100
AcDbLine
 62
7
  6
CONTINUOUS
 10
127.8265847856
 20
102.8013002304
 11
128.3837836751
 21
102.631694419
  0
LINE
  5
241
100
AcDbEntity
  8
BEZUGSACHSEN
100
AcDbLine
 62
7
  6
CENTER
 10
81.068666086
 20
145.8044906445
 11
81.068666086
 21
140.9201711744
  0
LINE
  5
242
100
AcDbEntity
  8
BEZUGSACHSEN
100
AcDbLine
 62
7
  6
CENTER
 10
81.068666086
 20
145.8044906445
 11
81.068666086
 21
150.6888101146
  0
LINE
  5
243
100
AcDbEntity
  8
RUNDUNGEN
100
AcDbLine
 62
7
  6
CONTINUOUS
 10
83.958740948
 20
135.3766159565
 11
83.958740948
 21
157.7890743325
  0
LINE
  5
244
100
AcDbEntity
  8
BEZUGSACHSEN
100
AcDbLine
 62
7
  6
CONTINUOUS
 10
84.273863348
 20
136.4144559528
 11
84.273863348
 21
153.0126673687
  0
LINE
  5
245
100
AcDbEntity
  8
BEZUGSACHSEN
100
AcDbLine
 62
7
  6
CONTINUOUS
 10
92.366663479
 20
180.7620449862
 11
92.5702169802
 21
181.2404184297
  0
LINE
  5
246
100
AcDbEntity
  8
BEZUGSACHSEN
100
AcDbLine
 62
7
  6
CONTINUOUS
 10
95.9426224128
 20
179.5331967889
 11
95.7390702353
 21
179.0548252648
  0
LINE
  5
247
100
AcDbEntity
  8
BEZUGSACHSEN
100
AcDbLine
 62
7
  6
CONTINUOUS
 10
96.1672935915
 20
178.7594748763
 11
96.4286856681
 21
179.3217074574
  0
LINE
  5
248
100
AcDbEntity
  8
BEZUGSACHSEN
100
AcDbLine
 62
7
  6
CONTINUOUS
 10
101.7664946066
 20
189.320031089
 11
101.9347940229
 21
189.6492334953
  0
LINE
  5
249
100
AcDbEntity
  8
BEZUGSACHSEN
100
AcDbLine
 62
7
  6
CONTINUOUS
 10
105.1329843571
 20
186.7735766862
 11
105.3906631784
 21
187.1516586921
  0
LINE
  5
24A
100
AcDbEntity
  8
0
100
AcDbLine
 62
7
  6
CONTINUOUS
 10
138.0180222975
 20
113.6100629896
 11
137.5875699099
 21
113.535691971
  0
LINE
  5
24B
100
AcDbEntity
  8
0
100
AcDbLine
 62
7
  6
CONTINUOUS
 10
139.4861836795
 20
109.8748903944
 11
138.740957319
 21
109.8938685932
  0
LINE
  5
24C
100
AcDbEntity
  8
0
100
AcDbLine
 62
7
  6
CONTINUOUS
 10
137.7566302208
 20
113.0478304085
 11
138.5018554375
 21
113.0288501661
  0
LINE
  5
24D
100
AcDbEntity
  8
0
100
AcDbLine
 62
7
  6
CONTINUOUS
 10
138.7665343833
 20
109.3812179708
 11
139.2247916029
 21
109.3126578132
  0
LINE
  5
24E
100
AcDbEntity
  8
0
100
AcDbLine
 62
7
  6
CONTINUOUS
 10
130.9967152359
 20
103.5863247851
 11
130.4395163464
 21
103.7559305966
  0
LINE
  5
24F
100
AcDbEntity
  8
0
100
AcDbLine
 62
7
  6
CONTINUOUS
 10
129.1045204864
 20
104.9231540899
 11
129.3831199312
 21
104.8383511842
  0
LINE
  5
250
100
AcDbEntity
  8
0
100
AcDbLine
 62
7
  6
CONTINUOUS
 10
128.5069226992
 20
100.9203140264
 11
129.0246610891
 21
100.6105465
  0
LINE
  5
251
100
AcDbEntity
  8
BEZUGSACHSEN
100
AcDbLine
 62
7
  6
CONTINUOUS
 10
104.912385393
 20
187.6015877416
 11
104.7440859418
 21
187.2723853993
  0
LINE
  5
252
100
AcDbEntity
  8
0
100
AcDbLine
 62
7
  6
CONTINUOUS
 10
138.4762794571
 20
113.5415028735
 11
138.0180222975
 21
113.6100629896
  0
LINE
  5
253
100
AcDbEntity
  8
0
100
AcDbLine
 62
7
  6
CONTINUOUS
 10
138.4517604704
 20
109.4745671469
 11
138.7665343833
 21
109.3812179708
  0
LINE
  5
254
100
AcDbEntity
  8
0
100
AcDbLine
 62
7
  6
CONTINUOUS
 10
129.8694783564
 20
105.2229116804
 11
129.4016598598
 21
105.4413977148
  0
LINE
  5
255
100
AcDbEntity
  8
0
100
AcDbLine
 62
7
  6
CONTINUOUS
 10
130.5602766516
 20
103.1104828928
 11
130.8887949843
 21
102.9343979037
  0
LINE
  5
256
100
AcDbEntity
  8
BEZUGSACHSEN
100
AcDbLine
 62
7
  6
CONTINUOUS
 10
92.3644344475
 20
180.392323579
 11
92.366663479
 21
180.7620449862
  0
LINE
  5
257
100
AcDbEntity
  8
BEZUGSACHSEN
100
AcDbLine
 62
7
  6
CONTINUOUS
 10
91.880601495
 20
180.9735362733
 11
91.8483373586
 21
180.3770226589
  0
LINE
  5
258
100
AcDbEntity
  8
BEZUGSACHSEN
100
AcDbLine
 62
7
  6
CONTINUOUS
 10
101.2882167688
 20
189.7699602345
 11
101.1303766238
 21
189.2093148451
  0
LINE
  5
259
100
AcDbEntity
  8
0
100
AcDbLine
 62
7
  6
CONTINUOUS
 10
138.7910536099
 20
113.4481535319
 11
138.4762794571
 21
113.5415028735
  0
LINE
  5
25A
100
AcDbEntity
  8
0
100
AcDbLine
 62
7
  6
CONTINUOUS
 10
137.965697095
 20
109.6860565611
 11
138.4517604704
 21
109.4745671469
  0
LINE
  5
25B
100
AcDbEntity
  8
0
100
AcDbLine
 62
7
  6
CONTINUOUS
 10
138.740957319
 20
109.8938685932
 11
138.1692505963
 21
110.1644300046
  0
LINE
  5
25C
100
AcDbEntity
  8
0
100
AcDbLine
 62
7
  6
CONTINUOUS
 10
131.3751534095
 20
103.3189584
 11
130.9967152359
 21
103.5863247851
  0
LINE
  5
25D
100
AcDbEntity
  8
0
100
AcDbLine
 62
7
  6
CONTINUOUS
 10
129.3831199312
 20
104.8383511842
 11
129.572338983
 21
104.7046680555
  0
LINE
  5
25E
100
AcDbEntity
  8
0
100
AcDbLine
 62
7
  6
CONTINUOUS
 10
128.9932811244
 20
101.3048745226
 11
128.7541422317
 21
101.5298390474
  0
LINE
  5
25F
100
AcDbEntity
  8
0
100
AcDbLine
 62
7
  6
CONTINUOUS
 10
128.2630233699
 20
103.2771421228
 11
128.0238844772
 21
103.5021066475
  0
LINE
  5
260
100
AcDbEntity
  8
BEZUGSACHSEN
100
AcDbLine
 62
7
  6
CONTINUOUS
 10
98.388024948
 20
136.4144559395
 11
98.388024948
 21
164.8130126445
  0
LINE
  5
261
100
AcDbEntity
  8
BEZUGSACHSEN
100
AcDbLine
 62
7
  6
CONTINUOUS
 10
95.9448514443
 20
179.9029181961
 11
95.9426224128
 21
179.5331967889
  0
LINE
  5
262
100
AcDbEntity
  8
BEZUGSACHSEN
100
AcDbLine
 62
7
  6
CONTINUOUS
 10
96.4286856681
 20
179.3217074574
 11
96.4609485031
 21
179.9182191369
  0
LINE
  5
263
100
AcDbEntity
  8
BEZUGSACHSEN
100
AcDbLine
 62
7
  6
CONTINUOUS
 10
101.7374953891
 20
188.9484275736
 11
101.7664946066
 21
189.320031089
  0
LINE
  5
264
100
AcDbEntity
  8
BEZUGSACHSEN
100
AcDbLine
 62
7
  6
CONTINUOUS
 10
105.3906631784
 20
187.1516586921
 11
105.5485033409
 21
187.7123040495
  0
LINE
  5
265
100
AcDbEntity
  8
0
100
AcDbLine
 62
7
  6
CONTINUOUS
 10
139.2771155415
 20
113.236662281
 11
138.7910536099
 21
113.4481535319
  0
LINE
  5
266
100
AcDbEntity
  8
0
100
AcDbLine
 62
7
  6
CONTINUOUS
 10
138.5018554375
 20
113.0288501661
 11
139.0735633641
 21
112.7582907569
  0
LINE
  5
267
100
AcDbEntity
  8
0
100
AcDbLine
 62
7
  6
CONTINUOUS
 10
130.1086172491
 20
104.9979471557
 11
129.8694783564
 21
105.2229116804
  0
LINE
  5
268
100
AcDbEntity
  8
0
100
AcDbLine
 62
7
  6
CONTINUOUS
 10
128.2178639656
 20
101.2365599473
 11
128.5069226992
 21
100.9203140264
  0
LINE
  5
269
100
AcDbEntity
  8
0
100
AcDbLine
 62
7
  6
CONTINUOUS
 10
127.537526052
 20
103.1175461513
 11
127.8265847856
 21
102.8013002304
  0
LINE
  5
26A
100
AcDbEntity
  8
0
100
AcDbLine
 62
7
  6
CONTINUOUS
 10
125.1166871562
 20
99.3196434786
 11
122.4659146894
 21
102.9532522608
  0
LINE
  5
26B
100
AcDbEntity
  8
0
100
AcDbLine
 62
7
  6
CONTINUOUS
 10
121.8833695443
 20
102.7681896682
 11
124.9173241906
 21
98.6013288133
  0
LINE
  5
26C
100
AcDbEntity
  8
RUNDUNGEN
100
AcDbLine
 62
7
  6
CONTINUOUS
 10
98.488024948
 20
135.3766159565
 11
98.488024948
 21
157.7890743325
  0
LINE
  5
26D
100
AcDbEntity
  8
BEZUGSACHSEN
100
AcDbLine
 62
7
  6
CONTINUOUS
 10
112.7926380369
 20
194.0492889781
 11
111.7019198778
 21
189.0116364368
  0
LINE
  5
26E
100
AcDbEntity
  8
BEZUGSACHSEN
100
AcDbLine
 62
7
  6
CONTINUOUS
 10
127.9137028872
 20
132.3130126445
 11
132.781130636
 21
132.3130126445
  0
LINE
  5
26F
100
AcDbEntity
  8
BEZUGSACHSEN
100
AcDbLine
 62
7
  6
CONTINUOUS
 10
150.32420326
 20
132.3130126445
 11
154.8453281046
 21
132.3130126445
  0
LINE
  5
270
100
AcDbEntity
  8
0
100
AcDbLine
 62
7
  6
CONTINUOUS
 10
137.194895054
 20
110.2176872605
 11
137.965697095
 21
109.6860565611
  0
LINE
  5
271
100
AcDbEntity
  8
0
100
AcDbLine
 62
7
  6
CONTINUOUS
 10
138.1692505963
 20
110.1644300046
 11
137.5697378977
 21
110.5779205486
  0
LINE
  5
272
100
AcDbEntity
  8
0
100
AcDbLine
 62
7
  6
CONTINUOUS
 10
139.0735633641
 20
112.7582907569
 11
139.6730760626
 21
112.3448002129
  0
LINE
  5
273
100
AcDbEntity
  8
0
100
AcDbLine
 62
7
  6
CONTINUOUS
 10
140.0479175825
 20
112.7050315816
 11
139.2771155415
 21
113.236662281
  0
LINE
  5
274
100
AcDbEntity
  8
0
100
AcDbLine
 62
7
  6
CONTINUOUS
 10
134.7144769322
 20
109.3544787162
 11
135.3310792027
 21
108.7954113789
  0
LINE
  5
275
100
AcDbEntity
  8
0
100
AcDbLine
 62
7
  6
CONTINUOUS
 10
135.2021171701
 20
109.7374125113
 11
138.208052618
 21
107.0119598046
  0
LINE
  5
276
100
AcDbEntity
  8
0
100
AcDbLine
 62
7
  6
CONTINUOUS
 10
138.6186175991
 20
107.4647769924
 11
134.9960800965
 21
110.7492968407
  0
LINE
  5
277
100
AcDbEntity
  8
0
100
AcDbLine
 62
7
  6
CONTINUOUS
 10
119.5107051045
 20
98.1361211709
 11
117.6308489837
 21
102.2221765834
  0
LINE
  5
278
100
AcDbEntity
  8
0
100
AcDbLine
 62
7
  6
CONTINUOUS
 10
117.023211137
 20
102.1559704165
 11
119.1732281119
 21
97.4714174269
  0
LINE
  5
279
100
AcDbEntity
  8
BEZUGSACHSEN
100
AcDbLine
 62
7
  6
CONTINUOUS
 10
91.8483373586
 20
180.3770226589
 11
91.9317530283
 21
179.9482311533
  0
LINE
  5
27A
100
AcDbEntity
  8
BEZUGSACHSEN
100
AcDbLine
 62
7
  6
CONTINUOUS
 10
97.4449706933
 20
182.8135699101
 11
97.573932726
 21
181.8715687777
  0
LINE
  5
27B
100
AcDbEntity
  8
BEZUGSACHSEN
100
AcDbLine
 62
7
  6
CONTINUOUS
 10
101.1303766238
 20
189.2093148451
 11
101.1512972822
 21
188.7464298696
  0
LINE
  5
27C
100
AcDbEntity
  8
0
100
AcDbLine
 62
7
  6
CONTINUOUS
 10
106.388024948
 20
157.7867557661
 11
106.388024948
 21
149.9544906445
  0
LINE
  5
27D
100
AcDbEntity
  8
0
100
AcDbLine
 62
7
  6
CONTINUOUS
 10
106.388024948
 20
141.6544906445
 11
106.388024948
 21
132.4025111884
  0
LINE
  5
27E
100
AcDbEntity
  8
BEZUGSACHSEN
100
AcDbLine
 62
7
  6
CONTINUOUS
 10
107.0819990305
 20
192.760902411
 11
107.009045866
 21
187.6070409446
  0
LINE
  5
27F
100
AcDbEntity
  8
BEZUGSACHSEN
100
AcDbLine
 62
7
  6
CONTINUOUS
 10
107.5915910111
 20
187.7921035372
 11
107.6593627399
 21
192.2893378104
  0
LINE
  5
280
100
AcDbEntity
  8
BEZUGSACHSEN
100
AcDbLine
 62
7
  6
CONTINUOUS
 10
112.3095577245
 20
189.0778426038
 11
113.2653447916
 21
193.472860118
  0
LINE
  5
281
100
AcDbEntity
  8
RUNDUNGEN
100
AcDbLine
 62
7
  6
CONTINUOUS
 10
96.9811231186
 20
133.8697216445
 11
85.465615018
 21
133.8697216445
  0
LINE
  5
282
100
AcDbEntity
  8
BEZUGSACHSEN
100
AcDbLine
 62
7
  6
CONTINUOUS
 10
85.78075766
 20
134.9075276445
 11
96.881130636
 21
134.9075276445
  0
LINE
  5
283
100
AcDbEntity
  8
0
100
AcDbLine
 62
7
  6
CONTINUOUS
 10
137.5697378977
 20
110.5779205486
 11
137.1137084458
 21
111.0162001524
  0
LINE
  5
284
100
AcDbEntity
  8
0
100
AcDbLine
 62
7
  6
CONTINUOUS
 10
136.8245115972
 20
110.5968987061
 11
137.194895054
 21
110.2176872605
  0
LINE
  5
285
100
AcDbEntity
  8
0
100
AcDbLine
 62
7
  6
CONTINUOUS
 10
127.3378465486
 20
103.4826719914
 11
127.537526052
 21
103.1175461513
  0
LINE
  5
286
100
AcDbEntity
  8
0
100
AcDbLine
 62
7
  6
CONTINUOUS
 10
128.0238844772
 20
103.5021066475
 11
127.9240447954
 21
103.6846694397
  0
LINE
  5
287
100
AcDbEntity
  8
BEZUGSACHSEN
100
AcDbLine
 62
7
  6
CONTINUOUS
 10
92.6469455854
 20
179.7024626821
 11
92.3644344475
 21
180.392323579
  0
LINE
  5
288
100
AcDbEntity
  8
BEZUGSACHSEN
100
AcDbLine
 62
7
  6
CONTINUOUS
 10
96.4609485031
 20
179.9182191369
 11
96.3775328634
 21
180.3470106218
  0
LINE
  5
289
100
AcDbEntity
  8
BEZUGSACHSEN
100
AcDbLine
 62
7
  6
CONTINUOUS
 10
98.1905347806
 20
181.3125016361
 11
98.0615729639
 21
182.2545025728
  0
LINE
  5
28A
100
AcDbEntity
  8
0
100
AcDbLine
 62
7
  6
CONTINUOUS
 10
83.958740948
 20
141.6544906445
 11
84.273863348
 21
141.6544906445
  0
LINE
  5
28B
100
AcDbEntity
  8
0
100
AcDbLine
 62
7
  6
CONTINUOUS
 10
98.388024948
 20
141.6544906445
 11
98.488024948
 21
141.6544906445
  0
LINE
  5
28C
100
AcDbEntity
  8
0
100
AcDbLine
 62
7
  6
CONTINUOUS
 10
106.388024948
 20
141.6544906445
 11
126.388024948
 21
141.6544906445
  0
LINE
  5
28D
100
AcDbEntity
  8
0
100
AcDbLine
 62
7
  6
CONTINUOUS
 10
134.288024948
 20
141.6544906445
 11
134.388024948
 21
141.6544906445
  0
LINE
  5
28E
100
AcDbEntity
  8
0
100
AcDbLine
 62
7
  6
CONTINUOUS
 10
148.502186548
 20
141.6544906445
 11
148.817308948
 21
141.6544906445
  0
LINE
  5
28F
100
AcDbEntity
  8
0
100
AcDbLine
 62
7
  6
CONTINUOUS
 10
139.6730760626
 20
112.3448002129
 11
140.1291043106
 21
111.9065186069
  0
LINE
  5
290
100
AcDbEntity
  8
0
100
AcDbLine
 62
7
  6
CONTINUOUS
 10
140.4183024831
 20
112.3258219727
 11
140.0479175825
 21
112.7050315816
  0
LINE
  5
291
100
AcDbEntity
  8
0
100
AcDbLine
 62
7
  6
CONTINUOUS
 10
136.6254172428
 20
110.8579701617
 11
136.8245115972
 21
110.5968987061
  0
LINE
  5
292
100
AcDbEntity
  8
BEZUGSACHSEN
100
AcDbLine
 62
7
  6
CONTINUOUS
 10
91.9317530283
 20
179.9482311533
 11
92.1586532985
 21
179.5442306065
  0
LINE
  5
293
100
AcDbEntity
  8
0
100
AcDbLine
 62
7
  6
CONTINUOUS
 10
130.8887949843
 20
102.9343979037
 11
131.0385545069
 21
102.6605537154
  0
LINE
  5
294
100
AcDbEntity
  8
0
100
AcDbLine
 62
7
  6
CONTINUOUS
 10
131.6247526139
 20
102.8625514194
 11
131.3751534095
 21
103.3189584
  0
LINE
  5
295
100
AcDbEntity
  8
BEZUGSACHSEN
100
AcDbLine
 62
7
  6
CONTINUOUS
 10
95.6623414502
 20
180.5927811365
 11
95.9448514443
 21
179.9029181961
  0
LINE
  5
296
100
AcDbEntity
  8
T_STARTBEZUEGE
100
AcDbLine
 62
7
  6
CENTER
 10
116.388024948
 20
88.7959686431
 11
116.388024948
 21
202.8130126459
  0
LINE
  5
297
100
AcDbEntity
  8
BEZUGSACHSEN
100
AcDbLine
 62
7
  6
CENTER
 10
151.70738381
 20
145.8044906445
 11
146.8230643399
 21
145.8044906445
  0
LINE
  5
298
100
AcDbEntity
  8
BEZUGSACHSEN
100
AcDbLine
 62
7
  6
CENTER
 10
81.068666086
 20
145.8044906445
 11
76.1843466159
 21
145.8044906445
  0
LINE
  5
299
100
AcDbEntity
  8
T_STARTBEZUEGE
100
AcDbLine
 62
7
  6
CENTER
 10
69.3860160654
 20
145.8044906445
 11
163.3900338307
 21
145.8044906445
  0
LINE
  5
29A
100
AcDbEntity
  8
BEZUGSACHSEN
100
AcDbLine
 62
7
  6
CENTER
 10
81.068666086
 20
145.8044906445
 11
85.9529855561
 21
145.8044906445
  0
LINE
  5
29B
100
AcDbEntity
  8
BEZUGSACHSEN
100
AcDbLine
 62
7
  6
CENTER
 10
151.70738381
 20
145.8044906445
 11
156.5917032801
 21
145.8044906445
  0
LINE
  5
29C
100
AcDbEntity
  8
0
100
AcDbLine
 62
7
  6
CONTINUOUS
 10
140.6173965975
 20
112.0647506825
 11
140.4183024831
 21
112.3258219727
  0
LINE
  5
29D
100
AcDbEntity
  8
BEZUGSACHSEN
100
AcDbLine
 62
7
  6
CONTINUOUS
 10
96.3775328634
 20
180.3470106218
 11
96.1506326532
 21
180.7510111273
  0
LINE
  5
29E
100
AcDbEntity
  8
0
100
AcDbLine
 62
7
  6
CONTINUOUS
 10
136.3985170326
 20
111.2619706672
 11
136.6254172428
 21
110.8579701617
  0
LINE
  5
29F
100
AcDbEntity
  8
0
100
AcDbLine
 62
7
  6
CONTINUOUS
 10
127.2275465552
 20
103.8966772394
 11
127.3378465486
 21
103.4826719914
  0
LINE
  5
2A0
100
AcDbEntity
  8
BEZUGSACHSEN
100
AcDbLine
 62
7
  6
CONTINUOUS
 10
105.5485033409
 20
187.7123040495
 11
105.4382033474
 21
188.1263092975
  0
LINE
  5
2A1
100
AcDbEntity
  8
BEZUGSACHSEN
100
AcDbLine
 62
7
  6
CONTINUOUS
 10
104.8520051006
 20
187.9243118492
 11
104.912385393
 21
187.6015877416
  0
LINE
  5
2A2
100
AcDbEntity
  8
0
100
AcDbLine
 62
7
  6
CONTINUOUS
 10
83.958740948
 20
149.9544906445
 11
84.273863348
 21
149.9544906445
  0
LINE
  5
2A3
100
AcDbEntity
  8
0
100
AcDbLine
 62
7
  6
CONTINUOUS
 10
98.388024948
 20
149.9544906445
 11
98.488024948
 21
149.9544906445
  0
LINE
  5
2A4
100
AcDbEntity
  8
0
100
AcDbLine
 62
7
  6
CONTINUOUS
 10
106.388024948
 20
149.9544906445
 11
126.388024948
 21
149.9544906445
  0
LINE
  5
2A5
100
AcDbEntity
  8
0
100
AcDbLine
 62
7
  6
CONTINUOUS
 10
134.288024948
 20
149.9544906445
 11
134.388024948
 21
149.9544906445
  0
LINE
  5
2A6
100
AcDbEntity
  8
0
100
AcDbLine
 62
7
  6
CONTINUOUS
 10
148.502186548
 20
149.9544906445
 11
148.817308948
 21
149.9544906445
  0
LINE
  5
2A7
100
AcDbEntity
  8
BEZUGSACHSEN
100
AcDbLine
 62
7
  6
CONTINUOUS
 10
92.1586532985
 20
179.5442306065
 11
92.3577474129
 21
179.2831593163
  0
LINE
  5
2A8
100
AcDbEntity
  8
BEZUGSACHSEN
100
AcDbLine
 62
7
  6
CONTINUOUS
 10
96.1506326532
 20
180.7510111273
 11
95.9515382989
 21
181.0120825829
  0
LINE
  5
2A9
100
AcDbEntity
  8
0
100
AcDbLine
 62
7
  6
CONTINUOUS
 10
140.8442968677
 20
111.6607501356
 11
140.6173965975
 21
112.0647506825
  0
LINE
  5
2AA
100
AcDbEntity
  8
0
100
AcDbLine
 62
7
  6
CONTINUOUS
 10
127.9240447954
 20
103.6846694397
 11
127.863664503
 21
104.0073935474
  0
LINE
  5
2AB
100
AcDbEntity
  8
0
100
AcDbLine
 62
7
  6
CONTINUOUS
 10
125.184458885
 20
103.8168777518
 11
125.1166871562
 21
99.3196434786
  0
LINE
  5
2AC
100
AcDbEntity
  8
BEZUGSACHSEN
100
AcDbLine
 62
7
  6
CONTINUOUS
 10
93.1029738334
 20
179.2641810761
 11
92.6469455854
 21
179.7024626821
  0
LINE
  5
2AD
100
AcDbEntity
  8
BEZUGSACHSEN
100
AcDbLine
 62
7
  6
CONTINUOUS
 10
92.3577474129
 20
179.2831593163
 11
92.7281323136
 21
178.9039497074
  0
LINE
  5
2AE
100
AcDbEntity
  8
BEZUGSACHSEN
100
AcDbLine
 62
7
  6
CONTINUOUS
 10
101.1512972822
 20
188.7464298696
 11
101.4008964866
 21
188.290022889
  0
LINE
  5
2AF
100
AcDbEntity
  8
BEZUGSACHSEN
100
AcDbLine
 62
7
  6
CONTINUOUS
 10
101.8872549118
 20
188.6745833853
 11
101.7374953891
 21
188.9484275736
  0
LINE
  5
2B0
100
AcDbEntity
  8
0
100
AcDbLine
 62
7
  6
CONTINUOUS
 10
137.1137084458
 20
111.0162001524
 11
136.8311984518
 21
111.7060630929
  0
LINE
  5
2B1
100
AcDbEntity
  8
0
100
AcDbLine
 62
7
  6
CONTINUOUS
 10
140.1291043106
 20
111.9065186069
 11
140.4116154486
 21
111.2166577099
  0
LINE
  5
2B2
100
AcDbEntity
  8
0
100
AcDbLine
 62
7
  6
CONTINUOUS
 10
131.6456732723
 20
102.3996664439
 11
131.6247526139
 21
102.8625514194
  0
LINE
  5
2B3
100
AcDbEntity
  8
BEZUGSACHSEN
100
AcDbLine
 62
7
  6
CONTINUOUS
 10
126.388024948
 20
133.8222255229
 11
126.388024948
 21
141.6544906445
  0
LINE
  5
2B4
100
AcDbEntity
  8
BEZUGSACHSEN
100
AcDbLine
 62
7
  6
CONTINUOUS
 10
126.388024948
 20
149.9544906445
 11
126.388024948
 21
159.2064701006
  0
LINE
  5
2B5
100
AcDbEntity
  8
0
100
AcDbLine
 62
7
  6
CONTINUOUS
 10
125.6940508655
 20
98.848078878
 11
125.76700403
 21
104.0019403444
  0
LINE
  5
2B6
100
AcDbEntity
  8
0
100
AcDbLine
 62
7
  6
CONTINUOUS
 10
119.9834118591
 20
97.5596923109
 11
121.0741300182
 21
102.5973448522
  0
LINE
  5
2B7
100
AcDbEntity
  8
0
100
AcDbLine
 62
7
  6
CONTINUOUS
 10
120.4664921715
 20
102.5311386852
 11
119.5107051045
 21
98.1361211709
  0
LINE
  5
2B8
100
AcDbEntity
  8
0
100
AcDbLine
 62
7
  6
CONTINUOUS
 10
146.995292236
 20
156.7014536445
 11
135.89491926
 21
156.7014536445
  0
LINE
  5
2B9
100
AcDbEntity
  8
BEZUGSACHSEN
100
AcDbLine
 62
7
  6
CONTINUOUS
 10
135.7949267775
 20
157.7392596445
 11
147.3104348781
 21
157.7392596445
  0
LINE
  5
2BA
100
AcDbEntity
  8
BEZUGSACHSEN
100
AcDbLine
 62
7
  6
CONTINUOUS
 10
104.8623470089
 20
159.2959686445
 11
99.99491926
 21
159.2959686445
  0
LINE
  5
2BB
100
AcDbEntity
  8
BEZUGSACHSEN
100
AcDbLine
 62
7
  6
CONTINUOUS
 10
82.451846636
 20
159.2959686445
 11
77.9307217914
 21
159.2959686445
  0
LINE
  5
2BC
100
AcDbEntity
  8
BEZUGSACHSEN
100
AcDbLine
 62
7
  6
CONTINUOUS
 10
92.7281323136
 20
178.9039497074
 11
93.4989343546
 21
178.372319008
  0
LINE
  5
2BD
100
AcDbEntity
  8
BEZUGSACHSEN
100
AcDbLine
 62
7
  6
CONTINUOUS
 10
93.702486532
 20
178.8506905321
 11
93.1029738334
 21
179.2641810761
  0
LINE
  5
2BE
100
AcDbEntity
  8
BEZUGSACHSEN
100
AcDbLine
 62
7
  6
CONTINUOUS
 10
94.157432297
 20
184.1442042966
 11
97.7799697995
 21
180.8596844483
  0
LINE
  5
2BF
100
AcDbEntity
  8
BEZUGSACHSEN
100
AcDbLine
 62
7
  6
CONTINUOUS
 10
97.573932726
 20
181.8715687777
 11
94.567997278
 21
184.5970214844
  0
LINE
  5
2C0
100
AcDbEntity
  8
BEZUGSACHSEN
100
AcDbLine
 62
7
  6
CONTINUOUS
 10
95.2063119983
 20
181.0310607404
 11
95.6623414502
 21
180.5927811365
  0
LINE
  5
2C1
100
AcDbEntity
  8
BEZUGSACHSEN
100
AcDbLine
 62
7
  6
CONTINUOUS
 10
95.9515382989
 20
181.0120825829
 11
95.581154842
 21
181.3912940285
  0
LINE
  5
2C2
100
AcDbEntity
  8
BEZUGSACHSEN
100
AcDbLine
 62
7
  6
CONTINUOUS
 10
104.7521654189
 20
188.1068746415
 11
104.8520051006
 21
187.9243118492
  0
LINE
  5
2C3
100
AcDbEntity
  8
BEZUGSACHSEN
100
AcDbLine
 62
7
  6
CONTINUOUS
 10
105.4382033474
 20
188.1263092975
 11
105.238523844
 21
188.4914351377
  0
LINE
  5
2C4
100
AcDbEntity
  8
0
100
AcDbLine
 62
7
  6
CONTINUOUS
 10
136.3151013929
 20
111.6907621521
 11
136.3985170326
 21
111.2619706672
  0
LINE
  5
2C5
100
AcDbEntity
  8
0
100
AcDbLine
 62
7
  6
CONTINUOUS
 10
134.5855151155
 20
110.2964796529
 11
134.7144769322
 21
109.3544787162
  0
LINE
  5
2C6
100
AcDbEntity
  8
0
100
AcDbLine
 62
7
  6
CONTINUOUS
 10
135.3310792027
 20
108.7954113789
 11
135.2021171701
 21
109.7374125113
  0
LINE
  5
2C7
100
AcDbEntity
  8
BEZUGSACHSEN
100
AcDbLine
 62
7
  6
CONTINUOUS
 10
134.288024948
 20
133.8199069565
 11
134.288024948
 21
156.2323653325
  0
LINE
  5
2C8
100
AcDbEntity
  8
0
100
AcDbLine
 62
7
  6
CONTINUOUS
 10
134.388024948
 20
134.3886246445
 11
134.388024948
 21
126.7959686445
  0
LINE
  5
2C9
100
AcDbEntity
  8
BEZUGSACHSEN
100
AcDbLine
 62
7
  6
CONTINUOUS
 10
134.388024948
 20
134.3886246445
 11
134.388024948
 21
138.9117830949
  0
LINE
  5
2CA
100
AcDbEntity
  8
0
100
AcDbLine
 62
7
  6
CONTINUOUS
 10
134.388024948
 20
138.9117830949
 11
134.388024948
 21
151.3917358967
  0
LINE
  5
2CB
100
AcDbEntity
  8
RUNDUNGEN
100
AcDbLine
 62
7
  6
CONTINUOUS
 10
134.388024948
 20
138.9117830949
 11
134.388024948
 21
155.1945253495
  0
LINE
  5
2CC
100
AcDbEntity
  8
0
100
AcDbLine
 62
7
  6
CONTINUOUS
 10
131.0385545069
 20
102.6605537154
 11
131.0095552895
 21
102.2889501999
  0
LINE
  5
2CD
100
AcDbEntity
  8
BEZUGSACHSEN
100
AcDbLine
 62
7
  6
CONTINUOUS
 10
94.6067992998
 20
181.4445512844
 11
95.2063119983
 21
181.0310607404
  0
LINE
  5
2CE
100
AcDbEntity
  8
BEZUGSACHSEN
100
AcDbLine
 62
7
  6
CONTINUOUS
 10
95.581154842
 20
181.3912940285
 11
94.810352801
 21
181.9229247279
  0
LINE
  5
2CF
100
AcDbEntity
  8
BEZUGSACHSEN
100
AcDbLine
 62
7
  6
CONTINUOUS
 10
98.0615729639
 20
182.2545025728
 11
97.4449706933
 21
182.8135699101
  0
LINE
  5
2D0
100
AcDbEntity
  8
BEZUGSACHSEN
100
AcDbLine
 62
7
  6
CONTINUOUS
 10
113.2653447916
 20
193.472860118
 11
115.1452009124
 21
189.3868047056
  0
LINE
  5
2D1
100
AcDbEntity
  8
BEZUGSACHSEN
100
AcDbLine
 62
7
  6
CONTINUOUS
 10
115.752838759
 20
189.4530108725
 11
113.6028217842
 21
194.1375638621
  0
LINE
  5
2D2
100
AcDbEntity
  8
0
100
AcDbLine
 62
7
  6
CONTINUOUS
 10
140.9277125374
 20
111.2319586301
 11
140.8442968677
 21
111.6607501356
  0
LINE
  5
2D3
100
AcDbEntity
  8
0
100
AcDbLine
 62
7
  6
CONTINUOUS
 10
136.8311984518
 20
111.7060630929
 11
136.8334274833
 21
112.0757845001
  0
LINE
  5
2D4
100
AcDbEntity
  8
0
100
AcDbLine
 62
7
  6
CONTINUOUS
 10
136.3473642279
 20
112.2872738316
 11
136.3151013929
 21
111.6907621521
  0
LINE
  5
2D5
100
AcDbEntity
  8
0
100
AcDbLine
 62
7
  6
CONTINUOUS
 10
127.3853867176
 20
104.4573225969
 11
127.2275465552
 21
103.8966772394
  0
LINE
  5
2D6
100
AcDbEntity
  8
BEZUGSACHSEN
100
AcDbLine
 62
7
  6
CONTINUOUS
 10
93.4989343546
 20
178.372319008
 11
93.9849962861
 21
178.1608277571
  0
LINE
  5
2D7
100
AcDbEntity
  8
BEZUGSACHSEN
100
AcDbLine
 62
7
  6
CONTINUOUS
 10
94.2741944586
 20
178.5801311229
 11
93.702486532
 21
178.8506905321
  0
LINE
  5
2D8
100
AcDbEntity
  8
BEZUGSACHSEN
100
AcDbLine
 62
7
  6
CONTINUOUS
 10
94.035092577
 20
181.7151126957
 11
94.6067992998
 21
181.4445512844
  0
LINE
  5
2D9
100
AcDbEntity
  8
BEZUGSACHSEN
100
AcDbLine
 62
7
  6
CONTINUOUS
 10
102.667432647
 20
186.6110341333
 11
102.9065715397
 21
186.3860696085
  0
LINE
  5
2DA
100
AcDbEntity
  8
BEZUGSACHSEN
100
AcDbLine
 62
7
  6
CONTINUOUS
 10
104.5130265262
 20
188.3318391662
 11
104.7521654189
 21
188.1068746415
  0
LINE
  5
2DB
100
AcDbEntity
  8
BEZUGSACHSEN
100
AcDbLine
 62
7
  6
CONTINUOUS
 10
103.7827687717
 20
190.3041067664
 11
104.0219076644
 21
190.0791422416
  0
LINE
  5
2DC
100
AcDbEntity
  8
BEZUGSACHSEN
100
AcDbLine
 62
7
  6
CONTINUOUS
 10
105.238523844
 20
188.4914351377
 11
104.9494651105
 21
188.8076810586
  0
LINE
  5
2DD
100
AcDbEntity
  8
BEZUGSACHSEN
100
AcDbLine
 62
7
  6
CONTINUOUS
 10
104.5581859304
 20
190.3724213417
 11
104.2691271969
 21
190.6886672626
  0
LINE
  5
2DE
100
AcDbEntity
  8
BEZUGSACHSEN
100
AcDbLine
 62
7
  6
CONTINUOUS
 10
107.6593627399
 20
192.2893378104
 11
110.3101352067
 21
188.6557290282
  0
LINE
  5
2DF
100
AcDbEntity
  8
BEZUGSACHSEN
100
AcDbLine
 62
7
  6
CONTINUOUS
 10
110.8926803517
 20
188.8407916208
 11
107.8587257055
 21
193.0076524756
  0
LINE
  5
2E0
100
AcDbEntity
  8
0
100
AcDbLine
 62
7
  6
CONTINUOUS
 10
140.4116154486
 20
111.2166577099
 11
140.4093864171
 21
110.8469363028
  0
LINE
  5
2E1
100
AcDbEntity
  8
0
100
AcDbLine
 62
7
  6
CONTINUOUS
 10
140.8954484011
 20
110.6354450157
 11
140.9277125374
 21
111.2319586301
  0
LINE
  5
2E2
100
AcDbEntity
  8
0
100
AcDbLine
 62
7
  6
CONTINUOUS
 10
131.4878331273
 20
101.8390210545
 11
131.6456732723
 21
102.3996664439
  0
LINE
  5
2E3
100
AcDbEntity
  8
BEZUGSACHSEN
100
AcDbLine
 62
7
  6
CONTINUOUS
 10
93.9849962861
 20
178.1608277571
 11
94.299770439
 21
178.0674784155
  0
LINE
  5
2E4
100
AcDbEntity
  8
BEZUGSACHSEN
100
AcDbLine
 62
7
  6
CONTINUOUS
 10
94.810352801
 20
181.9229247279
 11
94.3242894257
 21
182.1344141421
  0
LINE
  5
2E5
100
AcDbEntity
  8
BEZUGSACHSEN
100
AcDbLine
 62
7
  6
CONTINUOUS
 10
103.3929299649
 20
186.7706301048
 11
103.2037109131
 21
186.9043132334
  0
LINE
  5
2E6
100
AcDbEntity
  8
BEZUGSACHSEN
100
AcDbLine
 62
7
  6
CONTINUOUS
 10
101.4008964866
 20
188.290022889
 11
101.7793346601
 21
188.0226565038
  0
LINE
  5
2E7
100
AcDbEntity
  8
BEZUGSACHSEN
100
AcDbLine
 62
7
  6
CONTINUOUS
 10
148.502186548
 20
139.6959519894
 11
148.502186548
 21
138.5963139203
  0
LINE
  5
2E8
100
AcDbEntity
  8
RUNDUNGEN
100
AcDbLine
 62
7
  6
CONTINUOUS
 10
148.502186548
 20
139.6959519894
 11
148.502186548
 21
155.1945253362
  0
LINE
  5
2E9
100
AcDbEntity
  8
BEZUGSACHSEN
100
AcDbLine
 62
7
  6
CONTINUOUS
 10
148.817308948
 20
156.2323653325
 11
148.817308948
 21
133.8199069565
  0
LINE
  5
2EA
100
AcDbEntity
  8
0
100
AcDbLine
 62
7
  6
CONTINUOUS
 10
136.8334274833
 20
112.0757845001
 11
137.0369796607
 21
112.5541560241
  0
LINE
  5
2EB
100
AcDbEntity
  8
0
100
AcDbLine
 62
7
  6
CONTINUOUS
 10
136.6087563046
 20
112.8495064127
 11
136.3473642279
 21
112.2872738316
  0
LINE
  5
2EC
100
AcDbEntity
  8
0
100
AcDbLine
 62
7
  6
CONTINUOUS
 10
127.863664503
 20
104.0073935474
 11
128.0319639543
 21
104.3365958896
  0
LINE
  5
2ED
100
AcDbEntity
  8
0
100
AcDbLine
 62
7
  6
CONTINUOUS
 10
131.0095552895
 20
102.2889501999
 11
130.8412558731
 21
101.9597477937
  0
LINE
  5
2EE
100
AcDbEntity
  8
0
100
AcDbLine
 62
7
  6
CONTINUOUS
 10
127.6430655389
 20
104.8354046027
 11
127.3853867176
 21
104.4573225969
  0
LINE
  5
2EF
100
AcDbEntity
  8
BEZUGSACHSEN
100
AcDbLine
 62
7
  6
CONTINUOUS
 10
95.0194196752
 20
178.5611508805
 11
94.2741944586
 21
178.5801311229
  0
LINE
  5
2F0
100
AcDbEntity
  8
BEZUGSACHSEN
100
AcDbLine
 62
7
  6
CONTINUOUS
 10
94.299770439
 20
178.0674784155
 11
94.7580275986
 21
177.9989182994
  0
LINE
  5
2F1
100
AcDbEntity
  8
BEZUGSACHSEN
100
AcDbLine
 62
7
  6
CONTINUOUS
 10
94.0095155128
 20
182.2277633182
 11
93.5512582932
 21
182.2963234757
  0
LINE
  5
2F2
100
AcDbEntity
  8
BEZUGSACHSEN
100
AcDbLine
 62
7
  6
CONTINUOUS
 10
94.3242894257
 20
182.1344141421
 11
94.0095155128
 21
182.2277633182
  0
LINE
  5
2F3
100
AcDbEntity
  8
BEZUGSACHSEN
100
AcDbLine
 62
7
  6
CONTINUOUS
 10
102.9065715397
 20
186.3860696085
 11
103.3743900362
 21
186.1675835742
  0
LINE
  5
2F4
100
AcDbEntity
  8
BEZUGSACHSEN
100
AcDbLine
 62
7
  6
CONTINUOUS
 10
102.2157732444
 20
188.4984983962
 11
101.8872549118
 21
188.6745833853
  0
LINE
  5
2F5
100
AcDbEntity
  8
BEZUGSACHSEN
100
AcDbLine
 62
7
  6
CONTINUOUS
 10
104.2691271969
 20
190.6886672626
 11
103.751388807
 21
190.998434789
  0
LINE
  5
2F6
100
AcDbEntity
  8
BEZUGSACHSEN
100
AcDbLine
 62
7
  6
CENTER
 10
151.70738381
 20
145.8044906445
 11
151.70738381
 21
140.9201711744
  0
LINE
  5
2F7
100
AcDbEntity
  8
BEZUGSACHSEN
100
AcDbLine
 62
7
  6
CENTER
 10
151.70738381
 20
145.8044906445
 11
151.70738381
 21
150.6888101146
  0
LINE
  5
2F8
100
AcDbEntity
  8
0
100
AcDbLine
 62
7
  6
CONTINUOUS
 10
140.4093864171
 20
110.8469363028
 11
140.2058329158
 21
110.3685628593
  0
LINE
  5
2F9
100
AcDbEntity
  8
0
100
AcDbLine
 62
7
  6
CONTINUOUS
 10
140.6340563319
 20
110.0732124294
 11
140.8954484011
 21
110.6354450157
  0
LINE
  5
2FA
100
AcDbEntity
  8
0
100
AcDbLine
 62
7
  6
CONTINUOUS
 10
131.2301543191
 20
101.4609390247
 11
131.4878331273
 21
101.8390210545
  0
LINE
  5
2FB
100
AcDbEntity
  8
0
100
AcDbLine
 62
7
  6
CONTINUOUS
 10
134.9960800965
 20
110.7492968407
 11
134.5855151155
 21
110.2964796529
  0
LINE
  5
2FC
100
AcDbEntity
  8
0
100
AcDbLine
 62
7
  6
CONTINUOUS
 10
128.0319639543
 20
104.3365958896
 11
128.2501832464
 21
104.5745168358
  0
LINE
  5
2FD
100
AcDbEntity
  8
0
100
AcDbLine
 62
7
  6
CONTINUOUS
 10
137.0414377237
 20
113.2935988384
 11
136.6087563046
 21
112.8495064127
  0
LINE
  5
2FE
100
AcDbEntity
  8
0
100
AcDbLine
 62
7
  6
CONTINUOUS
 10
127.9506642012
 20
105.1222052125
 11
127.6430655389
 21
104.8354046027
  0
LINE
  5
2FF
100
AcDbEntity
  8
BEZUGSACHSEN
100
AcDbLine
 62
7
  6
CONTINUOUS
 10
94.7580275986
 20
177.9989182994
 11
95.1884799862
 21
178.0732893179
  0
LINE
  5
300
100
AcDbEntity
  8
BEZUGSACHSEN
100
AcDbLine
 62
7
  6
CONTINUOUS
 10
93.2898662165
 20
181.7340908946
 11
94.035092577
 21
181.7151126957
  0
LINE
  5
301
100
AcDbEntity
  8
BEZUGSACHSEN
100
AcDbLine
 62
7
  6
CONTINUOUS
 10
103.6715294096
 20
186.6858271991
 11
103.3929299649
 21
186.7706301048
  0
LINE
  5
302
100
AcDbEntity
  8
BEZUGSACHSEN
100
AcDbLine
 62
7
  6
CONTINUOUS
 10
101.7793346601
 20
188.0226565038
 11
102.3365335496
 21
187.8530506924
  0
LINE
  5
303
100
AcDbEntity
  8
BEZUGSACHSEN
100
AcDbLine
 62
7
  6
CONTINUOUS
 10
156.0938767514
 20
132.9613578608
 11
159.7104602742
 21
138.1263744101
  0
LINE
  5
304
100
AcDbEntity
  8
0
100
AcDbLine
 62
7
  6
CONTINUOUS
 10
138.208052618
 20
107.0119598046
 11
138.6186175991
 21
107.4647769924
  0
LINE
  5
305
100
AcDbEntity
  8
0
100
AcDbLine
 62
7
  6
CONTINUOUS
 10
140.2013749053
 20
109.6291200089
 11
140.6340563319
 21
110.0732124294
  0
LINE
  5
306
100
AcDbEntity
  8
0
100
AcDbLine
 62
7
  6
CONTINUOUS
 10
137.0369796607
 20
112.5541560241
 11
137.4118225044
 21
112.9143893122
  0
LINE
  5
307
100
AcDbEntity
  8
0
100
AcDbLine
 62
7
  6
CONTINUOUS
 10
140.2058329158
 20
110.3685628593
 11
139.8309913959
 21
110.0083314907
  0
LINE
  5
308
100
AcDbEntity
  8
0
100
AcDbLine
 62
7
  6
CONTINUOUS
 10
130.8412558731
 20
101.9597477937
 11
130.5336561881
 21
101.6729466246
  0
LINE
  5
309
100
AcDbEntity
  8
0
100
AcDbLine
 62
7
  6
CONTINUOUS
 10
128.3975630972
 20
105.3666046491
 11
127.9506642012
 21
105.1222052125
  0
LINE
  5
30A
100
AcDbEntity
  8
0
100
AcDbLine
 62
7
  6
CONTINUOUS
 10
128.2501832464
 20
104.5745168358
 11
128.7864615125
 21
104.867795936
  0
LINE
  5
30B
100
AcDbEntity
  8
0
100
AcDbLine
 62
7
  6
CONTINUOUS
 10
129.572338983
 20
104.7046680555
 11
130.1086172491
 21
104.9979471557
  0
LINE
  5
30C
100
AcDbEntity
  8
0
100
AcDbLine
 62
7
  6
CONTINUOUS
 10
137.5875699099
 20
113.535691971
 11
137.0414377237
 21
113.2935988384
  0
LINE
  5
30D
100
AcDbEntity
  8
0
100
AcDbLine
 62
7
  6
CONTINUOUS
 10
137.4118225044
 20
112.9143893122
 11
137.7566302208
 21
113.0478304085
  0
LINE
  5
30E
100
AcDbEntity
  8
0
100
AcDbLine
 62
7
  6
CONTINUOUS
 10
139.8309913959
 20
110.0083314907
 11
139.4861836795
 21
109.8748903944
  0
LINE
  5
30F
100
AcDbEntity
  8
0
100
AcDbLine
 62
7
  6
CONTINUOUS
 10
128.8943818341
 20
105.5197226895
 11
128.3975630972
 21
105.3666046491
  0
LINE
  5
310
100
AcDbEntity
  8
BEZUGSACHSEN
100
AcDbLine
 62
7
  6
CONTINUOUS
 10
93.5512582932
 20
182.2963234757
 11
93.1208058756
 21
182.2219524778
  0
LINE
  5
311
100
AcDbEntity
  8
BEZUGSACHSEN
100
AcDbLine
 62
7
  6
CONTINUOUS
 10
102.5837520592
 20
188.462575154
 11
102.2157732444
 21
188.4984983962
  0
LINE
  5
312
100
AcDbEntity
  8
BEZUGSACHSEN
100
AcDbLine
 62
7
  6
CONTINUOUS
 10
104.1450477114
 20
188.3677624084
 11
104.5130265262
 21
188.3318391662
  0
LINE
  5
313
100
AcDbEntity
  8
BEZUGSACHSEN
100
AcDbLine
 62
7
  6
CONTINUOUS
 10
103.3743900362
 20
186.1675835742
 11
103.881668062
 21
186.0892585995
  0
LINE
  5
314
100
AcDbEntity
  8
BEZUGSACHSEN
100
AcDbLine
 62
7
  6
CONTINUOUS
 10
104.9494651105
 20
188.8076810586
 11
104.392266221
 21
188.97728687
  0
LINE
  5
315
100
AcDbEntity
  8
BEZUGSACHSEN
100
AcDbLine
 62
7
  6
CONTINUOUS
 10
103.364870081
 20
190.4313114685
 11
103.7827687717
 21
190.3041067664
  0
LINE
  5
316
100
AcDbEntity
  8
BEZUGSACHSEN
100
AcDbLine
 62
7
  6
CONTINUOUS
 10
160.388024948
 20
153.6627869396
 11
160.388024948
 21
150.3251735805
  0
LINE
  5
317
100
AcDbEntity
  8
BEZUGSACHSEN
100
AcDbLine
 62
7
  6
CONTINUOUS
 10
160.388024948
 20
141.2838077085
 11
160.388024948
 21
140.2753350079
  0
LINE
  5
318
100
AcDbEntity
  8
0
100
AcDbLine
 62
7
  6
CONTINUOUS
 10
130.8331752683
 20
101.125258184
 11
131.2301543191
 21
101.4609390247
  0
LINE
  5
319
100
AcDbEntity
  8
0
100
AcDbLine
 62
7
  6
CONTINUOUS
 10
129.4853394247
 20
103.5898561347
 11
128.9490611586
 21
103.2965770346
  0
LINE
  5
31A
100
AcDbEntity
  8
0
100
AcDbLine
 62
7
  6
CONTINUOUS
 10
129.2485802039
 20
102.7488886579
 11
129.78485847
 21
103.042167758
  0
LINE
  5
31B
100
AcDbEntity
  8
0
100
AcDbLine
 62
7
  6
CONTINUOUS
 10
128.7541422317
 20
101.5298390474
 11
128.2178639656
 21
101.2365599473
  0
LINE
  5
31C
100
AcDbEntity
  8
0
100
AcDbLine
 62
7
  6
CONTINUOUS
 10
130.5336561881
 20
101.6729466246
 11
129.8186191819
 21
101.2819081973
  0
LINE
  5
31D
100
AcDbEntity
  8
0
100
AcDbLine
 62
7
  6
CONTINUOUS
 10
130.1181382621
 20
100.7342197568
 11
130.8331752683
 21
101.125258184
  0
LINE
  5
31E
100
AcDbEntity
  8
0
100
AcDbLine
 62
7
  6
CONTINUOUS
 10
139.6552440205
 20
109.3870288111
 11
140.2013749053
 21
109.6291200089
  0
LINE
  5
31F
100
AcDbEntity
  8
0
100
AcDbLine
 62
7
  6
CONTINUOUS
 10
125.76700403
 20
104.0019403444
 11
125.184458885
 21
103.8168777518
  0
LINE
  5
320
100
AcDbEntity
  8
0
100
AcDbLine
 62
7
  6
CONTINUOUS
 10
122.4659146894
 20
102.9532522608
 11
121.8833695443
 21
102.7681896682
  0
LINE
  5
321
100
AcDbEntity
  8
0
100
AcDbLine
 62
7
  6
CONTINUOUS
 10
129.9821581616
 20
103.7429741752
 11
129.4853394247
 21
103.5898561347
  0
LINE
  5
322
100
AcDbEntity
  8
BEZUGSACHSEN
100
AcDbLine
 62
7
  6
CONTINUOUS
 10
102.9911914261
 20
188.5668135309
 11
102.5837520592
 21
188.462575154
  0
LINE
  5
323
100
AcDbEntity
  8
BEZUGSACHSEN
100
AcDbLine
 62
7
  6
CONTINUOUS
 10
103.9349080361
 20
188.9643304486
 11
103.5274696922
 21
188.8600926311
  0
LINE
  5
324
100
AcDbEntity
  8
BEZUGSACHSEN
100
AcDbLine
 62
7
  6
CONTINUOUS
 10
102.9574307142
 20
190.3270730916
 11
103.364870081
 21
190.4313114685
  0
LINE
  5
325
100
AcDbEntity
  8
BEZUGSACHSEN
100
AcDbLine
 62
7
  6
CONTINUOUS
 10
103.9895883835
 20
186.741185353
 11
103.6715294096
 21
186.6858271991
  0
LINE
  5
326
100
AcDbEntity
  8
BEZUGSACHSEN
100
AcDbLine
 62
7
  6
CONTINUOUS
 10
103.8269887374
 20
188.3124042544
 11
104.1450477114
 21
188.3677624084
  0
LINE
  5
327
100
AcDbEntity
  8
BEZUGSACHSEN
100
AcDbLine
 62
7
  6
CONTINUOUS
 10
111.7019198778
 20
189.0116364368
 11
112.3095577245
 21
189.0778426038
  0
LINE
  5
328
100
AcDbEntity
  8
BEZUGSACHSEN
100
AcDbLine
 62
7
  6
CONTINUOUS
 10
115.1452009124
 20
189.3868047056
 11
115.752838759
 21
189.4530108725
  0
LINE
  5
329
100
AcDbEntity
  8
BEZUGSACHSEN
100
AcDbLine
 62
7
  6
CONTINUOUS
 10
102.3365335496
 20
187.8530506924
 11
102.7938917345
 21
187.8660071138
  0
LINE
  5
32A
100
AcDbEntity
  8
BEZUGSACHSEN
100
AcDbLine
 62
7
  6
CONTINUOUS
 10
104.392266221
 20
188.97728687
 11
103.9349080361
 21
188.9643304486
  0
LINE
  5
32B
100
AcDbEntity
  8
BEZUGSACHSEN
100
AcDbLine
 62
7
  6
CONTINUOUS
 10
103.751388807
 20
190.998434789
 11
103.1547303752
 21
191.0278795647
  0
LINE
  5
32C
100
AcDbEntity
  8
BEZUGSACHSEN
100
AcDbLine
 62
7
  6
CONTINUOUS
 10
141.8477046738
 20
185.6568835282
 11
159.253578505
 21
157.6387069829
  0
LINE
  5
32D
100
AcDbEntity
  8
0
100
AcDbLine
 62
7
  6
CONTINUOUS
 10
124.9173241906
 20
98.6013288133
 11
125.6940508655
 21
98.848078878
  0
LINE
  5
32E
100
AcDbEntity
  8
0
100
AcDbLine
 62
7
  6
CONTINUOUS
 10
129.6213195208
 20
100.5811017243
 11
130.1181382621
 21
100.7342197568
  0
LINE
  5
32F
100
AcDbEntity
  8
BEZUGSACHSEN
100
AcDbLine
 62
7
  6
CONTINUOUS
 10
113.6028217842
 20
194.1375638621
 11
112.7926380369
 21
194.0492889781
  0
LINE
  5
330
100
AcDbEntity
  8
BEZUGSACHSEN
100
AcDbLine
 62
7
  6
CONTINUOUS
 10
262.4636863979
 20
91.7959686445
 11
266.56111495
 21
92.226625739
  0
LINE
  5
331
100
AcDbEntity
  8
AUSFORMSCHRAEGEN
100
AcDbLine
 62
7
  6
CONTINUOUS
 10
262.4636863979
 20
91.7959686445
 11
266.56111495
 21
92.226625739
  0
LINE
  5
332
100
AcDbEntity
  8
BEZUGSACHSEN
100
AcDbLine
 62
7
  6
CONTINUOUS
 10
262.4636863979
 20
91.7959686445
 11
258.3662578458
 21
92.226625739
  0
LINE
  5
333
100
AcDbEntity
  8
BEZUGSACHSEN
100
AcDbLine
 62
8
  6
HIDDEN
 10
262.4636863979
 20
108.7959686445
 11
261.109051797
 21
108.5814156014
  0
LINE
  5
334
100
AcDbEntity
  8
BEZUGSACHSEN
100
AcDbLine
 62
8
  6
HIDDEN
 10
262.4636863979
 20
108.7959686445
 11
263.8183209988
 21
108.5814156014
  0
LINE
  5
335
100
AcDbEntity
  8
BEZUGSACHSEN
100
AcDbLine
 62
7
  6
CONTINUOUS
 10
253.3687987575
 20
161.6991682285
 11
252.3464046488
 21
160.6767741197
  0
LINE
  5
336
100
AcDbEntity
  8
BEZUGSACHSEN
100
AcDbLine
 62
7
  6
CONTINUOUS
 10
253.3687987575
 20
129.9098130605
 11
252.3464046488
 21
130.9322071692
  0
LINE
  5
337
100
AcDbEntity
  8
BEZUGSACHSEN
100
AcDbLine
 62
7
  6
CONTINUOUS
 10
251.4636863979
 20
158.5457037466
 11
251.4636863979
 21
153.1196249954
  0
LINE
  5
338
100
AcDbEntity
  8
RUNDUNGEN
100
AcDbLine
 62
7
  6
CONTINUOUS
 10
251.4636863979
 20
153.1196249954
 11
251.4636863979
 21
151.8957750869
  0
LINE
  5
339
100
AcDbEntity
  8
BEZUGSACHSEN
100
AcDbLine
 62
7
  6
CONTINUOUS
 10
251.4636863979
 20
151.8957750869
 11
251.4636863979
 21
133.0632775423
  0
LINE
  5
33A
100
AcDbEntity
  8
BEZUGSACHSEN
100
AcDbLine
 62
7
  6
CONTINUOUS
 10
256.2688613857
 20
177.9736450723
 11
254.2221865858
 21
163.4107971702
  0
LINE
  5
33B
100
AcDbEntity
  8
BEZUGSACHSEN
100
AcDbLine
 62
7
  6
CONTINUOUS
 10
254.2221871909
 20
128.1981798137
 11
256.268861092
 21
113.635338306
  0
LWPOLYLINE
  5
33C
100
AcDbEntity
  8
BEZUGSACHSEN
100
AcDbPolyline
 62
7
  6
CONTINUOUS
 90
4
 70
0
 10
256.3482797988
 20
159.4124104638
 10
256.3568889136
 20
159.3028675031
 10
256.3680982526
 20
159.1975457539
 10
256.3789355016
 20
159.112035324
  0
LWPOLYLINE
  5
33D
100
AcDbEntity
  8
BEZUGSACHSEN
100
AcDbPolyline
 62
7
  6
CONTINUOUS
 90
3
 70
0
 10
256.3421874141
 20
159.6007809923
 10
256.3431199757
 20
159.5283905222
 10
256.3482797988
 20
159.4124104638
  0
LINE
  5
33E
100
AcDbEntity
  8
BEZUGSACHSEN
100
AcDbLine
 62
7
  6
CONTINUOUS
 10
256.3421863979
 20
112.5867380321
 11
256.3421863979
 21
94.47458482
  0
LINE
  5
33F
100
AcDbEntity
  8
BEZUGSACHSEN
100
AcDbLine
 62
7
  6
CONTINUOUS
 10
256.3421863979
 20
159.6008203157
 11
256.3421863979
 21
197.134396469
  0
LINE
  5
340
100
AcDbEntity
  8
BEZUGSACHSEN
100
AcDbLine
 62
7
  6
CONTINUOUS
 10
256.3790101818
 20
159.1114789111
 11
256.3789466107
 21
159.1119511484
  0
LINE
  5
341
100
AcDbEntity
  8
T_STARTBEZUEGE
100
AcDbLine
 62
7
  6
CENTER
 10
262.4636863979
 20
202.8130126459
 11
262.4636863979
 21
88.7959686431
  0
LINE
  5
342
100
AcDbEntity
  8
BEZUGSACHSEN
100
AcDbLine
 62
7
  6
CONTINUOUS
 10
262.4636863979
 20
199.8130126445
 11
262.463686412
 21
165.8728869724
  0
LINE
  5
343
100
AcDbEntity
  8
T_STARTBEZUEGE
100
AcDbLine
 62
7
  6
CENTER
 10
277.3826526264
 20
145.8044906445
 11
247.5447201694
 21
145.8044906445
  0
LINE
  5
344
100
AcDbEntity
  8
BEZUGSACHSEN
100
AcDbLine
 62
7
  6
CONTINUOUS
 10
268.5851863979
 20
197.134396469
 11
268.5851863979
 21
159.60078244
  0
LINE
  5
345
100
AcDbEntity
  8
RUNDUNGEN
100
AcDbLine
 62
7
  6
CONTINUOUS
 10
268.5851863979
 20
112.5867380321
 11
268.5851863979
 21
94.47458482
  0
LWPOLYLINE
  5
346
100
AcDbEntity
  8
BEZUGSACHSEN
100
AcDbPolyline
 62
7
  6
CONTINUOUS
 90
3
 70
0
 10
268.579338162
 20
159.4163353739
 10
268.5843448511
 20
159.5320669051
 10
268.5851852284
 20
159.6006802225
  0
LINE
  5
347
100
AcDbEntity
  8
BEZUGSACHSEN
100
AcDbLine
 62
7
  6
CONTINUOUS
 10
268.5710691824
 20
159.3091795059
 11
268.579338162
 21
159.4163353739
  0
LWPOLYLINE
  5
348
100
AcDbEntity
  8
BEZUGSACHSEN
100
AcDbPolyline
 62
7
  6
CONTINUOUS
 90
3
 70
0
 10
268.5483855898
 20
159.1116665683
 10
268.5602017196
 20
159.2054146232
 10
268.5710691824
 20
159.3091795059
  0
LINE
  5
349
100
AcDbEntity
  8
BEZUGSACHSEN
100
AcDbLine
 62
7
  6
CONTINUOUS
 10
268.548380137
 20
159.1116090325
 11
268.5482857063
 21
159.1109089275
  0
LINE
  5
34A
100
AcDbEntity
  8
BEZUGSACHSEN
100
AcDbLine
 62
7
  6
CONTINUOUS
 10
273.4636863979
 20
158.5457037466
 11
273.4636863979
 21
153.1196249954
  0
LINE
  5
34B
100
AcDbEntity
  8
RUNDUNGEN
100
AcDbLine
 62
7
  6
CONTINUOUS
 10
273.4636863979
 20
153.1196249954
 11
273.4636863979
 21
133.0632775423
  0
LINE
  5
34C
100
AcDbEntity
  8
RUNDUNGEN
100
AcDbLine
 62
7
  6
CONTINUOUS
 10
270.7051856049
 20
128.1981798137
 11
268.6585117038
 21
113.635338306
  0
LINE
  5
34D
100
AcDbEntity
  8
BEZUGSACHSEN
100
AcDbLine
 62
7
  6
CONTINUOUS
 10
268.6585114102
 20
177.9736450723
 11
270.70518621
 21
163.4107971702
  0
LINE
  5
34E
100
AcDbEntity
  8
RUNDUNGEN
100
AcDbLine
 62
7
  6
CONTINUOUS
 10
272.5809414765
 20
130.9321804987
 11
271.5585804516
 21
129.9098194738
  0
LINE
  5
34F
100
AcDbEntity
  8
BEZUGSACHSEN
100
AcDbLine
 62
7
  6
CONTINUOUS
 10
271.5585740383
 20
161.6991682285
 11
272.580968147
 21
160.6767741197
  0
LINE
  5
350
100
AcDbEntity
  8
BEZUGSACHSEN
100
AcDbLine
 62
8
  6
HIDDEN
 10
262.4636863979
 20
182.8130126445
 11
263.8183209988
 21
183.0275656876
  0
LINE
  5
351
100
AcDbEntity
  8
BEZUGSACHSEN
100
AcDbLine
 62
8
  6
HIDDEN
 10
262.4636863979
 20
182.8130126445
 11
261.109051797
 21
183.0275656876
  0
LINE
  5
352
100
AcDbEntity
  8
BEZUGSACHSEN
100
AcDbLine
 62
7
  6
CONTINUOUS
 10
262.4636863979
 20
199.8130126445
 11
258.3662578458
 21
199.38235555
  0
LINE
  5
353
100
AcDbEntity
  8
BEZUGSACHSEN
100
AcDbLine
 62
7
  6
CONTINUOUS
 10
262.4636863979
 20
199.8130126445
 11
266.56111495
 21
199.38235555
  0
ARC
  5
354
100
AcDbEntity
  8
BEZUGSACHSEN
100
AcDbCircle
 62
7
  6
CONTINUOUS
 10
98.853553388
 20
132.4025111884
 40
7.53447156
100
AcDbArc
 50
328.7648355016
 51
360.0
  0
ARC
  5
355
100
AcDbEntity
  8
BEZUGSACHSEN
100
AcDbCircle
 62
7
  6
CONTINUOUS
 10
79.922496508
 20
137.9461943494
 40
7.53447156
100
AcDbArc
 50
180.0
 51
211.85
  0
ARC
  5
356
100
AcDbEntity
  8
BEZUGSACHSEN
100
AcDbCircle
 62
7
  6
CONTINUOUS
 10
96.881130636
 20
136.4144219565
 40
1.506894312
100
AcDbArc
 50
270.0
 51
360.0
  0
ARC
  5
357
100
AcDbEntity
  8
BEZUGSACHSEN
100
AcDbCircle
 62
7
  6
CONTINUOUS
 10
85.78075766
 20
136.4144219565
 40
1.506894312
100
AcDbArc
 50
180.0
 51
270.0
  0
ARC
  5
358
100
AcDbEntity
  8
RUNDUNGEN
100
AcDbCircle
 62
7
  6
CONTINUOUS
 10
85.46563526
 20
135.3766159565
 40
1.506894312
100
AcDbArc
 50
180.0
 51
269.9992303471
  0
ARC
  5
359
100
AcDbEntity
  8
RUNDUNGEN
100
AcDbCircle
 62
7
  6
CONTINUOUS
 10
96.981130636
 20
135.3766159565
 40
1.506894312
100
AcDbArc
 50
269.9997141681
 51
360.0
  0
ARC
  5
35A
100
AcDbEntity
  8
BEZUGSACHSEN
100
AcDbCircle
 62
7
  6
CONTINUOUS
 10
80.5988462203
 20
158.2581626445
 40
6.4047396438
100
AcDbArc
 50
304.9242755343
 51
72.9511908603
  0
ARC
  5
35B
100
AcDbEntity
  8
BEZUGSACHSEN
100
AcDbCircle
 62
7
  6
CONTINUOUS
 10
76.1337174504
 20
151.333931931
 40
3.7456925133
100
AcDbArc
 50
144.9956305717
 51
180.0043694283
  0
CIRCLE
  5
35C
100
AcDbEntity
  8
BEZUGSACHSEN
100
AcDbCircle
 62
7
  6
CONTINUOUS
 10
81.068666086
 20
145.8044906445
 40
1.8843194701
  0
ARC
  5
35D
100
AcDbEntity
  8
RUNDUNGEN
100
AcDbCircle
 62
7
  6
CONTINUOUS
 10
82.451846636
 20
157.7890743325
 40
1.506894312
100
AcDbArc
 50
0.0
 51
90.0
  0
ARC
  5
35E
100
AcDbEntity
  8
RUNDUNGEN
100
AcDbCircle
 62
7
  6
CONTINUOUS
 10
99.99491926
 20
157.7890743325
 40
1.506894312
100
AcDbArc
 50
90.0
 51
180.0
  0
ARC
  5
35F
100
AcDbEntity
  8
RUNDUNGEN
100
AcDbCircle
 62
7
  6
CONTINUOUS
 10
116.388024948
 20
126.7959686445
 40
35.0
100
AcDbArc
 50
270.0
 51
358.2646968367
  0
ARC
  5
360
100
AcDbEntity
  8
BEZUGSACHSEN
100
AcDbCircle
 62
7
  6
CONTINUOUS
 10
116.388024948
 20
121.7685436445
 40
29.972575
100
AcDbArc
 50
211.85
 51
270.0
  0
ARC
  5
361
100
AcDbEntity
  8
BEZUGSACHSEN
100
AcDbCircle
 62
7
  6
CONTINUOUS
 10
116.388024948
 20
126.7959686445
 40
18.0
100
AcDbArc
 50
270.0
 51
360.0
  0
ARC
  5
362
100
AcDbEntity
  8
BEZUGSACHSEN
100
AcDbCircle
 62
7
  6
CONTINUOUS
 10
116.388024948
 20
121.7685436445
 40
12.972575
100
AcDbArc
 50
148.7648355016
 51
270.0
  0
ARC
  5
363
100
AcDbEntity
  8
BEZUGSACHSEN
100
AcDbCircle
 62
7
  6
CONTINUOUS
 10
152.1772036758
 20
133.3508186445
 40
6.4047396438
100
AcDbArc
 50
124.9242755343
 51
252.9511908603
  0
ARC
  5
364
100
AcDbEntity
  8
BEZUGSACHSEN
100
AcDbCircle
 62
7
  6
CONTINUOUS
 10
156.6423324456
 20
140.275049358
 40
3.7456925133
100
AcDbArc
 50
324.9956305717
 51
0.0043694283
  0
ARC
  5
365
100
AcDbEntity
  8
BEZUGSACHSEN
100
AcDbCircle
 62
7
  6
CONTINUOUS
 10
150.32420326
 20
133.8199069565
 40
1.506894312
100
AcDbArc
 50
180.0
 51
270.0
  0
ARC
  5
366
100
AcDbEntity
  8
BEZUGSACHSEN
100
AcDbCircle
 62
7
  6
CONTINUOUS
 10
132.781130636
 20
133.8199069565
 40
1.506894312
100
AcDbArc
 50
270.0
 51
360.0
  0
ARC
  5
367
100
AcDbEntity
  8
BEZUGSACHSEN
100
AcDbCircle
 62
7
  6
CONTINUOUS
 10
116.388024948
 20
164.8130126445
 40
35.0
100
AcDbArc
 50
90.0
 51
178.2646968367
  0
ARC
  5
368
100
AcDbEntity
  8
BEZUGSACHSEN
100
AcDbCircle
 62
7
  6
CONTINUOUS
 10
116.388024948
 20
169.8404376445
 40
29.972575
100
AcDbArc
 50
31.85
 51
90.0
  0
ARC
  5
369
100
AcDbEntity
  8
BEZUGSACHSEN
100
AcDbCircle
 62
7
  6
CONTINUOUS
 10
116.388024948
 20
164.8130126445
 40
18.0
100
AcDbArc
 50
90.0
 51
180.0
  0
ARC
  5
36A
100
AcDbEntity
  8
BEZUGSACHSEN
100
AcDbCircle
 62
7
  6
CONTINUOUS
 10
116.388024948
 20
169.8404376445
 40
12.972575
100
AcDbArc
 50
328.7648355016
 51
90.0
  0
ARC
  5
36B
100
AcDbEntity
  8
BEZUGSACHSEN
100
AcDbCircle
 62
7
  6
CONTINUOUS
 10
152.853553388
 20
153.6627869396
 40
7.53447156
100
AcDbArc
 50
0.0
 51
31.85
  0
ARC
  5
36C
100
AcDbEntity
  8
BEZUGSACHSEN
100
AcDbCircle
 62
7
  6
CONTINUOUS
 10
133.922496508
 20
159.2064701006
 40
7.53447156
100
AcDbArc
 50
148.7648355016
 51
180.0
  0
CIRCLE
  5
36D
100
AcDbEntity
  8
BEZUGSACHSEN
100
AcDbCircle
 62
7
  6
CONTINUOUS
 10
151.70738381
 20
145.8044906445
 40
1.8843194701
  0
ARC
  5
36E
100
AcDbEntity
  8
RUNDUNGEN
100
AcDbCircle
 62
7
  6
CONTINUOUS
 10
135.89491926
 20
155.1945593325
 40
1.506894312
100
AcDbArc
 50
90.0
 51
180.0
  0
ARC
  5
36F
100
AcDbEntity
  8
RUNDUNGEN
100
AcDbCircle
 62
7
  6
CONTINUOUS
 10
146.995292236
 20
155.1945593325
 40
1.506894312
100
AcDbArc
 50
0.0
 51
90.0
  0
ARC
  5
370
100
AcDbEntity
  8
BEZUGSACHSEN
100
AcDbCircle
 62
7
  6
CONTINUOUS
 10
135.79491926
 20
156.2323653325
 40
1.506894312
100
AcDbArc
 50
89.9997141681
 51
180.0
  0
ARC
  5
371
100
AcDbEntity
  8
BEZUGSACHSEN
100
AcDbCircle
 62
7
  6
CONTINUOUS
 10
147.310414636
 20
156.2323653325
 40
1.506894312
100
AcDbArc
 50
0.0
 51
89.9992303471
  0
ARC
  5
372
100
AcDbEntity
  8
BEZUGSACHSEN
100
AcDbCircle
 62
7
  6
CONTINUOUS
 10
248.8077148379
 20
112.5867400686
 40
7.53447156
100
AcDbArc
 50
359.9999845132
 51
8.0000189394
  0
ARC
  5
373
100
AcDbEntity
  8
BEZUGSACHSEN
100
AcDbCircle
 62
8
  6
HIDDEN
 10
261.9930400679
 20
103.0001333171
 40
5.65085367
100
AcDbArc
 50
99.0
 51
180.0
  0
ARC
  5
374
100
AcDbEntity
  8
BEZUGSACHSEN
100
AcDbCircle
 62
7
  6
CONTINUOUS
 10
251.2377283845
 20
127.7787426874
 40
3.013788624
100
AcDbArc
 50
7.9999773045
 51
45.0001724276
  0
ARC
  5
375
100
AcDbEntity
  8
BEZUGSACHSEN
100
AcDbCircle
 62
7
  6
CONTINUOUS
 10
254.4774750219
 20
133.0632775423
 40
3.013788624
100
AcDbArc
 50
179.9993135547
 51
225.0002909742
  0
ARC
  5
376
100
AcDbEntity
  8
BEZUGSACHSEN
100
AcDbCircle
 62
7
  6
CONTINUOUS
 10
258.6025278659
 20
94.47458482
 40
2.260341468
100
AcDbArc
 50
180.0
 51
264.0
  0
ARC
  5
377
100
AcDbEntity
  8
BEZUGSACHSEN
100
AcDbCircle
 62
7
  6
CONTINUOUS
 10
248.8077148379
 20
179.0222412204
 40
7.53447156
100
AcDbArc
 50
351.9999971056
 51
0.0000154868
  0
ARC
  5
378
100
AcDbEntity
  8
BEZUGSACHSEN
100
AcDbCircle
 62
7
  6
CONTINUOUS
 10
250.0313695062
 20
158.2581626445
 40
6.4047396438
100
AcDbArc
 50
356.4927988119
 51
7.655750731
  0
ARC
  5
379
100
AcDbEntity
  8
BEZUGSACHSEN
100
AcDbCircle
 62
8
  6
HIDDEN
 10
261.9930400679
 20
188.6088479719
 40
5.65085367
100
AcDbArc
 50
180.0
 51
261.0
  0
ARC
  5
37A
100
AcDbEntity
  8
BEZUGSACHSEN
100
AcDbCircle
 62
7
  6
CONTINUOUS
 10
254.4774750219
 20
158.5457037466
 40
3.013788624
100
AcDbArc
 50
135.0
 51
180.0
  0
ARC
  5
37B
100
AcDbEntity
  8
BEZUGSACHSEN
100
AcDbCircle
 62
7
  6
CONTINUOUS
 10
251.2377283845
 20
163.8302386016
 40
3.013788624
100
AcDbArc
 50
315.0000290573
 51
351.9999400466
  0
ARC
  5
37C
100
AcDbEntity
  8
BEZUGSACHSEN
100
AcDbCircle
 62
7
  6
CONTINUOUS
 10
258.6025278659
 20
197.134396469
 40
2.260341468
100
AcDbArc
 50
96.0
 51
180.0
  0
ARC
  5
37D
100
AcDbEntity
  8
RUNDUNGEN
100
AcDbCircle
 62
7
  6
CONTINUOUS
 10
252.9705807099
 20
153.1196249954
 40
1.506894312
100
AcDbArc
 50
142.3831110937
 51
180.0
  0
ARC
  5
37E
100
AcDbEntity
  8
RUNDUNGEN
100
AcDbCircle
 62
7
  6
CONTINUOUS
 10
276.1196579579
 20
112.5867400686
 40
7.53447156
100
AcDbArc
 50
171.9999810606
 51
180.0000154868
  0
ARC
  5
37F
100
AcDbEntity
  8
RUNDUNGEN
100
AcDbCircle
 62
8
  6
HIDDEN
 10
262.9343327279
 20
103.0001333171
 40
5.65085367
100
AcDbArc
 50
0.0
 51
81.0
  0
ARC
  5
380
100
AcDbEntity
  8
RUNDUNGEN
100
AcDbCircle
 62
7
  6
CONTINUOUS
 10
273.6896444114
 20
127.7787426874
 40
3.013788624
100
AcDbArc
 50
134.9998275724
 51
172.0000226955
  0
ARC
  5
381
100
AcDbEntity
  8
RUNDUNGEN
100
AcDbCircle
 62
7
  6
CONTINUOUS
 10
270.4498977739
 20
133.0632775423
 40
3.013788624
100
AcDbArc
 50
314.9997090258
 51
0.0006864453
  0
ARC
  5
382
100
AcDbEntity
  8
RUNDUNGEN
100
AcDbCircle
 62
7
  6
CONTINUOUS
 10
266.3248449299
 20
94.47458482
 40
2.260341468
100
AcDbArc
 50
276.0
 51
360.0
  0
ARC
  5
383
100
AcDbEntity
  8
RUNDUNGEN
100
AcDbCircle
 62
7
  6
CONTINUOUS
 10
262.4636863979
 20
145.8044906445
 40
13.491478
100
AcDbArc
 50
37.6168889063
 51
142.3831110937
  0
CIRCLE
  5
384
100
AcDbEntity
  8
0
100
AcDbCircle
 62
7
  6
CONTINUOUS
 10
262.4636863979
 20
145.8044906445
 40
4.520682936
  0
ARC
  5
385
100
AcDbEntity
  8
BEZUGSACHSEN
100
AcDbCircle
 62
8
  6
HIDDEN
 10
262.9343327279
 20
188.6088479719
 40
5.65085367
100
AcDbArc
 50
279.0
 51
360.0
  0
ARC
  5
386
100
AcDbEntity
  8
BEZUGSACHSEN
100
AcDbCircle
 62
7
  6
CONTINUOUS
 10
266.3248449299
 20
197.134396469
 40
2.260341468
100
AcDbArc
 50
0.0
 51
84.0
  0
ARC
  5
387
100
AcDbEntity
  8
BEZUGSACHSEN
100
AcDbCircle
 62
7
  6
CONTINUOUS
 10
274.8960032897
 20
158.2581626445
 40
6.4047396438
100
AcDbArc
 50
172.3501484055
 51
183.5082487575
  0
ARC
  5
388
100
AcDbEntity
  8
BEZUGSACHSEN
100
AcDbCircle
 62
7
  6
CONTINUOUS
 10
270.4498977739
 20
158.5457037466
 40
3.013788624
100
AcDbArc
 50
0.0
 51
45.0
  0
ARC
  5
389
100
AcDbEntity
  8
BEZUGSACHSEN
100
AcDbCircle
 62
7
  6
CONTINUOUS
 10
273.6896444114
 20
163.8302386016
 40
3.013788624
100
AcDbArc
 50
188.0000599534
 51
224.9999709427
  0
ARC
  5
38A
100
AcDbEntity
  8
RUNDUNGEN
100
AcDbCircle
 62
7
  6
CONTINUOUS
 10
271.9567908073
 20
153.1196268861
 40
1.5068943298
100
AcDbArc
 50
359.99992811
 51
37.6168022876
  0
ARC
  5
38B
100
AcDbEntity
  8
BEZUGSACHSEN
100
AcDbCircle
 62
7
  6
CONTINUOUS
 10
276.1196579579
 20
179.0222412204
 40
7.53447156
100
AcDbArc
 50
181.4883554227
 51
188.0000028944
  0
SPLINE
  5
38C
100
AcDbEntity
  8
BEZUGSACHSEN
100
AcDbSpline
 62
7
  6
CONTINUOUS
 70
0
 71
3
 72
11
 73
7
 74
0
 42
0.0000001
 43
0.0000001
 44
0.0000000001
 40
0.0
 40
0.0
 40
0.0
 40
0.0
 40
0.2500098233
 40
0.5000163576
 40
0.7500138291
 40
1.0
 40
1.0
 40
1.0
 40
1.0
 10
82.4766282956
 20
164.3814496416
 30
0.0
 10
82.320064119
 20
164.4294619143
 30
0.0
 10
82.0203362919
 20
164.5775231579
 30
0.0
 10
81.6665451616
 20
164.9304052172
 30
0.0
 10
81.4436796543
 20
165.3777231547
 30
0.0
 10
81.3991177789
 20
165.709217002
 30
0.0
 10
81.404076246
 20
165.872886973
 30
0.0
  0
SPLINE
  5
38D
100
AcDbEntity
  8
BEZUGSACHSEN
100
AcDbSpline
 62
7
  6
CONTINUOUS
 70
0
 71
3
 72
11
 73
7
 74
0
 42
0.0000001
 43
0.0000001
 44
0.0000000001
 40
0.0
 40
0.0
 40
0.0
 40
0.0
 40
0.2500139668
 40
0.5000035065
 40
0.749990811
 40
1.0
 40
1.0
 40
1.0
 40
1.0
 10
154.8453281046
 20
132.3130130571
 30
0.0
 10
154.966900552
 20
132.3130130722
 30
0.0
 10
155.2110265526
 20
132.3422682038
 30
0.0
 10
155.5556363991
 20
132.4715663461
 30
0.0
 10
155.8598548609
 20
132.6787795815
 30
0.0
 10
156.0241469184
 20
132.8617734973
 30
0.0
 10
156.0938767514
 20
132.9613578608
 30
0.0
  0
SPLINE
  5
38E
100
AcDbEntity
  8
BEZUGSACHSEN
100
AcDbSpline
 62
7
  6
CONTINUOUS
 70
0
 71
3
 72
15
 73
11
 74
0
 42
0.0000001
 43
0.0000001
 44
0.0000000001
 40
0.0
 40
0.0
 40
0.0
 40
0.0
 40
0.1250047628
 40
0.2500010341
 40
0.3750036571
 40
0.5000036905
 40
0.6250030325
 40
0.7500039507
 40
0.8749974339
 40
1.0
 40
1.0
 40
1.0
 40
1.0
 10
127.9137028872
 20
132.3130147942
 30
0.0
 10
127.8145508274
 20
132.3130147176
 30
0.0
 10
127.6157189941
 20
132.3322727768
 30
0.0
 10
127.329015127
 20
132.4179357214
 30
0.0
 10
127.0640886631
 20
132.5572988789
 30
0.0
 10
126.831199723
 20
132.745365452
 30
0.0
 10
126.6393826955
 20
132.9752034981
 30
0.0
 10
126.4963458693
 20
133.2382382175
 30
0.0
 10
126.4079657255
 20
133.524213588
 30
0.0
 10
126.3880249803
 20
133.7230752054
 30
0.0
 10
126.388024948
 20
133.8222255229
 30
0.0
  0
SPLINE
  5
38F
100
AcDbEntity
  8
RUNDUNGEN
100
AcDbSpline
 62
7
  6
CONTINUOUS
 70
0
 71
3
 72
15
 73
11
 74
0
 42
0.0000001
 43
0.0000001
 44
0.0000000001
 40
0.0
 40
0.0
 40
0.0
 40
0.0
 40
0.1250047628
 40
0.2500010341
 40
0.3750036571
 40
0.5000036905
 40
0.6250030325
 40
0.7500039507
 40
0.8749974339
 40
1.0
 40
1.0
 40
1.0
 40
1.0
 10
104.8623470089
 20
159.2959664948
 30
0.0
 10
104.9614990687
 20
159.2959665713
 30
0.0
 10
105.160330902
 20
159.2767085122
 30
0.0
 10
105.447034769
 20
159.1910455676
 30
0.0
 10
105.7119612329
 20
159.0516824101
 30
0.0
 10
105.9448501731
 20
158.863615837
 30
0.0
 10
106.1366672006
 20
158.6337777909
 30
0.0
 10
106.2797040267
 20
158.3707430714
 30
0.0
 10
106.3680841706
 20
158.0847677009
 30
0.0
 10
106.3880249157
 20
157.8859060836
 30
0.0
 10
106.388024948
 20
157.7867557661
 30
0.0
  0
SPLINE
  5
390
100
AcDbEntity
  8
RUNDUNGEN
100
AcDbSpline
 62
7
  6
CONTINUOUS
 70
0
 71
3
 72
11
 73
7
 74
0
 42
0.0000001
 43
0.0000001
 44
0.0000000001
 40
0.0
 40
0.0
 40
0.0
 40
0.0
 40
0.2500139668
 40
0.5000035065
 40
0.749990811
 40
1.0
 40
1.0
 40
1.0
 40
1.0
 10
77.9307217914
 20
159.2959682319
 30
0.0
 10
77.8091493441
 20
159.2959682167
 30
0.0
 10
77.5650233435
 20
159.2667130852
 30
0.0
 10
77.220413497
 20
159.1374149429
 30
0.0
 10
76.9161950352
 20
158.9302017075
 30
0.0
 10
76.7519029777
 20
158.7472077917
 30
0.0
 10
76.6821731447
 20
158.6476234282
 30
0.0
  0
SPLINE
  5
391
100
AcDbEntity
  8
RUNDUNGEN
100
AcDbSpline
 62
7
  6
CONTINUOUS
 70
0
 71
3
 72
11
 73
7
 74
0
 42
0.0000001
 43
0.0000001
 44
0.0000000001
 40
0.0
 40
0.0
 40
0.0
 40
0.0
 40
0.2500098233
 40
0.5000163576
 40
0.7500138291
 40
1.0
 40
1.0
 40
1.0
 40
1.0
 10
150.2994216005
 20
127.2275316474
 30
0.0
 10
150.455985777
 20
127.1795193746
 30
0.0
 10
150.7557136041
 20
127.0314581311
 30
0.0
 10
151.1095047345
 20
126.6785760718
 30
0.0
 10
151.3323702417
 20
126.2312581343
 30
0.0
 10
151.3769321172
 20
125.899764287
 30
0.0
 10
151.3719736501
 20
125.736094316
 30
0.0
  0
SPLINE
  5
392
100
AcDbEntity
  8
BEZUGSACHSEN
100
AcDbSpline
 62
7
  6
CONTINUOUS
 70
0
 71
3
 72
12
 73
8
 74
0
 42
0.0000001
 43
0.0000001
 44
0.0000000001
 40
0.0
 40
0.0
 40
0.0
 40
0.0
 40
0.3853664908
 40
0.6698644615
 40
0.7768688027
 40
0.8636592478
 40
1.0
 40
1.0
 40
1.0
 40
1.0
 10
148.4108049485
 20
139.7349521801
 30
0.0
 10
148.4241667951
 20
139.7332185052
 30
0.0
 10
148.4472959206
 20
139.7295634378
 30
0.0
 10
148.4737244717
 20
139.7226286095
 30
0.0
 10
148.4888370845
 20
139.7152790324
 30
0.0
 10
148.4982224727
 20
139.7085338475
 30
0.0
 10
148.502186548
 20
139.7007189699
 30
0.0
 10
148.502186548
 20
139.6959519894
 30
0.0
  0
SPLINE
  5
393
100
AcDbEntity
  8
BEZUGSACHSEN
100
AcDbSpline
 62
7
  6
CONTINUOUS
 70
0
 71
3
 72
12
 73
8
 74
0
 42
0.0000001
 43
0.0000001
 44
0.0000000001
 40
0.0
 40
0.0
 40
0.0
 40
0.0
 40
0.3853664908
 40
0.6698644615
 40
0.7768688027
 40
0.8636592478
 40
1.0
 40
1.0
 40
1.0
 40
1.0
 10
84.3652449476
 20
151.8740291088
 30
0.0
 10
84.3518831009
 20
151.8757627838
 30
0.0
 10
84.3287539754
 20
151.8794178512
 30
0.0
 10
84.3023254244
 20
151.8863526795
 30
0.0
 10
84.2872128115
 20
151.8937022566
 30
0.0
 10
84.2778274233
 20
151.9004474415
 30
0.0
 10
84.273863348
 20
151.9082623191
 30
0.0
 10
84.273863348
 20
151.9130292996
 30
0.0
  0
LINE
  5
394
100
AcDbEntity
  8
BEZUGSACHSEN
100
AcDbLine
 62
7
  6
CONTINUOUS
 10
262.4636863979
 20
164.3814496416
 11
262.4636863973
 21
165.872886973
  0
ELLIPSE
  5
395
100
AcDbEntity
  8
0
100
AcDbEllipse
 62
7
  6
CONTINUOUS
 10
72.388024948
 20
145.8044906445
 30
0.0
 11
0.0
 21
4.520682936
 31
0.0
 40
0.1051042353
 41
3.1415926536
 42
6.2831853072
  0
ELLIPSE
  5
396
100
AcDbEntity
  8
BEZUGSACHSEN
100
AcDbEllipse
 62
7
  6
CONTINUOUS
 10
160.388024948
 20
145.8044906445
 30
0.0
 11
0.0
 21
4.520682936
 31
0.0
 40
0.1051042353
 41
0.0
 42
3.1415926536
  0
ELLIPSE
  5
397
100
AcDbEntity
  8
BEZUGSACHSEN
100
AcDbEllipse
 62
7
  6
CONTINUOUS
 10
126.388024948
 20
145.8044906445
 30
0.0
 11
0.0
 21
4.15
 31
0.0
 40
0.1583844403
 41
-3.1415926536
 42
0.0
  0
ELLIPSE
  5
398
100
AcDbEntity
  8
0
100
AcDbEllipse
 62
7
  6
CONTINUOUS
 10
106.388024948
 20
145.8044906445
 30
0.0
 11
0.0
 21
4.15
 31
0.0
 40
0.1583844403
 41
0.0
 42
3.1415926536
  0
ENDSEC
  0
SECTION
  2
OBJECTS
  0
DICTIONARY
  5
C
100
AcDbDictionary
280
0
281
1
  3
ACAD_GROUP
350
D
  3
ACAD_MLINESTYLE
350
17
  3
ACAD_LAYOUT
350
1A
  3
ACAD_PLOTSETTINGS
350
19
  3
ACAD_PLOTSTYLENAME
350
E
  0
DICTIONARY
  5
D
102
{ACAD_REACTORS
330
C
102
}
100
AcDbDictionary
280
0
281
1
  0
ACDBDICTIONARYWDFLT
  5
E
102
{ACAD_REACTORS
330
C
102
}
100
AcDbDictionary
281
1
  3
Normal
350
F
100
AcDbDictionaryWithDefault
340
F
  0
DICTIONARY
  5
17
102
{ACAD_REACTORS
330
C
102
}
100
AcDbDictionary
280
0
281
1
  3
Standard
350
18
  0
DICTIONARY
  5
19
102
{ACAD_REACTORS
330
C
102
}
100
AcDbDictionary
281
1
  0
DICTIONARY
  5
1A
102
{ACAD_REACTORS
330
C
102
}
100
AcDbDictionary
281
1
  3
Model
350
399
  3
Layout1
350
39A
  0
ACDBPLACEHOLDER
  5
F
102
{ACAD_REACTORS
330
E
102
}
  0
MLINESTYLE
  5
18
102
{ACAD_REACTORS
330
17
102
}
100
AcDbMlineStyle
  2
STANDARD
 70
0
  3

 62
256
 51
90.0
 52
90.0
 71
2
 49
0.5
 62
256
  6
BYLAYER
 49
-0.5
 62
256
  6
BYLAYER
  0
LAYOUT
  5
399
102
{ACAD_REACTORS
330
1A
102
}
100
AcDbPlotSettings
  1

  2
none_device
  4
ISO_A3_(420.00_x_297.00_MM)
  6

 40
0.0
 41
0.0
 42
0.0
 43
0.0
 44
420.0
 45
297.0
 46
0.0
 47
0.0
 48
0.0
 49
0.0
140
0.0
141
0.0
142
1.0
143
1.0
 70
1024
 72
1
 73
0
 74
0
  7

 75
0
147
1.0
148
0.0
149
0.0
100
AcDbLayout
  1
Model
 70
0
 71
0
 10
0.0
 20
0.0
 11
420.0
 21
297.0
 12
0.0
 22
0.0
 32
0.0
 14
0.0
 24
0.0
 34
0.0
 15
0.0
 25
0.0
 35
0.0
146
0.0
 13
0.0
 23
0.0
 33
0.0
 16
1.0
 26
0.0
 36
0.0
 17
0.0
 27
1.0
 37
0.0
 76
0
330
207
345
0
346
0
  0
LAYOUT
  5
39A
102
{ACAD_REACTORS
330
1A
102
}
100
AcDbPlotSettings
  1

  2
none_device
  4
ISO_A3_(420.00_x_297.00_MM)
  6

 40
0.0
 41
0.0
 42
0.0
 43
0.0
 44
420.0
 45
297.0
 46
0.0
 47
0.0
 48
0.0
 49
0.0
140
0.0
141
0.0
142
1.0
143
1.0
 70
0
 72
1
 73
0
 74
0
  7

 75
0
147
1.0
148
0.0
149
0.0
100
AcDbLayout
  1
Layout1
 70
0
 71
1
 10
0.0
 20
0.0
 11
420.0
 21
297.0
 12
0.0
 22
0.0
 32
0.0
 14
0.0
 24
0.0
 34
0.0
 15
0.0
 25
0.0
 35
0.0
146
0.0
 13
0.0
 23
0.0
 33
0.0
 16
1.0
 26
0.0
 36
0.0
 17
0.0
 27
1.0
 37
0.0
 76
0
330
208
345
0
346
0
  0
ENDSEC
  0
EOF
