999
DXF file: vvh-22.dxf
999
Pro/ENGINEER 2011490 by Parametric Technology Corporation
  0
SECTION
  2
HEADER
  9
$ACADVER
  1
AC1021
  9
$DWGCODEPAGE
  3
ANSI_1252
  9
$EXTMAX
 10
594.0
 20
420.0
 30
0.0
  9
$EXTMIN
 10
0.0
 20
0.0
 30
0.0
  9
$LIMMIN
 10
0.0
 20
0.0
  9
$LIMMAX
 10
594.0
 20
420.0
  9
$VIEWCTR
 10
297.0
 20
210.0
  9
$VIEWSIZE
 40
420.0
  9
$CLAYER
  8
0
  9
$LTSCALE
 40
32.67
  9
$CELTYPE
  6
BYLAYER
  9
$DIMSCALE
 40
1.0
  9
$DIMASZ
 40
3.5
  9
$DIMEXO
 40
3.7125
  9
$DIMDLI
 40
22.572
  9
$DIMEXE
 40
10.692
  9
$DIMCEN
 40
5.346
  9
$DIMLFAC
 40
1.0
  9
$DIMBLK
  1
_FILLED
  9
$DIMTXT
 40
3.5
  9
$DIMTOL
 70
1
  9
$DIMLIM
 70
0
  9
$DIMTFAC
 40
1.0
  9
$DIMTP
 40
0.005
  9
$DIMTM
 40
0.005
  9
$PDMODE
 70
3
  9
$PDSIZE
 40
0.3125
  9
$HANDSEED
  5
3BE
  9
$TILEMODE
 70
1
  9
$MEASUREMENT
 70
1
  9
$INSUNITS
 70
4
  0
ENDSEC
  0
SECTION
  2
CLASSES
  0
CLASS
  1
ACDBDICTIONARYWDFLT
  2
AcDbDictionaryWithDefault
  3
AutoCAD 2000
 90
0
 91
1
280
0
281
0
  0
CLASS
  1
ACDBPLACEHOLDER
  2
AcDbPlaceHolder
  3
AutoCAD 2000
 90
0
 91
1
280
0
281
0
  0
CLASS
  1
LAYOUT
  2
AcDbLayout
  3
AutoCAD 2000
 90
0
 91
0
280
0
281
0
  0
ENDSEC
  0
SECTION
  2
TABLES
  0
TABLE
  2
VPORT
  5
8
100
AcDbSymbolTable
 70
2
  0
VPORT
  5
1F4
100
AcDbSymbolTableRecord
100
AcDbViewportTableRecord
  2
*ACTIVE
 70
0
 10
0.0
 20
0.0
 11
1.0
 21
1.0
 12
297.0
 22
210.0
 13
0.0
 23
0.0
 14
1.0
 24
1.0
 15
0.0
 25
0.0
 16
0.0
 26
0.0
 36
1.0
 17
0.0
 27
0.0
 37
0.0
 40
420.0
 41
1.4142857143
 42
50.0
 43
0.0
 44
0.0
 50
0.0
 51
0.0
 71
0
 72
100
 73
1
 74
1
 75
0
 76
0
 77
0
 78
0
  0
ENDTAB
  0
TABLE
  2
LTYPE
  5
5
100
AcDbSymbolTable
 70
6
  0
LTYPE
  5
14
100
AcDbSymbolTableRecord
100
AcDbLinetypeTableRecord
  2
BYBLOCK
 70
0
  3

 72
65
 73
0
 40
0.0
  0
LTYPE
  5
15
100
AcDbSymbolTableRecord
100
AcDbLinetypeTableRecord
  2
BYLAYER
 70
0
  3

 72
65
 73
0
 40
0.0
  0
LTYPE
  5
16
100
AcDbSymbolTableRecord
100
AcDbLinetypeTableRecord
  2
CONTINUOUS
 70
64
  3
Solid line
 72
65
 73
0
 40
0.0
  0
LTYPE
  5
1F5
100
AcDbSymbolTableRecord
100
AcDbLinetypeTableRecord
  2
CENTER
 70
64
  3
____ _ ____ _ ____ _ ____ _ ____ _ ____ _ ____
 72
65
 73
4
 40
0.6
 49
0.375
 74
0
 49
-0.075
 74
0
 49
0.075
 74
0
 49
-0.075
 74
0
  0
LTYPE
  5
1F6
100
AcDbSymbolTableRecord
100
AcDbLinetypeTableRecord
  2
HIDDEN
 70
64
  3
- - - - - - - - - - - - - - - - - - - -
 72
65
 73
2
 40
0.2
 49
0.1
 74
0
 49
-0.1
 74
0
  0
LTYPE
  5
1F7
100
AcDbSymbolTableRecord
100
AcDbLinetypeTableRecord
  2
PHANTOM
 70
64
  3
_____ _ _ _____ _ _ _____ _ _ _____
 72
65
 73
6
 40
0.8
 49
0.45
 74
0
 49
-0.05
 74
0
 49
0.1
 74
0
 49
-0.05
 74
0
 49
0.1
 74
0
 49
-0.05
 74
0
  0
LTYPE
  5
1F8
100
AcDbSymbolTableRecord
100
AcDbLinetypeTableRecord
  2
DOT
 70
64
  3
. . . . . . . . . . . . . . . . . . . .
 72
65
 73
2
 40
0.2
 49
0.1
 74
0
 49
-0.1
 74
0
  0
LTYPE
  5
1F9
100
AcDbSymbolTableRecord
100
AcDbLinetypeTableRecord
  2
DASHED
 70
64
  3
- - - - - - - - - - - - - - - - - - - -
 72
65
 73
2
 40
0.2
 49
0.1
 74
0
 49
-0.1
 74
0
  0
ENDTAB
  0
TABLE
  2
LAYER
  5
2
100
AcDbSymbolTable
 70
36
  0
LAYER
  5
10
100
AcDbSymbolTableRecord
100
AcDbLayerTableRecord
  2
0
 70
0
 62
7
  6
CONTINUOUS
370
-3
390
F
  0
LAYER
  5
1FA
100
AcDbSymbolTableRecord
100
AcDbLayerTableRecord
  2
DEFAULT_1
 70
0
 62
7
  6
CENTER
370
-3
390
F
  0
LAYER
  5
1FB
100
AcDbSymbolTableRecord
100
AcDbLayerTableRecord
  2
DEFAULT_2
 70
0
 62
8
  6
HIDDEN
370
-3
390
F
  0
LAYER
  5
1FC
100
AcDbSymbolTableRecord
100
AcDbLayerTableRecord
  2
DEFAULT_3
 70
0
 62
7
  6
PHANTOM
370
-3
390
F
  0
LAYER
  5
1FD
100
AcDbSymbolTableRecord
100
AcDbLayerTableRecord
  2
BEZUGSACHSEN
 70
0
 62
7
  6
CONTINUOUS
370
-3
390
F
  0
LAYER
  5
1FE
100
AcDbSymbolTableRecord
100
AcDbLayerTableRecord
  2
BEZUGSEBENEN
 70
0
 62
7
  6
CONTINUOUS
370
-3
390
F
  0
ENDTAB
  0
TABLE
  2
STYLE
  5
3
100
AcDbSymbolTable
 70
1
  0
STYLE
  5
11
100
AcDbSymbolTableRecord
100
AcDbTextStyleTableRecord
  2
STANDARD
 70
0
 40
0.0
 41
0.7
 50
0.0
 71
0
 42
0.2
  3
txt
  4

  0
STYLE
  5
1FF
100
AcDbSymbolTableRecord
100
AcDbTextStyleTableRecord
  2
TEXTSTYLE_1
 70
0
 40
0.0
 41
0.8
 50
0.0
 71
0
 42
0.2
  3
gdt
  4

  0
ENDTAB
  0
TABLE
  2
VIEW
  5
6
100
AcDbSymbolTable
 70
0
  0
ENDTAB
  0
TABLE
  2
UCS
  5
7
100
AcDbSymbolTable
 70
0
  0
ENDTAB
  0
TABLE
  2
APPID
  5
9
100
AcDbSymbolTable
 70
1
  0
APPID
  5
200
100
AcDbSymbolTableRecord
100
AcDbRegAppTableRecord
  2
ACAD
 70
0
  0
ENDTAB
  0
TABLE
  2
BLOCK_RECORD
  5
1
100
AcDbSymbolTable
 70
0
  0
BLOCK_RECORD
  5
201
100
AcDbSymbolTableRecord
100
AcDbBlockTableRecord
  2
*Model_Space
  0
BLOCK_RECORD
  5
202
100
AcDbSymbolTableRecord
100
AcDbBlockTableRecord
  2
*Paper_Space
  0
ENDTAB
  0
TABLE
  2
DIMSTYLE
  5
A
100
AcDbSymbolTable
 70
1
100
AcDbDimStyleTable
 71
0
  0
DIMSTYLE
105
203
100
AcDbSymbolTableRecord
100
AcDbDimStyleTableRecord
  2
STANDARD
 70
0
  3

  4

 40
1.0
 41
3.5
 42
0.0625
 43
0.38
 44
0.18
 45
0.0
 46
0.0
 47
0.005
 48
0.005
140
3.5
141
0.09
142
0.0
143
25.4
144
1.0
145
0.0
146
1.0
147
0.09
 71
1.0
 72
0.0
 73
0
 74
0
 75
0
 76
0
 77
1
 78
8
170
0
171
2
172
0
173
0
174
0
175
0
176
0
177
0
178
5
270
2
271
3
272
3
273
2
274
2
275
0
280
0
281
0
282
0
283
1
284
8
285
0
286
0
287
3
288
0
340
11
  0
ENDTAB
  0
ENDSEC
  0
SECTION
  2
BLOCKS
  0
BLOCK
  5
20
100
AcDbEntity
  8
0
100
AcDbBlockBegin
  2
*Model_Space
 70
0
 10
0.0
 20
0.0
 30
0.0
  3
*Model_Space
  1

  0
ENDBLK
  5
21
100
AcDbEntity
  8
0
100
AcDbBlockEnd
  0
BLOCK
  5
1C
100
AcDbEntity
  8
0
100
AcDbBlockBegin
  2
*Paper_Space
 70
0
 10
0.0
 20
0.0
 30
0.0
  3
*Paper_Space
  1

  0
ENDBLK
  5
1D
100
AcDbEntity
  8
0
100
AcDbBlockEnd
  0
ENDSEC
  0
SECTION
  2
ENTITIES
  0
MTEXT
  5
204
100
AcDbEntity
  8
0
100
AcDbMText
 62
5
  6
CONTINUOUS
  7
STANDARD
 71
1
 72
1
 10
380.3197407604
 20
76.6648074315
 30
0.0
 11
0.0
 21
1.0
 31
0.0
 44
0.9
  1
RUD\PVVH-22
 40
10.0
 41
47.380952381
  0
LINE
  5
205
100
AcDbEntity
  8
0
100
AcDbLine
 62
7
  6
CONTINUOUS
 10
0.0
 20
0.0
 11
0.0
 21
420.0
  0
LINE
  5
206
100
AcDbEntity
  8
0
100
AcDbLine
 62
7
  6
CONTINUOUS
 10
0.0
 20
0.0
 11
594.0
 21
0.0
  0
LINE
  5
207
100
AcDbEntity
  8
0
100
AcDbLine
 62
7
  6
CONTINUOUS
 10
0.0
 20
420.0
 11
594.0
 21
420.0
  0
LINE
  5
208
100
AcDbEntity
  8
0
100
AcDbLine
 62
7
  6
CONTINUOUS
 10
594.0
 20
0.0
 11
594.0
 21
420.0
  0
LINE
  5
209
100
AcDbEntity
  8
0
100
AcDbLine
 62
9
  6
CONTINUOUS
 10
220.8108799605
 20
77.9628635144
 11
202.3811697872
 21
77.9628635144
  0
LINE
  5
20A
100
AcDbEntity
  8
0
100
AcDbLine
 62
9
  6
CONTINUOUS
 10
163.8373802112
 20
77.9628635186
 11
153.3120026194
 21
77.9628635186
  0
LINE
  5
20B
100
AcDbEntity
  8
0
100
AcDbLine
 62
7
  6
CONTINUOUS
 10
144.0211336312
 20
360.0711406066
 11
132.109275
 21
345.8751402884
  0
LINE
  5
20C
100
AcDbEntity
  8
0
100
AcDbLine
 62
9
  6
CONTINUOUS
 10
146.4414822944
 20
83.4520531733
 11
163.4490270614
 21
83.4520531733
  0
LINE
  5
20D
100
AcDbEntity
  8
0
100
AcDbLine
 62
9
  6
CONTINUOUS
 10
202.7695229386
 20
83.4520531733
 11
220.5249807252
 21
83.4520531733
  0
LINE
  5
20E
100
AcDbEntity
  8
0
100
AcDbLine
 62
7
  6
CONTINUOUS
 10
247.52597836
 20
117.5961846628
 11
241.7174676393
 21
115.9526000149
  0
LINE
  5
20F
100
AcDbEntity
  8
0
100
AcDbLine
 62
7
  6
CONTINUOUS
 10
237.5685311888
 20
117.5961846628
 11
236.7387440537
 21
117.3907367655
  0
LINE
  5
210
100
AcDbEntity
  8
0
100
AcDbLine
 62
7
  6
CONTINUOUS
 10
236.7387440536
 20
118.6234253249
 11
237.5685311888
 21
118.8288732222
  0
LINE
  5
211
100
AcDbEntity
  8
0
100
AcDbLine
 62
7
  6
CONTINUOUS
 10
243.1004465853
 20
121.9105952086
 11
244.2068294321
 21
122.1160425181
  0
LINE
  5
212
100
AcDbEntity
  8
0
100
AcDbLine
 62
7
  6
CONTINUOUS
 10
244.4834251438
 20
120.8833545465
 11
243.1004465852
 21
120.6779060614
  0
LINE
  5
213
100
AcDbEntity
  8
0
100
AcDbLine
 62
9
  6
CONTINUOUS
 10
192.609275
 20
108.2511355417
 11
173.609275
 21
108.2511355417
  0
LINE
  5
214
100
AcDbEntity
  8
0
100
AcDbLine
 62
7
  6
CONTINUOUS
 10
247.52597836
 20
111.2272939684
 11
234.52597836
 21
111.2272939684
  0
LINE
  5
215
100
AcDbEntity
  8
0
100
AcDbLine
 62
7
  6
CONTINUOUS
 10
235.9089569185
 20
112.4599825278
 11
240.057893369
 21
112.4599825278
  0
LINE
  5
216
100
AcDbEntity
  8
0
100
AcDbLine
 62
7
  6
CONTINUOUS
 10
241.7174676393
 20
112.4599825278
 11
247.52597836
 21
112.4599825278
  0
LINE
  5
217
100
AcDbEntity
  8
0
100
AcDbLine
 62
7
  6
CONTINUOUS
 10
238.3983190988
 20
117.5961846628
 11
237.5685311888
 21
117.5961846628
  0
LINE
  5
218
100
AcDbEntity
  8
0
100
AcDbLine
 62
7
  6
CONTINUOUS
 10
237.5685311888
 20
118.8288732222
 11
238.6749148105
 21
118.8288732222
  0
LINE
  5
219
100
AcDbEntity
  8
0
100
AcDbLine
 62
7
  6
CONTINUOUS
 10
243.1004465852
 20
120.6779060614
 11
234.52597836
 21
120.6779060614
  0
LINE
  5
21A
100
AcDbEntity
  8
0
100
AcDbLine
 62
7
  6
CONTINUOUS
 10
234.52597836
 20
121.9105952086
 11
243.1004465853
 21
121.9105952086
  0
LINE
  5
21B
100
AcDbEntity
  8
0
100
AcDbLine
 62
7
  6
CONTINUOUS
 10
169.6415508784
 20
123.5340997558
 11
173.609275
 21
123.5340997558
  0
LINE
  5
21C
100
AcDbEntity
  8
0
100
AcDbLine
 62
9
  6
CONTINUOUS
 10
173.609275
 20
123.5340997558
 11
192.609275
 21
123.5340997558
  0
LINE
  5
21D
100
AcDbEntity
  8
0
100
AcDbLine
 62
7
  6
CONTINUOUS
 10
192.609275
 20
123.5340997558
 11
196.5769991217
 21
123.5340997558
  0
LINE
  5
21E
100
AcDbEntity
  8
0
100
AcDbLine
 62
7
  6
CONTINUOUS
 10
238.9515105221
 20
136.7028567461
 11
237.8451276754
 21
136.4974094366
  0
LINE
  5
21F
100
AcDbEntity
  8
0
100
AcDbLine
 62
7
  6
CONTINUOUS
 10
237.5685311887
 20
137.730097996
 11
238.9515105222
 21
137.9355453055
  0
LINE
  5
220
100
AcDbEntity
  8
0
100
AcDbLine
 62
7
  6
CONTINUOUS
 10
243.1004465852
 20
126.8413494463
 11
234.52597836
 21
126.8413494463
  0
LINE
  5
221
100
AcDbEntity
  8
0
100
AcDbLine
 62
7
  6
CONTINUOUS
 10
192.609275
 20
127.5281982442
 11
173.609275
 21
127.5281982442
  0
LINE
  5
222
100
AcDbEntity
  8
0
100
AcDbLine
 62
7
  6
CONTINUOUS
 10
234.52597836
 20
128.0740380057
 11
243.1004465852
 21
128.0740380057
  0
LINE
  5
223
100
AcDbEntity
  8
0
100
AcDbLine
 62
7
  6
CONTINUOUS
 10
123.5191605104
 20
128.4547801616
 11
147.8814450924
 21
128.4547801616
  0
LINE
  5
224
100
AcDbEntity
  8
0
100
AcDbLine
 62
7
  6
CONTINUOUS
 10
247.52597836
 20
129.7176223597
 11
234.52597836
 21
129.7176223597
  0
LINE
  5
225
100
AcDbEntity
  8
0
100
AcDbLine
 62
7
  6
CONTINUOUS
 10
236.1855526303
 20
130.9503109192
 11
245.866403896
 21
130.9503109192
  0
LINE
  5
226
100
AcDbEntity
  8
0
100
AcDbLine
 62
7
  6
CONTINUOUS
 10
243.1004465852
 20
136.7028567461
 11
238.9515105221
 21
136.7028567461
  0
LINE
  5
227
100
AcDbEntity
  8
0
100
AcDbLine
 62
7
  6
CONTINUOUS
 10
239.2281062339
 20
117.3907367655
 11
238.3983190988
 21
117.5961846628
  0
LINE
  5
228
100
AcDbEntity
  8
0
100
AcDbLine
 62
7
  6
CONTINUOUS
 10
238.6749148105
 20
118.8288732222
 11
239.5047019456
 21
118.6234253249
  0
LINE
  5
229
100
AcDbEntity
  8
0
100
AcDbLine
 62
7
  6
CONTINUOUS
 10
123.109475
 20
136.0710402884
 11
123.109475
 21
196.5059112365
  0
LINE
  5
22A
100
AcDbEntity
  8
0
100
AcDbLine
 62
7
  6
CONTINUOUS
 10
118.7532360741
 20
238.9144504762
 11
118.8688902271
 21
239.0114958333
  0
LINE
  5
22B
100
AcDbEntity
  8
0
100
AcDbLine
 62
7
  6
CONTINUOUS
 10
234.52597836
 20
150.6733278699
 11
245.866403896
 21
153.5495996078
  0
LINE
  5
22C
100
AcDbEntity
  8
0
100
AcDbLine
 62
7
  6
CONTINUOUS
 10
247.52597836
 20
152.7278103697
 11
234.52597836
 21
149.4406393105
  0
LINE
  5
22D
100
AcDbEntity
  8
0
100
AcDbLine
 62
7
  6
CONTINUOUS
 10
238.9515105222
 20
137.9355453055
 11
243.1004465853
 21
137.9355453055
  0
LINE
  5
22E
100
AcDbEntity
  8
0
100
AcDbLine
 62
7
  6
CONTINUOUS
 10
192.609275
 20
138.4462059122
 11
173.609275
 21
138.4462059122
  0
LINE
  5
22F
100
AcDbEntity
  8
0
100
AcDbLine
 62
7
  6
CONTINUOUS
 10
243.1004465852
 20
128.0740380057
 11
244.4834251438
 21
127.8685895206
  0
LINE
  5
230
100
AcDbEntity
  8
0
100
AcDbLine
 62
7
  6
CONTINUOUS
 10
243.1004465853
 20
137.9355453055
 11
244.4834251438
 21
137.730097996
  0
LINE
  5
231
100
AcDbEntity
  8
0
100
AcDbLine
 62
7
  6
CONTINUOUS
 10
244.2068294321
 20
126.6359009612
 11
243.1004465852
 21
126.8413494463
  0
LINE
  5
232
100
AcDbEntity
  8
0
100
AcDbLine
 62
7
  6
CONTINUOUS
 10
244.2068294321
 20
136.4974094366
 11
243.1004465852
 21
136.7028567461
  0
LINE
  5
233
100
AcDbEntity
  8
0
100
AcDbLine
 62
7
  6
CONTINUOUS
 10
166.4949125233
 20
70.6613524575
 11
163.8373797931
 21
77.9628637762
  0
LINE
  5
234
100
AcDbEntity
  8
0
100
AcDbLine
 62
7
  6
CONTINUOUS
 10
132.109275
 20
293.7872718235
 11
132.109275
 21
345.8751402884
  0
LINE
  5
235
100
AcDbEntity
  8
0
100
AcDbLine
 62
7
  6
CONTINUOUS
 10
234.52597836
 20
160.5348363453
 11
245.866403896
 21
163.4111080832
  0
LINE
  5
236
100
AcDbEntity
  8
0
100
AcDbLine
 62
7
  6
CONTINUOUS
 10
247.52597836
 20
162.5893188451
 11
234.52597836
 21
159.3021477859
  0
LINE
  5
237
100
AcDbEntity
  8
0
100
AcDbLine
 62
7
  6
CONTINUOUS
 10
244.4834251438
 20
127.8685895206
 11
245.5898081844
 21
127.457693726
  0
LINE
  5
238
100
AcDbEntity
  8
0
100
AcDbLine
 62
7
  6
CONTINUOUS
 10
239.5047019456
 20
118.6234253249
 11
240.6110847924
 21
118.0070810452
  0
LINE
  5
239
100
AcDbEntity
  8
BEZUGSACHSEN
100
AcDbLine
 62
7
  6
CENTER
 10
144.206231184
 20
331.0185019684
 11
144.206231184
 21
328.0184019684
  0
LINE
  5
23A
100
AcDbEntity
  8
BEZUGSACHSEN
100
AcDbLine
 62
7
  6
CENTER
 10
144.206231184
 20
331.0185019684
 11
144.206231184
 21
334.0186019684
  0
LINE
  5
23B
100
AcDbEntity
  8
0
100
AcDbLine
 62
7
  6
CONTINUOUS
 10
247.52597836
 20
169.1636562613
 11
234.52597836
 21
169.1636562613
  0
LINE
  5
23C
100
AcDbEntity
  8
0
100
AcDbLine
 62
7
  6
CONTINUOUS
 10
245.866403896
 20
153.5495996078
 11
234.52597836
 21
156.425876048
  0
LINE
  5
23D
100
AcDbEntity
  8
0
100
AcDbLine
 62
7
  6
CONTINUOUS
 10
244.4834251438
 20
137.730097996
 11
245.5898081844
 21
137.3192010258
  0
LINE
  5
23E
100
AcDbEntity
  8
0
100
AcDbLine
 62
7
  6
CONTINUOUS
 10
245.0366165672
 20
126.2250051666
 11
244.2068294321
 21
126.6359009612
  0
LINE
  5
23F
100
AcDbEntity
  8
0
100
AcDbLine
 62
7
  6
CONTINUOUS
 10
245.0366165672
 20
136.0865124664
 11
244.2068294321
 21
136.4974094366
  0
LINE
  5
240
100
AcDbEntity
  8
0
100
AcDbLine
 62
7
  6
CONTINUOUS
 10
239.7812976573
 20
116.9798403831
 11
239.2281062339
 21
117.3907367655
  0
LINE
  5
241
100
AcDbEntity
  8
0
100
AcDbLine
 62
7
  6
CONTINUOUS
 10
147.8814450924
 20
128.4547801616
 11
147.8814450924
 21
190.2968681204
  0
LINE
  5
242
100
AcDbEntity
  8
0
100
AcDbLine
 62
7
  6
CONTINUOUS
 10
234.52597836
 20
170.3963448207
 11
239.7812976573
 21
170.3963448207
  0
LINE
  5
243
100
AcDbEntity
  8
0
100
AcDbLine
 62
7
  6
CONTINUOUS
 10
241.4408719276
 20
170.3963448207
 11
247.52597836
 21
170.3963448207
  0
LINE
  5
244
100
AcDbEntity
  8
0
100
AcDbLine
 62
7
  6
CONTINUOUS
 10
247.52597836
 20
176.1488929988
 11
241.4408719276
 21
176.1488929988
  0
LINE
  5
245
100
AcDbEntity
  8
0
100
AcDbLine
 62
7
  6
CONTINUOUS
 10
239.7812976573
 20
176.1488929988
 11
234.52597836
 21
176.1488929988
  0
LINE
  5
246
100
AcDbEntity
  8
0
100
AcDbLine
 62
7
  6
CONTINUOUS
 10
234.52597836
 20
177.3815815582
 11
247.52597836
 21
177.3815815582
  0
LINE
  5
247
100
AcDbEntity
  8
0
100
AcDbLine
 62
7
  6
CONTINUOUS
 10
234.52597836
 20
157.6585646074
 11
247.52597836
 21
154.3713935482
  0
LINE
  5
248
100
AcDbEntity
  8
0
100
AcDbLine
 62
7
  6
CONTINUOUS
 10
234.52597836
 20
167.5200730828
 11
247.52597836
 21
164.2329020236
  0
LINE
  5
249
100
AcDbEntity
  8
0
100
AcDbLine
 62
7
  6
CONTINUOUS
 10
245.866403896
 20
163.4111080832
 11
234.52597836
 21
166.2873845234
  0
LINE
  5
24A
100
AcDbEntity
  8
0
100
AcDbLine
 62
7
  6
CONTINUOUS
 10
245.5898081844
 20
127.457693726
 11
246.696191128
 21
126.6359009612
  0
LINE
  5
24B
100
AcDbEntity
  8
0
100
AcDbLine
 62
7
  6
CONTINUOUS
 10
117.2586791012
 20
219.9760577472
 11
144.8298013558
 21
196.8411392322
  0
LINE
  5
24C
100
AcDbEntity
  8
0
100
AcDbLine
 62
9
  6
CONTINUOUS
 10
144.829801356
 20
196.8411392319
 11
159.1175750109
 21
213.8686448153
  0
LINE
  5
24D
100
AcDbEntity
  8
0
100
AcDbLine
 62
7
  6
CONTINUOUS
 10
236.4621483419
 20
196.0773596101
 11
237.5685311888
 21
196.2828045685
  0
LINE
  5
24E
100
AcDbEntity
  8
0
100
AcDbLine
 62
7
  6
CONTINUOUS
 10
247.52597836
 20
188.886673212
 11
246.1429996078
 21
188.886673212
  0
LINE
  5
24F
100
AcDbEntity
  8
0
100
AcDbLine
 62
9
  6
CONTINUOUS
 10
170.109275
 20
190.2968681204
 11
147.8814450924
 21
190.2968681204
  0
LINE
  5
250
100
AcDbEntity
  8
0
100
AcDbLine
 62
7
  6
CONTINUOUS
 10
245.5898081844
 20
137.3192010258
 11
246.6961911279
 21
136.4974094367
  0
LINE
  5
251
100
AcDbEntity
  8
0
100
AcDbLine
 62
7
  6
CONTINUOUS
 10
170.109275
 20
147.5102389284
 11
170.109275
 21
192.3466745901
  0
LINE
  5
252
100
AcDbEntity
  8
0
100
AcDbLine
 62
7
  6
CONTINUOUS
 10
172.189275
 20
300.0111402884
 11
172.189275
 21
352.4757337124
  0
LINE
  5
253
100
AcDbEntity
  8
0
100
AcDbLine
 62
7
  6
CONTINUOUS
 10
173.609275
 20
138.4462059122
 11
173.609275
 21
123.5340997558
  0
LINE
  5
254
100
AcDbEntity
  8
0
100
AcDbLine
 62
7
  6
CONTINUOUS
 10
173.609275
 20
108.2511355417
 11
173.609275
 21
68.095076154
  0
LINE
  5
255
100
AcDbEntity
  8
0
100
AcDbLine
 62
9
  6
CONTINUOUS
 10
186.3573767444
 20
224.9523267499
 11
203.7914922834
 21
245.7294965771
  0
LINE
  5
256
100
AcDbEntity
  8
0
100
AcDbLine
 62
7
  6
CONTINUOUS
 10
234.52597836
 20
213.1295450791
 11
245.866403896
 21
216.0058215193
  0
LINE
  5
257
100
AcDbEntity
  8
0
100
AcDbLine
 62
7
  6
CONTINUOUS
 10
247.52597836
 20
215.1840322813
 11
234.52597836
 21
211.8968565197
  0
LINE
  5
258
100
AcDbEntity
  8
0
100
AcDbLine
 62
7
  6
CONTINUOUS
 10
236.4621483419
 20
205.1170694429
 11
237.5685311888
 21
205.3225238059
  0
LINE
  5
259
100
AcDbEntity
  8
0
100
AcDbLine
 62
7
  6
CONTINUOUS
 10
238.1217233871
 20
195.0501160091
 11
237.5685311887
 21
195.0501160091
  0
LINE
  5
25A
100
AcDbEntity
  8
0
100
AcDbLine
 62
7
  6
CONTINUOUS
 10
237.5685311888
 20
196.2828045685
 11
238.1217233873
 21
196.2828045685
  0
LINE
  5
25B
100
AcDbEntity
  8
0
100
AcDbLine
 62
7
  6
CONTINUOUS
 10
246.1429996077
 20
196.2828045685
 11
247.52597836
 21
196.2828045685
  0
LINE
  5
25C
100
AcDbEntity
  8
0
100
AcDbLine
 62
7
  6
CONTINUOUS
 10
247.52597836
 20
197.9263924493
 11
246.1429996078
 21
197.9263924493
  0
LINE
  5
25D
100
AcDbEntity
  8
0
100
AcDbLine
 62
7
  6
CONTINUOUS
 10
237.5685311888
 20
189.0921228726
 11
236.462148342
 21
189.297567831
  0
LINE
  5
25E
100
AcDbEntity
  8
0
100
AcDbLine
 62
7
  6
CONTINUOUS
 10
129.153491982
 20
239.0114958333
 11
160.6878178664
 21
212.5510546143
  0
LINE
  5
25F
100
AcDbEntity
  8
0
100
AcDbLine
 62
7
  6
CONTINUOUS
 10
245.5898081843
 20
125.6086608869
 11
245.0366165672
 21
126.2250051666
  0
LINE
  5
260
100
AcDbEntity
  8
0
100
AcDbLine
 62
7
  6
CONTINUOUS
 10
245.5898081843
 20
135.4701681867
 11
245.0366165672
 21
136.0865124664
  0
LINE
  5
261
100
AcDbEntity
  8
0
100
AcDbLine
 62
7
  6
CONTINUOUS
 10
240.6110847924
 20
118.0070810452
 11
241.1642762159
 21
117.1852888682
  0
LINE
  5
262
100
AcDbEntity
  8
BEZUGSACHSEN
100
AcDbLine
 62
7
  6
CENTER
 10
183.109275
 20
62.0710342005
 11
183.109275
 21
363.619390317
  0
LINE
  5
263
100
AcDbEntity
  8
0
100
AcDbLine
 62
7
  6
CONTINUOUS
 10
169.6415508784
 20
123.5340997558
 11
163.4490270614
 21
83.4520531733
  0
LINE
  5
264
100
AcDbEntity
  8
0
100
AcDbLine
 62
9
  6
CONTINUOUS
 10
223.2319439441
 20
204.0393134528
 11
196.109275
 21
204.0393134528
  0
LINE
  5
265
100
AcDbEntity
  8
0
100
AcDbLine
 62
7
  6
CONTINUOUS
 10
238.1217233871
 20
204.0898352464
 11
237.5685311887
 21
204.0898352464
  0
LINE
  5
266
100
AcDbEntity
  8
0
100
AcDbLine
 62
7
  6
CONTINUOUS
 10
237.5685311888
 20
205.3225238059
 11
238.1217233871
 21
205.3225238059
  0
LINE
  5
267
100
AcDbEntity
  8
0
100
AcDbLine
 62
7
  6
CONTINUOUS
 10
246.1429996077
 20
205.3225238059
 11
247.52597836
 21
205.3225238059
  0
LINE
  5
268
100
AcDbEntity
  8
0
100
AcDbLine
 62
7
  6
CONTINUOUS
 10
238.1217233873
 20
196.2828045685
 11
239.2281062338
 21
196.0773596102
  0
LINE
  5
269
100
AcDbEntity
  8
0
100
AcDbLine
 62
7
  6
CONTINUOUS
 10
237.5685311888
 20
198.1318374076
 11
236.4621483421
 21
198.337282366
  0
LINE
  5
26A
100
AcDbEntity
  8
0
100
AcDbLine
 62
7
  6
CONTINUOUS
 10
239.228106234
 20
194.6392166877
 11
238.1217233871
 21
195.0501160091
  0
LINE
  5
26B
100
AcDbEntity
  8
0
100
AcDbLine
 62
7
  6
CONTINUOUS
 10
236.7387440537
 20
190.5302610927
 11
237.5685311888
 21
190.1193617714
  0
LINE
  5
26C
100
AcDbEntity
  8
0
100
AcDbLine
 62
7
  6
CONTINUOUS
 10
246.696191128
 20
126.6359009612
 11
247.249382624
 21
125.8141081964
  0
LINE
  5
26D
100
AcDbEntity
  8
0
100
AcDbLine
 62
7
  6
CONTINUOUS
 10
222.6593606352
 20
71.0642397193
 11
220.8108799309
 21
77.9628636249
  0
LINE
  5
26E
100
AcDbEntity
  8
0
100
AcDbLine
 62
7
  6
CONTINUOUS
 10
202.7695229386
 20
83.4520531733
 11
196.5769991217
 21
123.5340997558
  0
LINE
  5
26F
100
AcDbEntity
  8
0
100
AcDbLine
 62
7
  6
CONTINUOUS
 10
192.609275
 20
108.2511355417
 11
192.609275
 21
65.0869892628
  0
LINE
  5
270
100
AcDbEntity
  8
0
100
AcDbLine
 62
7
  6
CONTINUOUS
 10
192.609275
 20
123.5340997558
 11
192.609275
 21
138.4462059122
  0
LINE
  5
271
100
AcDbEntity
  8
0
100
AcDbLine
 62
7
  6
CONTINUOUS
 10
194.029275
 20
300.0111402884
 11
194.029275
 21
352.4757337124
  0
LINE
  5
272
100
AcDbEntity
  8
0
100
AcDbLine
 62
7
  6
CONTINUOUS
 10
196.109275
 20
147.4302389284
 11
196.109275
 21
204.0393134528
  0
LINE
  5
273
100
AcDbEntity
  8
0
100
AcDbLine
 62
7
  6
CONTINUOUS
 10
235.6323612068
 20
231.4144285121
 11
236.7387440537
 21
232.0307727918
  0
LINE
  5
274
100
AcDbEntity
  8
0
100
AcDbLine
 62
7
  6
CONTINUOUS
 10
237.5685311886
 20
231.0035291907
 11
236.7387440537
 21
230.7980842324
  0
LINE
  5
275
100
AcDbEntity
  8
0
100
AcDbLine
 62
7
  6
CONTINUOUS
 10
236.7387440537
 20
232.0307727918
 11
237.5685311888
 21
232.2362177501
  0
LINE
  5
276
100
AcDbEntity
  8
0
100
AcDbLine
 62
7
  6
CONTINUOUS
 10
247.52597836
 20
221.7583649951
 11
234.52597836
 21
221.7583649951
  0
LINE
  5
277
100
AcDbEntity
  8
0
100
AcDbLine
 62
7
  6
CONTINUOUS
 10
234.52597836
 20
222.9910535545
 11
247.52597836
 21
222.9910535545
  0
LINE
  5
278
100
AcDbEntity
  8
0
100
AcDbLine
 62
7
  6
CONTINUOUS
 10
247.52597836
 20
224.6346414353
 11
234.52597836
 21
224.6346414353
  0
LINE
  5
279
100
AcDbEntity
  8
0
100
AcDbLine
 62
7
  6
CONTINUOUS
 10
238.1217233871
 20
205.3225238059
 11
239.2281062339
 21
205.1170694429
  0
LINE
  5
27A
100
AcDbEntity
  8
0
100
AcDbLine
 62
7
  6
CONTINUOUS
 10
239.228106234
 20
203.678935925
 11
238.1217233871
 21
204.0898352464
  0
LINE
  5
27B
100
AcDbEntity
  8
0
100
AcDbLine
 62
7
  6
CONTINUOUS
 10
239.2281062338
 20
196.0773596102
 11
240.0578933691
 21
195.6664602887
  0
LINE
  5
27C
100
AcDbEntity
  8
0
100
AcDbLine
 62
7
  6
CONTINUOUS
 10
236.7387440537
 20
199.5699709255
 11
237.5685311888
 21
199.1590810088
  0
LINE
  5
27D
100
AcDbEntity
  8
0
100
AcDbLine
 62
7
  6
CONTINUOUS
 10
236.462148342
 20
189.297567831
 11
235.3557654952
 21
190.1193617713
  0
LINE
  5
27E
100
AcDbEntity
  8
0
100
AcDbLine
 62
7
  6
CONTINUOUS
 10
186.3573767445
 20
224.9523267499
 11
149.9698945157
 21
255.4850496676
  0
LINE
  5
27F
100
AcDbEntity
  8
0
100
AcDbLine
 62
7
  6
CONTINUOUS
 10
246.6961911279
 20
136.4974094367
 11
247.2493826241
 21
135.6756178473
  0
LINE
  5
280
100
AcDbEntity
  8
0
100
AcDbLine
 62
7
  6
CONTINUOUS
 10
240.057893369
 20
116.3634961034
 11
239.7812976573
 21
116.9798403831
  0
LINE
  5
281
100
AcDbEntity
  8
0
100
AcDbLine
 62
7
  6
CONTINUOUS
 10
234.8025740717
 20
230.592639274
 11
235.6323612068
 21
231.4144285121
  0
LINE
  5
282
100
AcDbEntity
  8
0
100
AcDbLine
 62
7
  6
CONTINUOUS
 10
236.7387440537
 20
230.7980842324
 11
236.1855526302
 21
230.387184911
  0
LINE
  5
283
100
AcDbEntity
  8
0
100
AcDbLine
 62
7
  6
CONTINUOUS
 10
235.9089569185
 20
225.8673299947
 11
240.057893369
 21
225.8673299947
  0
LINE
  5
284
100
AcDbEntity
  8
0
100
AcDbLine
 62
7
  6
CONTINUOUS
 10
241.7174676393
 20
225.8673299947
 11
247.52597836
 21
225.8673299947
  0
LINE
  5
285
100
AcDbEntity
  8
0
100
AcDbLine
 62
7
  6
CONTINUOUS
 10
238.3983190988
 20
231.0035291907
 11
237.5685311886
 21
231.0035291907
  0
LINE
  5
286
100
AcDbEntity
  8
0
100
AcDbLine
 62
7
  6
CONTINUOUS
 10
237.5685311888
 20
232.2362177501
 11
238.6749148105
 21
232.2362177501
  0
LINE
  5
287
100
AcDbEntity
  8
0
100
AcDbLine
 62
7
  6
CONTINUOUS
 10
234.52597836
 20
220.114786519
 11
247.52597836
 21
216.8276107574
  0
LINE
  5
288
100
AcDbEntity
  8
0
100
AcDbLine
 62
7
  6
CONTINUOUS
 10
245.866403896
 20
216.0058215193
 11
234.52597836
 21
218.8820979595
  0
LINE
  5
289
100
AcDbEntity
  8
0
100
AcDbLine
 62
7
  6
CONTINUOUS
 10
244.206829432
 20
206.9661022819
 11
237.291935477
 21
209.6369337638
  0
LINE
  5
28A
100
AcDbEntity
  8
0
100
AcDbLine
 62
7
  6
CONTINUOUS
 10
237.8451276753
 20
210.2532780436
 11
244.7600208555
 21
207.5824465617
  0
LINE
  5
28B
100
AcDbEntity
  8
0
100
AcDbLine
 62
7
  6
CONTINUOUS
 10
239.2281062339
 20
205.1170694429
 11
240.057893369
 21
204.7061795262
  0
LINE
  5
28C
100
AcDbEntity
  8
0
100
AcDbLine
 62
7
  6
CONTINUOUS
 10
236.4621483421
 20
198.337282366
 11
235.3557654951
 21
199.1590810088
  0
LINE
  5
28D
100
AcDbEntity
  8
0
100
AcDbLine
 62
7
  6
CONTINUOUS
 10
246.1429996078
 20
188.886673212
 11
239.228106234
 21
194.6392166877
  0
LINE
  5
28E
100
AcDbEntity
  8
0
100
AcDbLine
 62
7
  6
CONTINUOUS
 10
240.0578933691
 20
195.6664602887
 11
246.1429996077
 21
190.5302610928
  0
LINE
  5
28F
100
AcDbEntity
  8
0
100
AcDbLine
 62
7
  6
CONTINUOUS
 10
236.1855526302
 20
191.1466053725
 11
236.7387440537
 21
190.5302610927
  0
LINE
  5
290
100
AcDbEntity
  8
0
100
AcDbLine
 62
7
  6
CONTINUOUS
 10
223.2319439441
 20
204.0393134528
 11
223.2319439441
 21
71.3187293018
  0
LINE
  5
291
100
AcDbEntity
  8
0
100
AcDbLine
 62
7
  6
CONTINUOUS
 10
235.3557654952
 20
204.2952802049
 11
236.4621483419
 21
205.1170694429
  0
LINE
  5
292
100
AcDbEntity
  8
0
100
AcDbLine
 62
7
  6
CONTINUOUS
 10
237.5685311887
 20
204.0898352464
 11
236.7387440537
 21
203.6789359251
  0
LINE
  5
293
100
AcDbEntity
  8
0
100
AcDbLine
 62
7
  6
CONTINUOUS
 10
239.228106234
 20
230.7980842323
 11
238.3983190988
 21
231.0035291907
  0
LINE
  5
294
100
AcDbEntity
  8
0
100
AcDbLine
 62
7
  6
CONTINUOUS
 10
238.6749148105
 20
232.2362177501
 11
239.5047019456
 21
232.0307727918
  0
LINE
  5
295
100
AcDbEntity
  8
0
100
AcDbLine
 62
7
  6
CONTINUOUS
 10
246.1429996078
 20
197.9263924493
 11
239.228106234
 21
203.678935925
  0
LINE
  5
296
100
AcDbEntity
  8
0
100
AcDbLine
 62
7
  6
CONTINUOUS
 10
203.7914922834
 20
245.7294965771
 11
132.109275
 21
305.8780186616
  0
LINE
  5
297
100
AcDbEntity
  8
0
100
AcDbLine
 62
7
  6
CONTINUOUS
 10
240.057893369
 20
204.7061795262
 11
246.1429996077
 21
199.5699709255
  0
LINE
  5
298
100
AcDbEntity
  8
0
100
AcDbLine
 62
7
  6
CONTINUOUS
 10
236.1855526302
 20
200.1863152052
 11
236.7387440537
 21
199.5699709255
  0
LINE
  5
299
100
AcDbEntity
  8
0
100
AcDbLine
 62
7
  6
CONTINUOUS
 10
235.3557654952
 20
190.1193617713
 11
234.8025740717
 21
190.9411510095
  0
LINE
  5
29A
100
AcDbEntity
  8
0
100
AcDbLine
 62
7
  6
CONTINUOUS
 10
235.3557654951
 20
199.1590810088
 11
234.8025740717
 21
199.9808702468
  0
LINE
  5
29B
100
AcDbEntity
  8
0
100
AcDbLine
 62
7
  6
CONTINUOUS
 10
245.866403896
 20
124.7868681221
 11
245.5898081843
 21
125.6086608869
  0
LINE
  5
29C
100
AcDbEntity
  8
0
100
AcDbLine
 62
7
  6
CONTINUOUS
 10
245.866403896
 20
134.6483765974
 11
245.5898081843
 21
135.4701681867
  0
LINE
  5
29D
100
AcDbEntity
  8
0
100
AcDbLine
 62
7
  6
CONTINUOUS
 10
247.249382624
 20
125.8141081964
 11
247.52597836
 21
124.786868122
  0
LINE
  5
29E
100
AcDbEntity
  8
0
100
AcDbLine
 62
7
  6
CONTINUOUS
 10
234.109275
 20
289.0911402884
 11
234.109275
 21
345.8751402884
  0
LINE
  5
29F
100
AcDbEntity
  8
0
100
AcDbLine
 62
7
  6
CONTINUOUS
 10
234.52597836
 20
111.2272939684
 11
234.52597836
 21
116.1580482061
  0
LINE
  5
2A0
100
AcDbEntity
  8
0
100
AcDbLine
 62
7
  6
CONTINUOUS
 10
234.52597836
 20
120.6779060614
 11
234.52597836
 21
121.9105952086
  0
LINE
  5
2A1
100
AcDbEntity
  8
0
100
AcDbLine
 62
7
  6
CONTINUOUS
 10
234.52597836
 20
126.8413494463
 11
234.52597836
 21
128.0740380057
  0
LINE
  5
2A2
100
AcDbEntity
  8
0
100
AcDbLine
 62
7
  6
CONTINUOUS
 10
234.52597836
 20
129.7176223597
 11
234.52597836
 21
134.6483765974
  0
LINE
  5
2A3
100
AcDbEntity
  8
0
100
AcDbLine
 62
7
  6
CONTINUOUS
 10
234.52597836
 20
149.4406393105
 11
234.52597836
 21
150.6733278699
  0
LINE
  5
2A4
100
AcDbEntity
  8
0
100
AcDbLine
 62
7
  6
CONTINUOUS
 10
234.52597836
 20
156.425876048
 11
234.52597836
 21
157.6585646074
  0
LINE
  5
2A5
100
AcDbEntity
  8
0
100
AcDbLine
 62
7
  6
CONTINUOUS
 10
234.52597836
 20
159.3021477859
 11
234.52597836
 21
160.5348363453
  0
LINE
  5
2A6
100
AcDbEntity
  8
0
100
AcDbLine
 62
7
  6
CONTINUOUS
 10
234.52597836
 20
166.2873845234
 11
234.52597836
 21
167.5200730828
  0
LINE
  5
2A7
100
AcDbEntity
  8
0
100
AcDbLine
 62
7
  6
CONTINUOUS
 10
234.52597836
 20
169.1636562613
 11
234.52597836
 21
170.3963448207
  0
LINE
  5
2A8
100
AcDbEntity
  8
0
100
AcDbLine
 62
7
  6
CONTINUOUS
 10
234.52597836
 20
176.1488929988
 11
234.52597836
 21
177.3815815582
  0
LINE
  5
2A9
100
AcDbEntity
  8
0
100
AcDbLine
 62
7
  6
CONTINUOUS
 10
234.52597836
 20
192.3792939319
 11
234.52597836
 21
193.2010831699
  0
LINE
  5
2AA
100
AcDbEntity
  8
0
100
AcDbLine
 62
7
  6
CONTINUOUS
 10
234.52597836
 20
201.4190037646
 11
234.52597836
 21
202.2408024072
  0
LINE
  5
2AB
100
AcDbEntity
  8
0
100
AcDbLine
 62
7
  6
CONTINUOUS
 10
234.52597836
 20
211.8968565197
 11
234.52597836
 21
213.1295450791
  0
LINE
  5
2AC
100
AcDbEntity
  8
0
100
AcDbLine
 62
7
  6
CONTINUOUS
 10
234.52597836
 20
218.8820979595
 11
234.52597836
 21
220.114786519
  0
LINE
  5
2AD
100
AcDbEntity
  8
0
100
AcDbLine
 62
7
  6
CONTINUOUS
 10
234.52597836
 20
221.7583649951
 11
234.52597836
 21
222.9910535545
  0
LINE
  5
2AE
100
AcDbEntity
  8
0
100
AcDbLine
 62
7
  6
CONTINUOUS
 10
234.52597836
 20
224.6346414353
 11
234.52597836
 21
229.5653956729
  0
LINE
  5
2AF
100
AcDbEntity
  8
0
100
AcDbLine
 62
7
  6
CONTINUOUS
 10
223.2319439441
 20
107.2521088691
 11
220.5249807252
 21
83.4520531733
  0
LINE
  5
2B0
100
AcDbEntity
  8
0
100
AcDbLine
 62
7
  6
CONTINUOUS
 10
234.52597836
 20
229.5653956729
 11
234.8025740717
 21
230.592639274
  0
LINE
  5
2B1
100
AcDbEntity
  8
0
100
AcDbLine
 62
7
  6
CONTINUOUS
 10
236.1855526302
 20
230.387184911
 11
235.9089569185
 21
229.7708406313
  0
LINE
  5
2B2
100
AcDbEntity
  8
0
100
AcDbLine
 62
7
  6
CONTINUOUS
 10
234.8025740717
 20
203.4734909668
 11
235.3557654952
 21
204.2952802049
  0
LINE
  5
2B3
100
AcDbEntity
  8
0
100
AcDbLine
 62
7
  6
CONTINUOUS
 10
237.291935477
 20
209.6369337638
 11
237.8451276753
 21
210.2532780436
  0
LINE
  5
2B4
100
AcDbEntity
  8
0
100
AcDbLine
 62
7
  6
CONTINUOUS
 10
236.7387440537
 20
203.6789359251
 11
236.1855526303
 21
203.0625916454
  0
LINE
  5
2B5
100
AcDbEntity
  8
0
100
AcDbLine
 62
7
  6
CONTINUOUS
 10
244.7600208555
 20
207.5824465617
 11
244.206829432
 21
206.9661022819
  0
LINE
  5
2B6
100
AcDbEntity
  8
0
100
AcDbLine
 62
7
  6
CONTINUOUS
 10
235.3557654951
 20
195.2555609674
 11
236.4621483419
 21
196.0773596101
  0
LINE
  5
2B7
100
AcDbEntity
  8
0
100
AcDbLine
 62
7
  6
CONTINUOUS
 10
237.5685311887
 20
195.0501160091
 11
236.7387440537
 21
194.6392166878
  0
LINE
  5
2B8
100
AcDbEntity
  8
0
100
AcDbLine
 62
7
  6
CONTINUOUS
 10
239.5047019456
 20
232.0307727918
 11
240.6110847924
 21
231.4144285121
  0
LINE
  5
2B9
100
AcDbEntity
  8
0
100
AcDbLine
 62
7
  6
CONTINUOUS
 10
239.7812976573
 20
230.387184911
 11
239.228106234
 21
230.7980842323
  0
LINE
  5
2BA
100
AcDbEntity
  8
0
100
AcDbLine
 62
7
  6
CONTINUOUS
 10
247.2493826241
 20
135.6756178473
 11
247.52597836
 21
134.6483765974
  0
LINE
  5
2BB
100
AcDbEntity
  8
0
100
AcDbLine
 62
7
  6
CONTINUOUS
 10
235.9089569185
 20
192.1738395689
 11
236.1855526302
 21
191.1466053725
  0
LINE
  5
2BC
100
AcDbEntity
  8
0
100
AcDbLine
 62
7
  6
CONTINUOUS
 10
235.9089569185
 20
201.2135588063
 11
236.1855526302
 21
200.1863152052
  0
LINE
  5
2BD
100
AcDbEntity
  8
0
100
AcDbLine
 62
7
  6
CONTINUOUS
 10
234.8025740717
 20
190.9411510095
 11
234.52597836
 21
192.3792939319
  0
LINE
  5
2BE
100
AcDbEntity
  8
0
100
AcDbLine
 62
7
  6
CONTINUOUS
 10
234.8025740717
 20
199.9808702468
 11
234.52597836
 21
201.4190037646
  0
LINE
  5
2BF
100
AcDbEntity
  8
0
100
AcDbLine
 62
7
  6
CONTINUOUS
 10
235.9089569185
 20
229.7708406313
 11
235.9089569185
 21
225.8673299947
  0
LINE
  5
2C0
100
AcDbEntity
  8
0
100
AcDbLine
 62
7
  6
CONTINUOUS
 10
235.9089569185
 20
202.0353480443
 11
235.9089569185
 21
201.2135588063
  0
LINE
  5
2C1
100
AcDbEntity
  8
0
100
AcDbLine
 62
7
  6
CONTINUOUS
 10
235.9089569185
 20
192.9956382116
 11
235.9089569185
 21
192.1738395689
  0
LINE
  5
2C2
100
AcDbEntity
  8
0
100
AcDbLine
 62
7
  6
CONTINUOUS
 10
235.9089569185
 20
116.3634961034
 11
235.9089569185
 21
112.4599825278
  0
LINE
  5
2C3
100
AcDbEntity
  8
0
100
AcDbLine
 62
7
  6
CONTINUOUS
 10
236.1855526303
 20
134.6483765974
 11
236.1855526303
 21
130.9503109192
  0
LINE
  5
2C4
100
AcDbEntity
  8
0
100
AcDbLine
 62
7
  6
CONTINUOUS
 10
237.5685311888
 20
199.1590810088
 11
237.5685311888
 21
198.1318374076
  0
LINE
  5
2C5
100
AcDbEntity
  8
0
100
AcDbLine
 62
7
  6
CONTINUOUS
 10
237.5685311888
 20
190.1193617714
 11
237.5685311888
 21
189.0921228726
  0
LINE
  5
2C6
100
AcDbEntity
  8
0
100
AcDbLine
 62
7
  6
CONTINUOUS
 10
239.7812976573
 20
170.3963448207
 11
239.7812976573
 21
176.1488929988
  0
LINE
  5
2C7
100
AcDbEntity
  8
0
100
AcDbLine
 62
7
  6
CONTINUOUS
 10
240.057893369
 20
112.4599825278
 11
240.057893369
 21
116.3634961034
  0
LINE
  5
2C8
100
AcDbEntity
  8
0
100
AcDbLine
 62
7
  6
CONTINUOUS
 10
240.057893369
 20
225.8673299947
 11
240.057893369
 21
229.7708406313
  0
LINE
  5
2C9
100
AcDbEntity
  8
0
100
AcDbLine
 62
7
  6
CONTINUOUS
 10
241.4408719276
 20
176.1488929988
 11
241.4408719276
 21
170.3963448207
  0
LINE
  5
2CA
100
AcDbEntity
  8
0
100
AcDbLine
 62
7
  6
CONTINUOUS
 10
241.7174676393
 20
229.565395673
 11
241.7174676393
 21
225.8673299947
  0
LINE
  5
2CB
100
AcDbEntity
  8
0
100
AcDbLine
 62
7
  6
CONTINUOUS
 10
241.7174676393
 20
115.9526000149
 11
241.7174676393
 21
112.4599825278
  0
LINE
  5
2CC
100
AcDbEntity
  8
0
100
AcDbLine
 62
7
  6
CONTINUOUS
 10
245.866403896
 20
123.9650753572
 11
245.866403896
 21
124.7868681221
  0
LINE
  5
2CD
100
AcDbEntity
  8
0
100
AcDbLine
 62
7
  6
CONTINUOUS
 10
245.866403896
 20
130.9503109192
 11
245.866403896
 21
134.6483765974
  0
LINE
  5
2CE
100
AcDbEntity
  8
0
100
AcDbLine
 62
7
  6
CONTINUOUS
 10
246.1429996077
 20
190.5302610928
 11
246.1429996077
 21
196.2828045685
  0
LINE
  5
2CF
100
AcDbEntity
  8
0
100
AcDbLine
 62
7
  6
CONTINUOUS
 10
246.1429996077
 20
199.5699709255
 11
246.1429996077
 21
205.3225238059
  0
LINE
  5
2D0
100
AcDbEntity
  8
0
100
AcDbLine
 62
7
  6
CONTINUOUS
 10
234.52597836
 20
202.2408024072
 11
234.8025740717
 21
203.4734909668
  0
LINE
  5
2D1
100
AcDbEntity
  8
0
100
AcDbLine
 62
7
  6
CONTINUOUS
 10
234.52597836
 20
193.2010831699
 11
234.8025740717
 21
194.4337717295
  0
LINE
  5
2D2
100
AcDbEntity
  8
0
100
AcDbLine
 62
7
  6
CONTINUOUS
 10
236.1855526303
 20
203.0625916454
 11
235.9089569185
 21
202.0353480443
  0
LINE
  5
2D3
100
AcDbEntity
  8
0
100
AcDbLine
 62
7
  6
CONTINUOUS
 10
236.1855526303
 20
194.0228724081
 11
235.9089569185
 21
192.9956382116
  0
LINE
  5
2D4
100
AcDbEntity
  8
0
100
AcDbLine
 62
7
  6
CONTINUOUS
 10
234.8025740717
 20
194.4337717295
 11
235.3557654951
 21
195.2555609674
  0
LINE
  5
2D5
100
AcDbEntity
  8
0
100
AcDbLine
 62
7
  6
CONTINUOUS
 10
236.7387440537
 20
194.6392166878
 11
236.1855526303
 21
194.0228724081
  0
LINE
  5
2D6
100
AcDbEntity
  8
0
100
AcDbLine
 62
7
  6
CONTINUOUS
 10
240.6110847924
 20
231.4144285121
 11
241.4408719276
 21
230.592639274
  0
LINE
  5
2D7
100
AcDbEntity
  8
0
100
AcDbLine
 62
7
  6
CONTINUOUS
 10
240.057893369
 20
229.7708406313
 11
239.7812976573
 21
230.387184911
  0
LINE
  5
2D8
100
AcDbEntity
  8
0
100
AcDbLine
 62
7
  6
CONTINUOUS
 10
241.4408719276
 20
230.592639274
 11
241.7174676393
 21
229.565395673
  0
LINE
  5
2D9
100
AcDbEntity
  8
0
100
AcDbLine
 62
7
  6
CONTINUOUS
 10
247.52597836
 20
225.8673299947
 11
247.52597836
 21
224.6346414353
  0
LINE
  5
2DA
100
AcDbEntity
  8
0
100
AcDbLine
 62
7
  6
CONTINUOUS
 10
247.52597836
 20
222.9910535545
 11
247.52597836
 21
221.7583649951
  0
LINE
  5
2DB
100
AcDbEntity
  8
0
100
AcDbLine
 62
7
  6
CONTINUOUS
 10
247.52597836
 20
216.8276107574
 11
247.52597836
 21
215.1840322813
  0
LINE
  5
2DC
100
AcDbEntity
  8
0
100
AcDbLine
 62
7
  6
CONTINUOUS
 10
247.52597836
 20
205.3225238059
 11
247.52597836
 21
197.9263924493
  0
LINE
  5
2DD
100
AcDbEntity
  8
0
100
AcDbLine
 62
7
  6
CONTINUOUS
 10
247.52597836
 20
196.2828045685
 11
247.52597836
 21
188.886673212
  0
LINE
  5
2DE
100
AcDbEntity
  8
0
100
AcDbLine
 62
7
  6
CONTINUOUS
 10
247.52597836
 20
177.3815815582
 11
247.52597836
 21
176.1488929988
  0
LINE
  5
2DF
100
AcDbEntity
  8
0
100
AcDbLine
 62
7
  6
CONTINUOUS
 10
247.52597836
 20
170.3963448207
 11
247.52597836
 21
169.1636562613
  0
LINE
  5
2E0
100
AcDbEntity
  8
0
100
AcDbLine
 62
7
  6
CONTINUOUS
 10
247.52597836
 20
164.2329020236
 11
247.52597836
 21
162.5893188451
  0
LINE
  5
2E1
100
AcDbEntity
  8
0
100
AcDbLine
 62
7
  6
CONTINUOUS
 10
247.52597836
 20
154.3713935482
 11
247.52597836
 21
152.7278103697
  0
LINE
  5
2E2
100
AcDbEntity
  8
0
100
AcDbLine
 62
7
  6
CONTINUOUS
 10
247.52597836
 20
134.6483765974
 11
247.52597836
 21
129.7176223597
  0
LINE
  5
2E3
100
AcDbEntity
  8
0
100
AcDbLine
 62
7
  6
CONTINUOUS
 10
247.52597836
 20
124.786868122
 11
247.52597836
 21
123.9650753572
  0
LINE
  5
2E4
100
AcDbEntity
  8
0
100
AcDbLine
 62
7
  6
CONTINUOUS
 10
247.52597836
 20
119.0343217073
 11
247.52597836
 21
117.5961846628
  0
LINE
  5
2E5
100
AcDbEntity
  8
0
100
AcDbLine
 62
7
  6
CONTINUOUS
 10
247.52597836
 20
112.4599825278
 11
247.52597836
 21
111.2272939684
  0
LINE
  5
2E6
100
AcDbEntity
  8
0
100
AcDbLine
 62
7
  6
CONTINUOUS
 10
234.52597836
 20
134.6483765974
 11
234.8025740717
 21
135.6756178474
  0
LINE
  5
2E7
100
AcDbEntity
  8
0
100
AcDbLine
 62
7
  6
CONTINUOUS
 10
197.7224487861
 20
65.163131718
 11
202.3811697872
 21
77.9628635144
  0
LINE
  5
2E8
100
AcDbEntity
  8
0
100
AcDbLine
 62
7
  6
CONTINUOUS
 10
265.109275
 20
216.1453521989
 11
265.109275
 21
136.0710402884
  0
LINE
  5
2E9
100
AcDbEntity
  8
0
100
AcDbLine
 62
7
  6
CONTINUOUS
 10
234.52597836
 20
116.1580482061
 11
234.8025740717
 21
117.1852888682
  0
LINE
  5
2EA
100
AcDbEntity
  8
0
100
AcDbLine
 62
7
  6
CONTINUOUS
 10
236.462148342
 20
135.4701681867
 11
236.1855526303
 21
134.6483765974
  0
LINE
  5
2EB
100
AcDbEntity
  8
0
100
AcDbLine
 62
7
  6
CONTINUOUS
 10
247.52597836
 20
123.9650753572
 11
247.2493826241
 21
122.9378352829
  0
LINE
  5
2EC
100
AcDbEntity
  8
0
100
AcDbLine
 62
7
  6
CONTINUOUS
 10
245.5898081843
 20
123.143283768
 11
245.866403896
 21
123.9650753572
  0
LINE
  5
2ED
100
AcDbEntity
  8
0
100
AcDbLine
 62
7
  6
CONTINUOUS
 10
236.1855526302
 20
116.9798403831
 11
235.9089569185
 21
116.3634961034
  0
LINE
  5
2EE
100
AcDbEntity
  8
0
100
AcDbLine
 62
7
  6
CONTINUOUS
 10
234.8025740717
 20
135.6756178474
 11
235.3557654951
 21
136.4974094365
  0
LINE
  5
2EF
100
AcDbEntity
  8
0
100
AcDbLine
 62
7
  6
CONTINUOUS
 10
237.0153397654
 20
136.0865124664
 11
236.462148342
 21
135.4701681867
  0
LINE
  5
2F0
100
AcDbEntity
  8
0
100
AcDbLine
 62
7
  6
CONTINUOUS
 10
235.3557654951
 20
136.4974094365
 11
236.462148342
 21
137.3192010258
  0
LINE
  5
2F1
100
AcDbEntity
  8
0
100
AcDbLine
 62
7
  6
CONTINUOUS
 10
237.8451276754
 20
136.4974094366
 11
237.0153397654
 21
136.0865124664
  0
LINE
  5
2F2
100
AcDbEntity
  8
0
100
AcDbLine
 62
7
  6
CONTINUOUS
 10
236.462148342
 20
137.3192010258
 11
237.5685311887
 21
137.730097996
  0
LINE
  5
2F3
100
AcDbEntity
  8
0
100
AcDbLine
 62
7
  6
CONTINUOUS
 10
247.2493826241
 20
122.9378352829
 11
246.6961911281
 21
122.1160425181
  0
LINE
  5
2F4
100
AcDbEntity
  8
0
100
AcDbLine
 62
7
  6
CONTINUOUS
 10
234.8025740717
 20
117.1852888682
 11
235.6323612068
 21
118.0070810452
  0
LINE
  5
2F5
100
AcDbEntity
  8
0
100
AcDbLine
 62
7
  6
CONTINUOUS
 10
245.0366165672
 20
122.5269394883
 11
245.5898081843
 21
123.143283768
  0
LINE
  5
2F6
100
AcDbEntity
  8
0
100
AcDbLine
 62
7
  6
CONTINUOUS
 10
236.7387440537
 20
117.3907367655
 11
236.1855526302
 21
116.9798403831
  0
LINE
  5
2F7
100
AcDbEntity
  8
0
100
AcDbLine
 62
7
  6
CONTINUOUS
 10
246.6961911281
 20
122.1160425181
 11
245.5898081843
 21
121.2942509289
  0
LINE
  5
2F8
100
AcDbEntity
  8
0
100
AcDbLine
 62
7
  6
CONTINUOUS
 10
235.6323612068
 20
118.0070810452
 11
236.7387440536
 21
118.6234253249
  0
LINE
  5
2F9
100
AcDbEntity
  8
0
100
AcDbLine
 62
7
  6
CONTINUOUS
 10
244.2068294321
 20
122.1160425181
 11
245.0366165672
 21
122.5269394883
  0
LINE
  5
2FA
100
AcDbEntity
  8
0
100
AcDbLine
 62
7
  6
CONTINUOUS
 10
245.5898081843
 20
121.2942509289
 11
244.4834251438
 21
120.8833545465
  0
LINE
  5
2FB
100
AcDbEntity
  8
0
100
AcDbLine
 62
7
  6
CONTINUOUS
 10
241.1642762159
 20
117.1852888682
 11
247.52597836
 21
119.0343217073
  0
LINE
  5
2FC
100
AcDbEntity
  8
0
100
AcDbLine
 62
7
  6
CONTINUOUS
 10
172.189275
 20
315.5097802884
 11
194.029275
 21
315.5097802884
  0
LINE
  5
2FD
100
AcDbEntity
  8
BEZUGSACHSEN
100
AcDbLine
 62
7
  6
CENTER
 10
240.2524899142
 20
329.2597802884
 11
125.7374313182
 21
329.2597802884
  0
LINE
  5
2FE
100
AcDbEntity
  8
BEZUGSACHSEN
100
AcDbLine
 62
7
  6
CENTER
 10
144.206231184
 20
331.0185019684
 11
141.206131184
 21
331.0185019684
  0
LINE
  5
2FF
100
AcDbEntity
  8
BEZUGSACHSEN
100
AcDbLine
 62
7
  6
CENTER
 10
144.206231184
 20
331.0185019684
 11
147.206331184
 21
331.0185019684
  0
LINE
  5
300
100
AcDbEntity
  8
0
100
AcDbLine
 62
7
  6
CONTINUOUS
 10
234.109275
 20
345.8751402884
 11
222.1974163688
 21
360.0711406066
  0
LINE
  5
301
100
AcDbEntity
  8
0
100
AcDbLine
 62
7
  6
CONTINUOUS
 10
234.109275
 20
340.4151402884
 11
214.9658056657
 21
340.4151402884
  0
LINE
  5
302
100
AcDbEntity
  8
0
100
AcDbLine
 62
7
  6
CONTINUOUS
 10
151.2527443342
 20
340.4151402884
 11
132.109275
 21
340.4151402884
  0
LINE
  5
303
100
AcDbEntity
  8
0
100
AcDbLine
 62
7
  6
CONTINUOUS
 10
172.189275
 20
343.0097802884
 11
194.029275
 21
343.0097802884
  0
LINE
  5
304
100
AcDbEntity
  8
0
100
AcDbLine
 62
9
  6
CONTINUOUS
 10
233.4653904856
 20
346.6424919716
 11
213.6819662441
 21
346.6424919716
  0
LINE
  5
305
100
AcDbEntity
  8
0
100
AcDbLine
 62
9
  6
CONTINUOUS
 10
152.5365837559
 20
346.6424919716
 11
132.7531595144
 21
346.6424919716
  0
LINE
  5
306
100
AcDbEntity
  8
0
100
AcDbLine
 62
7
  6
CONTINUOUS
 10
144.0194520188
 20
360.0711402884
 11
152.1461136073
 21
360.0711402884
  0
LINE
  5
307
100
AcDbEntity
  8
0
100
AcDbLine
 62
7
  6
CONTINUOUS
 10
214.0724363927
 20
360.0711402884
 11
222.1990979812
 21
360.0711402884
  0
LINE
  5
308
100
AcDbEntity
  8
0
100
AcDbLine
 62
7
  6
CONTINUOUS
 10
406.4317407384
 20
65.0711402884
 11
380.0567957784
 21
65.0711402884
  0
LINE
  5
309
100
AcDbEntity
  8
0
100
AcDbLine
 62
7
  6
CONTINUOUS
 10
366.0084662594
 20
65.163131718
 11
353.2087344588
 21
77.9628635186
  0
LINE
  5
30A
100
AcDbEntity
  8
0
100
AcDbLine
 62
7
  6
CONTINUOUS
 10
424.7442682584
 20
111.2272939684
 11
424.2442682584
 21
111.2272939684
  0
LINE
  5
30B
100
AcDbEntity
  8
0
100
AcDbLine
 62
7
  6
CONTINUOUS
 10
362.2442682584
 20
340.4151402884
 11
366.7958951119
 21
346.6424919716
  0
LINE
  5
30C
100
AcDbEntity
  8
0
100
AcDbLine
 62
7
  6
CONTINUOUS
 10
424.7442682584
 20
116.1580482061
 11
424.2442682584
 21
116.1580482061
  0
LINE
  5
30D
100
AcDbEntity
  8
0
100
AcDbLine
 62
7
  6
CONTINUOUS
 10
424.7442682584
 20
117.1852888682
 11
424.2442682584
 21
117.1852888682
  0
LINE
  5
30E
100
AcDbEntity
  8
0
100
AcDbLine
 62
7
  6
CONTINUOUS
 10
424.7442682584
 20
118.0070810452
 11
424.2442682584
 21
118.0070810452
  0
LINE
  5
30F
100
AcDbEntity
  8
0
100
AcDbLine
 62
7
  6
CONTINUOUS
 10
424.7442682584
 20
118.6234253249
 11
424.2442682584
 21
118.6234253249
  0
LINE
  5
310
100
AcDbEntity
  8
0
100
AcDbLine
 62
7
  6
CONTINUOUS
 10
424.7442682584
 20
118.8288732222
 11
424.2442682584
 21
118.8288732222
  0
LINE
  5
311
100
AcDbEntity
  8
0
100
AcDbLine
 62
7
  6
CONTINUOUS
 10
424.7442682584
 20
119.0343217073
 11
424.2442682584
 21
119.0343217073
  0
LINE
  5
312
100
AcDbEntity
  8
0
100
AcDbLine
 62
7
  6
CONTINUOUS
 10
424.7442682584
 20
120.6779060614
 11
424.2442682584
 21
120.6779060614
  0
LINE
  5
313
100
AcDbEntity
  8
0
100
AcDbLine
 62
7
  6
CONTINUOUS
 10
424.7442682584
 20
121.9105952086
 11
424.2442682584
 21
121.9105952086
  0
LINE
  5
314
100
AcDbEntity
  8
0
100
AcDbLine
 62
7
  6
CONTINUOUS
 10
369.1555633476
 20
123.5340997558
 11
357.5558590712
 21
127.5281982442
  0
LINE
  5
315
100
AcDbEntity
  8
0
100
AcDbLine
 62
7
  6
CONTINUOUS
 10
424.7442682584
 20
122.1160425181
 11
424.2442682584
 21
122.1160425181
  0
LINE
  5
316
100
AcDbEntity
  8
0
100
AcDbLine
 62
7
  6
CONTINUOUS
 10
424.7442682584
 20
122.5269394883
 11
424.2442682584
 21
122.5269394883
  0
LINE
  5
317
100
AcDbEntity
  8
0
100
AcDbLine
 62
7
  6
CONTINUOUS
 10
424.7442682584
 20
123.143283768
 11
424.2442682584
 21
123.143283768
  0
LINE
  5
318
100
AcDbEntity
  8
0
100
AcDbLine
 62
7
  6
CONTINUOUS
 10
424.7442682584
 20
123.9650753572
 11
424.2442682584
 21
123.9650753572
  0
LINE
  5
319
100
AcDbEntity
  8
0
100
AcDbLine
 62
7
  6
CONTINUOUS
 10
424.7442682584
 20
124.786868122
 11
424.2442682584
 21
124.786868122
  0
LINE
  5
31A
100
AcDbEntity
  8
0
100
AcDbLine
 62
7
  6
CONTINUOUS
 10
424.7442682584
 20
125.6086608869
 11
424.2442682584
 21
125.6086608869
  0
LINE
  5
31B
100
AcDbEntity
  8
0
100
AcDbLine
 62
7
  6
CONTINUOUS
 10
415.2442682584
 20
136.9300810127
 11
427.5921146682
 21
138.4462059122
  0
LINE
  5
31C
100
AcDbEntity
  8
0
100
AcDbLine
 62
9
  6
CONTINUOUS
 10
371.2442682584
 20
136.0710402884
 11
415.2442682584
 21
136.0710402884
  0
LINE
  5
31D
100
AcDbEntity
  8
0
100
AcDbLine
 62
7
  6
CONTINUOUS
 10
358.8964218486
 20
138.4462059122
 11
371.2442682584
 21
136.9300810127
  0
LINE
  5
31E
100
AcDbEntity
  8
0
100
AcDbLine
 62
7
  6
CONTINUOUS
 10
424.7442682584
 20
149.4406393105
 11
424.2442682584
 21
149.4406393105
  0
LINE
  5
31F
100
AcDbEntity
  8
0
100
AcDbLine
 62
7
  6
CONTINUOUS
 10
424.7442682584
 20
150.6733278699
 11
424.2442682584
 21
150.6733278699
  0
LINE
  5
320
100
AcDbEntity
  8
0
100
AcDbLine
 62
7
  6
CONTINUOUS
 10
424.7442682584
 20
153.5495996078
 11
424.2442682584
 21
153.5495996078
  0
LINE
  5
321
100
AcDbEntity
  8
0
100
AcDbLine
 62
7
  6
CONTINUOUS
 10
424.7442682584
 20
156.425876048
 11
424.2442682584
 21
156.425876048
  0
LINE
  5
322
100
AcDbEntity
  8
0
100
AcDbLine
 62
7
  6
CONTINUOUS
 10
424.7442682584
 20
157.6585646074
 11
424.2442682584
 21
157.6585646074
  0
LINE
  5
323
100
AcDbEntity
  8
0
100
AcDbLine
 62
7
  6
CONTINUOUS
 10
424.7442682584
 20
159.3021477859
 11
424.2442682584
 21
159.3021477859
  0
LINE
  5
324
100
AcDbEntity
  8
0
100
AcDbLine
 62
7
  6
CONTINUOUS
 10
424.7442682584
 20
160.5348363453
 11
424.2442682584
 21
160.5348363453
  0
LINE
  5
325
100
AcDbEntity
  8
0
100
AcDbLine
 62
7
  6
CONTINUOUS
 10
424.7442682584
 20
163.4111080832
 11
424.2442682584
 21
163.4111080832
  0
LINE
  5
326
100
AcDbEntity
  8
0
100
AcDbLine
 62
7
  6
CONTINUOUS
 10
424.7442682584
 20
166.2873845234
 11
424.2442682584
 21
166.2873845234
  0
LINE
  5
327
100
AcDbEntity
  8
0
100
AcDbLine
 62
7
  6
CONTINUOUS
 10
424.7442682584
 20
167.5200730828
 11
424.2442682584
 21
167.5200730828
  0
LINE
  5
328
100
AcDbEntity
  8
0
100
AcDbLine
 62
7
  6
CONTINUOUS
 10
424.7442682584
 20
169.1636562613
 11
424.2442682584
 21
169.1636562613
  0
LINE
  5
329
100
AcDbEntity
  8
0
100
AcDbLine
 62
7
  6
CONTINUOUS
 10
424.7442682584
 20
170.3963448207
 11
424.2442682584
 21
170.3963448207
  0
LINE
  5
32A
100
AcDbEntity
  8
0
100
AcDbLine
 62
7
  6
CONTINUOUS
 10
362.2442682584
 20
107.2521088691
 11
362.2442682584
 21
125.9138494986
  0
LINE
  5
32B
100
AcDbEntity
  8
0
100
AcDbLine
 62
7
  6
CONTINUOUS
 10
362.2442682584
 20
138.0351420608
 11
362.2442682584
 21
340.4151402884
  0
LINE
  5
32C
100
AcDbEntity
  8
0
100
AcDbLine
 62
7
  6
CONTINUOUS
 10
424.7442682584
 20
176.1488929988
 11
424.2442682584
 21
176.1488929988
  0
LINE
  5
32D
100
AcDbEntity
  8
0
100
AcDbLine
 62
7
  6
CONTINUOUS
 10
424.7442682584
 20
177.3815815582
 11
424.2442682584
 21
177.3815815582
  0
LINE
  5
32E
100
AcDbEntity
  8
0
100
AcDbLine
 62
7
  6
CONTINUOUS
 10
371.2442682584
 20
128.4547801616
 11
371.2442682584
 21
219.9760577472
  0
LINE
  5
32F
100
AcDbEntity
  8
0
100
AcDbLine
 62
7
  6
CONTINUOUS
 10
357.5558590712
 20
127.5281982442
 11
358.8964218486
 21
138.4462059122
  0
LINE
  5
330
100
AcDbEntity
  8
0
100
AcDbLine
 62
7
  6
CONTINUOUS
 10
424.7442682584
 20
188.886673212
 11
424.2442682584
 21
188.886673212
  0
LINE
  5
331
100
AcDbEntity
  8
0
100
AcDbLine
 62
7
  6
CONTINUOUS
 10
424.7442682584
 20
189.0921228726
 11
424.2442682584
 21
189.0921228726
  0
LINE
  5
332
100
AcDbEntity
  8
0
100
AcDbLine
 62
7
  6
CONTINUOUS
 10
424.7442682584
 20
189.297567831
 11
424.2442682584
 21
189.297567831
  0
LINE
  5
333
100
AcDbEntity
  8
0
100
AcDbLine
 62
7
  6
CONTINUOUS
 10
424.7442682584
 20
190.1193617714
 11
424.2442682584
 21
190.1193617714
  0
LINE
  5
334
100
AcDbEntity
  8
0
100
AcDbLine
 62
7
  6
CONTINUOUS
 10
424.7442682584
 20
190.9411510095
 11
424.2442682584
 21
190.9411510095
  0
LINE
  5
335
100
AcDbEntity
  8
0
100
AcDbLine
 62
7
  6
CONTINUOUS
 10
424.7442682584
 20
192.3792939319
 11
424.2442682584
 21
192.3792939319
  0
LINE
  5
336
100
AcDbEntity
  8
0
100
AcDbLine
 62
7
  6
CONTINUOUS
 10
424.7442682584
 20
193.20108317
 11
424.2442682584
 21
193.20108317
  0
LINE
  5
337
100
AcDbEntity
  8
0
100
AcDbLine
 62
7
  6
CONTINUOUS
 10
380.0567957784
 20
68.095076154
 11
380.0567957784
 21
65.0869892628
  0
LINE
  5
338
100
AcDbEntity
  8
0
100
AcDbLine
 62
7
  6
CONTINUOUS
 10
424.7442682584
 20
194.4337717294
 11
424.2442682584
 21
194.4337717294
  0
LINE
  5
339
100
AcDbEntity
  8
0
100
AcDbLine
 62
7
  6
CONTINUOUS
 10
424.7442682584
 20
195.2555609675
 11
424.2442682584
 21
195.2555609675
  0
LINE
  5
33A
100
AcDbEntity
  8
0
100
AcDbLine
 62
7
  6
CONTINUOUS
 10
424.7442682584
 20
196.0773596101
 11
424.2442682584
 21
196.0773596101
  0
LINE
  5
33B
100
AcDbEntity
  8
0
100
AcDbLine
 62
7
  6
CONTINUOUS
 10
424.7442682584
 20
196.2828045685
 11
424.2442682584
 21
196.2828045685
  0
LINE
  5
33C
100
AcDbEntity
  8
0
100
AcDbLine
 62
9
  6
CONTINUOUS
 10
415.2442682584
 20
196.5059112365
 11
371.2442682584
 21
196.5059112365
  0
LINE
  5
33D
100
AcDbEntity
  8
0
100
AcDbLine
 62
7
  6
CONTINUOUS
 10
424.7442682584
 20
197.9263924493
 11
424.2442682584
 21
197.9263924493
  0
LINE
  5
33E
100
AcDbEntity
  8
0
100
AcDbLine
 62
7
  6
CONTINUOUS
 10
424.7442682584
 20
198.1318374076
 11
424.2442682584
 21
198.1318374076
  0
LINE
  5
33F
100
AcDbEntity
  8
0
100
AcDbLine
 62
7
  6
CONTINUOUS
 10
424.7442682584
 20
198.337282366
 11
424.2442682584
 21
198.337282366
  0
LINE
  5
340
100
AcDbEntity
  8
0
100
AcDbLine
 62
7
  6
CONTINUOUS
 10
424.7442682584
 20
199.1590810088
 11
424.2442682584
 21
199.1590810088
  0
LINE
  5
341
100
AcDbEntity
  8
0
100
AcDbLine
 62
7
  6
CONTINUOUS
 10
424.7442682584
 20
199.9808702468
 11
424.2442682584
 21
199.9808702468
  0
LINE
  5
342
100
AcDbEntity
  8
0
100
AcDbLine
 62
7
  6
CONTINUOUS
 10
424.7442682584
 20
201.4190037646
 11
424.2442682584
 21
201.4190037646
  0
LINE
  5
343
100
AcDbEntity
  8
0
100
AcDbLine
 62
7
  6
CONTINUOUS
 10
424.7442682584
 20
202.2408024073
 11
424.2442682584
 21
202.2408024073
  0
LINE
  5
344
100
AcDbEntity
  8
0
100
AcDbLine
 62
7
  6
CONTINUOUS
 10
424.7442682584
 20
203.4734909667
 11
424.2442682584
 21
203.4734909667
  0
LINE
  5
345
100
AcDbEntity
  8
0
100
AcDbLine
 62
7
  6
CONTINUOUS
 10
415.2442682584
 20
128.4547801616
 11
434.3467925257
 21
83.4520531733
  0
LINE
  5
346
100
AcDbEntity
  8
0
100
AcDbLine
 62
7
  6
CONTINUOUS
 10
386.2780140437
 20
255.4850496676
 11
386.2780140437
 21
240.8831402884
  0
LINE
  5
347
100
AcDbEntity
  8
BEZUGSACHSEN
100
AcDbLine
 62
7
  6
CENTER
 10
393.2442682584
 20
62.0710342005
 11
393.2442682584
 21
363.619390317
  0
LINE
  5
348
100
AcDbEntity
  8
0
100
AcDbLine
 62
9
  6
CONTINUOUS
 10
424.2442682584
 20
204.0393134528
 11
415.2442682584
 21
204.0393134528
  0
LINE
  5
349
100
AcDbEntity
  8
0
100
AcDbLine
 62
9
  6
CONTINUOUS
 10
371.2442682584
 20
204.0393134528
 11
362.2442682584
 21
204.0393134528
  0
LINE
  5
34A
100
AcDbEntity
  8
0
100
AcDbLine
 62
7
  6
CONTINUOUS
 10
424.7442682584
 20
204.2952802048
 11
424.2442682584
 21
204.2952802048
  0
LINE
  5
34B
100
AcDbEntity
  8
0
100
AcDbLine
 62
7
  6
CONTINUOUS
 10
424.7442682584
 20
205.1170694429
 11
424.2442682584
 21
205.1170694429
  0
LINE
  5
34C
100
AcDbEntity
  8
0
100
AcDbLine
 62
7
  6
CONTINUOUS
 10
424.7442682584
 20
205.3225238059
 11
424.2442682584
 21
205.3225238059
  0
LINE
  5
34D
100
AcDbEntity
  8
0
100
AcDbLine
 62
7
  6
CONTINUOUS
 10
424.7442682584
 20
206.9661022819
 11
424.2442682584
 21
206.9661022819
  0
LINE
  5
34E
100
AcDbEntity
  8
0
100
AcDbLine
 62
7
  6
CONTINUOUS
 10
424.7442682584
 20
209.6369337638
 11
424.2442682584
 21
209.6369337638
  0
LINE
  5
34F
100
AcDbEntity
  8
0
100
AcDbLine
 62
7
  6
CONTINUOUS
 10
424.7442682584
 20
210.2532780435
 11
424.2442682584
 21
210.2532780435
  0
LINE
  5
350
100
AcDbEntity
  8
0
100
AcDbLine
 62
7
  6
CONTINUOUS
 10
424.7442682584
 20
211.8968565197
 11
424.2442682584
 21
211.8968565197
  0
LINE
  5
351
100
AcDbEntity
  8
0
100
AcDbLine
 62
7
  6
CONTINUOUS
 10
424.7442682584
 20
213.1295450791
 11
424.2442682584
 21
213.1295450791
  0
LINE
  5
352
100
AcDbEntity
  8
0
100
AcDbLine
 62
7
  6
CONTINUOUS
 10
400.2105224732
 20
240.8831402884
 11
400.2105224732
 21
255.4850496676
  0
LINE
  5
353
100
AcDbEntity
  8
0
100
AcDbLine
 62
7
  6
CONTINUOUS
 10
424.7442682584
 20
216.0058215193
 11
424.2442682584
 21
216.0058215193
  0
LINE
  5
354
100
AcDbEntity
  8
0
100
AcDbLine
 62
7
  6
CONTINUOUS
 10
424.7442682584
 20
218.8820979595
 11
424.2442682584
 21
218.8820979595
  0
LINE
  5
355
100
AcDbEntity
  8
0
100
AcDbLine
 62
7
  6
CONTINUOUS
 10
424.7442682584
 20
220.1147865189
 11
424.2442682584
 21
220.1147865189
  0
LINE
  5
356
100
AcDbEntity
  8
0
100
AcDbLine
 62
7
  6
CONTINUOUS
 10
424.7442682584
 20
221.7583649951
 11
424.2442682584
 21
221.7583649951
  0
LINE
  5
357
100
AcDbEntity
  8
0
100
AcDbLine
 62
9
  6
CONTINUOUS
 10
414.1255155422
 20
222.2598489184
 11
372.3630209747
 21
222.2598489184
  0
LINE
  5
358
100
AcDbEntity
  8
0
100
AcDbLine
 62
7
  6
CONTINUOUS
 10
424.7442682584
 20
222.9910535545
 11
424.2442682584
 21
222.9910535545
  0
LINE
  5
359
100
AcDbEntity
  8
0
100
AcDbLine
 62
7
  6
CONTINUOUS
 10
406.4317407384
 20
65.0869892628
 11
406.4317407384
 21
68.095076154
  0
LINE
  5
35A
100
AcDbEntity
  8
0
100
AcDbLine
 62
7
  6
CONTINUOUS
 10
371.2442682584
 20
128.4547801616
 11
352.1417439912
 21
83.4520531733
  0
LINE
  5
35B
100
AcDbEntity
  8
0
100
AcDbLine
 62
7
  6
CONTINUOUS
 10
424.7442682584
 20
224.6346414353
 11
424.2442682584
 21
224.6346414353
  0
LINE
  5
35C
100
AcDbEntity
  8
0
100
AcDbLine
 62
7
  6
CONTINUOUS
 10
424.7442682584
 20
229.565395673
 11
424.2442682584
 21
229.565395673
  0
LINE
  5
35D
100
AcDbEntity
  8
0
100
AcDbLine
 62
7
  6
CONTINUOUS
 10
424.7442682584
 20
230.592639274
 11
424.2442682584
 21
230.592639274
  0
LINE
  5
35E
100
AcDbEntity
  8
0
100
AcDbLine
 62
7
  6
CONTINUOUS
 10
424.7442682584
 20
231.4144285121
 11
424.2442682584
 21
231.4144285121
  0
LINE
  5
35F
100
AcDbEntity
  8
0
100
AcDbLine
 62
7
  6
CONTINUOUS
 10
424.7442682584
 20
232.0307727918
 11
424.2442682584
 21
232.0307727918
  0
LINE
  5
360
100
AcDbEntity
  8
0
100
AcDbLine
 62
7
  6
CONTINUOUS
 10
424.7442682584
 20
232.2362177501
 11
424.2442682584
 21
232.2362177501
  0
LINE
  5
361
100
AcDbEntity
  8
0
100
AcDbLine
 62
7
  6
CONTINUOUS
 10
415.2442682584
 20
128.4547801616
 11
415.2442682584
 21
219.9760577472
  0
LINE
  5
362
100
AcDbEntity
  8
0
100
AcDbLine
 62
7
  6
CONTINUOUS
 10
424.2442682584
 20
125.9138494986
 11
424.2442682584
 21
107.2521088691
  0
LINE
  5
363
100
AcDbEntity
  8
0
100
AcDbLine
 62
7
  6
CONTINUOUS
 10
424.2442682584
 20
138.0351420608
 11
424.2442682584
 21
340.4151402884
  0
LINE
  5
364
100
AcDbEntity
  8
0
100
AcDbLine
 62
7
  6
CONTINUOUS
 10
424.7442682584
 20
111.2272939684
 11
424.7442682584
 21
119.0343217073
  0
LINE
  5
365
100
AcDbEntity
  8
0
100
AcDbLine
 62
7
  6
CONTINUOUS
 10
424.7442682584
 20
120.6779060614
 11
424.7442682584
 21
126.0860133052
  0
LINE
  5
366
100
AcDbEntity
  8
0
100
AcDbLine
 62
7
  6
CONTINUOUS
 10
424.7442682584
 20
149.4406393105
 11
424.7442682584
 21
157.6585646074
  0
LINE
  5
367
100
AcDbEntity
  8
0
100
AcDbLine
 62
7
  6
CONTINUOUS
 10
424.7442682584
 20
159.3021477859
 11
424.7442682584
 21
167.5200730828
  0
LINE
  5
368
100
AcDbEntity
  8
0
100
AcDbLine
 62
7
  6
CONTINUOUS
 10
424.7442682584
 20
169.1636562613
 11
424.7442682584
 21
177.3815815582
  0
LINE
  5
369
100
AcDbEntity
  8
0
100
AcDbLine
 62
7
  6
CONTINUOUS
 10
424.7442682584
 20
188.886673212
 11
424.7442682584
 21
196.2828045685
  0
LINE
  5
36A
100
AcDbEntity
  8
0
100
AcDbLine
 62
7
  6
CONTINUOUS
 10
424.7442682584
 20
197.9263924493
 11
424.7442682584
 21
205.3225238059
  0
LINE
  5
36B
100
AcDbEntity
  8
0
100
AcDbLine
 62
7
  6
CONTINUOUS
 10
424.7442682584
 20
206.9661022819
 11
424.7442682584
 21
210.2532780436
  0
LINE
  5
36C
100
AcDbEntity
  8
0
100
AcDbLine
 62
7
  6
CONTINUOUS
 10
424.7442682584
 20
211.8968565197
 11
424.7442682584
 21
220.114786519
  0
LINE
  5
36D
100
AcDbEntity
  8
0
100
AcDbLine
 62
7
  6
CONTINUOUS
 10
424.7442682584
 20
221.7583649951
 11
424.7442682584
 21
222.9910535545
  0
LINE
  5
36E
100
AcDbEntity
  8
0
100
AcDbLine
 62
7
  6
CONTINUOUS
 10
424.7442682584
 20
224.6346414353
 11
424.7442682584
 21
232.2362177501
  0
LINE
  5
36F
100
AcDbEntity
  8
0
100
AcDbLine
 62
9
  6
CONTINUOUS
 10
383.6739886444
 20
238.9144504762
 11
402.8145478724
 21
238.9144504762
  0
LINE
  5
370
100
AcDbEntity
  8
0
100
AcDbLine
 62
9
  6
CONTINUOUS
 10
402.7422195255
 20
239.0114958333
 11
383.7463169913
 21
239.0114958333
  0
LINE
  5
371
100
AcDbEntity
  8
0
100
AcDbLine
 62
7
  6
CONTINUOUS
 10
385.715216144
 20
240.8831402884
 11
400.7765153591
 21
240.8831402884
  0
LINE
  5
372
100
AcDbEntity
  8
0
100
AcDbLine
 62
7
  6
CONTINUOUS
 10
427.5921146682
 20
138.4462059122
 11
428.9326774457
 21
127.5281982442
  0
LINE
  5
373
100
AcDbEntity
  8
0
100
AcDbLine
 62
9
  6
CONTINUOUS
 10
400.2105224732
 20
255.4850496676
 11
386.2780140437
 21
255.4850496676
  0
LINE
  5
374
100
AcDbEntity
  8
0
100
AcDbLine
 62
9
  6
CONTINUOUS
 10
375.5901664433
 20
293.7872718235
 11
410.8983700735
 21
293.7872718235
  0
LINE
  5
375
100
AcDbEntity
  8
0
100
AcDbLine
 62
7
  6
CONTINUOUS
 10
428.9326774457
 20
127.5281982442
 11
417.3329731693
 21
123.5340997558
  0
LINE
  5
376
100
AcDbEntity
  8
0
100
AcDbLine
 62
7
  6
CONTINUOUS
 10
419.692641405
 20
346.6424919716
 11
424.2442682584
 21
340.4151402884
  0
LINE
  5
377
100
AcDbEntity
  8
0
100
AcDbLine
 62
7
  6
CONTINUOUS
 10
420.4800702574
 20
65.163131718
 11
433.279802058
 21
77.9628635186
  0
LINE
  5
378
100
AcDbEntity
  8
BEZUGSACHSEN
100
AcDbLine
 62
7
  6
CENTER
 10
393.2442682584
 20
329.2597802884
 11
360.7978941748
 21
329.2597802884
  0
LINE
  5
379
100
AcDbEntity
  8
BEZUGSACHSEN
100
AcDbLine
 62
7
  6
CENTER
 10
393.2442682584
 20
329.2597802884
 11
427.5622597227
 21
329.2597802884
  0
LINE
  5
37A
100
AcDbEntity
  8
0
100
AcDbLine
 62
7
  6
CONTINUOUS
 10
366.2350309267
 20
345.8751402884
 11
420.2535055901
 21
345.8751402884
  0
ARC
  5
37B
100
AcDbEntity
  8
0
100
AcDbCircle
 62
9
  6
CONTINUOUS
 10
184.2442131146
 20
699.9137021229
 40
381.3830207818
100
AcDbArc
 50
271.470186781
 51
273.4009573125
  0
ARC
  5
37C
100
AcDbEntity
  8
0
100
AcDbCircle
 62
9
  6
CONTINUOUS
 10
181.4422482198
 20
687.4040866666
 40
368.8639319992
100
AcDbArc
 50
266.5662746516
 51
268.5625812549
  0
ARC
  5
37D
100
AcDbEntity
  8
0
100
AcDbCircle
 62
7
  6
CONTINUOUS
 10
194.109375
 20
136.0710402884
 40
70.9999
100
AcDbArc
 50
180.0
 51
360.0
  0
ARC
  5
37E
100
AcDbEntity
  8
0
100
AcDbCircle
 62
7
  6
CONTINUOUS
 10
183.109275
 20
411.5346636045
 40
60.06
100
AcDbArc
 50
238.9668274905
 51
259.5243183036
  0
ARC
  5
37F
100
AcDbEntity
  8
0
100
AcDbCircle
 62
7
  6
CONTINUOUS
 10
183.109275
 20
411.5346636045
 40
60.06
100
AcDbArc
 50
280.4756816964
 51
301.0331725095
  0
ARC
  5
380
100
AcDbEntity
  8
0
100
AcDbCircle
 62
7
  6
CONTINUOUS
 10
168.8092749999
 20
204.0393134527
 40
54.4226689442
100
AcDbArc
 50
0.0
 51
49.9999999999
  0
ARC
  5
381
100
AcDbEntity
  8
0
100
AcDbCircle
 62
7
  6
CONTINUOUS
 10
213.785275
 20
216.1453521989
 40
51.324
100
AcDbArc
 50
0.0
 51
46.0483761408
  0
ARC
  5
382
100
AcDbEntity
  8
0
100
AcDbCircle
 62
7
  6
CONTINUOUS
 10
284.109275
 20
289.0911402884
 40
50.0
100
AcDbArc
 50
180.0
 51
226.0483761408
  0
ARC
  5
383
100
AcDbEntity
  8
0
100
AcDbCircle
 62
7
  6
CONTINUOUS
 10
73.109475
 20
196.5059112365
 40
50.0
100
AcDbArc
 50
0.0
 51
31.0027191339
  0
ARC
  5
384
100
AcDbEntity
  8
0
100
AcDbCircle
 62
7
  6
CONTINUOUS
 10
182.109275
 20
293.7872718235
 40
50.0
100
AcDbArc
 50
180.0
 51
230.0
  0
ARC
  5
385
100
AcDbEntity
  8
0
100
AcDbCircle
 62
7
  6
CONTINUOUS
 10
168.8092750001
 20
204.0393134528
 40
27.2999999999
100
AcDbArc
 50
0.0
 51
50.0000000001
  0
ARC
  5
386
100
AcDbEntity
  8
0
100
AcDbCircle
 62
7
  6
CONTINUOUS
 10
143.73433004
 20
192.3466745901
 40
26.37494496
100
AcDbArc
 50
0.0
 51
50.0
  0
ARC
  5
387
100
AcDbEntity
  8
0
100
AcDbCircle
 62
7
  6
CONTINUOUS
 10
127.109475
 20
228.9558727157
 40
13.0
100
AcDbArc
 50
130.0
 51
211.0027191339
  0
ARC
  5
388
100
AcDbEntity
  8
0
100
AcDbCircle
 62
7
  6
CONTINUOUS
 10
181.109275
 20
147.5102389284
 40
11.0
100
AcDbArc
 50
180.0
 51
235.524147948
  0
ARC
  5
389
100
AcDbEntity
  8
0
100
AcDbCircle
 62
7
  6
CONTINUOUS
 10
183.109275
 20
300.0111402884
 40
10.92
100
AcDbArc
 50
180.0
 51
360.0
  0
ARC
  5
38A
100
AcDbEntity
  8
0
100
AcDbCircle
 62
7
  6
CONTINUOUS
 10
185.189275
 20
147.4302389284
 40
10.92
100
AcDbArc
 50
304.5386843446
 51
360.0
  0
ARC
  5
38B
100
AcDbEntity
  8
0
100
AcDbCircle
 62
7
  6
CONTINUOUS
 10
139.3385058798
 20
190.2968681204
 40
8.5429392125
100
AcDbArc
 50
0.0000000003
 51
50.0000000017
  0
ARC
  5
38C
100
AcDbEntity
  8
0
100
AcDbCircle
 62
7
  6
CONTINUOUS
 10
124.0111911045
 20
232.8831402884
 40
8.0
100
AcDbArc
 50
50.0
 51
130.0
  0
CIRCLE
  5
38D
100
AcDbEntity
  8
0
100
AcDbCircle
 62
7
  6
CONTINUOUS
 10
144.206231184
 20
331.0185019684
 40
4.368
  0
ARC
  5
38E
100
AcDbEntity
  8
0
100
AcDbCircle
 62
7
  6
CONTINUOUS
 10
338.9745257
 20
237.199651508
 40
36.5785425065
100
AcDbArc
 50
331.9094044365
 51
335.8937057464
  0
ARC
  5
38F
100
AcDbEntity
  8
0
100
AcDbCircle
 62
7
  6
CONTINUOUS
 10
447.3716365449
 20
237.1291574593
 40
36.4197550734
100
AcDbArc
 50
204.0965759083
 51
208.0982501531
  0
ARC
  5
390
100
AcDbEntity
  8
0
100
AcDbCircle
 62
7
  6
CONTINUOUS
 10
393.2442682584
 20
327.3111402884
 40
32.76
100
AcDbArc
 50
36.1634022463
 51
143.8365977537
  0
CIRCLE
  5
391
100
AcDbEntity
  8
0
100
AcDbCircle
 62
7
  6
CONTINUOUS
 10
393.2442682584
 20
329.2597802884
 40
12.831
  0
ARC
  5
392
100
AcDbEntity
  8
0
100
AcDbCircle
 62
7
  6
CONTINUOUS
 10
429.7442682584
 20
81.4983975309
 40
5.0
100
AcDbArc
 50
314.9999982766
 51
22.9999999995
  0
ARC
  5
393
100
AcDbEntity
  8
0
100
AcDbCircle
 62
7
  6
CONTINUOUS
 10
356.7442682584
 20
81.4983975309
 40
5.0
100
AcDbArc
 50
157.0000000005
 51
225.0000017234
  0
SPLINE
  5
394
100
AcDbEntity
  8
0
100
AcDbSpline
 62
7
  6
CONTINUOUS
 70
0
 71
3
 72
9
 73
5
 74
0
 42
0.0000001
 43
0.0000001
 44
0.0000000001
 40
0.0
 40
0.0
 40
0.0
 40
0.0
 40
0.5002117972
 40
1.0
 40
1.0
 40
1.0
 40
1.0
 10
151.2527443343
 20
340.4151402884
 30
0.0
 10
152.1906097056
 20
338.9616816443
 30
0.0
 10
153.9775334988
 20
335.9986265488
 30
0.0
 10
155.340089891
 20
332.7878694656
 30
0.0
 10
155.7973819016
 20
331.1211505361
 30
0.0
  0
SPLINE
  5
395
100
AcDbEntity
  8
0
100
AcDbSpline
 62
7
  6
CONTINUOUS
 70
0
 71
3
 72
9
 73
5
 74
0
 42
0.0000001
 43
0.0000001
 44
0.0000000001
 40
0.0
 40
0.0
 40
0.0
 40
0.0
 40
0.4997881225
 40
1.0
 40
1.0
 40
1.0
 40
1.0
 10
210.4211680984
 20
331.1211505361
 30
0.0
 10
210.8784600337
 20
332.7878691912
 30
0.0
 10
212.2410168826
 20
335.9986260467
 30
0.0
 10
214.0279401476
 20
338.9616814168
 30
0.0
 10
214.9658056658
 20
340.4151402884
 30
0.0
  0
SPLINE
  5
396
100
AcDbEntity
  8
0
100
AcDbSpline
 62
9
  6
CONTINUOUS
 70
0
 71
3
 72
9
 73
5
 74
0
 42
0.0000001
 43
0.0000001
 44
0.0000000001
 40
0.0
 40
0.0
 40
0.0
 40
0.0
 40
0.2403395975
 40
1.0
 40
1.0
 40
1.0
 40
1.0
 10
210.4211680984
 20
331.1211505361
 30
0.0
 10
209.1097610414
 20
331.0273480335
 30
0.0
 10
203.6507831566
 20
330.672398423
 30
0.0
 10
198.1835398904
 20
330.4487203432
 30
0.0
 10
194.029275
 20
330.3411146308
 30
0.0
  0
LINE
  5
397
100
AcDbEntity
  8
0
100
AcDbLine
 62
7
  6
CONTINUOUS
 10
152.1461136073
 20
360.0711402884
 11
152.5365867603
 21
346.6424919716
  0
SPLINE
  5
398
100
AcDbEntity
  8
0
100
AcDbSpline
 62
7
  6
CONTINUOUS
 70
0
 71
3
 72
9
 73
5
 74
0
 42
0.0000001
 43
0.0000001
 44
0.0000000001
 40
0.0
 40
0.0
 40
0.0
 40
0.0
 40
0.4593384662
 40
1.0
 40
1.0
 40
1.0
 40
1.0
 10
220.8108799309
 20
77.9628636249
 30
0.0
 10
220.669633615
 20
78.4900020191
 30
0.0
 10
220.4765063213
 20
79.6675388446
 30
0.0
 10
220.4168221803
 20
80.8560054024
 30
0.0
 10
220.4168208234
 20
81.4983580658
 30
0.0
  0
SPLINE
  5
399
100
AcDbEntity
  8
0
100
AcDbSpline
 62
7
  6
CONTINUOUS
 70
0
 71
3
 72
9
 73
5
 74
0
 42
0.0000001
 43
0.0000001
 44
0.0000000001
 40
0.0
 40
0.0
 40
0.0
 40
0.0
 40
0.2566954855
 40
1.0
 40
1.0
 40
1.0
 40
1.0
 10
220.4168208234
 20
81.4983580658
 30
0.0
 10
220.4168204696
 20
81.6658346181
 30
0.0
 10
220.4244081519
 20
82.3182459765
 30
0.0
 10
220.4701762689
 20
82.9702035847
 30
0.0
 10
220.5249807252
 20
83.4520531733
 30
0.0
  0
SPLINE
  5
39A
100
AcDbEntity
  8
0
100
AcDbSpline
 62
7
  6
CONTINUOUS
 70
0
 71
3
 72
9
 73
5
 74
0
 42
0.0000001
 43
0.0000001
 44
0.0000000001
 40
0.0
 40
0.0
 40
0.0
 40
0.0
 40
0.5039042156
 40
1.0
 40
1.0
 40
1.0
 40
1.0
 10
214.9658056657
 20
340.4151402884
 30
0.0
 10
214.5468375422
 20
341.4044701712
 30
0.0
 10
213.8633584818
 20
343.4386681713
 30
0.0
 10
213.6508588068
 20
345.5852108306
 30
0.0
 10
213.6819662441
 20
346.6424919716
 30
0.0
  0
SPLINE
  5
39B
100
AcDbEntity
  8
0
100
AcDbSpline
 62
7
  6
CONTINUOUS
 70
0
 71
3
 72
9
 73
5
 74
0
 42
0.0000001
 43
0.0000001
 44
0.0000000001
 40
0.0
 40
0.0
 40
0.0
 40
0.0
 40
0.4609210948
 40
1.0
 40
1.0
 40
1.0
 40
1.0
 10
202.381170077
 20
77.9628634194
 30
0.0
 10
202.5697208543
 20
78.48090239
 30
0.0
 10
202.832186183
 20
79.6570866509
 30
0.0
 10
202.9142106664
 20
80.8539474847
 30
0.0
 10
202.9142106665
 20
81.498713846
 30
0.0
  0
SPLINE
  5
39C
100
AcDbEntity
  8
0
100
AcDbSpline
 62
7
  6
CONTINUOUS
 70
0
 71
3
 72
9
 73
5
 74
0
 42
0.0000001
 43
0.0000001
 44
0.0000000001
 40
0.0
 40
0.0
 40
0.0
 40
0.0
 40
0.2564167393
 40
1.0
 40
1.0
 40
1.0
 40
1.0
 10
202.9142106665
 20
81.498713846
 30
0.0
 10
202.9142106665
 20
81.6662159729
 30
0.0
 10
202.9021414786
 20
82.31935546
 30
0.0
 10
202.8436818507
 20
82.9720007425
 30
0.0
 10
202.7695168267
 20
83.4520450723
 30
0.0
  0
LINE
  5
39D
100
AcDbEntity
  8
0
100
AcDbLine
 62
7
  6
CONTINUOUS
 10
213.6823886468
 20
346.6424919716
 11
214.0724363927
 21
360.0711402884
  0
SPLINE
  5
39E
100
AcDbEntity
  8
0
100
AcDbSpline
 62
7
  6
CONTINUOUS
 70
0
 71
3
 72
9
 73
5
 74
0
 42
0.0000001
 43
0.0000001
 44
0.0000000001
 40
0.0
 40
0.0
 40
0.0
 40
0.0
 40
0.4609263855
 40
1.0
 40
1.0
 40
1.0
 40
1.0
 10
163.8373797931
 20
77.9628637762
 30
0.0
 10
163.6488435692
 20
78.4808627631
 30
0.0
 10
163.3864131128
 20
79.6569421952
 30
0.0
 10
163.3043393463
 20
80.8536946622
 30
0.0
 10
163.3043543375
 20
81.4983975306
 30
0.0
  0
SPLINE
  5
39F
100
AcDbEntity
  8
0
100
AcDbSpline
 62
7
  6
CONTINUOUS
 70
0
 71
3
 72
9
 73
5
 74
0
 42
0.0000001
 43
0.0000001
 44
0.0000000001
 40
0.0
 40
0.0
 40
0.0
 40
0.0
 40
0.2564144649
 40
1.0
 40
1.0
 40
1.0
 40
1.0
 10
163.3043543375
 20
81.4983975306
 30
0.0
 10
163.3043582331
 20
81.6659256924
 30
0.0
 10
163.3164024225
 20
82.3191723529
 30
0.0
 10
163.3748496251
 20
82.9719285026
 30
0.0
 10
163.4490270614
 20
83.4520531733
 30
0.0
  0
SPLINE
  5
3A0
100
AcDbEntity
  8
0
100
AcDbSpline
 62
7
  6
CONTINUOUS
 70
0
 71
3
 72
9
 73
5
 74
0
 42
0.0000001
 43
0.0000001
 44
0.0000000001
 40
0.0
 40
0.0
 40
0.0
 40
0.0
 40
0.4961078487
 40
1.0
 40
1.0
 40
1.0
 40
1.0
 10
152.5365837559
 20
346.6424919716
 30
0.0
 10
152.5676925051
 20
345.5851847262
 30
0.0
 10
152.3552082709
 20
343.4386371574
 30
0.0
 10
151.6717025891
 20
341.4044468677
 30
0.0
 10
151.2527443342
 20
340.4151402884
 30
0.0
  0
SPLINE
  5
3A1
100
AcDbEntity
  8
0
100
AcDbSpline
 62
9
  6
CONTINUOUS
 70
0
 71
3
 72
9
 73
5
 74
0
 42
0.0000001
 43
0.0000001
 44
0.0000000001
 40
0.0
 40
0.0
 40
0.0
 40
0.0
 40
0.2583792612
 40
1.0
 40
1.0
 40
1.0
 40
1.0
 10
172.189275
 20
330.3411146308
 30
0.0
 10
170.7763102014
 20
330.3777139059
 30
0.0
 10
165.3085631513
 20
330.5479389917
 30
0.0
 10
159.8440077114
 20
330.8317029341
 30
0.0
 10
155.7973819016
 20
331.1211505361
 30
0.0
  0
SPLINE
  5
3A2
100
AcDbEntity
  8
0
100
AcDbSpline
 62
7
  6
CONTINUOUS
 70
0
 71
3
 72
13
 73
9
 74
0
 42
0.0000001
 43
0.0000001
 44
0.0000000001
 40
0.0
 40
0.0
 40
0.0
 40
0.0
 40
0.2502401768
 40
0.5004266133
 40
0.6255605548
 40
0.7506657712
 40
0.8756532903
 40
1.0
 40
1.0
 40
1.0
 40
1.0
 10
172.189275
 20
311.9820092712
 30
0.0
 10
170.9583036798
 20
312.2707181227
 30
0.0
 10
168.5203641147
 20
312.9545850592
 30
0.0
 10
165.5696022938
 20
314.1101533816
 30
0.0
 10
163.321188097
 20
315.2710297001
 30
0.0
 10
161.721011829
 20
316.2979146457
 30
0.0
 10
160.2805664367
 20
317.5282876991
 30
0.0
 10
159.5438486462
 20
318.6048840235
 30
0.0
 10
159.349531954
 20
319.2023590526
 30
0.0
  0
SPLINE
  5
3A3
100
AcDbEntity
  8
0
100
AcDbSpline
 62
7
  6
CONTINUOUS
 70
0
 71
3
 72
13
 73
9
 74
0
 42
0.0000001
 43
0.0000001
 44
0.0000000001
 40
0.0
 40
0.0
 40
0.0
 40
0.0
 40
0.1243471183
 40
0.2493346135
 40
0.3744397381
 40
0.4995735811
 40
0.7497599247
 40
1.0
 40
1.0
 40
1.0
 40
1.0
 10
206.869018046
 20
319.2023590526
 30
0.0
 10
206.6747007187
 20
318.6048820707
 30
0.0
 10
205.9379802784
 20
317.5282848556
 30
0.0
 10
204.4975334166
 20
316.2979116024
 30
0.0
 10
202.897357733
 20
315.271027764
 30
0.0
 10
200.6489448983
 20
314.1101520824
 30
0.0
 10
197.6981843464
 20
312.9545846881
 30
0.0
 10
195.2602457982
 20
312.2707180003
 30
0.0
 10
194.029275
 20
311.9820092712
 30
0.0
  0
SPLINE
  5
3A4
100
AcDbEntity
  8
0
100
AcDbSpline
 62
7
  6
CONTINUOUS
 70
0
 71
3
 72
11
 73
7
 74
0
 42
0.0000001
 43
0.0000001
 44
0.0000000001
 40
0.0
 40
0.0
 40
0.0
 40
0.0
 40
0.1415328112
 40
0.3545619532
 40
0.6433442926
 40
1.0
 40
1.0
 40
1.0
 40
1.0
 10
400.7725763832
 20
240.8831382909
 30
0.0
 10
400.9031024914
 20
240.8831415803
 30
0.0
 10
401.2172102524
 20
240.7358840198
 30
0.0
 10
401.6568217869
 20
240.3426781186
 30
0.0
 10
402.1840905902
 20
239.7475699706
 30
0.0
 10
402.5462524309
 20
239.2756640413
 30
0.0
 10
402.7422195255
 20
239.0114958333
 30
0.0
  0
SPLINE
  5
3A5
100
AcDbEntity
  8
0
100
AcDbSpline
 62
7
  6
CONTINUOUS
 70
0
 71
3
 72
11
 73
7
 74
0
 42
0.0000001
 43
0.0000001
 44
0.0000000001
 40
0.0
 40
0.0
 40
0.0
 40
0.0
 40
0.1415388911
 40
0.3547107909
 40
0.6435257205
 40
1.0
 40
1.0
 40
1.0
 40
1.0
 10
385.715869806
 20
240.8831645812
 30
0.0
 10
385.5853427132
 20
240.8833056312
 30
0.0
 10
385.2709221803
 20
240.7361599007
 30
0.0
 10
384.831985246
 20
240.3419166111
 30
0.0
 10
384.3047846075
 20
239.7469120147
 30
0.0
 10
383.9421775773
 20
239.2755204652
 30
0.0
 10
383.7463169913
 20
239.0114958333
 30
0.0
  0
SPLINE
  5
3A6
100
AcDbEntity
  8
0
100
AcDbSpline
 62
7
  6
CONTINUOUS
 70
0
 71
3
 72
10
 73
6
 74
0
 42
0.0000001
 43
0.0000001
 44
0.0000000001
 40
0.0
 40
0.0
 40
0.0
 40
0.0
 40
0.2171989375
 40
0.4636812554
 40
1.0
 40
1.0
 40
1.0
 40
1.0
 10
402.8145478724
 20
238.9144504762
 30
0.0
 10
403.3484889995
 20
238.2013770186
 30
0.0
 10
404.4722520801
 20
236.6670764837
 30
0.0
 10
406.884014864
 20
233.349809229
 30
0.0
 10
408.7784455149
 20
230.7572807116
 30
0.0
 10
410.0407713335
 20
228.9558726943
 30
0.0
  0
SPLINE
  5
3A7
100
AcDbEntity
  8
0
100
AcDbSpline
 62
7
  6
CONTINUOUS
 70
0
 71
3
 72
10
 73
6
 74
0
 42
0.0000001
 43
0.0000001
 44
0.0000000001
 40
0.0
 40
0.0
 40
0.0
 40
0.0
 40
0.5149246245
 40
0.7637734656
 40
1.0
 40
1.0
 40
1.0
 40
1.0
 10
410.0407713335
 20
228.9558726943
 30
0.0
 10
410.8143165126
 20
227.8519813955
 30
0.0
 10
411.9429836553
 20
226.1999620739
 30
0.0
 10
413.2902114394
 20
223.9546749243
 30
0.0
 10
413.8729426864
 20
222.8242975628
 30
0.0
 10
414.1255155422
 20
222.2598489184
 30
0.0
  0
SPLINE
  5
3A8
100
AcDbEntity
  8
0
100
AcDbSpline
 62
7
  6
CONTINUOUS
 70
0
 71
3
 72
10
 73
6
 74
0
 42
0.0000001
 43
0.0000001
 44
0.0000000001
 40
0.0
 40
0.0
 40
0.0
 40
0.0
 40
0.2172213344
 40
0.4636412838
 40
1.0
 40
1.0
 40
1.0
 40
1.0
 10
383.6739886444
 20
238.9144504762
 30
0.0
 10
383.1399924075
 20
238.2013034198
 30
0.0
 10
382.0175071554
 20
236.6662681676
 30
0.0
 10
379.6025065505
 20
233.3513620951
 30
0.0
 10
377.7102024928
 20
230.7574030292
 30
0.0
 10
376.4477824717
 20
228.9558605797
 30
0.0
  0
SPLINE
  5
3A9
100
AcDbEntity
  8
0
100
AcDbSpline
 62
7
  6
CONTINUOUS
 70
0
 71
3
 72
10
 73
6
 74
0
 42
0.0000001
 43
0.0000001
 44
0.0000000001
 40
0.0
 40
0.0
 40
0.0
 40
0.0
 40
0.5149249779
 40
0.7637744166
 40
1.0
 40
1.0
 40
1.0
 40
1.0
 10
376.4477824717
 20
228.9558605797
 30
0.0
 10
375.6742367218
 20
227.8519684664
 30
0.0
 10
374.5454877007
 20
226.2000017118
 30
0.0
 10
373.1982825834
 20
223.9546970169
 30
0.0
 10
372.6156002881
 20
222.824296808
 30
0.0
 10
372.3630284362
 20
222.2598504071
 30
0.0
  0
SPLINE
  5
3AA
100
AcDbEntity
  8
0
100
AcDbSpline
 62
9
  6
CONTINUOUS
 70
0
 71
3
 72
9
 73
5
 74
0
 42
0.0000001
 43
0.0000001
 44
0.0000000001
 40
0.0
 40
0.0
 40
0.0
 40
0.0
 40
0.5163037684
 40
1.0
 40
1.0
 40
1.0
 40
1.0
 10
362.2442682584
 20
245.7294965771
 30
0.0
 10
365.7518138812
 20
244.5268686332
 30
0.0
 10
372.3223638406
 20
241.4589225497
 30
0.0
 10
377.9655024694
 20
236.8592283802
 30
0.0
 10
380.3077706077
 20
234.2938569005
 30
0.0
  0
SPLINE
  5
3AB
100
AcDbEntity
  8
0
100
AcDbSpline
 62
7
  6
CONTINUOUS
 70
0
 71
3
 72
14
 73
10
 74
0
 42
0.0000001
 43
0.0000001
 44
0.0000000001
 40
0.0
 40
0.0
 40
0.0
 40
0.0
 40
0.1411568861
 40
0.2812058465
 40
0.4184758313
 40
0.5511411231
 40
0.7950228219
 40
0.9031193593
 40
1.0
 40
1.0
 40
1.0
 40
1.0
 10
375.5901664433
 20
293.7872718235
 30
0.0
 10
376.735896263
 20
292.2701327834
 30
0.0
 10
378.8017246133
 20
289.0787923703
 30
0.0
 10
381.2409520089
 20
283.9841593612
 30
0.0
 10
383.0742908809
 20
278.7657475794
 30
0.0
 10
384.7872989905
 20
272.0543687637
 30
0.0
 10
385.7512289608
 20
265.5804797635
 30
0.0
 10
386.1996909181
 20
259.5509961837
 30
0.0
 10
386.2780140437
 20
256.7898783695
 30
0.0
 10
386.2780140437
 20
255.4850496672
 30
0.0
  0
SPLINE
  5
3AC
100
AcDbEntity
  8
0
100
AcDbSpline
 62
7
  6
CONTINUOUS
 70
0
 71
3
 72
14
 73
10
 74
0
 42
0.0000001
 43
0.0000001
 44
0.0000000001
 40
0.0
 40
0.0
 40
0.0
 40
0.0
 40
0.1411578619
 40
0.2812039371
 40
0.4184886169
 40
0.5511361398
 40
0.7950326815
 40
0.9031238048
 40
1.0
 40
1.0
 40
1.0
 40
1.0
 10
410.8983700735
 20
293.7872718235
 30
0.0
 10
409.7526329208
 20
292.2701230733
 30
0.0
 10
407.6871475054
 20
289.0786284185
 30
0.0
 10
405.2471195382
 20
283.9841554338
 30
0.0
 10
403.415056111
 20
278.7653976464
 30
0.0
 10
401.7001704997
 20
272.0543595023
 30
0.0
 10
400.7376863614
 20
265.58029629
 30
0.0
 10
400.2886699073
 20
259.5508129362
 30
0.0
 10
400.2105224732
 20
256.7898178289
 30
0.0
 10
400.2105224732
 20
255.4850496676
 30
0.0
  0
SPLINE
  5
3AD
100
AcDbEntity
  8
0
100
AcDbSpline
 62
9
  6
CONTINUOUS
 70
0
 71
3
 72
9
 73
5
 74
0
 42
0.0000001
 43
0.0000001
 44
0.0000000001
 40
0.0
 40
0.0
 40
0.0
 40
0.0
 40
0.4836900053
 40
1.0
 40
1.0
 40
1.0
 40
1.0
 10
406.1811836959
 20
234.2943172316
 30
0.0
 10
408.5234126234
 20
236.8595293073
 30
0.0
 10
414.1664130636
 20
241.4590396958
 30
0.0
 10
420.7367807436
 20
244.5268885566
 30
0.0
 10
424.2442682584
 20
245.7294965771
 30
0.0
  0
ELLIPSE
  5
3AE
100
AcDbEntity
  8
0
100
AcDbEllipse
 62
7
  6
CONTINUOUS
 10
183.109275
 20
712.9554126806
 30
0.0
 11
0.0
 21
-428.7274101963
 31
0.0
 40
0.1400890136
 41
0.4067211808
 42
0.4720841639
  0
ELLIPSE
  5
3AF
100
AcDbEntity
  8
0
100
AcDbEllipse
 62
7
  6
CONTINUOUS
 10
183.109275
 20
64.9451429097
 30
0.0
 11
0.0
 21
103.5591274708
 31
0.0
 40
0.4244748162
 41
-1.1499538425
 42
-0.3002250674
  0
ELLIPSE
  5
3B0
100
AcDbEntity
  8
0
100
AcDbEllipse
 62
7
  6
CONTINUOUS
 10
183.109275
 20
712.9554126806
 30
0.0
 11
-0.0
 21
428.7274101963
 31
0.0
 40
0.1400890136
 41
-3.6136768175
 42
-3.5483138343
  0
ELLIPSE
  5
3B1
100
AcDbEntity
  8
0
100
AcDbEllipse
 62
7
  6
CONTINUOUS
 10
167.7262133565
 20
108.2511355417
 30
0.0
 11
-0.0
 21
16.1635790227
 31
0.0
 40
0.3639702343
 41
-1.5707963268
 42
-0.3316125579
  0
ELLIPSE
  5
3B2
100
AcDbEntity
  8
0
100
AcDbEllipse
 62
7
  6
CONTINUOUS
 10
198.4923366435
 20
108.2511355417
 30
0.0
 11
-0.0
 21
16.1635790227
 31
0.0
 40
0.3639702343
 41
0.3316125579
 42
1.5707963268
  0
ELLIPSE
  5
3B3
100
AcDbEntity
  8
0
100
AcDbEllipse
 62
7
  6
CONTINUOUS
 10
183.109275
 20
62.4909139185
 30
0.0
 11
0.0
 21
106.0133564621
 31
0.0
 40
0.4244748162
 41
0.2930660383
 42
0.8992181502
  0
ELLIPSE
  5
3B4
100
AcDbEntity
  8
0
100
AcDbEllipse
 62
7
  6
CONTINUOUS
 10
350.1081788919
 20
136.0710402884
 30
0.0
 11
195.0706220335
 21
0.0
 31
0.0
 40
0.3639702343
 41
-1.2778918528
 42
-1.1713192564
  0
ELLIPSE
  5
3B5
100
AcDbEntity
  8
0
100
AcDbEllipse
 62
7
  6
CONTINUOUS
 10
443.2442682584
 20
251.8115459837
 30
0.0
 11
45.0
 21
0.0
 31
0.0
 40
0.6527036447
 41
-2.6906703001
 42
-2.6869960459
  0
ELLIPSE
  5
3B6
100
AcDbEntity
  8
0
100
AcDbEllipse
 62
7
  6
CONTINUOUS
 10
436.380357625
 20
136.0710402884
 30
0.0
 11
195.0706220335
 21
-0.0
 31
0.0
 40
0.3639702343
 41
-1.9702733972
 42
-1.8637008008
  0
ELLIPSE
  5
3B7
100
AcDbEntity
  8
0
100
AcDbEllipse
 62
7
  6
CONTINUOUS
 10
343.2442682584
 20
251.8115459837
 30
0.0
 11
45.0
 21
0.0
 31
0.0
 40
0.6527036447
 41
-0.4545966077
 42
-0.4509223535
  0
ELLIPSE
  5
3B8
100
AcDbEntity
  8
0
100
AcDbEllipse
 62
7
  6
CONTINUOUS
 10
375.9353049015
 20
136.0710402884
 30
0.0
 11
195.0706220335
 21
0.0
 31
0.0
 40
0.3639702343
 41
4.6614785562
 42
4.7335187514
  0
ELLIPSE
  5
3B9
100
AcDbEntity
  8
0
100
AcDbEllipse
 62
7
  6
CONTINUOUS
 10
344.2860266584
 20
253.5015941544
 30
0.0
 11
0.0
 21
-57.3834090109
 31
0.0
 40
0.7660444431
 41
2.349060018
 42
2.7207501692
  0
ELLIPSE
  5
3BA
100
AcDbEntity
  8
0
100
AcDbEllipse
 62
7
  6
CONTINUOUS
 10
410.5532316154
 20
136.0710402884
 30
0.0
 11
195.0706220335
 21
0.0
 31
0.0
 40
0.3639702343
 41
-1.5919260978
 42
-1.5198859026
  0
ELLIPSE
  5
3BB
100
AcDbEntity
  8
0
100
AcDbEllipse
 62
7
  6
CONTINUOUS
 10
442.2025098584
 20
253.5015941544
 30
0.0
 11
0.0
 21
57.3834090109
 31
0.0
 40
0.7660444431
 41
0.4208424843
 42
0.7925326355
  0
ENDSEC
  0
SECTION
  2
OBJECTS
  0
DICTIONARY
  5
C
100
AcDbDictionary
280
0
281
1
  3
ACAD_GROUP
350
D
  3
ACAD_MLINESTYLE
350
17
  3
ACAD_LAYOUT
350
1A
  3
ACAD_PLOTSETTINGS
350
19
  3
ACAD_PLOTSTYLENAME
350
E
  0
DICTIONARY
  5
D
102
{ACAD_REACTORS
330
C
102
}
100
AcDbDictionary
280
0
281
1
  0
ACDBDICTIONARYWDFLT
  5
E
102
{ACAD_REACTORS
330
C
102
}
100
AcDbDictionary
281
1
  3
Normal
350
F
100
AcDbDictionaryWithDefault
340
F
  0
DICTIONARY
  5
17
102
{ACAD_REACTORS
330
C
102
}
100
AcDbDictionary
280
0
281
1
  3
Standard
350
18
  0
DICTIONARY
  5
19
102
{ACAD_REACTORS
330
C
102
}
100
AcDbDictionary
281
1
  0
DICTIONARY
  5
1A
102
{ACAD_REACTORS
330
C
102
}
100
AcDbDictionary
281
1
  3
Model
350
3BC
  3
Layout1
350
3BD
  0
ACDBPLACEHOLDER
  5
F
102
{ACAD_REACTORS
330
E
102
}
  0
MLINESTYLE
  5
18
102
{ACAD_REACTORS
330
17
102
}
100
AcDbMlineStyle
  2
STANDARD
 70
0
  3

 62
256
 51
90.0
 52
90.0
 71
2
 49
0.5
 62
256
  6
BYLAYER
 49
-0.5
 62
256
  6
BYLAYER
  0
LAYOUT
  5
3BC
102
{ACAD_REACTORS
330
1A
102
}
100
AcDbPlotSettings
  1

  2
none_device
  4
ISO_A2_(594.00_x_420.00_MM)
  6

 40
0.0
 41
0.0
 42
0.0
 43
0.0
 44
594.0
 45
420.0
 46
0.0
 47
0.0
 48
0.0
 49
0.0
140
0.0
141
0.0
142
1.0
143
1.0
 70
1024
 72
1
 73
0
 74
0
  7

 75
0
147
1.0
148
0.0
149
0.0
100
AcDbLayout
  1
Model
 70
0
 71
0
 10
0.0
 20
0.0
 11
594.0
 21
420.0
 12
0.0
 22
0.0
 32
0.0
 14
0.0
 24
0.0
 34
0.0
 15
0.0
 25
0.0
 35
0.0
146
0.0
 13
0.0
 23
0.0
 33
0.0
 16
1.0
 26
0.0
 36
0.0
 17
0.0
 27
1.0
 37
0.0
 76
0
330
201
345
0
346
0
  0
LAYOUT
  5
3BD
102
{ACAD_REACTORS
330
1A
102
}
100
AcDbPlotSettings
  1

  2
none_device
  4
ISO_A2_(594.00_x_420.00_MM)
  6

 40
0.0
 41
0.0
 42
0.0
 43
0.0
 44
594.0
 45
420.0
 46
0.0
 47
0.0
 48
0.0
 49
0.0
140
0.0
141
0.0
142
1.0
143
1.0
 70
0
 72
1
 73
0
 74
0
  7

 75
0
147
1.0
148
0.0
149
0.0
100
AcDbLayout
  1
Layout1
 70
0
 71
1
 10
0.0
 20
0.0
 11
594.0
 21
420.0
 12
0.0
 22
0.0
 32
0.0
 14
0.0
 24
0.0
 34
0.0
 15
0.0
 25
0.0
 35
0.0
146
0.0
 13
0.0
 23
0.0
 33
0.0
 16
1.0
 26
0.0
 36
0.0
 17
0.0
 27
1.0
 37
0.0
 76
0
330
202
345
0
346
0
  0
ENDSEC
  0
EOF
