999
DXF file: vvh-20.dxf
999
Pro/ENGINEER 2011490 by Parametric Technology Corporation
  0
SECTION
  2
HEADER
  9
$ACADVER
  1
AC1021
  9
$DWGCODEPAGE
  3
ANSI_1252
  9
$EXTMAX
 10
420.0
 20
297.0
 30
0.0
  9
$EXTMIN
 10
0.0
 20
0.0
 30
0.0
  9
$LIMMIN
 10
0.0
 20
0.0
  9
$LIMMAX
 10
420.0
 20
297.0
  9
$VIEWCTR
 10
210.0
 20
148.5
  9
$VIEWSIZE
 40
297.0
  9
$CLAYER
  8
0
  9
$LTSCALE
 40
23.1
  9
$CELTYPE
  6
BYLAYER
  9
$DIMSCALE
 40
1.0
  9
$DIMASZ
 40
3.5
  9
$DIMEXO
 40
2.625
  9
$DIMDLI
 40
15.96
  9
$DIMEXE
 40
7.56
  9
$DIMCEN
 40
3.78
  9
$DIMLFAC
 40
1.0
  9
$DIMBLK
  1
_FILLED
  9
$DIMTXT
 40
3.5
  9
$DIMTOL
 70
1
  9
$DIMLIM
 70
0
  9
$DIMTFAC
 40
1.0
  9
$DIMTP
 40
0.005
  9
$DIMTM
 40
0.005
  9
$PDMODE
 70
3
  9
$PDSIZE
 40
0.3125
  9
$HANDSEED
  5
3C9
  9
$TILEMODE
 70
1
  9
$MEASUREMENT
 70
1
  9
$INSUNITS
 70
4
  0
ENDSEC
  0
SECTION
  2
CLASSES
  0
CLASS
  1
ACDBDICTIONARYWDFLT
  2
AcDbDictionaryWithDefault
  3
AutoCAD 2000
 90
0
 91
1
280
0
281
0
  0
CLASS
  1
ACDBPLACEHOLDER
  2
AcDbPlaceHolder
  3
AutoCAD 2000
 90
0
 91
1
280
0
281
0
  0
CLASS
  1
LAYOUT
  2
AcDbLayout
  3
AutoCAD 2000
 90
0
 91
0
280
0
281
0
  0
ENDSEC
  0
SECTION
  2
TABLES
  0
TABLE
  2
VPORT
  5
8
100
AcDbSymbolTable
 70
2
  0
VPORT
  5
1F4
100
AcDbSymbolTableRecord
100
AcDbViewportTableRecord
  2
*ACTIVE
 70
0
 10
0.0
 20
0.0
 11
1.0
 21
1.0
 12
210.0
 22
148.5
 13
0.0
 23
0.0
 14
1.0
 24
1.0
 15
0.0
 25
0.0
 16
0.0
 26
0.0
 36
1.0
 17
0.0
 27
0.0
 37
0.0
 40
297.0
 41
1.4141414141
 42
50.0
 43
0.0
 44
0.0
 50
0.0
 51
0.0
 71
0
 72
100
 73
1
 74
1
 75
0
 76
0
 77
0
 78
0
  0
ENDTAB
  0
TABLE
  2
LTYPE
  5
5
100
AcDbSymbolTable
 70
6
  0
LTYPE
  5
14
100
AcDbSymbolTableRecord
100
AcDbLinetypeTableRecord
  2
BYBLOCK
 70
0
  3

 72
65
 73
0
 40
0.0
  0
LTYPE
  5
15
100
AcDbSymbolTableRecord
100
AcDbLinetypeTableRecord
  2
BYLAYER
 70
0
  3

 72
65
 73
0
 40
0.0
  0
LTYPE
  5
16
100
AcDbSymbolTableRecord
100
AcDbLinetypeTableRecord
  2
CONTINUOUS
 70
64
  3
Solid line
 72
65
 73
0
 40
0.0
  0
LTYPE
  5
1F5
100
AcDbSymbolTableRecord
100
AcDbLinetypeTableRecord
  2
CENTER
 70
64
  3
____ _ ____ _ ____ _ ____ _ ____ _ ____ _ ____
 72
65
 73
4
 40
0.6
 49
0.375
 74
0
 49
-0.075
 74
0
 49
0.075
 74
0
 49
-0.075
 74
0
  0
LTYPE
  5
1F6
100
AcDbSymbolTableRecord
100
AcDbLinetypeTableRecord
  2
HIDDEN
 70
64
  3
- - - - - - - - - - - - - - - - - - - -
 72
65
 73
2
 40
0.2
 49
0.1
 74
0
 49
-0.1
 74
0
  0
LTYPE
  5
1F7
100
AcDbSymbolTableRecord
100
AcDbLinetypeTableRecord
  2
PHANTOM
 70
64
  3
_____ _ _ _____ _ _ _____ _ _ _____
 72
65
 73
6
 40
0.8
 49
0.45
 74
0
 49
-0.05
 74
0
 49
0.1
 74
0
 49
-0.05
 74
0
 49
0.1
 74
0
 49
-0.05
 74
0
  0
LTYPE
  5
1F8
100
AcDbSymbolTableRecord
100
AcDbLinetypeTableRecord
  2
DOT
 70
64
  3
. . . . . . . . . . . . . . . . . . . .
 72
65
 73
2
 40
0.2
 49
0.1
 74
0
 49
-0.1
 74
0
  0
LTYPE
  5
1F9
100
AcDbSymbolTableRecord
100
AcDbLinetypeTableRecord
  2
DASHED
 70
64
  3
- - - - - - - - - - - - - - - - - - - -
 72
65
 73
2
 40
0.2
 49
0.1
 74
0
 49
-0.1
 74
0
  0
ENDTAB
  0
TABLE
  2
LAYER
  5
2
100
AcDbSymbolTable
 70
36
  0
LAYER
  5
10
100
AcDbSymbolTableRecord
100
AcDbLayerTableRecord
  2
0
 70
0
 62
7
  6
CONTINUOUS
370
-3
390
F
  0
LAYER
  5
1FA
100
AcDbSymbolTableRecord
100
AcDbLayerTableRecord
  2
DEFAULT_1
 70
0
 62
7
  6
CENTER
370
-3
390
F
  0
LAYER
  5
1FB
100
AcDbSymbolTableRecord
100
AcDbLayerTableRecord
  2
DEFAULT_2
 70
0
 62
8
  6
HIDDEN
370
-3
390
F
  0
LAYER
  5
1FC
100
AcDbSymbolTableRecord
100
AcDbLayerTableRecord
  2
DEFAULT_3
 70
0
 62
7
  6
PHANTOM
370
-3
390
F
  0
LAYER
  5
1FD
100
AcDbSymbolTableRecord
100
AcDbLayerTableRecord
  2
BEZUGSACHSEN
 70
0
 62
7
  6
CONTINUOUS
370
-3
390
F
  0
LAYER
  5
1FE
100
AcDbSymbolTableRecord
100
AcDbLayerTableRecord
  2
BEZUGSEBENEN
 70
0
 62
7
  6
CONTINUOUS
370
-3
390
F
  0
ENDTAB
  0
TABLE
  2
STYLE
  5
3
100
AcDbSymbolTable
 70
1
  0
STYLE
  5
11
100
AcDbSymbolTableRecord
100
AcDbTextStyleTableRecord
  2
STANDARD
 70
0
 40
0.0
 41
0.7
 50
0.0
 71
0
 42
0.2
  3
txt
  4

  0
STYLE
  5
1FF
100
AcDbSymbolTableRecord
100
AcDbTextStyleTableRecord
  2
TEXTSTYLE_1
 70
0
 40
0.0
 41
0.8
 50
0.0
 71
0
 42
0.2
  3
gdt
  4

  0
ENDTAB
  0
TABLE
  2
VIEW
  5
6
100
AcDbSymbolTable
 70
0
  0
ENDTAB
  0
TABLE
  2
UCS
  5
7
100
AcDbSymbolTable
 70
0
  0
ENDTAB
  0
TABLE
  2
APPID
  5
9
100
AcDbSymbolTable
 70
1
  0
APPID
  5
200
100
AcDbSymbolTableRecord
100
AcDbRegAppTableRecord
  2
ACAD
 70
0
  0
ENDTAB
  0
TABLE
  2
BLOCK_RECORD
  5
1
100
AcDbSymbolTable
 70
0
  0
BLOCK_RECORD
  5
201
100
AcDbSymbolTableRecord
100
AcDbBlockTableRecord
  2
*Model_Space
  0
BLOCK_RECORD
  5
202
100
AcDbSymbolTableRecord
100
AcDbBlockTableRecord
  2
*Paper_Space
  0
ENDTAB
  0
TABLE
  2
DIMSTYLE
  5
A
100
AcDbSymbolTable
 70
1
100
AcDbDimStyleTable
 71
0
  0
DIMSTYLE
105
203
100
AcDbSymbolTableRecord
100
AcDbDimStyleTableRecord
  2
STANDARD
 70
0
  3

  4

 40
1.0
 41
3.5
 42
0.0625
 43
0.38
 44
0.18
 45
0.0
 46
0.0
 47
0.005
 48
0.005
140
3.5
141
0.09
142
0.0
143
25.4
144
1.0
145
0.0
146
1.0
147
0.09
 71
1.0
 72
0.0
 73
0
 74
0
 75
0
 76
0
 77
1
 78
8
170
0
171
2
172
0
173
0
174
0
175
0
176
0
177
0
178
5
270
2
271
3
272
3
273
2
274
2
275
0
280
0
281
0
282
0
283
1
284
8
285
0
286
0
287
3
288
0
340
11
  0
ENDTAB
  0
ENDSEC
  0
SECTION
  2
BLOCKS
  0
BLOCK
  5
20
100
AcDbEntity
  8
0
100
AcDbBlockBegin
  2
*Model_Space
 70
0
 10
0.0
 20
0.0
 30
0.0
  3
*Model_Space
  1

  0
ENDBLK
  5
21
100
AcDbEntity
  8
0
100
AcDbBlockEnd
  0
BLOCK
  5
1C
100
AcDbEntity
  8
0
100
AcDbBlockBegin
  2
*Paper_Space
 70
0
 10
0.0
 20
0.0
 30
0.0
  3
*Paper_Space
  1

  0
ENDBLK
  5
1D
100
AcDbEntity
  8
0
100
AcDbBlockEnd
  0
ENDSEC
  0
SECTION
  2
ENTITIES
  0
MTEXT
  5
204
100
AcDbEntity
  8
0
100
AcDbMText
 62
5
  6
CONTINUOUS
  7
STANDARD
 71
1
 72
1
 10
249.0791167515
 20
25.5306777055
 30
0.0
 11
0.0
 21
1.0
 31
0.0
 44
0.9
  1
RUD\PVVH-20
 40
10.0
 41
47.380952381
  0
LINE
  5
205
100
AcDbEntity
  8
0
100
AcDbLine
 62
7
  6
CONTINUOUS
 10
0.0
 20
0.0
 11
0.0
 21
297.0
  0
LINE
  5
206
100
AcDbEntity
  8
0
100
AcDbLine
 62
7
  6
CONTINUOUS
 10
0.0
 20
0.0
 11
420.0
 21
0.0
  0
LINE
  5
207
100
AcDbEntity
  8
0
100
AcDbLine
 62
7
  6
CONTINUOUS
 10
0.0
 20
297.0
 11
420.0
 21
297.0
  0
LINE
  5
208
100
AcDbEntity
  8
0
100
AcDbLine
 62
7
  6
CONTINUOUS
 10
420.0
 20
0.0
 11
420.0
 21
297.0
  0
LINE
  5
209
100
AcDbEntity
  8
0
100
AcDbLine
 62
9
  6
CONTINUOUS
 10
148.5082259148
 20
26.0589116407
 11
129.2724028718
 21
26.0589116407
  0
LINE
  5
20A
100
AcDbEntity
  8
0
100
AcDbLine
 62
9
  6
CONTINUOUS
 10
94.1181308361
 20
26.0589116407
 11
87.6118659714
 21
26.0589116407
  0
LINE
  5
20B
100
AcDbEntity
  8
0
100
AcDbLine
 62
7
  6
CONTINUOUS
 10
76.6036183078
 20
284.1665670546
 11
65.6952668539
 21
271.1665000201
  0
LINE
  5
20C
100
AcDbEntity
  8
0
100
AcDbLine
 62
9
  6
CONTINUOUS
 10
76.4656433332
 20
34.8975607016
 11
93.4928080545
 21
34.8975607016
  0
LINE
  5
20D
100
AcDbEntity
  8
0
100
AcDbLine
 62
9
  6
CONTINUOUS
 10
129.8977256534
 20
34.8975607016
 11
148.5082259148
 21
34.8975607016
  0
LINE
  5
20E
100
AcDbEntity
  8
0
100
AcDbLine
 62
7
  6
CONTINUOUS
 10
170.5933468539
 20
63.3331867082
 11
166.1252616841
 21
62.0688908251
  0
LINE
  5
20F
100
AcDbEntity
  8
0
100
AcDbLine
 62
7
  6
CONTINUOUS
 10
162.9337721069
 20
63.3331867081
 11
162.2954743106
 21
63.175149864
  0
LINE
  5
210
100
AcDbEntity
  8
0
100
AcDbLine
 62
7
  6
CONTINUOUS
 10
162.2954743107
 20
64.1233718329
 11
162.9337721068
 21
64.2814086769
  0
LINE
  5
211
100
AcDbEntity
  8
0
100
AcDbLine
 62
7
  6
CONTINUOUS
 10
167.1890916428
 20
66.651964051
 11
168.0401553708
 21
66.8100004429
  0
LINE
  5
212
100
AcDbEntity
  8
0
100
AcDbLine
 62
7
  6
CONTINUOUS
 10
168.2529213031
 20
65.8617789264
 11
167.1890916426
 21
65.7037416301
  0
LINE
  5
213
100
AcDbEntity
  8
0
100
AcDbLine
 62
9
  6
CONTINUOUS
 10
120.6952668539
 20
51.5519322468
 11
102.6952668539
 21
51.5519322468
  0
LINE
  5
214
100
AcDbEntity
  8
0
100
AcDbLine
 62
7
  6
CONTINUOUS
 10
170.5933468539
 20
58.4340400201
 11
160.5933468539
 21
58.4340400201
  0
LINE
  5
215
100
AcDbEntity
  8
0
100
AcDbLine
 62
7
  6
CONTINUOUS
 10
161.6571765144
 20
59.3822619889
 11
164.8486660916
 21
59.3822619889
  0
LINE
  5
216
100
AcDbEntity
  8
0
100
AcDbLine
 62
7
  6
CONTINUOUS
 10
166.1252616841
 20
59.3822619889
 11
170.5933468539
 21
59.3822619889
  0
LINE
  5
217
100
AcDbEntity
  8
0
100
AcDbLine
 62
7
  6
CONTINUOUS
 10
163.9976023637
 20
78.0306267722
 11
163.1465386348
 21
77.8725903802
  0
LINE
  5
218
100
AcDbEntity
  8
0
100
AcDbLine
 62
7
  6
CONTINUOUS
 10
163.5720704991
 20
63.3331867081
 11
162.9337721069
 21
63.3331867081
  0
LINE
  5
219
100
AcDbEntity
  8
0
100
AcDbLine
 62
7
  6
CONTINUOUS
 10
162.9337721068
 20
64.2814086769
 11
163.7848364312
 21
64.2814086769
  0
LINE
  5
21A
100
AcDbEntity
  8
0
100
AcDbLine
 62
7
  6
CONTINUOUS
 10
167.1890916426
 20
65.7037416301
 11
160.5933468539
 21
65.7037416301
  0
LINE
  5
21B
100
AcDbEntity
  8
0
100
AcDbLine
 62
7
  6
CONTINUOUS
 10
160.5933468539
 20
66.651964051
 11
167.1890916428
 21
66.651964051
  0
LINE
  5
21C
100
AcDbEntity
  8
0
100
AcDbLine
 62
7
  6
CONTINUOUS
 10
98.5106584872
 20
67.376356219
 11
102.6952668539
 21
67.376356219
  0
LINE
  5
21D
100
AcDbEntity
  8
0
100
AcDbLine
 62
9
  6
CONTINUOUS
 10
102.6952668539
 20
67.3763562191
 11
120.6952668539
 21
67.3763562191
  0
LINE
  5
21E
100
AcDbEntity
  8
0
100
AcDbLine
 62
7
  6
CONTINUOUS
 10
120.6952668539
 20
67.376356219
 11
124.8798752207
 21
67.376356219
  0
LINE
  5
21F
100
AcDbEntity
  8
0
100
AcDbLine
 62
7
  6
CONTINUOUS
 10
58.5111141573
 20
68.3824158972
 11
78.075880723
 21
68.3824158972
  0
LINE
  5
220
100
AcDbEntity
  8
0
100
AcDbLine
 62
7
  6
CONTINUOUS
 10
167.1890916426
 20
70.4448519262
 11
160.5933468539
 21
70.4448519262
  0
LINE
  5
221
100
AcDbEntity
  8
0
100
AcDbLine
 62
7
  6
CONTINUOUS
 10
160.5933468539
 20
88.7771430213
 11
169.3167511124
 21
90.9896597427
  0
LINE
  5
222
100
AcDbEntity
  8
0
100
AcDbLine
 62
7
  6
CONTINUOUS
 10
170.5933468539
 20
90.357514175
 11
160.5933468539
 21
87.8289210525
  0
LINE
  5
223
100
AcDbEntity
  8
0
100
AcDbLine
 62
7
  6
CONTINUOUS
 10
162.9337721067
 20
78.820812349
 11
163.9976023633
 21
78.9788487409
  0
LINE
  5
224
100
AcDbEntity
  8
0
100
AcDbLine
 62
7
  6
CONTINUOUS
 10
160.5933468539
 20
71.3930738949
 11
167.1890916428
 21
71.3930738949
  0
LINE
  5
225
100
AcDbEntity
  8
0
100
AcDbLine
 62
7
  6
CONTINUOUS
 10
120.6952668539
 20
71.4833242511
 11
102.6952668539
 21
71.4833242511
  0
LINE
  5
226
100
AcDbEntity
  8
0
100
AcDbLine
 62
7
  6
CONTINUOUS
 10
170.5933468539
 20
72.6573695519
 11
160.5933468539
 21
72.6573695519
  0
LINE
  5
227
100
AcDbEntity
  8
0
100
AcDbLine
 62
7
  6
CONTINUOUS
 10
161.8699424464
 20
73.6055915207
 11
169.3167511124
 21
73.6055915207
  0
LINE
  5
228
100
AcDbEntity
  8
0
100
AcDbLine
 62
7
  6
CONTINUOUS
 10
167.1890916426
 20
78.0306267722
 11
163.9976023637
 21
78.0306267722
  0
LINE
  5
229
100
AcDbEntity
  8
0
100
AcDbLine
 62
7
  6
CONTINUOUS
 10
163.9976023633
 20
78.9788487409
 11
167.1890916428
 21
78.9788487409
  0
LINE
  5
22A
100
AcDbEntity
  8
0
100
AcDbLine
 62
7
  6
CONTINUOUS
 10
167.1890916428
 20
71.3930738949
 11
168.2529213033
 21
71.2350365987
  0
LINE
  5
22B
100
AcDbEntity
  8
0
100
AcDbLine
 62
7
  6
CONTINUOUS
 10
168.0401553707
 20
70.2868146301
 11
167.1890916426
 21
70.4448519262
  0
LINE
  5
22C
100
AcDbEntity
  8
0
100
AcDbLine
 62
7
  6
CONTINUOUS
 10
164.2103682954
 20
63.1751498641
 11
163.5720704991
 21
63.3331867081
  0
LINE
  5
22D
100
AcDbEntity
  8
0
100
AcDbLine
 62
7
  6
CONTINUOUS
 10
163.7848364312
 20
64.2814086769
 11
164.4231342275
 21
64.1233718328
  0
LINE
  5
22E
100
AcDbEntity
  8
0
100
AcDbLine
 62
7
  6
CONTINUOUS
 10
57.2952668539
 20
80.8665000201
 11
57.2952668539
 21
119.7115684973
  0
LINE
  5
22F
100
AcDbEntity
  8
0
100
AcDbLine
 62
7
  6
CONTINUOUS
 10
160.5933468539
 20
96.3629187716
 11
169.3167511124
 21
98.575435493
  0
LINE
  5
230
100
AcDbEntity
  8
0
100
AcDbLine
 62
7
  6
CONTINUOUS
 10
170.5933468539
 20
97.9432899253
 11
160.5933468539
 21
95.4146968028
  0
LINE
  5
231
100
AcDbEntity
  8
0
100
AcDbLine
 62
7
  6
CONTINUOUS
 10
120.6952668539
 20
83.4175869956
 11
102.6952668539
 21
83.4175869956
  0
LINE
  5
232
100
AcDbEntity
  8
0
100
AcDbLine
 62
7
  6
CONTINUOUS
 10
167.1890916428
 20
78.9788487409
 11
168.2529213033
 21
78.820812349
  0
LINE
  5
233
100
AcDbEntity
  8
0
100
AcDbLine
 62
7
  6
CONTINUOUS
 10
168.0401553707
 20
77.8725903803
 11
167.1890916426
 21
78.0306267722
  0
LINE
  5
234
100
AcDbEntity
  8
0
100
AcDbLine
 62
7
  6
CONTINUOUS
 10
95.6834165888
 20
21.7583234654
 11
94.1181305332
 21
26.0589116906
  0
LINE
  5
235
100
AcDbEntity
  8
0
100
AcDbLine
 62
7
  6
CONTINUOUS
 10
65.6952668539
 20
236.3976633836
 11
65.6952668539
 21
271.1665000201
  0
LINE
  5
236
100
AcDbEntity
  8
0
100
AcDbLine
 62
7
  6
CONTINUOUS
 10
60.7590949908
 20
174.8269444513
 11
57.3229748517
 21
171.9436973099
  0
LINE
  5
237
100
AcDbEntity
  8
0
100
AcDbLine
 62
7
  6
CONTINUOUS
 10
168.2529213033
 20
71.2350365987
 11
169.1039851801
 21
70.9189629107
  0
LINE
  5
238
100
AcDbEntity
  8
0
100
AcDbLine
 62
7
  6
CONTINUOUS
 10
168.2529213033
 20
78.820812349
 11
169.1039851801
 21
78.5047377567
  0
LINE
  5
239
100
AcDbEntity
  8
0
100
AcDbLine
 62
7
  6
CONTINUOUS
 10
168.6784531673
 20
69.9707409417
 11
168.0401553707
 21
70.2868146301
  0
LINE
  5
23A
100
AcDbEntity
  8
0
100
AcDbLine
 62
7
  6
CONTINUOUS
 10
164.4231342275
 20
64.1233718328
 11
165.2741979559
 21
63.6492608484
  0
LINE
  5
23B
100
AcDbEntity
  8
BEZUGSACHSEN
100
AcDbLine
 62
7
  6
CENTER
 10
76.0697688539
 20
259.7080400201
 11
76.0697688539
 21
256.7079400201
  0
LINE
  5
23C
100
AcDbEntity
  8
BEZUGSACHSEN
100
AcDbLine
 62
7
  6
CENTER
 10
76.0697688539
 20
259.7080400201
 11
76.0697688539
 21
262.7081400201
  0
LINE
  5
23D
100
AcDbEntity
  8
0
100
AcDbLine
 62
7
  6
CONTINUOUS
 10
78.075880723
 20
68.3824158972
 11
78.075880723
 21
133.7257757298
  0
LINE
  5
23E
100
AcDbEntity
  8
0
100
AcDbLine
 62
7
  6
CONTINUOUS
 10
170.5933468539
 20
103.0004725531
 11
160.5933468539
 21
103.0004725531
  0
LINE
  5
23F
100
AcDbEntity
  8
0
100
AcDbLine
 62
7
  6
CONTINUOUS
 10
160.5933468539
 20
103.9486945219
 11
164.6359001596
 21
103.9486945219
  0
LINE
  5
240
100
AcDbEntity
  8
0
100
AcDbLine
 62
7
  6
CONTINUOUS
 10
165.9124957521
 20
103.9486945219
 11
170.5933468539
 21
103.9486945219
  0
LINE
  5
241
100
AcDbEntity
  8
0
100
AcDbLine
 62
7
  6
CONTINUOUS
 10
170.5933468539
 20
108.3737315819
 11
165.9124957521
 21
108.3737315819
  0
LINE
  5
242
100
AcDbEntity
  8
0
100
AcDbLine
 62
7
  6
CONTINUOUS
 10
164.6359001596
 20
108.3737315819
 11
160.5933468539
 21
108.3737315819
  0
LINE
  5
243
100
AcDbEntity
  8
0
100
AcDbLine
 62
7
  6
CONTINUOUS
 10
160.5933468539
 20
109.3219535507
 11
170.5933468539
 21
109.3219535507
  0
LINE
  5
244
100
AcDbEntity
  8
0
100
AcDbLine
 62
7
  6
CONTINUOUS
 10
160.5933468539
 20
94.1504020501
 11
170.5933468539
 21
91.6218089276
  0
LINE
  5
245
100
AcDbEntity
  8
0
100
AcDbLine
 62
7
  6
CONTINUOUS
 10
169.3167511124
 20
90.9896597427
 11
160.5933468539
 21
93.2021800813
  0
LINE
  5
246
100
AcDbEntity
  8
0
100
AcDbLine
 62
7
  6
CONTINUOUS
 10
168.6784531673
 20
77.5565157877
 11
168.0401553707
 21
77.8725903803
  0
LINE
  5
247
100
AcDbEntity
  8
0
100
AcDbLine
 62
7
  6
CONTINUOUS
 10
164.6359001596
 20
62.8590757237
 11
164.2103682954
 21
63.1751498641
  0
LINE
  5
248
100
AcDbEntity
  8
0
100
AcDbLine
 62
7
  6
CONTINUOUS
 10
52.5507793104
 20
166.5326782953
 11
76.5413723389
 21
137.9418028651
  0
LINE
  5
249
100
AcDbEntity
  8
0
100
AcDbLine
 62
7
  6
CONTINUOUS
 10
81.0260810613
 20
265.6942492786
 11
81.0260810613
 21
266.8597772228
  0
LINE
  5
24A
100
AcDbEntity
  8
0
100
AcDbLine
 62
7
  6
CONTINUOUS
 10
168.2529213025
 20
125.4417234028
 11
167.6146235072
 21
125.2836888196
  0
LINE
  5
24B
100
AcDbEntity
  8
0
100
AcDbLine
 62
7
  6
CONTINUOUS
 10
162.9337721065
 20
130.4989096478
 11
163.5720704991
 21
130.6569442312
  0
LINE
  5
24C
100
AcDbEntity
  8
0
100
AcDbLine
 62
7
  6
CONTINUOUS
 10
162.0827083786
 20
123.7033212831
 11
162.9337721068
 21
123.8613558664
  0
LINE
  5
24D
100
AcDbEntity
  8
0
100
AcDbLine
 62
7
  6
CONTINUOUS
 10
167.6146235072
 20
125.2836888196
 11
166.5507935483
 21
125.1256542362
  0
LINE
  5
24E
100
AcDbEntity
  8
0
100
AcDbLine
 62
7
  6
CONTINUOUS
 10
166.3380276163
 20
125.9158343873
 11
167.6146235068
 21
126.0738762051
  0
LINE
  5
24F
100
AcDbEntity
  8
0
100
AcDbLine
 62
7
  6
CONTINUOUS
 10
170.5933468539
 20
118.1720240536
 11
169.5295170445
 21
118.1720240536
  0
LINE
  5
250
100
AcDbEntity
  8
0
100
AcDbLine
 62
7
  6
CONTINUOUS
 10
160.5933468539
 20
101.7361778004
 11
170.5933468539
 21
99.2075846779
  0
LINE
  5
251
100
AcDbEntity
  8
0
100
AcDbLine
 62
7
  6
CONTINUOUS
 10
169.3167511124
 20
98.575435493
 11
160.5933468539
 21
100.7879558316
  0
LINE
  5
252
100
AcDbEntity
  8
0
100
AcDbLine
 62
7
  6
CONTINUOUS
 10
169.1039851801
 20
70.9189629107
 11
169.9550489832
 21
70.2868146299
  0
LINE
  5
253
100
AcDbEntity
  8
0
100
AcDbLine
 62
7
  6
CONTINUOUS
 10
160.5933468539
 20
136.8203870284
 11
169.3167511124
 21
139.032907367
  0
LINE
  5
254
100
AcDbEntity
  8
0
100
AcDbLine
 62
7
  6
CONTINUOUS
 10
170.5933468539
 20
138.4007617992
 11
160.5933468539
 21
135.8721650595
  0
LINE
  5
255
100
AcDbEntity
  8
0
100
AcDbLine
 62
7
  6
CONTINUOUS
 10
163.5720704991
 20
130.6569442312
 11
164.6359001596
 21
130.8149860489
  0
LINE
  5
256
100
AcDbEntity
  8
0
100
AcDbLine
 62
7
  6
CONTINUOUS
 10
164.8486660921
 20
130.0247986635
 11
163.5720704992
 21
129.8667640801
  0
LINE
  5
257
100
AcDbEntity
  8
0
100
AcDbLine
 62
7
  6
CONTINUOUS
 10
163.3593045671
 20
122.9131338976
 11
162.933772107
 21
122.9131338976
  0
LINE
  5
258
100
AcDbEntity
  8
0
100
AcDbLine
 62
7
  6
CONTINUOUS
 10
162.9337721068
 20
123.8613558664
 11
163.3593045668
 21
123.8613558664
  0
LINE
  5
259
100
AcDbEntity
  8
0
100
AcDbLine
 62
7
  6
CONTINUOUS
 10
169.5295170445
 20
123.8613558664
 11
170.5933468539
 21
123.8613558664
  0
LINE
  5
25A
100
AcDbEntity
  8
0
100
AcDbLine
 62
7
  6
CONTINUOUS
 10
166.5507935483
 20
125.1256542362
 11
164.6359001593
 21
125.1256542362
  0
LINE
  5
25B
100
AcDbEntity
  8
0
100
AcDbLine
 62
7
  6
CONTINUOUS
 10
164.8486660916
 20
125.9158343873
 11
166.3380276163
 21
125.9158343873
  0
LINE
  5
25C
100
AcDbEntity
  8
0
100
AcDbLine
 62
7
  6
CONTINUOUS
 10
166.3380276162
 20
130.0247986635
 11
164.8486660921
 21
130.0247986635
  0
LINE
  5
25D
100
AcDbEntity
  8
0
100
AcDbLine
 62
7
  6
CONTINUOUS
 10
164.6359001596
 20
130.8149860489
 11
166.5507935483
 21
130.8149860489
  0
LINE
  5
25E
100
AcDbEntity
  8
0
100
AcDbLine
 62
7
  6
CONTINUOUS
 10
162.9337721068
 20
118.3300622542
 11
162.0827083785
 21
118.4880968375
  0
LINE
  5
25F
100
AcDbEntity
  8
0
100
AcDbLine
 62
7
  6
CONTINUOUS
 10
169.1039851801
 20
78.5047377567
 11
169.9550489832
 21
77.8725903802
  0
LINE
  5
260
100
AcDbEntity
  8
0
100
AcDbLine
 62
7
  6
CONTINUOUS
 10
99.6952668539
 20
91.5869200201
 11
99.6952668539
 21
135.1909306283
  0
LINE
  5
261
100
AcDbEntity
  8
0
100
AcDbLine
 62
7
  6
CONTINUOUS
 10
101.6952668539
 20
229.1665000201
 11
101.6952668539
 21
275.7384720201
  0
LINE
  5
262
100
AcDbEntity
  8
0
100
AcDbLine
 62
7
  6
CONTINUOUS
 10
102.6952668539
 20
83.4175869956
 11
102.6952668539
 21
67.3763562191
  0
LINE
  5
263
100
AcDbEntity
  8
0
100
AcDbLine
 62
7
  6
CONTINUOUS
 10
102.6952668539
 20
51.5519322468
 11
102.6952668539
 21
19.1121479467
  0
LINE
  5
264
100
AcDbEntity
  8
0
100
AcDbLine
 62
9
  6
CONTINUOUS
 10
76.5413723389
 20
137.941802865
 11
93.1027829481
 21
151.838476399
  0
LINE
  5
265
100
AcDbEntity
  8
0
100
AcDbLine
 62
7
  6
CONTINUOUS
 10
162.9337721067
 20
150.5696055757
 11
162.2954743107
 21
150.4115709925
  0
LINE
  5
266
100
AcDbEntity
  8
0
100
AcDbLine
 62
7
  6
CONTINUOUS
 10
162.2954743105
 20
151.3597929612
 11
162.9337721068
 21
151.5178275445
  0
LINE
  5
267
100
AcDbEntity
  8
0
100
AcDbLine
 62
9
  6
CONTINUOUS
 10
99.6952668539
 20
133.7257757297
 11
78.075880723
 21
133.7257757297
  0
LINE
  5
268
100
AcDbEntity
  8
0
100
AcDbLine
 62
7
  6
CONTINUOUS
 10
163.5720704991
 20
126.073876205
 11
164.8486660916
 21
125.9158343873
  0
LINE
  5
269
100
AcDbEntity
  8
0
100
AcDbLine
 62
7
  6
CONTINUOUS
 10
167.6146235066
 20
129.8667640802
 11
166.3380276162
 21
130.0247986635
  0
LINE
  5
26A
100
AcDbEntity
  8
0
100
AcDbLine
 62
7
  6
CONTINUOUS
 10
164.6359001593
 20
125.1256542362
 11
163.5720704997
 21
125.2836888195
  0
LINE
  5
26B
100
AcDbEntity
  8
0
100
AcDbLine
 62
7
  6
CONTINUOUS
 10
166.5507935483
 20
130.8149860489
 11
167.6146235072
 21
130.6569442312
  0
LINE
  5
26C
100
AcDbEntity
  8
0
100
AcDbLine
 62
7
  6
CONTINUOUS
 10
163.3593045668
 20
123.8613558664
 11
164.2103682956
 21
123.703321283
  0
LINE
  5
26D
100
AcDbEntity
  8
0
100
AcDbLine
 62
7
  6
CONTINUOUS
 10
163.5720704997
 20
125.2836888195
 11
162.9337721065
 21
125.441723403
  0
LINE
  5
26E
100
AcDbEntity
  8
0
100
AcDbLine
 62
7
  6
CONTINUOUS
 10
164.2103682953
 20
122.5970574966
 11
163.3593045671
 21
122.9131338976
  0
LINE
  5
26F
100
AcDbEntity
  8
0
100
AcDbLine
 62
7
  6
CONTINUOUS
 10
169.1039851803
 20
69.4966299574
 11
168.6784531673
 21
69.9707409417
  0
LINE
  5
270
100
AcDbEntity
  8
0
100
AcDbLine
 62
7
  6
CONTINUOUS
 10
169.1039851803
 20
77.0824048034
 11
168.6784531673
 21
77.5565157877
  0
LINE
  5
271
100
AcDbEntity
  8
0
100
AcDbLine
 62
7
  6
CONTINUOUS
 10
74.8474155188
 20
173.594376117
 11
94.0445663632
 21
150.7161026306
  0
LINE
  5
272
100
AcDbEntity
  8
0
100
AcDbLine
 62
7
  6
CONTINUOUS
 10
165.2741979559
 20
63.6492608484
 11
165.69972982
 21
63.01711302
  0
LINE
  5
273
100
AcDbEntity
  8
BEZUGSACHSEN
100
AcDbLine
 62
7
  6
CENTER
 10
111.6952668539
 20
287.1733198131
 11
111.6952668539
 21
13.1661570639
  0
LINE
  5
274
100
AcDbEntity
  8
0
100
AcDbLine
 62
7
  6
CONTINUOUS
 10
98.5106584872
 20
67.376356219
 11
93.4928080545
 21
34.8975607016
  0
LINE
  5
275
100
AcDbEntity
  8
0
100
AcDbLine
 62
9
  6
CONTINUOUS
 10
117.8463779319
 20
159.6875800281
 11
136.8542073378
 21
175.6370426721
  0
LINE
  5
276
100
AcDbEntity
  8
0
100
AcDbLine
 62
7
  6
CONTINUOUS
 10
170.5933468539
 20
143.4579408098
 11
160.5933468539
 21
143.4579408098
  0
LINE
  5
277
100
AcDbEntity
  8
0
100
AcDbLine
 62
9
  6
CONTINUOUS
 10
148.5082259148
 20
143.6178897858
 11
123.6952668539
 21
143.6178897858
  0
LINE
  5
278
100
AcDbEntity
  8
0
100
AcDbLine
 62
7
  6
CONTINUOUS
 10
160.5933468539
 20
144.4061627786
 11
170.5933468539
 21
144.4061627786
  0
LINE
  5
279
100
AcDbEntity
  8
0
100
AcDbLine
 62
7
  6
CONTINUOUS
 10
170.5933468539
 20
145.6704611485
 11
160.5933468539
 21
145.6704611485
  0
LINE
  5
27A
100
AcDbEntity
  8
0
100
AcDbLine
 62
7
  6
CONTINUOUS
 10
161.6571765144
 20
146.6186831172
 11
164.8486660916
 21
146.6186831172
  0
LINE
  5
27B
100
AcDbEntity
  8
0
100
AcDbLine
 62
7
  6
CONTINUOUS
 10
166.1252616841
 20
146.6186831172
 11
170.5933468539
 21
146.6186831172
  0
LINE
  5
27C
100
AcDbEntity
  8
0
100
AcDbLine
 62
7
  6
CONTINUOUS
 10
163.5720704991
 20
150.5696055757
 11
162.9337721067
 21
150.5696055757
  0
LINE
  5
27D
100
AcDbEntity
  8
0
100
AcDbLine
 62
7
  6
CONTINUOUS
 10
167.6146235072
 20
130.6569442312
 11
168.2529213026
 21
130.498909648
  0
LINE
  5
27E
100
AcDbEntity
  8
0
100
AcDbLine
 62
7
  6
CONTINUOUS
 10
162.9337721065
 20
125.441723403
 11
162.0827083785
 21
125.7577998039
  0
LINE
  5
27F
100
AcDbEntity
  8
0
100
AcDbLine
 62
7
  6
CONTINUOUS
 10
168.2529213026
 20
130.498909648
 11
169.1039851803
 21
130.1828332468
  0
LINE
  5
280
100
AcDbEntity
  8
0
100
AcDbLine
 62
7
  6
CONTINUOUS
 10
168.0401553709
 20
132.0792771845
 11
162.7210061748
 21
134.1337629397
  0
LINE
  5
281
100
AcDbEntity
  8
0
100
AcDbLine
 62
7
  6
CONTINUOUS
 10
162.2954743107
 20
119.4363224234
 11
162.9337721068
 21
119.1202460224
  0
LINE
  5
282
100
AcDbEntity
  8
0
100
AcDbLine
 62
7
  6
CONTINUOUS
 10
164.2103682956
 20
123.703321283
 11
164.8486660916
 21
123.3872448821
  0
LINE
  5
283
100
AcDbEntity
  8
0
100
AcDbLine
 62
7
  6
CONTINUOUS
 10
162.2954743105
 20
126.7060217728
 11
163.5720704991
 21
126.073876205
  0
LINE
  5
284
100
AcDbEntity
  8
0
100
AcDbLine
 62
7
  6
CONTINUOUS
 10
162.0827083785
 20
118.4880968375
 11
161.2316446503
 21
119.1202460224
  0
LINE
  5
285
100
AcDbEntity
  8
0
100
AcDbLine
 62
7
  6
CONTINUOUS
 10
169.9550489832
 20
70.2868146299
 11
170.3805809032
 21
69.6546663493
  0
LINE
  5
286
100
AcDbEntity
  8
0
100
AcDbLine
 62
7
  6
CONTINUOUS
 10
129.8977256534
 20
34.8975607016
 11
124.8798752207
 21
67.376356219
  0
LINE
  5
287
100
AcDbEntity
  8
0
100
AcDbLine
 62
7
  6
CONTINUOUS
 10
120.6952668539
 20
51.5519322468
 11
120.6952668539
 21
16.1795616168
  0
LINE
  5
288
100
AcDbEntity
  8
0
100
AcDbLine
 62
7
  6
CONTINUOUS
 10
120.6952668539
 20
67.3763562191
 11
120.6952668539
 21
83.4175869956
  0
LINE
  5
289
100
AcDbEntity
  8
0
100
AcDbLine
 62
7
  6
CONTINUOUS
 10
121.6952668539
 20
229.1665000201
 11
121.6952668539
 21
275.7384720201
  0
LINE
  5
28A
100
AcDbEntity
  8
0
100
AcDbLine
 62
7
  6
CONTINUOUS
 10
123.6952668539
 20
91.5869200201
 11
123.6952668539
 21
143.6178897858
  0
LINE
  5
28B
100
AcDbEntity
  8
0
100
AcDbLine
 62
7
  6
CONTINUOUS
 10
162.9337721068
 20
151.5178275445
 11
163.7848364314
 21
151.5178275445
  0
LINE
  5
28C
100
AcDbEntity
  8
0
100
AcDbLine
 62
7
  6
CONTINUOUS
 10
160.5933468539
 20
142.1936496744
 11
170.5933468539
 21
139.6650529347
  0
LINE
  5
28D
100
AcDbEntity
  8
0
100
AcDbLine
 62
7
  6
CONTINUOUS
 10
169.3167511124
 20
139.032907367
 11
160.5933468539
 21
141.2454277056
  0
LINE
  5
28E
100
AcDbEntity
  8
0
100
AcDbLine
 62
7
  6
CONTINUOUS
 10
163.146538635
 20
134.6078739241
 11
168.4656872351
 21
132.5533881688
  0
LINE
  5
28F
100
AcDbEntity
  8
0
100
AcDbLine
 62
7
  6
CONTINUOUS
 10
168.8912192482
 20
129.234611278
 11
167.6146235066
 21
129.8667640802
  0
LINE
  5
290
100
AcDbEntity
  8
0
100
AcDbLine
 62
7
  6
CONTINUOUS
 10
162.0827083785
 20
125.7577998039
 11
161.4444105824
 21
126.2319107883
  0
LINE
  5
291
100
AcDbEntity
  8
0
100
AcDbLine
 62
7
  6
CONTINUOUS
 10
169.5295170445
 20
118.1720240536
 11
164.2103682953
 21
122.5970574966
  0
LINE
  5
292
100
AcDbEntity
  8
0
100
AcDbLine
 62
7
  6
CONTINUOUS
 10
164.8486660916
 20
123.3872448821
 11
169.5295170445
 21
119.4363224235
  0
LINE
  5
293
100
AcDbEntity
  8
0
100
AcDbLine
 62
7
  6
CONTINUOUS
 10
117.8463779319
 20
159.687580028
 11
75.0534891292
 21
210.6861589962
  0
LINE
  5
294
100
AcDbEntity
  8
0
100
AcDbLine
 62
7
  6
CONTINUOUS
 10
169.9550489832
 20
77.8725903802
 11
170.3805809032
 21
77.240443004
  0
LINE
  5
295
100
AcDbEntity
  8
0
100
AcDbLine
 62
7
  6
CONTINUOUS
 10
164.8486660916
 20
62.3849647394
 11
164.6359001596
 21
62.8590757237
  0
LINE
  5
296
100
AcDbEntity
  8
0
100
AcDbLine
 62
7
  6
CONTINUOUS
 10
161.4444105823
 20
150.8856819768
 11
162.2954743105
 21
151.3597929612
  0
LINE
  5
297
100
AcDbEntity
  8
0
100
AcDbLine
 62
7
  6
CONTINUOUS
 10
164.2103682955
 20
150.4115709924
 11
163.5720704991
 21
150.5696055757
  0
LINE
  5
298
100
AcDbEntity
  8
0
100
AcDbLine
 62
7
  6
CONTINUOUS
 10
163.7848364314
 20
151.5178275445
 11
164.4231342275
 21
151.3597929612
  0
LINE
  5
299
100
AcDbEntity
  8
0
100
AcDbLine
 62
7
  6
CONTINUOUS
 10
169.1039851803
 20
130.1828332468
 11
169.7422830511
 21
129.7087222625
  0
LINE
  5
29A
100
AcDbEntity
  8
0
100
AcDbLine
 62
7
  6
CONTINUOUS
 10
161.8699424464
 20
119.9104334079
 11
162.2954743107
 21
119.4363224234
  0
LINE
  5
29B
100
AcDbEntity
  8
0
100
AcDbLine
 62
7
  6
CONTINUOUS
 10
161.8699424464
 20
127.1801327571
 11
162.2954743105
 21
126.7060217728
  0
LINE
  5
29C
100
AcDbEntity
  8
0
100
AcDbLine
 62
7
  6
CONTINUOUS
 10
161.4444105824
 20
126.2319107883
 11
160.806112786
 21
127.0220981738
  0
LINE
  5
29D
100
AcDbEntity
  8
0
100
AcDbLine
 62
7
  6
CONTINUOUS
 10
161.2316446503
 20
119.1202460224
 11
160.806112786
 21
119.7523915902
  0
LINE
  5
29E
100
AcDbEntity
  8
0
100
AcDbLine
 62
7
  6
CONTINUOUS
 10
142.3644526466
 20
265.6942492786
 11
142.3644526466
 21
266.8597772228
  0
LINE
  5
29F
100
AcDbEntity
  8
0
100
AcDbLine
 62
7
  6
CONTINUOUS
 10
148.5082259148
 20
21.8482570622
 11
148.5082259148
 21
143.6178897858
  0
LINE
  5
2A0
100
AcDbEntity
  8
0
100
AcDbLine
 62
7
  6
CONTINUOUS
 10
160.806112786
 20
150.2535364091
 11
161.4444105823
 21
150.8856819768
  0
LINE
  5
2A1
100
AcDbEntity
  8
0
100
AcDbLine
 62
7
  6
CONTINUOUS
 10
162.2954743107
 20
150.4115709925
 11
161.8699424464
 21
150.0954945913
  0
LINE
  5
2A2
100
AcDbEntity
  8
0
100
AcDbLine
 62
7
  6
CONTINUOUS
 10
164.4231342275
 20
151.3597929612
 11
165.2741979556
 21
150.8856819769
  0
LINE
  5
2A3
100
AcDbEntity
  8
0
100
AcDbLine
 62
7
  6
CONTINUOUS
 10
164.6359001595
 20
150.0954945914
 11
164.2103682955
 21
150.4115709924
  0
LINE
  5
2A4
100
AcDbEntity
  8
0
100
AcDbLine
 62
7
  6
CONTINUOUS
 10
169.3167511124
 20
128.7605002936
 11
168.8912192482
 21
129.234611278
  0
LINE
  5
2A5
100
AcDbEntity
  8
0
100
AcDbLine
 62
7
  6
CONTINUOUS
 10
136.8542073376
 20
175.6370426723
 11
65.6952668539
 21
260.4409656389
  0
LINE
  5
2A6
100
AcDbEntity
  8
0
100
AcDbLine
 62
7
  6
CONTINUOUS
 10
169.7422830511
 20
129.7087222625
 11
170.3805809032
 21
128.9185421113
  0
LINE
  5
2A7
100
AcDbEntity
  8
0
100
AcDbLine
 62
7
  6
CONTINUOUS
 10
169.3167511124
 20
68.8644816768
 11
169.1039851803
 21
69.4966299574
  0
LINE
  5
2A8
100
AcDbEntity
  8
0
100
AcDbLine
 62
7
  6
CONTINUOUS
 10
169.3167511124
 20
76.4502574271
 11
169.1039851803
 21
77.0824048034
  0
LINE
  5
2A9
100
AcDbEntity
  8
0
100
AcDbLine
 62
7
  6
CONTINUOUS
 10
170.3805809032
 20
69.6546663493
 11
170.5933468539
 21
68.8644816768
  0
LINE
  5
2AA
100
AcDbEntity
  8
0
100
AcDbLine
 62
7
  6
CONTINUOUS
 10
157.6952668539
 20
219.1665000201
 11
157.6952668539
 21
271.1665000201
  0
LINE
  5
2AB
100
AcDbEntity
  8
0
100
AcDbLine
 62
7
  6
CONTINUOUS
 10
161.8699424464
 20
150.0954945913
 11
161.6571765144
 21
149.6213836069
  0
LINE
  5
2AC
100
AcDbEntity
  8
0
100
AcDbLine
 62
7
  6
CONTINUOUS
 10
163.5720704992
 20
129.8667640801
 11
162.2954743106
 21
129.234611278
  0
LINE
  5
2AD
100
AcDbEntity
  8
0
100
AcDbLine
 62
7
  6
CONTINUOUS
 10
162.0827083787
 20
130.1828332469
 11
162.9337721065
 21
130.4989096478
  0
LINE
  5
2AE
100
AcDbEntity
  8
0
100
AcDbLine
 62
7
  6
CONTINUOUS
 10
169.1039851805
 20
125.757799804
 11
168.2529213025
 21
125.4417234028
  0
LINE
  5
2AF
100
AcDbEntity
  8
0
100
AcDbLine
 62
7
  6
CONTINUOUS
 10
165.2741979556
 20
150.8856819769
 11
165.9124957521
 21
150.253536409
  0
LINE
  5
2B0
100
AcDbEntity
  8
0
100
AcDbLine
 62
7
  6
CONTINUOUS
 10
170.3805809032
 20
77.240443004
 11
170.5933468539
 21
76.450257427
  0
LINE
  5
2B1
100
AcDbEntity
  8
0
100
AcDbLine
 62
7
  6
CONTINUOUS
 10
161.6571765144
 20
120.700613559
 11
161.8699424464
 21
119.9104334079
  0
LINE
  5
2B2
100
AcDbEntity
  8
0
100
AcDbLine
 62
7
  6
CONTINUOUS
 10
161.6571765143
 20
127.9703201426
 11
161.8699424464
 21
127.1801327571
  0
LINE
  5
2B3
100
AcDbEntity
  8
0
100
AcDbLine
 62
7
  6
CONTINUOUS
 10
160.806112786
 20
127.0220981738
 11
160.5933468539
 21
127.9703201426
  0
LINE
  5
2B4
100
AcDbEntity
  8
0
100
AcDbLine
 62
7
  6
CONTINUOUS
 10
160.806112786
 20
119.7523915902
 11
160.5933468539
 21
120.8586553767
  0
LINE
  5
2B5
100
AcDbEntity
  8
0
100
AcDbLine
 62
7
  6
CONTINUOUS
 10
160.5933468539
 20
58.4340400201
 11
160.5933468539
 21
62.2269278953
  0
LINE
  5
2B6
100
AcDbEntity
  8
0
100
AcDbLine
 62
7
  6
CONTINUOUS
 10
160.5933468539
 20
65.7037416301
 11
160.5933468539
 21
66.651964051
  0
LINE
  5
2B7
100
AcDbEntity
  8
0
100
AcDbLine
 62
7
  6
CONTINUOUS
 10
160.5933468539
 20
70.4448519262
 11
160.5933468539
 21
71.3930738949
  0
LINE
  5
2B8
100
AcDbEntity
  8
0
100
AcDbLine
 62
7
  6
CONTINUOUS
 10
160.5933468539
 20
72.6573695519
 11
160.5933468539
 21
76.4502574271
  0
LINE
  5
2B9
100
AcDbEntity
  8
0
100
AcDbLine
 62
7
  6
CONTINUOUS
 10
160.5933468539
 20
87.8289210525
 11
160.5933468539
 21
88.7771430213
  0
LINE
  5
2BA
100
AcDbEntity
  8
0
100
AcDbLine
 62
7
  6
CONTINUOUS
 10
160.5933468539
 20
93.2021800813
 11
160.5933468539
 21
94.1504020501
  0
LINE
  5
2BB
100
AcDbEntity
  8
0
100
AcDbLine
 62
7
  6
CONTINUOUS
 10
160.5933468539
 20
95.4146968028
 11
160.5933468539
 21
96.3629187716
  0
LINE
  5
2BC
100
AcDbEntity
  8
0
100
AcDbLine
 62
7
  6
CONTINUOUS
 10
160.5933468539
 20
100.7879558316
 11
160.5933468539
 21
101.7361778004
  0
LINE
  5
2BD
100
AcDbEntity
  8
0
100
AcDbLine
 62
7
  6
CONTINUOUS
 10
160.5933468539
 20
103.0004725531
 11
160.5933468539
 21
103.9486945219
  0
LINE
  5
2BE
100
AcDbEntity
  8
0
100
AcDbLine
 62
7
  6
CONTINUOUS
 10
160.5933468539
 20
108.3737315819
 11
160.5933468539
 21
109.3219535507
  0
LINE
  5
2BF
100
AcDbEntity
  8
0
100
AcDbLine
 62
7
  6
CONTINUOUS
 10
160.5933468539
 20
120.8586553767
 11
160.5933468539
 21
121.4908009445
  0
LINE
  5
2C0
100
AcDbEntity
  8
0
100
AcDbLine
 62
7
  6
CONTINUOUS
 10
160.5933468539
 20
135.8721650595
 11
160.5933468539
 21
136.8203870284
  0
LINE
  5
2C1
100
AcDbEntity
  8
0
100
AcDbLine
 62
7
  6
CONTINUOUS
 10
160.5933468539
 20
141.2454277056
 11
160.5933468539
 21
142.1936496744
  0
LINE
  5
2C2
100
AcDbEntity
  8
0
100
AcDbLine
 62
7
  6
CONTINUOUS
 10
160.5933468539
 20
143.4579408098
 11
160.5933468539
 21
144.4061627786
  0
LINE
  5
2C3
100
AcDbEntity
  8
0
100
AcDbLine
 62
7
  6
CONTINUOUS
 10
160.5933468539
 20
145.6704611485
 11
160.5933468539
 21
149.4633490236
  0
LINE
  5
2C4
100
AcDbEntity
  8
0
100
AcDbLine
 62
7
  6
CONTINUOUS
 10
161.6571765144
 20
149.6213836069
 11
161.6571765144
 21
146.6186831172
  0
LINE
  5
2C5
100
AcDbEntity
  8
0
100
AcDbLine
 62
7
  6
CONTINUOUS
 10
161.6571765144
 20
121.3327663611
 11
161.6571765144
 21
120.700613559
  0
LINE
  5
2C6
100
AcDbEntity
  8
0
100
AcDbLine
 62
7
  6
CONTINUOUS
 10
161.6571765144
 20
62.3849647393
 11
161.6571765144
 21
59.3822619889
  0
LINE
  5
2C7
100
AcDbEntity
  8
0
100
AcDbLine
 62
7
  6
CONTINUOUS
 10
161.8699424464
 20
76.450257427
 11
161.8699424464
 21
73.6055915207
  0
LINE
  5
2C8
100
AcDbEntity
  8
0
100
AcDbLine
 62
7
  6
CONTINUOUS
 10
162.9337721068
 20
119.1202460224
 11
162.9337721068
 21
118.3300622542
  0
LINE
  5
2C9
100
AcDbEntity
  8
0
100
AcDbLine
 62
7
  6
CONTINUOUS
 10
164.6359001596
 20
103.9486945219
 11
164.6359001596
 21
108.3737315819
  0
LINE
  5
2CA
100
AcDbEntity
  8
0
100
AcDbLine
 62
7
  6
CONTINUOUS
 10
164.8486660916
 20
59.3822619889
 11
164.8486660916
 21
62.3849647394
  0
LINE
  5
2CB
100
AcDbEntity
  8
0
100
AcDbLine
 62
7
  6
CONTINUOUS
 10
164.8486660916
 20
146.6186831172
 11
164.8486660916
 21
149.621383607
  0
LINE
  5
2CC
100
AcDbEntity
  8
0
100
AcDbLine
 62
7
  6
CONTINUOUS
 10
165.9124957521
 20
108.3737315819
 11
165.9124957521
 21
103.9486945219
  0
LINE
  5
2CD
100
AcDbEntity
  8
0
100
AcDbLine
 62
7
  6
CONTINUOUS
 10
166.1252616841
 20
149.4633490236
 11
166.1252616841
 21
146.6186831172
  0
LINE
  5
2CE
100
AcDbEntity
  8
0
100
AcDbLine
 62
7
  6
CONTINUOUS
 10
166.1252616841
 20
62.0688908251
 11
166.1252616841
 21
59.3822619889
  0
LINE
  5
2CF
100
AcDbEntity
  8
0
100
AcDbLine
 62
7
  6
CONTINUOUS
 10
160.5933468539
 20
127.9703201426
 11
160.806112786
 21
128.9185421114
  0
LINE
  5
2D0
100
AcDbEntity
  8
0
100
AcDbLine
 62
7
  6
CONTINUOUS
 10
160.5933468539
 20
121.4908009445
 11
160.806112786
 21
122.4390229132
  0
LINE
  5
2D1
100
AcDbEntity
  8
0
100
AcDbLine
 62
7
  6
CONTINUOUS
 10
160.5933468539
 20
149.4633490236
 11
160.806112786
 21
150.2535364091
  0
LINE
  5
2D2
100
AcDbEntity
  8
0
100
AcDbLine
 62
7
  6
CONTINUOUS
 10
161.8699424464
 20
128.7605002936
 11
161.6571765143
 21
127.9703201426
  0
LINE
  5
2D3
100
AcDbEntity
  8
0
100
AcDbLine
 62
7
  6
CONTINUOUS
 10
161.8699424464
 20
122.1229465121
 11
161.6571765144
 21
121.3327663611
  0
LINE
  5
2D4
100
AcDbEntity
  8
0
100
AcDbLine
 62
7
  6
CONTINUOUS
 10
160.806112786
 20
122.4390229132
 11
161.2316446502
 21
123.0711684809
  0
LINE
  5
2D5
100
AcDbEntity
  8
0
100
AcDbLine
 62
7
  6
CONTINUOUS
 10
160.806112786
 20
128.9185421114
 11
161.4444105823
 21
129.7087222625
  0
LINE
  5
2D6
100
AcDbEntity
  8
0
100
AcDbLine
 62
7
  6
CONTINUOUS
 10
162.7210061748
 20
134.1337629397
 11
163.146538635
 21
134.6078739241
  0
LINE
  5
2D7
100
AcDbEntity
  8
0
100
AcDbLine
 62
7
  6
CONTINUOUS
 10
162.2954743106
 20
129.234611278
 11
161.8699424464
 21
128.7605002936
  0
LINE
  5
2D8
100
AcDbEntity
  8
0
100
AcDbLine
 62
7
  6
CONTINUOUS
 10
168.4656872351
 20
132.5533881688
 11
168.0401553709
 21
132.0792771845
  0
LINE
  5
2D9
100
AcDbEntity
  8
0
100
AcDbLine
 62
7
  6
CONTINUOUS
 10
161.4444105823
 20
129.7087222625
 11
162.0827083787
 21
130.1828332469
  0
LINE
  5
2DA
100
AcDbEntity
  8
0
100
AcDbLine
 62
7
  6
CONTINUOUS
 10
161.2316446502
 20
123.0711684809
 11
162.0827083786
 21
123.7033212831
  0
LINE
  5
2DB
100
AcDbEntity
  8
0
100
AcDbLine
 62
7
  6
CONTINUOUS
 10
169.7422830511
 20
126.2319107883
 11
169.1039851805
 21
125.757799804
  0
LINE
  5
2DC
100
AcDbEntity
  8
0
100
AcDbLine
 62
7
  6
CONTINUOUS
 10
167.6146235068
 20
126.0738762051
 11
168.8912192482
 21
126.7060217727
  0
LINE
  5
2DD
100
AcDbEntity
  8
0
100
AcDbLine
 62
7
  6
CONTINUOUS
 10
162.933772107
 20
122.9131338976
 11
162.2954743106
 21
122.5970574965
  0
LINE
  5
2DE
100
AcDbEntity
  8
0
100
AcDbLine
 62
7
  6
CONTINUOUS
 10
164.8486660916
 20
149.621383607
 11
164.6359001595
 21
150.0954945914
  0
LINE
  5
2DF
100
AcDbEntity
  8
0
100
AcDbLine
 62
7
  6
CONTINUOUS
 10
169.5295170445
 20
127.9703201426
 11
169.3167511124
 21
128.7605002936
  0
LINE
  5
2E0
100
AcDbEntity
  8
0
100
AcDbLine
 62
7
  6
CONTINUOUS
 10
165.9124957521
 20
150.253536409
 11
166.1252616841
 21
149.4633490236
  0
LINE
  5
2E1
100
AcDbEntity
  8
0
100
AcDbLine
 62
7
  6
CONTINUOUS
 10
170.3805809032
 20
128.9185421113
 11
170.5933468539
 21
127.9703201426
  0
LINE
  5
2E2
100
AcDbEntity
  8
0
100
AcDbLine
 62
7
  6
CONTINUOUS
 10
169.3167511124
 20
68.2323333961
 11
169.3167511124
 21
68.8644816768
  0
LINE
  5
2E3
100
AcDbEntity
  8
0
100
AcDbLine
 62
7
  6
CONTINUOUS
 10
169.3167511124
 20
73.6055915207
 11
169.3167511124
 21
76.4502574271
  0
LINE
  5
2E4
100
AcDbEntity
  8
0
100
AcDbLine
 62
7
  6
CONTINUOUS
 10
169.5295170445
 20
119.4363224235
 11
169.5295170445
 21
123.8613558664
  0
LINE
  5
2E5
100
AcDbEntity
  8
0
100
AcDbLine
 62
7
  6
CONTINUOUS
 10
170.5933468539
 20
146.6186831172
 11
170.5933468539
 21
145.6704611485
  0
LINE
  5
2E6
100
AcDbEntity
  8
0
100
AcDbLine
 62
7
  6
CONTINUOUS
 10
170.5933468539
 20
144.4061627786
 11
170.5933468539
 21
143.4579408098
  0
LINE
  5
2E7
100
AcDbEntity
  8
0
100
AcDbLine
 62
7
  6
CONTINUOUS
 10
170.5933468539
 20
139.6650529347
 11
170.5933468539
 21
138.4007617992
  0
LINE
  5
2E8
100
AcDbEntity
  8
0
100
AcDbLine
 62
7
  6
CONTINUOUS
 10
170.5933468539
 20
123.8613558664
 11
170.5933468539
 21
118.1720240536
  0
LINE
  5
2E9
100
AcDbEntity
  8
0
100
AcDbLine
 62
7
  6
CONTINUOUS
 10
170.5933468539
 20
109.3219535507
 11
170.5933468539
 21
108.3737315819
  0
LINE
  5
2EA
100
AcDbEntity
  8
0
100
AcDbLine
 62
7
  6
CONTINUOUS
 10
170.5933468539
 20
103.9486945219
 11
170.5933468539
 21
103.0004725531
  0
LINE
  5
2EB
100
AcDbEntity
  8
0
100
AcDbLine
 62
7
  6
CONTINUOUS
 10
170.5933468539
 20
99.2075846779
 11
170.5933468539
 21
97.9432899253
  0
LINE
  5
2EC
100
AcDbEntity
  8
0
100
AcDbLine
 62
7
  6
CONTINUOUS
 10
170.5933468539
 20
91.6218089276
 11
170.5933468539
 21
90.357514175
  0
LINE
  5
2ED
100
AcDbEntity
  8
0
100
AcDbLine
 62
7
  6
CONTINUOUS
 10
170.5933468539
 20
76.450257427
 11
170.5933468539
 21
72.6573695519
  0
LINE
  5
2EE
100
AcDbEntity
  8
0
100
AcDbLine
 62
7
  6
CONTINUOUS
 10
170.5933468539
 20
68.8644816768
 11
170.5933468539
 21
68.2323333962
  0
LINE
  5
2EF
100
AcDbEntity
  8
0
100
AcDbLine
 62
7
  6
CONTINUOUS
 10
170.5933468539
 20
64.4394459731
 11
170.5933468539
 21
63.3331867082
  0
LINE
  5
2F0
100
AcDbEntity
  8
0
100
AcDbLine
 62
7
  6
CONTINUOUS
 10
170.5933468539
 20
59.3822619889
 11
170.5933468539
 21
58.4340400201
  0
LINE
  5
2F1
100
AcDbEntity
  8
0
100
AcDbLine
 62
7
  6
CONTINUOUS
 10
170.5933468539
 20
127.9703201426
 11
170.3805809032
 21
127.0220981738
  0
LINE
  5
2F2
100
AcDbEntity
  8
0
100
AcDbLine
 62
7
  6
CONTINUOUS
 10
169.3167511124
 20
127.1801327571
 11
169.5295170445
 21
127.9703201426
  0
LINE
  5
2F3
100
AcDbEntity
  8
0
100
AcDbLine
 62
7
  6
CONTINUOUS
 10
160.5933468539
 20
76.4502574271
 11
160.806112786
 21
77.2404430039
  0
LINE
  5
2F4
100
AcDbEntity
  8
0
100
AcDbLine
 62
7
  6
CONTINUOUS
 10
125.7107208189
 20
16.2732697105
 11
129.2724028718
 21
26.0589116407
  0
LINE
  5
2F5
100
AcDbEntity
  8
0
100
AcDbLine
 62
7
  6
CONTINUOUS
 10
170.3805809032
 20
127.0220981738
 11
169.7422830511
 21
126.2319107883
  0
LINE
  5
2F6
100
AcDbEntity
  8
0
100
AcDbLine
 62
7
  6
CONTINUOUS
 10
162.2954743106
 20
122.5970574965
 11
161.8699424464
 21
122.1229465121
  0
LINE
  5
2F7
100
AcDbEntity
  8
0
100
AcDbLine
 62
7
  6
CONTINUOUS
 10
168.8912192482
 20
126.7060217727
 11
169.3167511124
 21
127.1801327571
  0
LINE
  5
2F8
100
AcDbEntity
  8
0
100
AcDbLine
 62
7
  6
CONTINUOUS
 10
186.6952668539
 20
151.6905783888
 11
186.6952668539
 21
80.8665000201
  0
LINE
  5
2F9
100
AcDbEntity
  8
0
100
AcDbLine
 62
7
  6
CONTINUOUS
 10
160.5933468539
 20
62.2269278953
 11
160.806112786
 21
63.0171130199
  0
LINE
  5
2FA
100
AcDbEntity
  8
0
100
AcDbLine
 62
7
  6
CONTINUOUS
 10
162.0827083786
 20
77.0824048035
 11
161.8699424464
 21
76.450257427
  0
LINE
  5
2FB
100
AcDbEntity
  8
0
100
AcDbLine
 62
7
  6
CONTINUOUS
 10
170.5933468539
 20
68.2323333962
 11
170.3805809032
 21
67.4421487235
  0
LINE
  5
2FC
100
AcDbEntity
  8
0
100
AcDbLine
 62
7
  6
CONTINUOUS
 10
169.1039851804
 20
67.6001860198
 11
169.3167511124
 21
68.2323333961
  0
LINE
  5
2FD
100
AcDbEntity
  8
0
100
AcDbLine
 62
7
  6
CONTINUOUS
 10
161.8699424464
 20
62.8590757237
 11
161.6571765144
 21
62.3849647393
  0
LINE
  5
2FE
100
AcDbEntity
  8
0
100
AcDbLine
 62
7
  6
CONTINUOUS
 10
160.806112786
 20
77.2404430039
 11
161.2316446503
 21
77.8725903804
  0
LINE
  5
2FF
100
AcDbEntity
  8
0
100
AcDbLine
 62
7
  6
CONTINUOUS
 10
170.3805809032
 20
67.4421487235
 11
169.9550489832
 21
66.810000443
  0
LINE
  5
300
100
AcDbEntity
  8
0
100
AcDbLine
 62
7
  6
CONTINUOUS
 10
162.5082402427
 20
77.5565157878
 11
162.0827083786
 21
77.0824048035
  0
LINE
  5
301
100
AcDbEntity
  8
0
100
AcDbLine
 62
7
  6
CONTINUOUS
 10
161.2316446503
 20
77.8725903804
 11
162.0827083784
 21
78.5047377565
  0
LINE
  5
302
100
AcDbEntity
  8
0
100
AcDbLine
 62
7
  6
CONTINUOUS
 10
163.1465386348
 20
77.8725903802
 11
162.5082402427
 21
77.5565157878
  0
LINE
  5
303
100
AcDbEntity
  8
0
100
AcDbLine
 62
7
  6
CONTINUOUS
 10
162.0827083784
 20
78.5047377565
 11
162.9337721067
 21
78.820812349
  0
LINE
  5
304
100
AcDbEntity
  8
0
100
AcDbLine
 62
7
  6
CONTINUOUS
 10
168.6784531672
 20
67.1260750354
 11
169.1039851804
 21
67.6001860198
  0
LINE
  5
305
100
AcDbEntity
  8
0
100
AcDbLine
 62
7
  6
CONTINUOUS
 10
160.806112786
 20
63.0171130199
 11
161.4444105823
 21
63.6492608484
  0
LINE
  5
306
100
AcDbEntity
  8
0
100
AcDbLine
 62
7
  6
CONTINUOUS
 10
162.2954743106
 20
63.175149864
 11
161.8699424464
 21
62.8590757237
  0
LINE
  5
307
100
AcDbEntity
  8
0
100
AcDbLine
 62
7
  6
CONTINUOUS
 10
169.9550489832
 20
66.810000443
 11
169.1039851804
 21
66.1778530667
  0
LINE
  5
308
100
AcDbEntity
  8
0
100
AcDbLine
 62
7
  6
CONTINUOUS
 10
161.4444105823
 20
63.6492608484
 11
162.2954743107
 21
64.1233718329
  0
LINE
  5
309
100
AcDbEntity
  8
0
100
AcDbLine
 62
7
  6
CONTINUOUS
 10
168.0401553708
 20
66.8100004429
 11
168.6784531672
 21
67.1260750354
  0
LINE
  5
30A
100
AcDbEntity
  8
0
100
AcDbLine
 62
7
  6
CONTINUOUS
 10
169.1039851804
 20
66.1778530667
 11
168.2529213031
 21
65.8617789264
  0
LINE
  5
30B
100
AcDbEntity
  8
0
100
AcDbLine
 62
7
  6
CONTINUOUS
 10
165.69972982
 20
63.01711302
 11
170.5933468539
 21
64.4394459731
  0
LINE
  5
30C
100
AcDbEntity
  8
0
100
AcDbLine
 62
7
  6
CONTINUOUS
 10
101.6952668539
 20
243.5865000201
 11
121.6952668539
 21
243.5865000201
  0
LINE
  5
30D
100
AcDbEntity
  8
BEZUGSACHSEN
100
AcDbLine
 62
7
  6
CENTER
 10
160.6952668539
 20
255.8365000201
 11
61.7589330337
 21
255.8365000201
  0
LINE
  5
30E
100
AcDbEntity
  8
BEZUGSACHSEN
100
AcDbLine
 62
7
  6
CENTER
 10
76.0697688539
 20
259.7080400201
 11
73.0696688539
 21
259.7080400201
  0
LINE
  5
30F
100
AcDbEntity
  8
BEZUGSACHSEN
100
AcDbLine
 62
7
  6
CENTER
 10
76.0697688539
 20
259.7080400201
 11
79.0698688539
 21
259.7080400201
  0
LINE
  5
310
100
AcDbEntity
  8
0
100
AcDbLine
 62
7
  6
CONTINUOUS
 10
157.6952668539
 20
271.1665000201
 11
146.7869154
 21
284.1665670546
  0
LINE
  5
311
100
AcDbEntity
  8
0
100
AcDbLine
 62
7
  6
CONTINUOUS
 10
157.6952668539
 20
266.1665000201
 11
142.3644526466
 21
266.1665000201
  0
LINE
  5
312
100
AcDbEntity
  8
0
100
AcDbLine
 62
7
  6
CONTINUOUS
 10
81.0260810613
 20
266.1665000201
 11
65.6952668539
 21
266.1665000201
  0
LINE
  5
313
100
AcDbEntity
  8
0
100
AcDbLine
 62
7
  6
CONTINUOUS
 10
101.6952668539
 20
268.0865000201
 11
121.6952668539
 21
268.0865000201
  0
LINE
  5
314
100
AcDbEntity
  8
0
100
AcDbLine
 62
9
  6
CONTINUOUS
 10
155.9267654119
 20
273.2741179672
 11
141.3143132586
 21
273.2741179672
  0
LINE
  5
315
100
AcDbEntity
  8
0
100
AcDbLine
 62
9
  6
CONTINUOUS
 10
82.0762204493
 20
273.2741179672
 11
67.463768296
 21
273.2741179672
  0
LINE
  5
316
100
AcDbEntity
  8
0
100
AcDbLine
 62
7
  6
CONTINUOUS
 10
76.5847161171
 20
284.1665000201
 11
81.0260810613
 21
284.1665000201
  0
LINE
  5
317
100
AcDbEntity
  8
0
100
AcDbLine
 62
7
  6
CONTINUOUS
 10
142.3644526466
 20
284.1665000201
 11
146.8058175908
 21
284.1665000201
  0
LINE
  5
318
100
AcDbEntity
  8
0
100
AcDbLine
 62
7
  6
CONTINUOUS
 10
274.5401262929
 20
16.1665000201
 11
250.3872462929
 21
16.1665000201
  0
LINE
  5
319
100
AcDbEntity
  8
0
100
AcDbLine
 62
7
  6
CONTINUOUS
 10
236.6073997757
 20
16.2732697105
 11
226.8217578455
 21
26.0589116407
  0
LINE
  5
31A
100
AcDbEntity
  8
0
100
AcDbLine
 62
7
  6
CONTINUOUS
 10
233.4636862929
 20
266.1665000201
 11
239.3358040641
 21
273.2741179672
  0
LINE
  5
31B
100
AcDbEntity
  8
0
100
AcDbLine
 62
7
  6
CONTINUOUS
 10
291.9636862929
 20
58.4340400201
 11
291.4636862929
 21
58.4340400201
  0
LINE
  5
31C
100
AcDbEntity
  8
0
100
AcDbLine
 62
7
  6
CONTINUOUS
 10
291.9636862929
 20
62.2269278952
 11
291.4636862929
 21
62.2269278952
  0
LINE
  5
31D
100
AcDbEntity
  8
0
100
AcDbLine
 62
7
  6
CONTINUOUS
 10
291.9636862929
 20
63.01711302
 11
291.4636862929
 21
63.01711302
  0
LINE
  5
31E
100
AcDbEntity
  8
0
100
AcDbLine
 62
7
  6
CONTINUOUS
 10
291.9636862929
 20
63.6492608484
 11
291.4636862929
 21
63.6492608484
  0
LINE
  5
31F
100
AcDbEntity
  8
0
100
AcDbLine
 62
7
  6
CONTINUOUS
 10
291.9636862929
 20
64.1233718329
 11
291.4636862929
 21
64.1233718329
  0
LINE
  5
320
100
AcDbEntity
  8
0
100
AcDbLine
 62
7
  6
CONTINUOUS
 10
291.9636862929
 20
64.2814086769
 11
291.4636862929
 21
64.2814086769
  0
LINE
  5
321
100
AcDbEntity
  8
0
100
AcDbLine
 62
7
  6
CONTINUOUS
 10
291.9636862929
 20
64.4394459731
 11
291.4636862929
 21
64.4394459731
  0
LINE
  5
322
100
AcDbEntity
  8
0
100
AcDbLine
 62
7
  6
CONTINUOUS
 10
291.9636862929
 20
65.7037416301
 11
291.4636862929
 21
65.7037416301
  0
LINE
  5
323
100
AcDbEntity
  8
0
100
AcDbLine
 62
7
  6
CONTINUOUS
 10
291.9636862929
 20
66.651964051
 11
291.4636862929
 21
66.651964051
  0
LINE
  5
324
100
AcDbEntity
  8
0
100
AcDbLine
 62
7
  6
CONTINUOUS
 10
291.9636862929
 20
66.810000443
 11
291.4636862929
 21
66.810000443
  0
LINE
  5
325
100
AcDbEntity
  8
0
100
AcDbLine
 62
7
  6
CONTINUOUS
 10
291.9636862929
 20
67.1260750354
 11
291.4636862929
 21
67.1260750354
  0
LINE
  5
326
100
AcDbEntity
  8
0
100
AcDbLine
 62
7
  6
CONTINUOUS
 10
291.9636862929
 20
67.6001860198
 11
291.4636862929
 21
67.6001860198
  0
LINE
  5
327
100
AcDbEntity
  8
0
100
AcDbLine
 62
7
  6
CONTINUOUS
 10
238.8901292959
 20
67.3763562191
 11
226.2501813959
 21
71.4833242511
  0
LINE
  5
328
100
AcDbEntity
  8
0
100
AcDbLine
 62
7
  6
CONTINUOUS
 10
291.9636862929
 20
68.2323333961
 11
291.4636862929
 21
68.2323333961
  0
LINE
  5
329
100
AcDbEntity
  8
0
100
AcDbLine
 62
7
  6
CONTINUOUS
 10
291.9636862929
 20
68.8644816768
 11
291.4636862929
 21
68.8644816768
  0
LINE
  5
32A
100
AcDbEntity
  8
0
100
AcDbLine
 62
7
  6
CONTINUOUS
 10
285.6101962929
 20
82.1760271
 11
297.4228496308
 21
83.4175869956
  0
LINE
  5
32B
100
AcDbEntity
  8
0
100
AcDbLine
 62
9
  6
CONTINUOUS
 10
239.3171762929
 20
80.8665000201
 11
285.6101962929
 21
80.8665000201
  0
LINE
  5
32C
100
AcDbEntity
  8
0
100
AcDbLine
 62
7
  6
CONTINUOUS
 10
227.5045229551
 20
83.4175869956
 11
239.3171762929
 21
82.1760271
  0
LINE
  5
32D
100
AcDbEntity
  8
0
100
AcDbLine
 62
7
  6
CONTINUOUS
 10
291.9636862929
 20
87.8289210525
 11
291.4636862929
 21
87.8289210525
  0
LINE
  5
32E
100
AcDbEntity
  8
0
100
AcDbLine
 62
7
  6
CONTINUOUS
 10
291.9636862929
 20
88.7771430213
 11
291.4636862929
 21
88.7771430213
  0
LINE
  5
32F
100
AcDbEntity
  8
0
100
AcDbLine
 62
7
  6
CONTINUOUS
 10
291.9636862929
 20
90.9896597427
 11
291.4636862929
 21
90.9896597427
  0
LINE
  5
330
100
AcDbEntity
  8
0
100
AcDbLine
 62
7
  6
CONTINUOUS
 10
291.9636862929
 20
93.2021800813
 11
291.4636862929
 21
93.2021800813
  0
LINE
  5
331
100
AcDbEntity
  8
0
100
AcDbLine
 62
7
  6
CONTINUOUS
 10
291.9636862929
 20
94.1504020501
 11
291.4636862929
 21
94.1504020501
  0
LINE
  5
332
100
AcDbEntity
  8
0
100
AcDbLine
 62
7
  6
CONTINUOUS
 10
291.9636862929
 20
95.4146968028
 11
291.4636862929
 21
95.4146968028
  0
LINE
  5
333
100
AcDbEntity
  8
0
100
AcDbLine
 62
7
  6
CONTINUOUS
 10
291.9636862929
 20
96.3629187716
 11
291.4636862929
 21
96.3629187716
  0
LINE
  5
334
100
AcDbEntity
  8
0
100
AcDbLine
 62
7
  6
CONTINUOUS
 10
291.9636862929
 20
98.575435493
 11
291.4636862929
 21
98.575435493
  0
LINE
  5
335
100
AcDbEntity
  8
0
100
AcDbLine
 62
7
  6
CONTINUOUS
 10
291.9636862929
 20
100.7879558316
 11
291.4636862929
 21
100.7879558316
  0
LINE
  5
336
100
AcDbEntity
  8
0
100
AcDbLine
 62
7
  6
CONTINUOUS
 10
291.9636862929
 20
101.7361778004
 11
291.4636862929
 21
101.7361778004
  0
LINE
  5
337
100
AcDbEntity
  8
0
100
AcDbLine
 62
7
  6
CONTINUOUS
 10
291.9636862929
 20
103.0004725531
 11
291.4636862929
 21
103.0004725531
  0
LINE
  5
338
100
AcDbEntity
  8
0
100
AcDbLine
 62
7
  6
CONTINUOUS
 10
291.9636862929
 20
103.9486945219
 11
291.4636862929
 21
103.9486945219
  0
LINE
  5
339
100
AcDbEntity
  8
0
100
AcDbLine
 62
7
  6
CONTINUOUS
 10
291.9636862929
 20
108.3737315819
 11
291.4636862929
 21
108.3737315819
  0
LINE
  5
33A
100
AcDbEntity
  8
0
100
AcDbLine
 62
7
  6
CONTINUOUS
 10
291.9636862929
 20
109.3219535507
 11
291.4636862929
 21
109.3219535507
  0
LINE
  5
33B
100
AcDbEntity
  8
0
100
AcDbLine
 62
7
  6
CONTINUOUS
 10
233.4636862929
 20
54.5924576324
 11
233.4636862929
 21
69.1395144312
  0
LINE
  5
33C
100
AcDbEntity
  8
0
100
AcDbLine
 62
7
  6
CONTINUOUS
 10
233.4636862929
 20
82.7912536901
 11
233.4636862929
 21
266.1665000201
  0
LINE
  5
33D
100
AcDbEntity
  8
0
100
AcDbLine
 62
7
  6
CONTINUOUS
 10
226.2501813959
 20
71.4833242511
 11
227.5045229551
 21
83.4175869956
  0
LINE
  5
33E
100
AcDbEntity
  8
0
100
AcDbLine
 62
7
  6
CONTINUOUS
 10
291.9636862929
 20
118.1720240536
 11
291.4636862929
 21
118.1720240536
  0
LINE
  5
33F
100
AcDbEntity
  8
0
100
AcDbLine
 62
7
  6
CONTINUOUS
 10
291.9636862929
 20
118.3300622542
 11
291.4636862929
 21
118.3300622542
  0
LINE
  5
340
100
AcDbEntity
  8
0
100
AcDbLine
 62
7
  6
CONTINUOUS
 10
291.9636862929
 20
118.4880968375
 11
291.4636862929
 21
118.4880968375
  0
LINE
  5
341
100
AcDbEntity
  8
0
100
AcDbLine
 62
7
  6
CONTINUOUS
 10
291.9636862929
 20
119.1202460225
 11
291.4636862929
 21
119.1202460225
  0
LINE
  5
342
100
AcDbEntity
  8
0
100
AcDbLine
 62
9
  6
CONTINUOUS
 10
285.6101962929
 20
119.7115684973
 11
239.3171762929
 21
119.7115684973
  0
LINE
  5
343
100
AcDbEntity
  8
0
100
AcDbLine
 62
7
  6
CONTINUOUS
 10
291.9636862929
 20
119.7523915902
 11
291.4636862929
 21
119.7523915902
  0
LINE
  5
344
100
AcDbEntity
  8
0
100
AcDbLine
 62
7
  6
CONTINUOUS
 10
291.9636862929
 20
120.8586553767
 11
291.4636862929
 21
120.8586553767
  0
LINE
  5
345
100
AcDbEntity
  8
0
100
AcDbLine
 62
7
  6
CONTINUOUS
 10
291.9636862929
 20
121.4908009444
 11
291.4636862929
 21
121.4908009444
  0
LINE
  5
346
100
AcDbEntity
  8
0
100
AcDbLine
 62
7
  6
CONTINUOUS
 10
291.9636862929
 20
122.4390229132
 11
291.4636862929
 21
122.4390229132
  0
LINE
  5
347
100
AcDbEntity
  8
0
100
AcDbLine
 62
7
  6
CONTINUOUS
 10
291.9636862929
 20
123.0711684809
 11
291.4636862929
 21
123.0711684809
  0
LINE
  5
348
100
AcDbEntity
  8
0
100
AcDbLine
 62
7
  6
CONTINUOUS
 10
239.3171762929
 20
68.3824158972
 11
239.3171762929
 21
166.5326782953
  0
LINE
  5
349
100
AcDbEntity
  8
0
100
AcDbLine
 62
7
  6
CONTINUOUS
 10
291.9636862929
 20
123.7033212831
 11
291.4636862929
 21
123.7033212831
  0
LINE
  5
34A
100
AcDbEntity
  8
0
100
AcDbLine
 62
7
  6
CONTINUOUS
 10
291.9636862929
 20
123.8613558664
 11
291.4636862929
 21
123.8613558664
  0
LINE
  5
34B
100
AcDbEntity
  8
0
100
AcDbLine
 62
7
  6
CONTINUOUS
 10
291.9636862929
 20
125.1256542362
 11
291.4636862929
 21
125.1256542362
  0
LINE
  5
34C
100
AcDbEntity
  8
0
100
AcDbLine
 62
7
  6
CONTINUOUS
 10
291.9636862929
 20
125.2836888196
 11
291.4636862929
 21
125.2836888196
  0
LINE
  5
34D
100
AcDbEntity
  8
0
100
AcDbLine
 62
7
  6
CONTINUOUS
 10
291.9636862929
 20
125.4417234029
 11
291.4636862929
 21
125.4417234029
  0
LINE
  5
34E
100
AcDbEntity
  8
0
100
AcDbLine
 62
7
  6
CONTINUOUS
 10
291.9636862929
 20
125.7577998039
 11
291.4636862929
 21
125.7577998039
  0
LINE
  5
34F
100
AcDbEntity
  8
0
100
AcDbLine
 62
7
  6
CONTINUOUS
 10
291.9636862929
 20
126.2319107884
 11
291.4636862929
 21
126.2319107884
  0
LINE
  5
350
100
AcDbEntity
  8
0
100
AcDbLine
 62
7
  6
CONTINUOUS
 10
291.9636862929
 20
127.0220981738
 11
291.4636862929
 21
127.0220981738
  0
LINE
  5
351
100
AcDbEntity
  8
0
100
AcDbLine
 62
7
  6
CONTINUOUS
 10
291.9636862929
 20
127.9703201426
 11
291.4636862929
 21
127.9703201426
  0
LINE
  5
352
100
AcDbEntity
  8
0
100
AcDbLine
 62
7
  6
CONTINUOUS
 10
291.9636862929
 20
128.9185421113
 11
291.4636862929
 21
128.9185421113
  0
LINE
  5
353
100
AcDbEntity
  8
0
100
AcDbLine
 62
7
  6
CONTINUOUS
 10
291.9636862929
 20
129.7087222624
 11
291.4636862929
 21
129.7087222624
  0
LINE
  5
354
100
AcDbEntity
  8
0
100
AcDbLine
 62
7
  6
CONTINUOUS
 10
291.9636862929
 20
130.1828332469
 11
291.4636862929
 21
130.1828332469
  0
LINE
  5
355
100
AcDbEntity
  8
0
100
AcDbLine
 62
7
  6
CONTINUOUS
 10
291.9636862929
 20
130.4989096479
 11
291.4636862929
 21
130.4989096479
  0
LINE
  5
356
100
AcDbEntity
  8
0
100
AcDbLine
 62
7
  6
CONTINUOUS
 10
291.9636862929
 20
130.6569442312
 11
291.4636862929
 21
130.6569442312
  0
LINE
  5
357
100
AcDbEntity
  8
0
100
AcDbLine
 62
7
  6
CONTINUOUS
 10
291.9636862929
 20
130.8149860489
 11
291.4636862929
 21
130.8149860489
  0
LINE
  5
358
100
AcDbEntity
  8
0
100
AcDbLine
 62
7
  6
CONTINUOUS
 10
291.9636862929
 20
132.0792771845
 11
291.4636862929
 21
132.0792771845
  0
LINE
  5
359
100
AcDbEntity
  8
0
100
AcDbLine
 62
7
  6
CONTINUOUS
 10
250.3872462929
 20
19.1121479468
 11
250.3872462929
 21
16.1795616168
  0
LINE
  5
35A
100
AcDbEntity
  8
0
100
AcDbLine
 62
7
  6
CONTINUOUS
 10
291.9636862929
 20
134.1337629397
 11
291.4636862929
 21
134.1337629397
  0
LINE
  5
35B
100
AcDbEntity
  8
0
100
AcDbLine
 62
7
  6
CONTINUOUS
 10
291.9636862929
 20
134.6078739241
 11
291.4636862929
 21
134.6078739241
  0
LINE
  5
35C
100
AcDbEntity
  8
0
100
AcDbLine
 62
7
  6
CONTINUOUS
 10
291.9636862929
 20
135.8721650595
 11
291.4636862929
 21
135.8721650595
  0
LINE
  5
35D
100
AcDbEntity
  8
0
100
AcDbLine
 62
7
  6
CONTINUOUS
 10
291.9636862929
 20
136.8203870284
 11
291.4636862929
 21
136.8203870284
  0
LINE
  5
35E
100
AcDbEntity
  8
0
100
AcDbLine
 62
7
  6
CONTINUOUS
 10
291.9636862929
 20
139.032907367
 11
291.4636862929
 21
139.032907367
  0
LINE
  5
35F
100
AcDbEntity
  8
0
100
AcDbLine
 62
7
  6
CONTINUOUS
 10
291.9636862929
 20
141.2454277056
 11
291.4636862929
 21
141.2454277056
  0
LINE
  5
360
100
AcDbEntity
  8
0
100
AcDbLine
 62
9
  6
CONTINUOUS
 10
285.6101962929
 20
141.8769637538
 11
239.3171762929
 21
141.8769637538
  0
LINE
  5
361
100
AcDbEntity
  8
0
100
AcDbLine
 62
7
  6
CONTINUOUS
 10
285.6101962929
 20
68.3824158972
 11
299.8236740479
 21
34.8975607016
  0
LINE
  5
362
100
AcDbEntity
  8
0
100
AcDbLine
 62
7
  6
CONTINUOUS
 10
255.6016237733
 20
210.6861589962
 11
255.6016237733
 21
177.1665000201
  0
LINE
  5
363
100
AcDbEntity
  8
BEZUGSACHSEN
100
AcDbLine
 62
7
  6
CENTER
 10
262.4636862929
 20
287.1733198131
 11
262.4636862929
 21
13.1661570639
  0
LINE
  5
364
100
AcDbEntity
  8
0
100
AcDbLine
 62
7
  6
CONTINUOUS
 10
291.9636862929
 20
142.1936496744
 11
291.4636862929
 21
142.1936496744
  0
LINE
  5
365
100
AcDbEntity
  8
0
100
AcDbLine
 62
7
  6
CONTINUOUS
 10
291.9636862929
 20
143.4579408098
 11
291.4636862929
 21
143.4579408098
  0
LINE
  5
366
100
AcDbEntity
  8
0
100
AcDbLine
 62
9
  6
CONTINUOUS
 10
291.4636862929
 20
143.6178897858
 11
285.6101962929
 21
143.6178897858
  0
LINE
  5
367
100
AcDbEntity
  8
0
100
AcDbLine
 62
9
  6
CONTINUOUS
 10
239.3171762929
 20
143.6178897858
 11
233.4636862929
 21
143.6178897858
  0
LINE
  5
368
100
AcDbEntity
  8
0
100
AcDbLine
 62
7
  6
CONTINUOUS
 10
291.9636862929
 20
144.4061627786
 11
291.4636862929
 21
144.4061627786
  0
LINE
  5
369
100
AcDbEntity
  8
0
100
AcDbLine
 62
7
  6
CONTINUOUS
 10
291.9636862929
 20
145.6704611485
 11
291.4636862929
 21
145.6704611485
  0
LINE
  5
36A
100
AcDbEntity
  8
0
100
AcDbLine
 62
7
  6
CONTINUOUS
 10
291.9636862929
 20
149.4633490236
 11
291.4636862929
 21
149.4633490236
  0
LINE
  5
36B
100
AcDbEntity
  8
0
100
AcDbLine
 62
7
  6
CONTINUOUS
 10
291.9636862929
 20
150.2535364091
 11
291.4636862929
 21
150.2535364091
  0
LINE
  5
36C
100
AcDbEntity
  8
0
100
AcDbLine
 62
7
  6
CONTINUOUS
 10
291.9636862929
 20
150.8856819768
 11
291.4636862929
 21
150.8856819768
  0
LINE
  5
36D
100
AcDbEntity
  8
0
100
AcDbLine
 62
7
  6
CONTINUOUS
 10
291.9636862929
 20
151.3597929612
 11
291.4636862929
 21
151.3597929612
  0
LINE
  5
36E
100
AcDbEntity
  8
0
100
AcDbLine
 62
7
  6
CONTINUOUS
 10
269.3257488125
 20
177.1665000201
 11
269.3257488125
 21
210.6861589962
  0
LINE
  5
36F
100
AcDbEntity
  8
0
100
AcDbLine
 62
7
  6
CONTINUOUS
 10
291.9636862929
 20
151.5178275445
 11
291.4636862929
 21
151.5178275445
  0
LINE
  5
370
100
AcDbEntity
  8
0
100
AcDbLine
 62
7
  6
CONTINUOUS
 10
274.5401262929
 20
16.1795616168
 11
274.5401262929
 21
19.1121479468
  0
LINE
  5
371
100
AcDbEntity
  8
0
100
AcDbLine
 62
7
  6
CONTINUOUS
 10
239.3171762929
 20
68.3824158972
 11
225.1036985379
 21
34.8975607016
  0
LINE
  5
372
100
AcDbEntity
  8
0
100
AcDbLine
 62
7
  6
CONTINUOUS
 10
297.4228496308
 20
83.4175869956
 11
298.67719119
 21
71.4833242511
  0
LINE
  5
373
100
AcDbEntity
  8
0
100
AcDbLine
 62
7
  6
CONTINUOUS
 10
285.6101962929
 20
68.3824158972
 11
285.6101962929
 21
166.5326782953
  0
LINE
  5
374
100
AcDbEntity
  8
0
100
AcDbLine
 62
7
  6
CONTINUOUS
 10
291.4636862929
 20
69.1395144312
 11
291.4636862929
 21
54.5924576324
  0
LINE
  5
375
100
AcDbEntity
  8
0
100
AcDbLine
 62
7
  6
CONTINUOUS
 10
291.4636862929
 20
82.7912536901
 11
291.4636862929
 21
266.1665000201
  0
LINE
  5
376
100
AcDbEntity
  8
0
100
AcDbLine
 62
9
  6
CONTINUOUS
 10
247.4914766008
 20
171.9436973099
 11
277.435895985
 21
171.9436973099
  0
LINE
  5
377
100
AcDbEntity
  8
0
100
AcDbLine
 62
9
  6
CONTINUOUS
 10
274.0390781877
 20
174.8269444513
 11
250.8882943982
 21
174.8269444513
  0
LINE
  5
378
100
AcDbEntity
  8
0
100
AcDbLine
 62
7
  6
CONTINUOUS
 10
254.2907815145
 20
177.1665000201
 11
270.6365868881
 21
177.1665000201
  0
LINE
  5
379
100
AcDbEntity
  8
0
100
AcDbLine
 62
7
  6
CONTINUOUS
 10
291.9636862929
 20
58.4340400201
 11
291.9636862929
 21
64.4394459731
  0
LINE
  5
37A
100
AcDbEntity
  8
0
100
AcDbLine
 62
7
  6
CONTINUOUS
 10
291.9636862929
 20
65.7037416301
 11
291.9636862929
 21
69.3019742793
  0
LINE
  5
37B
100
AcDbEntity
  8
0
100
AcDbLine
 62
7
  6
CONTINUOUS
 10
291.9636862929
 20
87.8289210525
 11
291.9636862929
 21
94.1504020501
  0
LINE
  5
37C
100
AcDbEntity
  8
0
100
AcDbLine
 62
7
  6
CONTINUOUS
 10
291.9636862929
 20
95.4146968028
 11
291.9636862929
 21
101.7361778004
  0
LINE
  5
37D
100
AcDbEntity
  8
0
100
AcDbLine
 62
7
  6
CONTINUOUS
 10
291.9636862929
 20
103.0004725531
 11
291.9636862929
 21
109.3219535507
  0
LINE
  5
37E
100
AcDbEntity
  8
0
100
AcDbLine
 62
7
  6
CONTINUOUS
 10
291.9636862929
 20
118.1720240536
 11
291.9636862929
 21
123.8613558664
  0
LINE
  5
37F
100
AcDbEntity
  8
0
100
AcDbLine
 62
7
  6
CONTINUOUS
 10
291.9636862929
 20
125.1256542362
 11
291.9636862929
 21
130.8149860489
  0
LINE
  5
380
100
AcDbEntity
  8
0
100
AcDbLine
 62
7
  6
CONTINUOUS
 10
291.9636862929
 20
132.0792771845
 11
291.9636862929
 21
134.6078739241
  0
LINE
  5
381
100
AcDbEntity
  8
0
100
AcDbLine
 62
7
  6
CONTINUOUS
 10
291.9636862929
 20
135.8721650595
 11
291.9636862929
 21
142.1936496744
  0
LINE
  5
382
100
AcDbEntity
  8
0
100
AcDbLine
 62
7
  6
CONTINUOUS
 10
291.9636862929
 20
143.4579408098
 11
291.9636862929
 21
144.4061627786
  0
LINE
  5
383
100
AcDbEntity
  8
0
100
AcDbLine
 62
7
  6
CONTINUOUS
 10
291.9636862929
 20
145.6704611485
 11
291.9636862929
 21
151.5178275445
  0
LINE
  5
384
100
AcDbEntity
  8
0
100
AcDbLine
 62
9
  6
CONTINUOUS
 10
269.3257488125
 20
210.6861589962
 11
255.6016237733
 21
210.6861589962
  0
LINE
  5
385
100
AcDbEntity
  8
0
100
AcDbLine
 62
7
  6
CONTINUOUS
 10
298.67719119
 20
71.4833242511
 11
286.0372432899
 21
67.3763562191
  0
LINE
  5
386
100
AcDbEntity
  8
0
100
AcDbLine
 62
9
  6
CONTINUOUS
 10
251.2985143424
 20
236.3976633836
 11
273.6288582434
 21
236.3976633836
  0
LINE
  5
387
100
AcDbEntity
  8
0
100
AcDbLine
 62
7
  6
CONTINUOUS
 10
285.5915685218
 20
273.2741179672
 11
291.4636862929
 21
266.1665000201
  0
LINE
  5
388
100
AcDbEntity
  8
BEZUGSACHSEN
100
AcDbLine
 62
7
  6
CENTER
 10
262.4636862929
 20
255.8365000201
 11
229.3931838202
 21
255.8365000201
  0
LINE
  5
389
100
AcDbEntity
  8
BEZUGSACHSEN
100
AcDbLine
 62
7
  6
CENTER
 10
262.4636862929
 20
255.8365000201
 11
296.6233860674
 21
255.8365000201
  0
LINE
  5
38A
100
AcDbEntity
  8
0
100
AcDbLine
 62
7
  6
CONTINUOUS
 10
288.3199728101
 20
16.2732697105
 11
298.1056147403
 21
26.0589116407
  0
LINE
  5
38B
100
AcDbEntity
  8
0
100
AcDbLine
 62
7
  6
CONTINUOUS
 10
237.5945482884
 20
271.1665000201
 11
287.3328242974
 21
271.1665000201
  0
ARC
  5
38C
100
AcDbEntity
  8
0
100
AcDbCircle
 62
7
  6
CONTINUOUS
 10
1706.5118047443
 20
435.3834868295
 40
1632.5043384313
100
AcDbArc
 50
185.3148606211
 51
185.6989223411
  0
ARC
  5
38D
100
AcDbEntity
  8
0
100
AcDbCircle
 62
7
  6
CONTINUOUS
 10
-1446.4704697461
 20
431.8499668109
 40
1595.6838085843
100
AcDbArc
 50
354.2966465145
 51
354.6895705233
  0
ARC
  5
38E
100
AcDbEntity
  8
0
100
AcDbCircle
 62
9
  6
CONTINUOUS
 10
112.6184219591
 20
430.7747725009
 40
183.8303111476
100
AcDbArc
 50
272.8301995102
 51
276.2665645568
  0
ARC
  5
38F
100
AcDbEntity
  8
0
100
AcDbCircle
 62
9
  6
CONTINUOUS
 10
110.362671567
 20
425.6279104623
 40
178.6695774502
100
AcDbArc
 50
263.6837915257
 51
267.2194444073
  0
ARC
  5
390
100
AcDbEntity
  8
0
100
AcDbCircle
 62
7
  6
CONTINUOUS
 10
121.9952668539
 20
80.8665000201
 40
64.7
100
AcDbArc
 50
180.0
 51
360.0
  0
ARC
  5
391
100
AcDbEntity
  8
0
100
AcDbCircle
 62
7
  6
CONTINUOUS
 10
111.6952668539
 20
329.8217411521
 40
55.0
100
AcDbArc
 50
236.1085281735
 51
259.5243183036
  0
ARC
  5
392
100
AcDbEntity
  8
0
100
AcDbCircle
 62
7
  6
CONTINUOUS
 10
111.6952668539
 20
329.8217411521
 40
55.0
100
AcDbArc
 50
280.4756816964
 51
303.8914718265
  0
ARC
  5
393
100
AcDbEntity
  8
0
100
AcDbCircle
 62
7
  6
CONTINUOUS
 10
98.6952668539
 20
143.6178897859
 40
49.8129590609
100
AcDbArc
 50
0.0
 51
40.0000000004
  0
ARC
  5
394
100
AcDbEntity
  8
0
100
AcDbCircle
 62
7
  6
CONTINUOUS
 10
139.6952668539
 20
151.6905783888
 40
47.0
100
AcDbArc
 50
0.0
 51
46.5144161476
  0
ARC
  5
395
100
AcDbEntity
  8
0
100
AcDbCircle
 62
7
  6
CONTINUOUS
 10
11.0022468539
 20
119.7115684973
 40
46.29302
100
AcDbArc
 50
0.0
 51
28.6074765164
  0
ARC
  5
396
100
AcDbEntity
  8
0
100
AcDbCircle
 62
7
  6
CONTINUOUS
 10
203.6952668539
 20
219.1665000201
 40
46.0
100
AcDbArc
 50
180.0
 51
226.5144161477
  0
ARC
  5
397
100
AcDbEntity
  8
0
100
AcDbCircle
 62
7
  6
CONTINUOUS
 10
105.6952668539
 20
236.3976633836
 40
40.0
100
AcDbArc
 50
180.0
 51
220.0
  0
ARC
  5
398
100
AcDbEntity
  8
0
100
AcDbCircle
 62
7
  6
CONTINUOUS
 10
98.6952668539
 20
143.6178897859
 40
25.0
100
AcDbArc
 50
0.0
 51
40.0
  0
ARC
  5
399
100
AcDbEntity
  8
0
100
AcDbCircle
 62
7
  6
CONTINUOUS
 10
72.8481468539
 20
153.4415178006
 40
24.15288
100
AcDbArc
 50
130.0
 51
208.6074765164
  0
ARC
  5
39A
100
AcDbEntity
  8
0
100
AcDbCircle
 62
7
  6
CONTINUOUS
 10
75.5423868539
 20
135.1909306283
 40
24.15288
100
AcDbArc
 50
0.0
 51
40.0000000001
  0
ARC
  5
39B
100
AcDbEntity
  8
0
100
AcDbCircle
 62
7
  6
CONTINUOUS
 10
111.6952668539
 20
229.1665000201
 40
10.0
100
AcDbArc
 50
180.0
 51
360.0
  0
ARC
  5
39C
100
AcDbEntity
  8
0
100
AcDbCircle
 62
7
  6
CONTINUOUS
 10
113.6952668539
 20
91.5869200201
 40
10.0
100
AcDbArc
 50
305.1086852307
 51
360.0
  0
ARC
  5
39D
100
AcDbEntity
  8
0
100
AcDbCircle
 62
7
  6
CONTINUOUS
 10
109.6952668539
 20
91.5869200201
 40
10.0
100
AcDbArc
 50
180.0
 51
234.8177314667
  0
ARC
  5
39E
100
AcDbEntity
  8
0
100
AcDbCircle
 62
7
  6
CONTINUOUS
 10
67.1869710876
 20
167.1665000201
 40
10.0
100
AcDbArc
 50
40.0
 51
130.0
  0
ARC
  5
39F
100
AcDbEntity
  8
0
100
AcDbCircle
 62
7
  6
CONTINUOUS
 10
71.5169068536
 20
133.7257757296
 40
6.5589738694
100
AcDbArc
 50
0.0000000012
 51
39.9999999992
  0
CIRCLE
  5
3A0
100
AcDbEntity
  8
0
100
AcDbCircle
 62
7
  6
CONTINUOUS
 10
76.0697688539
 20
259.7080400201
 40
4.0
  0
ARC
  5
3A1
100
AcDbEntity
  8
0
100
AcDbCircle
 62
7
  6
CONTINUOUS
 10
262.4636862929
 20
254.1665000201
 40
30.0
100
AcDbArc
 50
39.5625776436
 51
140.4374223564
  0
CIRCLE
  5
3A2
100
AcDbEntity
  8
0
100
AcDbCircle
 62
7
  6
CONTINUOUS
 10
262.4636862929
 20
255.8365000201
 40
11.75
  0
ARC
  5
3A3
100
AcDbEntity
  8
0
100
AcDbCircle
 62
7
  6
CONTINUOUS
 10
292.4127262929
 20
31.7518000154
 40
8.05096
100
AcDbArc
 50
315.0000003657
 51
22.9999999999
  0
ARC
  5
3A4
100
AcDbEntity
  8
0
100
AcDbCircle
 62
7
  6
CONTINUOUS
 10
232.5146462929
 20
31.7518000154
 40
8.05096
100
AcDbArc
 50
157.0000000001
 51
224.9999996343
  0
SPLINE
  5
3A5
100
AcDbEntity
  8
0
100
AcDbSpline
 62
7
  6
CONTINUOUS
 70
0
 71
3
 72
10
 73
6
 74
0
 42
0.0000001
 43
0.0000001
 44
0.0000000001
 40
0.0
 40
0.0
 40
0.0
 40
0.0
 40
0.2169641708
 40
0.4612280182
 40
1.0
 40
1.0
 40
1.0
 40
1.0
 10
94.1181305332
 20
26.0589116906
 30
0.0
 10
93.9751535462
 20
26.451737739
 30
0.0
 10
93.725198262
 20
27.3068075036
 30
0.0
 10
93.3620375462
 20
29.2006512965
 30
0.0
 10
93.2598550473
 20
30.7137185423
 30
0.0
 10
93.2598550476
 20
31.7518000217
 30
0.0
  0
SPLINE
  5
3A6
100
AcDbEntity
  8
0
100
AcDbSpline
 62
7
  6
CONTINUOUS
 70
0
 71
3
 72
9
 73
5
 74
0
 42
0.0000001
 43
0.0000001
 44
0.0000000001
 40
0.0
 40
0.0
 40
0.0
 40
0.0
 40
0.256409291
 40
1.0
 40
1.0
 40
1.0
 40
1.0
 10
93.2598550476
 20
31.7518000217
 30
0.0
 10
93.2598550477
 20
32.0215466955
 30
0.0
 10
93.2794289334
 20
33.0733938904
 30
0.0
 10
93.3733674812
 20
34.1244635339
 30
0.0
 10
93.4928080545
 20
34.8975607016
 30
0.0
  0
SPLINE
  5
3A7
100
AcDbEntity
  8
0
100
AcDbSpline
 62
9
  6
CONTINUOUS
 70
0
 71
3
 72
9
 73
5
 74
0
 42
0.0000001
 43
0.0000001
 44
0.0000000001
 40
0.0
 40
0.0
 40
0.0
 40
0.0
 40
0.5146566993
 40
1.0
 40
1.0
 40
1.0
 40
1.0
 10
101.6952668539
 20
258.5153917957
 30
0.0
 10
98.6544471884
 20
258.6668280077
 30
0.0
 10
92.751899677
 20
259.0984960651
 30
0.0
 10
86.8783047875
 20
259.8327167622
 30
0.0
 10
84.0417270664
 20
260.277108666
 30
0.0
  0
SPLINE
  5
3A8
100
AcDbEntity
  8
0
100
AcDbSpline
 62
7
  6
CONTINUOUS
 70
0
 71
3
 72
13
 73
9
 74
0
 42
0.0000001
 43
0.0000001
 44
0.0000000001
 40
0.0
 40
0.0
 40
0.0
 40
0.0
 40
0.2500828438
 40
0.5001240535
 40
0.6251810415
 40
0.7502221924
 40
0.8752160404
 40
1.0
 40
1.0
 40
1.0
 40
1.0
 10
101.6952668539
 20
242.3978447679
 30
0.0
 10
100.6758813366
 20
242.6409349454
 30
0.0
 10
98.6558186235
 20
243.2088017846
 30
0.0
 10
96.2044030368
 20
244.1483926314
 30
0.0
 10
94.3234008161
 20
245.0757589551
 30
0.0
 10
92.9704244054
 20
245.8810814504
 30
0.0
 10
91.7142674798
 20
246.8278437037
 30
0.0
 10
90.9919577913
 20
247.60492825
 30
0.0
 10
90.7062505365
 20
248.0428800726
 30
0.0
  0
SPLINE
  5
3A9
100
AcDbEntity
  8
0
100
AcDbSpline
 62
7
  6
CONTINUOUS
 70
0
 71
3
 72
10
 73
6
 74
0
 42
0.0000001
 43
0.0000001
 44
0.0000000001
 40
0.0
 40
0.0
 40
0.0
 40
0.0
 40
0.5035709226
 40
0.7520513312
 40
1.0
 40
1.0
 40
1.0
 40
1.0
 10
142.3644526466
 20
266.8597772228
 30
0.0
 10
141.947695976
 20
267.8786755579
 30
0.0
 10
141.4571972095
 20
269.466620339
 30
0.0
 10
141.2256413302
 20
271.6459296672
 30
0.0
 10
141.2604113403
 20
272.7347741964
 30
0.0
 10
141.3143132586
 20
273.2741179672
 30
0.0
  0
SPLINE
  5
3AA
100
AcDbEntity
  8
0
100
AcDbSpline
 62
7
  6
CONTINUOUS
 70
0
 71
3
 72
8
 73
4
 74
0
 42
0.0000001
 43
0.0000001
 44
0.0000000001
 40
0.0
 40
0.0
 40
0.0
 40
0.0
 40
1.0
 40
1.0
 40
1.0
 40
1.0
 10
81.0260810613
 20
265.6942492786
 30
0.0
 10
82.1268201945
 20
263.9451258953
 30
0.0
 10
83.1733348513
 20
262.1524630885
 30
0.0
 10
84.0417270664
 20
260.277108666
 30
0.0
  0
SPLINE
  5
3AB
100
AcDbEntity
  8
0
100
AcDbSpline
 62
7
  6
CONTINUOUS
 70
0
 71
3
 72
10
 73
6
 74
0
 42
0.0000001
 43
0.0000001
 44
0.0000000001
 40
0.0
 40
0.0
 40
0.0
 40
0.0
 40
0.2479512564
 40
0.4964330571
 40
1.0
 40
1.0
 40
1.0
 40
1.0
 10
82.0762204493
 20
273.2741179672
 30
0.0
 10
82.1301229337
 20
272.7347685315
 30
0.0
 10
82.1648905623
 20
271.6459151901
 30
0.0
 10
81.9333376219
 20
269.4666052999
 30
0.0
 10
81.4428344664
 20
267.8786675745
 30
0.0
 10
81.0260810613
 20
266.8597772228
 30
0.0
  0
SPLINE
  5
3AC
100
AcDbEntity
  8
0
100
AcDbSpline
 62
7
  6
CONTINUOUS
 70
0
 71
3
 72
8
 73
4
 74
0
 42
0.0000001
 43
0.0000001
 44
0.0000000001
 40
0.0
 40
0.0
 40
0.0
 40
0.0
 40
1.0
 40
1.0
 40
1.0
 40
1.0
 10
139.3488066415
 20
260.277108666
 30
0.0
 10
140.2171988566
 20
262.1524630886
 30
0.0
 10
141.2637135133
 20
263.9451258953
 30
0.0
 10
142.3644526466
 20
265.6942492786
 30
0.0
  0
SPLINE
  5
3AD
100
AcDbEntity
  8
0
100
AcDbSpline
 62
7
  6
CONTINUOUS
 70
0
 71
3
 72
9
 73
5
 74
0
 42
0.0000001
 43
0.0000001
 44
0.0000000001
 40
0.0
 40
0.0
 40
0.0
 40
0.0
 40
0.2564170594
 40
1.0
 40
1.0
 40
1.0
 40
1.0
 10
130.1306786602
 20
31.7518000217
 30
0.0
 10
130.1306786601
 20
32.0215553249
 30
0.0
 10
130.1112906678
 20
33.0734086527
 30
0.0
 10
130.0171651812
 20
34.1244703012
 30
0.0
 10
129.8977256534
 20
34.8975607018
 30
0.0
  0
SPLINE
  5
3AE
100
AcDbEntity
  8
0
100
AcDbSpline
 62
7
  6
CONTINUOUS
 70
0
 71
3
 72
10
 73
6
 74
0
 42
0.0000001
 43
0.0000001
 44
0.0000000001
 40
0.0
 40
0.0
 40
0.0
 40
0.0
 40
0.2169601238
 40
0.4612104347
 40
1.0
 40
1.0
 40
1.0
 40
1.0
 10
129.2724031746
 20
26.0589116906
 30
0.0
 10
129.4153774739
 20
26.4517303545
 30
0.0
 10
129.6652836727
 20
27.3067780618
 30
0.0
 10
130.0285427534
 20
29.2006006367
 30
0.0
 10
130.1306786605
 20
30.713684814
 30
0.0
 10
130.1306786602
 20
31.7518000217
 30
0.0
  0
SPLINE
  5
3AF
100
AcDbEntity
  8
0
100
AcDbSpline
 62
7
  6
CONTINUOUS
 70
0
 71
3
 72
13
 73
9
 74
0
 42
0.0000001
 43
0.0000001
 44
0.0000000001
 40
0.0
 40
0.0
 40
0.0
 40
0.0
 40
0.124783846
 40
0.2497776672
 40
0.3748188479
 40
0.4998758526
 40
0.7499171406
 40
1.0
 40
1.0
 40
1.0
 40
1.0
 10
132.6842831713
 20
248.0428800726
 30
0.0
 10
132.3985761761
 20
247.6049286477
 30
0.0
 10
131.6762669815
 20
246.8278445132
 30
0.0
 10
130.42011082
 20
245.881081963
 30
0.0
 10
129.0671340204
 20
245.0757599399
 30
0.0
 10
127.1861316673
 20
244.1483927362
 30
0.0
 10
124.7347154908
 20
243.2088019907
 30
0.0
 10
122.7146524372
 20
242.6409349611
 30
0.0
 10
121.6952668539
 20
242.3978447679
 30
0.0
  0
SPLINE
  5
3B0
100
AcDbEntity
  8
0
100
AcDbSpline
 62
9
  6
CONTINUOUS
 70
0
 71
3
 72
9
 73
5
 74
0
 42
0.0000001
 43
0.0000001
 44
0.0000000001
 40
0.0
 40
0.0
 40
0.0
 40
0.0
 40
0.4853433007
 40
1.0
 40
1.0
 40
1.0
 40
1.0
 10
139.3488066415
 20
260.277108666
 30
0.0
 10
136.5122289204
 20
259.8327167622
 30
0.0
 10
130.6386340309
 20
259.0984960651
 30
0.0
 10
124.7360865195
 20
258.6668280077
 30
0.0
 10
121.6952668539
 20
258.5153917957
 30
0.0
  0
SPLINE
  5
3B1
100
AcDbEntity
  8
0
100
AcDbSpline
 62
7
  6
CONTINUOUS
 70
0
 71
3
 72
11
 73
7
 74
0
 42
0.0000001
 43
0.0000001
 44
0.0000000001
 40
0.0
 40
0.0
 40
0.0
 40
0.0
 40
0.1635788931
 40
0.3854335455
 40
0.666784636
 40
1.0
 40
1.0
 40
1.0
 40
1.0
 10
270.6293395651
 20
177.166493764
 30
0.0
 10
270.8583218327
 20
177.1665126818
 30
0.0
 10
271.3900081778
 20
176.9951161372
 30
0.0
 10
272.1759265899
 20
176.4918618229
 30
0.0
 10
273.0823460409
 20
175.7461353547
 30
0.0
 10
273.7067633017
 20
175.1542622128
 30
0.0
 10
274.0390781876
 20
174.8269444513
 30
0.0
  0
SPLINE
  5
3B2
100
AcDbEntity
  8
0
100
AcDbSpline
 62
7
  6
CONTINUOUS
 70
0
 71
3
 72
9
 73
5
 74
0
 42
0.0000001
 43
0.0000001
 44
0.0000000001
 40
0.0
 40
0.0
 40
0.0
 40
0.0
 40
0.2349249697
 40
1.0
 40
1.0
 40
1.0
 40
1.0
 10
277.435895985
 20
171.94369731
 30
0.0
 10
278.0543856449
 20
171.4886665839
 30
0.0
 10
280.7038836419
 20
169.5751839575
 30
0.0
 10
283.4464019368
 20
167.786104567
 30
0.0
 10
285.6101962929
 20
166.5326782952
 30
0.0
  0
SPLINE
  5
3B3
100
AcDbEntity
  8
0
100
AcDbSpline
 62
7
  6
CONTINUOUS
 70
0
 71
3
 72
11
 73
7
 74
0
 42
0.0000001
 43
0.0000001
 44
0.0000000001
 40
0.0
 40
0.0
 40
0.0
 40
0.0
 40
0.3332167179
 40
0.6145682453
 40
0.8364222876
 40
1.0
 40
1.0
 40
1.0
 40
1.0
 10
250.8882943982
 20
174.8269444513
 30
0.0
 10
251.2206122923
 20
175.1542651758
 30
0.0
 10
251.8450345466
 20
175.7461429569
 30
0.0
 10
252.751460808
 20
176.4918730311
 30
0.0
 10
253.5373830092
 20
176.9951267482
 30
0.0
 10
254.0690726351
 20
177.1665171671
 30
0.0
 10
254.298054392
 20
177.1664936395
 30
0.0
  0
SPLINE
  5
3B4
100
AcDbEntity
  8
0
100
AcDbSpline
 62
7
  6
CONTINUOUS
 70
0
 71
3
 72
9
 73
5
 74
0
 42
0.0000001
 43
0.0000001
 44
0.0000000001
 40
0.0
 40
0.0
 40
0.0
 40
0.0
 40
0.2559850495
 40
1.0
 40
1.0
 40
1.0
 40
1.0
 10
247.4914766008
 20
171.9436973099
 30
0.0
 10
247.7978536077
 20
172.169102779
 30
0.0
 10
248.9798603333
 20
173.0695355216
 30
0.0
 10
250.1006807391
 20
174.0511743888
 30
0.0
 10
250.8882943982
 20
174.8269444513
 30
0.0
  0
SPLINE
  5
3B5
100
AcDbEntity
  8
0
100
AcDbSpline
 62
7
  6
CONTINUOUS
 70
0
 71
3
 72
9
 73
5
 74
0
 42
0.0000001
 43
0.0000001
 44
0.0000000001
 40
0.0
 40
0.0
 40
0.0
 40
0.0
 40
0.2441870099
 40
1.0
 40
1.0
 40
1.0
 40
1.0
 10
274.0390781877
 20
174.8269444513
 30
0.0
 10
274.297578295
 20
174.5723314922
 30
0.0
 10
275.3762124814
 20
173.5500611533
 30
0.0
 10
276.5312836337
 20
172.609232147
 30
0.0
 10
277.435895985
 20
171.9436973099
 30
0.0
  0
SPLINE
  5
3B6
100
AcDbEntity
  8
0
100
AcDbSpline
 62
7
  6
CONTINUOUS
 70
0
 71
3
 72
9
 73
5
 74
0
 42
0.0000001
 43
0.0000001
 44
0.0000000001
 40
0.0
 40
0.0
 40
0.0
 40
0.0
 40
0.2349279858
 40
1.0
 40
1.0
 40
1.0
 40
1.0
 10
247.4914766007
 20
171.9436973099
 30
0.0
 10
246.8729788469
 20
171.488660629
 30
0.0
 10
244.223554622
 20
169.5750736616
 30
0.0
 10
241.4809626551
 20
167.7860999364
 30
0.0
 10
239.3171762929
 20
166.5326782952
 30
0.0
  0
SPLINE
  5
3B7
100
AcDbEntity
  8
0
100
AcDbSpline
 62
7
  6
CONTINUOUS
 70
0
 71
3
 72
11
 73
7
 74
0
 42
0.0000001
 43
0.0000001
 44
0.0000000001
 40
0.0
 40
0.0
 40
0.0
 40
0.0
 40
0.2697657515
 40
0.531897215
 40
0.7779457629
 40
1.0
 40
1.0
 40
1.0
 40
1.0
 10
273.6288582434
 20
236.3976633836
 30
0.0
 10
272.7492703598
 20
234.2115409798
 30
0.0
 10
271.3650693409
 20
229.756718353
 30
0.0
 10
270.1201774609
 20
223.0668039757
 30
0.0
 10
269.476574822
 20
216.7153556242
 30
0.0
 10
269.3257488125
 20
212.6258319168
 30
0.0
 10
269.3257488125
 20
210.6861589962
 30
0.0
  0
SPLINE
  5
3B8
100
AcDbEntity
  8
0
100
AcDbSpline
 62
9
  6
CONTINUOUS
 70
0
 71
3
 72
9
 73
5
 74
0
 42
0.0000001
 43
0.0000001
 44
0.0000000001
 40
0.0
 40
0.0
 40
0.0
 40
0.0
 40
0.2386635113
 40
1.0
 40
1.0
 40
1.0
 40
1.0
 10
279.5391109533
 20
170.4320148269
 30
0.0
 10
280.4159797584
 20
170.9858321392
 30
0.0
 10
284.1857858715
 20
173.1538295115
 30
0.0
 10
288.2814571311
 20
174.7320814214
 30
0.0
 10
291.4636862929
 20
175.6370426721
 30
0.0
  0
SPLINE
  5
3B9
100
AcDbEntity
  8
0
100
AcDbSpline
 62
7
  6
CONTINUOUS
 70
0
 71
3
 72
11
 73
7
 74
0
 42
0.0000001
 43
0.0000001
 44
0.0000000001
 40
0.0
 40
0.0
 40
0.0
 40
0.0
 40
0.2697540404
 40
0.5318900882
 40
0.7779308067
 40
1.0
 40
1.0
 40
1.0
 40
1.0
 10
251.2985143424
 20
236.3976633836
 30
0.0
 10
252.1780640817
 20
234.2116357835
 30
0.0
 10
253.5624954595
 20
229.7569426238
 30
0.0
 10
254.8069649031
 20
223.0670718958
 30
0.0
 10
255.4507389399
 20
216.7155519704
 30
0.0
 10
255.6016237733
 20
212.6259626509
 30
0.0
 10
255.6016237733
 20
210.6861589962
 30
0.0
  0
SPLINE
  5
3BA
100
AcDbEntity
  8
0
100
AcDbSpline
 62
9
  6
CONTINUOUS
 70
0
 71
3
 72
9
 73
5
 74
0
 42
0.0000001
 43
0.0000001
 44
0.0000000001
 40
0.0
 40
0.0
 40
0.0
 40
0.0
 40
0.2610978946
 40
1.0
 40
1.0
 40
1.0
 40
1.0
 10
233.4636862929
 20
175.6370426721
 30
0.0
 10
234.5548677899
 20
175.3267328477
 30
0.0
 10
238.6938366327
 20
174.006675777
 30
0.0
 10
242.6735779275
 20
172.1465366181
 30
0.0
 10
245.3879902621
 20
170.4321749413
 30
0.0
  0
ELLIPSE
  5
3BB
100
AcDbEntity
  8
0
100
AcDbEllipse
 62
7
  6
CONTINUOUS
 10
96.6392447337
 20
51.5519322468
 30
0.0
 11
-0.0
 21
16.6387840271
 31
0.0
 40
0.3639702343
 41
-1.5707963268
 42
-0.3141592654
  0
ELLIPSE
  5
3BC
100
AcDbEntity
  8
0
100
AcDbEllipse
 62
7
  6
CONTINUOUS
 10
111.6952668539
 20
16.2235146986
 30
0.0
 11
-0.0
 21
94.8343658158
 31
0.0
 40
0.4244748162
 41
0.3027026831
 42
0.9884320889
  0
ELLIPSE
  5
3BD
100
AcDbEntity
  8
0
100
AcDbEllipse
 62
7
  6
CONTINUOUS
 10
111.6952668539
 20
436.7911589953
 30
0.0
 11
0.0
 21
204.2023247241
 31
0.0
 40
0.2693407143
 41
-3.6684179395
 42
-3.5331393123
  0
ELLIPSE
  5
3BE
100
AcDbEntity
  8
0
100
AcDbEllipse
 62
7
  6
CONTINUOUS
 10
111.6952668539
 20
436.7911589953
 30
0.0
 11
0.0
 21
-204.2023247241
 31
0.0
 40
0.2693407143
 41
0.3915466587
 42
0.526825286
  0
ELLIPSE
  5
3BF
100
AcDbEntity
  8
0
100
AcDbEllipse
 62
7
  6
CONTINUOUS
 10
111.6952668539
 20
16.2235146986
 30
0.0
 11
0.0
 21
94.8343658158
 31
0.0
 40
0.4244748162
 41
-1.1542669478
 42
-0.3027026831
  0
ELLIPSE
  5
3C0
100
AcDbEntity
  8
0
100
AcDbEllipse
 62
7
  6
CONTINUOUS
 10
126.7512889742
 20
51.5519322468
 30
0.0
 11
-0.0
 21
16.6387840271
 31
0.0
 40
0.3639702343
 41
0.3141592654
 42
1.5707963268
  0
ELLIPSE
  5
3C1
100
AcDbEntity
  8
0
100
AcDbEllipse
 62
7
  6
CONTINUOUS
 10
221.5138120974
 20
80.8665000201
 30
0.0
 11
177.7617890387
 21
0.0
 31
0.0
 40
0.3639702343
 41
-1.2678854208
 42
-1.1519851582
  0
ELLIPSE
  5
3C2
100
AcDbEntity
  8
0
100
AcDbEllipse
 62
7
  6
CONTINUOUS
 10
303.4135604884
 20
80.8665000201
 30
0.0
 11
177.7617890387
 21
0.0
 31
0.0
 40
0.3639702343
 41
-1.9896074954
 42
-1.8737072328
  0
ELLIPSE
  5
3C3
100
AcDbEntity
  8
0
100
AcDbEllipse
 62
7
  6
CONTINUOUS
 10
246.8155256476
 20
80.8665000201
 30
0.0
 11
177.7617890387
 21
-0.0
 31
0.0
 40
0.3639702343
 41
4.6549314982
 42
4.7324830683
  0
ELLIPSE
  5
3C4
100
AcDbEntity
  8
0
100
AcDbEllipse
 62
7
  6
CONTINUOUS
 10
278.1118469382
 20
80.8665000201
 30
0.0
 11
177.7617890387
 21
0.0
 31
0.0
 40
0.3639702343
 41
-1.5908904147
 42
-1.5133388446
  0
ELLIPSE
  5
3C5
100
AcDbEntity
  8
0
100
AcDbEllipse
 62
7
  6
CONTINUOUS
 10
217.1770362929
 20
203.1701680907
 30
0.0
 11
0.0
 21
-62.6253515055
 31
0.0
 40
0.6427876097
 41
2.1300760348
 42
2.7250632746
  0
ELLIPSE
  5
3C6
100
AcDbEntity
  8
0
100
AcDbEllipse
 62
7
  6
CONTINUOUS
 10
307.7503362929
 20
203.1701680907
 30
0.0
 11
0.0
 21
62.6253515055
 31
0.0
 40
0.6427876097
 41
0.416529379
 42
1.0115166188
  0
ENDSEC
  0
SECTION
  2
OBJECTS
  0
DICTIONARY
  5
C
100
AcDbDictionary
280
0
281
1
  3
ACAD_GROUP
350
D
  3
ACAD_MLINESTYLE
350
17
  3
ACAD_LAYOUT
350
1A
  3
ACAD_PLOTSETTINGS
350
19
  3
ACAD_PLOTSTYLENAME
350
E
  0
DICTIONARY
  5
D
102
{ACAD_REACTORS
330
C
102
}
100
AcDbDictionary
280
0
281
1
  0
ACDBDICTIONARYWDFLT
  5
E
102
{ACAD_REACTORS
330
C
102
}
100
AcDbDictionary
281
1
  3
Normal
350
F
100
AcDbDictionaryWithDefault
340
F
  0
DICTIONARY
  5
17
102
{ACAD_REACTORS
330
C
102
}
100
AcDbDictionary
280
0
281
1
  3
Standard
350
18
  0
DICTIONARY
  5
19
102
{ACAD_REACTORS
330
C
102
}
100
AcDbDictionary
281
1
  0
DICTIONARY
  5
1A
102
{ACAD_REACTORS
330
C
102
}
100
AcDbDictionary
281
1
  3
Model
350
3C7
  3
Layout1
350
3C8
  0
ACDBPLACEHOLDER
  5
F
102
{ACAD_REACTORS
330
E
102
}
  0
MLINESTYLE
  5
18
102
{ACAD_REACTORS
330
17
102
}
100
AcDbMlineStyle
  2
STANDARD
 70
0
  3

 62
256
 51
90.0
 52
90.0
 71
2
 49
0.5
 62
256
  6
BYLAYER
 49
-0.5
 62
256
  6
BYLAYER
  0
LAYOUT
  5
3C7
102
{ACAD_REACTORS
330
1A
102
}
100
AcDbPlotSettings
  1

  2
none_device
  4
ISO_A3_(420.00_x_297.00_MM)
  6

 40
0.0
 41
0.0
 42
0.0
 43
0.0
 44
420.0
 45
297.0
 46
0.0
 47
0.0
 48
0.0
 49
0.0
140
0.0
141
0.0
142
1.0
143
1.0
 70
1024
 72
1
 73
0
 74
0
  7

 75
0
147
1.0
148
0.0
149
0.0
100
AcDbLayout
  1
Model
 70
0
 71
0
 10
0.0
 20
0.0
 11
420.0
 21
297.0
 12
0.0
 22
0.0
 32
0.0
 14
0.0
 24
0.0
 34
0.0
 15
0.0
 25
0.0
 35
0.0
146
0.0
 13
0.0
 23
0.0
 33
0.0
 16
1.0
 26
0.0
 36
0.0
 17
0.0
 27
1.0
 37
0.0
 76
0
330
201
345
0
346
0
  0
LAYOUT
  5
3C8
102
{ACAD_REACTORS
330
1A
102
}
100
AcDbPlotSettings
  1

  2
none_device
  4
ISO_A3_(420.00_x_297.00_MM)
  6

 40
0.0
 41
0.0
 42
0.0
 43
0.0
 44
420.0
 45
297.0
 46
0.0
 47
0.0
 48
0.0
 49
0.0
140
0.0
141
0.0
142
1.0
143
1.0
 70
0
 72
1
 73
0
 74
0
  7

 75
0
147
1.0
148
0.0
149
0.0
100
AcDbLayout
  1
Layout1
 70
0
 71
1
 10
0.0
 20
0.0
 11
420.0
 21
297.0
 12
0.0
 22
0.0
 32
0.0
 14
0.0
 24
0.0
 34
0.0
 15
0.0
 25
0.0
 35
0.0
146
0.0
 13
0.0
 23
0.0
 33
0.0
 16
1.0
 26
0.0
 36
0.0
 17
0.0
 27
1.0
 37
0.0
 76
0
330
202
345
0
346
0
  0
ENDSEC
  0
EOF
