999
DXF file: C:\Aktuell-Internet\CAD-Daten\2vvh16.dxf
999
Pro/ENGINEER 2001400 by Parametric Technology Corporation
0
SECTION
2
HEADER
9
$ACADVER
1
AC1014
9
$EXTMAX
10
420.0000000000
20
297.0000000000
9
$EXTMIN
10
0.0000000000
20
0.0000000000
9
$LIMMIN
10
0.0000000000
20
0.0000000000
9
$LIMMAX
10
420.0000000000
20
297.0000000000
9
$VIEWCTR
10
210.0000000000
20
148.5000000000
9
$VIEWSIZE
40
297.0000000000
9
$CLAYER
8
0
9
$LTSCALE
40
23.1000000000
9
$CELTYPE
6
BYLAYER
9
$DIMSCALE
40
1
9
$DIMASZ
40
3.5000000000
9
$DIMEXO
40
2.6250000000
9
$DIMDLI
40
15.9600000000
9
$DIMEXE
40
7.5600000000
9
$DIMCEN
40
3.7800000000
9
$DIMLFAC
40
1.0000000000
9
$DIMTXT
40
3.5000000000
9
$DIMTOL
70
1
9
$DIMTFAC
40
0.6000000000
9
$DIMTP
40
0.0050000000
9
$DIMTM
40
0.0050000000
9
$HANDSEED
5
38A
0
ENDSEC
0
SECTION
2
CLASSES
0
ENDSEC
0
SECTION
2
TABLES
0
TABLE
2
VPORT
5
8
100
AcDbSymbolTable
70
2
0
VPORT
5
1F4
100
AcDbSymbolTableRecord
100
AcDbViewportTableRecord
2
*ACTIVE
70
0
10
0.0
20
0.0
11
1.0
21
1.0
12
210.0000000000
22
148.5000000000
13
0.0
23
0.0
14
1.0
24
1.0
15
0.0
25
0.0
16
0.0
26
0.0
36
1.0
17
0.0
27
0.0
37
0.0
40
297.0000000000
41
1.4141414141
42
50.0
43
0.0
44
0.0
50
0.0
51
0.0
71
0
72
100
73
1
74
1
75
0
76
0
77
0
78
0
0
ENDTAB
0
TABLE
2
LTYPE
5
5
100
AcDbSymbolTable
70
6
0
LTYPE
5
14
100
AcDbSymbolTableRecord
100
AcDbLinetypeTableRecord
2
BYBLOCK
70
0
3

72
65
73
0
40
0.0
0
LTYPE
5
15
100
AcDbSymbolTableRecord
100
AcDbLinetypeTableRecord
2
BYLAYER
70
0
3

72
65
73
0
40
0.0
0
LTYPE
5
16
100
AcDbSymbolTableRecord
100
AcDbLinetypeTableRecord
2
CONTINUOUS
70
64
3
Solid line
72
65
73
0
40
0
0
LTYPE
5
1F5
100
AcDbSymbolTableRecord
100
AcDbLinetypeTableRecord
2
CENTER
70
64
3
____ _ ____ _ ____ _ ____ _ ____ _ ____ _ ____
72
65
73
4
40
0.6
49
0.375
74
0
49
-0.075
74
0
49
0.075
74
0
49
-0.075
74
0
0
LTYPE
5
1F6
100
AcDbSymbolTableRecord
100
AcDbLinetypeTableRecord
2
HIDDEN
70
64
3
- - - - - - - - - - - - - - - - - - - -
72
65
73
2
40
0.2
49
0.1
74
0
49
-0.1
74
0
0
LTYPE
5
1F7
100
AcDbSymbolTableRecord
100
AcDbLinetypeTableRecord
2
PHANTOM
70
64
3
_____ _ _ _____ _ _ _____ _ _ _____
72
65
73
6
40
0.8
49
0.45
74
0
49
-0.05
74
0
49
0.1
74
0
49
-0.05
74
0
49
0.1
74
0
49
-0.05
74
0
0
LTYPE
5
1F8
100
AcDbSymbolTableRecord
100
AcDbLinetypeTableRecord
2
DOT
70
64
3
. . . . . . . . . . . . . . . . . . . .
72
65
73
2
40
0.2
49
0.1
74
0
49
-0.1
74
0
0
LTYPE
5
1F9
100
AcDbSymbolTableRecord
100
AcDbLinetypeTableRecord
2
DASHED
70
64
3
- - - - - - - - - - - - - - - - - - - -
72
65
73
2
40
0.2
49
0.1
74
0
49
-0.1
74
0
0
ENDTAB
0
TABLE
2
LAYER
5
2
100
AcDbSymbolTable
70
36
0
LAYER
5
10
100
AcDbSymbolTableRecord
100
AcDbLayerTableRecord
2
0
70
0
62
7
6
CONTINUOUS
0
LAYER
5
1FA
100
AcDbSymbolTableRecord
100
AcDbLayerTableRecord
2
DEFAULT_1
70
0
62
7
6
CENTER
0
LAYER
5
1FB
100
AcDbSymbolTableRecord
100
AcDbLayerTableRecord
2
DEFAULT_2
70
0
62
8
6
HIDDEN
0
LAYER
5
1FC
100
AcDbSymbolTableRecord
100
AcDbLayerTableRecord
2
DEFAULT_3
70
0
62
7
6
PHANTOM
0
ENDTAB
0
TABLE
2
STYLE
5
3
100
AcDbSymbolTable
70
1
0
STYLE
5
11
100
AcDbSymbolTableRecord
100
AcDbTextStyleTableRecord
2
STANDARD
70
0
40
0.0
41
1.0
50
0.0
71
0
42
0.0
3
txt
4

0
STYLE
5
1FD
100
AcDbSymbolTableRecord
100
AcDbTextStyleTableRecord
2
TEXTSTYLE_0
70
0
40
0.0
41
0.80
50
0.0
71
0
42
0.2
3
txt
4

0
ENDTAB
0
TABLE
2
VIEW
5
6
100
AcDbSymbolTable
70
0
0
ENDTAB
0
TABLE
2
UCS
5
7
100
AcDbSymbolTable
70
0
0
ENDTAB
0
TABLE
2
APPID
5
9
100
AcDbSymbolTable
70
1
0
APPID
5
1FE
100
AcDbSymbolTableRecord
100
AcDbRegAppTableRecord
2
ACAD
70
0
0
ENDTAB
0
TABLE
2
DIMSTYLE
5
A
100
AcDbSymbolTable
70
1
0
DIMSTYLE
105
1FF
100
AcDbSymbolTableRecord
100
AcDbDimStyleTableRecord
2
STANDARD
70
0
3

4

5

6

7

40
1.0
41
0.18
42
0.0625
43
0.38
44
0.18
45
0.0
46
0.0
47
0.0050000000
48
0.0050000000
140
3.5000000000
141
0.09
142
0.0
143
25.4
144
1.0000000000
145
0.0
146
0.6000000000
147
0.09
71
1
72
0
73
1
74
1
75
0
76
0
77
0
78
0
170
0
171
2
172
0
173
0
174
0
175
0
176
0
177
0
178
0
270
2
271
3
272
4
273
2
274
2
340
11
275
0
280
0
281
0
282
0
283
1
284
0
285
0
286
0
287
3
288
0
0
ENDTAB
0
TABLE
2
BLOCK_RECORD
5
1
100
AcDbSymbolTable
70
0
0
BLOCK_RECORD
5
1B
100
AcDbSymbolTableRecord
100
AcDbBlockTableRecord
2
*MODEL_SPACE
0
BLOCK_RECORD
5
1C
100
AcDbSymbolTableRecord
100
AcDbBlockTableRecord
2
*PAPER_SPACE
0
ENDTAB
0
ENDSEC
0
SECTION
2
BLOCKS
0
BLOCK
5
1E
100
AcDbEntity
8
0
100
AcDbBlockBegin
2
*MODEL_SPACE
70
0
10
0.0
20
0.0
30
0.0
3
*MODEL_SPACE
1

0
ENDBLK
5
1F
100
AcDbEntity
8
0
100
AcDbBlockEnd
0
BLOCK
5
20
100
AcDbEntity
8
0
100
AcDbBlockBegin
2
*PAPER_SPACE
70
0
10
0.0
20
0.0
30
0.0
3
*PAPER_SPACE
1

0
ENDBLK
5
21
100
AcDbEntity
8
0
100
AcDbBlockEnd
0
ENDSEC
0
SECTION
2
ENTITIES
0
TEXT
5
200
100
AcDbEntity
8
0
100
AcDbText
62
2
6
CONTINUOUS
10
291.5187498305
20
89.6879091587
7
TEXTSTYLE_0
40
8.0000000000
1
RUD
50
90.0000000000
72
5
11
291.5187498305
21
109.4974329683
100
AcDbText
0
TEXT
5
201
100
AcDbEntity
8
0
100
AcDbText
62
2
6
CONTINUOUS
10
306.9474820754
20
88.9067075261
7
TEXTSTYLE_0
40
8.0000000000
1
VVH 16/VIP
50
90.0000000000
72
5
11
306.9474820754
21
149.8590884785
100
AcDbText
0
LINE
5
202
100
AcDbEntity
8
0
100
AcDbLine
62
7
6
CONTINUOUS
10
0.0000000000
20
0.0000000000
11
0.0000000000
21
297.0000000000
0
LINE
5
203
100
AcDbEntity
8
0
100
AcDbLine
62
7
6
CONTINUOUS
10
0.0000000000
20
0.0000000000
11
420.0000000000
21
0.0000000000
0
LINE
5
204
100
AcDbEntity
8
0
100
AcDbLine
62
7
6
CONTINUOUS
10
0.0000000000
20
297.0000000000
11
420.0000000000
21
297.0000000000
0
LINE
5
205
100
AcDbEntity
8
0
100
AcDbLine
62
7
6
CONTINUOUS
10
420.0000000000
20
0.0000000000
11
420.0000000000
21
297.0000000000
0
LINE
5
206
100
AcDbEntity
8
0
100
AcDbLine
62
7
6
CONTINUOUS
10
135.6853382252
20
63.6164216357
11
136.3708393472
21
63.6164216357
0
LINE
5
207
100
AcDbEntity
8
0
100
AcDbLine
62
7
6
CONTINUOUS
10
70.3672670505
20
258.2870840200
11
80.9065910147
21
270.8473612178
0
LINE
5
208
100
AcDbEntity
8
0
100
AcDbLine
62
7
6
CONTINUOUS
10
148.5833308206
20
95.2911134783
11
152.7922670505
21
96.4820802001
0
LINE
5
209
100
AcDbEntity
8
0
100
AcDbLine
62
7
6
CONTINUOUS
10
144.9756711147
20
96.3332094930
11
145.5769476388
21
96.4820802001
0
LINE
5
20A
100
AcDbEntity
8
0
100
AcDbLine
62
7
6
CONTINUOUS
10
145.5769476388
20
97.3753052947
11
144.9756711147
21
97.2264345876
0
LINE
5
20B
100
AcDbEntity
8
0
100
AcDbLine
62
7
6
CONTINUOUS
10
150.3871606735
20
99.7572387383
11
149.5854586414
21
99.6083684571
0
LINE
5
20C
100
AcDbEntity
8
0
100
AcDbLine
62
7
6
CONTINUOUS
10
149.5854586414
20
98.7151429366
11
150.5875861816
21
98.8640140697
0
LINE
5
20D
100
AcDbEntity
8
0
100
AcDbLine
62
7
6
CONTINUOUS
10
143.3722670505
20
91.8670840200
11
152.7922670505
21
91.8670840200
0
LINE
5
20E
100
AcDbEntity
8
0
100
AcDbLine
62
7
6
CONTINUOUS
10
152.7922670505
20
92.7603091146
11
148.5833308206
21
92.7603091146
0
LINE
5
20F
100
AcDbEntity
8
0
100
AcDbLine
62
7
6
CONTINUOUS
10
147.3807777725
20
92.7603091146
11
144.3743945907
21
92.7603091146
0
LINE
5
210
100
AcDbEntity
8
0
100
AcDbLine
62
7
6
CONTINUOUS
10
145.5769476388
20
96.4820802001
11
146.1782247243
21
96.4820802001
0
LINE
5
211
100
AcDbEntity
8
0
100
AcDbLine
62
7
6
CONTINUOUS
10
146.3786502324
20
97.3753052947
11
145.5769476388
21
97.3753052947
0
LINE
5
212
100
AcDbEntity
8
0
100
AcDbLine
62
7
6
CONTINUOUS
10
143.3722670505
20
98.7151429366
11
149.5854586414
21
98.7151429366
0
LINE
5
213
100
AcDbEntity
8
0
100
AcDbLine
62
7
6
CONTINUOUS
10
149.5854586414
20
99.6083684571
11
143.3722670505
21
99.6083684571
0
LINE
5
214
100
AcDbEntity
8
0
100
AcDbLine
62
7
6
CONTINUOUS
10
116.8032635845
20
99.6866728680
11
113.5422670505
21
99.6866728680
0
LINE
5
215
100
AcDbEntity
8
0
100
AcDbLine
62
7
6
CONTINUOUS
10
97.7212705166
20
99.6866728680
11
100.9822670505
21
99.6866728680
0
LINE
5
216
100
AcDbEntity
8
0
100
AcDbLine
62
7
6
CONTINUOUS
10
145.7773737083
20
110.1781984592
11
146.5790757404
21
110.3270687404
0
LINE
5
217
100
AcDbEntity
8
0
100
AcDbLine
62
7
6
CONTINUOUS
10
146.5790757404
20
111.2202938350
11
145.5769476388
21
111.0714235538
0
LINE
5
218
100
AcDbEntity
8
0
100
AcDbLine
62
7
6
CONTINUOUS
10
143.3722670505
20
103.1812688355
11
149.5854586414
21
103.1812688355
0
LINE
5
219
100
AcDbEntity
8
0
100
AcDbLine
62
7
6
CONTINUOUS
10
149.5854586414
20
104.0744939301
11
143.3722670505
21
104.0744939301
0
LINE
5
21A
100
AcDbEntity
8
0
100
AcDbLine
62
7
6
CONTINUOUS
10
143.3722670505
20
105.2654604390
11
152.7922670505
21
105.2654604390
0
LINE
5
21B
100
AcDbEntity
8
0
100
AcDbLine
62
7
6
CONTINUOUS
10
151.5897138620
20
106.1586855336
11
144.5748200987
21
106.1586855336
0
LINE
5
21C
100
AcDbEntity
8
0
100
AcDbLine
62
7
6
CONTINUOUS
10
83.0701258938
20
106.9238851233
11
64.9210392249
21
106.9238851233
0
LINE
5
21D
100
AcDbEntity
8
0
100
AcDbLine
62
7
6
CONTINUOUS
10
100.9822670505
20
108.8930033277
11
113.5422670505
21
108.8930033277
0
LINE
5
21E
100
AcDbEntity
8
0
100
AcDbLine
62
7
6
CONTINUOUS
10
146.5790757404
20
110.3270687404
11
149.5854586414
21
110.3270687404
0
LINE
5
21F
100
AcDbEntity
8
0
100
AcDbLine
62
7
6
CONTINUOUS
10
150.5875861816
20
103.9256227971
11
149.5854586414
21
104.0744939301
0
LINE
5
220
100
AcDbEntity
8
0
100
AcDbLine
62
7
6
CONTINUOUS
10
146.1782247243
20
96.4820802001
11
146.7795012484
21
96.3332094930
0
LINE
5
221
100
AcDbEntity
8
0
100
AcDbLine
62
7
6
CONTINUOUS
10
146.9799267564
20
97.2264345876
11
146.3786502324
21
97.3753052947
0
LINE
5
222
100
AcDbEntity
8
0
100
AcDbLine
62
7
6
CONTINUOUS
10
64.8722670505
20
140.4233860905
11
64.8722670505
21
109.1370840200
0
LINE
5
223
100
AcDbEntity
8
0
100
AcDbLine
62
7
6
CONTINUOUS
10
151.5897138620
20
122.5344777987
11
143.3722670505
21
120.4502870471
0
LINE
5
224
100
AcDbEntity
8
0
100
AcDbLine
62
7
6
CONTINUOUS
10
143.3722670505
20
119.5570619525
11
152.7922670505
21
121.9389966739
0
LINE
5
225
100
AcDbEntity
8
0
100
AcDbLine
62
7
6
CONTINUOUS
10
149.5854586414
20
111.2202938350
11
146.5790757404
21
111.2202938350
0
LINE
5
226
100
AcDbEntity
8
0
100
AcDbLine
62
7
6
CONTINUOUS
10
100.9822670505
20
116.8415627373
11
113.5422670505
21
116.8415627373
0
LINE
5
227
100
AcDbEntity
8
0
100
AcDbLine
62
7
6
CONTINUOUS
10
150.5875861816
20
111.0714235538
11
149.5854586414
21
111.2202938350
0
LINE
5
228
100
AcDbEntity
8
0
100
AcDbLine
62
7
6
CONTINUOUS
10
149.5854586414
20
103.1812688355
11
150.3871606735
21
103.0323977025
0
LINE
5
229
100
AcDbEntity
8
0
100
AcDbLine
62
7
6
CONTINUOUS
10
149.5854586414
20
110.3270687404
11
150.3871606735
21
110.1781984592
0
LINE
5
22A
100
AcDbEntity
8
0
100
AcDbLine
62
7
6
CONTINUOUS
10
96.8822053595
20
62.3212485501
11
94.5088269196
21
68.8420522215
0
LINE
5
22B
100
AcDbEntity
8
0
100
AcDbLine
62
7
6
CONTINUOUS
10
70.3672670505
20
258.2870840200
11
70.3672670505
21
232.7811003831
0
LINE
5
22C
100
AcDbEntity
8
0
100
AcDbLine
62
7
6
CONTINUOUS
10
68.0576864628
20
182.6605328985
11
65.3221484840
21
180.3651439894
0
LINE
5
22D
100
AcDbEntity
8
0
100
AcDbLine
62
7
6
CONTINUOUS
10
151.5897138620
20
129.6802785555
11
143.3722670505
21
127.5960878039
0
LINE
5
22E
100
AcDbEntity
8
0
100
AcDbLine
62
7
6
CONTINUOUS
10
143.3722670505
20
126.7028627093
11
152.7922670505
21
129.0847974307
0
LINE
5
22F
100
AcDbEntity
8
0
100
AcDbLine
62
7
6
CONTINUOUS
10
151.3892883540
20
103.6278813828
11
150.5875861816
21
103.9256227971
0
LINE
5
230
100
AcDbEntity
8
0
100
AcDbLine
62
7
6
CONTINUOUS
10
147.7816287885
20
96.7798220403
11
146.9799267564
21
97.2264345876
0
LINE
5
231
100
AcDbEntity
8
0
100
AcDbLine
62
7
6
CONTINUOUS
10
97.8145230603
20
99.5072732353
11
97.7212705166
21
99.6866728680
0
LINE
5
232
100
AcDbEntity
8
0
100
AcDbLine
62
7
6
CONTINUOUS
10
143.3722670505
20
133.8486634661
11
152.7922670505
21
133.8486634661
0
LINE
5
233
100
AcDbEntity
8
0
100
AcDbLine
62
7
6
CONTINUOUS
10
143.3722670505
20
124.6186719577
11
151.5897138620
21
122.5344777987
0
LINE
5
234
100
AcDbEntity
8
0
100
AcDbLine
62
7
6
CONTINUOUS
10
151.3892883540
20
110.7736812877
11
150.5875861816
21
111.0714235538
0
LINE
5
235
100
AcDbEntity
8
0
100
AcDbLine
62
7
6
CONTINUOUS
10
150.3871606735
20
103.0323977025
11
150.9884371976
21
102.7346562882
0
LINE
5
236
100
AcDbEntity
8
0
100
AcDbLine
62
7
6
CONTINUOUS
10
150.3871606735
20
110.1781984592
11
150.9884371976
21
109.8804561931
0
LINE
5
237
100
AcDbEntity
8
0
100
AcDbLine
62
7
6
CONTINUOUS
10
146.7795012484
20
96.3332094930
11
147.1803522644
21
96.0354676528
0
LINE
5
238
100
AcDbEntity
8
0
100
AcDbLine
62
7
6
CONTINUOUS
10
79.8271827465
20
154.7039775689
11
63.0232815555
21
174.7300871829
0
LINE
5
239
100
AcDbEntity
8
0
100
AcDbLine
62
7
6
CONTINUOUS
10
83.0701258938
20
106.9238851233
11
83.0701258938
21
147.1552833590
0
LINE
5
23A
100
AcDbEntity
8
0
100
AcDbLine
62
7
6
CONTINUOUS
10
86.0241754062
20
248.8670840200
11
86.0241754062
21
239.4470840200
0
LINE
5
23B
100
AcDbEntity
8
0
100
AcDbLine
62
7
6
CONTINUOUS
10
86.0241754062
20
260.4791594917
11
86.0241754062
21
270.8470840200
0
LINE
5
23C
100
AcDbEntity
8
0
100
AcDbLine
62
7
6
CONTINUOUS
10
152.7922670505
20
134.7418885607
11
148.3829053126
21
134.7418885607
0
LINE
5
23D
100
AcDbEntity
8
0
100
AcDbLine
62
7
6
CONTINUOUS
10
147.1803522644
20
134.7418885607
11
143.3722670505
21
134.7418885607
0
LINE
5
23E
100
AcDbEntity
8
0
100
AcDbLine
62
7
6
CONTINUOUS
10
143.3722670505
20
138.9102734712
11
147.1803522644
21
138.9102734712
0
LINE
5
23F
100
AcDbEntity
8
0
100
AcDbLine
62
7
6
CONTINUOUS
10
148.3829053126
20
138.9102734712
11
152.7922670505
21
138.9102734712
0
LINE
5
240
100
AcDbEntity
8
0
100
AcDbLine
62
7
6
CONTINUOUS
10
152.7922670505
20
139.8034985658
11
143.3722670505
21
139.8034985658
0
LINE
5
241
100
AcDbEntity
8
0
100
AcDbLine
62
7
6
CONTINUOUS
10
152.7922670505
20
123.1299623309
11
143.3722670505
21
125.5118970523
0
LINE
5
242
100
AcDbEntity
8
0
100
AcDbLine
62
7
6
CONTINUOUS
10
152.7922670505
20
130.2757630877
11
143.3722670505
21
132.6576978091
0
LINE
5
243
100
AcDbEntity
8
0
100
AcDbLine
62
7
6
CONTINUOUS
10
143.3722670505
20
131.7644727145
11
151.5897138620
21
129.6802785555
0
LINE
5
244
100
AcDbEntity
8
0
100
AcDbLine
62
7
6
CONTINUOUS
10
152.1909904563
20
103.0323977025
11
151.3892883540
21
103.6278813828
0
LINE
5
245
100
AcDbEntity
8
0
100
AcDbLine
62
7
6
CONTINUOUS
10
150.5875861816
20
152.1597779053
11
149.9863096575
21
152.0109093278
0
LINE
5
246
100
AcDbEntity
8
0
100
AcDbLine
62
7
6
CONTINUOUS
10
148.7837563286
20
155.5838097062
11
149.3850331334
21
155.7326782837
0
LINE
5
247
100
AcDbEntity
8
0
100
AcDbLine
62
7
6
CONTINUOUS
10
145.5769476388
20
156.1792908310
11
144.9756711147
21
156.0304222535
0
LINE
5
248
100
AcDbEntity
8
0
100
AcDbLine
62
7
6
CONTINUOUS
10
148.7837563286
20
151.1176842332
11
150.1867351655
21
151.2665528107
0
LINE
5
249
100
AcDbEntity
8
0
100
AcDbLine
62
7
6
CONTINUOUS
10
144.7752456067
20
148.1402649796
11
146.3786502324
21
148.1402649796
0
LINE
5
24A
100
AcDbEntity
8
0
100
AcDbLine
62
7
6
CONTINUOUS
10
144.9756711147
20
149.0334900742
11
152.7922670505
21
149.0334900742
0
LINE
5
24B
100
AcDbEntity
8
0
100
AcDbLine
62
7
6
CONTINUOUS
10
152.7922670505
20
149.9267151688
11
143.3722670505
21
149.9267151688
0
LINE
5
24C
100
AcDbEntity
8
0
100
AcDbLine
62
7
6
CONTINUOUS
10
152.1909904563
20
110.1781984592
11
151.3892883540
21
110.7736812877
0
LINE
5
24D
100
AcDbEntity
8
0
100
AcDbLine
62
7
6
CONTINUOUS
10
97.8422670505
20
118.5570840200
11
97.8422670505
21
152.5198848064
0
LINE
5
24E
100
AcDbEntity
8
0
100
AcDbLine
62
7
6
CONTINUOUS
10
98.4702670505
20
267.3930840200
11
98.4702670505
21
227.8290840200
0
LINE
5
24F
100
AcDbEntity
8
0
100
AcDbLine
62
7
6
CONTINUOUS
10
100.9822670505
20
116.8415627373
11
100.9822670505
21
99.6866728680
0
LINE
5
250
100
AcDbEntity
8
0
100
AcDbLine
62
7
6
CONTINUOUS
10
100.9822670505
20
60.9250450671
11
100.9822670505
21
82.7883798854
0
LINE
5
251
100
AcDbEntity
8
0
100
AcDbLine
62
7
6
CONTINUOUS
10
151.5897138620
20
164.2183166823
11
143.3722670505
21
162.1341225234
0
LINE
5
252
100
AcDbEntity
8
0
100
AcDbLine
62
7
6
CONTINUOUS
10
143.3722670505
20
161.2408974288
11
152.7922670505
21
163.6228355575
0
LINE
5
253
100
AcDbEntity
8
0
100
AcDbLine
62
7
6
CONTINUOUS
10
147.3807777725
20
151.1176842332
11
148.7837563286
21
151.1176842332
0
LINE
5
254
100
AcDbEntity
8
0
100
AcDbLine
62
7
6
CONTINUOUS
10
147.7816287885
20
151.8620339355
11
147.3807777725
21
151.8620339355
0
LINE
5
255
100
AcDbEntity
8
0
100
AcDbLine
62
7
6
CONTINUOUS
10
149.9863096575
20
152.0109093278
11
149.3850331334
21
152.0109093278
0
LINE
5
256
100
AcDbEntity
8
0
100
AcDbLine
62
7
6
CONTINUOUS
10
149.3850331334
20
155.7326782837
11
149.9863096575
21
155.7326782837
0
LINE
5
257
100
AcDbEntity
8
0
100
AcDbLine
62
7
6
CONTINUOUS
10
150.1867351655
20
156.4770348008
11
149.1846073447
21
156.4770348008
0
LINE
5
258
100
AcDbEntity
8
0
100
AcDbLine
62
7
6
CONTINUOUS
10
145.9777992163
20
151.2665528107
11
147.3807777725
21
151.1176842332
0
LINE
5
259
100
AcDbEntity
8
0
100
AcDbLine
62
7
6
CONTINUOUS
10
147.3807777725
20
151.8620339355
11
146.1782247243
21
152.0109093278
0
LINE
5
25A
100
AcDbEntity
8
0
100
AcDbLine
62
7
6
CONTINUOUS
10
150.9884371976
20
102.7346562882
11
151.3892883540
21
102.2880437409
0
LINE
5
25B
100
AcDbEntity
8
0
100
AcDbLine
62
7
6
CONTINUOUS
10
150.9884371976
20
109.8804561931
11
151.3892883540
21
109.4338436458
0
LINE
5
25C
100
AcDbEntity
8
0
100
AcDbLine
62
7
6
CONTINUOUS
10
93.4345443589
20
164.6300033729
11
79.1170179336
21
181.6929669274
0
LINE
5
25D
100
AcDbEntity
8
0
100
AcDbLine
62
7
6
CONTINUOUS
10
148.1824798046
20
96.1843387859
11
147.7816287885
21
96.7798220403
0
LINE
5
25E
100
AcDbEntity
8
DEFAULT_1
100
AcDbLine
62
2
6
CENTER
10
107.2622670505
20
55.8967463212
11
107.2622670505
21
274.7266290723
0
LINE
5
25F
100
AcDbEntity
8
0
100
AcDbLine
62
7
6
CONTINUOUS
10
94.0210563215
20
75.7364745121
11
97.7212705166
21
99.6866728680
0
LINE
5
260
100
AcDbEntity
8
0
100
AcDbLine
62
7
6
CONTINUOUS
10
146.1782247243
20
152.0109093278
11
145.5769476388
21
152.1597779053
0
LINE
5
261
100
AcDbEntity
8
0
100
AcDbLine
62
7
6
CONTINUOUS
10
149.3850331334
20
152.0109093278
11
148.7837563286
21
152.1597779053
0
LINE
5
262
100
AcDbEntity
8
0
100
AcDbLine
62
7
6
CONTINUOUS
10
149.9863096575
20
155.7326782837
11
150.5875861816
21
155.5838097062
0
LINE
5
263
100
AcDbEntity
8
0
100
AcDbLine
62
7
6
CONTINUOUS
10
144.9756711147
20
151.5642967805
11
145.9777992163
21
151.2665528107
0
LINE
5
264
100
AcDbEntity
8
0
100
AcDbLine
62
7
6
CONTINUOUS
10
152.5918415250
20
102.4369140221
11
152.1909904563
21
103.0323977025
0
LINE
5
265
100
AcDbEntity
8
0
100
AcDbLine
62
7
6
CONTINUOUS
10
120.5034777809
20
75.7364745039
11
116.8032635845
21
99.6866728680
0
LINE
5
266
100
AcDbEntity
8
0
100
AcDbLine
62
7
6
CONTINUOUS
10
113.5422670505
20
116.8415627373
11
113.5422670505
21
99.6866728680
0
LINE
5
267
100
AcDbEntity
8
0
100
AcDbLine
62
7
6
CONTINUOUS
10
113.5422670505
20
58.9216212620
11
113.5422670505
21
82.7883798854
0
LINE
5
268
100
AcDbEntity
8
0
100
AcDbLine
62
7
6
CONTINUOUS
10
116.0542670505
20
227.8290840200
11
116.0542670505
21
267.3930840200
0
LINE
5
269
100
AcDbEntity
8
0
100
AcDbLine
62
7
6
CONTINUOUS
10
116.6822670505
20
118.5570840200
11
116.6822670505
21
159.5848848064
0
LINE
5
26A
100
AcDbEntity
8
0
100
AcDbLine
62
7
6
CONTINUOUS
10
144.9756711147
20
175.8302429121
11
144.1739690826
21
175.3836303648
0
LINE
5
26B
100
AcDbEntity
8
0
100
AcDbLine
62
7
6
CONTINUOUS
10
144.9756711147
20
174.9370178175
11
145.5769476388
21
175.0858863950
0
LINE
5
26C
100
AcDbEntity
8
0
100
AcDbLine
62
7
6
CONTINUOUS
10
145.5769476388
20
175.9791114896
11
144.9756711147
21
175.8302429121
0
LINE
5
26D
100
AcDbEntity
8
0
100
AcDbLine
62
7
6
CONTINUOUS
10
143.3722670505
20
168.3866981855
11
152.7922670505
21
168.3866981855
0
LINE
5
26E
100
AcDbEntity
8
0
100
AcDbLine
62
7
6
CONTINUOUS
10
152.7922670505
20
169.2799232801
11
143.3722670505
21
169.2799232801
0
LINE
5
26F
100
AcDbEntity
8
0
100
AcDbLine
62
7
6
CONTINUOUS
10
143.3722670505
20
170.4708923445
11
152.7922670505
21
170.4708923445
0
LINE
5
270
100
AcDbEntity
8
0
100
AcDbLine
62
7
6
CONTINUOUS
10
152.7922670505
20
171.3641174391
11
148.5833308206
21
171.3641174391
0
LINE
5
271
100
AcDbEntity
8
0
100
AcDbLine
62
7
6
CONTINUOUS
10
147.3807777725
20
171.3641174391
11
144.3743945907
21
171.3641174391
0
LINE
5
272
100
AcDbEntity
8
0
100
AcDbLine
62
7
6
CONTINUOUS
10
151.1888628460
20
156.1792908310
11
150.1867351655
21
156.4770348008
0
LINE
5
273
100
AcDbEntity
8
0
100
AcDbLine
62
7
6
CONTINUOUS
10
145.3765221308
20
159.6033226319
11
150.3871606735
21
157.6679970504
0
LINE
5
274
100
AcDbEntity
8
0
100
AcDbLine
62
7
6
CONTINUOUS
10
150.7880116896
20
158.1146095977
11
145.7773737083
21
160.0499351792
0
LINE
5
275
100
AcDbEntity
8
0
100
AcDbLine
62
7
6
CONTINUOUS
10
145.5769476388
20
152.1597779053
11
144.9756711147
21
152.4575218751
0
LINE
5
276
100
AcDbEntity
8
0
100
AcDbLine
62
7
6
CONTINUOUS
10
150.5875861816
20
155.5838097062
11
151.1888628460
21
155.2860657364
0
LINE
5
277
100
AcDbEntity
8
0
100
AcDbLine
62
7
6
CONTINUOUS
10
144.1739690826
20
152.0109093278
11
144.9756711147
21
151.5642967805
0
LINE
5
278
100
AcDbEntity
8
0
100
AcDbLine
62
7
6
CONTINUOUS
10
143.3722670505
20
149.0334900742
11
144.7752456067
21
148.1402649796
0
LINE
5
279
100
AcDbEntity
8
0
100
AcDbLine
62
7
6
CONTINUOUS
10
146.3786502324
20
148.1402649796
11
144.9756711147
21
149.0334900742
0
LINE
5
27A
100
AcDbEntity
8
0
100
AcDbLine
62
7
6
CONTINUOUS
10
112.2745443589
20
171.6950033729
11
77.5298164245
21
213.1021577125
0
LINE
5
27B
100
AcDbEntity
8
0
100
AcDbLine
62
7
6
CONTINUOUS
10
152.5918415250
20
109.5827156307
11
152.1909904563
21
110.1781984592
0
LINE
5
27C
100
AcDbEntity
8
0
100
AcDbLine
62
7
6
CONTINUOUS
10
147.1803522644
20
96.0354676528
11
147.3807777725
21
95.5888551055
0
LINE
5
27D
100
AcDbEntity
8
0
100
AcDbLine
62
7
6
CONTINUOUS
10
128.5003586948
20
270.8470840200
11
128.5003586948
21
260.4791593878
0
LINE
5
27E
100
AcDbEntity
8
0
100
AcDbLine
62
7
6
CONTINUOUS
10
128.5003586948
20
248.8670840200
11
128.5003586948
21
239.4470840200
0
LINE
5
27F
100
AcDbEntity
8
0
100
AcDbLine
62
7
6
CONTINUOUS
10
144.1739690826
20
175.3836303648
11
143.5726925586
21
174.7881492400
0
LINE
5
280
100
AcDbEntity
8
0
100
AcDbLine
62
7
6
CONTINUOUS
10
144.5748200987
20
174.6392738477
11
144.9756711147
21
174.9370178175
0
LINE
5
281
100
AcDbEntity
8
0
100
AcDbLine
62
7
6
CONTINUOUS
10
60.7722997204
20
174.7300871829
11
63.0232815555
21
174.7300871829
0
LINE
5
282
100
AcDbEntity
8
0
100
AcDbLine
62
7
6
CONTINUOUS
10
145.5769476388
20
175.0858863950
11
146.1782247243
21
175.0858863950
0
LINE
5
283
100
AcDbEntity
8
0
100
AcDbLine
62
7
6
CONTINUOUS
10
146.3786502324
20
175.9791114896
11
145.5769476388
21
175.9791114896
0
LINE
5
284
100
AcDbEntity
8
0
100
AcDbLine
62
7
6
CONTINUOUS
10
152.7922670505
20
164.8137978072
11
143.3722670505
21
167.1957359359
0
LINE
5
285
100
AcDbEntity
8
0
100
AcDbLine
62
7
6
CONTINUOUS
10
143.3722670505
20
166.3025108413
11
151.5897138620
21
164.2183166823
0
LINE
5
286
100
AcDbEntity
8
0
100
AcDbLine
62
7
6
CONTINUOUS
10
151.9905649483
20
155.7326782837
11
151.1888628460
21
156.1792908310
0
LINE
5
287
100
AcDbEntity
8
0
100
AcDbLine
62
7
6
CONTINUOUS
10
148.7837563286
20
152.1597779053
11
148.3829053126
21
152.4575218751
0
LINE
5
288
100
AcDbEntity
8
0
100
AcDbLine
62
7
6
CONTINUOUS
10
144.9756711147
20
152.4575218751
11
144.5748200987
21
152.9041344224
0
LINE
5
289
100
AcDbEntity
8
0
100
AcDbLine
62
7
6
CONTINUOUS
10
135.6853382252
20
63.6164216357
11
135.6853382252
21
159.5848848064
0
LINE
5
28A
100
AcDbEntity
8
0
100
AcDbLine
62
7
6
CONTINUOUS
10
144.9756711147
20
156.0304222535
11
144.1739690826
21
155.5838097062
0
LINE
5
28B
100
AcDbEntity
8
0
100
AcDbLine
62
7
6
CONTINUOUS
10
144.9756711147
20
155.1371971589
11
145.5769476388
21
155.4349343139
0
LINE
5
28C
100
AcDbEntity
8
0
100
AcDbLine
62
7
6
CONTINUOUS
10
149.1846073447
20
156.4770348008
11
148.1824798046
21
156.1792908310
0
LINE
5
28D
100
AcDbEntity
8
0
100
AcDbLine
62
7
6
CONTINUOUS
10
150.1867351655
20
151.2665528107
11
151.1888628460
21
151.5642967805
0
LINE
5
28E
100
AcDbEntity
8
0
100
AcDbLine
62
7
6
CONTINUOUS
10
146.1782247243
20
175.0858863950
11
146.7795012484
21
174.9370178175
0
LINE
5
28F
100
AcDbEntity
8
0
100
AcDbLine
62
7
6
CONTINUOUS
10
146.9799267564
20
175.8302429121
11
146.3786502324
21
175.9791114896
0
LINE
5
290
100
AcDbEntity
8
0
100
AcDbLine
62
7
6
CONTINUOUS
10
146.9799267564
20
152.7552590301
11
147.7816287885
21
151.8620339355
0
LINE
5
291
100
AcDbEntity
8
0
100
AcDbLine
62
7
6
CONTINUOUS
10
148.3829053126
20
152.4575218751
11
147.9820542965
21
152.9041344224
0
LINE
5
292
100
AcDbEntity
8
0
100
AcDbLine
62
7
6
CONTINUOUS
10
151.1888628460
20
155.2860657364
11
151.5897138620
21
154.8394531891
0
LINE
5
293
100
AcDbEntity
8
0
100
AcDbLine
62
7
6
CONTINUOUS
10
126.8317414344
20
183.9099420700
11
70.3672670505
21
251.2016822710
0
LINE
5
294
100
AcDbEntity
8
0
100
AcDbLine
62
7
6
CONTINUOUS
10
143.5726925586
20
152.7552590301
11
144.1739690826
21
152.0109093278
0
LINE
5
295
100
AcDbEntity
8
0
100
AcDbLine
62
7
6
CONTINUOUS
10
151.3892883540
20
102.2880437409
11
151.5897138620
21
101.6925600606
0
LINE
5
296
100
AcDbEntity
8
0
100
AcDbLine
62
7
6
CONTINUOUS
10
151.3892883540
20
109.4338436458
11
151.5897138620
21
108.8383608173
0
LINE
5
297
100
AcDbEntity
8
0
100
AcDbLine
62
7
6
CONTINUOUS
10
152.7922670505
20
101.6925600606
11
152.5918415250
21
102.4369140221
0
LINE
5
298
100
AcDbEntity
8
0
100
AcDbLine
62
7
6
CONTINUOUS
10
143.3722670505
20
174.0437927229
11
143.3722670505
21
170.4708923445
0
LINE
5
299
100
AcDbEntity
8
0
100
AcDbLine
62
7
6
CONTINUOUS
10
143.3722670505
20
169.2799232801
11
143.3722670505
21
168.3866981855
0
LINE
5
29A
100
AcDbEntity
8
0
100
AcDbLine
62
7
6
CONTINUOUS
10
143.3722670505
20
167.1957359359
11
143.3722670505
21
166.3025108413
0
LINE
5
29B
100
AcDbEntity
8
0
100
AcDbLine
62
7
6
CONTINUOUS
10
143.3722670505
20
162.1341225234
11
143.3722670505
21
161.2408974288
0
LINE
5
29C
100
AcDbEntity
8
0
100
AcDbLine
62
7
6
CONTINUOUS
10
143.3722670505
20
154.0950966720
11
143.3722670505
21
153.4996155472
0
LINE
5
29D
100
AcDbEntity
8
0
100
AcDbLine
62
7
6
CONTINUOUS
10
143.3722670505
20
149.9267151688
11
143.3722670505
21
149.0334900742
0
LINE
5
29E
100
AcDbEntity
8
0
100
AcDbLine
62
7
6
CONTINUOUS
10
143.3722670505
20
139.8034985658
11
143.3722670505
21
138.9102734712
0
LINE
5
29F
100
AcDbEntity
8
0
100
AcDbLine
62
7
6
CONTINUOUS
10
143.3722670505
20
134.7418885607
11
143.3722670505
21
133.8486634661
0
LINE
5
2A0
100
AcDbEntity
8
0
100
AcDbLine
62
7
6
CONTINUOUS
10
143.3722670505
20
132.6576978091
11
143.3722670505
21
131.7644727145
0
LINE
5
2A1
100
AcDbEntity
8
0
100
AcDbLine
62
7
6
CONTINUOUS
10
143.3722670505
20
127.5960878039
11
143.3722670505
21
126.7028627093
0
LINE
5
2A2
100
AcDbEntity
8
0
100
AcDbLine
62
7
6
CONTINUOUS
10
143.3722670505
20
125.5118970523
11
143.3722670505
21
124.6186719577
0
LINE
5
2A3
100
AcDbEntity
8
0
100
AcDbLine
62
7
6
CONTINUOUS
10
143.3722670505
20
120.4502870471
11
143.3722670505
21
119.5570619525
0
LINE
5
2A4
100
AcDbEntity
8
0
100
AcDbLine
62
7
6
CONTINUOUS
10
143.3722670505
20
108.8383608173
11
143.3722670505
21
105.2654604390
0
LINE
5
2A5
100
AcDbEntity
8
0
100
AcDbLine
62
7
6
CONTINUOUS
10
143.3722670505
20
104.0744939301
11
143.3722670505
21
103.1812688355
0
LINE
5
2A6
100
AcDbEntity
8
0
100
AcDbLine
62
7
6
CONTINUOUS
10
143.3722670505
20
99.6083684571
11
143.3722670505
21
98.7151429366
0
LINE
5
2A7
100
AcDbEntity
8
0
100
AcDbLine
62
7
6
CONTINUOUS
10
143.3722670505
20
95.4399843984
11
143.3722670505
21
91.8670840200
0
LINE
5
2A8
100
AcDbEntity
8
0
100
AcDbLine
62
7
6
CONTINUOUS
10
144.1572670505
20
212.7570840200
11
144.1572670505
21
258.2870840200
0
LINE
5
2A9
100
AcDbEntity
8
0
100
AcDbLine
62
7
6
CONTINUOUS
10
144.3743945907
20
92.7603091146
11
144.3743945907
21
95.5888551055
0
LINE
5
2AA
100
AcDbEntity
8
0
100
AcDbLine
62
7
6
CONTINUOUS
10
144.3743945907
20
153.3507469697
11
144.3743945907
21
154.2439720643
0
LINE
5
2AB
100
AcDbEntity
8
0
100
AcDbLine
62
7
6
CONTINUOUS
10
144.3743945907
20
171.3641174391
11
144.3743945907
21
174.1926613004
0
LINE
5
2AC
100
AcDbEntity
8
0
100
AcDbLine
62
7
6
CONTINUOUS
10
144.5748200987
20
106.1586855336
11
144.5748200987
21
108.8383608173
0
LINE
5
2AD
100
AcDbEntity
8
0
100
AcDbLine
62
7
6
CONTINUOUS
10
143.5726925586
20
174.7881492400
11
143.3722670505
21
174.0437927229
0
LINE
5
2AE
100
AcDbEntity
8
0
100
AcDbLine
62
7
6
CONTINUOUS
10
144.3743945907
20
174.1926613004
11
144.5748200987
21
174.6392738477
0
LINE
5
2AF
100
AcDbEntity
8
0
100
AcDbLine
62
7
6
CONTINUOUS
10
144.1739690826
20
155.5838097062
11
143.5726925586
21
154.8394531891
0
LINE
5
2B0
100
AcDbEntity
8
0
100
AcDbLine
62
7
6
CONTINUOUS
10
145.7773737083
20
160.0499351792
11
145.3765221308
21
159.6033226319
0
LINE
5
2B1
100
AcDbEntity
8
0
100
AcDbLine
62
7
6
CONTINUOUS
10
144.5748200987
20
154.6905846116
11
144.9756711147
21
155.1371971589
0
LINE
5
2B2
100
AcDbEntity
8
0
100
AcDbLine
62
7
6
CONTINUOUS
10
148.1824798046
20
156.1792908310
11
147.5812032805
21
155.7326782837
0
LINE
5
2B3
100
AcDbEntity
8
0
100
AcDbLine
62
7
6
CONTINUOUS
10
148.3829053126
20
155.2860657364
11
148.7837563286
21
155.5838097062
0
LINE
5
2B4
100
AcDbEntity
8
0
100
AcDbLine
62
7
6
CONTINUOUS
10
151.1888628460
20
151.5642967805
11
151.9905649483
21
152.0109093278
0
LINE
5
2B5
100
AcDbEntity
8
0
100
AcDbLine
62
7
6
CONTINUOUS
10
151.1888628460
20
152.4575218751
11
150.5875861816
21
152.1597779053
0
LINE
5
2B6
100
AcDbEntity
8
0
100
AcDbLine
62
7
6
CONTINUOUS
10
147.7816287885
20
175.3836303648
11
146.9799267564
21
175.8302429121
0
LINE
5
2B7
100
AcDbEntity
8
0
100
AcDbLine
62
7
6
CONTINUOUS
10
146.7795012484
20
174.9370178175
11
147.1803522644
21
174.6392738477
0
LINE
5
2B8
100
AcDbEntity
8
0
100
AcDbLine
62
7
6
CONTINUOUS
10
148.3829053126
20
174.7881492400
11
147.7816287885
21
175.3836303648
0
LINE
5
2B9
100
AcDbEntity
8
0
100
AcDbLine
62
7
6
CONTINUOUS
10
152.5918415250
20
154.9883217666
11
151.9905649483
21
155.7326782837
0
LINE
5
2BA
100
AcDbEntity
8
0
100
AcDbLine
62
7
6
CONTINUOUS
10
144.5748200987
20
152.9041344224
11
144.3743945907
21
153.3507469697
0
LINE
5
2BB
100
AcDbEntity
8
0
100
AcDbLine
62
7
6
CONTINUOUS
10
147.9820542965
20
152.9041344224
11
147.7816287885
21
153.3507469697
0
LINE
5
2BC
100
AcDbEntity
8
0
100
AcDbLine
62
7
6
CONTINUOUS
10
151.5897138620
20
154.8394531891
11
151.7901393701
21
154.3928406418
0
LINE
5
2BD
100
AcDbEntity
8
0
100
AcDbLine
62
7
6
CONTINUOUS
10
152.7922670505
20
108.8383608173
11
152.5918415250
21
109.5827156307
0
LINE
5
2BE
100
AcDbEntity
8
0
100
AcDbLine
62
7
6
CONTINUOUS
10
143.3722670505
20
153.4996155472
11
143.5726925586
21
152.7552590301
0
LINE
5
2BF
100
AcDbEntity
8
0
100
AcDbLine
62
7
6
CONTINUOUS
10
146.7795012484
20
153.4996155472
11
146.9799267564
21
152.7552590301
0
LINE
5
2C0
100
AcDbEntity
8
0
100
AcDbLine
62
7
6
CONTINUOUS
10
145.5769476388
20
155.4349343139
11
145.5769476388
21
156.1792908310
0
LINE
5
2C1
100
AcDbEntity
8
0
100
AcDbLine
62
7
6
CONTINUOUS
10
146.7795012484
20
154.2439720643
11
146.7795012484
21
153.4996155472
0
LINE
5
2C2
100
AcDbEntity
8
0
100
AcDbLine
62
7
6
CONTINUOUS
10
147.1803522644
20
138.9102734712
11
147.1803522644
21
134.7418885607
0
LINE
5
2C3
100
AcDbEntity
8
0
100
AcDbLine
62
7
6
CONTINUOUS
10
147.3807777725
20
174.1926613004
11
147.3807777725
21
171.3641174391
0
LINE
5
2C4
100
AcDbEntity
8
0
100
AcDbLine
62
7
6
CONTINUOUS
10
147.3807777725
20
95.5888551055
11
147.3807777725
21
92.7603091146
0
LINE
5
2C5
100
AcDbEntity
8
0
100
AcDbLine
62
7
6
CONTINUOUS
10
147.7816287885
20
153.3507469697
11
147.7816287885
21
154.3928406418
0
LINE
5
2C6
100
AcDbEntity
8
0
100
AcDbLine
62
7
6
CONTINUOUS
10
148.3829053126
20
134.7418885607
11
148.3829053126
21
138.9102734712
0
LINE
5
2C7
100
AcDbEntity
8
0
100
AcDbLine
62
7
6
CONTINUOUS
10
148.5833308206
20
92.7603091146
11
148.5833308206
21
95.2911134783
0
LINE
5
2C8
100
AcDbEntity
8
0
100
AcDbLine
62
7
6
CONTINUOUS
10
148.5833308206
20
171.3641174391
11
148.5833308206
21
174.0437927229
0
LINE
5
2C9
100
AcDbEntity
8
0
100
AcDbLine
62
7
6
CONTINUOUS
10
151.5897138620
20
108.8383608173
11
151.5897138620
21
106.1586855336
0
LINE
5
2CA
100
AcDbEntity
8
0
100
AcDbLine
62
7
6
CONTINUOUS
10
151.5897138620
20
101.6925600606
11
151.5897138620
21
101.0970763802
0
LINE
5
2CB
100
AcDbEntity
8
0
100
AcDbLine
62
7
6
CONTINUOUS
10
151.7901393701
20
154.3928406418
11
151.7901393701
21
153.3507469697
0
LINE
5
2CC
100
AcDbEntity
8
0
100
AcDbLine
62
7
6
CONTINUOUS
10
143.5726925586
20
154.8394531891
11
143.3722670505
21
154.0950966720
0
LINE
5
2CD
100
AcDbEntity
8
0
100
AcDbLine
62
7
6
CONTINUOUS
10
146.9799267564
20
154.9883217666
11
146.7795012484
21
154.2439720643
0
LINE
5
2CE
100
AcDbEntity
8
0
100
AcDbLine
62
7
6
CONTINUOUS
10
116.4020617448
20
58.9136429825
11
120.0157071814
21
68.8420522215
0
LINE
5
2CF
100
AcDbEntity
8
0
100
AcDbLine
62
7
6
CONTINUOUS
10
144.3743945907
20
154.2439720643
11
144.5748200987
21
154.6905846116
0
LINE
5
2D0
100
AcDbEntity
8
0
100
AcDbLine
62
7
6
CONTINUOUS
10
147.7816287885
20
154.3928406418
11
147.9820542965
21
154.8394531891
0
LINE
5
2D1
100
AcDbEntity
8
0
100
AcDbLine
62
7
6
CONTINUOUS
10
116.7100109863
20
99.5072731093
11
116.8032635845
21
99.6866728680
0
LINE
5
2D2
100
AcDbEntity
8
0
100
AcDbLine
62
7
6
CONTINUOUS
10
147.5812032805
20
155.7326782837
11
146.9799267564
21
154.9883217666
0
LINE
5
2D3
100
AcDbEntity
8
0
100
AcDbLine
62
7
6
CONTINUOUS
10
151.9905649483
20
152.0109093278
11
152.5918415250
21
152.7552590301
0
LINE
5
2D4
100
AcDbEntity
8
0
100
AcDbLine
62
7
6
CONTINUOUS
10
150.3871606735
20
157.6679970504
11
150.7880116896
21
158.1146095977
0
LINE
5
2D5
100
AcDbEntity
8
0
100
AcDbLine
62
7
6
CONTINUOUS
10
147.9820542965
20
154.8394531891
11
148.3829053126
21
155.2860657364
0
LINE
5
2D6
100
AcDbEntity
8
0
100
AcDbLine
62
7
6
CONTINUOUS
10
151.5897138620
20
152.9041344224
11
151.1888628460
21
152.4575218751
0
LINE
5
2D7
100
AcDbEntity
8
0
100
AcDbLine
62
7
6
CONTINUOUS
10
147.1803522644
20
174.6392738477
11
147.3807777725
21
174.1926613004
0
LINE
5
2D8
100
AcDbEntity
8
0
100
AcDbLine
62
7
6
CONTINUOUS
10
152.7922670505
20
154.2439720643
11
152.5918415250
21
154.9883217666
0
LINE
5
2D9
100
AcDbEntity
8
0
100
AcDbLine
62
7
6
CONTINUOUS
10
148.5833308206
20
174.0437927229
11
148.3829053126
21
174.7881492400
0
LINE
5
2DA
100
AcDbEntity
8
0
100
AcDbLine
62
7
6
CONTINUOUS
10
152.7922670505
20
91.8670840200
11
152.7922670505
21
92.7603091146
0
LINE
5
2DB
100
AcDbEntity
8
0
100
AcDbLine
62
7
6
CONTINUOUS
10
152.7922670505
20
96.4820802001
11
152.7922670505
21
97.5241764278
0
LINE
5
2DC
100
AcDbEntity
8
0
100
AcDbLine
62
7
6
CONTINUOUS
10
152.7922670505
20
101.0970763802
11
152.7922670505
21
101.6925600606
0
LINE
5
2DD
100
AcDbEntity
8
0
100
AcDbLine
62
7
6
CONTINUOUS
10
152.7922670505
20
105.2654604390
11
152.7922670505
21
108.8383608173
0
LINE
5
2DE
100
AcDbEntity
8
0
100
AcDbLine
62
7
6
CONTINUOUS
10
152.7922670505
20
121.9389966739
11
152.7922670505
21
123.1299623309
0
LINE
5
2DF
100
AcDbEntity
8
0
100
AcDbLine
62
7
6
CONTINUOUS
10
152.7922670505
20
129.0847974307
11
152.7922670505
21
130.2757630877
0
LINE
5
2E0
100
AcDbEntity
8
0
100
AcDbLine
62
7
6
CONTINUOUS
10
152.7922670505
20
133.8486634661
11
152.7922670505
21
134.7418885607
0
LINE
5
2E1
100
AcDbEntity
8
0
100
AcDbLine
62
7
6
CONTINUOUS
10
152.7922670505
20
138.9102734712
11
152.7922670505
21
139.8034985658
0
LINE
5
2E2
100
AcDbEntity
8
0
100
AcDbLine
62
7
6
CONTINUOUS
10
152.7922670505
20
149.0334900742
11
152.7922670505
21
149.9267151688
0
LINE
5
2E3
100
AcDbEntity
8
0
100
AcDbLine
62
7
6
CONTINUOUS
10
152.7922670505
20
153.4996155472
11
152.7922670505
21
154.2439720643
0
LINE
5
2E4
100
AcDbEntity
8
0
100
AcDbLine
62
7
6
CONTINUOUS
10
152.7922670505
20
163.6228355575
11
152.7922670505
21
164.8137978072
0
LINE
5
2E5
100
AcDbEntity
8
0
100
AcDbLine
62
7
6
CONTINUOUS
10
152.7922670505
20
168.3866981855
11
152.7922670505
21
169.2799232801
0
LINE
5
2E6
100
AcDbEntity
8
0
100
AcDbLine
62
7
6
CONTINUOUS
10
152.7922670505
20
170.4708923445
11
152.7922670505
21
171.3641174391
0
LINE
5
2E7
100
AcDbEntity
8
0
100
AcDbLine
62
7
6
CONTINUOUS
10
152.5918415250
20
152.7552590301
11
152.7922670505
21
153.4996155472
0
LINE
5
2E8
100
AcDbEntity
8
0
100
AcDbLine
62
7
6
CONTINUOUS
10
143.5726925586
20
109.5827156307
11
143.3722670505
21
108.8383608173
0
LINE
5
2E9
100
AcDbEntity
8
0
100
AcDbLine
62
7
6
CONTINUOUS
10
143.5726925586
20
96.1843387859
11
143.3722670505
21
95.4399843984
0
LINE
5
2EA
100
AcDbEntity
8
0
100
AcDbLine
62
7
6
CONTINUOUS
10
151.7901393701
20
153.3507469697
11
151.5897138620
21
152.9041344224
0
LINE
5
2EB
100
AcDbEntity
8
0
100
AcDbLine
62
7
6
CONTINUOUS
10
165.3522670505
20
109.1370840200
11
165.3522670505
21
161.6476154745
0
LINE
5
2EC
100
AcDbEntity
8
0
100
AcDbLine
62
7
6
CONTINUOUS
10
152.5918415250
20
100.3527224187
11
152.7922670505
21
101.0970763802
0
LINE
5
2ED
100
AcDbEntity
8
0
100
AcDbLine
62
7
6
CONTINUOUS
10
144.5748200987
20
108.8383608173
11
144.7752456067
21
109.4338436458
0
LINE
5
2EE
100
AcDbEntity
8
0
100
AcDbLine
62
7
6
CONTINUOUS
10
151.5897138620
20
101.0970763802
11
151.3892883540
21
100.5015935517
0
LINE
5
2EF
100
AcDbEntity
8
0
100
AcDbLine
62
7
6
CONTINUOUS
10
144.3743945907
20
95.5888551055
11
144.5748200987
21
96.0354676528
0
LINE
5
2F0
100
AcDbEntity
8
0
100
AcDbLine
62
7
6
CONTINUOUS
10
143.9735435746
20
110.1781984592
11
143.5726925586
21
109.5827156307
0
LINE
5
2F1
100
AcDbEntity
8
0
100
AcDbLine
62
7
6
CONTINUOUS
10
144.7752456067
20
109.4338436458
11
145.1760966227
21
109.8804561931
0
LINE
5
2F2
100
AcDbEntity
8
0
100
AcDbLine
62
7
6
CONTINUOUS
10
144.7752456067
20
110.7736812877
11
143.9735435746
21
110.1781984592
0
LINE
5
2F3
100
AcDbEntity
8
0
100
AcDbLine
62
7
6
CONTINUOUS
10
145.1760966227
20
109.8804561931
11
145.7773737083
21
110.1781984592
0
LINE
5
2F4
100
AcDbEntity
8
0
100
AcDbLine
62
7
6
CONTINUOUS
10
145.5769476388
20
111.0714235538
11
144.7752456067
21
110.7736812877
0
LINE
5
2F5
100
AcDbEntity
8
0
100
AcDbLine
62
7
6
CONTINUOUS
10
152.1909904563
20
99.7572387383
11
152.5918415250
21
100.3527224187
0
LINE
5
2F6
100
AcDbEntity
8
0
100
AcDbLine
62
7
6
CONTINUOUS
10
144.1739690826
20
96.7798220403
11
143.5726925586
21
96.1843387859
0
LINE
5
2F7
100
AcDbEntity
8
0
100
AcDbLine
62
7
6
CONTINUOUS
10
151.3892883540
20
100.5015935517
11
150.9884371976
21
100.0549810044
0
LINE
5
2F8
100
AcDbEntity
8
0
100
AcDbLine
62
7
6
CONTINUOUS
10
144.5748200987
20
96.0354676528
11
144.9756711147
21
96.3332094930
0
LINE
5
2F9
100
AcDbEntity
8
0
100
AcDbLine
62
7
6
CONTINUOUS
10
151.3892883540
20
99.1617559098
11
152.1909904563
21
99.7572387383
0
LINE
5
2FA
100
AcDbEntity
8
0
100
AcDbLine
62
7
6
CONTINUOUS
10
144.9756711147
20
97.2264345876
11
144.1739690826
21
96.7798220403
0
LINE
5
2FB
100
AcDbEntity
8
0
100
AcDbLine
62
7
6
CONTINUOUS
10
150.9884371976
20
100.0549810044
11
150.3871606735
21
99.7572387383
0
LINE
5
2FC
100
AcDbEntity
8
0
100
AcDbLine
62
7
6
CONTINUOUS
10
150.5875861816
20
98.8640140697
11
151.3892883540
21
99.1617559098
0
LINE
5
2FD
100
AcDbEntity
8
0
100
AcDbLine
62
7
6
CONTINUOUS
10
152.7922670505
20
97.5241764278
11
148.1824798046
21
96.1843387859
0
LINE
5
2FE
100
AcDbEntity
8
0
100
AcDbLine
62
7
6
CONTINUOUS
10
98.4702670505
20
239.4470840200
11
116.0542670505
21
239.4470840200
0
LINE
5
2FF
100
AcDbEntity
8
DEFAULT_1
100
AcDbLine
62
2
6
CENTER
10
66.2656072645
20
248.8670840200
11
147.7866061294
21
248.8670840200
0
LINE
5
300
100
AcDbEntity
8
0
100
AcDbLine
62
7
6
CONTINUOUS
10
144.1572670505
20
258.2870840200
11
133.6179430863
21
270.8473612178
0
LINE
5
301
100
AcDbEntity
8
0
100
AcDbLine
62
7
6
CONTINUOUS
10
70.3672670505
20
255.1470840200
11
83.9723434449
21
255.1470840200
0
LINE
5
302
100
AcDbEntity
8
0
100
AcDbLine
62
7
6
CONTINUOUS
10
130.5521906562
20
255.1470840200
11
144.1572670505
21
255.1470840200
0
LINE
5
303
100
AcDbEntity
8
0
100
AcDbLine
62
7
6
CONTINUOUS
10
98.4702670505
20
258.2870840200
11
116.0542670505
21
258.2870840200
0
LINE
5
304
100
AcDbEntity
8
0
100
AcDbLine
62
7
6
CONTINUOUS
10
80.8719137982
20
270.8470840200
11
86.0241754062
21
270.8470840200
0
LINE
5
305
100
AcDbEntity
8
0
100
AcDbLine
62
7
6
CONTINUOUS
10
128.5003586948
20
270.8470840200
11
133.6526203029
21
270.8470840200
0
LINE
5
306
100
AcDbEntity
8
0
100
AcDbLine
62
7
6
CONTINUOUS
10
304.7971299929
20
58.8970840200
11
285.9571299929
21
58.8970840200
0
LINE
5
307
100
AcDbEntity
8
0
100
AcDbLine
62
7
6
CONTINUOUS
10
268.1714994071
20
68.8420522215
11
278.0999086461
21
58.9136429825
0
LINE
5
308
100
AcDbEntity
8
0
100
AcDbLine
62
7
6
CONTINUOUS
10
317.3571299929
20
91.8670840200
11
318.1421299929
21
91.8670840200
0
LINE
5
309
100
AcDbEntity
8
0
100
AcDbLine
62
7
6
CONTINUOUS
10
273.3971299929
20
255.1470840200
11
276.7148658420
21
260.4791594917
0
LINE
5
30A
100
AcDbEntity
8
0
100
AcDbLine
62
7
6
CONTINUOUS
10
317.3571299929
20
97.5241764278
11
318.1421299929
21
97.5241764278
0
LINE
5
30B
100
AcDbEntity
8
0
100
AcDbLine
62
7
6
CONTINUOUS
10
317.3571299929
20
98.7151429366
11
318.1421299929
21
98.7151429366
0
LINE
5
30C
100
AcDbEntity
8
0
100
AcDbLine
62
7
6
CONTINUOUS
10
263.8496131556
20
108.8930033277
11
276.9976156510
21
99.6866728680
0
LINE
5
30D
100
AcDbEntity
8
DEFAULT_2
100
AcDbLine
62
8
6
HIDDEN
10
281.6755026493
20
110.7070840200
11
309.0787573365
21
110.7070840200
0
LINE
5
30E
100
AcDbEntity
8
0
100
AcDbLine
62
7
6
CONTINUOUS
10
280.0696299929
20
111.3887365207
11
267.2235764501
21
116.8415627373
0
LINE
5
30F
100
AcDbEntity
8
0
100
AcDbLine
62
7
6
CONTINUOUS
10
317.3571299929
20
119.5570619525
11
318.1421299929
21
119.5570619525
0
LINE
5
310
100
AcDbEntity
8
0
100
AcDbLine
62
7
6
CONTINUOUS
10
317.3571299929
20
125.5118970523
11
318.1421299929
21
125.5118970523
0
LINE
5
311
100
AcDbEntity
8
0
100
AcDbLine
62
7
6
CONTINUOUS
10
317.3571299929
20
126.7028627093
11
318.1421299929
21
126.7028627093
0
LINE
5
312
100
AcDbEntity
8
0
100
AcDbLine
62
7
6
CONTINUOUS
10
317.3571299929
20
132.6576978091
11
318.1421299929
21
132.6576978091
0
LINE
5
313
100
AcDbEntity
8
0
100
AcDbLine
62
7
6
CONTINUOUS
10
317.3571299929
20
133.8486634661
11
318.1421299929
21
133.8486634661
0
LINE
5
314
100
AcDbEntity
8
0
100
AcDbLine
62
7
6
CONTINUOUS
10
273.3971299929
20
91.2044602123
11
273.3971299929
21
102.2077600670
0
LINE
5
315
100
AcDbEntity
8
0
100
AcDbLine
62
7
6
CONTINUOUS
10
273.3971299929
20
114.2210447318
11
273.3971299929
21
255.1470840200
0
LINE
5
316
100
AcDbEntity
8
0
100
AcDbLine
62
7
6
CONTINUOUS
10
317.3571299929
20
139.8034985658
11
318.1421299929
21
139.8034985658
0
LINE
5
317
100
AcDbEntity
8
0
100
AcDbLine
62
7
6
CONTINUOUS
10
277.3221299929
20
174.7300871829
11
277.3221299929
21
154.7039775689
0
LINE
5
318
100
AcDbEntity
8
0
100
AcDbLine
62
7
6
CONTINUOUS
10
280.0696299929
20
106.9238851233
11
280.0696299929
21
147.1552833590
0
LINE
5
319
100
AcDbEntity
8
0
100
AcDbLine
62
7
6
CONTINUOUS
10
288.9618645891
20
184.4969841896
11
277.3221299929
21
174.7300871829
0
LINE
5
31A
100
AcDbEntity
8
0
100
AcDbLine
62
7
6
CONTINUOUS
10
317.3571299929
20
148.1402649796
11
318.1421299929
21
148.1402649796
0
LINE
5
31B
100
AcDbEntity
8
0
100
AcDbLine
62
7
6
CONTINUOUS
10
317.3571299929
20
149.9267151688
11
318.1421299929
21
149.9267151688
0
LINE
5
31C
100
AcDbEntity
8
0
100
AcDbLine
62
7
6
CONTINUOUS
10
280.0696299929
20
147.1552833590
11
277.3221299929
21
154.7039775689
0
LINE
5
31D
100
AcDbEntity
8
0
100
AcDbLine
62
7
6
CONTINUOUS
10
267.2235764501
20
116.8415627373
11
263.8496131556
21
108.8930033277
0
LINE
5
31E
100
AcDbEntity
8
0
100
AcDbLine
62
7
6
CONTINUOUS
10
317.3571299929
20
151.1176842332
11
318.1421299929
21
151.1176842332
0
LINE
5
31F
100
AcDbEntity
8
0
100
AcDbLine
62
7
6
CONTINUOUS
10
317.3571299929
20
151.2665528107
11
318.1421299929
21
151.2665528107
0
LINE
5
320
100
AcDbEntity
8
0
100
AcDbLine
62
7
6
CONTINUOUS
10
317.3571299929
20
151.5642967805
11
318.1421299929
21
151.5642967805
0
LINE
5
321
100
AcDbEntity
8
0
100
AcDbLine
62
7
6
CONTINUOUS
10
317.3571299929
20
152.0109093278
11
318.1421299929
21
152.0109093278
0
LINE
5
322
100
AcDbEntity
8
0
100
AcDbLine
62
7
6
CONTINUOUS
10
317.3571299929
20
152.7552590301
11
318.1421299929
21
152.7552590301
0
LINE
5
323
100
AcDbEntity
8
0
100
AcDbLine
62
7
6
CONTINUOUS
10
317.3571299929
20
153.4996155472
11
318.1421299929
21
153.4996155472
0
LINE
5
324
100
AcDbEntity
8
0
100
AcDbLine
62
7
6
CONTINUOUS
10
317.3571299929
20
154.0950966720
11
318.1421299929
21
154.0950966720
0
LINE
5
325
100
AcDbEntity
8
0
100
AcDbLine
62
7
6
CONTINUOUS
10
317.3571299929
20
154.8394531891
11
318.1421299929
21
154.8394531891
0
LINE
5
326
100
AcDbEntity
8
0
100
AcDbLine
62
7
6
CONTINUOUS
10
317.3571299929
20
155.5838097062
11
318.1421299929
21
155.5838097062
0
LINE
5
327
100
AcDbEntity
8
0
100
AcDbLine
62
7
6
CONTINUOUS
10
317.3571299929
20
156.0304222535
11
318.1421299929
21
156.0304222535
0
LINE
5
328
100
AcDbEntity
8
0
100
AcDbLine
62
7
6
CONTINUOUS
10
317.3571299929
20
156.1792908310
11
318.1421299929
21
156.1792908310
0
LINE
5
329
100
AcDbEntity
8
0
100
AcDbLine
62
7
6
CONTINUOUS
10
317.3571299929
20
156.4770348008
11
318.1421299929
21
156.4770348008
0
LINE
5
32A
100
AcDbEntity
8
0
100
AcDbLine
62
7
6
CONTINUOUS
10
317.3571299929
20
157.6679970504
11
318.1421299929
21
157.6679970504
0
LINE
5
32B
100
AcDbEntity
8
0
100
AcDbLine
62
7
6
CONTINUOUS
10
323.9229004726
20
75.7364742943
11
310.6846299929
21
106.9238851233
0
LINE
5
32C
100
AcDbEntity
8
0
100
AcDbLine
62
7
6
CONTINUOUS
10
290.0058209174
20
184.4970840200
11
290.0058209174
21
213.1021577125
0
LINE
5
32D
100
AcDbEntity
8
DEFAULT_1
100
AcDbLine
62
2
6
CENTER
10
295.3771299929
20
248.8670840200
11
295.3771299929
21
56.1902307912
0
LINE
5
32E
100
AcDbEntity
8
DEFAULT_1
100
AcDbLine
62
2
6
CENTER
10
295.3771299929
20
248.8670840200
11
295.3771299929
21
268.9951681806
0
LINE
5
32F
100
AcDbEntity
8
0
100
AcDbLine
62
7
6
CONTINUOUS
10
317.3571299929
20
160.0499351792
11
318.1421299929
21
160.0499351792
0
LINE
5
330
100
AcDbEntity
8
0
100
AcDbLine
62
7
6
CONTINUOUS
10
317.3571299929
20
161.2408974288
11
318.1421299929
21
161.2408974288
0
LINE
5
331
100
AcDbEntity
8
0
100
AcDbLine
62
7
6
CONTINUOUS
10
317.3571299929
20
164.2183166823
11
318.1421299929
21
164.2183166823
0
LINE
5
332
100
AcDbEntity
8
0
100
AcDbLine
62
7
6
CONTINUOUS
10
300.7484390684
20
184.4970840200
11
300.7484390684
21
213.1021577125
0
LINE
5
333
100
AcDbEntity
8
0
100
AcDbLine
62
7
6
CONTINUOUS
10
317.3571299929
20
166.3025108413
11
318.1421299929
21
166.3025108413
0
LINE
5
334
100
AcDbEntity
8
0
100
AcDbLine
62
7
6
CONTINUOUS
10
317.3571299929
20
167.1957359359
11
318.1421299929
21
167.1957359359
0
LINE
5
335
100
AcDbEntity
8
0
100
AcDbLine
62
7
6
CONTINUOUS
10
317.3571299929
20
168.3866981855
11
318.1421299929
21
168.3866981855
0
LINE
5
336
100
AcDbEntity
8
0
100
AcDbLine
62
7
6
CONTINUOUS
10
317.3571299929
20
169.2799232801
11
318.1421299929
21
169.2799232801
0
LINE
5
337
100
AcDbEntity
8
0
100
AcDbLine
62
7
6
CONTINUOUS
10
317.3571299929
20
170.4708923445
11
318.1421299929
21
170.4708923445
0
LINE
5
338
100
AcDbEntity
8
0
100
AcDbLine
62
7
6
CONTINUOUS
10
323.5306835357
20
116.8415627373
11
326.9046468302
21
108.8930033277
0
LINE
5
339
100
AcDbEntity
8
0
100
AcDbLine
62
7
6
CONTINUOUS
10
310.6846299929
20
106.9238851233
11
310.6846299929
21
147.1552833590
0
LINE
5
33A
100
AcDbEntity
8
0
100
AcDbLine
62
7
6
CONTINUOUS
10
266.8313595132
20
75.7364742943
11
280.0696299929
21
106.9238851233
0
LINE
5
33B
100
AcDbEntity
8
0
100
AcDbLine
62
7
6
CONTINUOUS
10
317.3571299929
20
174.0437927229
11
318.1421299929
21
174.0437927229
0
LINE
5
33C
100
AcDbEntity
8
0
100
AcDbLine
62
7
6
CONTINUOUS
10
317.3571299929
20
174.7881492400
11
318.1421299929
21
174.7881492400
0
LINE
5
33D
100
AcDbEntity
8
0
100
AcDbLine
62
7
6
CONTINUOUS
10
317.3571299929
20
175.3836303648
11
318.1421299929
21
175.3836303648
0
LINE
5
33E
100
AcDbEntity
8
0
100
AcDbLine
62
7
6
CONTINUOUS
10
317.3571299929
20
175.8302429121
11
318.1421299929
21
175.8302429121
0
LINE
5
33F
100
AcDbEntity
8
0
100
AcDbLine
62
7
6
CONTINUOUS
10
317.3571299929
20
175.9791114896
11
318.1421299929
21
175.9791114896
0
LINE
5
340
100
AcDbEntity
8
0
100
AcDbLine
62
7
6
CONTINUOUS
10
313.4321299929
20
174.7300871829
11
313.4321299929
21
154.7039775689
0
LINE
5
341
100
AcDbEntity
8
0
100
AcDbLine
62
7
6
CONTINUOUS
10
317.3571299929
20
91.2044602123
11
317.3571299929
21
102.2077600670
0
LINE
5
342
100
AcDbEntity
8
0
100
AcDbLine
62
7
6
CONTINUOUS
10
317.3571299929
20
114.2210447318
11
317.3571299929
21
255.1470840200
0
LINE
5
343
100
AcDbEntity
8
0
100
AcDbLine
62
7
6
CONTINUOUS
10
318.1421299929
20
175.9791114896
11
318.1421299929
21
170.4708923445
0
LINE
5
344
100
AcDbEntity
8
0
100
AcDbLine
62
7
6
CONTINUOUS
10
318.1421299929
20
169.2799232801
11
318.1421299929
21
168.3866981855
0
LINE
5
345
100
AcDbEntity
8
0
100
AcDbLine
62
7
6
CONTINUOUS
10
318.1421299929
20
167.1957359359
11
318.1421299929
21
161.2408974288
0
LINE
5
346
100
AcDbEntity
8
0
100
AcDbLine
62
7
6
CONTINUOUS
10
318.1421299929
20
160.0499351792
11
318.1421299929
21
157.6679970504
0
LINE
5
347
100
AcDbEntity
8
0
100
AcDbLine
62
7
6
CONTINUOUS
10
318.1421299929
20
156.4770348008
11
318.1421299929
21
151.1176842332
0
LINE
5
348
100
AcDbEntity
8
0
100
AcDbLine
62
7
6
CONTINUOUS
10
318.1421299929
20
149.9267151688
11
318.1421299929
21
148.1402649796
0
LINE
5
349
100
AcDbEntity
8
0
100
AcDbLine
62
7
6
CONTINUOUS
10
318.1421299929
20
139.8034985658
11
318.1421299929
21
133.8486634661
0
LINE
5
34A
100
AcDbEntity
8
0
100
AcDbLine
62
7
6
CONTINUOUS
10
318.1421299929
20
132.6576978091
11
318.1421299929
21
126.7028627093
0
LINE
5
34B
100
AcDbEntity
8
0
100
AcDbLine
62
7
6
CONTINUOUS
10
318.1421299929
20
125.5118970523
11
318.1421299929
21
119.5570619525
0
LINE
5
34C
100
AcDbEntity
8
0
100
AcDbLine
62
7
6
CONTINUOUS
10
318.1421299929
20
102.7346562882
11
318.1421299929
21
98.7151429366
0
LINE
5
34D
100
AcDbEntity
8
0
100
AcDbLine
62
7
6
CONTINUOUS
10
318.1421299929
20
97.5241764278
11
318.1421299929
21
91.8670840200
0
LINE
5
34E
100
AcDbEntity
8
0
100
AcDbLine
62
7
6
CONTINUOUS
10
310.6846299929
20
147.1552833590
11
313.4321299929
21
154.7039775689
0
LINE
5
34F
100
AcDbEntity
8
0
100
AcDbLine
62
7
6
CONTINUOUS
10
288.9618599120
20
184.4969802650
11
288.9746392134
21
184.4970839120
0
LINE
5
350
100
AcDbEntity
8
0
100
AcDbLine
62
7
6
CONTINUOUS
10
288.9741102764
20
184.4970840200
11
301.7801497094
21
184.4970840200
0
LINE
5
351
100
AcDbEntity
8
0
100
AcDbLine
62
7
6
CONTINUOUS
10
301.7924000738
20
184.4969802650
11
301.7796207724
21
184.4970839120
0
LINE
5
352
100
AcDbEntity
8
0
100
AcDbLine
62
7
6
CONTINUOUS
10
301.7923953967
20
184.4969841896
11
313.4321299929
21
174.7300871829
0
LINE
5
353
100
AcDbEntity
8
0
100
AcDbLine
62
7
6
CONTINUOUS
10
310.6846299929
20
111.3887365207
11
323.5306835357
21
116.8415627373
0
LINE
5
354
100
AcDbEntity
8
0
100
AcDbLine
62
7
6
CONTINUOUS
10
326.9046468302
20
108.8930033277
11
313.7566443348
21
99.6866728680
0
LINE
5
355
100
AcDbEntity
8
0
100
AcDbLine
62
7
6
CONTINUOUS
10
317.3571299929
20
255.1470840200
11
314.0393941439
21
260.4791594917
0
LINE
5
356
100
AcDbEntity
8
0
100
AcDbLine
62
7
6
CONTINUOUS
10
312.6543513397
20
58.9136429825
11
322.5827605788
21
68.8420522215
0
LINE
5
357
100
AcDbEntity
8
DEFAULT_1
100
AcDbLine
62
2
6
CENTER
10
295.3771299929
20
248.8670840200
11
278.8841399125
21
248.8670840200
0
LINE
5
358
100
AcDbEntity
8
DEFAULT_1
100
AcDbLine
62
2
6
CENTER
10
295.3771299929
20
248.8670840200
11
310.8102904009
21
248.8670840200
0
LINE
5
359
100
AcDbEntity
8
0
100
AcDbLine
62
7
6
CONTINUOUS
10
315.4033522151
20
258.2870840200
11
297.4966299929
21
258.2870840200
0
LINE
5
35A
100
AcDbEntity
8
0
100
AcDbLine
62
7
6
CONTINUOUS
10
293.2576299929
20
258.2870840200
11
275.3509077707
21
258.2870840200
0
ARC
5
35B
100
AcDbEntity
8
0
100
AcDbCircle
62
7
6
CONTINUOUS
10
107.2622670505
20
323.2250742765
40
56.5200000000
100
AcDbArc
50
247.9285574823
51
261.0509819347
0
ARC
5
35C
100
AcDbEntity
8
0
100
AcDbCircle
62
7
6
CONTINUOUS
10
107.2622670505
20
323.2250742765
40
56.5200000000
100
AcDbArc
50
278.9490180653
51
292.0714425177
0
ARC
5
35D
100
AcDbEntity
8
0
100
AcDbCircle
62
7
6
CONTINUOUS
10
79.0022670505
20
152.5198848064
40
18.8400000000
100
AcDbArc
50
0.0000000000
51
40.0000000000
0
ARC
5
35E
100
AcDbEntity
8
0
100
AcDbCircle
62
7
6
CONTINUOUS
10
28.7622670505
20
140.4233860905
40
36.1100000000
100
AcDbArc
50
0.0000000000
51
27.6604498993
0
ARC
5
35F
100
AcDbEntity
8
0
100
AcDbCircle
62
7
6
CONTINUOUS
10
77.4322670505
20
165.9328666811
40
18.8400000000
100
AcDbArc
50
130.0000000000
51
207.6604498993
0
ARC
5
360
100
AcDbEntity
8
0
100
AcDbCircle
62
7
6
CONTINUOUS
10
73.1035691989
20
176.6470840200
40
7.8500000000
100
AcDbArc
50
40.0000016326
51
130.0000000000
0
CIRCLE
5
361
100
AcDbEntity
8
0
100
AcDbCircle
62
7
6
CONTINUOUS
10
79.4732670505
20
248.8670840200
40
3.9250000000
0
ARC
5
362
100
AcDbEntity
8
0
100
AcDbCircle
62
7
6
CONTINUOUS
10
180.2672670505
20
212.7570840200
40
36.1100000000
100
AcDbArc
50
180.0000000000
51
225.0473854725
0
ARC
5
363
100
AcDbEntity
8
0
100
AcDbCircle
62
7
6
CONTINUOUS
10
129.2422670505
20
161.6476154745
40
36.1100000000
100
AcDbArc
50
0.0000000000
51
45.0473854725
0
ARC
5
364
100
AcDbEntity
8
0
100
AcDbCircle
62
7
6
CONTINUOUS
10
107.2622670505
20
227.8290840200
40
8.7920000000
100
AcDbArc
50
180.0000000000
51
360.0000000000
0
ARC
5
365
100
AcDbEntity
8
0
100
AcDbCircle
62
7
6
CONTINUOUS
10
100.9822670505
20
232.7811003831
40
30.6150000000
100
AcDbArc
50
180.0000000000
51
220.0000000000
0
ARC
5
366
100
AcDbEntity
8
0
100
AcDbCircle
62
7
6
CONTINUOUS
10
97.8422670505
20
159.5848848064
40
18.8400000000
100
AcDbArc
50
0.0000000000
51
40.0000000000
0
ARC
5
367
100
AcDbEntity
8
0
100
AcDbCircle
62
7
6
CONTINUOUS
10
105.6922670505
20
118.5570840200
40
7.8500000000
100
AcDbArc
50
180.0000000000
51
233.1030912598
0
ARC
5
368
100
AcDbEntity
8
0
100
AcDbCircle
62
7
6
CONTINUOUS
10
108.8322670505
20
118.5570840200
40
7.8500000000
100
AcDbArc
50
306.8969087394
51
360.0000000000
0
ARC
5
369
100
AcDbEntity
8
0
100
AcDbCircle
62
7
6
CONTINUOUS
10
115.1122670505
20
109.1370840200
40
50.2400000000
100
AcDbArc
50
180.0000000000
51
360.0000000000
0
ARC
5
36A
100
AcDbEntity
8
0
100
AcDbCircle
62
7
6
CONTINUOUS
10
97.8422670505
20
159.5848848064
40
37.8430711747
100
AcDbArc
50
0.0000000000
51
40.0000000000
0
ARC
5
36B
100
AcDbEntity
8
0
100
AcDbCircle
62
7
6
CONTINUOUS
10
295.3771299929
20
248.8670840200
40
21.9800000000
100
AcDbArc
50
31.8907918018
51
148.1092081982
0
CIRCLE
5
36C
100
AcDbEntity
8
0
100
AcDbCircle
62
7
6
CONTINUOUS
10
295.3771299929
20
248.8670840200
40
9.6555000000
0
ARC
5
36D
100
AcDbEntity
8
0
100
AcDbCircle
62
7
6
CONTINUOUS
10
318.1421299929
20
73.2826828074
40
6.2800000000
100
AcDbArc
50
315.0000000000
51
23.0000000000
0
ARC
5
36E
100
AcDbEntity
8
0
100
AcDbCircle
62
7
6
CONTINUOUS
10
272.6121299929
20
73.2826828074
40
6.2800000000
100
AcDbArc
50
157.0000000000
51
225.0000000000
0
SPLINE
5
36F
100
AcDbEntity
8
0
100
AcDbSpline
62
7
6
CONTINUOUS
70
0
71
3
72
15
73
11
74
9
42
0.0000001000
43
0.0000001000
44
0.0000000001
40
0.0000000000
40
0.0000000000
40
0.0000000000
40
0.0000000000
40
0.1251723950
40
0.2507355965
40
0.3761708418
40
0.5012149770
40
0.6255801406
40
0.7498209524
40
0.8744112298
40
1.0000000000
40
1.0000000000
40
1.0000000000
40
1.0000000000
10
86.0241754062
20
248.8670840200
30
0.0000000000
10
86.0241754062
20
249.1462398480
30
0.0000000000
10
85.9977673443
20
249.7057703201
30
0.0000000000
10
85.8808685496
20
250.5376023516
30
0.0000000000
10
85.6924033246
20
251.3557919212
30
0.0000000000
10
85.4412826813
20
252.1539387525
30
0.0000000000
10
85.1368869162
20
252.9302655952
30
0.0000000000
10
84.7873973892
20
253.6860867155
30
0.0000000000
10
84.3986873192
20
254.4254500468
30
0.0000000000
10
84.1177567034
20
254.9077051062
30
0.0000000000
10
83.9723434449
20
255.1470840200
30
0.0000000000
11
86.0241754062
21
248.8670840200
31
0.0000000000
11
85.9849709932
21
249.7036333616
31
0.0000000000
11
85.8688677756
21
250.5356538621
31
0.0000000000
11
85.6816070434
21
251.3537210013
31
0.0000000000
11
85.4317548782
21
252.1521501577
31
0.0000000000
11
85.1292066194
21
252.9272627506
31
0.0000000000
11
84.7814165184
21
253.6822416890
31
0.0000000000
11
84.3944653568
21
254.4205589946
31
0.0000000000
11
83.9723434449
21
255.1470840200
31
0.0000000000
0
SPLINE
5
370
100
AcDbEntity
8
0
100
AcDbSpline
62
7
6
CONTINUOUS
70
0
71
3
72
22
73
18
74
16
42
0.0000001000
43
0.0000001000
44
0.0000000001
40
0.0000000000
40
0.0000000000
40
0.0000000000
40
0.0000000000
40
0.1185317541
40
0.2277882630
40
0.3280319308
40
0.4194842035
40
0.5024270687
40
0.5774498737
40
0.6451902621
40
0.7064441580
40
0.7618675047
40
0.8119085803
40
0.8573506755
40
0.8988449711
40
0.9360755221
40
0.9699411739
40
1.0000000000
40
1.0000000000
40
1.0000000000
40
1.0000000000
10
98.4702670505
20
233.6487018318
30
0.0000000000
10
97.9161820740
20
233.7479272756
30
0.0000000000
10
96.8546528197
20
233.9575847448
30
0.0000000000
10
95.3378298632
20
234.3138777657
30
0.0000000000
10
93.9584397124
20
234.6890175222
30
0.0000000000
10
92.7121976930
20
235.0745016968
30
0.0000000000
10
91.5932112336
20
235.4636184823
30
0.0000000000
10
90.5938212602
20
235.8517222815
30
0.0000000000
10
89.7044182059
20
236.2366241977
30
0.0000000000
10
88.9157012903
20
236.6179857843
30
0.0000000000
10
88.2200872628
20
236.9968512534
30
0.0000000000
10
87.6113791310
20
237.3760256253
30
0.0000000000
10
87.0856780306
20
237.7604515557
30
0.0000000000
10
86.6460531143
20
238.1554919889
30
0.0000000000
10
86.3022348511
20
238.5683719112
30
0.0000000000
10
86.0777743015
20
238.9991093639
30
0.0000000000
10
86.0241754062
20
239.3043366322
30
0.0000000000
10
86.0241754062
20
239.4470840200
30
0.0000000000
11
98.4702670505
21
233.6487018318
31
0.0000000000
11
96.8136582729
21
233.9763449418
31
0.0000000000
11
95.2984674042
21
234.3328038615
31
0.0000000000
11
93.9205389495
21
234.7082111058
31
0.0000000000
11
92.6760471267
21
235.0939506241
31
0.0000000000
11
91.5602287580
21
235.4829170045
31
0.0000000000
11
90.5642719572
21
235.8708326091
31
0.0000000000
11
89.6790809909
21
236.2553114402
31
0.0000000000
11
88.8941226609
21
236.6366211944
31
0.0000000000
11
88.2016705000
21
237.0160771526
31
0.0000000000
11
87.5979636120
21
237.3952875365
31
0.0000000000
11
87.0775879067
21
237.7804391861
31
0.0000000000
11
86.6416055931
21
238.1796769562
31
0.0000000000
11
86.3082336005
21
238.5922355323
31
0.0000000000
11
86.0940949491
21
239.0245883300
31
0.0000000000
11
86.0241754062
21
239.4470840200
31
0.0000000000
0
SPLINE
5
371
100
AcDbEntity
8
0
100
AcDbSpline
62
7
6
CONTINUOUS
70
0
71
3
72
10
73
6
74
4
42
0.0000001000
43
0.0000001000
44
0.0000000001
40
0.0000000000
40
0.0000000000
40
0.0000000000
40
0.0000000000
40
0.3205945420
40
0.6538330602
40
1.0000000000
40
1.0000000000
40
1.0000000000
40
1.0000000000
10
79.8271827465
20
154.7039775689
30
0.0000000000
10
80.1467377783
20
154.4265854254
30
0.0000000000
10
80.7428732705
20
153.7932294885
30
0.0000000000
10
81.4439793817
20
152.6655887983
30
0.0000000000
10
81.7598892907
20
151.8186863546
30
0.0000000000
10
81.8769206477
20
151.3770182708
30
0.0000000000
11
79.8271827465
21
154.7039775689
31
0.0000000000
11
80.6982316213
21
153.7804894886
31
0.0000000000
11
81.3963206806
21
152.6607343547
31
0.0000000000
11
81.8769206477
21
151.3770182708
31
0.0000000000
0
SPLINE
5
372
100
AcDbEntity
8
0
100
AcDbSpline
62
7
6
CONTINUOUS
70
0
71
3
72
23
73
19
74
17
42
0.0000001000
43
0.0000001000
44
0.0000000001
40
0.0000000000
40
0.0000000000
40
0.0000000000
40
0.0000000000
40
0.0293237158
40
0.0623929941
40
0.0987961429
40
0.1394848002
40
0.1841313076
40
0.2328810086
40
0.2858087613
40
0.3426555781
40
0.4032985000
40
0.4685262235
40
0.5391424422
40
0.6159428044
40
0.6996917287
40
0.7910661148
40
0.8908630106
40
1.0000000000
40
1.0000000000
40
1.0000000000
40
1.0000000000
10
128.5003586948
20
239.4470840200
30
0.0000000000
10
128.5003586948
20
239.3078247644
30
0.0000000000
10
128.4494299996
20
239.0099402340
30
0.0000000000
10
128.2342735813
20
238.5872306323
30
0.0000000000
10
127.9017305939
20
238.1800132267
30
0.0000000000
10
127.4738866006
20
237.7891217267
30
0.0000000000
10
126.9618600853
20
237.4092589447
30
0.0000000000
10
126.3739064629
20
237.0379451724
30
0.0000000000
10
125.7148007172
20
236.6734601055
30
0.0000000000
10
124.9886462285
20
236.3155504615
30
0.0000000000
10
124.1954442849
20
235.9632242965
30
0.0000000000
10
123.3296573142
20
235.6147146524
30
0.0000000000
10
122.3809042847
20
235.2682837258
30
0.0000000000
10
121.3383016453
20
234.9239714079
30
0.0000000000
10
120.1911330838
20
234.5836696130
30
0.0000000000
10
118.9284190351
20
234.2509380249
30
0.0000000000
10
117.5383612977
20
233.9309951324
30
0.0000000000
10
116.5644460132
20
233.7400645941
30
0.0000000000
10
116.0542670505
20
233.6487018318
30
0.0000000000
11
128.5003586948
21
239.4470840200
31
0.0000000000
11
128.4337232382
21
239.0346546583
31
0.0000000000
11
128.2282970243
21
238.6106569529
31
0.0000000000
11
127.9061452732
21
238.2042030345
31
0.0000000000
11
127.4818942221
21
237.8091618563
31
0.0000000000
11
126.9732712554
21
237.4271876364
31
0.0000000000
11
126.3874317556
21
237.0541190803
31
0.0000000000
11
125.7284597990
21
236.6875504180
31
0.0000000000
11
125.0026182198
21
236.3282521353
31
0.0000000000
11
124.2134427180
21
235.9765805217
31
0.0000000000
11
123.3516670961
21
235.6287995095
31
0.0000000000
11
122.4068550864
21
235.2830841016
31
0.0000000000
11
121.3680453058
21
234.9394147575
31
0.0000000000
11
120.2242792549
21
234.5995985232
31
0.0000000000
11
118.9655424674
21
234.2674601831
31
0.0000000000
11
117.5800410907
21
233.9481699154
31
0.0000000000
11
116.0542670505
21
233.6487018318
31
0.0000000000
0
SPLINE
5
373
100
AcDbEntity
8
0
100
AcDbSpline
62
7
6
CONTINUOUS
70
0
71
3
72
13
73
9
74
7
42
0.0000001000
43
0.0000001000
44
0.0000000001
40
0.0000000000
40
0.0000000000
40
0.0000000000
40
0.0000000000
40
0.2000804192
40
0.3780666567
40
0.5404994047
40
0.6936683073
40
0.8442769531
40
1.0000000000
40
1.0000000000
40
1.0000000000
40
1.0000000000
10
73.0632654922
20
184.4969841896
30
0.0000000000
10
72.1404005259
20
184.1709809405
30
0.0000000000
10
70.4269964027
20
183.4607381142
30
0.0000000000
10
68.1303098003
20
182.1340281309
30
0.0000000000
10
66.2369787801
20
180.6186177045
30
0.0000000000
10
64.7240032127
20
178.8940081690
30
0.0000000000
10
63.6018841171
20
176.9277190203
30
0.0000000000
10
63.1621657661
20
175.4790854528
30
0.0000000000
10
63.0232815555
20
174.7300871829
30
0.0000000000
11
73.0632654922
21
184.4969841896
31
0.0000000000
11
70.3568123050
21
183.3582428114
31
0.0000000000
11
68.1026850524
21
182.0385639308
31
0.0000000000
11
66.2508175097
21
180.5375899891
31
0.0000000000
11
64.7777273892
21
178.8397456001
31
0.0000000000
11
63.6889100980
21
176.9162993715
31
0.0000000000
11
63.0232815555
21
174.7300871829
31
0.0000000000
0
SPLINE
5
374
100
AcDbEntity
8
0
100
AcDbSpline
62
7
6
CONTINUOUS
70
0
71
3
72
12
73
8
74
6
42
0.0000001000
43
0.0000001000
44
0.0000000001
40
0.0000000000
40
0.0000000000
40
0.0000000000
40
0.0000000000
40
0.2038750415
40
0.4105629276
40
0.6152603114
40
0.8132553959
40
1.0000000000
40
1.0000000000
40
1.0000000000
40
1.0000000000
10
83.9723434449
20
255.1470840200
30
0.0000000000
10
84.2018696689
20
255.4678961952
30
0.0000000000
10
84.6443907814
20
256.1285110899
30
0.0000000000
10
85.2228688377
20
257.1710018310
30
0.0000000000
10
85.6767067516
20
258.2627964501
30
0.0000000000
10
85.9604176751
20
259.3720492561
30
0.0000000000
10
86.0241754062
20
260.1178389783
30
0.0000000000
10
86.0241754062
20
260.4791594917
30
0.0000000000
11
83.9723434449
21
255.1470840200
31
0.0000000000
11
84.6274261366
21
256.1326251507
31
0.0000000000
11
85.2044426187
21
257.1844741243
31
0.0000000000
11
85.6542880695
21
258.2841940450
31
0.0000000000
11
85.9336746876
21
259.3989825430
31
0.0000000000
11
86.0241754062
21
260.4791594917
31
0.0000000000
0
SPLINE
5
375
100
AcDbEntity
8
0
100
AcDbSpline
62
7
6
CONTINUOUS
70
0
71
3
72
15
73
11
74
9
42
0.0000001000
43
0.0000001000
44
0.0000000001
40
0.0000000000
40
0.0000000000
40
0.0000000000
40
0.0000000000
40
0.1259082512
40
0.2510369831
40
0.3757849940
40
0.5003907237
40
0.6252364343
40
0.7501752346
40
0.8751831543
40
1.0000000000
40
1.0000000000
40
1.0000000000
40
1.0000000000
10
130.5521906562
20
255.1470840200
30
0.0000000000
10
130.4064073912
20
254.9070960024
30
0.0000000000
10
130.1245353562
20
254.4231729664
30
0.0000000000
10
129.7345649708
20
253.6810273152
30
0.0000000000
10
129.3842355590
20
252.9224269582
30
0.0000000000
10
129.0799821855
20
252.1447223082
30
0.0000000000
10
128.8298780745
20
251.3473184289
30
0.0000000000
10
128.6426730450
20
250.5317087466
30
0.0000000000
10
128.5265954651
20
249.7029437242
30
0.0000000000
10
128.5003586948
20
249.1454470934
30
0.0000000000
10
128.5003586948
20
248.8670840200
30
0.0000000000
11
130.5521906562
21
255.1470840200
31
0.0000000000
11
130.1290329848
21
254.4186880661
31
0.0000000000
11
129.7405765723
21
253.6770917445
31
0.0000000000
11
129.3917429332
21
252.9188568696
31
0.0000000000
11
129.0892054932
21
252.1420119607
31
0.0000000000
11
128.8404571285
21
251.3446282132
31
0.0000000000
11
128.6545581344
21
250.5296564348
31
0.0000000000
11
128.5393415550
21
249.7012628630
31
0.0000000000
11
128.5003586948
21
248.8670840200
31
0.0000000000
0
SPLINE
5
376
100
AcDbEntity
8
0
100
AcDbSpline
62
7
6
CONTINUOUS
70
0
71
3
72
12
73
8
74
6
42
0.0000001000
43
0.0000001000
44
0.0000000001
40
0.0000000000
40
0.0000000000
40
0.0000000000
40
0.0000000000
40
0.1868734707
40
0.3848671413
40
0.5894973413
40
0.7961186171
40
1.0000000000
40
1.0000000000
40
1.0000000000
40
1.0000000000
10
128.5003586861
20
260.4791593878
30
0.0000000000
10
128.5003586978
20
260.1175895904
30
0.0000000000
10
128.5641831670
20
259.3715508844
30
0.0000000000
10
128.8480361413
20
258.2622159249
30
0.0000000000
10
129.3018333620
20
257.1706919712
30
0.0000000000
10
129.8802017224
20
256.1284245063
30
0.0000000000
10
130.3226573259
20
255.4679061278
30
0.0000000000
10
130.5521906562
20
255.1470840200
30
0.0000000000
11
128.5003586861
21
260.4791593878
31
0.0000000000
11
128.5909830801
21
259.3982423307
31
0.0000000000
11
128.8704801290
21
258.2834901455
31
0.0000000000
11
129.3202440141
21
257.1841583806
31
0.0000000000
11
129.8970888417
21
256.1326564342
31
0.0000000000
11
130.5521906562
21
255.1470840200
31
0.0000000000
0
SPLINE
5
377
100
AcDbEntity
8
0
100
AcDbSpline
62
7
6
CONTINUOUS
70
0
71
3
72
14
73
10
74
8
42
0.0000001000
43
0.0000001000
44
0.0000000001
40
0.0000000000
40
0.0000000000
40
0.0000000000
40
0.0000000000
40
0.1035879960
40
0.2184797342
40
0.3456254859
40
0.4860786431
40
0.6410508385
40
0.8118430917
40
1.0000000000
40
1.0000000000
40
1.0000000000
40
1.0000000000
10
97.8422670505
20
130.3320840200
30
0.0000000000
10
97.0640050684
20
129.7554842758
30
0.0000000000
10
95.5006130060
20
128.4318435084
30
0.0000000000
10
93.2756581209
20
126.0805800501
30
0.0000000000
10
91.0791291553
20
123.2516599226
30
0.0000000000
10
88.9315419764
20
119.9299576725
30
0.0000000000
10
86.8503847222
20
116.0951176795
30
0.0000000000
10
84.8533717184
20
111.7207401683
30
0.0000000000
10
83.6531371054
20
108.5838138783
30
0.0000000000
10
83.0701258938
20
106.9238851233
30
0.0000000000
11
97.8422670505
21
130.3320840200
31
0.0000000000
11
95.6167789672
21
128.4637602816
31
0.0000000000
11
93.3924342005
21
126.1315954697
31
0.0000000000
11
91.1954518789
21
123.3220123535
31
0.0000000000
11
89.0466158186
21
120.0197321277
31
0.0000000000
11
86.9636223656
21
116.2041349286
31
0.0000000000
11
84.9649006846
21
111.8500619770
31
0.0000000000
11
83.0701258938
21
106.9238851233
31
0.0000000000
0
SPLINE
5
378
100
AcDbEntity
8
0
100
AcDbSpline
62
7
6
CONTINUOUS
70
0
71
3
72
10
73
6
74
4
42
0.0000001000
43
0.0000001000
44
0.0000000001
40
0.0000000000
40
0.0000000000
40
0.0000000000
40
0.0000000000
40
0.3277963029
40
0.6611071386
40
1.0000000000
40
1.0000000000
40
1.0000000000
40
1.0000000000
10
83.0701258938
20
147.1552833590
30
0.0000000000
10
82.9318874452
20
147.6142989675
30
0.0000000000
10
82.6584720374
20
148.5416838478
30
0.0000000000
10
82.2607551320
20
149.9490254134
30
0.0000000000
10
82.0038638860
20
150.8979434467
30
0.0000000000
10
81.8769206477
20
151.3770182708
30
0.0000000000
11
83.0701258938
21
147.1552833590
31
0.0000000000
11
82.6633296400
21
148.5346903279
31
0.0000000000
11
82.2655458485
21
149.9418820722
31
0.0000000000
11
81.8769206477
21
151.3770182708
31
0.0000000000
0
SPLINE
5
379
100
AcDbEntity
8
0
100
AcDbSpline
62
7
6
CONTINUOUS
70
0
71
3
72
14
73
10
74
8
42
0.0000001000
43
0.0000001000
44
0.0000000001
40
0.0000000000
40
0.0000000000
40
0.0000000000
40
0.0000000000
40
0.1595345191
40
0.3176108457
40
0.4709076793
40
0.6183054018
40
0.7565427343
40
0.8844599200
40
1.0000000000
40
1.0000000000
40
1.0000000000
40
1.0000000000
10
113.5422670505
20
82.7883798854
30
0.0000000000
10
113.5422670505
20
83.7006384415
30
0.0000000000
10
113.5864319244
20
85.5171373675
30
0.0000000000
10
113.7851853154
20
88.2036639431
30
0.0000000000
10
114.1149644260
20
90.8075272913
30
0.0000000000
10
114.5713945415
20
93.2771087279
30
0.0000000000
10
115.1499904218
20
95.5720605213
30
0.0000000000
10
115.8422725098
20
97.6442812621
30
0.0000000000
10
116.4052918446
20
98.9210530836
30
0.0000000000
10
116.7100109863
20
99.5072731093
30
0.0000000000
11
113.5422670505
21
82.7883798854
31
0.0000000000
11
113.6093133504
21
85.5243341709
31
0.0000000000
11
113.8110185600
21
88.2285829157
31
0.0000000000
11
114.1442943572
21
90.8371487874
31
0.0000000000
11
114.6082434255
21
93.3227929817
31
0.0000000000
11
115.1941983388
21
95.6206889511
31
0.0000000000
11
115.8982516691
21
97.6990651911
31
0.0000000000
11
116.7100109863
21
99.5072731093
31
0.0000000000
0
SPLINE
5
37A
100
AcDbEntity
8
0
100
AcDbSpline
62
7
6
CONTINUOUS
70
0
71
3
72
16
73
12
74
10
42
0.0000001000
43
0.0000001000
44
0.0000000001
40
0.0000000000
40
0.0000000000
40
0.0000000000
40
0.0000000000
40
0.1624599796
40
0.3088211907
40
0.4408614245
40
0.5600260813
40
0.6675319860
40
0.7643996886
40
0.8515533637
40
0.9298568320
40
1.0000000000
40
1.0000000000
40
1.0000000000
40
1.0000000000
10
135.6853382252
20
91.2044602123
30
0.0000000000
10
135.2160259441
20
93.5593056908
30
0.0000000000
10
134.2064860772
20
98.0135204973
30
0.0000000000
10
132.4058904851
20
104.2793817748
30
0.0000000000
10
130.4456806479
20
109.8228475130
30
0.0000000000
10
128.3570400778
20
114.7002077617
30
0.0000000000
10
126.1651986445
20
118.9552167562
30
0.0000000000
10
123.8921547891
20
122.6215604063
30
0.0000000000
10
121.5585642971
20
125.7253703757
30
0.0000000000
10
119.1884942914
20
128.2852405323
30
0.0000000000
10
117.5152708785
20
129.7149270662
30
0.0000000000
10
116.6822670505
20
130.3320840200
30
0.0000000000
11
135.6853382252
21
91.2044602123
31
0.0000000000
11
134.0841836226
21
98.2277262005
31
0.0000000000
11
132.2822843831
21
104.4622041951
31
0.0000000000
11
130.3202816106
21
109.9783233487
31
0.0000000000
11
128.2295176971
21
114.8308260631
31
0.0000000000
11
126.0353101802
21
119.0625993705
31
0.0000000000
11
123.7603866750
21
122.7057699535
31
0.0000000000
11
121.4264024696
21
125.7857099070
31
0.0000000000
11
119.0563502151
21
128.3229220366
31
0.0000000000
11
116.6822670505
21
130.3320840200
31
0.0000000000
0
SPLINE
5
37B
100
AcDbEntity
8
0
100
AcDbSpline
62
7
6
CONTINUOUS
70
0
71
3
72
13
73
9
74
7
42
0.0000001000
43
0.0000001000
44
0.0000000001
40
0.0000000000
40
0.0000000000
40
0.0000000000
40
0.0000000000
40
0.1702527956
40
0.3458238258
40
0.5215976390
40
0.6926166334
40
0.8534667826
40
1.0000000000
40
1.0000000000
40
1.0000000000
40
1.0000000000
10
120.5034781561
20
75.7364745039
30
0.0000000000
10
120.5638970285
20
75.3454042573
30
0.0000000000
10
120.6532215372
20
74.5456333345
30
0.0000000000
10
120.6994961049
20
73.3332399035
30
0.0000000000
10
120.6602781405
20
72.1187460198
30
0.0000000000
10
120.5365062462
20
70.9441762594
30
0.0000000000
10
120.3312023145
20
69.8501481117
30
0.0000000000
10
120.1321923164
20
69.1620924996
30
0.0000000000
10
120.0157071814
20
68.8420522215
30
0.0000000000
11
120.5034781561
21
75.7364745039
31
0.0000000000
11
120.6376343091
21
74.5569493757
31
0.0000000000
11
120.6851075982
21
73.3336575847
31
0.0000000000
11
120.6448878831
21
72.1086911136
31
0.0000000000
11
120.5176940210
21
70.9230216082
31
0.0000000000
11
120.3066847822
21
69.8214822253
31
0.0000000000
11
120.0157071814
21
68.8420522215
31
0.0000000000
0
SPLINE
5
37C
100
AcDbEntity
8
0
100
AcDbSpline
62
7
6
CONTINUOUS
70
0
71
3
72
13
73
9
74
7
42
0.0000001000
43
0.0000001000
44
0.0000000001
40
0.0000000000
40
0.0000000000
40
0.0000000000
40
0.0000000000
40
0.1702527956
40
0.3458238257
40
0.5215976389
40
0.6926166334
40
0.8534667826
40
1.0000000000
40
1.0000000000
40
1.0000000000
40
1.0000000000
10
94.0210559463
20
75.7364745121
30
0.0000000000
10
93.9606370735
20
75.3454042652
30
0.0000000000
10
93.8713125643
20
74.5456333416
30
0.0000000000
10
93.8250379962
20
73.3332399093
30
0.0000000000
10
93.8642559602
20
72.1187460241
30
0.0000000000
10
93.9880278544
20
70.9441762622
30
0.0000000000
10
94.1933317862
20
69.8501481130
30
0.0000000000
10
94.3923417845
20
69.1620925000
30
0.0000000000
10
94.5088269196
20
68.8420522215
30
0.0000000000
11
94.0210559463
21
75.7364745121
31
0.0000000000
11
93.8868997925
21
74.5569493829
31
0.0000000000
11
93.8394265029
21
73.3336575905
31
0.0000000000
11
93.8796462176
21
72.1086911179
31
0.0000000000
11
94.0068400797
21
70.9230216110
31
0.0000000000
11
94.2178493185
21
69.8214822266
31
0.0000000000
11
94.5088269196
21
68.8420522215
31
0.0000000000
0
SPLINE
5
37D
100
AcDbEntity
8
0
100
AcDbSpline
62
7
6
CONTINUOUS
70
0
71
3
72
14
73
10
74
8
42
0.0000001000
43
0.0000001000
44
0.0000000001
40
0.0000000000
40
0.0000000000
40
0.0000000000
40
0.0000000000
40
0.1595345194
40
0.3176108462
40
0.4709076800
40
0.6183054024
40
0.7565427347
40
0.8844599198
40
1.0000000000
40
1.0000000000
40
1.0000000000
40
1.0000000000
10
100.9822670505
20
82.7883798854
30
0.0000000000
10
100.9822670505
20
83.7006384503
30
0.0000000000
10
100.9381021758
20
85.5171373938
30
0.0000000000
10
100.7393487810
20
88.2036639943
30
0.0000000000
10
100.4095696643
20
90.8075273651
30
0.0000000000
10
99.9531395396
20
93.2771088199
30
0.0000000000
10
99.3745436509
20
95.5720606261
30
0.0000000000
10
98.6822615436
20
97.6442813744
30
0.0000000000
10
98.1192422106
20
98.9210532066
30
0.0000000000
10
97.8145230603
20
99.5072732353
30
0.0000000000
11
100.9822670505
21
82.7883798854
31
0.0000000000
11
100.9152207494
21
85.5243341973
31
0.0000000000
11
100.7135155358
21
88.2285829676
31
0.0000000000
11
100.3802397322
21
90.8371488620
31
0.0000000000
11
99.9162906550
21
93.3227930753
31
0.0000000000
11
99.3303357309
21
95.6206890578
31
0.0000000000
11
98.6262823894
21
97.6990653006
31
0.0000000000
11
97.8145230603
21
99.5072732353
31
0.0000000000
0
SPLINE
5
37E
100
AcDbEntity
8
0
100
AcDbSpline
62
7
6
CONTINUOUS
70
0
71
3
72
9
73
5
74
3
42
0.0000001000
43
0.0000001000
44
0.0000000001
40
0.0000000000
40
0.0000000000
40
0.0000000000
40
0.0000000000
40
0.7390808774
40
1.0000000000
40
1.0000000000
40
1.0000000000
40
1.0000000000
10
278.0999086461
20
58.9136429825
30
0.0000000000
10
278.9729013483
20
58.9054829742
30
0.0000000000
10
280.1541306946
20
58.8985240987
30
0.0000000000
10
281.3353715840
20
58.8970840009
30
0.0000000000
10
281.6435798822
20
58.8970839810
30
0.0000000000
11
278.0999086461
21
58.9136429825
31
0.0000000000
11
280.7189556970
21
58.8982112107
31
0.0000000000
11
281.6435798822
21
58.8970839810
31
0.0000000000
0
SPLINE
5
37F
100
AcDbEntity
8
0
100
AcDbSpline
62
7
6
CONTINUOUS
70
0
71
3
72
9
73
5
74
3
42
0.0000001000
43
0.0000001000
44
0.0000000001
40
0.0000000000
40
0.0000000000
40
0.0000000000
40
0.0000000000
40
0.7390808774
40
1.0000000000
40
1.0000000000
40
1.0000000000
40
1.0000000000
10
312.6543513397
20
58.9136429825
30
0.0000000000
10
311.7813586375
20
58.9054829742
30
0.0000000000
10
310.6001292912
20
58.8985240987
30
0.0000000000
10
309.4188884018
20
58.8970840009
30
0.0000000000
10
309.1106801036
20
58.8970839810
30
0.0000000000
11
312.6543513397
21
58.9136429825
31
0.0000000000
11
310.0353042888
21
58.8982112107
31
0.0000000000
11
309.1106801036
21
58.8970839810
31
0.0000000000
0
SPLINE
5
380
100
AcDbEntity
8
0
100
AcDbSpline
62
7
6
CONTINUOUS
70
0
71
3
72
12
73
8
74
6
42
0.0000001000
43
0.0000001000
44
0.0000000001
40
0.0000000000
40
0.0000000000
40
0.0000000000
40
0.0000000000
40
0.1590209545
40
0.3358608259
40
0.5335900153
40
0.7546629716
40
1.0000000000
40
1.0000000000
40
1.0000000000
40
1.0000000000
10
317.3571299929
20
251.2016822710
30
0.0000000000
10
316.3721124793
20
250.4821934821
30
0.0000000000
10
314.3879549861
20
248.8273408662
30
0.0000000000
10
311.5706265604
20
245.8463281762
30
0.0000000000
10
308.8240099261
20
242.1828714187
30
0.0000000000
10
306.2267322455
20
237.7894283466
30
0.0000000000
10
304.7364896792
20
234.5285603505
30
0.0000000000
10
304.0379394696
20
232.7811003831
30
0.0000000000
11
317.3571299929
21
251.2016822710
31
0.0000000000
11
314.5404863552
21
248.8654821099
31
0.0000000000
11
311.7367553472
21
245.9159660944
31
0.0000000000
11
308.9970415852
21
242.2830537843
31
0.0000000000
11
306.3966085972
21
237.9105232106
31
0.0000000000
11
304.0379394696
21
232.7811003831
31
0.0000000000
0
SPLINE
5
381
100
AcDbEntity
8
0
100
AcDbSpline
62
7
6
CONTINUOUS
70
0
71
3
72
12
73
8
74
6
42
0.0000001000
43
0.0000001000
44
0.0000000001
40
0.0000000000
40
0.0000000000
40
0.0000000000
40
0.0000000000
40
0.1590209545
40
0.3358608259
40
0.5335900153
40
0.7546629716
40
1.0000000000
40
1.0000000000
40
1.0000000000
40
1.0000000000
10
273.3971299929
20
251.2016822710
30
0.0000000000
10
274.3821475065
20
250.4821934821
30
0.0000000000
10
276.3663049997
20
248.8273408662
30
0.0000000000
10
279.1836334254
20
245.8463281762
30
0.0000000000
10
281.9302500598
20
242.1828714187
30
0.0000000000
10
284.5275277403
20
237.7894283466
30
0.0000000000
10
286.0177703066
20
234.5285603505
30
0.0000000000
10
286.7163205162
20
232.7811003831
30
0.0000000000
11
273.3971299929
21
251.2016822710
31
0.0000000000
11
276.2137736306
21
248.8654821099
31
0.0000000000
11
279.0175046387
21
245.9159660944
31
0.0000000000
11
281.7572184006
21
242.2830537843
31
0.0000000000
11
284.3576513887
21
237.9105232106
31
0.0000000000
11
286.7163205162
21
232.7811003831
31
0.0000000000
0
SPLINE
5
382
100
AcDbEntity
8
0
100
AcDbSpline
62
7
6
CONTINUOUS
70
0
71
3
72
9
73
5
74
3
42
0.0000001000
43
0.0000001000
44
0.0000000001
40
0.0000000000
40
0.0000000000
40
0.0000000000
40
0.0000000000
40
0.3929181339
40
1.0000000000
40
1.0000000000
40
1.0000000000
40
1.0000000000
10
281.6435798822
20
58.8970839810
30
0.0000000000
10
282.2085493491
20
58.8970839446
30
0.0000000000
10
283.6464298881
20
58.9002970247
30
0.0000000000
10
285.0842767132
20
58.9116885167
30
0.0000000000
10
285.9571299929
20
58.9216212620
30
0.0000000000
11
281.6435798822
21
58.8970839810
31
0.0000000000
11
283.3384828205
21
58.9008715208
31
0.0000000000
11
285.9571299929
21
58.9216212620
31
0.0000000000
0
SPLINE
5
383
100
AcDbEntity
8
0
100
AcDbSpline
62
7
6
CONTINUOUS
70
0
71
3
72
13
73
9
74
7
42
0.0000001000
43
0.0000001000
44
0.0000000001
40
0.0000000000
40
0.0000000000
40
0.0000000000
40
0.0000000000
40
0.1509609684
40
0.3145300270
40
0.4850407250
40
0.6592694761
40
0.8329035847
40
1.0000000000
40
1.0000000000
40
1.0000000000
40
1.0000000000
10
290.0058209174
20
213.1021577125
30
0.0000000000
10
290.0058209174
20
214.1115798734
30
0.0000000000
10
289.9514516844
20
216.2149310503
30
0.0000000000
10
289.7230439978
20
219.4512250470
30
0.0000000000
10
289.3201107461
20
222.8276841405
30
0.0000000000
10
288.7123101251
20
226.2425733060
30
0.0000000000
10
287.8718867451
20
229.5850686575
30
0.0000000000
10
287.1310585444
20
231.7436114648
30
0.0000000000
10
286.7163205162
20
232.7811003831
30
0.0000000000
11
290.0058209174
21
213.1021577125
31
0.0000000000
11
289.9320362709
21
216.1295251690
31
0.0000000000
11
289.7005422232
21
219.4025326889
31
0.0000000000
11
289.2910255436
21
222.7983618804
31
0.0000000000
11
288.6715150316
21
226.2380344818
31
0.0000000000
11
287.8132403123
21
229.6137221377
31
0.0000000000
11
286.7163205162
21
232.7811003831
31
0.0000000000
0
SPLINE
5
384
100
AcDbEntity
8
0
100
AcDbSpline
62
7
6
CONTINUOUS
70
0
71
3
72
13
73
9
74
7
42
0.0000001000
43
0.0000001000
44
0.0000000001
40
0.0000000000
40
0.0000000000
40
0.0000000000
40
0.0000000000
40
0.1509609684
40
0.3145300270
40
0.4850407250
40
0.6592694761
40
0.8329035847
40
1.0000000000
40
1.0000000000
40
1.0000000000
40
1.0000000000
10
300.7484390684
20
213.1021577125
30
0.0000000000
10
300.7484390684
20
214.1115798734
30
0.0000000000
10
300.8028083015
20
216.2149310502
30
0.0000000000
10
301.0312159880
20
219.4512250470
30
0.0000000000
10
301.4341492398
20
222.8276841405
30
0.0000000000
10
302.0419498607
20
226.2425733060
30
0.0000000000
10
302.8823732408
20
229.5850686575
30
0.0000000000
10
303.6232014414
20
231.7436114648
30
0.0000000000
10
304.0379394696
20
232.7811003831
30
0.0000000000
11
300.7484390684
21
213.1021577125
31
0.0000000000
11
300.8222237149
21
216.1295251690
31
0.0000000000
11
301.0537177626
21
219.4025326889
31
0.0000000000
11
301.4632344422
21
222.7983618804
31
0.0000000000
11
302.0827449542
21
226.2380344818
31
0.0000000000
11
302.9410196735
21
229.6137221377
31
0.0000000000
11
304.0379394696
21
232.7811003831
31
0.0000000000
0
SPLINE
5
385
100
AcDbEntity
8
0
100
AcDbSpline
62
7
6
CONTINUOUS
70
0
71
3
72
9
73
5
74
3
42
0.0000001000
43
0.0000001000
44
0.0000000001
40
0.0000000000
40
0.0000000000
40
0.0000000000
40
0.0000000000
40
0.3929181339
40
1.0000000000
40
1.0000000000
40
1.0000000000
40
1.0000000000
10
309.1106801036
20
58.8970839810
30
0.0000000000
10
308.5457106368
20
58.8970839446
30
0.0000000000
10
307.1078300977
20
58.9002970247
30
0.0000000000
10
305.6699832726
20
58.9116885167
30
0.0000000000
10
304.7971299929
20
58.9216212620
30
0.0000000000
11
309.1106801036
21
58.8970839810
31
0.0000000000
11
307.4157771653
21
58.9008715208
31
0.0000000000
11
304.7971299929
21
58.9216212620
31
0.0000000000
0
ENDSEC
0
SECTION
2
OBJECTS
0
DICTIONARY
5
386
100
AcDbDictionary
3
ACAD_GROUP
350
387
3
ACAD_MLINESTYLE
350
388
0
DICTIONARY
5
387
102
{ACAD_REACTORS
330
386
102
}
100
AcDbDictionary
0
DICTIONARY
5
388
102
{ACAD_REACTORS
330
386
102
}
100
AcDbDictionary
3
STANDARD
350
389
0
MLINESTYLE
5
389
102
{ACAD_REACTORS
330
388
102
}
100
AcDbMlineStyle
2
STANDARD
70
0
3

62
256
51
90.0
52
90.0
71
2
49
0.5
62
256
6
BYLAYER
49
-0.5
62
256
6
BYLAYER
0
ENDSEC
0
EOF
