999
DXF file: C:\Aktuell-Internet\CAD-Daten\2vvh13.dxf
999
Pro/ENGINEER 2001400 by Parametric Technology Corporation
0
SECTION
2
HEADER
9
$ACADVER
1
AC1014
9
$EXTMAX
10
420.0000000000
20
297.0000000000
9
$EXTMIN
10
0.0000000000
20
0.0000000000
9
$LIMMIN
10
0.0000000000
20
0.0000000000
9
$LIMMAX
10
420.0000000000
20
297.0000000000
9
$VIEWCTR
10
210.0000000000
20
148.5000000000
9
$VIEWSIZE
40
297.0000000000
9
$CLAYER
8
0
9
$LTSCALE
40
23.1000000000
9
$CELTYPE
6
BYLAYER
9
$DIMSCALE
40
1
9
$DIMASZ
40
3.5000000000
9
$DIMEXO
40
2.6250000000
9
$DIMDLI
40
15.9600000000
9
$DIMEXE
40
7.5600000000
9
$DIMCEN
40
3.7800000000
9
$DIMLFAC
40
1.0000000000
9
$DIMTXT
40
3.5000000000
9
$DIMTOL
70
1
9
$DIMTFAC
40
0.6000000000
9
$DIMTP
40
0.0050000000
9
$DIMTM
40
0.0050000000
9
$HANDSEED
5
388
0
ENDSEC
0
SECTION
2
CLASSES
0
ENDSEC
0
SECTION
2
TABLES
0
TABLE
2
VPORT
5
8
100
AcDbSymbolTable
70
2
0
VPORT
5
1F4
100
AcDbSymbolTableRecord
100
AcDbViewportTableRecord
2
*ACTIVE
70
0
10
0.0
20
0.0
11
1.0
21
1.0
12
210.0000000000
22
148.5000000000
13
0.0
23
0.0
14
1.0
24
1.0
15
0.0
25
0.0
16
0.0
26
0.0
36
1.0
17
0.0
27
0.0
37
0.0
40
297.0000000000
41
1.4141414141
42
50.0
43
0.0
44
0.0
50
0.0
51
0.0
71
0
72
100
73
1
74
1
75
0
76
0
77
0
78
0
0
ENDTAB
0
TABLE
2
LTYPE
5
5
100
AcDbSymbolTable
70
6
0
LTYPE
5
14
100
AcDbSymbolTableRecord
100
AcDbLinetypeTableRecord
2
BYBLOCK
70
0
3

72
65
73
0
40
0.0
0
LTYPE
5
15
100
AcDbSymbolTableRecord
100
AcDbLinetypeTableRecord
2
BYLAYER
70
0
3

72
65
73
0
40
0.0
0
LTYPE
5
16
100
AcDbSymbolTableRecord
100
AcDbLinetypeTableRecord
2
CONTINUOUS
70
64
3
Solid line
72
65
73
0
40
0
0
LTYPE
5
1F5
100
AcDbSymbolTableRecord
100
AcDbLinetypeTableRecord
2
CENTER
70
64
3
____ _ ____ _ ____ _ ____ _ ____ _ ____ _ ____
72
65
73
4
40
0.6
49
0.375
74
0
49
-0.075
74
0
49
0.075
74
0
49
-0.075
74
0
0
LTYPE
5
1F6
100
AcDbSymbolTableRecord
100
AcDbLinetypeTableRecord
2
HIDDEN
70
64
3
- - - - - - - - - - - - - - - - - - - -
72
65
73
2
40
0.2
49
0.1
74
0
49
-0.1
74
0
0
LTYPE
5
1F7
100
AcDbSymbolTableRecord
100
AcDbLinetypeTableRecord
2
PHANTOM
70
64
3
_____ _ _ _____ _ _ _____ _ _ _____
72
65
73
6
40
0.8
49
0.45
74
0
49
-0.05
74
0
49
0.1
74
0
49
-0.05
74
0
49
0.1
74
0
49
-0.05
74
0
0
LTYPE
5
1F8
100
AcDbSymbolTableRecord
100
AcDbLinetypeTableRecord
2
DOT
70
64
3
. . . . . . . . . . . . . . . . . . . .
72
65
73
2
40
0.2
49
0.1
74
0
49
-0.1
74
0
0
LTYPE
5
1F9
100
AcDbSymbolTableRecord
100
AcDbLinetypeTableRecord
2
DASHED
70
64
3
- - - - - - - - - - - - - - - - - - - -
72
65
73
2
40
0.2
49
0.1
74
0
49
-0.1
74
0
0
ENDTAB
0
TABLE
2
LAYER
5
2
100
AcDbSymbolTable
70
36
0
LAYER
5
10
100
AcDbSymbolTableRecord
100
AcDbLayerTableRecord
2
0
70
0
62
7
6
CONTINUOUS
0
LAYER
5
1FA
100
AcDbSymbolTableRecord
100
AcDbLayerTableRecord
2
DEFAULT_1
70
0
62
7
6
CENTER
0
LAYER
5
1FB
100
AcDbSymbolTableRecord
100
AcDbLayerTableRecord
2
DEFAULT_2
70
0
62
8
6
HIDDEN
0
LAYER
5
1FC
100
AcDbSymbolTableRecord
100
AcDbLayerTableRecord
2
DEFAULT_3
70
0
62
7
6
PHANTOM
0
LAYER
5
1FD
100
AcDbSymbolTableRecord
100
AcDbLayerTableRecord
2
ZEICHNUNGSBEMASSUNGEN
70
0
62
7
6
CONTINUOUS
0
ENDTAB
0
TABLE
2
STYLE
5
3
100
AcDbSymbolTable
70
1
0
STYLE
5
11
100
AcDbSymbolTableRecord
100
AcDbTextStyleTableRecord
2
STANDARD
70
0
40
0.0
41
1.0
50
0.0
71
0
42
0.0
3
txt
4

0
STYLE
5
1FE
100
AcDbSymbolTableRecord
100
AcDbTextStyleTableRecord
2
TEXTSTYLE_0
70
0
40
0.0
41
0.80
50
0.0
71
0
42
0.2
3
txt
4

0
ENDTAB
0
TABLE
2
VIEW
5
6
100
AcDbSymbolTable
70
0
0
ENDTAB
0
TABLE
2
UCS
5
7
100
AcDbSymbolTable
70
0
0
ENDTAB
0
TABLE
2
APPID
5
9
100
AcDbSymbolTable
70
1
0
APPID
5
1FF
100
AcDbSymbolTableRecord
100
AcDbRegAppTableRecord
2
ACAD
70
0
0
ENDTAB
0
TABLE
2
DIMSTYLE
5
A
100
AcDbSymbolTable
70
1
0
DIMSTYLE
105
200
100
AcDbSymbolTableRecord
100
AcDbDimStyleTableRecord
2
STANDARD
70
0
3

4

5

6

7

40
1.0
41
0.18
42
0.0625
43
0.38
44
0.18
45
0.0
46
0.0
47
0.0050000000
48
0.0050000000
140
3.5000000000
141
0.09
142
0.0
143
25.4
144
1.0000000000
145
0.0
146
0.6000000000
147
0.09
71
1
72
0
73
1
74
1
75
0
76
0
77
0
78
0
170
0
171
2
172
0
173
0
174
0
175
0
176
0
177
0
178
0
270
2
271
3
272
4
273
2
274
2
340
11
275
0
280
0
281
0
282
0
283
1
284
0
285
0
286
0
287
3
288
0
0
ENDTAB
0
TABLE
2
BLOCK_RECORD
5
1
100
AcDbSymbolTable
70
0
0
BLOCK_RECORD
5
1B
100
AcDbSymbolTableRecord
100
AcDbBlockTableRecord
2
*MODEL_SPACE
0
BLOCK_RECORD
5
1C
100
AcDbSymbolTableRecord
100
AcDbBlockTableRecord
2
*PAPER_SPACE
0
ENDTAB
0
ENDSEC
0
SECTION
2
BLOCKS
0
BLOCK
5
1E
100
AcDbEntity
8
0
100
AcDbBlockBegin
2
*MODEL_SPACE
70
0
10
0.0
20
0.0
30
0.0
3
*MODEL_SPACE
1

0
ENDBLK
5
1F
100
AcDbEntity
8
0
100
AcDbBlockEnd
0
BLOCK
5
20
100
AcDbEntity
8
0
100
AcDbBlockBegin
2
*PAPER_SPACE
70
0
10
0.0
20
0.0
30
0.0
3
*PAPER_SPACE
1

0
ENDBLK
5
21
100
AcDbEntity
8
0
100
AcDbBlockEnd
0
ENDSEC
0
SECTION
2
ENTITIES
0
TEXT
5
201
100
AcDbEntity
8
0
100
AcDbText
62
2
6
CONTINUOUS
10
292.2808972669
20
103.8742499563
7
TEXTSTYLE_0
40
6.0000000000
1
RUD
50
90.0000000000
72
5
11
292.2808972669
21
118.7313928134
100
AcDbText
0
TEXT
5
202
100
AcDbEntity
8
0
100
AcDbText
62
2
6
CONTINUOUS
10
304.6791126333
20
102.7802897769
7
TEXTSTYLE_0
40
6.0000000000
1
VVH 13/VIP
50
90.0000000000
72
5
11
304.6791126333
21
148.0660040626
100
AcDbText
0
LINE
5
203
100
AcDbEntity
8
0
100
AcDbLine
62
7
6
CONTINUOUS
10
0.0000000000
20
0.0000000000
11
0.0000000000
21
297.0000000000
0
LINE
5
204
100
AcDbEntity
8
0
100
AcDbLine
62
7
6
CONTINUOUS
10
0.0000000000
20
0.0000000000
11
420.0000000000
21
0.0000000000
0
LINE
5
205
100
AcDbEntity
8
0
100
AcDbLine
62
7
6
CONTINUOUS
10
0.0000000000
20
297.0000000000
11
420.0000000000
21
297.0000000000
0
LINE
5
206
100
AcDbEntity
8
0
100
AcDbLine
62
7
6
CONTINUOUS
10
420.0000000000
20
0.0000000000
11
420.0000000000
21
297.0000000000
0
LINE
5
207
100
AcDbEntity
8
0
100
AcDbLine
62
7
6
CONTINUOUS
10
131.0182466211
20
83.5411551898
11
131.5688306433
21
83.5411551898
0
LINE
5
208
100
AcDbEntity
8
0
100
AcDbLine
62
7
6
CONTINUOUS
10
78.5557703464
20
239.8976553597
11
87.0207942437
21
249.9858780007
0
LINE
5
209
100
AcDbEntity
8
0
100
AcDbLine
62
7
6
CONTINUOUS
10
141.3777171069
20
108.9817834787
11
144.7582703464
21
109.9383497438
0
LINE
5
20A
100
AcDbEntity
8
0
100
AcDbLine
62
7
6
CONTINUOUS
10
138.4800999801
20
109.8187790676
11
138.9630360927
21
109.9383497438
0
LINE
5
20B
100
AcDbEntity
8
0
100
AcDbLine
62
7
6
CONTINUOUS
10
138.9630360927
20
110.6557744854
11
138.4800999801
21
110.5362038092
0
LINE
5
20C
100
AcDbEntity
8
0
100
AcDbLine
62
7
6
CONTINUOUS
10
142.8265256703
20
112.5689070156
11
142.1826108535
21
112.4493366814
0
LINE
5
20D
100
AcDbEntity
8
0
100
AcDbLine
62
7
6
CONTINUOUS
10
142.1826108535
20
111.7319115978
11
142.9875043745
21
111.8514826161
0
LINE
5
20E
100
AcDbEntity
8
0
100
AcDbLine
62
7
6
CONTINUOUS
10
137.1922703464
20
106.2316553597
11
144.7582703464
21
106.2316553597
0
LINE
5
20F
100
AcDbEntity
8
0
100
AcDbLine
62
7
6
CONTINUOUS
10
144.7582703464
20
106.9490801012
11
141.3777171069
21
106.9490801012
0
LINE
5
210
100
AcDbEntity
8
0
100
AcDbLine
62
7
6
CONTINUOUS
10
140.4118448816
20
106.9490801012
11
137.9971638675
21
106.9490801012
0
LINE
5
211
100
AcDbEntity
8
0
100
AcDbLine
62
7
6
CONTINUOUS
10
138.9630360927
20
109.9383497438
11
139.4459726564
21
109.9383497438
0
LINE
5
212
100
AcDbEntity
8
0
100
AcDbLine
62
7
6
CONTINUOUS
10
139.6069513606
20
110.6557744854
11
138.9630360927
21
110.6557744854
0
LINE
5
213
100
AcDbEntity
8
0
100
AcDbLine
62
7
6
CONTINUOUS
10
137.1922703464
20
111.7319115978
11
142.1826108535
21
111.7319115978
0
LINE
5
214
100
AcDbEntity
8
0
100
AcDbLine
62
7
6
CONTINUOUS
10
142.1826108535
20
112.4493366814
11
137.1922703464
21
112.4493366814
0
LINE
5
215
100
AcDbEntity
8
0
100
AcDbLine
62
7
6
CONTINUOUS
10
115.8524529128
20
112.5122295873
11
113.2332703464
21
112.5122295873
0
LINE
5
216
100
AcDbEntity
8
0
100
AcDbLine
62
7
6
CONTINUOUS
10
100.5260877800
20
112.5122295873
11
103.1452703464
21
112.5122295873
0
LINE
5
217
100
AcDbEntity
8
0
100
AcDbLine
62
7
6
CONTINUOUS
10
139.1240152479
20
120.9388625621
11
139.7679300648
21
121.0584328963
0
LINE
5
218
100
AcDbEntity
8
0
100
AcDbLine
62
7
6
CONTINUOUS
10
139.7679300648
20
121.7758576378
11
138.9630360927
21
121.6562873037
0
LINE
5
219
100
AcDbEntity
8
0
100
AcDbLine
62
7
6
CONTINUOUS
10
137.1922703464
20
115.3190356478
11
142.1826108535
21
115.3190356478
0
LINE
5
21A
100
AcDbEntity
8
0
100
AcDbLine
62
7
6
CONTINUOUS
10
142.1826108535
20
116.0364603894
11
137.1922703464
21
116.0364603894
0
LINE
5
21B
100
AcDbEntity
8
0
100
AcDbLine
62
7
6
CONTINUOUS
10
137.1922703464
20
116.9930264834
11
144.7582703464
21
116.9930264834
0
LINE
5
21C
100
AcDbEntity
8
0
100
AcDbLine
62
7
6
CONTINUOUS
10
143.7923980084
20
117.7104512250
11
138.1581425717
21
117.7104512250
0
LINE
5
21D
100
AcDbEntity
8
0
100
AcDbLine
62
7
6
CONTINUOUS
10
88.7585123854
20
118.3250478381
11
74.1814434113
21
118.3250478381
0
LINE
5
21E
100
AcDbEntity
8
0
100
AcDbLine
62
7
6
CONTINUOUS
10
103.1452703464
20
119.9066134788
11
113.2332703464
21
119.9066134788
0
LINE
5
21F
100
AcDbEntity
8
0
100
AcDbLine
62
7
6
CONTINUOUS
10
139.7679300648
20
121.0584328963
11
142.1826108535
21
121.0584328963
0
LINE
5
220
100
AcDbEntity
8
0
100
AcDbLine
62
7
6
CONTINUOUS
10
142.9875043745
20
115.9168893710
11
142.1826108535
21
116.0364603894
0
LINE
5
221
100
AcDbEntity
8
0
100
AcDbLine
62
7
6
CONTINUOUS
10
139.4459726564
20
109.9383497438
11
139.9289087690
21
109.8187790676
0
LINE
5
222
100
AcDbEntity
8
0
100
AcDbLine
62
7
6
CONTINUOUS
10
140.0898874732
20
110.5362038092
11
139.6069513606
21
110.6557744854
0
LINE
5
223
100
AcDbEntity
8
0
100
AcDbLine
62
7
6
CONTINUOUS
10
74.1422703464
20
145.2313349207
11
74.1422703464
21
120.1026553597
0
LINE
5
224
100
AcDbEntity
8
0
100
AcDbLine
62
7
6
CONTINUOUS
10
143.7923980084
20
130.8632372418
11
137.1922703464
21
129.1892470903
0
LINE
5
225
100
AcDbEntity
8
0
100
AcDbLine
62
7
6
CONTINUOUS
10
137.1922703464
20
128.4718223488
11
144.7582703464
21
130.3849559052
0
LINE
5
226
100
AcDbEntity
8
0
100
AcDbLine
62
7
6
CONTINUOUS
10
142.1826108535
20
121.7758576378
11
139.7679300648
21
121.7758576378
0
LINE
5
227
100
AcDbEntity
8
0
100
AcDbLine
62
7
6
CONTINUOUS
10
103.1452703464
20
126.2907748899
11
113.2332703464
21
126.2907748899
0
LINE
5
228
100
AcDbEntity
8
0
100
AcDbLine
62
7
6
CONTINUOUS
10
142.9875043745
20
121.6562873037
11
142.1826108535
21
121.7758576378
0
LINE
5
229
100
AcDbEntity
8
0
100
AcDbLine
62
7
6
CONTINUOUS
10
142.1826108535
20
115.3190356478
11
142.8265256703
21
115.1994646295
0
LINE
5
22A
100
AcDbEntity
8
0
100
AcDbLine
62
7
6
CONTINUOUS
10
142.1826108535
20
121.0584328963
11
142.8265256703
21
120.9388625621
0
LINE
5
22B
100
AcDbEntity
8
0
100
AcDbLine
62
7
6
CONTINUOUS
10
99.8521634723
20
82.5008919663
11
97.9459024660
21
87.7383018560
0
LINE
5
22C
100
AcDbEntity
8
0
100
AcDbLine
62
7
6
CONTINUOUS
10
78.5557703464
20
239.8976553597
11
78.5557703464
21
219.4116392029
0
LINE
5
22D
100
AcDbEntity
8
0
100
AcDbLine
62
7
6
CONTINUOUS
10
76.7007505240
20
179.1555655735
11
74.5036082366
21
177.3119442905
0
LINE
5
22E
100
AcDbEntity
8
0
100
AcDbLine
62
7
6
CONTINUOUS
10
143.7923980084
20
136.6026351745
11
137.1922703464
21
134.9286450230
0
LINE
5
22F
100
AcDbEntity
8
0
100
AcDbLine
62
7
6
CONTINUOUS
10
137.1922703464
20
134.2112202814
11
144.7582703464
21
136.1243538379
0
LINE
5
230
100
AcDbEntity
8
0
100
AcDbLine
62
7
6
CONTINUOUS
10
143.6314193041
20
115.6777480186
11
142.9875043745
21
115.9168893710
0
LINE
5
231
100
AcDbEntity
8
0
100
AcDbLine
62
7
6
CONTINUOUS
10
140.7338022901
20
110.1774914384
11
140.0898874732
21
110.5362038092
0
LINE
5
232
100
AcDbEntity
8
0
100
AcDbLine
62
7
6
CONTINUOUS
10
100.6009868413
20
112.3681384435
11
100.5260877800
21
112.5122295873
0
LINE
5
233
100
AcDbEntity
8
0
100
AcDbLine
62
7
6
CONTINUOUS
10
137.1922703464
20
139.9506182141
11
144.7582703464
21
139.9506182141
0
LINE
5
234
100
AcDbEntity
8
0
100
AcDbLine
62
7
6
CONTINUOUS
10
137.1922703464
20
132.5372301300
11
143.7923980084
21
130.8632372418
0
LINE
5
235
100
AcDbEntity
8
0
100
AcDbLine
62
7
6
CONTINUOUS
10
143.6314193041
20
121.4171452671
11
142.9875043745
21
121.6562873037
0
LINE
5
236
100
AcDbEntity
8
0
100
AcDbLine
62
7
6
CONTINUOUS
10
142.8265256703
20
115.1994646295
11
143.3094617830
21
114.9603232770
0
LINE
5
237
100
AcDbEntity
8
0
100
AcDbLine
62
7
6
CONTINUOUS
10
142.8265256703
20
120.9388625621
11
143.3094617830
21
120.6997205255
0
LINE
5
238
100
AcDbEntity
8
0
100
AcDbLine
62
7
6
CONTINUOUS
10
139.9289087690
20
109.8187790676
11
140.2508661774
21
109.5796373730
0
LINE
5
239
100
AcDbEntity
8
0
100
AcDbLine
62
7
6
CONTINUOUS
10
86.1538300232
20
156.7012876942
11
72.6571934602
21
172.7859528061
0
LINE
5
23A
100
AcDbEntity
8
0
100
AcDbLine
62
7
6
CONTINUOUS
10
88.7585123854
20
118.3250478381
11
88.7585123854
21
150.6382918988
0
LINE
5
23B
100
AcDbEntity
8
0
100
AcDbLine
62
7
6
CONTINUOUS
10
91.1311597964
20
232.3316553597
11
91.1311597964
21
224.7656553597
0
LINE
5
23C
100
AcDbEntity
8
0
100
AcDbLine
62
7
6
CONTINUOUS
10
91.1311597964
20
241.6582968691
11
91.1311597964
21
249.9856553597
0
LINE
5
23D
100
AcDbEntity
8
0
100
AcDbLine
62
7
6
CONTINUOUS
10
144.7582703464
20
140.6680429557
11
141.2167384027
21
140.6680429557
0
LINE
5
23E
100
AcDbEntity
8
0
100
AcDbLine
62
7
6
CONTINUOUS
10
140.2508661774
20
140.6680429557
11
137.1922703464
21
140.6680429557
0
LINE
5
23F
100
AcDbEntity
8
0
100
AcDbLine
62
7
6
CONTINUOUS
10
137.1922703464
20
144.0160259953
11
140.2508661774
21
144.0160259953
0
LINE
5
240
100
AcDbEntity
8
0
100
AcDbLine
62
7
6
CONTINUOUS
10
141.2167384027
20
144.0160259953
11
144.7582703464
21
144.0160259953
0
LINE
5
241
100
AcDbEntity
8
0
100
AcDbLine
62
7
6
CONTINUOUS
10
144.7582703464
20
144.7334507369
11
137.1922703464
21
144.7334507369
0
LINE
5
242
100
AcDbEntity
8
0
100
AcDbLine
62
7
6
CONTINUOUS
10
144.7582703464
20
131.3415213151
11
137.1922703464
21
133.2546548716
0
LINE
5
243
100
AcDbEntity
8
0
100
AcDbLine
62
7
6
CONTINUOUS
10
144.7582703464
20
137.0809192478
11
137.1922703464
21
138.9940528042
0
LINE
5
244
100
AcDbEntity
8
0
100
AcDbLine
62
7
6
CONTINUOUS
10
137.1922703464
20
138.2766280627
11
143.7923980084
21
136.6026351745
0
LINE
5
245
100
AcDbEntity
8
0
100
AcDbLine
62
7
6
CONTINUOUS
10
144.2753341774
20
115.1994646295
11
143.6314193041
21
115.6777480186
0
LINE
5
246
100
AcDbEntity
8
0
100
AcDbLine
62
7
6
CONTINUOUS
10
142.9875043745
20
153.8208317092
11
143.4704405999
21
153.9404006750
0
LINE
5
247
100
AcDbEntity
8
0
100
AcDbLine
62
7
6
CONTINUOUS
10
142.3435895577
20
158.1253801587
11
141.6996745154
21
158.0058057195
0
LINE
5
248
100
AcDbEntity
8
0
100
AcDbLine
62
7
6
CONTINUOUS
10
138.3191212759
20
151.4294140794
11
139.6069513606
21
151.4294140794
0
LINE
5
249
100
AcDbEntity
8
0
100
AcDbLine
62
7
6
CONTINUOUS
10
138.4800999801
20
152.1468388210
11
144.7582703464
21
152.1468388210
0
LINE
5
24A
100
AcDbEntity
8
0
100
AcDbLine
62
7
6
CONTINUOUS
10
144.7582703464
20
152.8642635626
11
137.1922703464
21
152.8642635626
0
LINE
5
24B
100
AcDbEntity
8
0
100
AcDbLine
62
7
6
CONTINUOUS
10
144.2753341774
20
120.9388625621
11
143.6314193041
21
121.4171452671
0
LINE
5
24C
100
AcDbEntity
8
0
100
AcDbLine
62
7
6
CONTINUOUS
10
100.6232703464
20
127.6686553597
11
100.6232703464
21
154.9470577747
0
LINE
5
24D
100
AcDbEntity
8
0
100
AcDbLine
62
7
6
CONTINUOUS
10
101.1276703464
20
247.2114553597
11
101.1276703464
21
215.4342553597
0
LINE
5
24E
100
AcDbEntity
8
0
100
AcDbLine
62
7
6
CONTINUOUS
10
103.1452703464
20
126.2907748899
11
103.1452703464
21
112.5122295873
0
LINE
5
24F
100
AcDbEntity
8
0
100
AcDbLine
62
7
6
CONTINUOUS
10
103.1452703464
20
81.3794826720
11
103.1452703464
21
98.9397789815
0
LINE
5
250
100
AcDbEntity
8
0
100
AcDbLine
62
7
6
CONTINUOUS
10
143.7923980084
20
164.3430594279
11
137.1922703464
21
162.6690665397
0
LINE
5
251
100
AcDbEntity
8
0
100
AcDbLine
62
7
6
CONTINUOUS
10
137.1922703464
20
161.9516417982
11
144.7582703464
21
163.8647780914
0
LINE
5
252
100
AcDbEntity
8
0
100
AcDbLine
62
7
6
CONTINUOUS
10
138.9630360927
20
158.0058057195
11
138.3191212759
21
157.8862367537
0
LINE
5
253
100
AcDbEntity
8
0
100
AcDbLine
62
7
6
CONTINUOUS
10
140.5728235859
20
155.7339625289
11
141.2167384027
21
155.7339625289
0
LINE
5
254
100
AcDbEntity
8
0
100
AcDbLine
62
7
6
CONTINUOUS
10
138.9630360927
20
157.4079554171
11
139.2849939521
21
157.4079554171
0
LINE
5
255
100
AcDbEntity
8
0
100
AcDbLine
62
7
6
CONTINUOUS
10
142.3435895577
20
157.5275243829
11
142.9875043745
21
157.5275243829
0
LINE
5
256
100
AcDbEntity
8
0
100
AcDbLine
62
7
6
CONTINUOUS
10
139.2849939521
20
158.0058057195
11
138.9630360927
21
158.0058057195
0
LINE
5
257
100
AcDbEntity
8
0
100
AcDbLine
62
7
6
CONTINUOUS
10
142.9875043745
20
158.1253801587
11
142.3435895577
21
158.1253801587
0
LINE
5
258
100
AcDbEntity
8
0
100
AcDbLine
62
7
6
CONTINUOUS
10
138.3191212759
20
154.0599696407
11
138.9630360927
21
153.9404006750
0
LINE
5
259
100
AcDbEntity
8
0
100
AcDbLine
62
7
6
CONTINUOUS
10
143.3094617830
20
114.9603232770
11
143.6314193041
21
114.6016109062
0
LINE
5
25A
100
AcDbEntity
8
0
100
AcDbLine
62
7
6
CONTINUOUS
10
143.3094617830
20
120.6997205255
11
143.6314193041
21
120.3410081547
0
LINE
5
25B
100
AcDbEntity
8
0
100
AcDbLine
62
7
6
CONTINUOUS
10
97.0830548597
20
164.6737198845
11
85.5834365230
21
178.3784313507
0
LINE
5
25C
100
AcDbEntity
8
0
100
AcDbLine
62
7
6
CONTINUOUS
10
141.0557596985
20
109.6992083913
11
140.7338022901
21
110.1774914384
0
LINE
5
25D
100
AcDbEntity
8
DEFAULT_1
100
AcDbLine
62
2
6
CENTER
10
108.1892703464
20
76.7503841252
11
108.1892703464
21
253.6920925004
0
LINE
5
25E
100
AcDbEntity
8
0
100
AcDbLine
62
7
6
CONTINUOUS
10
97.5541319545
20
93.2757962105
11
100.5260877800
21
112.5122295873
0
LINE
5
25F
100
AcDbEntity
8
0
100
AcDbLine
62
7
6
CONTINUOUS
10
139.9289087690
20
157.8862367537
11
139.2849939521
21
158.0058057195
0
LINE
5
260
100
AcDbEntity
8
0
100
AcDbLine
62
7
6
CONTINUOUS
10
144.5972916281
20
114.7211812403
11
144.2753341774
21
115.1994646295
0
LINE
5
261
100
AcDbEntity
8
0
100
AcDbLine
62
7
6
CONTINUOUS
10
118.8244087383
20
93.2757962105
11
115.8524529128
21
112.5122295873
0
LINE
5
262
100
AcDbEntity
8
0
100
AcDbLine
62
7
6
CONTINUOUS
10
113.2332703464
20
126.2907748899
11
113.2332703464
21
112.5122295873
0
LINE
5
263
100
AcDbEntity
8
0
100
AcDbLine
62
7
6
CONTINUOUS
10
113.2332703464
20
79.7703632973
11
113.2332703464
21
98.9397789815
0
LINE
5
264
100
AcDbEntity
8
0
100
AcDbLine
62
7
6
CONTINUOUS
10
115.2508703464
20
215.4342553597
11
115.2508703464
21
247.2114553597
0
LINE
5
265
100
AcDbEntity
8
0
100
AcDbLine
62
7
6
CONTINUOUS
10
115.7552703464
20
127.6686553597
11
115.7552703464
21
160.6215577747
0
LINE
5
266
100
AcDbEntity
8
0
100
AcDbLine
62
7
6
CONTINUOUS
10
138.4800999801
20
173.6695810685
11
137.8361851632
21
173.3108686977
0
LINE
5
267
100
AcDbEntity
8
0
100
AcDbLine
62
7
6
CONTINUOUS
10
138.4800999801
20
172.9521563270
11
138.9630360927
21
173.0717252927
0
LINE
5
268
100
AcDbEntity
8
0
100
AcDbLine
62
7
6
CONTINUOUS
10
138.9630360927
20
173.7891500343
11
138.4800999801
21
173.6695810685
0
LINE
5
269
100
AcDbEntity
8
0
100
AcDbLine
62
7
6
CONTINUOUS
10
137.1922703464
20
167.6910397308
11
144.7582703464
21
167.6910397308
0
LINE
5
26A
100
AcDbEntity
8
0
100
AcDbLine
62
7
6
CONTINUOUS
10
144.7582703464
20
168.4084644724
11
137.1922703464
21
168.4084644724
0
LINE
5
26B
100
AcDbEntity
8
0
100
AcDbLine
62
7
6
CONTINUOUS
10
137.1922703464
20
169.3650326190
11
144.7582703464
21
169.3650326190
0
LINE
5
26C
100
AcDbEntity
8
0
100
AcDbLine
62
7
6
CONTINUOUS
10
144.7582703464
20
170.0824573606
11
141.3777171069
21
170.0824573606
0
LINE
5
26D
100
AcDbEntity
8
0
100
AcDbLine
62
7
6
CONTINUOUS
10
140.4118448816
20
170.0824573606
11
137.9971638675
21
170.0824573606
0
LINE
5
26E
100
AcDbEntity
8
0
100
AcDbLine
62
7
6
CONTINUOUS
10
143.4704405999
20
158.0058057195
11
142.9875043745
21
158.1253801587
0
LINE
5
26F
100
AcDbEntity
8
0
100
AcDbLine
62
7
6
CONTINUOUS
10
139.2849939521
20
157.4079554171
11
139.9289087690
21
157.1688120121
0
LINE
5
270
100
AcDbEntity
8
0
100
AcDbLine
62
7
6
CONTINUOUS
10
142.9875043745
20
157.5275243829
11
143.3094617830
21
157.4079554171
0
LINE
5
271
100
AcDbEntity
8
0
100
AcDbLine
62
7
6
CONTINUOUS
10
138.8020573885
20
160.6363667543
11
142.8265256703
21
159.0819428318
0
LINE
5
272
100
AcDbEntity
8
0
100
AcDbLine
62
7
6
CONTINUOUS
10
143.1484830788
20
159.4406552026
11
139.1240152479
21
160.9950791251
0
LINE
5
273
100
AcDbEntity
8
0
100
AcDbLine
62
7
6
CONTINUOUS
10
138.9630360927
20
154.5382564508
11
138.4800999801
21
154.7773943823
0
LINE
5
274
100
AcDbEntity
8
0
100
AcDbLine
62
7
6
CONTINUOUS
10
140.4118448816
20
157.6470933487
11
139.9289087690
21
157.8862367537
0
LINE
5
275
100
AcDbEntity
8
0
100
AcDbLine
62
7
6
CONTINUOUS
10
137.1922703464
20
152.1468388210
11
138.3191212759
21
151.4294140794
0
LINE
5
276
100
AcDbEntity
8
0
100
AcDbLine
62
7
6
CONTINUOUS
10
139.6069513606
20
151.4294140794
11
138.4800999801
21
152.1468388210
0
LINE
5
277
100
AcDbEntity
8
0
100
AcDbLine
62
7
6
CONTINUOUS
10
137.6752064590
20
154.5382564508
11
138.3191212759
21
154.0599696407
0
LINE
5
278
100
AcDbEntity
8
0
100
AcDbLine
62
7
6
CONTINUOUS
10
112.2150548597
20
170.3482198845
11
84.3086205123
21
203.6058132745
0
LINE
5
279
100
AcDbEntity
8
0
100
AcDbLine
62
7
6
CONTINUOUS
10
144.5972916281
20
120.4605798572
11
144.2753341774
21
120.9388625621
0
LINE
5
27A
100
AcDbEntity
8
0
100
AcDbLine
62
7
6
CONTINUOUS
10
140.2508661774
20
109.5796373730
11
140.4118448816
21
109.2209250022
0
LINE
5
27B
100
AcDbEntity
8
0
100
AcDbLine
62
7
6
CONTINUOUS
10
125.2473808964
20
249.9856553597
11
125.2473808964
21
241.6582968691
0
LINE
5
27C
100
AcDbEntity
8
0
100
AcDbLine
62
7
6
CONTINUOUS
10
125.2473808964
20
232.3316553597
11
125.2473808964
21
224.7656553597
0
LINE
5
27D
100
AcDbEntity
8
0
100
AcDbLine
62
7
6
CONTINUOUS
10
137.8361851632
20
173.3108686977
11
137.3532490506
21
172.8325873612
0
LINE
5
27E
100
AcDbEntity
8
0
100
AcDbLine
62
7
6
CONTINUOUS
10
138.1581425717
20
172.7130129219
11
138.4800999801
21
172.9521563270
0
LINE
5
27F
100
AcDbEntity
8
0
100
AcDbLine
62
7
6
CONTINUOUS
10
70.8492392623
20
172.7859528061
11
72.6571934602
21
172.7859528061
0
LINE
5
280
100
AcDbEntity
8
0
100
AcDbLine
62
7
6
CONTINUOUS
10
138.9630360927
20
173.0717252927
11
139.4459726564
21
173.0717252927
0
LINE
5
281
100
AcDbEntity
8
0
100
AcDbLine
62
7
6
CONTINUOUS
10
139.6069513606
20
173.7891500343
11
138.9630360927
21
173.7891500343
0
LINE
5
282
100
AcDbEntity
8
0
100
AcDbLine
62
7
6
CONTINUOUS
10
144.7582703464
20
164.8213407645
11
137.1922703464
21
166.7344770577
0
LINE
5
283
100
AcDbEntity
8
0
100
AcDbLine
62
7
6
CONTINUOUS
10
137.1922703464
20
166.0170523161
11
143.7923980084
21
164.3430594279
0
LINE
5
284
100
AcDbEntity
8
0
100
AcDbLine
62
7
6
CONTINUOUS
10
143.9533767126
20
157.7666677879
11
143.4704405999
21
158.0058057195
0
LINE
5
285
100
AcDbEntity
8
0
100
AcDbLine
62
7
6
CONTINUOUS
10
139.9289087690
20
157.1688120121
11
140.2508661774
21
156.9296686071
0
LINE
5
286
100
AcDbEntity
8
0
100
AcDbLine
62
7
6
CONTINUOUS
10
143.3094617830
20
157.4079554171
11
143.6314193041
21
157.1688120121
0
LINE
5
287
100
AcDbEntity
8
0
100
AcDbLine
62
7
6
CONTINUOUS
10
138.4800999801
20
154.7773943823
11
138.1581425717
21
155.1361067531
0
LINE
5
288
100
AcDbEntity
8
0
100
AcDbLine
62
7
6
CONTINUOUS
10
131.0182466211
20
83.5411551898
11
131.0182466211
21
160.6215577747
0
LINE
5
289
100
AcDbEntity
8
0
100
AcDbLine
62
7
6
CONTINUOUS
10
138.4800999801
20
157.1688120121
11
138.9630360927
21
157.4079554171
0
LINE
5
28A
100
AcDbEntity
8
0
100
AcDbLine
62
7
6
CONTINUOUS
10
141.6996745154
20
158.0058057195
11
141.2167384027
21
157.7666677879
0
LINE
5
28B
100
AcDbEntity
8
0
100
AcDbLine
62
7
6
CONTINUOUS
10
141.6996745154
20
157.2883809779
11
142.3435895577
21
157.5275243829
0
LINE
5
28C
100
AcDbEntity
8
0
100
AcDbLine
62
7
6
CONTINUOUS
10
139.4459726564
20
173.0717252927
11
139.9289087690
21
172.9521563270
0
LINE
5
28D
100
AcDbEntity
8
0
100
AcDbLine
62
7
6
CONTINUOUS
10
140.0898874732
20
173.6695810685
11
139.6069513606
21
173.7891500343
0
LINE
5
28E
100
AcDbEntity
8
0
100
AcDbLine
62
7
6
CONTINUOUS
10
140.8947809943
20
157.1688120121
11
140.4118448816
21
157.6470933487
0
LINE
5
28F
100
AcDbEntity
8
0
100
AcDbLine
62
7
6
CONTINUOUS
10
144.2753341774
20
157.4079554171
11
143.9533767126
21
157.7666677879
0
LINE
5
290
100
AcDbEntity
8
0
100
AcDbLine
62
7
6
CONTINUOUS
10
123.9071730203
20
180.1590719208
11
78.5557703464
21
234.2067689867
0
LINE
5
291
100
AcDbEntity
8
0
100
AcDbLine
62
7
6
CONTINUOUS
10
137.3532490506
20
155.0165377874
11
137.6752064590
21
154.5382564508
0
LINE
5
292
100
AcDbEntity
8
0
100
AcDbLine
62
7
6
CONTINUOUS
10
143.6314193041
20
114.6016109062
11
143.7923980084
21
114.1233275171
0
LINE
5
293
100
AcDbEntity
8
0
100
AcDbLine
62
7
6
CONTINUOUS
10
143.6314193041
20
120.3410081547
11
143.7923980084
21
119.8627254497
0
LINE
5
294
100
AcDbEntity
8
0
100
AcDbLine
62
7
6
CONTINUOUS
10
144.7582703464
20
114.1233275171
11
144.5972916281
21
114.7211812403
0
LINE
5
295
100
AcDbEntity
8
0
100
AcDbLine
62
7
6
CONTINUOUS
10
137.1922703464
20
172.2347315854
11
137.1922703464
21
169.3650326190
0
LINE
5
296
100
AcDbEntity
8
0
100
AcDbLine
62
7
6
CONTINUOUS
10
137.1922703464
20
168.4084644724
11
137.1922703464
21
167.6910397308
0
LINE
5
297
100
AcDbEntity
8
0
100
AcDbLine
62
7
6
CONTINUOUS
10
137.1922703464
20
166.7344770577
11
137.1922703464
21
166.0170523161
0
LINE
5
298
100
AcDbEntity
8
0
100
AcDbLine
62
7
6
CONTINUOUS
10
137.1922703464
20
162.6690665397
11
137.1922703464
21
161.9516417982
0
LINE
5
299
100
AcDbEntity
8
0
100
AcDbLine
62
7
6
CONTINUOUS
10
137.1922703464
20
156.0926748997
11
137.1922703464
21
155.8535314947
0
LINE
5
29A
100
AcDbEntity
8
0
100
AcDbLine
62
7
6
CONTINUOUS
10
137.1922703464
20
152.8642635626
11
137.1922703464
21
152.1468388210
0
LINE
5
29B
100
AcDbEntity
8
0
100
AcDbLine
62
7
6
CONTINUOUS
10
137.1922703464
20
144.7334507369
11
137.1922703464
21
144.0160259953
0
LINE
5
29C
100
AcDbEntity
8
0
100
AcDbLine
62
7
6
CONTINUOUS
10
137.1922703464
20
140.6680429557
11
137.1922703464
21
139.9506182141
0
LINE
5
29D
100
AcDbEntity
8
0
100
AcDbLine
62
7
6
CONTINUOUS
10
137.1922703464
20
138.9940528042
11
137.1922703464
21
138.2766280627
0
LINE
5
29E
100
AcDbEntity
8
0
100
AcDbLine
62
7
6
CONTINUOUS
10
137.1922703464
20
134.9286450230
11
137.1922703464
21
134.2112202814
0
LINE
5
29F
100
AcDbEntity
8
0
100
AcDbLine
62
7
6
CONTINUOUS
10
137.1922703464
20
133.2546548716
11
137.1922703464
21
132.5372301300
0
LINE
5
2A0
100
AcDbEntity
8
0
100
AcDbLine
62
7
6
CONTINUOUS
10
137.1922703464
20
129.1892470903
11
137.1922703464
21
128.4718223488
0
LINE
5
2A1
100
AcDbEntity
8
0
100
AcDbLine
62
7
6
CONTINUOUS
10
137.1922703464
20
119.8627254497
11
137.1922703464
21
116.9930264834
0
LINE
5
2A2
100
AcDbEntity
8
0
100
AcDbLine
62
7
6
CONTINUOUS
10
137.1922703464
20
116.0364603894
11
137.1922703464
21
115.3190356478
0
LINE
5
2A3
100
AcDbEntity
8
0
100
AcDbLine
62
7
6
CONTINUOUS
10
137.1922703464
20
112.4493366814
11
137.1922703464
21
111.7319115978
0
LINE
5
2A4
100
AcDbEntity
8
0
100
AcDbLine
62
7
6
CONTINUOUS
10
137.1922703464
20
109.1013543260
11
137.1922703464
21
106.2316553597
0
LINE
5
2A5
100
AcDbEntity
8
0
100
AcDbLine
62
7
6
CONTINUOUS
10
137.8227703464
20
203.3286553597
11
137.8227703464
21
239.8976553597
0
LINE
5
2A6
100
AcDbEntity
8
0
100
AcDbLine
62
7
6
CONTINUOUS
10
137.9971638675
20
106.9490801012
11
137.9971638675
21
109.2209250022
0
LINE
5
2A7
100
AcDbEntity
8
0
100
AcDbLine
62
7
6
CONTINUOUS
10
137.9971638675
20
155.7339625289
11
137.9971638675
21
156.2122438655
0
LINE
5
2A8
100
AcDbEntity
8
0
100
AcDbLine
62
7
6
CONTINUOUS
10
137.9971638675
20
170.0824573606
11
137.9971638675
21
172.3543005511
0
LINE
5
2A9
100
AcDbEntity
8
0
100
AcDbLine
62
7
6
CONTINUOUS
10
138.1581425717
20
117.7104512250
11
138.1581425717
21
119.8627254497
0
LINE
5
2AA
100
AcDbEntity
8
0
100
AcDbLine
62
7
6
CONTINUOUS
10
137.3532490506
20
172.8325873612
11
137.1922703464
21
172.2347315854
0
LINE
5
2AB
100
AcDbEntity
8
0
100
AcDbLine
62
7
6
CONTINUOUS
10
137.9971638675
20
172.3543005511
11
138.1581425717
21
172.7130129219
0
LINE
5
2AC
100
AcDbEntity
8
0
100
AcDbLine
62
7
6
CONTINUOUS
10
137.6752064590
20
157.4079554171
11
137.3532490506
21
156.9296686071
0
LINE
5
2AD
100
AcDbEntity
8
0
100
AcDbLine
62
7
6
CONTINUOUS
10
139.1240152479
20
160.9950791251
11
138.8020573885
21
160.6363667543
0
LINE
5
2AE
100
AcDbEntity
8
0
100
AcDbLine
62
7
6
CONTINUOUS
10
138.1581425717
20
156.8100996413
11
138.4800999801
21
157.1688120121
0
LINE
5
2AF
100
AcDbEntity
8
0
100
AcDbLine
62
7
6
CONTINUOUS
10
138.3191212759
20
157.8862367537
11
137.6752064590
21
157.4079554171
0
LINE
5
2B0
100
AcDbEntity
8
0
100
AcDbLine
62
7
6
CONTINUOUS
10
143.4704405999
20
153.9404006750
11
143.9533767126
21
154.1795440800
0
LINE
5
2B1
100
AcDbEntity
8
0
100
AcDbLine
62
7
6
CONTINUOUS
10
143.3094617830
20
154.5382564508
11
142.9875043745
21
154.4186820115
0
LINE
5
2B2
100
AcDbEntity
8
0
100
AcDbLine
62
7
6
CONTINUOUS
10
140.7338022901
20
173.3108686977
11
140.0898874732
21
173.6695810685
0
LINE
5
2B3
100
AcDbEntity
8
0
100
AcDbLine
62
7
6
CONTINUOUS
10
139.9289087690
20
172.9521563270
11
140.2508661774
21
172.7130129219
0
LINE
5
2B4
100
AcDbEntity
8
0
100
AcDbLine
62
7
6
CONTINUOUS
10
141.2167384027
20
172.8325873612
11
140.7338022901
21
173.3108686977
0
LINE
5
2B5
100
AcDbEntity
8
0
100
AcDbLine
62
7
6
CONTINUOUS
10
143.6314193041
20
157.1688120121
11
143.7923980084
21
156.9296686071
0
LINE
5
2B6
100
AcDbEntity
8
0
100
AcDbLine
62
7
6
CONTINUOUS
10
144.5972916281
20
156.9296686071
11
144.2753341774
21
157.4079554171
0
LINE
5
2B7
100
AcDbEntity
8
0
100
AcDbLine
62
7
6
CONTINUOUS
10
140.2508661774
20
156.9296686071
11
140.5728235859
21
156.2122438655
0
LINE
5
2B8
100
AcDbEntity
8
0
100
AcDbLine
62
7
6
CONTINUOUS
10
144.7582703464
20
119.8627254497
11
144.5972916281
21
120.4605798572
0
LINE
5
2B9
100
AcDbEntity
8
0
100
AcDbLine
62
7
6
CONTINUOUS
10
138.1581425717
20
155.1361067531
11
137.9971638675
21
155.7339625289
0
LINE
5
2BA
100
AcDbEntity
8
0
100
AcDbLine
62
7
6
CONTINUOUS
10
137.1922703464
20
155.8535314947
11
137.3532490506
21
155.0165377874
0
LINE
5
2BB
100
AcDbEntity
8
0
100
AcDbLine
62
7
6
CONTINUOUS
10
138.9630360927
20
153.9404006750
11
138.9630360927
21
154.5382564508
0
LINE
5
2BC
100
AcDbEntity
8
0
100
AcDbLine
62
7
6
CONTINUOUS
10
140.2508661774
20
144.0160259953
11
140.2508661774
21
140.6680429557
0
LINE
5
2BD
100
AcDbEntity
8
0
100
AcDbLine
62
7
6
CONTINUOUS
10
140.4118448816
20
172.3543005511
11
140.4118448816
21
170.0824573606
0
LINE
5
2BE
100
AcDbEntity
8
0
100
AcDbLine
62
7
6
CONTINUOUS
10
140.4118448816
20
109.2209250022
11
140.4118448816
21
106.9490801012
0
LINE
5
2BF
100
AcDbEntity
8
0
100
AcDbLine
62
7
6
CONTINUOUS
10
140.5728235859
20
156.2122438655
11
140.5728235859
21
155.7339625289
0
LINE
5
2C0
100
AcDbEntity
8
0
100
AcDbLine
62
7
6
CONTINUOUS
10
141.2167384027
20
140.6680429557
11
141.2167384027
21
144.0160259953
0
LINE
5
2C1
100
AcDbEntity
8
0
100
AcDbLine
62
7
6
CONTINUOUS
10
141.2167384027
20
155.7339625289
11
141.2167384027
21
156.2122438655
0
LINE
5
2C2
100
AcDbEntity
8
0
100
AcDbLine
62
7
6
CONTINUOUS
10
141.3777171069
20
106.9490801012
11
141.3777171069
21
108.9817834787
0
LINE
5
2C3
100
AcDbEntity
8
0
100
AcDbLine
62
7
6
CONTINUOUS
10
141.3777171069
20
170.0824573606
11
141.3777171069
21
172.2347315854
0
LINE
5
2C4
100
AcDbEntity
8
0
100
AcDbLine
62
7
6
CONTINUOUS
10
142.9875043745
20
154.4186820115
11
142.9875043745
21
153.8208317092
0
LINE
5
2C5
100
AcDbEntity
8
0
100
AcDbLine
62
7
6
CONTINUOUS
10
143.7923980084
20
119.8627254497
11
143.7923980084
21
117.7104512250
0
LINE
5
2C6
100
AcDbEntity
8
0
100
AcDbLine
62
7
6
CONTINUOUS
10
143.7923980084
20
114.1233275171
11
143.7923980084
21
113.6450441280
0
LINE
5
2C7
100
AcDbEntity
8
0
100
AcDbLine
62
7
6
CONTINUOUS
10
143.9533767126
20
156.3318183048
11
143.9533767126
21
155.6143935632
0
LINE
5
2C8
100
AcDbEntity
8
0
100
AcDbLine
62
7
6
CONTINUOUS
10
137.3532490506
20
156.9296686071
11
137.1922703464
21
156.0926748997
0
LINE
5
2C9
100
AcDbEntity
8
0
100
AcDbLine
62
7
6
CONTINUOUS
10
141.2167384027
20
156.2122438655
11
141.3777171069
21
156.9296686071
0
LINE
5
2CA
100
AcDbEntity
8
0
100
AcDbLine
62
7
6
CONTINUOUS
10
137.9971638675
20
156.2122438655
11
138.1581425717
21
156.8100996413
0
LINE
5
2CB
100
AcDbEntity
8
0
100
AcDbLine
62
7
6
CONTINUOUS
10
115.5302137282
20
79.7639552652
11
118.4326382268
21
87.7383018560
0
LINE
5
2CC
100
AcDbEntity
8
0
100
AcDbLine
62
7
6
CONTINUOUS
10
115.7775538515
20
112.3681384435
11
115.8524529128
21
112.5122295873
0
LINE
5
2CD
100
AcDbEntity
8
0
100
AcDbLine
62
7
6
CONTINUOUS
10
141.2167384027
20
157.7666677879
11
140.8947809943
21
157.1688120121
0
LINE
5
2CE
100
AcDbEntity
8
0
100
AcDbLine
62
7
6
CONTINUOUS
10
143.7923980084
20
155.0165377874
11
143.6314193041
21
154.7773943823
0
LINE
5
2CF
100
AcDbEntity
8
0
100
AcDbLine
62
7
6
CONTINUOUS
10
144.2753341774
20
154.5382564508
11
144.5972916281
21
155.0165377874
0
LINE
5
2D0
100
AcDbEntity
8
0
100
AcDbLine
62
7
6
CONTINUOUS
10
142.8265256703
20
159.0819428318
11
143.1484830788
21
159.4406552026
0
LINE
5
2D1
100
AcDbEntity
8
0
100
AcDbLine
62
7
6
CONTINUOUS
10
141.3777171069
20
156.9296686071
11
141.6996745154
21
157.2883809779
0
LINE
5
2D2
100
AcDbEntity
8
0
100
AcDbLine
62
7
6
CONTINUOUS
10
143.9533767126
20
154.1795440800
11
144.2753341774
21
154.5382564508
0
LINE
5
2D3
100
AcDbEntity
8
0
100
AcDbLine
62
7
6
CONTINUOUS
10
143.6314193041
20
154.7773943823
11
143.3094617830
21
154.5382564508
0
LINE
5
2D4
100
AcDbEntity
8
0
100
AcDbLine
62
7
6
CONTINUOUS
10
140.2508661774
20
172.7130129219
11
140.4118448816
21
172.3543005511
0
LINE
5
2D5
100
AcDbEntity
8
0
100
AcDbLine
62
7
6
CONTINUOUS
10
144.7582703464
20
156.4513872705
11
144.5972916281
21
156.9296686071
0
LINE
5
2D6
100
AcDbEntity
8
0
100
AcDbLine
62
7
6
CONTINUOUS
10
143.7923980084
20
156.9296686071
11
143.9533767126
21
156.3318183048
0
LINE
5
2D7
100
AcDbEntity
8
0
100
AcDbLine
62
7
6
CONTINUOUS
10
141.3777171069
20
172.2347315854
11
141.2167384027
21
172.8325873612
0
LINE
5
2D8
100
AcDbEntity
8
0
100
AcDbLine
62
7
6
CONTINUOUS
10
144.7582703464
20
106.2316553597
11
144.7582703464
21
106.9490801012
0
LINE
5
2D9
100
AcDbEntity
8
0
100
AcDbLine
62
7
6
CONTINUOUS
10
144.7582703464
20
109.9383497438
11
144.7582703464
21
110.7753455037
0
LINE
5
2DA
100
AcDbEntity
8
0
100
AcDbLine
62
7
6
CONTINUOUS
10
144.7582703464
20
113.6450441280
11
144.7582703464
21
114.1233275171
0
LINE
5
2DB
100
AcDbEntity
8
0
100
AcDbLine
62
7
6
CONTINUOUS
10
144.7582703464
20
116.9930264834
11
144.7582703464
21
119.8627254497
0
LINE
5
2DC
100
AcDbEntity
8
0
100
AcDbLine
62
7
6
CONTINUOUS
10
144.7582703464
20
130.3849559052
11
144.7582703464
21
131.3415213151
0
LINE
5
2DD
100
AcDbEntity
8
0
100
AcDbLine
62
7
6
CONTINUOUS
10
144.7582703464
20
136.1243538379
11
144.7582703464
21
137.0809192478
0
LINE
5
2DE
100
AcDbEntity
8
0
100
AcDbLine
62
7
6
CONTINUOUS
10
144.7582703464
20
139.9506182141
11
144.7582703464
21
140.6680429557
0
LINE
5
2DF
100
AcDbEntity
8
0
100
AcDbLine
62
7
6
CONTINUOUS
10
144.7582703464
20
144.0160259953
11
144.7582703464
21
144.7334507369
0
LINE
5
2E0
100
AcDbEntity
8
0
100
AcDbLine
62
7
6
CONTINUOUS
10
144.7582703464
20
152.1468388210
11
144.7582703464
21
152.8642635626
0
LINE
5
2E1
100
AcDbEntity
8
0
100
AcDbLine
62
7
6
CONTINUOUS
10
144.7582703464
20
155.4948191239
11
144.7582703464
21
156.4513872705
0
LINE
5
2E2
100
AcDbEntity
8
0
100
AcDbLine
62
7
6
CONTINUOUS
10
144.7582703464
20
163.8647780914
11
144.7582703464
21
164.8213407645
0
LINE
5
2E3
100
AcDbEntity
8
0
100
AcDbLine
62
7
6
CONTINUOUS
10
144.7582703464
20
167.6910397308
11
144.7582703464
21
168.4084644724
0
LINE
5
2E4
100
AcDbEntity
8
0
100
AcDbLine
62
7
6
CONTINUOUS
10
144.7582703464
20
169.3650326190
11
144.7582703464
21
170.0824573606
0
LINE
5
2E5
100
AcDbEntity
8
0
100
AcDbLine
62
7
6
CONTINUOUS
10
143.9533767126
20
155.6143935632
11
143.7923980084
21
155.0165377874
0
LINE
5
2E6
100
AcDbEntity
8
0
100
AcDbLine
62
7
6
CONTINUOUS
10
137.3532490506
20
120.4605798572
11
137.1922703464
21
119.8627254497
0
LINE
5
2E7
100
AcDbEntity
8
0
100
AcDbLine
62
7
6
CONTINUOUS
10
137.3532490506
20
109.6992083913
11
137.1922703464
21
109.1013543260
0
LINE
5
2E8
100
AcDbEntity
8
0
100
AcDbLine
62
7
6
CONTINUOUS
10
144.5972916281
20
155.0165377874
11
144.7582703464
21
155.4948191239
0
LINE
5
2E9
100
AcDbEntity
8
0
100
AcDbLine
62
7
6
CONTINUOUS
10
154.8462703464
20
120.1026553597
11
154.8462703464
21
162.2783115152
0
LINE
5
2EA
100
AcDbEntity
8
0
100
AcDbLine
62
7
6
CONTINUOUS
10
144.5972916281
20
113.0471904047
11
144.7582703464
21
113.6450441280
0
LINE
5
2EB
100
AcDbEntity
8
0
100
AcDbLine
62
7
6
CONTINUOUS
10
138.1581425717
20
119.8627254497
11
138.3191212759
21
120.3410081547
0
LINE
5
2EC
100
AcDbEntity
8
0
100
AcDbLine
62
7
6
CONTINUOUS
10
143.7923980084
20
113.6450441280
11
143.6314193041
21
113.1667614230
0
LINE
5
2ED
100
AcDbEntity
8
0
100
AcDbLine
62
7
6
CONTINUOUS
10
137.9971638675
20
109.2209250022
11
138.1581425717
21
109.5796373730
0
LINE
5
2EE
100
AcDbEntity
8
0
100
AcDbLine
62
7
6
CONTINUOUS
10
137.6752064590
20
120.9388625621
11
137.3532490506
21
120.4605798572
0
LINE
5
2EF
100
AcDbEntity
8
0
100
AcDbLine
62
7
6
CONTINUOUS
10
138.3191212759
20
120.3410081547
11
138.6410786843
21
120.6997205255
0
LINE
5
2F0
100
AcDbEntity
8
0
100
AcDbLine
62
7
6
CONTINUOUS
10
138.3191212759
20
121.4171452671
11
137.6752064590
21
120.9388625621
0
LINE
5
2F1
100
AcDbEntity
8
0
100
AcDbLine
62
7
6
CONTINUOUS
10
138.6410786843
20
120.6997205255
11
139.1240152479
21
120.9388625621
0
LINE
5
2F2
100
AcDbEntity
8
0
100
AcDbLine
62
7
6
CONTINUOUS
10
138.9630360927
20
121.6562873037
11
138.3191212759
21
121.4171452671
0
LINE
5
2F3
100
AcDbEntity
8
0
100
AcDbLine
62
7
6
CONTINUOUS
10
144.2753341774
20
112.5689070156
11
144.5972916281
21
113.0471904047
0
LINE
5
2F4
100
AcDbEntity
8
0
100
AcDbLine
62
7
6
CONTINUOUS
10
137.8361851632
20
110.1774914384
11
137.3532490506
21
109.6992083913
0
LINE
5
2F5
100
AcDbEntity
8
0
100
AcDbLine
62
7
6
CONTINUOUS
10
143.6314193041
20
113.1667614230
11
143.3094617830
21
112.8080490522
0
LINE
5
2F6
100
AcDbEntity
8
0
100
AcDbLine
62
7
6
CONTINUOUS
10
138.1581425717
20
109.5796373730
11
138.4800999801
21
109.8187790676
0
LINE
5
2F7
100
AcDbEntity
8
0
100
AcDbLine
62
7
6
CONTINUOUS
10
143.6314193041
20
112.0906243107
11
144.2753341774
21
112.5689070156
0
LINE
5
2F8
100
AcDbEntity
8
0
100
AcDbLine
62
7
6
CONTINUOUS
10
138.4800999801
20
110.5362038092
11
137.8361851632
21
110.1774914384
0
LINE
5
2F9
100
AcDbEntity
8
0
100
AcDbLine
62
7
6
CONTINUOUS
10
143.3094617830
20
112.8080490522
11
142.8265256703
21
112.5689070156
0
LINE
5
2FA
100
AcDbEntity
8
0
100
AcDbLine
62
7
6
CONTINUOUS
10
142.9875043745
20
111.8514826161
11
143.6314193041
21
112.0906243107
0
LINE
5
2FB
100
AcDbEntity
8
0
100
AcDbLine
62
7
6
CONTINUOUS
10
144.7582703464
20
110.7753455037
11
141.0557596985
21
109.6992083913
0
LINE
5
2FC
100
AcDbEntity
8
0
100
AcDbLine
62
7
6
CONTINUOUS
10
101.1276703464
20
224.7656553597
11
115.2508703464
21
224.7656553597
0
LINE
5
2FD
100
AcDbEntity
8
DEFAULT_1
100
AcDbLine
62
2
6
CENTER
10
90.6527872463
20
232.3316553597
11
131.1010215664
21
232.3316553597
0
LINE
5
2FE
100
AcDbEntity
8
0
100
AcDbLine
62
7
6
CONTINUOUS
10
137.8227703464
20
239.8976553597
11
129.3577464490
21
249.9858780007
0
LINE
5
2FF
100
AcDbEntity
8
0
100
AcDbLine
62
7
6
CONTINUOUS
10
78.5557703464
20
237.3756553597
11
89.4831597307
21
237.3756553597
0
LINE
5
300
100
AcDbEntity
8
0
100
AcDbLine
62
7
6
CONTINUOUS
10
126.8953809621
20
237.3756553597
11
137.8227703464
21
237.3756553597
0
LINE
5
301
100
AcDbEntity
8
0
100
AcDbLine
62
7
6
CONTINUOUS
10
101.1276703464
20
239.8976553597
11
115.2508703464
21
239.8976553597
0
LINE
5
302
100
AcDbEntity
8
0
100
AcDbLine
62
7
6
CONTINUOUS
10
86.9929420336
20
249.9856553597
11
91.1311597964
21
249.9856553597
0
LINE
5
303
100
AcDbEntity
8
0
100
AcDbLine
62
7
6
CONTINUOUS
10
125.2473808964
20
249.9856553597
11
129.3855986592
21
249.9856553597
0
LINE
5
304
100
AcDbEntity
8
0
100
AcDbLine
62
7
6
CONTINUOUS
10
302.9431299929
20
79.7506553597
11
287.8111299929
21
79.7506553597
0
LINE
5
305
100
AcDbEntity
8
0
100
AcDbLine
62
7
6
CONTINUOUS
10
273.5259833886
20
87.7383017941
11
281.5003299175
21
79.7639552652
0
LINE
5
306
100
AcDbEntity
8
0
100
AcDbLine
62
7
6
CONTINUOUS
10
313.0311299929
20
106.2316553597
11
313.6616299929
21
106.2316553597
0
LINE
5
307
100
AcDbEntity
8
0
100
AcDbLine
62
7
6
CONTINUOUS
10
277.7231299929
20
237.3756553597
11
280.3878847099
21
241.6582968691
0
LINE
5
308
100
AcDbEntity
8
0
100
AcDbLine
62
7
6
CONTINUOUS
10
313.0311299929
20
110.7753455037
11
313.6616299929
21
110.7753455037
0
LINE
5
309
100
AcDbEntity
8
0
100
AcDbLine
62
7
6
CONTINUOUS
10
313.0311299929
20
111.7319115978
11
313.6616299929
21
111.7319115978
0
LINE
5
30A
100
AcDbEntity
8
0
100
AcDbLine
62
7
6
CONTINUOUS
10
270.0547104185
20
119.9066134788
11
280.6149850342
21
112.5122295873
0
LINE
5
30B
100
AcDbEntity
8
DEFAULT_2
100
AcDbLine
62
8
6
HIDDEN
10
284.3721923621
20
121.3636553597
11
306.3820676237
21
121.3636553597
0
LINE
5
30C
100
AcDbEntity
8
0
100
AcDbLine
62
7
6
CONTINUOUS
10
283.0823799929
20
121.9111482280
11
272.7646261601
21
126.2907748899
0
LINE
5
30D
100
AcDbEntity
8
0
100
AcDbLine
62
7
6
CONTINUOUS
10
313.0311299929
20
128.4718223488
11
313.6616299929
21
128.4718223488
0
LINE
5
30E
100
AcDbEntity
8
0
100
AcDbLine
62
7
6
CONTINUOUS
10
313.0311299929
20
133.2546548716
11
313.6616299929
21
133.2546548716
0
LINE
5
30F
100
AcDbEntity
8
0
100
AcDbLine
62
7
6
CONTINUOUS
10
313.0311299929
20
134.2112202814
11
313.6616299929
21
134.2112202814
0
LINE
5
310
100
AcDbEntity
8
0
100
AcDbLine
62
7
6
CONTINUOUS
10
313.0311299929
20
138.9940528042
11
313.6616299929
21
138.9940528042
0
LINE
5
311
100
AcDbEntity
8
0
100
AcDbLine
62
7
6
CONTINUOUS
10
313.0311299929
20
139.9506182141
11
313.6616299929
21
139.9506182141
0
LINE
5
312
100
AcDbEntity
8
0
100
AcDbLine
62
7
6
CONTINUOUS
10
277.7231299929
20
105.6994460466
11
277.7231299929
21
114.5371282866
0
LINE
5
313
100
AcDbEntity
8
0
100
AcDbLine
62
7
6
CONTINUOUS
10
277.7231299929
20
124.1860148868
11
277.7231299929
21
237.3756553597
0
LINE
5
314
100
AcDbEntity
8
0
100
AcDbLine
62
7
6
CONTINUOUS
10
313.0311299929
20
144.7334507369
11
313.6616299929
21
144.7334507369
0
LINE
5
315
100
AcDbEntity
8
0
100
AcDbLine
62
7
6
CONTINUOUS
10
280.8756299929
20
172.7859528061
11
280.8756299929
21
156.7012876942
0
LINE
5
316
100
AcDbEntity
8
0
100
AcDbLine
62
7
6
CONTINUOUS
10
283.0823799929
20
118.3250478381
11
283.0823799929
21
150.6382918988
0
LINE
5
317
100
AcDbEntity
8
0
100
AcDbLine
62
7
6
CONTINUOUS
10
290.2244868864
20
180.6305751774
11
280.8756299929
21
172.7859528061
0
LINE
5
318
100
AcDbEntity
8
0
100
AcDbLine
62
7
6
CONTINUOUS
10
313.0311299929
20
151.4294140794
11
313.6616299929
21
151.4294140794
0
LINE
5
319
100
AcDbEntity
8
0
100
AcDbLine
62
7
6
CONTINUOUS
10
313.0311299929
20
152.8642635626
11
313.6616299929
21
152.8642635626
0
LINE
5
31A
100
AcDbEntity
8
0
100
AcDbLine
62
7
6
CONTINUOUS
10
283.0823799929
20
150.6382918988
11
280.8756299929
21
156.7012876942
0
LINE
5
31B
100
AcDbEntity
8
0
100
AcDbLine
62
7
6
CONTINUOUS
10
272.7646261601
20
126.2907748899
11
270.0547104185
21
119.9066134788
0
LINE
5
31C
100
AcDbEntity
8
0
100
AcDbLine
62
7
6
CONTINUOUS
10
313.0311299929
20
153.8208317092
11
313.6616299929
21
153.8208317092
0
LINE
5
31D
100
AcDbEntity
8
0
100
AcDbLine
62
7
6
CONTINUOUS
10
313.0311299929
20
153.9404006750
11
313.6616299929
21
153.9404006750
0
LINE
5
31E
100
AcDbEntity
8
0
100
AcDbLine
62
7
6
CONTINUOUS
10
313.0311299929
20
154.0599696407
11
313.6616299929
21
154.0599696407
0
LINE
5
31F
100
AcDbEntity
8
0
100
AcDbLine
62
7
6
CONTINUOUS
10
313.0311299929
20
154.5382564508
11
313.6616299929
21
154.5382564508
0
LINE
5
320
100
AcDbEntity
8
0
100
AcDbLine
62
7
6
CONTINUOUS
10
313.0311299929
20
155.0165377874
11
313.6616299929
21
155.0165377874
0
LINE
5
321
100
AcDbEntity
8
0
100
AcDbLine
62
7
6
CONTINUOUS
10
313.0311299929
20
155.8535314947
11
313.6616299929
21
155.8535314947
0
LINE
5
322
100
AcDbEntity
8
0
100
AcDbLine
62
7
6
CONTINUOUS
10
313.0311299929
20
156.0926748997
11
313.6616299929
21
156.0926748997
0
LINE
5
323
100
AcDbEntity
8
0
100
AcDbLine
62
7
6
CONTINUOUS
10
313.0311299929
20
156.9296686071
11
313.6616299929
21
156.9296686071
0
LINE
5
324
100
AcDbEntity
8
0
100
AcDbLine
62
7
6
CONTINUOUS
10
313.0311299929
20
157.4079554171
11
313.6616299929
21
157.4079554171
0
LINE
5
325
100
AcDbEntity
8
0
100
AcDbLine
62
7
6
CONTINUOUS
10
313.0311299929
20
157.8862367537
11
313.6616299929
21
157.8862367537
0
LINE
5
326
100
AcDbEntity
8
0
100
AcDbLine
62
7
6
CONTINUOUS
10
313.0311299929
20
158.0058057195
11
313.6616299929
21
158.0058057195
0
LINE
5
327
100
AcDbEntity
8
0
100
AcDbLine
62
7
6
CONTINUOUS
10
313.0311299929
20
158.1253801587
11
313.6616299929
21
158.1253801587
0
LINE
5
328
100
AcDbEntity
8
0
100
AcDbLine
62
7
6
CONTINUOUS
10
313.0311299929
20
159.0819428318
11
313.6616299929
21
159.0819428318
0
LINE
5
329
100
AcDbEntity
8
0
100
AcDbLine
62
7
6
CONTINUOUS
10
318.3046564737
20
93.2757962105
11
307.6718799929
21
118.3250478381
0
LINE
5
32A
100
AcDbEntity
8
0
100
AcDbLine
62
7
6
CONTINUOUS
10
291.0629766526
20
180.6306553597
11
291.0629766526
21
203.6058132745
0
LINE
5
32B
100
AcDbEntity
8
DEFAULT_1
100
AcDbLine
62
2
6
CENTER
10
295.3771299929
20
232.3316553597
11
295.3771299929
21
108.7920623224
0
LINE
5
32C
100
AcDbEntity
8
DEFAULT_1
100
AcDbLine
62
2
6
CENTER
10
295.3771299929
20
232.3316553597
11
295.3771299929
21
252.4597395202
0
LINE
5
32D
100
AcDbEntity
8
0
100
AcDbLine
62
7
6
CONTINUOUS
10
313.0311299929
20
160.9950791251
11
313.6616299929
21
160.9950791251
0
LINE
5
32E
100
AcDbEntity
8
0
100
AcDbLine
62
7
6
CONTINUOUS
10
313.0311299929
20
161.9516417982
11
313.6616299929
21
161.9516417982
0
LINE
5
32F
100
AcDbEntity
8
0
100
AcDbLine
62
7
6
CONTINUOUS
10
313.0311299929
20
164.3430594279
11
313.6616299929
21
164.3430594279
0
LINE
5
330
100
AcDbEntity
8
0
100
AcDbLine
62
7
6
CONTINUOUS
10
299.6912833332
20
180.6306553597
11
299.6912833332
21
203.6058132745
0
LINE
5
331
100
AcDbEntity
8
0
100
AcDbLine
62
7
6
CONTINUOUS
10
313.0311299929
20
166.0170523161
11
313.6616299929
21
166.0170523161
0
LINE
5
332
100
AcDbEntity
8
0
100
AcDbLine
62
7
6
CONTINUOUS
10
313.0311299929
20
166.7344770577
11
313.6616299929
21
166.7344770577
0
LINE
5
333
100
AcDbEntity
8
0
100
AcDbLine
62
7
6
CONTINUOUS
10
313.0311299929
20
167.6910397308
11
313.6616299929
21
167.6910397308
0
LINE
5
334
100
AcDbEntity
8
0
100
AcDbLine
62
7
6
CONTINUOUS
10
313.0311299929
20
168.4084644724
11
313.6616299929
21
168.4084644724
0
LINE
5
335
100
AcDbEntity
8
0
100
AcDbLine
62
7
6
CONTINUOUS
10
313.0311299929
20
169.3650326190
11
313.6616299929
21
169.3650326190
0
LINE
5
336
100
AcDbEntity
8
0
100
AcDbLine
62
7
6
CONTINUOUS
10
317.9896338257
20
126.2907748899
11
320.6995495673
21
119.9066134788
0
LINE
5
337
100
AcDbEntity
8
0
100
AcDbLine
62
7
6
CONTINUOUS
10
307.6718799929
20
118.3250478381
11
307.6718799929
21
150.6382918988
0
LINE
5
338
100
AcDbEntity
8
0
100
AcDbLine
62
7
6
CONTINUOUS
10
272.4496035121
20
93.2757962105
11
283.0823799929
21
118.3250478381
0
LINE
5
339
100
AcDbEntity
8
0
100
AcDbLine
62
7
6
CONTINUOUS
10
313.0311299929
20
172.2347315854
11
313.6616299929
21
172.2347315854
0
LINE
5
33A
100
AcDbEntity
8
0
100
AcDbLine
62
7
6
CONTINUOUS
10
313.0311299929
20
172.8325873612
11
313.6616299929
21
172.8325873612
0
LINE
5
33B
100
AcDbEntity
8
0
100
AcDbLine
62
7
6
CONTINUOUS
10
313.0311299929
20
173.3108686977
11
313.6616299929
21
173.3108686977
0
LINE
5
33C
100
AcDbEntity
8
0
100
AcDbLine
62
7
6
CONTINUOUS
10
313.0311299929
20
173.6695810685
11
313.6616299929
21
173.6695810685
0
LINE
5
33D
100
AcDbEntity
8
0
100
AcDbLine
62
7
6
CONTINUOUS
10
313.0311299929
20
173.7891500343
11
313.6616299929
21
173.7891500343
0
LINE
5
33E
100
AcDbEntity
8
0
100
AcDbLine
62
7
6
CONTINUOUS
10
309.8786299929
20
172.7859528061
11
309.8786299929
21
156.7012876942
0
LINE
5
33F
100
AcDbEntity
8
0
100
AcDbLine
62
7
6
CONTINUOUS
10
313.0311299929
20
105.6994460466
11
313.0311299929
21
114.5371282866
0
LINE
5
340
100
AcDbEntity
8
0
100
AcDbLine
62
7
6
CONTINUOUS
10
313.0311299929
20
124.1860148868
11
313.0311299929
21
237.3756553597
0
LINE
5
341
100
AcDbEntity
8
0
100
AcDbLine
62
7
6
CONTINUOUS
10
313.6616299929
20
173.7891500343
11
313.6616299929
21
169.3650326190
0
LINE
5
342
100
AcDbEntity
8
0
100
AcDbLine
62
7
6
CONTINUOUS
10
313.6616299929
20
168.4084644724
11
313.6616299929
21
167.6910397308
0
LINE
5
343
100
AcDbEntity
8
0
100
AcDbLine
62
7
6
CONTINUOUS
10
313.6616299929
20
166.7344770577
11
313.6616299929
21
161.9516417982
0
LINE
5
344
100
AcDbEntity
8
0
100
AcDbLine
62
7
6
CONTINUOUS
10
313.6616299929
20
160.9950791251
11
313.6616299929
21
159.0819428318
0
LINE
5
345
100
AcDbEntity
8
0
100
AcDbLine
62
7
6
CONTINUOUS
10
313.6616299929
20
158.1253801587
11
313.6616299929
21
153.8208317092
0
LINE
5
346
100
AcDbEntity
8
0
100
AcDbLine
62
7
6
CONTINUOUS
10
313.6616299929
20
152.8642635626
11
313.6616299929
21
151.4294140794
0
LINE
5
347
100
AcDbEntity
8
0
100
AcDbLine
62
7
6
CONTINUOUS
10
313.6616299929
20
144.7334507369
11
313.6616299929
21
139.9506182141
0
LINE
5
348
100
AcDbEntity
8
0
100
AcDbLine
62
7
6
CONTINUOUS
10
313.6616299929
20
138.9940528042
11
313.6616299929
21
134.2112202814
0
LINE
5
349
100
AcDbEntity
8
0
100
AcDbLine
62
7
6
CONTINUOUS
10
313.6616299929
20
133.2546548716
11
313.6616299929
21
128.4718223488
0
LINE
5
34A
100
AcDbEntity
8
0
100
AcDbLine
62
7
6
CONTINUOUS
10
313.6616299929
20
114.9603232770
11
313.6616299929
21
111.7319115978
0
LINE
5
34B
100
AcDbEntity
8
0
100
AcDbLine
62
7
6
CONTINUOUS
10
313.6616299929
20
110.7753455037
11
313.6616299929
21
106.2316553597
0
LINE
5
34C
100
AcDbEntity
8
0
100
AcDbLine
62
7
6
CONTINUOUS
10
307.6718799929
20
150.6382918988
11
309.8786299929
21
156.7012876942
0
LINE
5
34D
100
AcDbEntity
8
0
100
AcDbLine
62
7
6
CONTINUOUS
10
290.2244831298
20
180.6305720252
11
290.2347472713
21
180.6306552729
0
LINE
5
34E
100
AcDbEntity
8
0
100
AcDbLine
62
7
6
CONTINUOUS
10
290.2343224370
20
180.6306553597
11
300.5199375488
21
180.6306553597
0
LINE
5
34F
100
AcDbEntity
8
0
100
AcDbLine
62
7
6
CONTINUOUS
10
300.5297768560
20
180.6305720252
11
300.5195127145
21
180.6306552729
0
LINE
5
350
100
AcDbEntity
8
0
100
AcDbLine
62
7
6
CONTINUOUS
10
300.5297730994
20
180.6305751774
11
309.8786299929
21
172.7859528061
0
LINE
5
351
100
AcDbEntity
8
0
100
AcDbLine
62
7
6
CONTINUOUS
10
307.6718799929
20
121.9111482280
11
317.9896338257
21
126.2907748899
0
LINE
5
352
100
AcDbEntity
8
0
100
AcDbLine
62
7
6
CONTINUOUS
10
320.6995495673
20
119.9066134788
11
310.1392749516
21
112.5122295873
0
LINE
5
353
100
AcDbEntity
8
0
100
AcDbLine
62
7
6
CONTINUOUS
10
313.0311299929
20
237.3756553597
11
310.3663752759
21
241.6582968691
0
LINE
5
354
100
AcDbEntity
8
0
100
AcDbLine
62
7
6
CONTINUOUS
10
309.2539300683
20
79.7639552652
11
317.2282765972
21
87.7383017941
0
LINE
5
355
100
AcDbEntity
8
DEFAULT_1
100
AcDbLine
62
2
6
CENTER
10
295.3771299929
20
232.3316553597
11
278.8841399125
21
232.3316553597
0
LINE
5
356
100
AcDbEntity
8
DEFAULT_1
100
AcDbLine
62
2
6
CENTER
10
295.3771299929
20
232.3316553597
11
310.8102904009
21
232.3316553597
0
LINE
5
357
100
AcDbEntity
8
0
100
AcDbLine
62
7
6
CONTINUOUS
10
311.4618855485
20
239.8976553597
11
297.0794799929
21
239.8976553597
0
LINE
5
358
100
AcDbEntity
8
0
100
AcDbLine
62
7
6
CONTINUOUS
10
293.6747799929
20
239.8976553597
11
279.2923744374
21
239.8976553597
0
ARC
5
359
100
AcDbEntity
8
0
100
AcDbCircle
62
7
6
CONTINUOUS
10
108.1892703464
20
292.0548564510
40
45.3960000000
100
AcDbArc
50
247.9285574823
51
261.0509819347
0
ARC
5
35A
100
AcDbEntity
8
0
100
AcDbCircle
62
7
6
CONTINUOUS
10
108.1892703464
20
292.0548564510
40
45.3960000000
100
AcDbArc
50
278.9490180653
51
292.0714425177
0
ARC
5
35B
100
AcDbEntity
8
0
100
AcDbCircle
62
7
6
CONTINUOUS
10
85.4912703464
20
154.9470577747
40
15.1320000000
100
AcDbArc
50
0.0000000000
51
40.0000000000
0
ARC
5
35C
100
AcDbEntity
8
0
100
AcDbCircle
62
7
6
CONTINUOUS
10
45.1392703464
20
145.2313349207
40
29.0030000000
100
AcDbArc
50
0.0000000000
51
27.6604498993
0
ARC
5
35D
100
AcDbEntity
8
0
100
AcDbCircle
62
7
6
CONTINUOUS
10
84.2302703464
20
165.7201597772
40
15.1320000000
100
AcDbArc
50
130.0000000000
51
207.6604498993
0
ARC
5
35E
100
AcDbEntity
8
0
100
AcDbCircle
62
7
6
CONTINUOUS
10
80.7535264031
20
174.3256553597
40
6.3050000000
100
AcDbArc
50
40.0000013287
51
130.0000000000
0
CIRCLE
5
35F
100
AcDbEntity
8
0
100
AcDbCircle
62
7
6
CONTINUOUS
10
85.8695703464
20
232.3316553597
40
3.1525000000
0
ARC
5
360
100
AcDbEntity
8
0
100
AcDbCircle
62
7
6
CONTINUOUS
10
166.8257703464
20
203.3286553597
40
29.0030000000
100
AcDbArc
50
180.0000000000
51
225.0473854725
0
ARC
5
361
100
AcDbEntity
8
0
100
AcDbCircle
62
7
6
CONTINUOUS
10
125.8432703464
20
162.2783115152
40
29.0030000000
100
AcDbArc
50
0.0000000000
51
45.0473854725
0
ARC
5
362
100
AcDbEntity
8
0
100
AcDbCircle
62
7
6
CONTINUOUS
10
108.1892703464
20
215.4342553597
40
7.0616000000
100
AcDbArc
50
180.0000000000
51
360.0000000000
0
ARC
5
363
100
AcDbEntity
8
0
100
AcDbCircle
62
7
6
CONTINUOUS
10
103.1452703464
20
219.4116392029
40
24.5895000000
100
AcDbArc
50
180.0000000000
51
220.0000000000
0
ARC
5
364
100
AcDbEntity
8
0
100
AcDbCircle
62
7
6
CONTINUOUS
10
100.6232703464
20
160.6215577747
40
15.1320000000
100
AcDbArc
50
0.0000000000
51
40.0000000000
0
ARC
5
365
100
AcDbEntity
8
0
100
AcDbCircle
62
7
6
CONTINUOUS
10
106.9282703464
20
127.6686553597
40
6.3050000000
100
AcDbArc
50
180.0000000000
51
233.1030912598
0
ARC
5
366
100
AcDbEntity
8
0
100
AcDbCircle
62
7
6
CONTINUOUS
10
109.4502703464
20
127.6686553597
40
6.3050000000
100
AcDbArc
50
306.8969087393
51
360.0000000000
0
ARC
5
367
100
AcDbEntity
8
0
100
AcDbCircle
62
7
6
CONTINUOUS
10
114.4942703464
20
120.1026553597
40
40.3520000000
100
AcDbArc
50
180.0000000000
51
360.0000000000
0
ARC
5
368
100
AcDbEntity
8
0
100
AcDbCircle
62
7
6
CONTINUOUS
10
100.6232703464
20
160.6215577747
40
30.3949762747
100
AcDbArc
50
0.0000000000
51
40.0000000000
0
ARC
5
369
100
AcDbEntity
8
0
100
AcDbCircle
62
7
6
CONTINUOUS
10
295.3771299929
20
232.3316553597
40
17.6540000000
100
AcDbArc
50
31.8907918018
51
148.1092081982
0
CIRCLE
5
36A
100
AcDbEntity
8
0
100
AcDbCircle
62
7
6
CONTINUOUS
10
295.3771299929
20
232.3316553597
40
7.7551500000
0
ARC
5
36B
100
AcDbEntity
8
0
100
AcDbCircle
62
7
6
CONTINUOUS
10
313.6616299929
20
91.3049483984
40
5.0440000000
100
AcDbArc
50
315.0000000000
51
23.0000000000
0
ARC
5
36C
100
AcDbEntity
8
0
100
AcDbCircle
62
7
6
CONTINUOUS
10
277.0926299929
20
91.3049483984
40
5.0440000000
100
AcDbArc
50
157.0000000000
51
225.0000000000
0
SPLINE
5
36D
100
AcDbEntity
8
0
100
AcDbSpline
62
7
6
CONTINUOUS
70
0
71
3
72
15
73
11
74
9
42
0.0000001000
43
0.0000001000
44
0.0000000001
40
0.0000000000
40
0.0000000000
40
0.0000000000
40
0.0000000000
40
0.1251723950
40
0.2507355965
40
0.3761708418
40
0.5012149770
40
0.6255801406
40
0.7498209524
40
0.8744112298
40
1.0000000000
40
1.0000000000
40
1.0000000000
40
1.0000000000
10
91.1311597964
20
232.3316553597
30
0.0000000000
10
91.1311597964
20
232.5558690534
30
0.0000000000
10
91.1099492448
20
233.0052753752
30
0.0000000000
10
91.0160579198
20
233.6733901470
30
0.0000000000
10
90.8646855321
20
234.3305475019
30
0.0000000000
10
90.6629892702
20
234.9716068359
30
0.0000000000
10
90.4185032449
20
235.5951406885
30
0.0000000000
10
90.1377985993
20
236.2022046584
30
0.0000000000
10
89.8255926131
20
236.7960499837
30
0.0000000000
10
89.5999534370
20
237.1833898754
30
0.0000000000
10
89.4831597307
20
237.3756553597
30
0.0000000000
11
91.1311597964
21
232.3316553597
31
0.0000000000
11
91.0996714112
21
233.0035590028
31
0.0000000000
11
91.0064190816
21
233.6718251500
31
0.0000000000
11
90.8560141241
21
234.3288841707
31
0.0000000000
11
90.6553366844
21
234.9701702639
31
0.0000000000
11
90.4123345478
21
235.5927288496
31
0.0000000000
11
90.1329948553
21
236.1991163919
31
0.0000000000
11
89.8222015975
21
236.7921215654
31
0.0000000000
11
89.4831597307
21
237.3756553597
31
0.0000000000
0
SPLINE
5
36E
100
AcDbEntity
8
0
100
AcDbSpline
62
7
6
CONTINUOUS
70
0
71
3
72
22
73
18
74
16
42
0.0000001000
43
0.0000001000
44
0.0000000001
40
0.0000000000
40
0.0000000000
40
0.0000000000
40
0.0000000000
40
0.1185317541
40
0.2277882630
40
0.3280319308
40
0.4194842035
40
0.5024270686
40
0.5774498737
40
0.6451902621
40
0.7064441579
40
0.7618675047
40
0.8119085803
40
0.8573506755
40
0.8988449711
40
0.9360755221
40
0.9699411739
40
1.0000000000
40
1.0000000000
40
1.0000000000
40
1.0000000000
10
101.1276703464
20
220.1084834238
30
0.0000000000
10
100.6826377633
20
220.1881797834
30
0.0000000000
10
99.8300336936
20
220.3565734577
30
0.0000000000
10
98.6117446821
20
220.6427425656
30
0.0000000000
10
97.5038395992
20
220.9440490833
30
0.0000000000
10
96.5028770600
20
221.2536640797
30
0.0000000000
10
95.6041242413
20
221.5661967334
30
0.0000000000
10
94.8014294920
20
221.8779157722
30
0.0000000000
10
94.0870745547
20
222.1870631075
30
0.0000000000
10
93.4535891849
20
222.4933669041
30
0.0000000000
10
92.8948826316
20
222.7976658573
30
0.0000000000
10
92.4059775653
20
223.1022129165
30
0.0000000000
10
91.9837424776
20
223.4109779472
30
0.0000000000
10
91.6306424652
20
223.7282683843
30
0.0000000000
10
91.3544928920
20
224.0598872264
30
0.0000000000
10
91.1742096097
20
224.4058489638
30
0.0000000000
10
91.1311597964
20
224.6510028399
30
0.0000000000
10
91.1311597964
20
224.7656553597
30
0.0000000000
11
101.1276703464
21
220.1084834238
31
0.0000000000
11
99.7971075003
21
220.3716413611
31
0.0000000000
11
98.5801293567
21
220.6579437163
31
0.0000000000
11
97.4733982858
21
220.9594650763
31
0.0000000000
11
96.4738414778
21
221.2692851607
31
0.0000000000
11
95.5776332212
21
221.5816970115
31
0.0000000000
11
94.7776959435
21
221.8932648952
31
0.0000000000
11
94.0667240910
21
222.2020724149
31
0.0000000000
11
93.4362575597
21
222.5083345805
31
0.0000000000
11
92.8800905693
21
222.8131078056
31
0.0000000000
11
92.3952024255
21
223.1176837891
31
0.0000000000
11
91.9772446137
21
223.4270317064
31
0.0000000000
11
91.6270702842
21
223.7476933803
31
0.0000000000
11
91.3593109958
21
224.0790541220
31
0.0000000000
11
91.1873181045
21
224.4263132799
31
0.0000000000
11
91.1311597964
21
224.7656553597
31
0.0000000000
0
SPLINE
5
36F
100
AcDbEntity
8
0
100
AcDbSpline
62
7
6
CONTINUOUS
70
0
71
3
72
10
73
6
74
4
42
0.0000001000
43
0.0000001000
44
0.0000000001
40
0.0000000000
40
0.0000000000
40
0.0000000000
40
0.0000000000
40
0.3205945419
40
0.6538330602
40
1.0000000000
40
1.0000000000
40
1.0000000000
40
1.0000000000
10
86.1538300232
20
156.7012876942
30
0.0000000000
10
86.4104917398
20
156.4784905649
30
0.0000000000
10
86.8892986542
20
155.9697887583
30
0.0000000000
10
87.4524163652
20
155.0640849937
30
0.0000000000
10
87.7061503750
20
154.3838658972
30
0.0000000000
10
87.8001481719
20
154.0291248439
30
0.0000000000
11
86.1538300232
21
156.7012876942
31
0.0000000000
11
86.8534431640
21
155.9595561851
31
0.0000000000
11
87.4141376250
21
155.0601859788
31
0.0000000000
11
87.8001481719
21
154.0291248439
31
0.0000000000
0
SPLINE
5
370
100
AcDbEntity
8
0
100
AcDbSpline
62
7
6
CONTINUOUS
70
0
71
3
72
23
73
19
74
17
42
0.0000001000
43
0.0000001000
44
0.0000000001
40
0.0000000000
40
0.0000000000
40
0.0000000000
40
0.0000000000
40
0.0293237159
40
0.0623929941
40
0.0987961429
40
0.1394848002
40
0.1841313076
40
0.2328810086
40
0.2858087613
40
0.3426555782
40
0.4032985001
40
0.4685262236
40
0.5391424423
40
0.6159428044
40
0.6996917288
40
0.7910661149
40
0.8908630106
40
1.0000000000
40
1.0000000000
40
1.0000000000
40
1.0000000000
10
125.2473808964
20
224.7656553597
30
0.0000000000
10
125.2473808964
20
224.6538044543
30
0.0000000000
10
125.2064757469
20
224.4145481531
30
0.0000000000
10
125.0336654007
20
224.0750342628
30
0.0000000000
10
124.7665719566
20
223.7479634675
30
0.0000000000
10
124.4229342013
20
223.4340053901
30
0.0000000000
10
124.0116823314
20
223.1289054105
30
0.0000000000
10
123.5394469695
20
222.8306718647
30
0.0000000000
10
123.0100633100
20
222.5379230306
30
0.0000000000
10
122.4268271250
20
222.2504554758
30
0.0000000000
10
121.7897394492
20
221.9674724858
30
0.0000000000
10
121.0943525891
20
221.6875548672
30
0.0000000000
10
120.3323286590
20
221.4093068428
30
0.0000000000
10
119.4949261569
20
221.1327604525
30
0.0000000000
10
118.5735379046
20
220.8594352529
30
0.0000000000
10
117.5593452836
20
220.5921903278
30
0.0000000000
10
116.4428721585
20
220.3352170874
30
0.0000000000
10
115.6606382901
20
220.1818645978
30
0.0000000000
10
115.2508703464
20
220.1084834238
30
0.0000000000
11
125.2473808964
21
224.7656553597
31
0.0000000000
11
125.1938603162
21
224.4343984009
31
0.0000000000
11
125.0288651214
21
224.0938499254
31
0.0000000000
11
124.7701177595
21
223.7673923514
31
0.0000000000
11
124.4293658005
21
223.4501013158
31
0.0000000000
11
124.0208476087
21
223.1433054615
31
0.0000000000
11
123.5503102779
21
222.8436625002
31
0.0000000000
11
123.0210340756
21
222.5492401542
31
0.0000000000
11
122.4380492149
21
222.2606572660
31
0.0000000000
11
121.8041955155
21
221.9782000018
31
0.0000000000
11
121.1120305095
21
221.6988676092
31
0.0000000000
11
120.3531719462
21
221.4211942783
31
0.0000000000
11
119.5188158103
21
221.1451643147
31
0.0000000000
11
118.6001604026
21
220.8722291101
31
0.0000000000
11
117.5891622569
21
220.6054606726
31
0.0000000000
11
116.4763487310
21
220.3490116106
31
0.0000000000
11
115.2508703464
21
220.1084834238
31
0.0000000000
0
SPLINE
5
371
100
AcDbEntity
8
0
100
AcDbSpline
62
7
6
CONTINUOUS
70
0
71
3
72
12
73
8
74
6
42
0.0000001000
43
0.0000001000
44
0.0000000001
40
0.0000000000
40
0.0000000000
40
0.0000000000
40
0.0000000000
40
0.2038750415
40
0.4105629276
40
0.6152603114
40
0.8132553959
40
1.0000000000
40
1.0000000000
40
1.0000000000
40
1.0000000000
10
89.4831597307
20
237.3756553597
30
0.0000000000
10
89.6675116851
20
237.6333267946
30
0.0000000000
10
90.0229378780
20
238.1639225795
30
0.0000000000
10
90.4875626098
20
239.0012352066
30
0.0000000000
10
90.8520782846
20
239.8781479547
30
0.0000000000
10
91.0799505614
20
240.7690828518
30
0.0000000000
10
91.1311597964
20
241.3680897561
30
0.0000000000
10
91.1311597964
20
241.6582968691
30
0.0000000000
11
89.4831597307
21
237.3756553597
31
0.0000000000
11
90.0093121346
21
238.1672269303
31
0.0000000000
11
90.4727629524
21
239.0120559466
31
0.0000000000
11
90.8340719418
21
239.8953341759
31
0.0000000000
11
91.0584710027
21
240.7907152562
31
0.0000000000
11
91.1311597964
21
241.6582968691
31
0.0000000000
0
SPLINE
5
372
100
AcDbEntity
8
0
100
AcDbSpline
62
7
6
CONTINUOUS
70
0
71
3
72
13
73
9
74
7
42
0.0000001000
43
0.0000001000
44
0.0000000001
40
0.0000000000
40
0.0000000000
40
0.0000000000
40
0.0000000000
40
0.2000804192
40
0.3780666566
40
0.5404994047
40
0.6936683072
40
0.8442769531
40
1.0000000000
40
1.0000000000
40
1.0000000000
40
1.0000000000
10
80.7211550762
20
180.6305751774
30
0.0000000000
10
79.9799240431
20
180.3687343511
30
0.0000000000
10
78.6037440443
20
179.7982781703
30
0.0000000000
10
76.7590804751
20
178.7326849928
30
0.0000000000
10
75.2383859434
20
177.5155305043
30
0.0000000000
10
74.0231870967
20
176.1303504893
30
0.0000000000
10
73.1219181928
20
174.5510571035
30
0.0000000000
10
72.7687431351
20
173.3875367668
30
0.0000000000
10
72.6571934602
20
172.7859528061
30
0.0000000000
11
80.7211550762
21
180.6305751774
31
0.0000000000
11
78.5473732499
21
179.7159555099
31
0.0000000000
11
76.7368927000
21
178.6560096067
31
0.0000000000
11
75.2495009996
21
177.4504502820
31
0.0000000000
11
74.0663375340
21
176.0867676237
31
0.0000000000
11
73.1918161303
21
174.5418850163
31
0.0000000000
11
72.6571934602
21
172.7859528061
31
0.0000000000
0
SPLINE
5
373
100
AcDbEntity
8
0
100
AcDbSpline
62
7
6
CONTINUOUS
70
0
71
3
72
12
73
8
74
6
42
0.0000001000
43
0.0000001000
44
0.0000000001
40
0.0000000000
40
0.0000000000
40
0.0000000000
40
0.0000000000
40
0.1868734550
40
0.3848671287
40
0.5894973325
40
0.7961186127
40
1.0000000000
40
1.0000000000
40
1.0000000000
40
1.0000000000
10
125.2473808964
20
241.6582968691
30
0.0000000000
10
125.2473808964
20
241.3678895542
30
0.0000000000
10
125.2986437171
20
240.7686826773
30
0.0000000000
10
125.5266300703
20
239.8776817883
30
0.0000000000
10
125.8911130633
20
239.0009863979
30
0.0000000000
10
126.3556497024
20
238.1638530682
30
0.0000000000
10
126.7110232927
20
237.6333347825
30
0.0000000000
10
126.8953809621
20
237.3756553597
30
0.0000000000
11
125.2473808964
21
241.6582968691
31
0.0000000000
11
125.3201689941
21
240.7901208675
31
0.0000000000
11
125.5446567398
21
239.8947689187
31
0.0000000000
11
125.9059002189
21
239.0118024136
31
0.0000000000
11
126.3692131795
21
238.1672520887
31
0.0000000000
11
126.8953809621
21
237.3756553597
31
0.0000000000
0
SPLINE
5
374
100
AcDbEntity
8
0
100
AcDbSpline
62
7
6
CONTINUOUS
70
0
71
3
72
15
73
11
74
9
42
0.0000001000
43
0.0000001000
44
0.0000000001
40
0.0000000000
40
0.0000000000
40
0.0000000000
40
0.0000000000
40
0.1259082512
40
0.2510369831
40
0.3757849940
40
0.5003907237
40
0.6252364343
40
0.7501752346
40
0.8751831543
40
1.0000000000
40
1.0000000000
40
1.0000000000
40
1.0000000000
10
126.8953809621
20
237.3756553597
30
0.0000000000
10
126.7782900722
20
237.1829006525
30
0.0000000000
10
126.5518947626
20
236.7942210676
30
0.0000000000
10
126.2386765104
20
236.1981410254
30
0.0000000000
10
125.9572972821
20
235.5888448151
30
0.0000000000
10
125.7129256236
20
234.9642043287
30
0.0000000000
10
125.5120458249
20
234.3237417225
30
0.0000000000
10
125.3616856069
20
233.6686564936
30
0.0000000000
10
125.2684538691
20
233.0030050966
30
0.0000000000
10
125.2473808964
20
232.5552323250
30
0.0000000000
10
125.2473808964
20
232.3316553597
30
0.0000000000
11
126.8953809621
21
237.3756553597
31
0.0000000000
11
126.5555071891
21
236.7906188642
31
0.0000000000
11
126.2435049368
21
236.1949800352
31
0.0000000000
11
125.9633270903
21
235.5859773745
31
0.0000000000
11
125.7203336433
21
234.9620274190
31
0.0000000000
11
125.5205427593
21
234.3215809823
31
0.0000000000
11
125.3712315290
21
233.6670081081
31
0.0000000000
11
125.2786913337
21
233.0016550546
31
0.0000000000
11
125.2473808964
21
232.3316553597
31
0.0000000000
0
SPLINE
5
375
100
AcDbEntity
8
0
100
AcDbSpline
62
7
6
CONTINUOUS
70
0
71
3
72
14
73
10
74
8
42
0.0000001000
43
0.0000001000
44
0.0000000001
40
0.0000000000
40
0.0000000000
40
0.0000000000
40
0.0000000000
40
0.1035879961
40
0.2184797345
40
0.3456254862
40
0.4860786435
40
0.6410508388
40
0.8118430919
40
1.0000000000
40
1.0000000000
40
1.0000000000
40
1.0000000000
10
100.6232703464
20
137.1261553597
30
0.0000000000
10
99.9981822186
20
136.6630392588
30
0.0000000000
10
98.7424896118
20
135.5999112272
30
0.0000000000
10
96.9554398587
20
133.7114123583
30
0.0000000000
10
95.1912213704
20
131.4392669547
30
0.0000000000
10
93.4663121778
20
128.7713264840
30
0.0000000000
10
91.7947584860
20
125.6912416238
30
0.0000000000
10
90.1907881704
20
122.1778084786
30
0.0000000000
10
89.2267780778
20
119.6582772378
30
0.0000000000
10
88.7585123854
20
118.3250478381
30
0.0000000000
11
100.6232703464
21
137.1261553597
31
0.0000000000
11
98.8357923360
21
135.6255462914
31
0.0000000000
11
97.0492326207
21
133.7523871632
31
0.0000000000
11
95.2846500036
21
131.4957729515
31
0.0000000000
11
93.5587377285
21
128.8434319537
31
0.0000000000
11
91.8857092297
21
125.7788026111
31
0.0000000000
11
90.2803665307
21
122.2816777776
31
0.0000000000
11
88.7585123854
21
118.3250478381
31
0.0000000000
0
SPLINE
5
376
100
AcDbEntity
8
0
100
AcDbSpline
62
7
6
CONTINUOUS
70
0
71
3
72
14
73
10
74
8
42
0.0000001000
43
0.0000001000
44
0.0000000001
40
0.0000000000
40
0.0000000000
40
0.0000000000
40
0.0000000000
40
0.1595345191
40
0.3176108457
40
0.4709076793
40
0.6183054018
40
0.7565427343
40
0.8844599200
40
1.0000000000
40
1.0000000000
40
1.0000000000
40
1.0000000000
10
113.2332703464
20
98.9397789815
30
0.0000000000
10
113.2332703464
20
99.6724911083
30
0.0000000000
10
113.2687428979
20
101.1314752774
30
0.0000000000
10
113.4283785833
20
103.2892523547
30
0.0000000000
10
113.6932521236
20
105.3806355916
30
0.0000000000
10
114.0598498151
20
107.3641656499
30
0.0000000000
10
114.5245691814
20
109.2074358484
30
0.0000000000
10
115.0805995718
20
110.8718118704
30
0.0000000000
10
115.5328080949
20
111.8972954801
30
0.0000000000
10
115.7775538515
20
112.3681384435
30
0.0000000000
11
113.2332703464
21
98.9397789815
31
0.0000000000
11
113.2871209095
21
101.1372556398
31
0.0000000000
11
113.4491274505
21
103.3092668925
31
0.0000000000
11
113.7168094761
21
105.4044271244
31
0.0000000000
11
114.0894462755
21
107.4008585442
31
0.0000000000
11
114.5600763045
21
109.2464934598
31
0.0000000000
11
115.1255611768
21
110.9158134847
31
0.0000000000
11
115.7775538515
21
112.3681384435
31
0.0000000000
0
SPLINE
5
377
100
AcDbEntity
8
0
100
AcDbSpline
62
7
6
CONTINUOUS
70
0
71
3
72
16
73
12
74
10
42
0.0000001000
43
0.0000001000
44
0.0000000001
40
0.0000000000
40
0.0000000000
40
0.0000000000
40
0.0000000000
40
0.1624599793
40
0.3088211903
40
0.4408614240
40
0.5600260808
40
0.6675319856
40
0.7643996883
40
0.8515533634
40
0.9298568318
40
1.0000000000
40
1.0000000000
40
1.0000000000
40
1.0000000000
10
131.0182466211
20
105.6994460466
30
0.0000000000
10
130.6413021717
20
107.5908219339
30
0.0000000000
10
129.8304551845
20
111.1683791713
30
0.0000000000
10
128.3842443324
20
116.2010231597
30
0.0000000000
10
126.8098337582
20
120.6534500974
30
0.0000000000
10
125.1322695817
20
124.5708712912
30
0.0000000000
10
123.3718160486
20
127.9884294732
30
0.0000000000
10
121.5461419705
20
130.9331806503
30
0.0000000000
10
119.6718377585
20
133.4261133749
30
0.0000000000
10
117.7682337579
20
135.4821619566
30
0.0000000000
10
116.4243262884
20
136.6304643277
30
0.0000000000
10
115.7552703464
20
137.1261553597
30
0.0000000000
11
131.0182466211
21
105.6994460466
31
0.0000000000
11
129.7322237230
21
111.3404259164
31
0.0000000000
11
128.2849658013
21
116.3478633320
31
0.0000000000
11
126.7091151688
21
120.7783259112
31
0.0000000000
11
125.0298455552
21
124.6757819136
31
0.0000000000
11
123.2674916199
21
128.0746775471
31
0.0000000000
11
121.4403078356
21
131.0008164711
31
0.0000000000
11
119.5656873989
21
133.4745771639
31
0.0000000000
11
117.6620976557
21
135.5124271647
31
0.0000000000
11
115.7552703464
21
137.1261553597
31
0.0000000000
0
SPLINE
5
378
100
AcDbEntity
8
0
100
AcDbSpline
62
7
6
CONTINUOUS
70
0
71
3
72
13
73
9
74
7
42
0.0000001000
43
0.0000001000
44
0.0000000001
40
0.0000000000
40
0.0000000000
40
0.0000000000
40
0.0000000000
40
0.1702527991
40
0.3458238291
40
0.5215976420
40
0.6926166360
40
0.8534667861
40
1.0000000000
40
1.0000000000
40
1.0000000000
40
1.0000000000
10
118.8244087383
20
93.2757962105
30
0.0000000000
10
118.8729362472
20
92.9616945725
30
0.0000000000
10
118.9446802884
20
92.3193308097
30
0.0000000000
10
118.9818473146
20
91.3455549753
30
0.0000000000
10
118.9503480380
20
90.3700920953
30
0.0000000000
10
118.8509363426
20
89.4266956593
30
0.0000000000
10
118.6860393807
20
88.5479890141
30
0.0000000000
10
118.5261975778
20
87.9953532992
30
0.0000000000
10
118.4326385070
20
87.7383018560
30
0.0000000000
11
118.8244087383
21
93.2757962105
31
0.0000000000
11
118.9321608757
21
92.3284196751
31
0.0000000000
11
118.9702906847
21
91.3458904502
31
0.0000000000
11
118.9379868193
21
90.3620161486
31
0.0000000000
11
118.8358266546
21
89.4097045692
31
0.0000000000
11
118.6663472650
21
88.5249650077
31
0.0000000000
11
118.4326385070
21
87.7383018560
31
0.0000000000
0
SPLINE
5
379
100
AcDbEntity
8
0
100
AcDbSpline
62
7
6
CONTINUOUS
70
0
71
3
72
13
73
9
74
7
42
0.0000001000
43
0.0000001000
44
0.0000000001
40
0.0000000000
40
0.0000000000
40
0.0000000000
40
0.0000000000
40
0.1702527991
40
0.3458238291
40
0.5215976420
40
0.6926166360
40
0.8534667861
40
1.0000000000
40
1.0000000000
40
1.0000000000
40
1.0000000000
10
97.5541319545
20
93.2757962105
30
0.0000000000
10
97.5056044455
20
92.9616945725
30
0.0000000000
10
97.4338604044
20
92.3193308097
30
0.0000000000
10
97.3966933782
20
91.3455549753
30
0.0000000000
10
97.4281926548
20
90.3700920953
30
0.0000000000
10
97.5276043502
20
89.4266956593
30
0.0000000000
10
97.6925013120
20
88.5479890141
30
0.0000000000
10
97.8523431150
20
87.9953532992
30
0.0000000000
10
97.9459021858
20
87.7383018560
30
0.0000000000
11
97.5541319545
21
93.2757962105
31
0.0000000000
11
97.4463798171
21
92.3284196751
31
0.0000000000
11
97.4082500081
21
91.3458904502
31
0.0000000000
11
97.4405538734
21
90.3620161486
31
0.0000000000
11
97.5427140382
21
89.4097045692
31
0.0000000000
11
97.7121934278
21
88.5249650077
31
0.0000000000
11
97.9459021858
21
87.7383018560
31
0.0000000000
0
SPLINE
5
37A
100
AcDbEntity
8
0
100
AcDbSpline
62
7
6
CONTINUOUS
70
0
71
3
72
14
73
10
74
8
42
0.0000001000
43
0.0000001000
44
0.0000000001
40
0.0000000000
40
0.0000000000
40
0.0000000000
40
0.0000000000
40
0.1595345191
40
0.3176108457
40
0.4709076793
40
0.6183054018
40
0.7565427343
40
0.8844599200
40
1.0000000000
40
1.0000000000
40
1.0000000000
40
1.0000000000
10
103.1452703464
20
98.9397789815
30
0.0000000000
10
103.1452703464
20
99.6724911083
30
0.0000000000
10
103.1097977948
20
101.1314752774
30
0.0000000000
10
102.9501621095
20
103.2892523547
30
0.0000000000
10
102.6852885692
20
105.3806355916
30
0.0000000000
10
102.3186908776
20
107.3641656499
30
0.0000000000
10
101.8539715114
20
109.2074358484
30
0.0000000000
10
101.2979411209
20
110.8718118704
30
0.0000000000
10
100.8457325979
20
111.8972954801
30
0.0000000000
10
100.6009868413
20
112.3681384435
30
0.0000000000
11
103.1452703464
21
98.9397789815
31
0.0000000000
11
103.0914197833
21
101.1372556398
31
0.0000000000
11
102.9294132423
21
103.3092668925
31
0.0000000000
11
102.6617312167
21
105.4044271244
31
0.0000000000
11
102.2890944173
21
107.4008585442
31
0.0000000000
11
101.8184643883
21
109.2464934598
31
0.0000000000
11
101.2529795160
21
110.9158134847
31
0.0000000000
11
100.6009868413
21
112.3681384435
31
0.0000000000
0
SPLINE
5
37B
100
AcDbEntity
8
0
100
AcDbSpline
62
7
6
CONTINUOUS
70
0
71
3
72
10
73
6
74
4
42
0.0000001000
43
0.0000001000
44
0.0000000001
40
0.0000000000
40
0.0000000000
40
0.0000000000
40
0.0000000000
40
0.3277963030
40
0.6611071387
40
1.0000000000
40
1.0000000000
40
1.0000000000
40
1.0000000000
10
88.7585123854
20
150.6382918988
30
0.0000000000
10
88.6474813767
20
151.0069662189
30
0.0000000000
10
88.4278783008
20
151.7518275782
30
0.0000000000
10
88.1084381621
20
152.8821828102
30
0.0000000000
10
87.9021070403
20
153.6443392687
30
0.0000000000
10
87.8001481719
20
154.0291248439
30
0.0000000000
11
88.7585123854
21
150.6382918988
31
0.0000000000
11
88.4317798529
21
151.7462104900
31
0.0000000000
11
88.1122859924
21
152.8764453878
31
0.0000000000
11
87.8001481719
21
154.0291248439
31
0.0000000000
0
SPLINE
5
37C
100
AcDbEntity
8
0
100
AcDbSpline
62
7
6
CONTINUOUS
70
0
71
3
72
9
73
5
74
3
42
0.0000001000
43
0.0000001000
44
0.0000000001
40
0.0000000000
40
0.0000000000
40
0.0000000000
40
0.0000000000
40
0.7390808774
40
1.0000000000
40
1.0000000000
40
1.0000000000
40
1.0000000000
10
281.5003299175
20
79.7639552652
30
0.0000000000
10
282.2015043108
20
79.7574012712
30
0.0000000000
10
283.1502496648
20
79.7518120088
30
0.0000000000
10
284.0990042900
20
79.7506553443
30
0.0000000000
10
284.3465524836
20
79.7506553284
30
0.0000000000
11
281.5003299175
21
79.7639552652
31
0.0000000000
11
283.6039084724
21
79.7515607020
31
0.0000000000
11
284.3465524836
21
79.7506553284
31
0.0000000000
0
SPLINE
5
37D
100
AcDbEntity
8
0
100
AcDbSpline
62
7
6
CONTINUOUS
70
0
71
3
72
9
73
5
74
3
42
0.0000001000
43
0.0000001000
44
0.0000000001
40
0.0000000000
40
0.0000000000
40
0.0000000000
40
0.0000000000
40
0.7390808774
40
1.0000000000
40
1.0000000000
40
1.0000000000
40
1.0000000000
10
309.2539300683
20
79.7639552652
30
0.0000000000
10
308.5527556750
20
79.7574012712
30
0.0000000000
10
307.6040103210
20
79.7518120088
30
0.0000000000
10
306.6552556958
20
79.7506553443
30
0.0000000000
10
306.4077075022
20
79.7506553284
30
0.0000000000
11
309.2539300683
21
79.7639552652
31
0.0000000000
11
307.1503515134
21
79.7515607020
31
0.0000000000
11
306.4077075022
21
79.7506553284
31
0.0000000000
0
SPLINE
5
37E
100
AcDbEntity
8
0
100
AcDbSpline
62
7
6
CONTINUOUS
70
0
71
3
72
9
73
5
74
3
42
0.0000001000
43
0.0000001000
44
0.0000000001
40
0.0000000000
40
0.0000000000
40
0.0000000000
40
0.0000000000
40
0.3929181339
40
1.0000000000
40
1.0000000000
40
1.0000000000
40
1.0000000000
10
284.3465524836
20
79.7506553284
30
0.0000000000
10
284.8003273229
20
79.7506552991
30
0.0000000000
10
285.9552109915
20
79.7532359959
30
0.0000000000
10
287.1100675817
20
79.7623854681
30
0.0000000000
10
287.8111299929
20
79.7703632973
30
0.0000000000
11
284.3465524836
21
79.7506553284
31
0.0000000000
11
285.7078726143
21
79.7536974224
31
0.0000000000
11
287.8111299929
21
79.7703632973
31
0.0000000000
0
SPLINE
5
37F
100
AcDbEntity
8
0
100
AcDbSpline
62
7
6
CONTINUOUS
70
0
71
3
72
12
73
8
74
6
42
0.0000001000
43
0.0000001000
44
0.0000000001
40
0.0000000000
40
0.0000000000
40
0.0000000000
40
0.0000000000
40
0.1590209542
40
0.3358608254
40
0.5335900147
40
0.7546629711
40
1.0000000000
40
1.0000000000
40
1.0000000000
40
1.0000000000
10
313.0311299929
20
234.2067689867
30
0.0000000000
10
312.2399789850
20
233.6288865911
30
0.0000000000
10
310.6463340197
20
232.2997342692
30
0.0000000000
10
308.3834988974
20
229.9054304493
30
0.0000000000
10
306.1774584029
20
226.9629979851
30
0.0000000000
10
304.0913646711
20
223.4342516684
30
0.0000000000
10
302.8944246209
20
220.8151723385
30
0.0000000000
10
302.3333597701
20
219.4116392029
30
0.0000000000
11
313.0311299929
21
234.2067689867
31
0.0000000000
11
310.7688448838
21
232.3303687335
31
0.0000000000
11
308.5169309998
21
229.9613625613
31
0.0000000000
11
306.3164347873
21
227.0434629308
31
0.0000000000
11
304.2278067610
21
223.5315132137
31
0.0000000000
11
302.3333597701
21
219.4116392029
31
0.0000000000
0
SPLINE
5
380
100
AcDbEntity
8
0
100
AcDbSpline
62
7
6
CONTINUOUS
70
0
71
3
72
12
73
8
74
6
42
0.0000001000
43
0.0000001000
44
0.0000000001
40
0.0000000000
40
0.0000000000
40
0.0000000000
40
0.0000000000
40
0.1590209542
40
0.3358608254
40
0.5335900147
40
0.7546629711
40
1.0000000000
40
1.0000000000
40
1.0000000000
40
1.0000000000
10
277.7231299929
20
234.2067689867
30
0.0000000000
10
278.5142810009
20
233.6288865911
30
0.0000000000
10
280.1079259661
20
232.2997342692
30
0.0000000000
10
282.3707610884
20
229.9054304493
30
0.0000000000
10
284.5768015829
20
226.9629979851
30
0.0000000000
10
286.6628953147
20
223.4342516684
30
0.0000000000
10
287.8598353649
20
220.8151723385
30
0.0000000000
10
288.4209002157
20
219.4116392029
30
0.0000000000
11
277.7231299929
21
234.2067689867
31
0.0000000000
11
279.9854151020
21
232.3303687335
31
0.0000000000
11
282.2373289860
21
229.9613625613
31
0.0000000000
11
284.4378251985
21
227.0434629308
31
0.0000000000
11
286.5264532248
21
223.5315132137
31
0.0000000000
11
288.4209002157
21
219.4116392029
31
0.0000000000
0
SPLINE
5
381
100
AcDbEntity
8
0
100
AcDbSpline
62
7
6
CONTINUOUS
70
0
71
3
72
13
73
9
74
7
42
0.0000001000
43
0.0000001000
44
0.0000000001
40
0.0000000000
40
0.0000000000
40
0.0000000000
40
0.0000000000
40
0.1509609685
40
0.3145300271
40
0.4850407251
40
0.6592694762
40
0.8329035848
40
1.0000000000
40
1.0000000000
40
1.0000000000
40
1.0000000000
10
291.0629766526
20
203.6058132745
30
0.0000000000
10
291.0629766526
20
204.4165657237
30
0.0000000000
10
291.0193081158
20
206.1059452361
30
0.0000000000
10
290.8358545535
20
208.7052871028
30
0.0000000000
10
290.5122247250
20
211.4172074323
30
0.0000000000
10
290.0240485574
20
214.1599942079
30
0.0000000000
10
289.3490333458
20
216.8446353782
30
0.0000000000
10
288.7540114599
20
218.5783439637
30
0.0000000000
10
288.4209002157
20
219.4116392029
30
0.0000000000
11
291.0629766526
21
203.6058132745
31
0.0000000000
11
291.0037139525
21
206.0373485379
31
0.0000000000
11
290.8177814720
21
208.6661781451
31
0.0000000000
11
290.4888639350
21
211.3936562413
31
0.0000000000
11
289.9912825619
21
214.1563486939
31
0.0000000000
11
289.3019294275
21
216.8676494158
31
0.0000000000
11
288.4209002157
21
219.4116392029
31
0.0000000000
0
SPLINE
5
382
100
AcDbEntity
8
0
100
AcDbSpline
62
7
6
CONTINUOUS
70
0
71
3
72
13
73
9
74
7
42
0.0000001000
43
0.0000001000
44
0.0000000001
40
0.0000000000
40
0.0000000000
40
0.0000000000
40
0.0000000000
40
0.1509609685
40
0.3145300271
40
0.4850407251
40
0.6592694762
40
0.8329035848
40
1.0000000000
40
1.0000000000
40
1.0000000000
40
1.0000000000
10
299.6912833332
20
203.6058132745
30
0.0000000000
10
299.6912833332
20
204.4165657237
30
0.0000000000
10
299.7349518700
20
206.1059452361
30
0.0000000000
10
299.9184054324
20
208.7052871028
30
0.0000000000
10
300.2420352608
20
211.4172074323
30
0.0000000000
10
300.7302114284
20
214.1599942079
30
0.0000000000
10
301.4052266400
20
216.8446353782
30
0.0000000000
10
302.0002485259
20
218.5783439637
30
0.0000000000
10
302.3333597701
20
219.4116392029
30
0.0000000000
11
299.6912833332
21
203.6058132745
31
0.0000000000
11
299.7505460333
21
206.0373485379
31
0.0000000000
11
299.9364785138
21
208.6661781451
31
0.0000000000
11
300.2653960508
21
211.3936562413
31
0.0000000000
11
300.7629774240
21
214.1563486939
31
0.0000000000
11
301.4523305584
21
216.8676494158
31
0.0000000000
11
302.3333597701
21
219.4116392029
31
0.0000000000
0
SPLINE
5
383
100
AcDbEntity
8
0
100
AcDbSpline
62
7
6
CONTINUOUS
70
0
71
3
72
9
73
5
74
3
42
0.0000001000
43
0.0000001000
44
0.0000000001
40
0.0000000000
40
0.0000000000
40
0.0000000000
40
0.0000000000
40
0.3929181339
40
1.0000000000
40
1.0000000000
40
1.0000000000
40
1.0000000000
10
306.4077075022
20
79.7506553284
30
0.0000000000
10
305.9539326629
20
79.7506552991
30
0.0000000000
10
304.7990489943
20
79.7532359959
30
0.0000000000
10
303.6441924041
20
79.7623854681
30
0.0000000000
10
302.9431299929
20
79.7703632973
30
0.0000000000
11
306.4077075022
21
79.7506553284
31
0.0000000000
11
305.0463873715
21
79.7536974224
31
0.0000000000
11
302.9431299929
21
79.7703632973
31
0.0000000000
0
ENDSEC
0
SECTION
2
OBJECTS
0
DICTIONARY
5
384
100
AcDbDictionary
3
ACAD_GROUP
350
385
3
ACAD_MLINESTYLE
350
386
0
DICTIONARY
5
385
102
{ACAD_REACTORS
330
384
102
}
100
AcDbDictionary
0
DICTIONARY
5
386
102
{ACAD_REACTORS
330
384
102
}
100
AcDbDictionary
3
STANDARD
350
387
0
MLINESTYLE
5
387
102
{ACAD_REACTORS
330
386
102
}
100
AcDbMlineStyle
2
STANDARD
70
0
3

62
256
51
90.0
52
90.0
71
2
49
0.5
62
256
6
BYLAYER
49
-0.5
62
256
6
BYLAYER
0
ENDSEC
0
EOF
