999
DXF file: C:\Aktuell-Internet\CAD-Daten\2vvh10.dxf
999
Pro/ENGINEER 2001400 by Parametric Technology Corporation
0
SECTION
2
HEADER
9
$ACADVER
1
AC1014
9
$EXTMAX
10
420.0000000000
20
297.0000000000
9
$EXTMIN
10
0.0000000000
20
0.0000000000
9
$LIMMIN
10
0.0000000000
20
0.0000000000
9
$LIMMAX
10
420.0000000000
20
297.0000000000
9
$VIEWCTR
10
210.0000000000
20
148.5000000000
9
$VIEWSIZE
40
297.0000000000
9
$CLAYER
8
0
9
$LTSCALE
40
23.1000000000
9
$CELTYPE
6
BYLAYER
9
$DIMSCALE
40
1
9
$DIMASZ
40
3.5000000000
9
$DIMEXO
40
2.6250000000
9
$DIMDLI
40
15.9600000000
9
$DIMEXE
40
7.5600000000
9
$DIMCEN
40
3.7800000000
9
$DIMLFAC
40
1.0000000000
9
$DIMTXT
40
3.5000000000
9
$DIMTOL
70
1
9
$DIMTFAC
40
0.6000000000
9
$DIMTP
40
0.0050000000
9
$DIMTM
40
0.0050000000
9
$HANDSEED
5
36A
0
ENDSEC
0
SECTION
2
CLASSES
0
ENDSEC
0
SECTION
2
TABLES
0
TABLE
2
VPORT
5
8
100
AcDbSymbolTable
70
2
0
VPORT
5
1F4
100
AcDbSymbolTableRecord
100
AcDbViewportTableRecord
2
*ACTIVE
70
0
10
0.0
20
0.0
11
1.0
21
1.0
12
210.0000000000
22
148.5000000000
13
0.0
23
0.0
14
1.0
24
1.0
15
0.0
25
0.0
16
0.0
26
0.0
36
1.0
17
0.0
27
0.0
37
0.0
40
297.0000000000
41
1.4141414141
42
50.0
43
0.0
44
0.0
50
0.0
51
0.0
71
0
72
100
73
1
74
1
75
0
76
0
77
0
78
0
0
ENDTAB
0
TABLE
2
LTYPE
5
5
100
AcDbSymbolTable
70
6
0
LTYPE
5
14
100
AcDbSymbolTableRecord
100
AcDbLinetypeTableRecord
2
BYBLOCK
70
0
3

72
65
73
0
40
0.0
0
LTYPE
5
15
100
AcDbSymbolTableRecord
100
AcDbLinetypeTableRecord
2
BYLAYER
70
0
3

72
65
73
0
40
0.0
0
LTYPE
5
16
100
AcDbSymbolTableRecord
100
AcDbLinetypeTableRecord
2
CONTINUOUS
70
64
3
Solid line
72
65
73
0
40
0
0
LTYPE
5
1F5
100
AcDbSymbolTableRecord
100
AcDbLinetypeTableRecord
2
CENTER
70
64
3
____ _ ____ _ ____ _ ____ _ ____ _ ____ _ ____
72
65
73
4
40
0.6
49
0.375
74
0
49
-0.075
74
0
49
0.075
74
0
49
-0.075
74
0
0
LTYPE
5
1F6
100
AcDbSymbolTableRecord
100
AcDbLinetypeTableRecord
2
HIDDEN
70
64
3
- - - - - - - - - - - - - - - - - - - -
72
65
73
2
40
0.2
49
0.1
74
0
49
-0.1
74
0
0
LTYPE
5
1F7
100
AcDbSymbolTableRecord
100
AcDbLinetypeTableRecord
2
PHANTOM
70
64
3
_____ _ _ _____ _ _ _____ _ _ _____
72
65
73
6
40
0.8
49
0.45
74
0
49
-0.05
74
0
49
0.1
74
0
49
-0.05
74
0
49
0.1
74
0
49
-0.05
74
0
0
LTYPE
5
1F8
100
AcDbSymbolTableRecord
100
AcDbLinetypeTableRecord
2
DOT
70
64
3
. . . . . . . . . . . . . . . . . . . .
72
65
73
2
40
0.2
49
0.1
74
0
49
-0.1
74
0
0
LTYPE
5
1F9
100
AcDbSymbolTableRecord
100
AcDbLinetypeTableRecord
2
DASHED
70
64
3
- - - - - - - - - - - - - - - - - - - -
72
65
73
2
40
0.2
49
0.1
74
0
49
-0.1
74
0
0
ENDTAB
0
TABLE
2
LAYER
5
2
100
AcDbSymbolTable
70
36
0
LAYER
5
10
100
AcDbSymbolTableRecord
100
AcDbLayerTableRecord
2
0
70
0
62
7
6
CONTINUOUS
0
LAYER
5
1FA
100
AcDbSymbolTableRecord
100
AcDbLayerTableRecord
2
DEFAULT_1
70
0
62
7
6
CENTER
0
LAYER
5
1FB
100
AcDbSymbolTableRecord
100
AcDbLayerTableRecord
2
DEFAULT_2
70
0
62
8
6
HIDDEN
0
LAYER
5
1FC
100
AcDbSymbolTableRecord
100
AcDbLayerTableRecord
2
DEFAULT_3
70
0
62
7
6
PHANTOM
0
ENDTAB
0
TABLE
2
STYLE
5
3
100
AcDbSymbolTable
70
1
0
STYLE
5
11
100
AcDbSymbolTableRecord
100
AcDbTextStyleTableRecord
2
STANDARD
70
0
40
0.0
41
1.0
50
0.0
71
0
42
0.0
3
txt
4

0
STYLE
5
1FD
100
AcDbSymbolTableRecord
100
AcDbTextStyleTableRecord
2
TEXTSTYLE_0
70
0
40
0.0
41
0.80
50
0.0
71
0
42
0.2
3
txt
4

0
ENDTAB
0
TABLE
2
VIEW
5
6
100
AcDbSymbolTable
70
0
0
ENDTAB
0
TABLE
2
UCS
5
7
100
AcDbSymbolTable
70
0
0
ENDTAB
0
TABLE
2
APPID
5
9
100
AcDbSymbolTable
70
1
0
APPID
5
1FE
100
AcDbSymbolTableRecord
100
AcDbRegAppTableRecord
2
ACAD
70
0
0
ENDTAB
0
TABLE
2
DIMSTYLE
5
A
100
AcDbSymbolTable
70
1
0
DIMSTYLE
105
1FF
100
AcDbSymbolTableRecord
100
AcDbDimStyleTableRecord
2
STANDARD
70
0
3

4

5

6

7

40
1.0
41
0.18
42
0.0625
43
0.38
44
0.18
45
0.0
46
0.0
47
0.0050000000
48
0.0050000000
140
3.5000000000
141
0.09
142
0.0
143
25.4
144
1.0000000000
145
0.0
146
0.6000000000
147
0.09
71
1
72
0
73
1
74
1
75
0
76
0
77
0
78
0
170
0
171
2
172
0
173
0
174
0
175
0
176
0
177
0
178
0
270
2
271
3
272
4
273
2
274
2
340
11
275
0
280
0
281
0
282
0
283
1
284
0
285
0
286
0
287
3
288
0
0
ENDTAB
0
TABLE
2
BLOCK_RECORD
5
1
100
AcDbSymbolTable
70
0
0
BLOCK_RECORD
5
1B
100
AcDbSymbolTableRecord
100
AcDbBlockTableRecord
2
*MODEL_SPACE
0
BLOCK_RECORD
5
1C
100
AcDbSymbolTableRecord
100
AcDbBlockTableRecord
2
*PAPER_SPACE
0
ENDTAB
0
ENDSEC
0
SECTION
2
BLOCKS
0
BLOCK
5
1E
100
AcDbEntity
8
0
100
AcDbBlockBegin
2
*MODEL_SPACE
70
0
10
0.0
20
0.0
30
0.0
3
*MODEL_SPACE
1

0
ENDBLK
5
1F
100
AcDbEntity
8
0
100
AcDbBlockEnd
0
BLOCK
5
20
100
AcDbEntity
8
0
100
AcDbBlockBegin
2
*PAPER_SPACE
70
0
10
0.0
20
0.0
30
0.0
3
*PAPER_SPACE
1

0
ENDBLK
5
21
100
AcDbEntity
8
0
100
AcDbBlockEnd
0
ENDSEC
0
SECTION
2
ENTITIES
0
TEXT
5
200
100
AcDbEntity
8
0
100
AcDbText
62
2
6
CONTINUOUS
10
293.2557163269
20
111.9987194237
7
TEXTSTYLE_0
40
6.0000000000
1
RUD
50
90.0000000000
72
5
11
293.2557163269
21
126.8558622809
100
AcDbText
0
TEXT
5
201
100
AcDbEntity
8
0
100
AcDbText
62
2
6
CONTINUOUS
10
303.3988686738
20
112.2927238396
7
TEXTSTYLE_0
40
6.0000000000
1
VVH 10/VIP
50
90.0000000000
72
5
11
303.3988686738
21
158.0070095539
100
AcDbText
0
LINE
5
202
100
AcDbEntity
8
0
100
AcDbLine
62
7
6
CONTINUOUS
10
0.0000000000
20
0.0000000000
11
0.0000000000
21
297.0000000000
0
LINE
5
203
100
AcDbEntity
8
0
100
AcDbLine
62
7
6
CONTINUOUS
10
0.0000000000
20
0.0000000000
11
420.0000000000
21
0.0000000000
0
LINE
5
204
100
AcDbEntity
8
0
100
AcDbLine
62
7
6
CONTINUOUS
10
0.0000000000
20
297.0000000000
11
420.0000000000
21
297.0000000000
0
LINE
5
205
100
AcDbEntity
8
0
100
AcDbLine
62
7
6
CONTINUOUS
10
420.0000000000
20
0.0000000000
11
420.0000000000
21
297.0000000000
0
LINE
5
206
100
AcDbEntity
8
0
100
AcDbLine
62
7
6
CONTINUOUS
10
127.0761401205
20
100.3707845026
11
127.5127650390
21
100.3707845026
0
LINE
5
207
100
AcDbEntity
8
0
100
AcDbLine
62
7
6
CONTINUOUS
10
85.4722731303
20
224.3648369766
11
92.1852183304
21
232.3650135358
0
LINE
5
208
100
AcDbEntity
8
0
100
AcDbLine
62
7
6
CONTINUOUS
10
135.2914220284
20
120.5457474596
11
137.9722731303
21
121.3043249895
0
LINE
5
209
100
AcDbEntity
8
0
100
AcDbLine
62
7
6
CONTINUOUS
10
132.9935496043
20
121.2095028830
11
133.3765282820
21
121.3043249895
0
LINE
5
20A
100
AcDbEntity
8
0
100
AcDbLine
62
7
6
CONTINUOUS
10
133.3765282820
20
121.8732581707
11
132.9935496043
21
121.7784360643
0
LINE
5
20B
100
AcDbEntity
8
0
100
AcDbLine
62
7
6
CONTINUOUS
10
136.4403582404
20
123.3904132304
11
135.9297200034
21
123.2955913952
0
LINE
5
20C
100
AcDbEntity
8
0
100
AcDbLine
62
7
6
CONTINUOUS
10
135.9297200034
20
122.7266579426
11
136.5680177997
21
122.8214803204
0
LINE
5
20D
100
AcDbEntity
8
0
100
AcDbLine
62
7
6
CONTINUOUS
10
131.9722731303
20
118.3648369766
11
137.9722731303
21
118.3648369766
0
LINE
5
20E
100
AcDbEntity
8
0
100
AcDbLine
62
7
6
CONTINUOUS
10
137.9722731303
20
118.9337701579
11
135.2914220284
21
118.9337701579
0
LINE
5
20F
100
AcDbEntity
8
0
100
AcDbLine
62
7
6
CONTINUOUS
10
134.5254646729
20
118.9337701579
11
132.6105709265
21
118.9337701579
0
LINE
5
210
100
AcDbEntity
8
0
100
AcDbLine
62
7
6
CONTINUOUS
10
133.3765282820
20
121.3043249895
11
133.7595073174
21
121.3043249895
0
LINE
5
211
100
AcDbEntity
8
0
100
AcDbLine
62
7
6
CONTINUOUS
10
133.8871668766
20
121.8732581707
11
133.3765282820
21
121.8732581707
0
LINE
5
212
100
AcDbEntity
8
0
100
AcDbLine
62
7
6
CONTINUOUS
10
131.9722731303
20
122.7266579426
11
135.9297200034
21
122.7266579426
0
LINE
5
213
100
AcDbEntity
8
0
100
AcDbLine
62
7
6
CONTINUOUS
10
135.9297200034
20
123.2955913952
11
131.9722731303
21
123.2955913952
0
LINE
5
214
100
AcDbEntity
8
0
100
AcDbLine
62
7
6
CONTINUOUS
10
115.0493409863
20
123.3454668162
11
112.9722731303
21
123.3454668162
0
LINE
5
215
100
AcDbEntity
8
0
100
AcDbLine
62
7
6
CONTINUOUS
10
102.8952052742
20
123.3454668162
11
104.9722731303
21
123.3454668162
0
LINE
5
216
100
AcDbEntity
8
0
100
AcDbLine
62
7
6
CONTINUOUS
10
133.5041881989
20
130.0279671927
11
134.0148264359
21
130.1227890279
0
LINE
5
217
100
AcDbEntity
8
0
100
AcDbLine
62
7
6
CONTINUOUS
10
134.0148264359
20
130.6917222092
11
133.3765282820
21
130.5969003740
0
LINE
5
218
100
AcDbEntity
8
0
100
AcDbLine
62
7
6
CONTINUOUS
10
131.9722731303
20
125.5713241203
11
135.9297200034
21
125.5713241203
0
LINE
5
219
100
AcDbEntity
8
0
100
AcDbLine
62
7
6
CONTINUOUS
10
135.9297200034
20
126.1402573016
11
131.9722731303
21
126.1402573016
0
LINE
5
21A
100
AcDbEntity
8
0
100
AcDbLine
62
7
6
CONTINUOUS
10
131.9722731303
20
126.8988346957
11
137.9722731303
21
126.8988346957
0
LINE
5
21B
100
AcDbEntity
8
0
100
AcDbLine
62
7
6
CONTINUOUS
10
137.2063156854
20
127.4677678770
11
132.7382304858
21
127.4677678770
0
LINE
5
21C
100
AcDbEntity
8
0
100
AcDbLine
62
7
6
CONTINUOUS
10
93.5632660240
20
127.9551561507
11
82.0033382095
21
127.9551561507
0
LINE
5
21D
100
AcDbEntity
8
0
100
AcDbLine
62
7
6
CONTINUOUS
10
104.9722731303
20
129.2093715676
11
112.9722731303
21
129.2093715676
0
LINE
5
21E
100
AcDbEntity
8
0
100
AcDbLine
62
7
6
CONTINUOUS
10
134.0148264359
20
130.1227890279
11
135.9297200034
21
130.1227890279
0
LINE
5
21F
100
AcDbEntity
8
0
100
AcDbLine
62
7
6
CONTINUOUS
10
136.5680177997
20
126.0454349238
11
135.9297200034
21
126.1402573016
0
LINE
5
220
100
AcDbEntity
8
0
100
AcDbLine
62
7
6
CONTINUOUS
10
133.7595073174
20
121.3043249895
11
134.1424859951
21
121.2095028830
0
LINE
5
221
100
AcDbEntity
8
0
100
AcDbLine
62
7
6
CONTINUOUS
10
134.2701455544
20
121.7784360643
11
133.8871668766
21
121.8732581707
0
LINE
5
222
100
AcDbEntity
8
0
100
AcDbLine
62
7
6
CONTINUOUS
10
81.9722731303
20
149.2924179133
11
81.9722731303
21
129.3648369766
0
LINE
5
223
100
AcDbEntity
8
0
100
AcDbLine
62
7
6
CONTINUOUS
10
137.2063156854
20
137.8982088102
11
131.9722731303
21
136.5706987774
0
LINE
5
224
100
AcDbEntity
8
0
100
AcDbLine
62
7
6
CONTINUOUS
10
131.9722731303
20
136.0017655961
11
137.9722731303
21
137.5189214696
0
LINE
5
225
100
AcDbEntity
8
0
100
AcDbLine
62
7
6
CONTINUOUS
10
135.9297200034
20
130.6917222092
11
134.0148264359
21
130.6917222092
0
LINE
5
226
100
AcDbEntity
8
0
100
AcDbLine
62
7
6
CONTINUOUS
10
104.9722731303
20
134.2721482615
11
112.9722731303
21
134.2721482615
0
LINE
5
227
100
AcDbEntity
8
0
100
AcDbLine
62
7
6
CONTINUOUS
10
136.5680177997
20
130.5969003740
11
135.9297200034
21
130.6917222092
0
LINE
5
228
100
AcDbEntity
8
0
100
AcDbLine
62
7
6
CONTINUOUS
10
135.9297200034
20
125.5713241203
11
136.4403582404
21
125.4765017425
0
LINE
5
229
100
AcDbEntity
8
0
100
AcDbLine
62
7
6
CONTINUOUS
10
135.9297200034
20
130.1227890279
11
136.4403582404
21
130.0279671927
0
LINE
5
22A
100
AcDbEntity
8
0
100
AcDbLine
62
7
6
CONTINUOUS
10
102.3607688685
20
99.5458334927
11
100.8490628558
21
103.6992116273
0
LINE
5
22B
100
AcDbEntity
8
0
100
AcDbLine
62
7
6
CONTINUOUS
10
85.4722731303
20
224.3648369766
11
85.4722731303
21
208.1189875264
0
LINE
5
22C
100
AcDbEntity
8
0
100
AcDbLine
62
7
6
CONTINUOUS
10
84.0012026922
20
176.1950591922
11
82.2588218140
21
174.7330280400
0
LINE
5
22D
100
AcDbEntity
8
0
100
AcDbLine
62
7
6
CONTINUOUS
10
137.2063156854
20
142.4496742604
11
131.9722731303
21
141.1221642275
0
LINE
5
22E
100
AcDbEntity
8
0
100
AcDbLine
62
7
6
CONTINUOUS
10
131.9722731303
20
140.5532310463
11
137.9722731303
21
142.0703869197
0
LINE
5
22F
100
AcDbEntity
8
0
100
AcDbLine
62
7
6
CONTINUOUS
10
137.0786561261
20
125.8557907109
11
136.5680177997
21
126.0454349238
0
LINE
5
230
100
AcDbEntity
8
0
100
AcDbLine
62
7
6
CONTINUOUS
10
134.7807837914
20
121.4939694736
11
134.2701455544
21
121.7784360643
0
LINE
5
231
100
AcDbEntity
8
0
100
AcDbLine
62
7
6
CONTINUOUS
10
102.9546018336
20
123.2311994539
11
102.8952052742
21
123.3454668162
0
LINE
5
232
100
AcDbEntity
8
0
100
AcDbLine
62
7
6
CONTINUOUS
10
131.9722731303
20
145.1046964964
11
137.9722731303
21
145.1046964964
0
LINE
5
233
100
AcDbEntity
8
0
100
AcDbLine
62
7
6
CONTINUOUS
10
131.9722731303
20
139.2257210134
11
137.2063156854
21
137.8982088102
0
LINE
5
234
100
AcDbEntity
8
0
100
AcDbLine
62
7
6
CONTINUOUS
10
137.0786561261
20
130.4072556185
11
136.5680177997
21
130.5969003740
0
LINE
5
235
100
AcDbEntity
8
0
100
AcDbLine
62
7
6
CONTINUOUS
10
136.4403582404
20
125.4765017425
11
136.8233369182
21
125.2868575297
0
LINE
5
236
100
AcDbEntity
8
0
100
AcDbLine
62
7
6
CONTINUOUS
10
136.4403582404
20
130.0279671927
11
136.8233369182
21
129.8383224372
0
LINE
5
237
100
AcDbEntity
8
0
100
AcDbLine
62
7
6
CONTINUOUS
10
134.1424859951
20
121.2095028830
11
134.3978051136
21
121.0198583988
0
LINE
5
238
100
AcDbEntity
8
0
100
AcDbLine
62
7
6
CONTINUOUS
10
91.4976971404
20
158.3883360524
11
80.7945753571
21
171.1438198897
0
LINE
5
239
100
AcDbEntity
8
0
100
AcDbLine
62
7
6
CONTINUOUS
10
93.5632660240
20
127.9551561507
11
93.5632660240
21
153.5802505684
0
LINE
5
23A
100
AcDbEntity
8
0
100
AcDbLine
62
7
6
CONTINUOUS
10
95.4448262231
20
218.3648369766
11
95.4448262231
21
212.3648369766
0
LINE
5
23B
100
AcDbEntity
8
0
100
AcDbLine
62
7
6
CONTINUOUS
10
95.4448262231
20
225.7610633917
11
95.4448262231
21
232.3648369766
0
LINE
5
23C
100
AcDbEntity
8
0
100
AcDbLine
62
7
6
CONTINUOUS
10
137.9722731303
20
145.6736296777
11
135.1637624691
21
145.6736296777
0
LINE
5
23D
100
AcDbEntity
8
0
100
AcDbLine
62
7
6
CONTINUOUS
10
134.3978051136
20
145.6736296777
11
131.9722731303
21
145.6736296777
0
LINE
5
23E
100
AcDbEntity
8
0
100
AcDbLine
62
7
6
CONTINUOUS
10
131.9722731303
20
148.3286519137
11
134.3978051136
21
148.3286519137
0
LINE
5
23F
100
AcDbEntity
8
0
100
AcDbLine
62
7
6
CONTINUOUS
10
135.1637624691
20
148.3286519137
11
137.9722731303
21
148.3286519137
0
LINE
5
240
100
AcDbEntity
8
0
100
AcDbLine
62
7
6
CONTINUOUS
10
137.9722731303
20
148.8975850950
11
131.9722731303
21
148.8975850950
0
LINE
5
241
100
AcDbEntity
8
0
100
AcDbLine
62
7
6
CONTINUOUS
10
137.9722731303
20
138.2774983212
11
131.9722731303
21
139.7946541947
0
LINE
5
242
100
AcDbEntity
8
0
100
AcDbLine
62
7
6
CONTINUOUS
10
137.9722731303
20
142.8289637713
11
131.9722731303
21
144.3461196448
0
LINE
5
243
100
AcDbEntity
8
0
100
AcDbLine
62
7
6
CONTINUOUS
10
131.9722731303
20
143.7771864636
11
137.2063156854
21
142.4496742604
0
LINE
5
244
100
AcDbEntity
8
0
100
AcDbLine
62
7
6
CONTINUOUS
10
137.5892944078
20
125.4765017425
11
137.0786561261
21
125.8557907109
0
LINE
5
245
100
AcDbEntity
8
0
100
AcDbLine
62
7
6
CONTINUOUS
10
136.1850391219
20
156.1988935312
11
136.5680177997
21
156.2937142812
0
LINE
5
246
100
AcDbEntity
8
0
100
AcDbLine
62
7
6
CONTINUOUS
10
133.7595073174
20
159.4228467782
11
133.3765282820
21
159.3280260282
0
LINE
5
247
100
AcDbEntity
8
0
100
AcDbLine
62
7
6
CONTINUOUS
10
135.5467411469
20
156.1040727812
11
136.1850391219
21
156.1988935312
0
LINE
5
248
100
AcDbEntity
8
0
100
AcDbLine
62
7
6
CONTINUOUS
10
136.1850391219
20
156.6730059625
11
135.4190815876
21
156.5781808719
0
LINE
5
249
100
AcDbEntity
8
0
100
AcDbLine
62
7
6
CONTINUOUS
10
132.8658900450
20
154.2076273968
11
133.8871668766
21
154.2076273968
0
LINE
5
24A
100
AcDbEntity
8
0
100
AcDbLine
62
7
6
CONTINUOUS
10
132.9935496043
20
154.7765605781
11
137.9722731303
21
154.7765605781
0
LINE
5
24B
100
AcDbEntity
8
0
100
AcDbLine
62
7
6
CONTINUOUS
10
137.9722731303
20
155.3454937593
11
131.9722731303
21
155.3454937593
0
LINE
5
24C
100
AcDbEntity
8
0
100
AcDbLine
62
7
6
CONTINUOUS
10
137.5892944078
20
130.0279671927
11
137.0786561261
21
130.4072556185
0
LINE
5
24D
100
AcDbEntity
8
0
100
AcDbLine
62
7
6
CONTINUOUS
10
102.9722731303
20
135.3648369766
11
102.9722731303
21
156.9971941655
0
LINE
5
24E
100
AcDbEntity
8
0
100
AcDbLine
62
7
6
CONTINUOUS
10
103.3722731303
20
230.1648369766
11
103.3722731303
21
204.9648369766
0
LINE
5
24F
100
AcDbEntity
8
0
100
AcDbLine
62
7
6
CONTINUOUS
10
104.9722731303
20
134.2721482615
11
104.9722731303
21
123.3454668162
0
LINE
5
250
100
AcDbEntity
8
0
100
AcDbLine
62
7
6
CONTINUOUS
10
104.9722731303
20
98.6565319111
11
104.9722731303
21
112.5822228782
0
LINE
5
251
100
AcDbEntity
8
0
100
AcDbLine
62
7
6
CONTINUOUS
10
137.2063156854
20
164.4484246597
11
131.9722731303
21
163.1209124565
0
LINE
5
252
100
AcDbEntity
8
0
100
AcDbLine
62
7
6
CONTINUOUS
10
131.9722731303
20
162.5519792752
11
137.9722731303
21
164.0691373190
0
LINE
5
253
100
AcDbEntity
8
0
100
AcDbLine
62
7
6
CONTINUOUS
10
134.3978051136
20
159.5176718689
11
133.7595073174
21
159.4228467782
0
LINE
5
254
100
AcDbEntity
8
0
100
AcDbLine
62
7
6
CONTINUOUS
10
133.7595073174
20
158.9487386876
11
134.5254646729
21
159.0435594376
0
LINE
5
255
100
AcDbEntity
8
0
100
AcDbLine
62
7
6
CONTINUOUS
10
134.3978051136
20
156.1040727812
11
135.5467411469
21
156.1040727812
0
LINE
5
256
100
AcDbEntity
8
0
100
AcDbLine
62
7
6
CONTINUOUS
10
135.4190815876
20
156.5781808719
11
134.5254646729
21
156.5781808719
0
LINE
5
257
100
AcDbEntity
8
0
100
AcDbLine
62
7
6
CONTINUOUS
10
134.5254646729
20
159.0435594376
11
135.4190815876
21
159.0435594376
0
LINE
5
258
100
AcDbEntity
8
0
100
AcDbLine
62
7
6
CONTINUOUS
10
135.5467411469
20
159.5176718689
11
134.3978051136
21
159.5176718689
0
LINE
5
259
100
AcDbEntity
8
0
100
AcDbLine
62
7
6
CONTINUOUS
10
134.5254646729
20
156.5781808719
11
133.7595073174
21
156.6730059625
0
LINE
5
25A
100
AcDbEntity
8
0
100
AcDbLine
62
7
6
CONTINUOUS
10
133.7595073174
20
156.1988935312
11
134.3978051136
21
156.1040727812
0
LINE
5
25B
100
AcDbEntity
8
0
100
AcDbLine
62
7
6
CONTINUOUS
10
136.8233369182
20
125.2868575297
11
137.0786561261
21
125.0023909390
0
LINE
5
25C
100
AcDbEntity
8
0
100
AcDbLine
62
7
6
CONTINUOUS
10
136.8233369182
20
129.8383224372
11
137.0786561261
21
129.5538558466
0
LINE
5
25D
100
AcDbEntity
8
0
100
AcDbLine
62
7
6
CONTINUOUS
10
100.1648063197
20
164.7106456342
11
91.0453629562
21
175.5787750251
0
LINE
5
25E
100
AcDbEntity
8
0
100
AcDbLine
62
7
6
CONTINUOUS
10
135.0361029099
20
121.1146807766
11
134.7807837914
21
121.4939694736
0
LINE
5
25F
100
AcDbEntity
8
DEFAULT_1
100
AcDbLine
62
2
6
CENTER
10
108.9722731303
20
94.3646218819
11
108.9722731303
21
235.9250567552
0
LINE
5
260
100
AcDbEntity
8
0
100
AcDbLine
62
7
6
CONTINUOUS
10
100.5383808212
20
108.0905634394
11
102.8952052742
21
123.3454668162
0
LINE
5
261
100
AcDbEntity
8
0
100
AcDbLine
62
7
6
CONTINUOUS
10
135.4190815876
20
159.0435594376
11
136.1850391219
21
158.9487386876
0
LINE
5
262
100
AcDbEntity
8
0
100
AcDbLine
62
7
6
CONTINUOUS
10
136.1850391219
20
159.4228467782
11
135.5467411469
21
159.5176718689
0
LINE
5
263
100
AcDbEntity
8
0
100
AcDbLine
62
7
6
CONTINUOUS
10
133.3765282820
20
156.2937142812
11
133.7595073174
21
156.1988935312
0
LINE
5
264
100
AcDbEntity
8
0
100
AcDbLine
62
7
6
CONTINUOUS
10
136.5680177997
20
159.3280260282
11
136.1850391219
21
159.4228467782
0
LINE
5
265
100
AcDbEntity
8
0
100
AcDbLine
62
7
6
CONTINUOUS
10
132.8658900450
20
156.4833601219
11
133.3765282820
21
156.2937142812
0
LINE
5
266
100
AcDbEntity
8
0
100
AcDbLine
62
7
6
CONTINUOUS
10
137.8446135598
20
125.0972127742
11
137.5892944078
21
125.4765017425
0
LINE
5
267
100
AcDbEntity
8
0
100
AcDbLine
62
7
6
CONTINUOUS
10
117.4061654393
20
108.0905634394
11
115.0493409863
21
123.3454668162
0
LINE
5
268
100
AcDbEntity
8
0
100
AcDbLine
62
7
6
CONTINUOUS
10
112.9722731303
20
134.2721482615
11
112.9722731303
21
123.3454668162
0
LINE
5
269
100
AcDbEntity
8
0
100
AcDbLine
62
7
6
CONTINUOUS
10
112.9722731303
20
97.3804657932
11
112.9722731303
21
112.5822228782
0
LINE
5
26A
100
AcDbEntity
8
0
100
AcDbLine
62
7
6
CONTINUOUS
10
114.5722731303
20
204.9648369766
11
114.5722731303
21
230.1648369766
0
LINE
5
26B
100
AcDbEntity
8
0
100
AcDbLine
62
7
6
CONTINUOUS
10
114.9722731303
20
135.3648369766
11
114.9722731303
21
161.4971941655
0
LINE
5
26C
100
AcDbEntity
8
0
100
AcDbLine
62
7
6
CONTINUOUS
10
132.9935496043
20
171.8445560162
11
132.4829113673
21
171.5600894256
0
LINE
5
26D
100
AcDbEntity
8
0
100
AcDbLine
62
7
6
CONTINUOUS
10
132.9935496043
20
171.2756228349
11
133.3765282820
21
171.3704435849
0
LINE
5
26E
100
AcDbEntity
8
0
100
AcDbLine
62
7
6
CONTINUOUS
10
133.3765282820
20
171.9393767662
11
132.9935496043
21
171.8445560162
0
LINE
5
26F
100
AcDbEntity
8
0
100
AcDbLine
62
7
6
CONTINUOUS
10
131.9722731303
20
167.1034447254
11
137.9722731303
21
167.1034447254
0
LINE
5
270
100
AcDbEntity
8
0
100
AcDbLine
62
7
6
CONTINUOUS
10
137.9722731303
20
167.6723779067
11
131.9722731303
21
167.6723779067
0
LINE
5
271
100
AcDbEntity
8
0
100
AcDbLine
62
7
6
CONTINUOUS
10
131.9722731303
20
168.4309569286
11
137.9722731303
21
168.4309569286
0
LINE
5
272
100
AcDbEntity
8
0
100
AcDbLine
62
7
6
CONTINUOUS
10
137.9722731303
20
168.9998901098
11
135.2914220284
21
168.9998901098
0
LINE
5
273
100
AcDbEntity
8
0
100
AcDbLine
62
7
6
CONTINUOUS
10
134.5254646729
20
168.9998901098
11
132.6105709265
21
168.9998901098
0
LINE
5
274
100
AcDbEntity
8
0
100
AcDbLine
62
7
6
CONTINUOUS
10
137.0786561261
20
159.1383801876
11
136.5680177997
21
159.3280260282
0
LINE
5
275
100
AcDbEntity
8
0
100
AcDbLine
62
7
6
CONTINUOUS
10
133.2488687228
20
161.5089380033
11
136.4403582404
21
160.2762465501
0
LINE
5
276
100
AcDbEntity
8
0
100
AcDbLine
62
7
6
CONTINUOUS
10
136.6956773589
20
160.5607131408
11
133.5041881989
21
161.7934045939
0
LINE
5
277
100
AcDbEntity
8
0
100
AcDbLine
62
7
6
CONTINUOUS
10
133.7595073174
20
156.6730059625
11
132.9935496043
21
157.0522933031
0
LINE
5
278
100
AcDbEntity
8
0
100
AcDbLine
62
7
6
CONTINUOUS
10
136.1850391219
20
158.9487386876
11
136.9509965669
21
158.5694470063
0
LINE
5
279
100
AcDbEntity
8
0
100
AcDbLine
62
7
6
CONTINUOUS
10
131.9722731303
20
154.7765605781
11
132.8658900450
21
154.2076273968
0
LINE
5
27A
100
AcDbEntity
8
0
100
AcDbLine
62
7
6
CONTINUOUS
10
133.8871668766
20
154.2076273968
11
132.9935496043
21
154.7765605781
0
LINE
5
27B
100
AcDbEntity
8
0
100
AcDbLine
62
7
6
CONTINUOUS
10
112.1648064477
20
169.2106454817
11
90.0344064894
21
195.5846291375
0
LINE
5
27C
100
AcDbEntity
8
0
100
AcDbLine
62
7
6
CONTINUOUS
10
137.8446135598
20
129.6486787669
11
137.5892944078
21
130.0279671927
0
LINE
5
27D
100
AcDbEntity
8
0
100
AcDbLine
62
7
6
CONTINUOUS
10
134.3978051136
20
121.0198583988
11
134.5254646729
21
120.7353918082
0
LINE
5
27E
100
AcDbEntity
8
0
100
AcDbLine
62
7
6
CONTINUOUS
10
122.4997200375
20
232.3648369766
11
122.4997200375
21
225.7610633917
0
LINE
5
27F
100
AcDbEntity
8
0
100
AcDbLine
62
7
6
CONTINUOUS
10
122.4997200375
20
218.3648369766
11
122.4997200375
21
212.3648369766
0
LINE
5
280
100
AcDbEntity
8
0
100
AcDbLine
62
7
6
CONTINUOUS
10
132.4829113673
20
171.5600894256
11
132.0999326895
21
171.1808020849
0
LINE
5
281
100
AcDbEntity
8
0
100
AcDbLine
62
7
6
CONTINUOUS
10
132.7382304858
20
171.0859769943
11
132.9935496043
21
171.2756228349
0
LINE
5
282
100
AcDbEntity
8
0
100
AcDbLine
62
7
6
CONTINUOUS
10
79.3608289745
20
171.1438198897
11
80.7945753571
21
171.1438198897
0
LINE
5
283
100
AcDbEntity
8
0
100
AcDbLine
62
7
6
CONTINUOUS
10
133.3765282820
20
171.3704435849
11
133.7595073174
21
171.3704435849
0
LINE
5
284
100
AcDbEntity
8
0
100
AcDbLine
62
7
6
CONTINUOUS
10
133.8871668766
20
171.9393767662
11
133.3765282820
21
171.9393767662
0
LINE
5
285
100
AcDbEntity
8
0
100
AcDbLine
62
7
6
CONTINUOUS
10
137.9722731303
20
164.8277120003
11
131.9722731303
21
166.3448700441
0
LINE
5
286
100
AcDbEntity
8
0
100
AcDbLine
62
7
6
CONTINUOUS
10
131.9722731303
20
165.7759368628
11
137.2063156854
21
164.4484246597
0
LINE
5
287
100
AcDbEntity
8
0
100
AcDbLine
62
7
6
CONTINUOUS
10
132.4829113673
20
156.7678267125
11
132.8658900450
21
156.4833601219
0
LINE
5
288
100
AcDbEntity
8
0
100
AcDbLine
62
7
6
CONTINUOUS
10
137.4616348486
20
158.8539135970
11
137.0786561261
21
159.1383801876
0
LINE
5
289
100
AcDbEntity
8
0
100
AcDbLine
62
7
6
CONTINUOUS
10
132.9935496043
20
157.0522933031
11
132.7382304858
21
157.3367598938
0
LINE
5
28A
100
AcDbEntity
8
0
100
AcDbLine
62
7
6
CONTINUOUS
10
127.0761401205
20
100.3707845026
11
127.0761401205
21
161.4971941655
0
LINE
5
28B
100
AcDbEntity
8
0
100
AcDbLine
62
7
6
CONTINUOUS
10
132.9935496043
20
158.5694470063
11
133.7595073174
21
158.9487386876
0
LINE
5
28C
100
AcDbEntity
8
0
100
AcDbLine
62
7
6
CONTINUOUS
10
133.3765282820
20
159.3280260282
11
132.8658900450
21
159.1383801876
0
LINE
5
28D
100
AcDbEntity
8
0
100
AcDbLine
62
7
6
CONTINUOUS
10
133.7595073174
20
171.3704435849
11
134.1424859951
21
171.2756228349
0
LINE
5
28E
100
AcDbEntity
8
0
100
AcDbLine
62
7
6
CONTINUOUS
10
134.2701455544
20
171.8445560162
11
133.8871668766
21
171.9393767662
0
LINE
5
28F
100
AcDbEntity
8
0
100
AcDbLine
62
7
6
CONTINUOUS
10
136.9509965669
20
158.5694470063
11
137.2063156854
21
158.2849804157
0
LINE
5
290
100
AcDbEntity
8
0
100
AcDbLine
62
7
6
CONTINUOUS
10
121.4369064958
20
176.9908612123
11
85.4722731303
21
219.8518422320
0
LINE
5
291
100
AcDbEntity
8
0
100
AcDbLine
62
7
6
CONTINUOUS
10
132.0999326895
20
157.2419391438
11
132.4829113673
21
156.7678267125
0
LINE
5
292
100
AcDbEntity
8
0
100
AcDbLine
62
7
6
CONTINUOUS
10
137.0786561261
20
125.0023909390
11
137.2063156854
21
124.6231019706
0
LINE
5
293
100
AcDbEntity
8
0
100
AcDbLine
62
7
6
CONTINUOUS
10
137.0786561261
20
129.5538558466
11
137.2063156854
21
129.1745674208
0
LINE
5
294
100
AcDbEntity
8
0
100
AcDbLine
62
7
6
CONTINUOUS
10
137.9722731303
20
124.6231019706
11
137.8446135598
21
125.0972127742
0
LINE
5
295
100
AcDbEntity
8
0
100
AcDbLine
62
7
6
CONTINUOUS
10
131.9722731303
20
170.7066896537
11
131.9722731303
21
168.4309569286
0
LINE
5
296
100
AcDbEntity
8
0
100
AcDbLine
62
7
6
CONTINUOUS
10
131.9722731303
20
167.6723779067
11
131.9722731303
21
167.1034447254
0
LINE
5
297
100
AcDbEntity
8
0
100
AcDbLine
62
7
6
CONTINUOUS
10
131.9722731303
20
166.3448700441
11
131.9722731303
21
165.7759368628
0
LINE
5
298
100
AcDbEntity
8
0
100
AcDbLine
62
7
6
CONTINUOUS
10
131.9722731303
20
163.1209124565
11
131.9722731303
21
162.5519792752
0
LINE
5
299
100
AcDbEntity
8
0
100
AcDbLine
62
7
6
CONTINUOUS
10
131.9722731303
20
155.3454937593
11
131.9722731303
21
154.7765605781
0
LINE
5
29A
100
AcDbEntity
8
0
100
AcDbLine
62
7
6
CONTINUOUS
10
131.9722731303
20
148.8975850950
11
131.9722731303
21
148.3286519137
0
LINE
5
29B
100
AcDbEntity
8
0
100
AcDbLine
62
7
6
CONTINUOUS
10
131.9722731303
20
145.6736296777
11
131.9722731303
21
145.1046964964
0
LINE
5
29C
100
AcDbEntity
8
0
100
AcDbLine
62
7
6
CONTINUOUS
10
131.9722731303
20
144.3461196448
11
131.9722731303
21
143.7771864636
0
LINE
5
29D
100
AcDbEntity
8
0
100
AcDbLine
62
7
6
CONTINUOUS
10
131.9722731303
20
141.1221642275
11
131.9722731303
21
140.5532310463
0
LINE
5
29E
100
AcDbEntity
8
0
100
AcDbLine
62
7
6
CONTINUOUS
10
131.9722731303
20
139.7946541947
11
131.9722731303
21
139.2257210134
0
LINE
5
29F
100
AcDbEntity
8
0
100
AcDbLine
62
7
6
CONTINUOUS
10
131.9722731303
20
136.5706987774
11
131.9722731303
21
136.0017655961
0
LINE
5
2A0
100
AcDbEntity
8
0
100
AcDbLine
62
7
6
CONTINUOUS
10
131.9722731303
20
129.1745674208
11
131.9722731303
21
126.8988346957
0
LINE
5
2A1
100
AcDbEntity
8
0
100
AcDbLine
62
7
6
CONTINUOUS
10
131.9722731303
20
126.1402573016
11
131.9722731303
21
125.5713241203
0
LINE
5
2A2
100
AcDbEntity
8
0
100
AcDbLine
62
7
6
CONTINUOUS
10
131.9722731303
20
123.2955913952
11
131.9722731303
21
122.7266579426
0
LINE
5
2A3
100
AcDbEntity
8
0
100
AcDbLine
62
7
6
CONTINUOUS
10
131.9722731303
20
120.6405697017
11
131.9722731303
21
118.3648369766
0
LINE
5
2A4
100
AcDbEntity
8
0
100
AcDbLine
62
7
6
CONTINUOUS
10
132.4722731303
20
195.3648369766
11
132.4722731303
21
224.3648369766
0
LINE
5
2A5
100
AcDbEntity
8
0
100
AcDbLine
62
7
6
CONTINUOUS
10
132.6105709265
20
118.9337701579
11
132.6105709265
21
120.7353918082
0
LINE
5
2A6
100
AcDbEntity
8
0
100
AcDbLine
62
7
6
CONTINUOUS
10
132.6105709265
20
168.9998901098
11
132.6105709265
21
170.8015104037
0
LINE
5
2A7
100
AcDbEntity
8
0
100
AcDbLine
62
7
6
CONTINUOUS
10
132.7382304858
20
127.4677678770
11
132.7382304858
21
129.1745674208
0
LINE
5
2A8
100
AcDbEntity
8
0
100
AcDbLine
62
7
6
CONTINUOUS
10
132.0999326895
20
171.1808020849
11
131.9722731303
21
170.7066896537
0
LINE
5
2A9
100
AcDbEntity
8
0
100
AcDbLine
62
7
6
CONTINUOUS
10
132.6105709265
20
170.8015104037
11
132.7382304858
21
171.0859769943
0
LINE
5
2AA
100
AcDbEntity
8
0
100
AcDbLine
62
7
6
CONTINUOUS
10
132.4829113673
20
158.8539135970
11
132.0999326895
21
158.3798055063
0
LINE
5
2AB
100
AcDbEntity
8
0
100
AcDbLine
62
7
6
CONTINUOUS
10
133.5041881989
20
161.7934045939
11
133.2488687228
21
161.5089380033
0
LINE
5
2AC
100
AcDbEntity
8
0
100
AcDbLine
62
7
6
CONTINUOUS
10
132.7382304858
20
158.2849804157
11
132.9935496043
21
158.5694470063
0
LINE
5
2AD
100
AcDbEntity
8
0
100
AcDbLine
62
7
6
CONTINUOUS
10
132.8658900450
20
159.1383801876
11
132.4829113673
21
158.8539135970
0
LINE
5
2AE
100
AcDbEntity
8
0
100
AcDbLine
62
7
6
CONTINUOUS
10
136.9509965669
20
157.0522933031
11
136.1850391219
21
156.6730059625
0
LINE
5
2AF
100
AcDbEntity
8
0
100
AcDbLine
62
7
6
CONTINUOUS
10
136.5680177997
20
156.2937142812
11
137.0786561261
21
156.4833601219
0
LINE
5
2B0
100
AcDbEntity
8
0
100
AcDbLine
62
7
6
CONTINUOUS
10
134.7807837914
20
171.5600894256
11
134.2701455544
21
171.8445560162
0
LINE
5
2B1
100
AcDbEntity
8
0
100
AcDbLine
62
7
6
CONTINUOUS
10
134.1424859951
20
171.2756228349
11
134.3978051136
21
171.0859769943
0
LINE
5
2B2
100
AcDbEntity
8
0
100
AcDbLine
62
7
6
CONTINUOUS
10
135.1637624691
20
171.1808020849
11
134.7807837914
21
171.5600894256
0
LINE
5
2B3
100
AcDbEntity
8
0
100
AcDbLine
62
7
6
CONTINUOUS
10
137.8446135598
20
158.3798055063
11
137.4616348486
21
158.8539135970
0
LINE
5
2B4
100
AcDbEntity
8
0
100
AcDbLine
62
7
6
CONTINUOUS
10
137.9722731303
20
129.1745674208
11
137.8446135598
21
129.6486787669
0
LINE
5
2B5
100
AcDbEntity
8
0
100
AcDbLine
62
7
6
CONTINUOUS
10
132.7382304858
20
157.3367598938
11
132.6105709265
21
157.8108723250
0
LINE
5
2B6
100
AcDbEntity
8
0
100
AcDbLine
62
7
6
CONTINUOUS
10
131.9722731303
20
157.8108723250
11
132.0999326895
21
157.2419391438
0
LINE
5
2B7
100
AcDbEntity
8
0
100
AcDbLine
62
7
6
CONTINUOUS
10
134.3978051136
20
148.3286519137
11
134.3978051136
21
145.6736296777
0
LINE
5
2B8
100
AcDbEntity
8
0
100
AcDbLine
62
7
6
CONTINUOUS
10
134.5254646729
20
170.8015104037
11
134.5254646729
21
168.9998901098
0
LINE
5
2B9
100
AcDbEntity
8
0
100
AcDbLine
62
7
6
CONTINUOUS
10
134.5254646729
20
120.7353918082
11
134.5254646729
21
118.9337701579
0
LINE
5
2BA
100
AcDbEntity
8
0
100
AcDbLine
62
7
6
CONTINUOUS
10
135.1637624691
20
145.6736296777
11
135.1637624691
21
148.3286519137
0
LINE
5
2BB
100
AcDbEntity
8
0
100
AcDbLine
62
7
6
CONTINUOUS
10
135.2914220284
20
118.9337701579
11
135.2914220284
21
120.5457474596
0
LINE
5
2BC
100
AcDbEntity
8
0
100
AcDbLine
62
7
6
CONTINUOUS
10
135.2914220284
20
168.9998901098
11
135.2914220284
21
170.7066896537
0
LINE
5
2BD
100
AcDbEntity
8
0
100
AcDbLine
62
7
6
CONTINUOUS
10
137.2063156854
20
129.1745674208
11
137.2063156854
21
127.4677678770
0
LINE
5
2BE
100
AcDbEntity
8
0
100
AcDbLine
62
7
6
CONTINUOUS
10
137.2063156854
20
124.6231019706
11
137.2063156854
21
124.2438130023
0
LINE
5
2BF
100
AcDbEntity
8
0
100
AcDbLine
62
7
6
CONTINUOUS
10
132.0999326895
20
158.3798055063
11
131.9722731303
21
157.8108723250
0
LINE
5
2C0
100
AcDbEntity
8
0
100
AcDbLine
62
7
6
CONTINUOUS
10
132.6105709265
20
157.8108723250
11
132.7382304858
21
158.2849804157
0
LINE
5
2C1
100
AcDbEntity
8
0
100
AcDbLine
62
7
6
CONTINUOUS
10
114.7937984132
20
97.3753840865
11
117.0954834047
21
103.6992116273
0
LINE
5
2C2
100
AcDbEntity
8
0
100
AcDbLine
62
7
6
CONTINUOUS
10
114.9899444269
20
123.2311994539
11
115.0493409863
21
123.3454668162
0
LINE
5
2C3
100
AcDbEntity
8
0
100
AcDbLine
62
7
6
CONTINUOUS
10
137.4616348486
20
156.7678267125
11
137.8446135598
21
157.2419391438
0
LINE
5
2C4
100
AcDbEntity
8
0
100
AcDbLine
62
7
6
CONTINUOUS
10
136.4403582404
20
160.2762465501
11
136.6956773589
21
160.5607131408
0
LINE
5
2C5
100
AcDbEntity
8
0
100
AcDbLine
62
7
6
CONTINUOUS
10
137.2063156854
20
157.3367598938
11
136.9509965669
21
157.0522933031
0
LINE
5
2C6
100
AcDbEntity
8
0
100
AcDbLine
62
7
6
CONTINUOUS
10
137.0786561261
20
156.4833601219
11
137.4616348486
21
156.7678267125
0
LINE
5
2C7
100
AcDbEntity
8
0
100
AcDbLine
62
7
6
CONTINUOUS
10
134.3978051136
20
171.0859769943
11
134.5254646729
21
170.8015104037
0
LINE
5
2C8
100
AcDbEntity
8
0
100
AcDbLine
62
7
6
CONTINUOUS
10
137.2063156854
20
158.2849804157
11
137.3339752446
21
157.8108723250
0
LINE
5
2C9
100
AcDbEntity
8
0
100
AcDbLine
62
7
6
CONTINUOUS
10
135.2914220284
20
170.7066896537
11
135.1637624691
21
171.1808020849
0
LINE
5
2CA
100
AcDbEntity
8
0
100
AcDbLine
62
7
6
CONTINUOUS
10
137.9722731303
20
157.8108723250
11
137.8446135598
21
158.3798055063
0
LINE
5
2CB
100
AcDbEntity
8
0
100
AcDbLine
62
7
6
CONTINUOUS
10
137.9722731303
20
118.3648369766
11
137.9722731303
21
118.9337701579
0
LINE
5
2CC
100
AcDbEntity
8
0
100
AcDbLine
62
7
6
CONTINUOUS
10
137.9722731303
20
121.3043249895
11
137.9722731303
21
121.9680805485
0
LINE
5
2CD
100
AcDbEntity
8
0
100
AcDbLine
62
7
6
CONTINUOUS
10
137.9722731303
20
124.2438130023
11
137.9722731303
21
124.6231019706
0
LINE
5
2CE
100
AcDbEntity
8
0
100
AcDbLine
62
7
6
CONTINUOUS
10
137.9722731303
20
126.8988346957
11
137.9722731303
21
129.1745674208
0
LINE
5
2CF
100
AcDbEntity
8
0
100
AcDbLine
62
7
6
CONTINUOUS
10
137.9722731303
20
137.5189214696
11
137.9722731303
21
138.2774983212
0
LINE
5
2D0
100
AcDbEntity
8
0
100
AcDbLine
62
7
6
CONTINUOUS
10
137.9722731303
20
142.0703869197
11
137.9722731303
21
142.8289637713
0
LINE
5
2D1
100
AcDbEntity
8
0
100
AcDbLine
62
7
6
CONTINUOUS
10
137.9722731303
20
145.1046964964
11
137.9722731303
21
145.6736296777
0
LINE
5
2D2
100
AcDbEntity
8
0
100
AcDbLine
62
7
6
CONTINUOUS
10
137.9722731303
20
148.3286519137
11
137.9722731303
21
148.8975850950
0
LINE
5
2D3
100
AcDbEntity
8
0
100
AcDbLine
62
7
6
CONTINUOUS
10
137.9722731303
20
154.7765605781
11
137.9722731303
21
155.3454937593
0
LINE
5
2D4
100
AcDbEntity
8
0
100
AcDbLine
62
7
6
CONTINUOUS
10
137.9722731303
20
164.0691373190
11
137.9722731303
21
164.8277120003
0
LINE
5
2D5
100
AcDbEntity
8
0
100
AcDbLine
62
7
6
CONTINUOUS
10
137.9722731303
20
167.1034447254
11
137.9722731303
21
167.6723779067
0
LINE
5
2D6
100
AcDbEntity
8
0
100
AcDbLine
62
7
6
CONTINUOUS
10
137.9722731303
20
168.4309569286
11
137.9722731303
21
168.9998901098
0
LINE
5
2D7
100
AcDbEntity
8
0
100
AcDbLine
62
7
6
CONTINUOUS
10
137.8446135598
20
157.2419391438
11
137.9722731303
21
157.8108723250
0
LINE
5
2D8
100
AcDbEntity
8
0
100
AcDbLine
62
7
6
CONTINUOUS
10
137.3339752446
20
157.8108723250
11
137.2063156854
21
157.3367598938
0
LINE
5
2D9
100
AcDbEntity
8
0
100
AcDbLine
62
7
6
CONTINUOUS
10
132.0999326895
20
129.6486787669
11
131.9722731303
21
129.1745674208
0
LINE
5
2DA
100
AcDbEntity
8
0
100
AcDbLine
62
7
6
CONTINUOUS
10
132.0999326895
20
121.1146807766
11
131.9722731303
21
120.6405697017
0
LINE
5
2DB
100
AcDbEntity
8
0
100
AcDbLine
62
7
6
CONTINUOUS
10
145.9722731303
20
129.3648369766
11
145.9722731303
21
162.8110353553
0
LINE
5
2DC
100
AcDbEntity
8
0
100
AcDbLine
62
7
6
CONTINUOUS
10
137.8446135598
20
123.7697021987
11
137.9722731303
21
124.2438130023
0
LINE
5
2DD
100
AcDbEntity
8
0
100
AcDbLine
62
7
6
CONTINUOUS
10
132.7382304858
20
129.1745674208
11
132.8658900450
21
129.5538558466
0
LINE
5
2DE
100
AcDbEntity
8
0
100
AcDbLine
62
7
6
CONTINUOUS
10
137.2063156854
20
124.2438130023
11
137.0786561261
21
123.8645245765
0
LINE
5
2DF
100
AcDbEntity
8
0
100
AcDbLine
62
7
6
CONTINUOUS
10
132.6105709265
20
120.7353918082
11
132.7382304858
21
121.0198583988
0
LINE
5
2E0
100
AcDbEntity
8
0
100
AcDbLine
62
7
6
CONTINUOUS
10
132.3552518080
20
130.0279671927
11
132.0999326895
21
129.6486787669
0
LINE
5
2E1
100
AcDbEntity
8
0
100
AcDbLine
62
7
6
CONTINUOUS
10
132.8658900450
20
129.5538558466
11
133.1212091635
21
129.8383224372
0
LINE
5
2E2
100
AcDbEntity
8
0
100
AcDbLine
62
7
6
CONTINUOUS
10
132.8658900450
20
130.4072556185
11
132.3552518080
21
130.0279671927
0
LINE
5
2E3
100
AcDbEntity
8
0
100
AcDbLine
62
7
6
CONTINUOUS
10
133.1212091635
20
129.8383224372
11
133.5041881989
21
130.0279671927
0
LINE
5
2E4
100
AcDbEntity
8
0
100
AcDbLine
62
7
6
CONTINUOUS
10
133.3765282820
20
130.5969003740
11
132.8658900450
21
130.4072556185
0
LINE
5
2E5
100
AcDbEntity
8
0
100
AcDbLine
62
7
6
CONTINUOUS
10
137.5892944078
20
123.3904132304
11
137.8446135598
21
123.7697021987
0
LINE
5
2E6
100
AcDbEntity
8
0
100
AcDbLine
62
7
6
CONTINUOUS
10
132.4829113673
20
121.4939694736
11
132.0999326895
21
121.1146807766
0
LINE
5
2E7
100
AcDbEntity
8
0
100
AcDbLine
62
7
6
CONTINUOUS
10
137.0786561261
20
123.8645245765
11
136.8233369182
21
123.5800579858
0
LINE
5
2E8
100
AcDbEntity
8
0
100
AcDbLine
62
7
6
CONTINUOUS
10
132.7382304858
20
121.0198583988
11
132.9935496043
21
121.2095028830
0
LINE
5
2E9
100
AcDbEntity
8
0
100
AcDbLine
62
7
6
CONTINUOUS
10
137.0786561261
20
123.0111248046
11
137.5892944078
21
123.3904132304
0
LINE
5
2EA
100
AcDbEntity
8
0
100
AcDbLine
62
7
6
CONTINUOUS
10
132.9935496043
20
121.7784360643
11
132.4829113673
21
121.4939694736
0
LINE
5
2EB
100
AcDbEntity
8
0
100
AcDbLine
62
7
6
CONTINUOUS
10
136.8233369182
20
123.5800579858
11
136.4403582404
21
123.3904132304
0
LINE
5
2EC
100
AcDbEntity
8
0
100
AcDbLine
62
7
6
CONTINUOUS
10
136.5680177997
20
122.8214803204
11
137.0786561261
21
123.0111248046
0
LINE
5
2ED
100
AcDbEntity
8
0
100
AcDbLine
62
7
6
CONTINUOUS
10
137.9722731303
20
121.9680805485
11
135.0361029099
21
121.1146807766
0
LINE
5
2EE
100
AcDbEntity
8
0
100
AcDbLine
62
7
6
CONTINUOUS
10
103.3722731303
20
212.3648369766
11
114.5722731303
21
212.3648369766
0
LINE
5
2EF
100
AcDbEntity
8
DEFAULT_1
100
AcDbLine
62
2
6
CENTER
10
81.7787900302
20
218.3648369766
11
135.7406297897
21
218.3648369766
0
LINE
5
2F0
100
AcDbEntity
8
0
100
AcDbLine
62
7
6
CONTINUOUS
10
132.4722731303
20
224.3648369766
11
125.7593279301
21
232.3650135358
0
LINE
5
2F1
100
AcDbEntity
8
0
100
AcDbLine
62
7
6
CONTINUOUS
10
85.4722731303
20
222.3648369766
11
94.1379268846
21
222.3648369766
0
LINE
5
2F2
100
AcDbEntity
8
0
100
AcDbLine
62
7
6
CONTINUOUS
10
123.8066193759
20
222.3648369766
11
132.4722731303
21
222.3648369766
0
LINE
5
2F3
100
AcDbEntity
8
0
100
AcDbLine
62
7
6
CONTINUOUS
10
103.3722731303
20
224.3648369766
11
114.5722731303
21
224.3648369766
0
LINE
5
2F4
100
AcDbEntity
8
0
100
AcDbLine
62
7
6
CONTINUOUS
10
92.1631309314
20
232.3648369766
11
95.4448262231
21
232.3648369766
0
LINE
5
2F5
100
AcDbEntity
8
0
100
AcDbLine
62
7
6
CONTINUOUS
10
122.4997200375
20
232.3648369766
11
125.7814153291
21
232.3648369766
0
LINE
5
2F6
100
AcDbEntity
8
0
100
AcDbLine
62
7
6
CONTINUOUS
10
301.3771299929
20
97.3648369766
11
289.3771299929
21
97.3648369766
0
LINE
5
2F7
100
AcDbEntity
8
0
100
AcDbLine
62
7
6
CONTINUOUS
10
278.0487028682
20
103.6992116273
11
284.3725304089
21
97.3753840865
0
LINE
5
2F8
100
AcDbEntity
8
0
100
AcDbLine
62
7
6
CONTINUOUS
10
309.3771299929
20
118.3648369766
11
309.8771299929
21
118.3648369766
0
LINE
5
2F9
100
AcDbEntity
8
0
100
AcDbLine
62
7
6
CONTINUOUS
10
281.3771299929
20
222.3648369766
11
283.4903375401
21
225.7610633917
0
LINE
5
2FA
100
AcDbEntity
8
0
100
AcDbLine
62
7
6
CONTINUOUS
10
309.3771299929
20
121.9680805485
11
309.8771299929
21
121.9680805485
0
LINE
5
2FB
100
AcDbEntity
8
0
100
AcDbLine
62
7
6
CONTINUOUS
10
309.3771299929
20
122.7266579426
11
309.8771299929
21
122.7266579426
0
LINE
5
2FC
100
AcDbEntity
8
0
100
AcDbLine
62
7
6
CONTINUOUS
10
275.2959090774
20
129.2093715676
11
283.6704329598
21
123.3454668162
0
LINE
5
2FD
100
AcDbEntity
8
DEFAULT_2
100
AcDbLine
62
8
6
HIDDEN
10
286.6499788186
20
130.3648369766
11
304.1042811672
21
130.3648369766
0
LINE
5
2FE
100
AcDbEntity
8
0
100
AcDbLine
62
7
6
CONTINUOUS
10
285.6271299929
20
130.7990105440
11
277.4449302841
21
134.2721482615
0
LINE
5
2FF
100
AcDbEntity
8
0
100
AcDbLine
62
7
6
CONTINUOUS
10
309.3771299929
20
136.0017655961
11
309.8771299929
21
136.0017655961
0
LINE
5
300
100
AcDbEntity
8
0
100
AcDbLine
62
7
6
CONTINUOUS
10
309.3771299929
20
139.7946541947
11
309.8771299929
21
139.7946541947
0
LINE
5
301
100
AcDbEntity
8
0
100
AcDbLine
62
7
6
CONTINUOUS
10
309.3771299929
20
140.5532310463
11
309.8771299929
21
140.5532310463
0
LINE
5
302
100
AcDbEntity
8
0
100
AcDbLine
62
7
6
CONTINUOUS
10
309.3771299929
20
144.3461196448
11
309.8771299929
21
144.3461196448
0
LINE
5
303
100
AcDbEntity
8
0
100
AcDbLine
62
7
6
CONTINUOUS
10
309.3771299929
20
145.1046964964
11
309.8771299929
21
145.1046964964
0
LINE
5
304
100
AcDbEntity
8
0
100
AcDbLine
62
7
6
CONTINUOUS
10
281.3771299929
20
117.9427835959
11
281.3771299929
21
124.9512548410
0
LINE
5
305
100
AcDbEntity
8
0
100
AcDbLine
62
7
6
CONTINUOUS
10
281.3771299929
20
132.6030285128
11
281.3771299929
21
222.3648369766
0
LINE
5
306
100
AcDbEntity
8
0
100
AcDbLine
62
7
6
CONTINUOUS
10
309.3771299929
20
148.8975850950
11
309.8771299929
21
148.8975850950
0
LINE
5
307
100
AcDbEntity
8
0
100
AcDbLine
62
7
6
CONTINUOUS
10
283.8771299929
20
171.1438198897
11
283.8771299929
21
158.3883360524
0
LINE
5
308
100
AcDbEntity
8
0
100
AcDbLine
62
7
6
CONTINUOUS
10
285.6271299929
20
127.9551561507
11
285.6271299929
21
153.5802505684
0
LINE
5
309
100
AcDbEntity
8
0
100
AcDbLine
62
7
6
CONTINUOUS
10
291.2909736766
20
177.3647733903
11
283.8771299929
21
171.1438198897
0
LINE
5
30A
100
AcDbEntity
8
0
100
AcDbLine
62
7
6
CONTINUOUS
10
309.3771299929
20
154.2076273968
11
309.8771299929
21
154.2076273968
0
LINE
5
30B
100
AcDbEntity
8
0
100
AcDbLine
62
7
6
CONTINUOUS
10
309.3771299929
20
155.3454937593
11
309.8771299929
21
155.3454937593
0
LINE
5
30C
100
AcDbEntity
8
0
100
AcDbLine
62
7
6
CONTINUOUS
10
285.6271299929
20
153.5802505684
11
283.8771299929
21
158.3883360524
0
LINE
5
30D
100
AcDbEntity
8
0
100
AcDbLine
62
7
6
CONTINUOUS
10
277.4449302841
20
134.2721482615
11
275.2959090774
21
129.2093715676
0
LINE
5
30E
100
AcDbEntity
8
0
100
AcDbLine
62
7
6
CONTINUOUS
10
309.3771299929
20
156.1040727812
11
309.8771299929
21
156.1040727812
0
LINE
5
30F
100
AcDbEntity
8
0
100
AcDbLine
62
7
6
CONTINUOUS
10
309.3771299929
20
159.5176718689
11
309.8771299929
21
159.5176718689
0
LINE
5
310
100
AcDbEntity
8
0
100
AcDbLine
62
7
6
CONTINUOUS
10
309.3771299929
20
160.2762465501
11
309.8771299929
21
160.2762465501
0
LINE
5
311
100
AcDbEntity
8
0
100
AcDbLine
62
7
6
CONTINUOUS
10
313.5591494067
20
108.0905632660
11
305.1271299929
21
127.9551561507
0
LINE
5
312
100
AcDbEntity
8
0
100
AcDbLine
62
7
6
CONTINUOUS
10
291.9559140212
20
177.3648369766
11
291.9559140212
21
195.5846291375
0
LINE
5
313
100
AcDbEntity
8
DEFAULT_1
100
AcDbLine
62
2
6
CENTER
10
295.3771299929
20
218.3648369766
11
295.3771299929
21
94.8252439394
0
LINE
5
314
100
AcDbEntity
8
DEFAULT_1
100
AcDbLine
62
2
6
CENTER
10
295.3771299929
20
218.3648369766
11
295.3771299929
21
238.4929211372
0
LINE
5
315
100
AcDbEntity
8
0
100
AcDbLine
62
7
6
CONTINUOUS
10
309.3771299929
20
161.7934045939
11
309.8771299929
21
161.7934045939
0
LINE
5
316
100
AcDbEntity
8
0
100
AcDbLine
62
7
6
CONTINUOUS
10
309.3771299929
20
162.5519792752
11
309.8771299929
21
162.5519792752
0
LINE
5
317
100
AcDbEntity
8
0
100
AcDbLine
62
7
6
CONTINUOUS
10
298.7983459646
20
177.3648369766
11
298.7983459646
21
195.5846291375
0
LINE
5
318
100
AcDbEntity
8
0
100
AcDbLine
62
7
6
CONTINUOUS
10
309.3771299929
20
166.3448700441
11
309.8771299929
21
166.3448700441
0
LINE
5
319
100
AcDbEntity
8
0
100
AcDbLine
62
7
6
CONTINUOUS
10
309.3771299929
20
167.1034447254
11
309.8771299929
21
167.1034447254
0
LINE
5
31A
100
AcDbEntity
8
0
100
AcDbLine
62
7
6
CONTINUOUS
10
309.3771299929
20
167.6723779067
11
309.8771299929
21
167.6723779067
0
LINE
5
31B
100
AcDbEntity
8
0
100
AcDbLine
62
7
6
CONTINUOUS
10
309.3771299929
20
168.4309569286
11
309.8771299929
21
168.4309569286
0
LINE
5
31C
100
AcDbEntity
8
0
100
AcDbLine
62
7
6
CONTINUOUS
10
313.3093297017
20
134.2721482615
11
315.4583509084
21
129.2093715676
0
LINE
5
31D
100
AcDbEntity
8
0
100
AcDbLine
62
7
6
CONTINUOUS
10
305.1271299929
20
127.9551561507
11
305.1271299929
21
153.5802505684
0
LINE
5
31E
100
AcDbEntity
8
0
100
AcDbLine
62
7
6
CONTINUOUS
10
277.1951105791
20
108.0905632660
11
285.6271299929
21
127.9551561507
0
LINE
5
31F
100
AcDbEntity
8
0
100
AcDbLine
62
7
6
CONTINUOUS
10
309.3771299929
20
171.9393767662
11
309.8771299929
21
171.9393767662
0
LINE
5
320
100
AcDbEntity
8
0
100
AcDbLine
62
7
6
CONTINUOUS
10
306.8771299929
20
171.1438198897
11
306.8771299929
21
158.3883360524
0
LINE
5
321
100
AcDbEntity
8
0
100
AcDbLine
62
7
6
CONTINUOUS
10
309.3771299929
20
117.9427835959
11
309.3771299929
21
124.9512548410
0
LINE
5
322
100
AcDbEntity
8
0
100
AcDbLine
62
7
6
CONTINUOUS
10
309.3771299929
20
132.6030285128
11
309.3771299929
21
222.3648369766
0
LINE
5
323
100
AcDbEntity
8
0
100
AcDbLine
62
7
6
CONTINUOUS
10
309.8771299929
20
171.9393767662
11
309.8771299929
21
168.4309569286
0
LINE
5
324
100
AcDbEntity
8
0
100
AcDbLine
62
7
6
CONTINUOUS
10
309.8771299929
20
167.6723779067
11
309.8771299929
21
167.1034447254
0
LINE
5
325
100
AcDbEntity
8
0
100
AcDbLine
62
7
6
CONTINUOUS
10
309.8771299929
20
166.3448700441
11
309.8771299929
21
162.5519792752
0
LINE
5
326
100
AcDbEntity
8
0
100
AcDbLine
62
7
6
CONTINUOUS
10
309.8771299929
20
161.7934045939
11
309.8771299929
21
160.2762465501
0
LINE
5
327
100
AcDbEntity
8
0
100
AcDbLine
62
7
6
CONTINUOUS
10
309.8771299929
20
159.5176718689
11
309.8771299929
21
156.1040727812
0
LINE
5
328
100
AcDbEntity
8
0
100
AcDbLine
62
7
6
CONTINUOUS
10
309.8771299929
20
155.3454937593
11
309.8771299929
21
154.2076273968
0
LINE
5
329
100
AcDbEntity
8
0
100
AcDbLine
62
7
6
CONTINUOUS
10
309.8771299929
20
148.8975850950
11
309.8771299929
21
145.1046964964
0
LINE
5
32A
100
AcDbEntity
8
0
100
AcDbLine
62
7
6
CONTINUOUS
10
309.8771299929
20
144.3461196448
11
309.8771299929
21
140.5532310463
0
LINE
5
32B
100
AcDbEntity
8
0
100
AcDbLine
62
7
6
CONTINUOUS
10
309.8771299929
20
139.7946541947
11
309.8771299929
21
136.0017655961
0
LINE
5
32C
100
AcDbEntity
8
0
100
AcDbLine
62
7
6
CONTINUOUS
10
309.8771299929
20
125.2868575297
11
309.8771299929
21
122.7266579426
0
LINE
5
32D
100
AcDbEntity
8
0
100
AcDbLine
62
7
6
CONTINUOUS
10
309.8771299929
20
121.9680805485
11
309.8771299929
21
118.3648369766
0
LINE
5
32E
100
AcDbEntity
8
0
100
AcDbLine
62
7
6
CONTINUOUS
10
305.1271299929
20
153.5802505684
11
306.8771299929
21
158.3883360524
0
LINE
5
32F
100
AcDbEntity
8
0
100
AcDbLine
62
7
6
CONTINUOUS
10
291.2909706976
20
177.3647708905
11
291.2991103879
21
177.3648369078
0
LINE
5
330
100
AcDbEntity
8
0
100
AcDbLine
62
7
6
CONTINUOUS
10
291.2987734850
20
177.3648369766
11
299.4554865008
21
177.3648369766
0
LINE
5
331
100
AcDbEntity
8
0
100
AcDbLine
62
7
6
CONTINUOUS
10
299.4632892882
20
177.3647708905
11
299.4551495979
21
177.3648369078
0
LINE
5
332
100
AcDbEntity
8
0
100
AcDbLine
62
7
6
CONTINUOUS
10
299.4632863092
20
177.3647733903
11
306.8771299929
21
171.1438198897
0
LINE
5
333
100
AcDbEntity
8
0
100
AcDbLine
62
7
6
CONTINUOUS
10
305.1271299929
20
130.7990105440
11
313.3093297017
21
134.2721482615
0
LINE
5
334
100
AcDbEntity
8
0
100
AcDbLine
62
7
6
CONTINUOUS
10
315.4583509084
20
129.2093715676
11
307.0838270260
21
123.3454668162
0
LINE
5
335
100
AcDbEntity
8
0
100
AcDbLine
62
7
6
CONTINUOUS
10
309.3771299929
20
222.3648369766
11
307.2639224457
21
225.7610633917
0
LINE
5
336
100
AcDbEntity
8
0
100
AcDbLine
62
7
6
CONTINUOUS
10
306.3817295769
20
97.3753840865
11
312.7055571177
21
103.6992116273
0
LINE
5
337
100
AcDbEntity
8
DEFAULT_1
100
AcDbLine
62
2
6
CENTER
10
295.3771299929
20
218.3648369766
11
278.8841399125
21
218.3648369766
0
LINE
5
338
100
AcDbEntity
8
DEFAULT_1
100
AcDbLine
62
2
6
CENTER
10
295.3771299929
20
218.3648369766
11
310.8102904009
21
218.3648369766
0
LINE
5
339
100
AcDbEntity
8
0
100
AcDbLine
62
7
6
CONTINUOUS
10
308.1326855485
20
224.3648369766
11
296.7271299929
21
224.3648369766
0
LINE
5
33A
100
AcDbEntity
8
0
100
AcDbLine
62
7
6
CONTINUOUS
10
294.0271299929
20
224.3648369766
11
282.6215744374
21
224.3648369766
0
ARC
5
33B
100
AcDbEntity
8
0
100
AcDbCircle
62
7
6
CONTINUOUS
10
108.9722731303
20
265.7266142101
40
36.0000000000
100
AcDbArc
50
247.9285574823
51
261.0509819347
0
ARC
5
33C
100
AcDbEntity
8
0
100
AcDbCircle
62
7
6
CONTINUOUS
10
108.9722731303
20
265.7266142101
40
36.0000000000
100
AcDbArc
50
278.9490180653
51
292.0714425177
0
ARC
5
33D
100
AcDbEntity
8
0
100
AcDbCircle
62
7
6
CONTINUOUS
10
90.9722731303
20
156.9971941655
40
12.0000000000
100
AcDbArc
50
0.0000000000
51
40.0000009506
0
ARC
5
33E
100
AcDbEntity
8
0
100
AcDbCircle
62
7
6
CONTINUOUS
10
58.9722731303
20
149.2924179133
40
23.0000000000
100
AcDbArc
50
0.0000000000
51
27.6604498993
0
ARC
5
33F
100
AcDbEntity
8
0
100
AcDbCircle
62
7
6
CONTINUOUS
10
89.9722731303
20
165.5404947226
40
12.0000000000
100
AcDbArc
50
130.0000000000
51
207.6604498993
0
ARC
5
340
100
AcDbEntity
8
0
100
AcDbCircle
62
7
6
CONTINUOUS
10
87.2151407406
20
172.3648369766
40
5.0000000000
100
AcDbArc
50
40.0000000000
51
130.0000000000
0
CIRCLE
5
341
100
AcDbEntity
8
0
100
AcDbCircle
62
7
6
CONTINUOUS
10
91.2722731303
20
218.3648369766
40
2.5000000000
0
ARC
5
342
100
AcDbEntity
8
0
100
AcDbCircle
62
7
6
CONTINUOUS
10
155.4722731303
20
195.3648369766
40
23.0000000000
100
AcDbArc
50
180.0000000000
51
225.0473854725
0
ARC
5
343
100
AcDbEntity
8
0
100
AcDbCircle
62
7
6
CONTINUOUS
10
122.9722731303
20
162.8110353553
40
23.0000000000
100
AcDbArc
50
0.0000000000
51
45.0473854725
0
ARC
5
344
100
AcDbEntity
8
0
100
AcDbCircle
62
7
6
CONTINUOUS
10
108.9722731303
20
204.9648369766
40
5.6000000000
100
AcDbArc
50
180.0000000000
51
360.0000000000
0
ARC
5
345
100
AcDbEntity
8
0
100
AcDbCircle
62
7
6
CONTINUOUS
10
104.9722731303
20
208.1189875264
40
19.5000000000
100
AcDbArc
50
180.0000000000
51
220.0000000000
0
ARC
5
346
100
AcDbEntity
8
0
100
AcDbCircle
62
7
6
CONTINUOUS
10
102.9722731303
20
161.4971941655
40
12.0000000000
100
AcDbArc
50
0.0000000000
51
40.0000000000
0
ARC
5
347
100
AcDbEntity
8
0
100
AcDbCircle
62
7
6
CONTINUOUS
10
107.9722731303
20
135.3648369766
40
5.0000000000
100
AcDbArc
50
180.0000000000
51
233.1030912599
0
ARC
5
348
100
AcDbEntity
8
0
100
AcDbCircle
62
7
6
CONTINUOUS
10
109.9722731303
20
135.3648369766
40
5.0000000000
100
AcDbArc
50
306.8969087392
51
360.0000000000
0
ARC
5
349
100
AcDbEntity
8
0
100
AcDbCircle
62
7
6
CONTINUOUS
10
113.9722731303
20
129.3648369766
40
32.0000000000
100
AcDbArc
50
180.0000000000
51
360.0000000000
0
ARC
5
34A
100
AcDbEntity
8
0
100
AcDbCircle
62
7
6
CONTINUOUS
10
102.9722731303
20
161.4971941655
40
24.1038669902
100
AcDbArc
50
0.0000000000
51
40.0000000000
0
ARC
5
34B
100
AcDbEntity
8
0
100
AcDbCircle
62
7
6
CONTINUOUS
10
295.3771299929
20
218.3648369766
40
14.0000000000
100
AcDbArc
50
31.8907918018
51
148.1092081982
0
CIRCLE
5
34C
100
AcDbEntity
8
0
100
AcDbCircle
62
7
6
CONTINUOUS
10
295.3771299929
20
218.3648369766
40
6.1500000000
0
ARC
5
34D
100
AcDbEntity
8
0
100
AcDbCircle
62
7
6
CONTINUOUS
10
309.8771299929
20
106.5276387520
40
4.0000000000
100
AcDbArc
50
315.0000000000
51
23.0000000000
0
ARC
5
34E
100
AcDbEntity
8
0
100
AcDbCircle
62
7
6
CONTINUOUS
10
280.8771299929
20
106.5276387520
40
4.0000000000
100
AcDbArc
50
157.0000000000
51
225.0000000000
0
SPLINE
5
34F
100
AcDbEntity
8
0
100
AcDbSpline
62
7
6
CONTINUOUS
70
0
71
3
72
13
73
9
74
7
42
0.0000001000
43
0.0000001000
44
0.0000000001
40
0.0000000000
40
0.0000000000
40
0.0000000000
40
0.0000000000
40
0.2000804190
40
0.3780666565
40
0.5404994045
40
0.6936683070
40
0.8442769529
40
1.0000000000
40
1.0000000000
40
1.0000000000
40
1.0000000000
10
87.1894695650
20
177.3647733903
30
0.0000000000
10
86.6016574864
20
177.1571280086
30
0.0000000000
10
85.5103172841
20
176.7047440428
30
0.0000000000
10
84.0474595805
20
175.8597058376
30
0.0000000000
10
82.8415162595
20
174.8944762679
30
0.0000000000
10
81.8778375569
20
173.7959988583
30
0.0000000000
10
81.1631120200
20
172.5435853896
30
0.0000000000
10
80.8830366377
20
171.6208888509
30
0.0000000000
10
80.7945753571
20
171.1438198897
30
0.0000000000
11
87.1894695650
21
177.3647733903
31
0.0000000000
11
85.4656140374
21
176.6394604106
31
0.0000000000
11
84.0298641999
21
175.7989006148
31
0.0000000000
11
82.8503307371
21
174.8428662583
31
0.0000000000
11
81.9120567777
21
173.7614367129
31
0.0000000000
11
81.2185425810
21
172.5363117282
31
0.0000000000
11
80.7945753571
21
171.1438198897
31
0.0000000000
0
SPLINE
5
350
100
AcDbEntity
8
0
100
AcDbSpline
62
7
6
CONTINUOUS
70
0
71
3
72
15
73
11
74
9
42
0.0000001000
43
0.0000001000
44
0.0000000001
40
0.0000000000
40
0.0000000000
40
0.0000000000
40
0.0000000000
40
0.1259082512
40
0.2510369831
40
0.3757849940
40
0.5003907237
40
0.6252364343
40
0.7501752346
40
0.8751831543
40
1.0000000000
40
1.0000000000
40
1.0000000000
40
1.0000000000
10
123.8066193759
20
222.3648369766
30
0.0000000000
10
123.7137637931
20
222.2119783667
30
0.0000000000
10
123.5342274651
20
221.9037471336
30
0.0000000000
10
123.2858386846
20
221.4310428972
30
0.0000000000
10
123.0626989318
20
220.9478579564
30
0.0000000000
10
122.8689069742
20
220.4525046762
30
0.0000000000
10
122.7096049927
20
219.9446041161
30
0.0000000000
10
122.5903661204
20
219.4251075031
30
0.0000000000
10
122.5164313561
20
218.8972316927
30
0.0000000000
10
122.4997200375
20
218.5421382973
30
0.0000000000
10
122.4997200375
20
218.3648369766
30
0.0000000000
11
123.8066193759
21
222.3648369766
31
0.0000000000
11
123.5370921966
21
221.9008905092
31
0.0000000000
11
123.2896677301
21
221.4285361642
31
0.0000000000
11
123.0674806988
21
220.9455840146
31
0.0000000000
11
122.8747816924
21
220.4507783401
31
0.0000000000
11
122.7163432436
21
219.9428906029
31
0.0000000000
11
122.5979362410
21
219.4238002982
31
0.0000000000
11
122.5245498847
21
218.8961610805
31
0.0000000000
11
122.4997200375
21
218.3648369766
31
0.0000000000
0
SPLINE
5
351
100
AcDbEntity
8
0
100
AcDbSpline
62
7
6
CONTINUOUS
70
0
71
3
72
10
73
6
74
4
42
0.0000001000
43
0.0000001000
44
0.0000000001
40
0.0000000000
40
0.0000000000
40
0.0000000000
40
0.0000000000
40
0.3277963031
40
0.6611071388
40
1.0000000000
40
1.0000000000
40
1.0000000000
40
1.0000000000
10
93.5632660240
20
153.5802505684
30
0.0000000000
10
93.4752160567
20
153.8726171981
30
0.0000000000
10
93.3010661155
20
154.4633082048
30
0.0000000000
10
93.0477432457
20
155.3597041065
30
0.0000000000
10
92.8841182483
20
155.9641104970
30
0.0000000000
10
92.8032626826
20
156.2692536969
30
0.0000000000
11
93.5632660240
21
153.5802505684
31
0.0000000000
11
93.3041601298
21
154.4588537336
31
0.0000000000
11
93.0507946575
21
155.3551542077
31
0.0000000000
11
92.8032626826
21
156.2692536969
31
0.0000000000
0
SPLINE
5
352
100
AcDbEntity
8
0
100
AcDbSpline
62
7
6
CONTINUOUS
70
0
71
3
72
12
73
8
74
6
42
0.0000001000
43
0.0000001000
44
0.0000000001
40
0.0000000000
40
0.0000000000
40
0.0000000000
40
0.0000000000
40
0.2038750415
40
0.4105629276
40
0.6152603114
40
0.8132553959
40
1.0000000000
40
1.0000000000
40
1.0000000000
40
1.0000000000
10
94.1379268846
20
222.3648369766
30
0.0000000000
10
94.2841219318
20
222.5691759417
30
0.0000000000
10
94.5659825130
20
222.9899497600
30
0.0000000000
10
94.9344398737
20
223.6539566015
30
0.0000000000
10
95.2235086086
20
224.3493671869
30
0.0000000000
10
95.4042162032
20
225.0558976366
30
0.0000000000
10
95.4448262231
20
225.5309229374
30
0.0000000000
10
95.4448262231
20
225.7610633917
30
0.0000000000
11
94.1379268846
21
222.3648369766
31
0.0000000000
11
94.5551770067
21
222.9925701809
31
0.0000000000
11
94.9227034284
21
223.6625376800
31
0.0000000000
11
95.2092291933
21
224.3629962282
31
0.0000000000
11
95.3871824532
21
225.0730525964
31
0.0000000000
11
95.4448262231
21
225.7610633917
31
0.0000000000
0
SPLINE
5
353
100
AcDbEntity
8
0
100
AcDbSpline
62
7
6
CONTINUOUS
70
0
71
3
72
12
73
8
74
6
42
0.0000001000
43
0.0000001000
44
0.0000000001
40
0.0000000000
40
0.0000000000
40
0.0000000000
40
0.0000000000
40
0.1868734550
40
0.3848671287
40
0.5894973325
40
0.7961186127
40
1.0000000000
40
1.0000000000
40
1.0000000000
40
1.0000000000
10
122.4997200375
20
225.7610633917
30
0.0000000000
10
122.4997200375
20
225.5307641729
30
0.0000000000
10
122.5403725519
20
225.0555802896
30
0.0000000000
10
122.7211706115
20
224.3489975069
30
0.0000000000
10
123.0102134291
20
223.6537592909
30
0.0000000000
10
123.3786009304
20
222.9898946361
30
0.0000000000
10
123.6604197967
20
222.5691822763
30
0.0000000000
10
123.8066193759
20
222.3648369766
30
0.0000000000
11
122.4997200375
21
225.7610633917
31
0.0000000000
11
122.5574425574
21
225.0725812334
31
0.0000000000
11
122.7354661464
21
224.3625479672
31
0.0000000000
11
123.0219399602
21
223.6623366229
31
0.0000000000
11
123.3893570581
21
222.9925901321
31
0.0000000000
11
123.8066193759
21
222.3648369766
31
0.0000000000
0
SPLINE
5
354
100
AcDbEntity
8
0
100
AcDbSpline
62
7
6
CONTINUOUS
70
0
71
3
72
14
73
10
74
8
42
0.0000001000
43
0.0000001000
44
0.0000000001
40
0.0000000000
40
0.0000000000
40
0.0000000000
40
0.0000000000
40
0.1035879962
40
0.2184797347
40
0.3456254865
40
0.4860786438
40
0.6410508391
40
0.8118430921
40
1.0000000000
40
1.0000000000
40
1.0000000000
40
1.0000000000
10
102.9722731303
20
142.8648369766
30
0.0000000000
10
102.4765648603
20
142.4975759922
30
0.0000000000
10
101.4807737359
20
141.6544926991
30
0.0000000000
10
100.0636050172
20
140.1568726589
30
0.0000000000
10
98.6645419809
20
138.3550127024
30
0.0000000000
10
97.2966520582
20
136.2392787837
30
0.0000000000
10
95.9710741905
20
133.7967055403
30
0.0000000000
10
94.6990913877
20
131.0104778295
30
0.0000000000
10
93.9346107440
20
129.0124356101
30
0.0000000000
10
93.5632660240
20
127.9551561507
30
0.0000000000
11
102.9722731303
21
142.8648369766
31
0.0000000000
11
101.5547647939
21
141.6748218538
31
0.0000000000
11
100.1379846856
21
140.1893665565
31
0.0000000000
11
98.7386328873
21
138.3998231676
31
0.0000000000
11
97.3699474986
21
136.2964599648
31
0.0000000000
11
96.0432000774
21
133.8661432777
31
0.0000000000
11
94.7701289452
21
131.0928484072
31
0.0000000000
11
93.5632660240
21
127.9551561507
31
0.0000000000
0
SPLINE
5
355
100
AcDbEntity
8
0
100
AcDbSpline
62
7
6
CONTINUOUS
70
0
71
3
72
15
73
11
74
9
42
0.0000001000
43
0.0000001000
44
0.0000000001
40
0.0000000000
40
0.0000000000
40
0.0000000000
40
0.0000000000
40
0.1251723950
40
0.2507355965
40
0.3761708418
40
0.5012149770
40
0.6255801406
40
0.7498209524
40
0.8744112298
40
1.0000000000
40
1.0000000000
40
1.0000000000
40
1.0000000000
10
95.4448262231
20
218.3648369766
30
0.0000000000
10
95.4448262231
20
218.5426432365
30
0.0000000000
10
95.4280058014
20
218.8990320723
30
0.0000000000
10
95.3535479704
20
219.4288613917
30
0.0000000000
10
95.2335064258
20
219.9500012449
30
0.0000000000
10
95.0735569715
20
220.4583750228
30
0.0000000000
10
94.8796743186
20
220.9528507188
30
0.0000000000
10
94.6570695243
20
221.4342654451
30
0.0000000000
10
94.4094834924
20
221.9051975033
30
0.0000000000
10
94.2305467945
20
222.2123663309
30
0.0000000000
10
94.1379268846
20
222.3648369766
30
0.0000000000
11
95.4448262231
21
218.3648369766
31
0.0000000000
11
95.4198552593
21
218.8976709522
31
0.0000000000
11
95.3459041654
21
219.4276203155
31
0.0000000000
11
95.2266298136
21
219.9486821877
31
0.0000000000
11
95.0674883071
21
220.4572357905
31
0.0000000000
11
94.8747824098
21
220.9509380789
31
0.0000000000
11
94.6532600525
21
221.4318163837
31
0.0000000000
11
94.4067943445
21
221.9020821834
31
0.0000000000
11
94.1379268846
21
222.3648369766
31
0.0000000000
0
SPLINE
5
356
100
AcDbEntity
8
0
100
AcDbSpline
62
7
6
CONTINUOUS
70
0
71
3
72
14
73
10
74
8
42
0.0000001000
43
0.0000001000
44
0.0000000001
40
0.0000000000
40
0.0000000000
40
0.0000000000
40
0.0000000000
40
0.1595345191
40
0.3176108457
40
0.4709076792
40
0.6183054017
40
0.7565427342
40
0.8844599200
40
1.0000000000
40
1.0000000000
40
1.0000000000
40
1.0000000000
10
112.9722731303
20
112.5822228782
30
0.0000000000
10
112.9722731303
20
113.1632792832
30
0.0000000000
10
113.0004036232
20
114.3202849683
30
0.0000000000
10
113.1269981397
20
116.0314483919
30
0.0000000000
10
113.3370485285
20
117.6899600785
30
0.0000000000
10
113.6277683472
20
119.2629418852
30
0.0000000000
10
113.9963007551
20
120.7246946201
30
0.0000000000
10
114.4372447602
20
122.0445804426
30
0.0000000000
10
114.7958558015
20
122.8578109024
30
0.0000000000
10
114.9899444269
20
123.2311994539
30
0.0000000000
11
112.9722731303
21
112.5822228782
31
0.0000000000
11
113.0149777798
21
114.3248689195
31
0.0000000000
11
113.1434524356
21
116.0473203489
31
0.0000000000
11
113.3557300134
21
117.7088272734
31
0.0000000000
11
113.6512389740
21
119.2920401360
31
0.0000000000
11
114.0244586639
21
120.7556681421
31
0.0000000000
11
114.4729002756
21
122.0794746648
31
0.0000000000
11
114.9899444269
21
123.2311994539
31
0.0000000000
0
SPLINE
5
357
100
AcDbEntity
8
0
100
AcDbSpline
62
7
6
CONTINUOUS
70
0
71
3
72
16
73
12
74
10
42
0.0000001000
43
0.0000001000
44
0.0000000001
40
0.0000000000
40
0.0000000000
40
0.0000000000
40
0.0000000000
40
0.1624599791
40
0.3088211899
40
0.4408614235
40
0.5600260804
40
0.6675319852
40
0.7643996880
40
0.8515533632
40
0.9298568317
40
1.0000000000
40
1.0000000000
40
1.0000000000
40
1.0000000000
10
127.0761401205
20
117.9427835959
30
0.0000000000
10
126.7772151016
20
119.4426851697
30
0.0000000000
10
126.1341960802
20
122.2797646566
30
0.0000000000
10
124.9873199105
20
126.2707590923
30
0.0000000000
10
123.7387786158
20
129.8016289858
30
0.0000000000
10
122.4084343054
20
132.9082278709
30
0.0000000000
10
121.0123569598
20
135.6184246861
30
0.0000000000
10
119.5645583248
20
137.9536754236
30
0.0000000000
10
118.0781949519
20
139.9306244544
30
0.0000000000
10
116.5685962186
20
141.5611150055
30
0.0000000000
10
115.5028488187
20
142.4717433742
30
0.0000000000
10
114.9722731303
20
142.8648369766
30
0.0000000000
11
127.0761401205
21
117.9427835959
31
0.0000000000
11
126.0562964283
21
122.4162014083
31
0.0000000000
11
124.9085899099
21
126.3872064923
31
0.0000000000
11
123.6589066181
21
129.9006581794
31
0.0000000000
11
122.3272098596
21
132.9914242404
31
0.0000000000
11
120.9296254542
21
135.6868212552
31
0.0000000000
11
119.4806295899
21
138.0073120776
31
0.0000000000
11
117.9940154439
21
139.9690572767
31
0.0000000000
11
116.4844280170
21
141.5851159635
31
0.0000000000
11
114.9722731303
21
142.8648369766
31
0.0000000000
0
SPLINE
5
358
100
AcDbEntity
8
0
100
AcDbSpline
62
7
6
CONTINUOUS
70
0
71
3
72
13
73
9
74
7
42
0.0000001000
43
0.0000001000
44
0.0000000001
40
0.0000000000
40
0.0000000000
40
0.0000000000
40
0.0000000000
40
0.1702527963
40
0.3458238259
40
0.5215976390
40
0.6926166334
40
0.8534667826
40
1.0000000000
40
1.0000000000
40
1.0000000000
40
1.0000000000
10
117.4061655559
20
108.0905634394
30
0.0000000000
10
117.4446489157
20
107.8414741073
30
0.0000000000
10
117.5015434981
20
107.3320658704
30
0.0000000000
10
117.5310177519
20
106.5598407488
30
0.0000000000
10
117.5060381569
20
105.7862777595
30
0.0000000000
10
117.4272025562
20
105.0381441475
30
0.0000000000
10
117.2964357203
20
104.3413109261
30
0.0000000000
10
117.1696777589
20
103.9030589399
30
0.0000000000
10
117.0954834047
20
103.6992116273
30
0.0000000000
11
117.4061655559
21
108.0905634394
31
0.0000000000
11
117.4916153309
21
107.3392735387
31
0.0000000000
11
117.5218530968
21
106.5601067883
31
0.0000000000
11
117.4962354453
21
105.7798733606
31
0.0000000000
11
117.4152202470
21
105.0246698473
31
0.0000000000
11
117.2808194575
21
104.3230523995
31
0.0000000000
11
117.0954834047
21
103.6992116273
31
0.0000000000
0
SPLINE
5
359
100
AcDbEntity
8
0
100
AcDbSpline
62
7
6
CONTINUOUS
70
0
71
3
72
13
73
9
74
7
42
0.0000001000
43
0.0000001000
44
0.0000000001
40
0.0000000000
40
0.0000000000
40
0.0000000000
40
0.0000000000
40
0.1702527963
40
0.3458238259
40
0.5215976390
40
0.6926166334
40
0.8534667826
40
1.0000000000
40
1.0000000000
40
1.0000000000
40
1.0000000000
10
100.5383807046
20
108.0905634394
30
0.0000000000
10
100.4998973448
20
107.8414741073
30
0.0000000000
10
100.4430027624
20
107.3320658704
30
0.0000000000
10
100.4135285086
20
106.5598407488
30
0.0000000000
10
100.4385081036
20
105.7862777595
30
0.0000000000
10
100.5173437043
20
105.0381441475
30
0.0000000000
10
100.6481105402
20
104.3413109261
30
0.0000000000
10
100.7748685017
20
103.9030589399
30
0.0000000000
10
100.8490628558
20
103.6992116273
30
0.0000000000
11
100.5383807046
21
108.0905634394
31
0.0000000000
11
100.4529309296
21
107.3392735387
31
0.0000000000
11
100.4226931637
21
106.5601067883
31
0.0000000000
11
100.4483108152
21
105.7798733606
31
0.0000000000
11
100.5293260136
21
105.0246698473
31
0.0000000000
11
100.6637268030
21
104.3230523995
31
0.0000000000
11
100.8490628558
21
103.6992116273
31
0.0000000000
0
SPLINE
5
35A
100
AcDbEntity
8
0
100
AcDbSpline
62
7
6
CONTINUOUS
70
0
71
3
72
14
73
10
74
8
42
0.0000001000
43
0.0000001000
44
0.0000000001
40
0.0000000000
40
0.0000000000
40
0.0000000000
40
0.0000000000
40
0.1595345191
40
0.3176108457
40
0.4709076792
40
0.6183054017
40
0.7565427342
40
0.8844599200
40
1.0000000000
40
1.0000000000
40
1.0000000000
40
1.0000000000
10
104.9722731303
20
112.5822228782
30
0.0000000000
10
104.9722731303
20
113.1632792832
30
0.0000000000
10
104.9441426374
20
114.3202849683
30
0.0000000000
10
104.8175481208
20
116.0314483919
30
0.0000000000
10
104.6074977320
20
117.6899600785
30
0.0000000000
10
104.3167779133
20
119.2629418852
30
0.0000000000
10
103.9482455055
20
120.7246946201
30
0.0000000000
10
103.5073015003
20
122.0445804426
30
0.0000000000
10
103.1486904590
20
122.8578109024
30
0.0000000000
10
102.9546018336
20
123.2311994539
30
0.0000000000
11
104.9722731303
21
112.5822228782
31
0.0000000000
11
104.9295684807
21
114.3248689195
31
0.0000000000
11
104.8010938249
21
116.0473203489
31
0.0000000000
11
104.5888162472
21
117.7088272734
31
0.0000000000
11
104.2933072865
21
119.2920401360
31
0.0000000000
11
103.9200875966
21
120.7556681421
31
0.0000000000
11
103.4716459849
21
122.0794746648
31
0.0000000000
11
102.9546018336
21
123.2311994539
31
0.0000000000
0
SPLINE
5
35B
100
AcDbEntity
8
0
100
AcDbSpline
62
7
6
CONTINUOUS
70
0
71
3
72
22
73
18
74
16
42
0.0000001000
43
0.0000001000
44
0.0000000001
40
0.0000000000
40
0.0000000000
40
0.0000000000
40
0.0000000000
40
0.1185317541
40
0.2277882630
40
0.3280319308
40
0.4194842035
40
0.5024270686
40
0.5774498737
40
0.6451902621
40
0.7064441579
40
0.7618675047
40
0.8119085803
40
0.8573506755
40
0.8988449711
40
0.9360755221
40
0.9699411739
40
1.0000000000
40
1.0000000000
40
1.0000000000
40
1.0000000000
10
103.3722731303
20
208.6715999141
30
0.0000000000
10
103.0193527631
20
208.7348008337
30
0.0000000000
10
102.3432194802
20
208.8683406230
30
0.0000000000
10
101.3770902087
20
209.0952788528
30
0.0000000000
10
100.4984977559
20
209.3342213728
30
0.0000000000
10
99.7047130302
20
209.5797526943
30
0.0000000000
10
98.9919828012
20
209.8275977806
30
0.0000000000
10
98.3554286780
20
210.0747976527
30
0.0000000000
10
97.7889299173
20
210.3199581089
30
0.0000000000
10
97.2865624551
20
210.5628635780
30
0.0000000000
10
96.8434961955
20
210.8041791635
30
0.0000000000
10
96.4557840097
20
211.0456915023
30
0.0000000000
10
96.1209425444
20
211.2905487828
30
0.0000000000
10
95.8409266741
20
211.5421668930
30
0.0000000000
10
95.6219341498
20
211.8051477353
30
0.0000000000
10
95.4789656468
20
212.0795028007
30
0.0000000000
10
95.4448262231
20
212.2739150736
30
0.0000000000
10
95.4448262231
20
212.3648369766
30
0.0000000000
11
103.3722731303
21
208.6715999141
31
0.0000000000
11
102.3171083040
21
208.8802897930
31
0.0000000000
11
101.3520185787
21
209.1073336909
31
0.0000000000
11
100.4743571426
21
209.3464465853
31
0.0000000000
11
99.6816871917
21
209.5921405461
31
0.0000000000
11
98.9709748550
21
209.8398898330
31
0.0000000000
11
98.3366074659
21
210.0869698359
31
0.0000000000
11
97.7727915638
21
210.3318608111
31
0.0000000000
11
97.2728181052
21
210.5747332660
31
0.0000000000
11
96.8317657734
21
210.8164249591
31
0.0000000000
11
96.4472390931
21
211.0579602355
31
0.0000000000
11
96.1157895993
21
211.3032797576
31
0.0000000000
11
95.8380938581
21
211.5575713308
31
0.0000000000
11
95.6257550092
21
211.8203474939
31
0.0000000000
11
95.4893609638
21
212.0957314415
31
0.0000000000
11
95.4448262231
21
212.3648369766
31
0.0000000000
0
SPLINE
5
35C
100
AcDbEntity
8
0
100
AcDbSpline
62
7
6
CONTINUOUS
70
0
71
3
72
10
73
6
74
4
42
0.0000001000
43
0.0000001000
44
0.0000000001
40
0.0000000000
40
0.0000000000
40
0.0000000000
40
0.0000000000
40
0.3205945419
40
0.6538330601
40
1.0000000000
40
1.0000000000
40
1.0000000000
40
1.0000000000
10
91.4976971404
20
158.3883360524
30
0.0000000000
10
91.7012353772
20
158.2116531585
30
0.0000000000
10
92.0809395124
20
157.8082417337
30
0.0000000000
10
92.5275039144
20
157.0899992559
30
0.0000000000
10
92.7287204170
20
156.5505709477
30
0.0000000000
10
92.8032626826
20
156.2692536969
30
0.0000000000
11
91.4976971404
21
158.3883360524
31
0.0000000000
11
92.0525053409
21
157.8001270841
31
0.0000000000
11
92.4971480538
21
157.0869072536
31
0.0000000000
11
92.8032626826
21
156.2692536969
31
0.0000000000
0
SPLINE
5
35D
100
AcDbEntity
8
0
100
AcDbSpline
62
7
6
CONTINUOUS
70
0
71
3
72
23
73
19
74
17
42
0.0000001000
43
0.0000001000
44
0.0000000001
40
0.0000000000
40
0.0000000000
40
0.0000000000
40
0.0000000000
40
0.0293237159
40
0.0623929941
40
0.0987961430
40
0.1394848002
40
0.1841313076
40
0.2328810086
40
0.2858087614
40
0.3426555782
40
0.4032985002
40
0.4685262237
40
0.5391424424
40
0.6159428045
40
0.6996917288
40
0.7910661149
40
0.8908630107
40
1.0000000000
40
1.0000000000
40
1.0000000000
40
1.0000000000
10
122.4997200375
20
212.3648369766
30
0.0000000000
10
122.4997200375
20
212.2761368138
30
0.0000000000
10
122.4672813780
20
212.0864014441
30
0.0000000000
10
122.3302390733
20
211.8171596595
30
0.0000000000
10
122.1184282532
20
211.5577855157
30
0.0000000000
10
121.8459161554
20
211.3088100380
30
0.0000000000
10
121.5197846169
20
211.0668592214
30
0.0000000000
10
121.1452918636
20
210.8303536339
30
0.0000000000
10
120.7254792866
20
210.5981975403
30
0.0000000000
10
120.2629605039
20
210.3702296141
30
0.0000000000
10
119.7577363358
20
210.1458180440
30
0.0000000000
10
119.2062796664
20
209.9238373790
30
0.0000000000
10
118.6019783736
20
209.7031807378
30
0.0000000000
10
117.9379002593
20
209.4838735290
30
0.0000000000
10
117.2072196469
20
209.2671207935
30
0.0000000000
10
116.4029431831
20
209.0551898458
30
0.0000000000
10
115.5175560896
20
208.8514045641
30
0.0000000000
10
114.8972278833
20
208.7297927563
30
0.0000000000
10
114.5722731303
20
208.6715999141
30
0.0000000000
11
122.4997200375
21
212.3648369766
31
0.0000000000
11
122.4572770714
21
212.1021431156
31
0.0000000000
11
122.3264323491
21
211.8320808828
31
0.0000000000
11
122.1212401509
21
211.5731930366
31
0.0000000000
11
121.8510165513
21
211.3215744517
31
0.0000000000
11
121.5270528781
21
211.0782787702
31
0.0000000000
11
121.1539066998
21
210.8406554861
31
0.0000000000
11
120.7341793387
21
210.6071722616
31
0.0000000000
11
120.2718598614
21
210.3783198522
31
0.0000000000
11
119.7692003059
21
210.1543251939
31
0.0000000000
11
119.2202986357
21
209.9328086255
31
0.0000000000
11
118.6185075466
21
209.7126077288
31
0.0000000000
11
117.9568452659
21
209.4937100574
31
0.0000000000
11
117.2283318578
21
209.2772665962
31
0.0000000000
11
116.4265886813
21
209.0657135134
31
0.0000000000
11
115.5441037284
21
208.8623439162
31
0.0000000000
11
114.5722731303
21
208.6715999141
31
0.0000000000
0
SPLINE
5
35E
100
AcDbEntity
8
0
100
AcDbSpline
62
7
6
CONTINUOUS
70
0
71
3
72
9
73
5
74
3
42
0.0000001000
43
0.0000001000
44
0.0000000001
40
0.0000000000
40
0.0000000000
40
0.0000000000
40
0.0000000000
40
0.7390808774
40
1.0000000000
40
1.0000000000
40
1.0000000000
40
1.0000000000
10
284.3725304089
20
97.3753840865
30
0.0000000000
10
284.9285767161
20
97.3701866290
30
0.0000000000
10
285.6809520959
20
97.3657542242
30
0.0000000000
10
286.4333348280
20
97.3648369645
30
0.0000000000
10
286.6296458460
20
97.3648369518
30
0.0000000000
11
284.3725304089
21
97.3753840865
31
0.0000000000
11
286.0407132439
21
97.3655549325
31
0.0000000000
11
286.6296458460
21
97.3648369518
31
0.0000000000
0
SPLINE
5
35F
100
AcDbEntity
8
0
100
AcDbSpline
62
7
6
CONTINUOUS
70
0
71
3
72
9
73
5
74
3
42
0.0000001000
43
0.0000001000
44
0.0000000001
40
0.0000000000
40
0.0000000000
40
0.0000000000
40
0.0000000000
40
0.7390808774
40
1.0000000000
40
1.0000000000
40
1.0000000000
40
1.0000000000
10
306.3817295769
20
97.3753840865
30
0.0000000000
10
305.8256832697
20
97.3701866290
30
0.0000000000
10
305.0733078899
20
97.3657542242
30
0.0000000000
10
304.3209251578
20
97.3648369645
30
0.0000000000
10
304.1246141399
20
97.3648369518
30
0.0000000000
11
306.3817295769
21
97.3753840865
31
0.0000000000
11
304.7135467419
21
97.3655549325
31
0.0000000000
11
304.1246141399
21
97.3648369518
31
0.0000000000
0
SPLINE
5
360
100
AcDbEntity
8
0
100
AcDbSpline
62
7
6
CONTINUOUS
70
0
71
3
72
9
73
5
74
3
42
0.0000001000
43
0.0000001000
44
0.0000000001
40
0.0000000000
40
0.0000000000
40
0.0000000000
40
0.0000000000
40
0.3929181339
40
1.0000000000
40
1.0000000000
40
1.0000000000
40
1.0000000000
10
304.1246141399
20
97.3648369518
30
0.0000000000
10
303.7647609762
20
97.3648369286
30
0.0000000000
10
302.8489134991
20
97.3668834765
30
0.0000000000
10
301.9330874959
20
97.3741392038
30
0.0000000000
10
301.3771299929
20
97.3804657932
30
0.0000000000
11
304.1246141399
21
97.3648369518
31
0.0000000000
11
303.0450581282
21
97.3672493975
31
0.0000000000
11
301.3771299929
21
97.3804657932
31
0.0000000000
0
SPLINE
5
361
100
AcDbEntity
8
0
100
AcDbSpline
62
7
6
CONTINUOUS
70
0
71
3
72
12
73
8
74
6
42
0.0000001000
43
0.0000001000
44
0.0000000001
40
0.0000000000
40
0.0000000000
40
0.0000000000
40
0.0000000000
40
0.1590209540
40
0.3358608250
40
0.5335900143
40
0.7546629708
40
1.0000000000
40
1.0000000000
40
1.0000000000
40
1.0000000000
10
309.3771299929
20
219.8518422320
30
0.0000000000
10
308.7497303047
20
219.3935691196
30
0.0000000000
10
307.4859357263
20
218.3395228705
30
0.0000000000
10
305.6914590247
20
216.4407886777
30
0.0000000000
10
303.9420216776
20
214.1073767324
30
0.0000000000
10
302.2877046801
20
211.3090053458
30
0.0000000000
10
301.3385055908
20
209.2320193565
30
0.0000000000
10
300.8935691501
20
208.1189875264
30
0.0000000000
11
309.3771299929
21
219.8518422320
31
0.0000000000
11
307.5830894648
21
218.3638166569
31
0.0000000000
11
305.7972735392
21
216.4851440405
31
0.0000000000
11
304.0522329266
21
214.1711871579
31
0.0000000000
11
302.3959061796
21
211.3861358348
31
0.0000000000
11
300.8935691501
21
208.1189875264
31
0.0000000000
0
SPLINE
5
362
100
AcDbEntity
8
0
100
AcDbSpline
62
7
6
CONTINUOUS
70
0
71
3
72
12
73
8
74
6
42
0.0000001000
43
0.0000001000
44
0.0000000001
40
0.0000000000
40
0.0000000000
40
0.0000000000
40
0.0000000000
40
0.1590209540
40
0.3358608250
40
0.5335900143
40
0.7546629708
40
1.0000000000
40
1.0000000000
40
1.0000000000
40
1.0000000000
10
281.3771299929
20
219.8518422320
30
0.0000000000
10
282.0045296811
20
219.3935691196
30
0.0000000000
10
283.2683242596
20
218.3395228705
30
0.0000000000
10
285.0628009612
20
216.4407886777
30
0.0000000000
10
286.8122383082
20
214.1073767324
30
0.0000000000
10
288.4665553058
20
211.3090053458
30
0.0000000000
10
289.4157543951
20
209.2320193565
30
0.0000000000
10
289.8606908358
20
208.1189875264
30
0.0000000000
11
281.3771299929
21
219.8518422320
31
0.0000000000
11
283.1711705210
21
218.3638166569
31
0.0000000000
11
284.9569864466
21
216.4851440405
31
0.0000000000
11
286.7020270592
21
214.1711871579
31
0.0000000000
11
288.3583538063
21
211.3861358348
31
0.0000000000
11
289.8606908358
21
208.1189875264
31
0.0000000000
0
SPLINE
5
363
100
AcDbEntity
8
0
100
AcDbSpline
62
7
6
CONTINUOUS
70
0
71
3
72
13
73
9
74
7
42
0.0000001000
43
0.0000001000
44
0.0000000001
40
0.0000000000
40
0.0000000000
40
0.0000000000
40
0.0000000000
40
0.1509609685
40
0.3145300271
40
0.4850407252
40
0.6592694763
40
0.8329035848
40
1.0000000000
40
1.0000000000
40
1.0000000000
40
1.0000000000
10
291.9559140212
20
195.5846291375
30
0.0000000000
10
291.9559140212
20
196.2275731893
30
0.0000000000
10
291.9212839365
20
197.5672873152
30
0.0000000000
10
291.7758013335
20
199.6286210719
30
0.0000000000
10
291.5191559500
20
201.7792319599
30
0.0000000000
10
291.1320217964
20
203.9543206003
30
0.0000000000
10
290.5967202805
20
206.0832985304
30
0.0000000000
10
290.1248551847
20
207.4581665598
30
0.0000000000
10
289.8606908358
20
208.1189875264
30
0.0000000000
11
291.9559140212
21
195.5846291375
31
0.0000000000
11
291.9089174311
21
197.5128886648
31
0.0000000000
11
291.7614689929
21
199.5976068311
31
0.0000000000
11
291.5006303434
21
201.7605553612
31
0.0000000000
11
291.1060376604
21
203.9514296297
31
0.0000000000
11
290.5593658647
21
206.1015491551
31
0.0000000000
11
289.8606908358
21
208.1189875264
31
0.0000000000
0
SPLINE
5
364
100
AcDbEntity
8
0
100
AcDbSpline
62
7
6
CONTINUOUS
70
0
71
3
72
13
73
9
74
7
42
0.0000001000
43
0.0000001000
44
0.0000000001
40
0.0000000000
40
0.0000000000
40
0.0000000000
40
0.0000000000
40
0.1509609685
40
0.3145300271
40
0.4850407252
40
0.6592694763
40
0.8329035848
40
1.0000000000
40
1.0000000000
40
1.0000000000
40
1.0000000000
10
298.7983459646
20
195.5846291375
30
0.0000000000
10
298.7983459646
20
196.2275731893
30
0.0000000000
10
298.8329760493
20
197.5672873152
30
0.0000000000
10
298.9784586523
20
199.6286210719
30
0.0000000000
10
299.2351040358
20
201.7792319599
30
0.0000000000
10
299.6222381894
20
203.9543206003
30
0.0000000000
10
300.1575397053
20
206.0832985304
30
0.0000000000
10
300.6294048011
20
207.4581665598
30
0.0000000000
10
300.8935691501
20
208.1189875264
30
0.0000000000
11
298.7983459646
21
195.5846291375
31
0.0000000000
11
298.8453425547
21
197.5128886648
31
0.0000000000
11
298.9927909929
21
199.5976068311
31
0.0000000000
11
299.2536296425
21
201.7605553612
31
0.0000000000
11
299.6482223254
21
203.9514296297
31
0.0000000000
11
300.1948941212
21
206.1015491551
31
0.0000000000
11
300.8935691501
21
208.1189875264
31
0.0000000000
0
SPLINE
5
365
100
AcDbEntity
8
0
100
AcDbSpline
62
7
6
CONTINUOUS
70
0
71
3
72
9
73
5
74
3
42
0.0000001000
43
0.0000001000
44
0.0000000001
40
0.0000000000
40
0.0000000000
40
0.0000000000
40
0.0000000000
40
0.3929181339
40
1.0000000000
40
1.0000000000
40
1.0000000000
40
1.0000000000
10
286.6296458460
20
97.3648369518
30
0.0000000000
10
286.9894990096
20
97.3648369286
30
0.0000000000
10
287.9053464867
20
97.3668834765
30
0.0000000000
10
288.8211724899
20
97.3741392038
30
0.0000000000
10
289.3771299929
20
97.3804657932
30
0.0000000000
11
286.6296458460
21
97.3648369518
31
0.0000000000
11
287.7092018577
21
97.3672493975
31
0.0000000000
11
289.3771299929
21
97.3804657932
31
0.0000000000
0
ENDSEC
0
SECTION
2
OBJECTS
0
DICTIONARY
5
366
100
AcDbDictionary
3
ACAD_GROUP
350
367
3
ACAD_MLINESTYLE
350
368
0
DICTIONARY
5
367
102
{ACAD_REACTORS
330
366
102
}
100
AcDbDictionary
0
DICTIONARY
5
368
102
{ACAD_REACTORS
330
366
102
}
100
AcDbDictionary
3
STANDARD
350
369
0
MLINESTYLE
5
369
102
{ACAD_REACTORS
330
368
102
}
100
AcDbMlineStyle
2
STANDARD
70
0
3

62
256
51
90.0
52
90.0
71
2
49
0.5
62
256
6
BYLAYER
49
-0.5
62
256
6
BYLAYER
0
ENDSEC
0
EOF
