999
DXF file: C:\Aktuell-Internet\CAD-Daten\2vvh8.dxf
999
Pro/ENGINEER 2001400 by Parametric Technology Corporation
0
SECTION
2
HEADER
9
$ACADVER
1
AC1014
9
$EXTMAX
10
420.0000000000
20
297.0000000000
9
$EXTMIN
10
0.0000000000
20
0.0000000000
9
$LIMMIN
10
0.0000000000
20
0.0000000000
9
$LIMMAX
10
420.0000000000
20
297.0000000000
9
$VIEWCTR
10
210.0000000000
20
148.5000000000
9
$VIEWSIZE
40
297.0000000000
9
$CLAYER
8
0
9
$LTSCALE
40
23.1000000000
9
$CELTYPE
6
BYLAYER
9
$DIMSCALE
40
1
9
$DIMASZ
40
3.5000000000
9
$DIMEXO
40
2.6250000000
9
$DIMDLI
40
15.9600000000
9
$DIMEXE
40
7.5600000000
9
$DIMCEN
40
3.7800000000
9
$DIMLFAC
40
1.0000000000
9
$DIMTXT
40
3.5000000000
9
$DIMTOL
70
1
9
$DIMTFAC
40
0.6000000000
9
$DIMTP
40
0.0050000000
9
$DIMTM
40
0.0050000000
9
$HANDSEED
5
386
0
ENDSEC
0
SECTION
2
CLASSES
0
ENDSEC
0
SECTION
2
TABLES
0
TABLE
2
VPORT
5
8
100
AcDbSymbolTable
70
2
0
VPORT
5
1F4
100
AcDbSymbolTableRecord
100
AcDbViewportTableRecord
2
*ACTIVE
70
0
10
0.0
20
0.0
11
1.0
21
1.0
12
210.0000000000
22
148.5000000000
13
0.0
23
0.0
14
1.0
24
1.0
15
0.0
25
0.0
16
0.0
26
0.0
36
1.0
17
0.0
27
0.0
37
0.0
40
297.0000000000
41
1.4141414141
42
50.0
43
0.0
44
0.0
50
0.0
51
0.0
71
0
72
100
73
1
74
1
75
0
76
0
77
0
78
0
0
ENDTAB
0
TABLE
2
LTYPE
5
5
100
AcDbSymbolTable
70
6
0
LTYPE
5
14
100
AcDbSymbolTableRecord
100
AcDbLinetypeTableRecord
2
BYBLOCK
70
0
3

72
65
73
0
40
0.0
0
LTYPE
5
15
100
AcDbSymbolTableRecord
100
AcDbLinetypeTableRecord
2
BYLAYER
70
0
3

72
65
73
0
40
0.0
0
LTYPE
5
16
100
AcDbSymbolTableRecord
100
AcDbLinetypeTableRecord
2
CONTINUOUS
70
64
3
Solid line
72
65
73
0
40
0
0
LTYPE
5
1F5
100
AcDbSymbolTableRecord
100
AcDbLinetypeTableRecord
2
CENTER
70
64
3
____ _ ____ _ ____ _ ____ _ ____ _ ____ _ ____
72
65
73
4
40
0.6
49
0.375
74
0
49
-0.075
74
0
49
0.075
74
0
49
-0.075
74
0
0
LTYPE
5
1F6
100
AcDbSymbolTableRecord
100
AcDbLinetypeTableRecord
2
HIDDEN
70
64
3
- - - - - - - - - - - - - - - - - - - -
72
65
73
2
40
0.2
49
0.1
74
0
49
-0.1
74
0
0
LTYPE
5
1F7
100
AcDbSymbolTableRecord
100
AcDbLinetypeTableRecord
2
PHANTOM
70
64
3
_____ _ _ _____ _ _ _____ _ _ _____
72
65
73
6
40
0.8
49
0.45
74
0
49
-0.05
74
0
49
0.1
74
0
49
-0.05
74
0
49
0.1
74
0
49
-0.05
74
0
0
LTYPE
5
1F8
100
AcDbSymbolTableRecord
100
AcDbLinetypeTableRecord
2
DOT
70
64
3
. . . . . . . . . . . . . . . . . . . .
72
65
73
2
40
0.2
49
0.1
74
0
49
-0.1
74
0
0
LTYPE
5
1F9
100
AcDbSymbolTableRecord
100
AcDbLinetypeTableRecord
2
DASHED
70
64
3
- - - - - - - - - - - - - - - - - - - -
72
65
73
2
40
0.2
49
0.1
74
0
49
-0.1
74
0
0
ENDTAB
0
TABLE
2
LAYER
5
2
100
AcDbSymbolTable
70
36
0
LAYER
5
10
100
AcDbSymbolTableRecord
100
AcDbLayerTableRecord
2
0
70
0
62
7
6
CONTINUOUS
0
LAYER
5
1FA
100
AcDbSymbolTableRecord
100
AcDbLayerTableRecord
2
DEFAULT_1
70
0
62
7
6
CENTER
0
LAYER
5
1FB
100
AcDbSymbolTableRecord
100
AcDbLayerTableRecord
2
DEFAULT_2
70
0
62
8
6
HIDDEN
0
LAYER
5
1FC
100
AcDbSymbolTableRecord
100
AcDbLayerTableRecord
2
DEFAULT_3
70
0
62
7
6
PHANTOM
0
ENDTAB
0
TABLE
2
STYLE
5
3
100
AcDbSymbolTable
70
1
0
STYLE
5
11
100
AcDbSymbolTableRecord
100
AcDbTextStyleTableRecord
2
STANDARD
70
0
40
0.0
41
1.0
50
0.0
71
0
42
0.0
3
txt
4

0
STYLE
5
1FD
100
AcDbSymbolTableRecord
100
AcDbTextStyleTableRecord
2
TEXTSTYLE_0
70
0
40
0.0
41
0.80
50
0.0
71
0
42
0.2
3
txt
4

0
ENDTAB
0
TABLE
2
VIEW
5
6
100
AcDbSymbolTable
70
0
0
ENDTAB
0
TABLE
2
UCS
5
7
100
AcDbSymbolTable
70
0
0
ENDTAB
0
TABLE
2
APPID
5
9
100
AcDbSymbolTable
70
1
0
APPID
5
1FE
100
AcDbSymbolTableRecord
100
AcDbRegAppTableRecord
2
ACAD
70
0
0
ENDTAB
0
TABLE
2
DIMSTYLE
5
A
100
AcDbSymbolTable
70
1
0
DIMSTYLE
105
1FF
100
AcDbSymbolTableRecord
100
AcDbDimStyleTableRecord
2
STANDARD
70
0
3

4

5

6

7

40
1.0
41
0.18
42
0.0625
43
0.38
44
0.18
45
0.0
46
0.0
47
0.0050000000
48
0.0050000000
140
3.5000000000
141
0.09
142
0.0
143
25.4
144
1.0000000000
145
0.0
146
0.6000000000
147
0.09
71
1
72
0
73
1
74
1
75
0
76
0
77
0
78
0
170
0
171
2
172
0
173
0
174
0
175
0
176
0
177
0
178
0
270
2
271
3
272
4
273
2
274
2
340
11
275
0
280
0
281
0
282
0
283
1
284
0
285
0
286
0
287
3
288
0
0
ENDTAB
0
TABLE
2
BLOCK_RECORD
5
1
100
AcDbSymbolTable
70
0
0
BLOCK_RECORD
5
1B
100
AcDbSymbolTableRecord
100
AcDbBlockTableRecord
2
*MODEL_SPACE
0
BLOCK_RECORD
5
1C
100
AcDbSymbolTableRecord
100
AcDbBlockTableRecord
2
*PAPER_SPACE
0
ENDTAB
0
ENDSEC
0
SECTION
2
BLOCKS
0
BLOCK
5
1E
100
AcDbEntity
8
0
100
AcDbBlockBegin
2
*MODEL_SPACE
70
0
10
0.0
20
0.0
30
0.0
3
*MODEL_SPACE
1

0
ENDBLK
5
1F
100
AcDbEntity
8
0
100
AcDbBlockEnd
0
BLOCK
5
20
100
AcDbEntity
8
0
100
AcDbBlockBegin
2
*PAPER_SPACE
70
0
10
0.0
20
0.0
30
0.0
3
*PAPER_SPACE
1

0
ENDBLK
5
21
100
AcDbEntity
8
0
100
AcDbBlockEnd
0
ENDSEC
0
SECTION
2
ENTITIES
0
TEXT
5
200
100
AcDbEntity
8
0
100
AcDbText
62
2
6
CONTINUOUS
10
293.2700672575
20
126.0301536538
7
TEXTSTYLE_0
40
4.0000000000
1
RUD
50
90.0000000000
72
5
11
293.2700672575
21
135.9349154641
100
AcDbText
0
TEXT
5
201
100
AcDbEntity
8
0
100
AcDbText
62
2
6
CONTINUOUS
10
302.6777511260
20
126.7827683633
7
TEXTSTYLE_0
40
4.0000000000
1
VVH 8/VIP
50
90.0000000000
72
5
11
302.6777511260
21
154.9732442849
100
AcDbText
0
LINE
5
202
100
AcDbEntity
8
0
100
AcDbLine
62
7
6
CONTINUOUS
10
0.0000000000
20
0.0000000000
11
0.0000000000
21
297.0000000000
0
LINE
5
203
100
AcDbEntity
8
0
100
AcDbLine
62
7
6
CONTINUOUS
10
0.0000000000
20
0.0000000000
11
420.0000000000
21
0.0000000000
0
LINE
5
204
100
AcDbEntity
8
0
100
AcDbLine
62
7
6
CONTINUOUS
10
0.0000000000
20
297.0000000000
11
420.0000000000
21
297.0000000000
0
LINE
5
205
100
AcDbEntity
8
0
100
AcDbLine
62
7
6
CONTINUOUS
10
420.0000000000
20
0.0000000000
11
420.0000000000
21
297.0000000000
0
LINE
5
206
100
AcDbEntity
8
0
100
AcDbLine
62
7
6
CONTINUOUS
10
124.0553688557
20
113.2670521752
11
124.4046687904
21
113.2670521752
0
LINE
5
207
100
AcDbEntity
8
0
100
AcDbLine
62
7
6
CONTINUOUS
10
90.7722752635
20
212.4622941544
11
96.1426314236
21
218.8624354017
0
LINE
5
208
100
AcDbEntity
8
0
100
AcDbLine
62
7
6
CONTINUOUS
10
130.6275943820
20
129.4070225408
11
132.7722752635
21
130.0138845647
0
LINE
5
209
100
AcDbEntity
8
0
100
AcDbLine
62
7
6
CONTINUOUS
10
128.7892964427
20
129.9380268795
11
129.0956793849
21
130.0138845647
0
LINE
5
20A
100
AcDbEntity
8
0
100
AcDbLine
62
7
6
CONTINUOUS
10
129.0956793849
20
130.4690311097
11
128.7892964427
21
130.3931734245
0
LINE
5
20B
100
AcDbEntity
8
0
100
AcDbLine
62
7
6
CONTINUOUS
10
131.5467433516
20
131.6827551574
11
131.1382327620
21
131.6068976893
0
LINE
5
20C
100
AcDbEntity
8
0
100
AcDbLine
62
7
6
CONTINUOUS
10
131.1382327620
20
131.1517509272
11
131.6488709990
21
131.2276088294
0
LINE
5
20D
100
AcDbEntity
8
0
100
AcDbLine
62
7
6
CONTINUOUS
10
127.9722752635
20
127.6622941544
11
132.7722752635
21
127.6622941544
0
LINE
5
20E
100
AcDbEntity
8
0
100
AcDbLine
62
7
6
CONTINUOUS
10
132.7722752635
20
128.1174406994
11
130.6275943820
21
128.1174406994
0
LINE
5
20F
100
AcDbEntity
8
0
100
AcDbLine
62
7
6
CONTINUOUS
10
130.0148284976
20
128.1174406994
11
128.4829135005
21
128.1174406994
0
LINE
5
210
100
AcDbEntity
8
0
100
AcDbLine
62
7
6
CONTINUOUS
10
129.0956793849
20
130.0138845647
11
129.4020626132
21
130.0138845647
0
LINE
5
211
100
AcDbEntity
8
0
100
AcDbLine
62
7
6
CONTINUOUS
10
129.5041902606
20
130.4690311097
11
129.0956793849
21
130.4690311097
0
LINE
5
212
100
AcDbEntity
8
0
100
AcDbLine
62
7
6
CONTINUOUS
10
127.9722752635
20
131.1517509272
11
131.1382327620
21
131.1517509272
0
LINE
5
213
100
AcDbEntity
8
0
100
AcDbLine
62
7
6
CONTINUOUS
10
131.1382327620
20
131.6068976893
11
127.9722752635
21
131.6068976893
0
LINE
5
214
100
AcDbEntity
8
0
100
AcDbLine
62
7
6
CONTINUOUS
10
114.4339295483
20
131.6467980260
11
112.7722752635
21
131.6467980260
0
LINE
5
215
100
AcDbEntity
8
0
100
AcDbLine
62
7
6
CONTINUOUS
10
104.7106209787
20
131.6467980260
11
106.3722752635
21
131.6467980260
0
LINE
5
216
100
AcDbEntity
8
0
100
AcDbLine
62
7
6
CONTINUOUS
10
129.1978073184
20
136.9927983273
11
129.6063179080
21
137.0686557954
0
LINE
5
217
100
AcDbEntity
8
0
100
AcDbLine
62
7
6
CONTINUOUS
10
129.6063179080
20
137.5238023404
11
129.0956793849
21
137.4479448723
0
LINE
5
218
100
AcDbEntity
8
0
100
AcDbLine
62
7
6
CONTINUOUS
10
127.9722752635
20
133.4274838693
11
131.1382327620
21
133.4274838693
0
LINE
5
219
100
AcDbEntity
8
0
100
AcDbLine
62
7
6
CONTINUOUS
10
131.1382327620
20
133.8826304144
11
127.9722752635
21
133.8826304144
0
LINE
5
21A
100
AcDbEntity
8
0
100
AcDbLine
62
7
6
CONTINUOUS
10
127.9722752635
20
134.4894923297
11
132.7722752635
21
134.4894923297
0
LINE
5
21B
100
AcDbEntity
8
0
100
AcDbLine
62
7
6
CONTINUOUS
10
132.1595093076
20
134.9446388747
11
128.5850411479
21
134.9446388747
0
LINE
5
21C
100
AcDbEntity
8
0
100
AcDbLine
62
7
6
CONTINUOUS
10
97.2450695785
20
135.3345494937
11
87.9971273269
21
135.3345494937
0
LINE
5
21D
100
AcDbEntity
8
0
100
AcDbLine
62
7
6
CONTINUOUS
10
106.3722752635
20
136.3379218272
11
112.7722752635
21
136.3379218272
0
LINE
5
21E
100
AcDbEntity
8
0
100
AcDbLine
62
7
6
CONTINUOUS
10
129.6063179080
20
137.0686557954
11
131.1382327620
21
137.0686557954
0
LINE
5
21F
100
AcDbEntity
8
0
100
AcDbLine
62
7
6
CONTINUOUS
10
131.6488709990
20
133.8067725122
11
131.1382327620
21
133.8826304144
0
LINE
5
220
100
AcDbEntity
8
0
100
AcDbLine
62
7
6
CONTINUOUS
10
129.4020626132
20
130.0138845647
11
129.7084455554
21
129.9380268795
0
LINE
5
221
100
AcDbEntity
8
0
100
AcDbLine
62
7
6
CONTINUOUS
10
129.8105732028
20
130.3931734245
11
129.5041902606
21
130.4690311097
0
LINE
5
222
100
AcDbEntity
8
0
100
AcDbLine
62
7
6
CONTINUOUS
10
87.9722752635
20
152.4043589037
11
87.9722752635
21
136.4622941544
0
LINE
5
223
100
AcDbEntity
8
0
100
AcDbLine
62
7
6
CONTINUOUS
10
132.1595093076
20
143.2889916213
11
127.9722752635
21
142.2269835950
0
LINE
5
224
100
AcDbEntity
8
0
100
AcDbLine
62
7
6
CONTINUOUS
10
127.9722752635
20
141.7718370500
11
132.7722752635
21
142.9855617488
0
LINE
5
225
100
AcDbEntity
8
0
100
AcDbLine
62
7
6
CONTINUOUS
10
131.1382327620
20
137.5238023404
11
129.6063179080
21
137.5238023404
0
LINE
5
226
100
AcDbEntity
8
0
100
AcDbLine
62
7
6
CONTINUOUS
10
106.3722752635
20
140.3881431823
11
112.7722752635
21
140.3881431823
0
LINE
5
227
100
AcDbEntity
8
0
100
AcDbLine
62
7
6
CONTINUOUS
10
131.6488709990
20
137.4479448723
11
131.1382327620
21
137.5238023404
0
LINE
5
228
100
AcDbEntity
8
0
100
AcDbLine
62
7
6
CONTINUOUS
10
131.1382327620
20
133.4274838693
11
131.5467433516
21
133.3516259671
0
LINE
5
229
100
AcDbEntity
8
0
100
AcDbLine
62
7
6
CONTINUOUS
10
131.1382327620
20
137.0686557954
11
131.5467433516
21
136.9927983273
0
LINE
5
22A
100
AcDbEntity
8
0
100
AcDbLine
62
7
6
CONTINUOUS
10
104.2830718541
20
112.6070913672
11
103.0737070439
21
115.9297938750
0
LINE
5
22B
100
AcDbEntity
8
0
100
AcDbLine
62
7
6
CONTINUOUS
10
90.7722752635
20
212.4622941544
11
90.7722752635
21
199.4656145942
0
LINE
5
22C
100
AcDbEntity
8
0
100
AcDbLine
62
7
6
CONTINUOUS
10
89.5954189131
20
173.9264719269
11
88.2015142105
21
172.7568470051
0
LINE
5
22D
100
AcDbEntity
8
0
100
AcDbLine
62
7
6
CONTINUOUS
10
132.1595093076
20
146.9301639814
11
127.9722752635
21
145.8681559551
0
LINE
5
22E
100
AcDbEntity
8
0
100
AcDbLine
62
7
6
CONTINUOUS
10
127.9722752635
20
145.4130094101
11
132.7722752635
21
146.6267341089
0
LINE
5
22F
100
AcDbEntity
8
0
100
AcDbLine
62
7
6
CONTINUOUS
10
132.0573816602
20
133.6550571418
11
131.6488709990
21
133.8067725122
0
LINE
5
230
100
AcDbEntity
8
0
100
AcDbLine
62
7
6
CONTINUOUS
10
130.2190837924
20
130.1656001520
11
129.8105732028
21
130.3931734245
0
LINE
5
231
100
AcDbEntity
8
0
100
AcDbLine
62
7
6
CONTINUOUS
10
104.7581382262
20
131.5553841362
11
104.7106209787
21
131.6467980260
0
LINE
5
232
100
AcDbEntity
8
0
100
AcDbLine
62
7
6
CONTINUOUS
10
127.9722752635
20
149.0541817703
11
132.7722752635
21
149.0541817703
0
LINE
5
233
100
AcDbEntity
8
0
100
AcDbLine
62
7
6
CONTINUOUS
10
127.9722752635
20
144.3510013838
11
132.1595093076
21
143.2889916213
0
LINE
5
234
100
AcDbEntity
8
0
100
AcDbLine
62
7
6
CONTINUOUS
10
132.0573816602
20
137.2962290679
11
131.6488709990
21
137.4479448723
0
LINE
5
235
100
AcDbEntity
8
0
100
AcDbLine
62
7
6
CONTINUOUS
10
131.5467433516
20
133.3516259671
11
131.8531262938
21
133.1999105968
0
LINE
5
236
100
AcDbEntity
8
0
100
AcDbLine
62
7
6
CONTINUOUS
10
131.5467433516
20
136.9927983273
11
131.8531262938
21
136.8410825229
0
LINE
5
237
100
AcDbEntity
8
0
100
AcDbLine
62
7
6
CONTINUOUS
10
129.7084455554
20
129.9380268795
11
129.9127008502
21
129.7863112922
0
LINE
5
238
100
AcDbEntity
8
0
100
AcDbLine
62
7
6
CONTINUOUS
10
95.5926144716
20
159.6810934150
11
87.0301170450
21
169.8854804848
0
LINE
5
239
100
AcDbEntity
8
0
100
AcDbLine
62
7
6
CONTINUOUS
10
97.2450695785
20
135.3345494937
11
97.2450695785
21
155.8346250278
0
LINE
5
23A
100
AcDbEntity
8
0
100
AcDbLine
62
7
6
CONTINUOUS
10
98.7503177377
20
207.6622941544
11
98.7503177377
21
202.8622941544
0
LINE
5
23B
100
AcDbEntity
8
0
100
AcDbLine
62
7
6
CONTINUOUS
10
98.7503177377
20
213.5792752865
11
98.7503177377
21
218.8622941544
0
LINE
5
23C
100
AcDbEntity
8
0
100
AcDbLine
62
7
6
CONTINUOUS
10
132.7722752635
20
149.5093283153
11
130.5254667346
21
149.5093283153
0
LINE
5
23D
100
AcDbEntity
8
0
100
AcDbLine
62
7
6
CONTINUOUS
10
129.9127008502
20
149.5093283153
11
127.9722752635
21
149.5093283153
0
LINE
5
23E
100
AcDbEntity
8
0
100
AcDbLine
62
7
6
CONTINUOUS
10
127.9722752635
20
151.6333461041
11
129.9127008502
21
151.6333461041
0
LINE
5
23F
100
AcDbEntity
8
0
100
AcDbLine
62
7
6
CONTINUOUS
10
130.5254667346
20
151.6333461041
11
132.7722752635
21
151.6333461041
0
LINE
5
240
100
AcDbEntity
8
0
100
AcDbLine
62
7
6
CONTINUOUS
10
132.7722752635
20
152.0884926491
11
127.9722752635
21
152.0884926491
0
LINE
5
241
100
AcDbEntity
8
0
100
AcDbLine
62
7
6
CONTINUOUS
10
132.7722752635
20
143.5924232300
11
127.9722752635
21
144.8061479288
0
LINE
5
242
100
AcDbEntity
8
0
100
AcDbLine
62
7
6
CONTINUOUS
10
132.7722752635
20
147.2335955902
11
127.9722752635
21
148.4473202890
0
LINE
5
243
100
AcDbEntity
8
0
100
AcDbLine
62
7
6
CONTINUOUS
10
127.9722752635
20
147.9921737440
11
132.1595093076
21
146.9301639814
0
LINE
5
244
100
AcDbEntity
8
0
100
AcDbLine
62
7
6
CONTINUOUS
10
132.4658922855
20
133.3516259671
11
132.0573816602
21
133.6550571418
0
LINE
5
245
100
AcDbEntity
8
0
100
AcDbLine
62
7
6
CONTINUOUS
10
131.2403604094
20
156.3365264905
11
131.5467433516
21
156.3365264905
0
LINE
5
246
100
AcDbEntity
8
0
100
AcDbLine
62
7
6
CONTINUOUS
10
129.1978073184
20
156.4123848268
11
129.5041902606
21
156.4123848268
0
LINE
5
247
100
AcDbEntity
8
0
100
AcDbLine
62
7
6
CONTINUOUS
10
131.5467433516
20
156.7158146993
11
131.2403604094
21
156.7158146993
0
LINE
5
248
100
AcDbEntity
8
0
100
AcDbLine
62
7
6
CONTINUOUS
10
129.4020626132
20
156.7916730356
11
129.1978073184
21
156.7916730356
0
LINE
5
249
100
AcDbEntity
8
0
100
AcDbLine
62
7
6
CONTINUOUS
10
132.4658922855
20
136.9927983273
11
132.0573816602
21
137.2962290679
0
LINE
5
24A
100
AcDbEntity
8
0
100
AcDbLine
62
7
6
CONTINUOUS
10
104.7722752635
20
141.2622941544
11
104.7722752635
21
158.5681799055
0
LINE
5
24B
100
AcDbEntity
8
0
100
AcDbLine
62
7
6
CONTINUOUS
10
105.0922752635
20
217.1022941544
11
105.0922752635
21
196.9422941544
0
LINE
5
24C
100
AcDbEntity
8
0
100
AcDbLine
62
7
6
CONTINUOUS
10
106.3722752635
20
140.3881431823
11
106.3722752635
21
131.6467980260
0
LINE
5
24D
100
AcDbEntity
8
0
100
AcDbLine
62
7
6
CONTINUOUS
10
106.3722752635
20
111.8956501020
11
106.3722752635
21
123.0362028756
0
LINE
5
24E
100
AcDbEntity
8
0
100
AcDbLine
62
7
6
CONTINUOUS
10
132.1595093076
20
163.0120079933
11
127.9722752635
21
161.9500017032
0
LINE
5
24F
100
AcDbEntity
8
0
100
AcDbLine
62
7
6
CONTINUOUS
10
127.9722752635
20
161.4948551582
11
132.7722752635
21
162.7085781208
0
LINE
5
250
100
AcDbEntity
8
0
100
AcDbLine
62
7
6
CONTINUOUS
10
129.1978073184
20
158.6122592156
11
129.4020626132
21
158.6122592156
0
LINE
5
251
100
AcDbEntity
8
0
100
AcDbLine
62
7
6
CONTINUOUS
10
131.2403604094
20
158.6881158156
11
131.5467433516
21
158.6881158156
0
LINE
5
252
100
AcDbEntity
8
0
100
AcDbLine
62
7
6
CONTINUOUS
10
129.5041902606
20
158.9915491606
11
129.1978073184
21
158.9915491606
0
LINE
5
253
100
AcDbEntity
8
0
100
AcDbLine
62
7
6
CONTINUOUS
10
131.5467433516
20
159.0674057606
11
131.2403604094
21
159.0674057606
0
LINE
5
254
100
AcDbEntity
8
0
100
AcDbLine
62
7
6
CONTINUOUS
10
131.8531262938
20
133.1999105968
11
132.0573816602
21
132.9723373243
0
LINE
5
255
100
AcDbEntity
8
0
100
AcDbLine
62
7
6
CONTINUOUS
10
131.8531262938
20
136.8410825229
11
132.0573816602
21
136.6135092504
0
LINE
5
256
100
AcDbEntity
8
0
100
AcDbLine
62
7
6
CONTINUOUS
10
102.5263017862
20
164.7389411148
11
95.2307471243
21
173.4334445932
0
LINE
5
257
100
AcDbEntity
8
0
100
AcDbLine
62
7
6
CONTINUOUS
10
130.4233390872
20
129.8621691944
11
130.2190837924
21
130.1656001520
0
LINE
5
258
100
AcDbEntity
8
DEFAULT_1
100
AcDbLine
62
2
6
CENTER
10
109.5722752635
20
107.8621220786
11
109.5722752635
21
222.3104699773
0
LINE
5
259
100
AcDbEntity
8
0
100
AcDbLine
62
7
6
CONTINUOUS
10
102.8251612956
20
119.4428751859
11
104.7106209787
21
131.6467980260
0
LINE
5
25A
100
AcDbEntity
8
0
100
AcDbLine
62
7
6
CONTINUOUS
10
128.7892964427
20
168.4737665335
11
129.0956793849
21
168.5496266060
0
LINE
5
25B
100
AcDbEntity
8
0
100
AcDbLine
62
7
6
CONTINUOUS
10
129.0956793849
20
169.0047731510
11
128.7892964427
21
168.9289130785
0
LINE
5
25C
100
AcDbEntity
8
0
100
AcDbLine
62
7
6
CONTINUOUS
10
127.9722752635
20
165.1360275184
11
132.7722752635
21
165.1360275184
0
LINE
5
25D
100
AcDbEntity
8
0
100
AcDbLine
62
7
6
CONTINUOUS
10
128.6871687953
20
156.5640997630
11
129.1978073184
21
156.4123848268
0
LINE
5
25E
100
AcDbEntity
8
0
100
AcDbLine
62
7
6
CONTINUOUS
10
130.7297220294
20
156.4882414268
11
131.2403604094
21
156.3365264905
0
LINE
5
25F
100
AcDbEntity
8
0
100
AcDbLine
62
7
6
CONTINUOUS
10
132.0573816602
20
158.9156890881
11
131.5467433516
21
159.0674057606
0
LINE
5
260
100
AcDbEntity
8
0
100
AcDbLine
62
7
6
CONTINUOUS
10
129.1978073184
20
156.7916730356
11
128.8914240901
21
156.9433897081
0
LINE
5
261
100
AcDbEntity
8
0
100
AcDbLine
62
7
6
CONTINUOUS
10
132.6701476072
20
133.0481947924
11
132.4658922855
21
133.3516259671
0
LINE
5
262
100
AcDbEntity
8
0
100
AcDbLine
62
7
6
CONTINUOUS
10
116.3193892314
20
119.4428751859
11
114.4339295483
21
131.6467980260
0
LINE
5
263
100
AcDbEntity
8
0
100
AcDbLine
62
7
6
CONTINUOUS
10
112.7722752635
20
140.3881431823
11
112.7722752635
21
131.6467980260
0
LINE
5
264
100
AcDbEntity
8
0
100
AcDbLine
62
7
6
CONTINUOUS
10
112.7722752635
20
110.8747972077
11
112.7722752635
21
123.0362028756
0
LINE
5
265
100
AcDbEntity
8
0
100
AcDbLine
62
7
6
CONTINUOUS
10
114.0522752635
20
196.9422941544
11
114.0522752635
21
217.1022941544
0
LINE
5
266
100
AcDbEntity
8
0
100
AcDbLine
62
7
6
CONTINUOUS
10
114.3722752635
20
141.2622941544
11
114.3722752635
21
162.1681799055
0
LINE
5
267
100
AcDbEntity
8
0
100
AcDbLine
62
7
6
CONTINUOUS
10
132.7722752635
20
165.5911740634
11
127.9722752635
21
165.5911740634
0
LINE
5
268
100
AcDbEntity
8
0
100
AcDbLine
62
7
6
CONTINUOUS
10
127.9722752635
20
166.1980338084
11
132.7722752635
21
166.1980338084
0
LINE
5
269
100
AcDbEntity
8
0
100
AcDbLine
62
7
6
CONTINUOUS
10
132.7722752635
20
166.6531803534
11
130.6275943820
21
166.6531803534
0
LINE
5
26A
100
AcDbEntity
8
0
100
AcDbLine
62
7
6
CONTINUOUS
10
130.0148284976
20
166.6531803534
11
128.4829135005
21
166.6531803534
0
LINE
5
26B
100
AcDbEntity
8
0
100
AcDbLine
62
7
6
CONTINUOUS
10
129.0956793849
20
168.5496266060
11
129.4020626132
21
168.5496266060
0
LINE
5
26C
100
AcDbEntity
8
0
100
AcDbLine
62
7
6
CONTINUOUS
10
129.5041902606
20
169.0047731510
11
129.0956793849
21
169.0047731510
0
LINE
5
26D
100
AcDbEntity
8
0
100
AcDbLine
62
7
6
CONTINUOUS
10
132.7722752635
20
163.3154413383
11
127.9722752635
21
164.5291643008
0
LINE
5
26E
100
AcDbEntity
8
0
100
AcDbLine
62
7
6
CONTINUOUS
10
127.9722752635
20
164.0740177558
11
132.1595093076
21
163.0120079933
0
LINE
5
26F
100
AcDbEntity
8
0
100
AcDbLine
62
7
6
CONTINUOUS
10
129.9127008502
20
158.8398324881
11
129.5041902606
21
158.9915491606
0
LINE
5
270
100
AcDbEntity
8
0
100
AcDbLine
62
7
6
CONTINUOUS
10
128.9935517375
20
160.6604186682
11
131.5467433516
21
159.6742689782
0
LINE
5
271
100
AcDbEntity
8
0
100
AcDbLine
62
7
6
CONTINUOUS
10
131.7509986464
20
159.9018422507
11
129.1978073184
21
160.8879919407
0
LINE
5
272
100
AcDbEntity
8
0
100
AcDbLine
62
7
6
CONTINUOUS
10
129.4020626132
20
158.6122592156
11
129.7084455554
21
158.4605425431
0
LINE
5
273
100
AcDbEntity
8
0
100
AcDbLine
62
7
6
CONTINUOUS
10
131.2403604094
20
156.7158146993
11
130.8318496768
21
156.9433897081
0
LINE
5
274
100
AcDbEntity
8
0
100
AcDbLine
62
7
6
CONTINUOUS
10
131.5467433516
20
158.6881158156
11
131.9552540128
21
158.4605425431
0
LINE
5
275
100
AcDbEntity
8
0
100
AcDbLine
62
7
6
CONTINUOUS
10
128.3807858531
20
156.7916730356
11
128.6871687953
21
156.5640997630
0
LINE
5
276
100
AcDbEntity
8
0
100
AcDbLine
62
7
6
CONTINUOUS
10
112.1263019174
20
168.3389409585
11
94.4219820158
21
189.4381278057
0
LINE
5
277
100
AcDbEntity
8
0
100
AcDbLine
62
7
6
CONTINUOUS
10
132.6701476072
20
136.6893675867
11
132.4658922855
21
136.9927983273
0
LINE
5
278
100
AcDbEntity
8
0
100
AcDbLine
62
7
6
CONTINUOUS
10
129.9127008502
20
129.7863112922
11
130.0148284976
21
129.5587380197
0
LINE
5
279
100
AcDbEntity
8
0
100
AcDbLine
62
7
6
CONTINUOUS
10
120.3942327893
20
218.8622941544
11
120.3942327893
21
213.5792752865
0
LINE
5
27A
100
AcDbEntity
8
0
100
AcDbLine
62
7
6
CONTINUOUS
10
120.3942327893
20
207.6622941544
11
120.3942327893
21
202.8622940320
0
LINE
5
27B
100
AcDbEntity
8
0
100
AcDbLine
62
7
6
CONTINUOUS
10
128.5850411479
20
168.3220533335
11
128.7892964427
21
168.4737665335
0
LINE
5
27C
100
AcDbEntity
8
0
100
AcDbLine
62
7
6
CONTINUOUS
10
128.7892964427
20
168.9289130785
11
128.3807858531
21
168.7013398060
0
LINE
5
27D
100
AcDbEntity
8
0
100
AcDbLine
62
7
6
CONTINUOUS
10
85.8831199389
20
169.8854804848
11
87.0301170450
21
169.8854804848
0
LINE
5
27E
100
AcDbEntity
8
0
100
AcDbLine
62
7
6
CONTINUOUS
10
129.4020626132
20
168.5496266060
11
129.7084455554
21
168.4737665335
0
LINE
5
27F
100
AcDbEntity
8
0
100
AcDbLine
62
7
6
CONTINUOUS
10
129.8105732028
20
168.9289130785
11
129.5041902606
21
169.0047731510
0
LINE
5
280
100
AcDbEntity
8
0
100
AcDbLine
62
7
6
CONTINUOUS
10
130.2190837924
20
158.6122592156
11
129.9127008502
21
158.8398324881
0
LINE
5
281
100
AcDbEntity
8
0
100
AcDbLine
62
7
6
CONTINUOUS
10
132.3637646381
20
158.6881158156
11
132.0573816602
21
158.9156890881
0
LINE
5
282
100
AcDbEntity
8
0
100
AcDbLine
62
7
6
CONTINUOUS
10
128.8914240901
20
156.9433897081
11
128.5850411479
21
157.2468195806
0
LINE
5
283
100
AcDbEntity
8
0
100
AcDbLine
62
7
6
CONTINUOUS
10
129.7084455554
20
158.4605425431
11
130.0148284976
21
158.1571126706
0
LINE
5
284
100
AcDbEntity
8
0
100
AcDbLine
62
7
6
CONTINUOUS
10
130.4233390872
20
156.7916730356
11
130.7297220294
21
156.4882414268
0
LINE
5
285
100
AcDbEntity
8
0
100
AcDbLine
62
7
6
CONTINUOUS
10
128.0744029109
20
157.1709629806
11
128.3807858531
21
156.7916730356
0
LINE
5
286
100
AcDbEntity
8
0
100
AcDbLine
62
7
6
CONTINUOUS
10
124.0553688557
20
113.2670521752
11
124.0553688557
21
162.1681799055
0
LINE
5
287
100
AcDbEntity
8
0
100
AcDbLine
62
7
6
CONTINUOUS
10
128.3807858531
20
168.7013398060
11
128.0744029109
21
168.3979099335
0
LINE
5
288
100
AcDbEntity
8
0
100
AcDbLine
62
7
6
CONTINUOUS
10
129.1978073184
20
158.9915491606
11
128.6871687953
21
158.8398324881
0
LINE
5
289
100
AcDbEntity
8
0
100
AcDbLine
62
7
6
CONTINUOUS
10
131.2403604094
20
159.0674057606
11
130.7297220294
21
158.9156890881
0
LINE
5
28A
100
AcDbEntity
8
0
100
AcDbLine
62
7
6
CONTINUOUS
10
130.2190837924
20
168.7013398060
11
129.8105732028
21
168.9289130785
0
LINE
5
28B
100
AcDbEntity
8
0
100
AcDbLine
62
7
6
CONTINUOUS
10
119.5439819559
20
174.5631135430
11
90.7722752635
21
208.8518983587
0
LINE
5
28C
100
AcDbEntity
8
0
100
AcDbLine
62
7
6
CONTINUOUS
10
132.6701476072
20
158.3088293431
11
132.3637646381
21
158.6881158156
0
LINE
5
28D
100
AcDbEntity
8
0
100
AcDbLine
62
7
6
CONTINUOUS
10
130.3212114398
20
156.9433897081
11
130.4233390872
21
156.7916730356
0
LINE
5
28E
100
AcDbEntity
8
0
100
AcDbLine
62
7
6
CONTINUOUS
10
130.8318496768
20
156.9433897081
11
130.6275943820
21
157.2468195806
0
LINE
5
28F
100
AcDbEntity
8
0
100
AcDbLine
62
7
6
CONTINUOUS
10
130.3212114398
20
158.4605425431
11
130.2190837924
21
158.6122592156
0
LINE
5
290
100
AcDbEntity
8
0
100
AcDbLine
62
7
6
CONTINUOUS
10
132.0573816602
20
132.9723373243
11
132.1595093076
21
132.6689061496
0
LINE
5
291
100
AcDbEntity
8
0
100
AcDbLine
62
7
6
CONTINUOUS
10
132.0573816602
20
136.6135092504
11
132.1595093076
21
136.3100785098
0
LINE
5
292
100
AcDbEntity
8
0
100
AcDbLine
62
7
6
CONTINUOUS
10
132.7722752635
20
132.6689061496
11
132.6701476072
21
133.0481947924
0
LINE
5
293
100
AcDbEntity
8
0
100
AcDbLine
62
7
6
CONTINUOUS
10
127.9722752635
20
168.0186199885
11
127.9722752635
21
166.1980338084
0
LINE
5
294
100
AcDbEntity
8
0
100
AcDbLine
62
7
6
CONTINUOUS
10
127.9722752635
20
165.5911740634
11
127.9722752635
21
165.1360275184
0
LINE
5
295
100
AcDbEntity
8
0
100
AcDbLine
62
7
6
CONTINUOUS
10
127.9722752635
20
164.5291643008
11
127.9722752635
21
164.0740177558
0
LINE
5
296
100
AcDbEntity
8
0
100
AcDbLine
62
7
6
CONTINUOUS
10
127.9722752635
20
161.9500017032
11
127.9722752635
21
161.4948551582
0
LINE
5
297
100
AcDbEntity
8
0
100
AcDbLine
62
7
6
CONTINUOUS
10
127.9722752635
20
157.8536827981
11
127.9722752635
21
157.5502494531
0
LINE
5
298
100
AcDbEntity
8
0
100
AcDbLine
62
7
6
CONTINUOUS
10
127.9722752635
20
152.0884926491
11
127.9722752635
21
151.6333461041
0
LINE
5
299
100
AcDbEntity
8
0
100
AcDbLine
62
7
6
CONTINUOUS
10
127.9722752635
20
149.5093283153
11
127.9722752635
21
149.0541817703
0
LINE
5
29A
100
AcDbEntity
8
0
100
AcDbLine
62
7
6
CONTINUOUS
10
127.9722752635
20
148.4473202890
11
127.9722752635
21
147.9921737440
0
LINE
5
29B
100
AcDbEntity
8
0
100
AcDbLine
62
7
6
CONTINUOUS
10
127.9722752635
20
145.8681559551
11
127.9722752635
21
145.4130094101
0
LINE
5
29C
100
AcDbEntity
8
0
100
AcDbLine
62
7
6
CONTINUOUS
10
127.9722752635
20
144.8061479288
11
127.9722752635
21
144.3510013838
0
LINE
5
29D
100
AcDbEntity
8
0
100
AcDbLine
62
7
6
CONTINUOUS
10
127.9722752635
20
142.2269835950
11
127.9722752635
21
141.7718370500
0
LINE
5
29E
100
AcDbEntity
8
0
100
AcDbLine
62
7
6
CONTINUOUS
10
127.9722752635
20
136.3100785098
11
127.9722752635
21
134.4894923297
0
LINE
5
29F
100
AcDbEntity
8
0
100
AcDbLine
62
7
6
CONTINUOUS
10
127.9722752635
20
133.8826304144
11
127.9722752635
21
133.4274838693
0
LINE
5
2A0
100
AcDbEntity
8
0
100
AcDbLine
62
7
6
CONTINUOUS
10
127.9722752635
20
131.6068976893
11
127.9722752635
21
131.1517509272
0
LINE
5
2A1
100
AcDbEntity
8
0
100
AcDbLine
62
7
6
CONTINUOUS
10
127.9722752635
20
129.4828803345
11
127.9722752635
21
127.6622941544
0
LINE
5
2A2
100
AcDbEntity
8
0
100
AcDbLine
62
7
6
CONTINUOUS
10
128.3722752635
20
189.2622941544
11
128.3722752635
21
212.4622941544
0
LINE
5
2A3
100
AcDbEntity
8
0
100
AcDbLine
62
7
6
CONTINUOUS
10
128.4829135005
20
128.1174406994
11
128.4829135005
21
129.5587380197
0
LINE
5
2A4
100
AcDbEntity
8
0
100
AcDbLine
62
7
6
CONTINUOUS
10
128.4829135005
20
157.5502494531
11
128.4829135005
21
157.8536827981
0
LINE
5
2A5
100
AcDbEntity
8
0
100
AcDbLine
62
7
6
CONTINUOUS
10
128.4829135005
20
166.6531803534
11
128.4829135005
21
168.0944800610
0
LINE
5
2A6
100
AcDbEntity
8
0
100
AcDbLine
62
7
6
CONTINUOUS
10
128.5850411479
20
134.9446388747
11
128.5850411479
21
136.3100785098
0
LINE
5
2A7
100
AcDbEntity
8
0
100
AcDbLine
62
7
6
CONTINUOUS
10
128.0744029109
20
168.3979099335
11
127.9722752635
21
168.0186199885
0
LINE
5
2A8
100
AcDbEntity
8
0
100
AcDbLine
62
7
6
CONTINUOUS
10
128.4829135005
20
168.0944800610
11
128.5850411479
21
168.3220533335
0
LINE
5
2A9
100
AcDbEntity
8
0
100
AcDbLine
62
7
6
CONTINUOUS
10
129.1978073184
20
160.8879919407
11
128.9935517375
21
160.6604186682
0
LINE
5
2AA
100
AcDbEntity
8
0
100
AcDbLine
62
7
6
CONTINUOUS
10
128.5850411479
20
158.1571126706
11
128.8914240901
21
158.4605425431
0
LINE
5
2AB
100
AcDbEntity
8
0
100
AcDbLine
62
7
6
CONTINUOUS
10
128.6871687953
20
158.8398324881
11
128.3807858531
21
158.6122592156
0
LINE
5
2AC
100
AcDbEntity
8
0
100
AcDbLine
62
7
6
CONTINUOUS
10
130.8318496768
20
158.4605425431
11
131.2403604094
21
158.6881158156
0
LINE
5
2AD
100
AcDbEntity
8
0
100
AcDbLine
62
7
6
CONTINUOUS
10
131.9552540128
20
156.9433897081
11
131.5467433516
21
156.7158146993
0
LINE
5
2AE
100
AcDbEntity
8
0
100
AcDbLine
62
7
6
CONTINUOUS
10
128.8914240901
20
158.4605425431
11
129.1978073184
21
158.6122592156
0
LINE
5
2AF
100
AcDbEntity
8
0
100
AcDbLine
62
7
6
CONTINUOUS
10
129.7084455554
20
156.9433897081
11
129.4020626132
21
156.7916730356
0
LINE
5
2B0
100
AcDbEntity
8
0
100
AcDbLine
62
7
6
CONTINUOUS
10
129.5041902606
20
156.4123848268
11
129.9127008502
21
156.5640997630
0
LINE
5
2B1
100
AcDbEntity
8
0
100
AcDbLine
62
7
6
CONTINUOUS
10
131.5467433516
20
156.3365264905
11
132.0573816602
21
156.4882414268
0
LINE
5
2B2
100
AcDbEntity
8
0
100
AcDbLine
62
7
6
CONTINUOUS
10
129.7084455554
20
168.4737665335
11
129.9127008502
21
168.3220533335
0
LINE
5
2B3
100
AcDbEntity
8
0
100
AcDbLine
62
7
6
CONTINUOUS
10
130.5254667346
20
168.3979099335
11
130.2190837924
21
168.7013398060
0
LINE
5
2B4
100
AcDbEntity
8
0
100
AcDbLine
62
7
6
CONTINUOUS
10
131.9552540128
20
158.4605425431
11
132.1595093076
21
158.1571126706
0
LINE
5
2B5
100
AcDbEntity
8
0
100
AcDbLine
62
7
6
CONTINUOUS
10
128.5850411479
20
157.2468195806
11
128.4829135005
21
157.5502494531
0
LINE
5
2B6
100
AcDbEntity
8
0
100
AcDbLine
62
7
6
CONTINUOUS
10
130.0148284976
20
158.1571126706
11
130.1169561450
21
157.8536827981
0
LINE
5
2B7
100
AcDbEntity
8
0
100
AcDbLine
62
7
6
CONTINUOUS
10
130.6275943820
20
157.2468195806
11
130.5254667346
21
157.5502494531
0
LINE
5
2B8
100
AcDbEntity
8
0
100
AcDbLine
62
7
6
CONTINUOUS
10
132.7722752635
20
136.3100785098
11
132.6701476072
21
136.6893675867
0
LINE
5
2B9
100
AcDbEntity
8
0
100
AcDbLine
62
7
6
CONTINUOUS
10
127.9722752635
20
157.5502494531
11
128.0744029109
21
157.1709629806
0
LINE
5
2BA
100
AcDbEntity
8
0
100
AcDbLine
62
7
6
CONTINUOUS
10
129.9127008502
20
151.6333461041
11
129.9127008502
21
149.5093283153
0
LINE
5
2BB
100
AcDbEntity
8
0
100
AcDbLine
62
7
6
CONTINUOUS
10
130.0148284976
20
168.0944800610
11
130.0148284976
21
166.6531803534
0
LINE
5
2BC
100
AcDbEntity
8
0
100
AcDbLine
62
7
6
CONTINUOUS
10
130.0148284976
20
129.5587380197
11
130.0148284976
21
128.1174406994
0
LINE
5
2BD
100
AcDbEntity
8
0
100
AcDbLine
62
7
6
CONTINUOUS
10
130.1169561450
20
157.8536827981
11
130.1169561450
21
157.5502494531
0
LINE
5
2BE
100
AcDbEntity
8
0
100
AcDbLine
62
7
6
CONTINUOUS
10
130.5254667346
20
149.5093283153
11
130.5254667346
21
151.6333461041
0
LINE
5
2BF
100
AcDbEntity
8
0
100
AcDbLine
62
7
6
CONTINUOUS
10
130.5254667346
20
157.5502494531
11
130.5254667346
21
157.8536827981
0
LINE
5
2C0
100
AcDbEntity
8
0
100
AcDbLine
62
7
6
CONTINUOUS
10
130.6275943820
20
128.1174406994
11
130.6275943820
21
129.4070225408
0
LINE
5
2C1
100
AcDbEntity
8
0
100
AcDbLine
62
7
6
CONTINUOUS
10
130.6275943820
20
166.6531803534
11
130.6275943820
21
168.0186199885
0
LINE
5
2C2
100
AcDbEntity
8
0
100
AcDbLine
62
7
6
CONTINUOUS
10
132.1595093076
20
136.3100785098
11
132.1595093076
21
134.9446388747
0
LINE
5
2C3
100
AcDbEntity
8
0
100
AcDbLine
62
7
6
CONTINUOUS
10
132.1595093076
20
132.6689061496
11
132.1595093076
21
132.3654749749
0
LINE
5
2C4
100
AcDbEntity
8
0
100
AcDbLine
62
7
6
CONTINUOUS
10
132.2616369550
20
157.8536827981
11
132.2616369550
21
157.5502494531
0
LINE
5
2C5
100
AcDbEntity
8
0
100
AcDbLine
62
7
6
CONTINUOUS
10
128.0744029109
20
158.2329692706
11
127.9722752635
21
157.8536827981
0
LINE
5
2C6
100
AcDbEntity
8
0
100
AcDbLine
62
7
6
CONTINUOUS
10
128.4829135005
20
157.8536827981
11
128.5850411479
21
158.1571126706
0
LINE
5
2C7
100
AcDbEntity
8
0
100
AcDbLine
62
7
6
CONTINUOUS
10
130.1169561450
20
157.5502494531
11
130.0148284976
21
157.2468195806
0
LINE
5
2C8
100
AcDbEntity
8
0
100
AcDbLine
62
7
6
CONTINUOUS
10
130.5254667346
20
157.8536827981
11
130.6275943820
21
158.1571126706
0
LINE
5
2C9
100
AcDbEntity
8
0
100
AcDbLine
62
7
6
CONTINUOUS
10
114.2294954899
20
110.8707318423
11
116.0708434831
21
115.9297938750
0
LINE
5
2CA
100
AcDbEntity
8
0
100
AcDbLine
62
7
6
CONTINUOUS
10
114.3864123008
20
131.5553841362
11
114.4339295483
21
131.6467980260
0
LINE
5
2CB
100
AcDbEntity
8
0
100
AcDbLine
62
7
6
CONTINUOUS
10
130.4233390872
20
158.6122592156
11
130.3212114398
21
158.4605425431
0
LINE
5
2CC
100
AcDbEntity
8
0
100
AcDbLine
62
7
6
CONTINUOUS
10
130.6275943820
20
158.1571126706
11
130.8318496768
21
158.4605425431
0
LINE
5
2CD
100
AcDbEntity
8
0
100
AcDbLine
62
7
6
CONTINUOUS
10
130.2190837924
20
156.7916730356
11
130.3212114398
21
156.9433897081
0
LINE
5
2CE
100
AcDbEntity
8
0
100
AcDbLine
62
7
6
CONTINUOUS
10
128.3807858531
20
158.6122592156
11
128.0744029109
21
158.2329692706
0
LINE
5
2CF
100
AcDbEntity
8
0
100
AcDbLine
62
7
6
CONTINUOUS
10
131.5467433516
20
159.6742689782
11
131.7509986464
21
159.9018422507
0
LINE
5
2D0
100
AcDbEntity
8
0
100
AcDbLine
62
7
6
CONTINUOUS
10
130.7297220294
20
158.9156890881
11
130.4233390872
21
158.6122592156
0
LINE
5
2D1
100
AcDbEntity
8
0
100
AcDbLine
62
7
6
CONTINUOUS
10
130.0148284976
20
157.2468195806
11
129.7084455554
21
156.9433897081
0
LINE
5
2D2
100
AcDbEntity
8
0
100
AcDbLine
62
7
6
CONTINUOUS
10
129.9127008502
20
156.5640997630
11
130.2190837924
21
156.7916730356
0
LINE
5
2D3
100
AcDbEntity
8
0
100
AcDbLine
62
7
6
CONTINUOUS
10
132.0573816602
20
156.4882414268
11
132.3637646381
21
156.7158146993
0
LINE
5
2D4
100
AcDbEntity
8
0
100
AcDbLine
62
7
6
CONTINUOUS
10
129.9127008502
20
168.3220533335
11
130.0148284976
21
168.0944800610
0
LINE
5
2D5
100
AcDbEntity
8
0
100
AcDbLine
62
7
6
CONTINUOUS
10
132.1595093076
20
158.1571126706
11
132.2616369550
21
157.8536827981
0
LINE
5
2D6
100
AcDbEntity
8
0
100
AcDbLine
62
7
6
CONTINUOUS
10
132.7722752635
20
157.9295393981
11
132.6701476072
21
158.3088293431
0
LINE
5
2D7
100
AcDbEntity
8
0
100
AcDbLine
62
7
6
CONTINUOUS
10
130.6275943820
20
168.0186199885
11
130.5254667346
21
168.3979099335
0
LINE
5
2D8
100
AcDbEntity
8
0
100
AcDbLine
62
7
6
CONTINUOUS
10
132.7722752635
20
127.6622941544
11
132.7722752635
21
128.1174406994
0
LINE
5
2D9
100
AcDbEntity
8
0
100
AcDbLine
62
7
6
CONTINUOUS
10
132.7722752635
20
130.0138845647
11
132.7722752635
21
130.5448890119
0
LINE
5
2DA
100
AcDbEntity
8
0
100
AcDbLine
62
7
6
CONTINUOUS
10
132.7722752635
20
132.3654749749
11
132.7722752635
21
132.6689061496
0
LINE
5
2DB
100
AcDbEntity
8
0
100
AcDbLine
62
7
6
CONTINUOUS
10
132.7722752635
20
134.4894923297
11
132.7722752635
21
136.3100785098
0
LINE
5
2DC
100
AcDbEntity
8
0
100
AcDbLine
62
7
6
CONTINUOUS
10
132.7722752635
20
142.9855617488
11
132.7722752635
21
143.5924232300
0
LINE
5
2DD
100
AcDbEntity
8
0
100
AcDbLine
62
7
6
CONTINUOUS
10
132.7722752635
20
146.6267341089
11
132.7722752635
21
147.2335955902
0
LINE
5
2DE
100
AcDbEntity
8
0
100
AcDbLine
62
7
6
CONTINUOUS
10
132.7722752635
20
149.0541817703
11
132.7722752635
21
149.5093283153
0
LINE
5
2DF
100
AcDbEntity
8
0
100
AcDbLine
62
7
6
CONTINUOUS
10
132.7722752635
20
151.6333461041
11
132.7722752635
21
152.0884926491
0
LINE
5
2E0
100
AcDbEntity
8
0
100
AcDbLine
62
7
6
CONTINUOUS
10
132.7722752635
20
157.4743928531
11
132.7722752635
21
157.9295393981
0
LINE
5
2E1
100
AcDbEntity
8
0
100
AcDbLine
62
7
6
CONTINUOUS
10
132.7722752635
20
162.7085781208
11
132.7722752635
21
163.3154413383
0
LINE
5
2E2
100
AcDbEntity
8
0
100
AcDbLine
62
7
6
CONTINUOUS
10
132.7722752635
20
165.1360275184
11
132.7722752635
21
165.5911740634
0
LINE
5
2E3
100
AcDbEntity
8
0
100
AcDbLine
62
7
6
CONTINUOUS
10
132.7722752635
20
166.1980338084
11
132.7722752635
21
166.6531803534
0
LINE
5
2E4
100
AcDbEntity
8
0
100
AcDbLine
62
7
6
CONTINUOUS
10
132.6701476072
20
157.0951029081
11
132.7722752635
21
157.4743928531
0
LINE
5
2E5
100
AcDbEntity
8
0
100
AcDbLine
62
7
6
CONTINUOUS
10
128.0744029109
20
136.6893675867
11
127.9722752635
21
136.3100785098
0
LINE
5
2E6
100
AcDbEntity
8
0
100
AcDbLine
62
7
6
CONTINUOUS
10
128.0744029109
20
129.8621691944
11
127.9722752635
21
129.4828803345
0
LINE
5
2E7
100
AcDbEntity
8
0
100
AcDbLine
62
7
6
CONTINUOUS
10
132.2616369550
20
157.5502494531
11
132.1595093076
21
157.2468195806
0
LINE
5
2E8
100
AcDbEntity
8
0
100
AcDbLine
62
7
6
CONTINUOUS
10
132.1595093076
20
157.2468195806
11
131.9552540128
21
156.9433897081
0
LINE
5
2E9
100
AcDbEntity
8
0
100
AcDbLine
62
7
6
CONTINUOUS
10
132.3637646381
20
156.7158146993
11
132.6701476072
21
157.0951029081
0
LINE
5
2EA
100
AcDbEntity
8
0
100
AcDbLine
62
7
6
CONTINUOUS
10
139.1722752635
20
136.4622941544
11
139.1722752635
21
163.2192528574
0
LINE
5
2EB
100
AcDbEntity
8
0
100
AcDbLine
62
7
6
CONTINUOUS
10
132.6701476072
20
131.9861863321
11
132.7722752635
21
132.3654749749
0
LINE
5
2EC
100
AcDbEntity
8
0
100
AcDbLine
62
7
6
CONTINUOUS
10
128.5850411479
20
136.3100785098
11
128.6871687953
21
136.6135092504
0
LINE
5
2ED
100
AcDbEntity
8
0
100
AcDbLine
62
7
6
CONTINUOUS
10
132.1595093076
20
132.3654749749
11
132.0573816602
21
132.0620442343
0
LINE
5
2EE
100
AcDbEntity
8
0
100
AcDbLine
62
7
6
CONTINUOUS
10
128.4829135005
20
129.5587380197
11
128.5850411479
21
129.7863112922
0
LINE
5
2EF
100
AcDbEntity
8
0
100
AcDbLine
62
7
6
CONTINUOUS
10
128.2786582057
20
136.9927983273
11
128.0744029109
21
136.6893675867
0
LINE
5
2F0
100
AcDbEntity
8
0
100
AcDbLine
62
7
6
CONTINUOUS
10
128.6871687953
20
136.6135092504
11
128.8914240901
21
136.8410825229
0
LINE
5
2F1
100
AcDbEntity
8
0
100
AcDbLine
62
7
6
CONTINUOUS
10
128.6871687953
20
137.2962290679
11
128.2786582057
21
136.9927983273
0
LINE
5
2F2
100
AcDbEntity
8
0
100
AcDbLine
62
7
6
CONTINUOUS
10
128.8914240901
20
136.8410825229
11
129.1978073184
21
136.9927983273
0
LINE
5
2F3
100
AcDbEntity
8
0
100
AcDbLine
62
7
6
CONTINUOUS
10
129.0956793849
20
137.4479448723
11
128.6871687953
21
137.2962290679
0
LINE
5
2F4
100
AcDbEntity
8
0
100
AcDbLine
62
7
6
CONTINUOUS
10
132.4658922855
20
131.6827551574
11
132.6701476072
21
131.9861863321
0
LINE
5
2F5
100
AcDbEntity
8
0
100
AcDbLine
62
7
6
CONTINUOUS
10
128.3807858531
20
130.1656001520
11
128.0744029109
21
129.8621691944
0
LINE
5
2F6
100
AcDbEntity
8
0
100
AcDbLine
62
7
6
CONTINUOUS
10
132.0573816602
20
132.0620442343
11
131.8531262938
21
131.8344709618
0
LINE
5
2F7
100
AcDbEntity
8
0
100
AcDbLine
62
7
6
CONTINUOUS
10
128.5850411479
20
129.7863112922
11
128.7892964427
21
129.9380268795
0
LINE
5
2F8
100
AcDbEntity
8
0
100
AcDbLine
62
7
6
CONTINUOUS
10
132.0573816602
20
131.3793244168
11
132.4658922855
21
131.6827551574
0
LINE
5
2F9
100
AcDbEntity
8
0
100
AcDbLine
62
7
6
CONTINUOUS
10
128.7892964427
20
130.3931734245
11
128.3807858531
21
130.1656001520
0
LINE
5
2FA
100
AcDbEntity
8
0
100
AcDbLine
62
7
6
CONTINUOUS
10
131.8531262938
20
131.8344709618
11
131.5467433516
21
131.6827551574
0
LINE
5
2FB
100
AcDbEntity
8
0
100
AcDbLine
62
7
6
CONTINUOUS
10
131.6488709990
20
131.2276088294
11
132.0573816602
21
131.3793244168
0
LINE
5
2FC
100
AcDbEntity
8
0
100
AcDbLine
62
7
6
CONTINUOUS
10
132.7722752635
20
130.5448890119
11
130.4233390872
21
129.8621691944
0
LINE
5
2FD
100
AcDbEntity
8
0
100
AcDbLine
62
7
6
CONTINUOUS
10
105.0922752635
20
202.8622941544
11
114.0522752635
21
202.8622941544
0
LINE
5
2FE
100
AcDbEntity
8
DEFAULT_1
100
AcDbLine
62
2
6
CENTER
10
86.6666666667
20
207.6622941544
11
128.9406319230
21
207.6622941544
0
LINE
5
2FF
100
AcDbEntity
8
0
100
AcDbLine
62
7
6
CONTINUOUS
10
128.3722752635
20
212.4622941544
11
123.0019191034
21
218.8624354017
0
LINE
5
300
100
AcDbEntity
8
0
100
AcDbLine
62
7
6
CONTINUOUS
10
90.7722752635
20
210.8622941544
11
97.7047982670
21
210.8622941544
0
LINE
5
301
100
AcDbEntity
8
0
100
AcDbLine
62
7
6
CONTINUOUS
10
121.4397522600
20
210.8622941544
11
128.3722752635
21
210.8622941544
0
LINE
5
302
100
AcDbEntity
8
0
100
AcDbLine
62
7
6
CONTINUOUS
10
105.0922752635
20
212.4622941544
11
114.0522752635
21
212.4622941544
0
LINE
5
303
100
AcDbEntity
8
0
100
AcDbLine
62
7
6
CONTINUOUS
10
96.1249615044
20
218.8622941544
11
98.7503177377
21
218.8622941544
0
LINE
5
304
100
AcDbEntity
8
0
100
AcDbLine
62
7
6
CONTINUOUS
10
120.3942327893
20
218.8622941544
11
123.0195890226
21
218.8622941544
0
LINE
5
305
100
AcDbEntity
8
0
100
AcDbLine
62
7
6
CONTINUOUS
10
300.1771299929
20
110.8622941544
11
290.5771299929
21
110.8622941544
0
LINE
5
306
100
AcDbEntity
8
0
100
AcDbLine
62
7
6
CONTINUOUS
10
281.5143882931
20
115.9297938750
11
286.5734503257
21
110.8707318423
0
LINE
5
307
100
AcDbEntity
8
0
100
AcDbLine
62
7
6
CONTINUOUS
10
306.5771299929
20
127.6622941544
11
306.9771299929
21
127.6622941544
0
LINE
5
308
100
AcDbEntity
8
0
100
AcDbLine
62
7
6
CONTINUOUS
10
284.1771299929
20
210.8622941544
11
285.8676960306
21
213.5792752865
0
LINE
5
309
100
AcDbEntity
8
0
100
AcDbLine
62
7
6
CONTINUOUS
10
306.5771299929
20
130.5448890119
11
306.9771299929
21
130.5448890119
0
LINE
5
30A
100
AcDbEntity
8
0
100
AcDbLine
62
7
6
CONTINUOUS
10
306.5771299929
20
131.1517509272
11
306.9771299929
21
131.1517509272
0
LINE
5
30B
100
AcDbEntity
8
0
100
AcDbLine
62
7
6
CONTINUOUS
10
279.3121532605
20
136.3379218272
11
286.0117723665
21
131.6467980260
0
LINE
5
30C
100
AcDbEntity
8
DEFAULT_2
100
AcDbLine
62
8
6
HIDDEN
10
288.3954090535
20
137.2622941544
11
302.3588509323
21
137.2622941544
0
LINE
5
30D
100
AcDbEntity
8
0
100
AcDbLine
62
7
6
CONTINUOUS
10
287.5771299929
20
137.6096330083
11
281.0313702259
21
140.3881431823
0
LINE
5
30E
100
AcDbEntity
8
0
100
AcDbLine
62
7
6
CONTINUOUS
10
306.5771299929
20
141.7718370500
11
306.9771299929
21
141.7718370500
0
LINE
5
30F
100
AcDbEntity
8
0
100
AcDbLine
62
7
6
CONTINUOUS
10
306.5771299929
20
144.8061479288
11
306.9771299929
21
144.8061479288
0
LINE
5
310
100
AcDbEntity
8
0
100
AcDbLine
62
7
6
CONTINUOUS
10
306.5771299929
20
145.4130094101
11
306.9771299929
21
145.4130094101
0
LINE
5
311
100
AcDbEntity
8
0
100
AcDbLine
62
7
6
CONTINUOUS
10
306.5771299929
20
148.4473202890
11
306.9771299929
21
148.4473202890
0
LINE
5
312
100
AcDbEntity
8
0
100
AcDbLine
62
7
6
CONTINUOUS
10
306.5771299929
20
149.0541817703
11
306.9771299929
21
149.0541817703
0
LINE
5
313
100
AcDbEntity
8
0
100
AcDbLine
62
7
6
CONTINUOUS
10
284.1771299929
20
127.3246514499
11
284.1771299929
21
132.9314284459
0
LINE
5
314
100
AcDbEntity
8
0
100
AcDbLine
62
7
6
CONTINUOUS
10
284.1771299929
20
139.0528473834
11
284.1771299929
21
210.8622941544
0
LINE
5
315
100
AcDbEntity
8
0
100
AcDbLine
62
7
6
CONTINUOUS
10
306.5771299929
20
152.0884926491
11
306.9771299929
21
152.0884926491
0
LINE
5
316
100
AcDbEntity
8
0
100
AcDbLine
62
7
6
CONTINUOUS
10
286.1771299929
20
169.8854804848
11
286.1771299929
21
159.6810934150
0
LINE
5
317
100
AcDbEntity
8
0
100
AcDbLine
62
7
6
CONTINUOUS
10
287.5771299929
20
135.3345494937
11
287.5771299929
21
155.8346250278
0
LINE
5
318
100
AcDbEntity
8
0
100
AcDbLine
62
7
6
CONTINUOUS
10
292.1082049399
20
174.8622432853
11
286.1771299929
21
169.8854804848
0
LINE
5
319
100
AcDbEntity
8
0
100
AcDbLine
62
7
6
CONTINUOUS
10
306.5771299929
20
156.3365264905
11
306.9771299929
21
156.3365264905
0
LINE
5
31A
100
AcDbEntity
8
0
100
AcDbLine
62
7
6
CONTINUOUS
10
306.5771299929
20
156.4123848268
11
306.9771299929
21
156.4123848268
0
LINE
5
31B
100
AcDbEntity
8
0
100
AcDbLine
62
7
6
CONTINUOUS
10
306.5771299929
20
156.5640997630
11
306.9771299929
21
156.5640997630
0
LINE
5
31C
100
AcDbEntity
8
0
100
AcDbLine
62
7
6
CONTINUOUS
10
306.5771299929
20
156.7916730356
11
306.9771299929
21
156.7916730356
0
LINE
5
31D
100
AcDbEntity
8
0
100
AcDbLine
62
7
6
CONTINUOUS
10
306.5771299929
20
157.1709629806
11
306.9771299929
21
157.1709629806
0
LINE
5
31E
100
AcDbEntity
8
0
100
AcDbLine
62
7
6
CONTINUOUS
10
306.5771299929
20
157.5502494531
11
306.9771299929
21
157.5502494531
0
LINE
5
31F
100
AcDbEntity
8
0
100
AcDbLine
62
7
6
CONTINUOUS
10
287.5771299929
20
155.8346250278
11
286.1771299929
21
159.6810934150
0
LINE
5
320
100
AcDbEntity
8
0
100
AcDbLine
62
7
6
CONTINUOUS
10
281.0313702259
20
140.3881431823
11
279.3121532605
21
136.3379218272
0
LINE
5
321
100
AcDbEntity
8
0
100
AcDbLine
62
7
6
CONTINUOUS
10
306.5771299929
20
157.8536827981
11
306.9771299929
21
157.8536827981
0
LINE
5
322
100
AcDbEntity
8
0
100
AcDbLine
62
7
6
CONTINUOUS
10
306.5771299929
20
158.2329692706
11
306.9771299929
21
158.2329692706
0
LINE
5
323
100
AcDbEntity
8
0
100
AcDbLine
62
7
6
CONTINUOUS
10
306.5771299929
20
158.6122592156
11
306.9771299929
21
158.6122592156
0
LINE
5
324
100
AcDbEntity
8
0
100
AcDbLine
62
7
6
CONTINUOUS
10
306.5771299929
20
158.8398324881
11
306.9771299929
21
158.8398324881
0
LINE
5
325
100
AcDbEntity
8
0
100
AcDbLine
62
7
6
CONTINUOUS
10
306.5771299929
20
158.9915491606
11
306.9771299929
21
158.9915491606
0
LINE
5
326
100
AcDbEntity
8
0
100
AcDbLine
62
7
6
CONTINUOUS
10
306.5771299929
20
159.0674057606
11
306.9771299929
21
159.0674057606
0
LINE
5
327
100
AcDbEntity
8
0
100
AcDbLine
62
7
6
CONTINUOUS
10
306.5771299929
20
159.6742689782
11
306.9771299929
21
159.6742689782
0
LINE
5
328
100
AcDbEntity
8
0
100
AcDbLine
62
7
6
CONTINUOUS
10
306.5771299929
20
160.6604186682
11
306.9771299929
21
160.6604186682
0
LINE
5
329
100
AcDbEntity
8
0
100
AcDbLine
62
7
6
CONTINUOUS
10
306.5771299929
20
160.8879919407
11
306.9771299929
21
160.8879919407
0
LINE
5
32A
100
AcDbEntity
8
0
100
AcDbLine
62
7
6
CONTINUOUS
10
306.5771299929
20
161.4948551582
11
306.9771299929
21
161.4948551582
0
LINE
5
32B
100
AcDbEntity
8
0
100
AcDbLine
62
7
6
CONTINUOUS
10
309.9227455240
20
119.4428751859
11
303.1771299929
21
135.3345494937
0
LINE
5
32C
100
AcDbEntity
8
0
100
AcDbLine
62
7
6
CONTINUOUS
10
292.6401572156
20
174.8622941544
11
292.6401572156
21
189.4381278057
0
LINE
5
32D
100
AcDbEntity
8
DEFAULT_1
100
AcDbLine
62
2
6
CENTER
10
295.3771299929
20
207.6622941544
11
295.3771299929
21
109.4077380952
0
LINE
5
32E
100
AcDbEntity
8
DEFAULT_1
100
AcDbLine
62
2
6
CENTER
10
295.3771299929
20
207.6622941544
11
295.3771299929
21
220.6767167538
0
LINE
5
32F
100
AcDbEntity
8
0
100
AcDbLine
62
7
6
CONTINUOUS
10
306.5771299929
20
163.0120079933
11
306.9771299929
21
163.0120079933
0
LINE
5
330
100
AcDbEntity
8
0
100
AcDbLine
62
7
6
CONTINUOUS
10
306.5771299929
20
164.0740177558
11
306.9771299929
21
164.0740177558
0
LINE
5
331
100
AcDbEntity
8
0
100
AcDbLine
62
7
6
CONTINUOUS
10
306.5771299929
20
164.5291643008
11
306.9771299929
21
164.5291643008
0
LINE
5
332
100
AcDbEntity
8
0
100
AcDbLine
62
7
6
CONTINUOUS
10
306.5771299929
20
165.1360275184
11
306.9771299929
21
165.1360275184
0
LINE
5
333
100
AcDbEntity
8
0
100
AcDbLine
62
7
6
CONTINUOUS
10
298.1141027702
20
174.8622941544
11
298.1141027702
21
189.4381278057
0
LINE
5
334
100
AcDbEntity
8
0
100
AcDbLine
62
7
6
CONTINUOUS
10
306.5771299929
20
166.1980338084
11
306.9771299929
21
166.1980338084
0
LINE
5
335
100
AcDbEntity
8
0
100
AcDbLine
62
7
6
CONTINUOUS
10
306.5771299929
20
168.0186199885
11
306.9771299929
21
168.0186199885
0
LINE
5
336
100
AcDbEntity
8
0
100
AcDbLine
62
7
6
CONTINUOUS
10
306.5771299929
20
168.3979099335
11
306.9771299929
21
168.3979099335
0
LINE
5
337
100
AcDbEntity
8
0
100
AcDbLine
62
7
6
CONTINUOUS
10
306.5771299929
20
168.7013398060
11
306.9771299929
21
168.7013398060
0
LINE
5
338
100
AcDbEntity
8
0
100
AcDbLine
62
7
6
CONTINUOUS
10
306.5771299929
20
168.9289130785
11
306.9771299929
21
168.9289130785
0
LINE
5
339
100
AcDbEntity
8
0
100
AcDbLine
62
7
6
CONTINUOUS
10
306.5771299929
20
169.0047731510
11
306.9771299929
21
169.0047731510
0
LINE
5
33A
100
AcDbEntity
8
0
100
AcDbLine
62
7
6
CONTINUOUS
10
309.7228897600
20
140.3881431823
11
311.4421067253
21
136.3379218272
0
LINE
5
33B
100
AcDbEntity
8
0
100
AcDbLine
62
7
6
CONTINUOUS
10
303.1771299929
20
135.3345494937
11
303.1771299929
21
155.8346250278
0
LINE
5
33C
100
AcDbEntity
8
0
100
AcDbLine
62
7
6
CONTINUOUS
10
280.8315144619
20
119.4428751859
11
287.5771299929
21
135.3345494937
0
LINE
5
33D
100
AcDbEntity
8
0
100
AcDbLine
62
7
6
CONTINUOUS
10
304.5771299929
20
169.8854804848
11
304.5771299929
21
159.6810934150
0
LINE
5
33E
100
AcDbEntity
8
0
100
AcDbLine
62
7
6
CONTINUOUS
10
306.5771299929
20
127.3246514499
11
306.5771299929
21
132.9314284459
0
LINE
5
33F
100
AcDbEntity
8
0
100
AcDbLine
62
7
6
CONTINUOUS
10
306.5771299929
20
139.0528473834
11
306.5771299929
21
210.8622941544
0
LINE
5
340
100
AcDbEntity
8
0
100
AcDbLine
62
7
6
CONTINUOUS
10
306.9771299929
20
169.0047731510
11
306.9771299929
21
166.1980338084
0
LINE
5
341
100
AcDbEntity
8
0
100
AcDbLine
62
7
6
CONTINUOUS
10
306.9771299929
20
165.5911740634
11
306.9771299929
21
165.1360275184
0
LINE
5
342
100
AcDbEntity
8
0
100
AcDbLine
62
7
6
CONTINUOUS
10
306.9771299929
20
164.5291643008
11
306.9771299929
21
161.4948551582
0
LINE
5
343
100
AcDbEntity
8
0
100
AcDbLine
62
7
6
CONTINUOUS
10
306.9771299929
20
160.8879919407
11
306.9771299929
21
159.6742689782
0
LINE
5
344
100
AcDbEntity
8
0
100
AcDbLine
62
7
6
CONTINUOUS
10
306.9771299929
20
159.0674057606
11
306.9771299929
21
156.3365264905
0
LINE
5
345
100
AcDbEntity
8
0
100
AcDbLine
62
7
6
CONTINUOUS
10
306.9771299929
20
152.0884926491
11
306.9771299929
21
149.0541817703
0
LINE
5
346
100
AcDbEntity
8
0
100
AcDbLine
62
7
6
CONTINUOUS
10
306.9771299929
20
148.4473202890
11
306.9771299929
21
145.4130094101
0
LINE
5
347
100
AcDbEntity
8
0
100
AcDbLine
62
7
6
CONTINUOUS
10
306.9771299929
20
144.8061479288
11
306.9771299929
21
141.7718370500
0
LINE
5
348
100
AcDbEntity
8
0
100
AcDbLine
62
7
6
CONTINUOUS
10
306.9771299929
20
133.1999105968
11
306.9771299929
21
131.1517509272
0
LINE
5
349
100
AcDbEntity
8
0
100
AcDbLine
62
7
6
CONTINUOUS
10
306.9771299929
20
130.5448890119
11
306.9771299929
21
127.6622941544
0
LINE
5
34A
100
AcDbEntity
8
0
100
AcDbLine
62
7
6
CONTINUOUS
10
303.1771299929
20
155.8346250278
11
304.5771299929
21
159.6810934150
0
LINE
5
34B
100
AcDbEntity
8
0
100
AcDbLine
62
7
6
CONTINUOUS
10
292.1082025566
20
174.8622412855
11
292.1147143089
21
174.8622940994
0
LINE
5
34C
100
AcDbEntity
8
0
100
AcDbLine
62
7
6
CONTINUOUS
10
292.1144447866
20
174.8622941544
11
298.6398151992
21
174.8622941544
0
LINE
5
34D
100
AcDbEntity
8
0
100
AcDbLine
62
7
6
CONTINUOUS
10
298.6460574292
20
174.8622412855
11
298.6395456769
21
174.8622940994
0
LINE
5
34E
100
AcDbEntity
8
0
100
AcDbLine
62
7
6
CONTINUOUS
10
298.6460550459
20
174.8622432853
11
304.5771299929
21
169.8854804848
0
LINE
5
34F
100
AcDbEntity
8
0
100
AcDbLine
62
7
6
CONTINUOUS
10
303.1771299929
20
137.6096330083
11
309.7228897600
21
140.3881431823
0
LINE
5
350
100
AcDbEntity
8
0
100
AcDbLine
62
7
6
CONTINUOUS
10
311.4421067253
20
136.3379218272
11
304.7424876194
21
131.6467980260
0
LINE
5
351
100
AcDbEntity
8
0
100
AcDbLine
62
7
6
CONTINUOUS
10
306.5771299929
20
210.8622941544
11
304.8865639552
21
213.5792752865
0
LINE
5
352
100
AcDbEntity
8
0
100
AcDbLine
62
7
6
CONTINUOUS
10
304.1808096601
20
110.8707318423
11
309.2398716927
21
115.9297938750
0
LINE
5
353
100
AcDbEntity
8
DEFAULT_1
100
AcDbLine
62
2
6
CENTER
10
295.3771299929
20
207.6622941544
11
283.4135050856
21
207.6622941544
0
LINE
5
354
100
AcDbEntity
8
DEFAULT_1
100
AcDbLine
62
2
6
CENTER
10
295.3771299929
20
207.6622941544
11
307.4678450270
21
207.6622941544
0
LINE
5
355
100
AcDbEntity
8
0
100
AcDbLine
62
7
6
CONTINUOUS
10
305.5815744374
20
212.4622941544
11
296.4571299929
21
212.4622941544
0
LINE
5
356
100
AcDbEntity
8
0
100
AcDbLine
62
7
6
CONTINUOUS
10
294.2971299929
20
212.4622941544
11
285.1726855485
21
212.4622941544
0
ARC
5
357
100
AcDbEntity
8
0
100
AcDbCircle
62
7
6
CONTINUOUS
10
109.5722752635
20
245.5517159412
40
28.8000000000
100
AcDbArc
50
247.9285574823
51
261.0509819347
0
ARC
5
358
100
AcDbEntity
8
0
100
AcDbCircle
62
7
6
CONTINUOUS
10
109.5722752635
20
245.5517159412
40
28.8000000000
100
AcDbArc
50
278.9490180653
51
292.0714425177
0
ARC
5
359
100
AcDbEntity
8
0
100
AcDbCircle
62
7
6
CONTINUOUS
10
95.1722752635
20
158.5681799055
40
9.6000000000
100
AcDbArc
50
0.0000000000
51
40.0000012183
0
ARC
5
35A
100
AcDbEntity
8
0
100
AcDbCircle
62
7
6
CONTINUOUS
10
69.5722752635
20
152.4043589037
40
18.4000000000
100
AcDbArc
50
0.0000000000
51
27.6604498993
0
ARC
5
35B
100
AcDbEntity
8
0
100
AcDbCircle
62
7
6
CONTINUOUS
10
94.3722752635
20
165.4028203512
40
9.6000000000
100
AcDbArc
50
130.0000000000
51
207.6604498993
0
ARC
5
35C
100
AcDbEntity
8
0
100
AcDbCircle
62
7
6
CONTINUOUS
10
92.1665693518
20
170.8622941544
40
4.0000000000
100
AcDbArc
50
40.0000000000
51
130.0000000000
0
CIRCLE
5
35D
100
AcDbEntity
8
0
100
AcDbCircle
62
7
6
CONTINUOUS
10
95.4122752635
20
207.6622941544
40
2.0000000000
0
ARC
5
35E
100
AcDbEntity
8
0
100
AcDbCircle
62
7
6
CONTINUOUS
10
146.7722752635
20
189.2622941544
40
18.4000000000
100
AcDbArc
50
180.0000000000
51
225.0473854725
0
ARC
5
35F
100
AcDbEntity
8
0
100
AcDbCircle
62
7
6
CONTINUOUS
10
120.7722752635
20
163.2192528574
40
18.4000000000
100
AcDbArc
50
0.0000000000
51
45.0473854725
0
ARC
5
360
100
AcDbEntity
8
0
100
AcDbCircle
62
7
6
CONTINUOUS
10
109.5722752635
20
196.9422941544
40
4.4800000000
100
AcDbArc
50
180.0000000000
51
360.0000000000
0
ARC
5
361
100
AcDbEntity
8
0
100
AcDbCircle
62
7
6
CONTINUOUS
10
106.3722752635
20
199.4656145942
40
15.6000000000
100
AcDbArc
50
180.0000000000
51
220.0000003713
0
ARC
5
362
100
AcDbEntity
8
0
100
AcDbCircle
62
7
6
CONTINUOUS
10
104.7722752635
20
162.1681799055
40
9.6000000000
100
AcDbArc
50
0.0000000000
51
40.0000000000
0
ARC
5
363
100
AcDbEntity
8
0
100
AcDbCircle
62
7
6
CONTINUOUS
10
108.7722752635
20
141.2622941544
40
4.0000000000
100
AcDbArc
50
180.0000000000
51
233.1030912600
0
ARC
5
364
100
AcDbEntity
8
0
100
AcDbCircle
62
7
6
CONTINUOUS
10
110.3722752635
20
141.2622941544
40
4.0000000000
100
AcDbArc
50
306.8969087392
51
360.0000000000
0
ARC
5
365
100
AcDbEntity
8
0
100
AcDbCircle
62
7
6
CONTINUOUS
10
113.5722752635
20
136.4622941544
40
25.6000000000
100
AcDbArc
50
180.0000000000
51
360.0000000000
0
ARC
5
366
100
AcDbEntity
8
0
100
AcDbCircle
62
7
6
CONTINUOUS
10
104.7722752635
20
162.1681799055
40
19.2830935922
100
AcDbArc
50
0.0000000000
51
40.0000000000
0
ARC
5
367
100
AcDbEntity
8
0
100
AcDbCircle
62
7
6
CONTINUOUS
10
295.3771299929
20
207.6622941544
40
11.2000000000
100
AcDbArc
50
31.8907918018
51
148.1092081982
0
ARC
5
368
100
AcDbEntity
8
0
100
AcDbCircle
62
7
6
CONTINUOUS
10
306.9771299929
20
118.1925355747
40
3.2000000000
100
AcDbArc
50
315.0000000000
51
23.0000000000
0
ARC
5
369
100
AcDbEntity
8
0
100
AcDbCircle
62
7
6
CONTINUOUS
10
283.7771299929
20
118.1925355747
40
3.2000000000
100
AcDbArc
50
157.0000000000
51
225.0000000000
0
CIRCLE
5
36A
100
AcDbEntity
8
0
100
AcDbCircle
62
7
6
CONTINUOUS
10
295.3771299929
20
207.6622941544
40
4.9200000000
0
SPLINE
5
36B
100
AcDbEntity
8
0
100
AcDbSpline
62
7
6
CONTINUOUS
70
0
71
3
72
15
73
11
74
9
42
0.0000001000
43
0.0000001000
44
0.0000000001
40
0.0000000000
40
0.0000000000
40
0.0000000000
40
0.0000000000
40
0.1251723950
40
0.2507355965
40
0.3761708418
40
0.5012149770
40
0.6255801406
40
0.7498209524
40
0.8744112298
40
1.0000000000
40
1.0000000000
40
1.0000000000
40
1.0000000000
10
98.7503177377
20
207.6622941544
30
0.0000000000
10
98.7503177377
20
207.8045391623
30
0.0000000000
10
98.7368614004
20
208.0896502309
30
0.0000000000
10
98.6772951356
20
208.5135136864
30
0.0000000000
10
98.5812618999
20
208.9304255690
30
0.0000000000
10
98.4533023365
20
209.3371245914
30
0.0000000000
10
98.2981962142
20
209.7327051482
30
0.0000000000
10
98.1201123787
20
210.1178369292
30
0.0000000000
10
97.9220435532
20
210.4945825757
30
0.0000000000
10
97.7788941949
20
210.7403176378
30
0.0000000000
10
97.7047982670
20
210.8622941544
30
0.0000000000
11
98.7503177377
21
207.6622941544
31
0.0000000000
11
98.7303409668
21
208.0885613349
31
0.0000000000
11
98.6711800916
21
208.5125208255
31
0.0000000000
11
98.5757606102
21
208.9293703232
31
0.0000000000
11
98.4484474050
21
209.3362132055
31
0.0000000000
11
98.2942826871
21
209.7311750362
31
0.0000000000
11
98.1170648013
21
210.1158776801
31
0.0000000000
11
97.9198922349
21
210.4920903198
31
0.0000000000
11
97.7047982670
21
210.8622941544
31
0.0000000000
0
SPLINE
5
36C
100
AcDbEntity
8
0
100
AcDbSpline
62
7
6
CONTINUOUS
70
0
71
3
72
22
73
18
74
16
42
0.0000001000
43
0.0000001000
44
0.0000000001
40
0.0000000000
40
0.0000000000
40
0.0000000000
40
0.0000000000
40
0.1185317541
40
0.2277882630
40
0.3280319308
40
0.4194842035
40
0.5024270686
40
0.5774498737
40
0.6451902621
40
0.7064441579
40
0.7618675047
40
0.8119085803
40
0.8573506755
40
0.8988449711
40
0.9360755221
40
0.9699411739
40
1.0000000000
40
1.0000000000
40
1.0000000000
40
1.0000000000
10
105.0922752635
20
199.9077045044
30
0.0000000000
10
104.8099389698
20
199.9582652401
30
0.0000000000
10
104.2690323435
20
200.0650970715
30
0.0000000000
10
103.4961289263
20
200.2466476554
30
0.0000000000
10
102.7932549641
20
200.4378016714
30
0.0000000000
10
102.1582271835
20
200.6342267285
30
0.0000000000
10
101.5880430003
20
200.8325027975
30
0.0000000000
10
101.0787997018
20
201.0302626952
30
0.0000000000
10
100.6256006931
20
201.2263910602
30
0.0000000000
10
100.2237067234
20
201.4207154355
30
0.0000000000
10
99.8692537157
20
201.6137679039
30
0.0000000000
10
99.5590839670
20
201.8069777749
30
0.0000000000
10
99.2912107948
20
202.0028635993
30
0.0000000000
10
99.0671980986
20
202.2041580875
30
0.0000000000
10
98.8920040791
20
202.4145427614
30
0.0000000000
10
98.7776292767
20
202.6340268137
30
0.0000000000
10
98.7503177377
20
202.7895566319
30
0.0000000000
10
98.7503177377
20
202.8622941544
30
0.0000000000
11
105.0922752635
21
199.9077045044
31
0.0000000000
11
104.2481434025
21
200.0746564075
31
0.0000000000
11
103.4760716224
21
200.2562915258
31
0.0000000000
11
102.7739424735
21
200.4475818414
31
0.0000000000
11
102.1398065128
21
200.6441370099
31
0.0000000000
11
101.5712366433
21
200.8423364395
31
0.0000000000
11
101.0637427320
21
201.0400004418
31
0.0000000000
11
100.6126900104
21
201.2359132220
31
0.0000000000
11
100.2127112435
21
201.4302111859
31
0.0000000000
11
99.8598693780
21
201.6235645404
31
0.0000000000
11
99.5522480338
21
201.8167927615
31
0.0000000000
11
99.2870884387
21
202.0130483791
31
0.0000000000
11
99.0649318458
21
202.2164816378
31
0.0000000000
11
98.8950607667
21
202.4267025682
31
0.0000000000
11
98.7859455303
21
202.6470097263
31
0.0000000000
11
98.7503177377
21
202.8622941544
31
0.0000000000
0
SPLINE
5
36D
100
AcDbEntity
8
0
100
AcDbSpline
62
7
6
CONTINUOUS
70
0
71
3
72
10
73
6
74
4
42
0.0000001000
43
0.0000001000
44
0.0000000001
40
0.0000000000
40
0.0000000000
40
0.0000000000
40
0.0000000000
40
0.3205945419
40
0.6538330601
40
1.0000000000
40
1.0000000000
40
1.0000000000
40
1.0000000000
10
95.5926144716
20
159.6810934150
30
0.0000000000
10
95.7554450611
20
159.5397470999
30
0.0000000000
10
96.0592083692
20
159.2170179601
30
0.0000000000
10
96.4164598908
20
158.6424239778
30
0.0000000000
10
96.5774330929
20
158.2108813313
30
0.0000000000
10
96.6370669054
20
157.9858275306
30
0.0000000000
11
95.5926144716
21
159.6810934150
31
0.0000000000
11
96.0364610320
21
159.2105262404
31
0.0000000000
11
96.3921752023
21
158.6399503760
31
0.0000000000
11
96.6370669054
21
157.9858275306
31
0.0000000000
0
SPLINE
5
36E
100
AcDbEntity
8
0
100
AcDbSpline
62
7
6
CONTINUOUS
70
0
71
3
72
23
73
19
74
17
42
0.0000001000
43
0.0000001000
44
0.0000000001
40
0.0000000000
40
0.0000000000
40
0.0000000000
40
0.0000000000
40
0.0293237176
40
0.0623929966
40
0.0987961469
40
0.1394848052
40
0.1841313135
40
0.2328810151
40
0.2858087682
40
0.3426555851
40
0.4032985069
40
0.4685262303
40
0.5391424487
40
0.6159428103
40
0.6996917338
40
0.7910661187
40
0.8908630128
40
1.0000000000
40
1.0000000000
40
1.0000000000
40
1.0000000000
10
120.3942327893
20
202.8622940320
30
0.0000000000
10
120.3942327826
20
202.7913338986
30
0.0000000000
10
120.3682818148
20
202.6395456045
30
0.0000000000
10
120.2586479432
20
202.4241521887
30
0.0000000000
10
120.0891992655
20
202.2166528865
30
0.0000000000
10
119.8711895745
20
202.0174725149
30
0.0000000000
10
119.6102843360
20
201.8239118710
30
0.0000000000
10
119.3106901298
20
201.6347074096
30
0.0000000000
10
118.9748400683
20
201.4489825429
30
0.0000000000
10
118.6048250452
20
201.2666082099
30
0.0000000000
10
118.2006457161
20
201.0870789612
30
0.0000000000
10
117.7594803876
20
200.9094944363
30
0.0000000000
10
117.2760393625
20
200.7329691303
30
0.0000000000
10
116.7447768828
20
200.5575233703
30
0.0000000000
10
116.1602324079
20
200.3841211888
30
0.0000000000
10
115.5168112556
20
200.2145764376
30
0.0000000000
10
114.8085016042
20
200.0515482190
30
0.0000000000
10
114.3122390565
20
199.9542587764
30
0.0000000000
10
114.0522752635
20
199.9077045044
30
0.0000000000
11
120.3942327893
21
202.8622940320
31
0.0000000000
11
120.3602783760
21
202.6521389403
31
0.0000000000
11
120.2556025666
21
202.4360891676
31
0.0000000000
11
120.0914487851
21
202.2289789013
31
0.0000000000
11
119.8752698917
21
202.0276840445
31
0.0000000000
11
119.6160989451
21
201.8330475090
31
0.0000000000
11
119.3175819984
21
201.6429488903
31
0.0000000000
11
118.9818001094
21
201.4561623191
31
0.0000000000
11
118.6119445311
21
201.2730803998
31
0.0000000000
11
118.2098168920
21
201.0938846807
31
0.0000000000
11
117.7706955627
21
200.9166714331
31
0.0000000000
11
117.2892627003
21
200.7405107226
31
0.0000000000
11
116.7599328872
21
200.5653925924
31
0.0000000000
11
116.1771221755
21
200.3922378304
31
0.0000000000
11
115.5357276529
21
200.2229953711
31
0.0000000000
11
114.8297397137
21
200.0602997000
31
0.0000000000
11
114.0522752635
21
199.9077045044
31
0.0000000000
0
SPLINE
5
36F
100
AcDbEntity
8
0
100
AcDbSpline
62
7
6
CONTINUOUS
70
0
71
3
72
13
73
9
74
7
42
0.0000001000
43
0.0000001000
44
0.0000000001
40
0.0000000000
40
0.0000000000
40
0.0000000000
40
0.0000000000
40
0.2000804191
40
0.3780666565
40
0.5404994044
40
0.6936683070
40
0.8442769529
40
1.0000000000
40
1.0000000000
40
1.0000000000
40
1.0000000000
10
92.1460324113
20
174.8622432853
30
0.0000000000
10
91.6757827484
20
174.6961269799
30
0.0000000000
10
90.8027105866
20
174.3342198073
30
0.0000000000
10
89.6324244237
20
173.6581892432
30
0.0000000000
10
88.6676697670
20
172.8860055875
30
0.0000000000
10
87.8967268050
20
172.0072236600
30
0.0000000000
10
87.3249463753
20
171.0052928850
30
0.0000000000
10
87.1008860694
20
170.2671356539
30
0.0000000000
10
87.0301170450
20
169.8854804848
30
0.0000000000
11
92.1460324113
21
174.8622432853
31
0.0000000000
11
90.7669479891
21
174.2819929015
31
0.0000000000
11
89.6183481192
21
173.6095450650
31
0.0000000000
11
88.6747213491
21
172.8447175799
31
0.0000000000
11
87.9241021816
21
171.9795739437
31
0.0000000000
11
87.3692908242
21
170.9994739560
31
0.0000000000
11
87.0301170450
21
169.8854804848
31
0.0000000000
0
SPLINE
5
370
100
AcDbEntity
8
0
100
AcDbSpline
62
7
6
CONTINUOUS
70
0
71
3
72
12
73
8
74
6
42
0.0000001000
43
0.0000001000
44
0.0000000001
40
0.0000000000
40
0.0000000000
40
0.0000000000
40
0.0000000000
40
0.2038750415
40
0.4105629276
40
0.6152603114
40
0.8132553959
40
1.0000000000
40
1.0000000000
40
1.0000000000
40
1.0000000000
10
97.7047982670
20
210.8622941544
30
0.0000000000
10
97.8217543047
20
211.0257653265
30
0.0000000000
10
98.0472427697
20
211.3623843811
30
0.0000000000
10
98.3420086582
20
211.8935898543
30
0.0000000000
10
98.5732636462
20
212.4499183226
30
0.0000000000
10
98.7178297219
20
213.0151426824
30
0.0000000000
10
98.7503177377
20
213.3951629230
30
0.0000000000
10
98.7503177377
20
213.5792752865
30
0.0000000000
11
97.7047982670
21
210.8622941544
31
0.0000000000
11
98.0385983647
21
211.3644807179
31
0.0000000000
11
98.3326195020
21
211.9004547171
31
0.0000000000
11
98.5618401139
21
212.4608215557
31
0.0000000000
11
98.7042027219
21
213.0288666502
31
0.0000000000
11
98.7503177377
21
213.5792752865
31
0.0000000000
0
SPLINE
5
371
100
AcDbEntity
8
0
100
AcDbSpline
62
7
6
CONTINUOUS
70
0
71
3
72
12
73
8
74
6
42
0.0000001000
43
0.0000001000
44
0.0000000001
40
0.0000000000
40
0.0000000000
40
0.0000000000
40
0.0000000000
40
0.1868734550
40
0.3848671287
40
0.5894973325
40
0.7961186127
40
1.0000000000
40
1.0000000000
40
1.0000000000
40
1.0000000000
10
120.3942327893
20
213.5792752865
30
0.0000000000
10
120.3942327893
20
213.3950359115
30
0.0000000000
10
120.4267548008
20
213.0148888048
30
0.0000000000
10
120.5713932485
20
212.4496225786
30
0.0000000000
10
120.8026275026
20
211.8934320058
30
0.0000000000
10
121.0973375036
20
211.3623402820
30
0.0000000000
10
121.3227925966
20
211.0257703941
30
0.0000000000
10
121.4397522600
20
210.8622941544
30
0.0000000000
11
120.3942327893
21
213.5792752865
31
0.0000000000
11
120.4404108052
21
213.0284895599
31
0.0000000000
11
120.5828296764
21
212.4604629469
31
0.0000000000
11
120.8120087274
21
211.9002938715
31
0.0000000000
11
121.1059424058
21
211.3644966788
31
0.0000000000
11
121.4397522600
21
210.8622941544
31
0.0000000000
0
SPLINE
5
372
100
AcDbEntity
8
0
100
AcDbSpline
62
7
6
CONTINUOUS
70
0
71
3
72
15
73
11
74
9
42
0.0000001000
43
0.0000001000
44
0.0000000001
40
0.0000000000
40
0.0000000000
40
0.0000000000
40
0.0000000000
40
0.1259082512
40
0.2510369831
40
0.3757849940
40
0.5003907237
40
0.6252364343
40
0.7501752346
40
0.8751831543
40
1.0000000000
40
1.0000000000
40
1.0000000000
40
1.0000000000
10
121.4397522600
20
210.8622941544
30
0.0000000000
10
121.3654677937
20
210.7400072665
30
0.0000000000
10
121.2218387314
20
210.4934222800
30
0.0000000000
10
121.0231277070
20
210.1152588909
30
0.0000000000
10
120.8446159047
20
209.7287109382
30
0.0000000000
10
120.6895823386
20
209.3324283140
30
0.0000000000
10
120.5621407534
20
208.9261078660
30
0.0000000000
10
120.4667496556
20
208.5105105756
30
0.0000000000
10
120.4076018441
20
208.0882099273
30
0.0000000000
10
120.3942327893
20
207.8041352109
30
0.0000000000
10
120.3942327893
20
207.6622941544
30
0.0000000000
11
121.4397522600
21
210.8622941544
31
0.0000000000
11
121.2241305166
21
210.4911369805
31
0.0000000000
11
121.0261909433
21
210.1132535045
31
0.0000000000
11
120.8484413183
21
209.7268917848
31
0.0000000000
11
120.6942821132
21
209.3310472452
31
0.0000000000
11
120.5675313542
21
208.9247370554
31
0.0000000000
11
120.4728057521
21
208.5094648117
31
0.0000000000
11
120.4140966670
21
208.0873534375
31
0.0000000000
11
120.3942327893
21
207.6622941544
31
0.0000000000
0
SPLINE
5
373
100
AcDbEntity
8
0
100
AcDbSpline
62
7
6
CONTINUOUS
70
0
71
3
72
14
73
10
74
8
42
0.0000001000
43
0.0000001000
44
0.0000000001
40
0.0000000000
40
0.0000000000
40
0.0000000000
40
0.0000000000
40
0.1035879963
40
0.2184797348
40
0.3456254867
40
0.4860786440
40
0.6410508393
40
0.8118430923
40
1.0000000000
40
1.0000000000
40
1.0000000000
40
1.0000000000
10
104.7722752635
20
147.2622941544
30
0.0000000000
10
104.3757086472
20
146.9684853667
30
0.0000000000
10
103.5790757471
20
146.2940187316
30
0.0000000000
10
102.4453407716
20
145.0959226986
30
0.0000000000
10
101.3260903423
20
143.6544347327
30
0.0000000000
10
100.2317784042
20
141.9618475973
30
0.0000000000
10
99.1713161104
20
140.0077890027
30
0.0000000000
10
98.1537298688
20
137.7788068351
30
0.0000000000
10
97.5421453542
20
136.1803730605
30
0.0000000000
10
97.2450695785
20
135.3345494937
30
0.0000000000
11
104.7722752635
21
147.2622941544
31
0.0000000000
11
103.6382685935
21
146.3102820553
31
0.0000000000
11
102.5048445064
21
145.1219178166
31
0.0000000000
11
101.3853630674
21
143.6902831048
31
0.0000000000
11
100.2904147564
21
142.0075925420
31
0.0000000000
11
99.2290168198
21
140.0633391924
31
0.0000000000
11
98.2105599146
21
137.8447032969
31
0.0000000000
11
97.2450695785
21
135.3345494937
31
0.0000000000
0
SPLINE
5
374
100
AcDbEntity
8
0
100
AcDbSpline
62
7
6
CONTINUOUS
70
0
71
3
72
14
73
10
74
8
42
0.0000001000
43
0.0000001000
44
0.0000000001
40
0.0000000000
40
0.0000000000
40
0.0000000000
40
0.0000000000
40
0.1595345191
40
0.3176108456
40
0.4709076792
40
0.6183054017
40
0.7565427342
40
0.8844599200
40
1.0000000000
40
1.0000000000
40
1.0000000000
40
1.0000000000
10
112.7722752635
20
123.0362028756
30
0.0000000000
10
112.7722752635
20
123.5010479996
30
0.0000000000
10
112.7947796578
20
124.4266525476
30
0.0000000000
10
112.8960552710
20
125.7955832864
30
0.0000000000
10
113.0640955820
20
127.1223926356
30
0.0000000000
10
113.2966714370
20
128.3807780810
30
0.0000000000
10
113.5914973633
20
129.5501802689
30
0.0000000000
10
113.9442525674
20
130.6060889270
30
0.0000000000
10
114.2311414005
20
131.2566732950
30
0.0000000000
10
114.3864123008
20
131.5553841362
30
0.0000000000
11
112.7722752635
21
123.0362028756
31
0.0000000000
11
112.8064389831
21
124.4303197086
31
0.0000000000
11
112.9092187077
21
125.8082808520
31
0.0000000000
11
113.0790407699
21
127.1374863915
31
0.0000000000
11
113.3154479384
21
128.4040566816
31
0.0000000000
11
113.6140236904
21
129.5749590866
31
0.0000000000
11
113.9727769797
21
130.6340043048
31
0.0000000000
11
114.3864123008
21
131.5553841362
31
0.0000000000
0
SPLINE
5
375
100
AcDbEntity
8
0
100
AcDbSpline
62
7
6
CONTINUOUS
70
0
71
3
72
16
73
12
74
10
42
0.0000001000
43
0.0000001000
44
0.0000000001
40
0.0000000000
40
0.0000000000
40
0.0000000000
40
0.0000000000
40
0.1624599789
40
0.3088211896
40
0.4408614232
40
0.5600260800
40
0.6675319849
40
0.7643996877
40
0.8515533630
40
0.9298568316
40
1.0000000000
40
1.0000000000
40
1.0000000000
40
1.0000000000
10
124.0553688557
20
127.3246514499
30
0.0000000000
10
123.8162288409
20
128.5245727075
30
0.0000000000
10
123.3018136242
20
130.7942362949
30
0.0000000000
10
122.3843126895
20
133.9870318410
30
0.0000000000
10
121.3854796546
20
136.8117277549
30
0.0000000000
10
120.3212042068
20
139.2970068631
30
0.0000000000
10
119.2043423304
20
141.4651643162
30
0.0000000000
10
118.0461034222
20
143.3333649076
30
0.0000000000
10
116.8570127232
20
144.9149241339
30
0.0000000000
10
115.6493337355
20
146.2193165763
30
0.0000000000
10
114.7967358147
20
146.9478192721
30
0.0000000000
10
114.3722752635
20
147.2622941544
30
0.0000000000
11
124.0553688557
21
127.3246514499
31
0.0000000000
11
123.2394939030
21
130.9033856957
31
0.0000000000
11
122.3213286892
21
134.0801897606
31
0.0000000000
11
121.3215820566
21
136.8909511094
31
0.0000000000
11
120.2562246502
21
139.3635639585
31
0.0000000000
11
119.1381571260
21
141.5198815714
31
0.0000000000
11
117.9789604342
21
143.3762742307
31
0.0000000000
11
116.7896691168
21
144.9456703916
31
0.0000000000
11
115.5819991742
21
146.2385173426
31
0.0000000000
11
114.3722752635
21
147.2622941544
31
0.0000000000
0
SPLINE
5
376
100
AcDbEntity
8
0
100
AcDbSpline
62
7
6
CONTINUOUS
70
0
71
3
72
13
73
9
74
7
42
0.0000001000
43
0.0000001000
44
0.0000000001
40
0.0000000000
40
0.0000000000
40
0.0000000000
40
0.0000000000
40
0.1702527989
40
0.3458238286
40
0.5215976412
40
0.6926166347
40
0.8534667830
40
1.0000000000
40
1.0000000000
40
1.0000000000
40
1.0000000000
10
116.3193892314
20
119.4428751859
30
0.0000000000
10
116.3501759146
20
119.2436037246
30
0.0000000000
10
116.3956915635
20
118.8360771463
30
0.0000000000
10
116.4192709613
20
118.2182970711
30
0.0000000000
10
116.3992872789
20
117.5994467059
30
0.0000000000
10
116.3362187968
20
117.0009398433
30
0.0000000000
10
116.2316053295
20
116.4434732914
30
0.0000000000
10
116.1301989639
20
116.0928717181
30
0.0000000000
10
116.0708434831
20
115.9297938750
30
0.0000000000
11
116.3193892314
21
119.4428751859
31
0.0000000000
11
116.3877490335
21
118.8418432782
31
0.0000000000
11
116.4119392371
21
118.2185099020
31
0.0000000000
11
116.3914451103
21
117.5943231867
31
0.0000000000
11
116.3266329499
21
116.9901604038
31
0.0000000000
11
116.2191123201
21
116.4288664712
31
0.0000000000
11
116.0708434831
21
115.9297938750
31
0.0000000000
0
SPLINE
5
377
100
AcDbEntity
8
0
100
AcDbSpline
62
7
6
CONTINUOUS
70
0
71
3
72
13
73
9
74
7
42
0.0000001000
43
0.0000001000
44
0.0000000001
40
0.0000000000
40
0.0000000000
40
0.0000000000
40
0.0000000000
40
0.1702527989
40
0.3458238286
40
0.5215976412
40
0.6926166347
40
0.8534667830
40
1.0000000000
40
1.0000000000
40
1.0000000000
40
1.0000000000
10
102.8251612956
20
119.4428751859
30
0.0000000000
10
102.7943746124
20
119.2436037246
30
0.0000000000
10
102.7488589635
20
118.8360771463
30
0.0000000000
10
102.7252795657
20
118.2182970711
30
0.0000000000
10
102.7452632481
20
117.5994467059
30
0.0000000000
10
102.8083317302
20
117.0009398433
30
0.0000000000
10
102.9129451975
20
116.4434732914
30
0.0000000000
10
103.0143515631
20
116.0928717181
30
0.0000000000
10
103.0737070439
20
115.9297938750
30
0.0000000000
11
102.8251612956
21
119.4428751859
31
0.0000000000
11
102.7568014935
21
118.8418432782
31
0.0000000000
11
102.7326112899
21
118.2185099020
31
0.0000000000
11
102.7531054166
21
117.5943231867
31
0.0000000000
11
102.8179175771
21
116.9901604038
31
0.0000000000
11
102.9254382069
21
116.4288664712
31
0.0000000000
11
103.0737070439
21
115.9297938750
31
0.0000000000
0
SPLINE
5
378
100
AcDbEntity
8
0
100
AcDbSpline
62
7
6
CONTINUOUS
70
0
71
3
72
14
73
10
74
8
42
0.0000001000
43
0.0000001000
44
0.0000000001
40
0.0000000000
40
0.0000000000
40
0.0000000000
40
0.0000000000
40
0.1595345191
40
0.3176108456
40
0.4709076792
40
0.6183054017
40
0.7565427342
40
0.8844599200
40
1.0000000000
40
1.0000000000
40
1.0000000000
40
1.0000000000
10
106.3722752635
20
123.0362028756
30
0.0000000000
10
106.3722752635
20
123.5010479996
30
0.0000000000
10
106.3497708692
20
124.4266525476
30
0.0000000000
10
106.2484952560
20
125.7955832864
30
0.0000000000
10
106.0804549450
20
127.1223926356
30
0.0000000000
10
105.8478790900
20
128.3807780810
30
0.0000000000
10
105.5530531637
20
129.5501802689
30
0.0000000000
10
105.2002979596
20
130.6060889270
30
0.0000000000
10
104.9134091265
20
131.2566732950
30
0.0000000000
10
104.7581382262
20
131.5553841362
30
0.0000000000
11
106.3722752635
21
123.0362028756
31
0.0000000000
11
106.3381115439
21
124.4303197086
31
0.0000000000
11
106.2353318192
21
125.8082808520
31
0.0000000000
11
106.0655097571
21
127.1374863915
31
0.0000000000
11
105.8291025886
21
128.4040566816
31
0.0000000000
11
105.5305268366
21
129.5749590866
31
0.0000000000
11
105.1717735472
21
130.6340043048
31
0.0000000000
11
104.7581382262
21
131.5553841362
31
0.0000000000
0
SPLINE
5
379
100
AcDbEntity
8
0
100
AcDbSpline
62
7
6
CONTINUOUS
70
0
71
3
72
10
73
6
74
4
42
0.0000001000
43
0.0000001000
44
0.0000000001
40
0.0000000000
40
0.0000000000
40
0.0000000000
40
0.0000000000
40
0.3277963031
40
0.6611071388
40
1.0000000000
40
1.0000000000
40
1.0000000000
40
1.0000000000
10
97.2450695785
20
155.8346250278
30
0.0000000000
10
97.1746296047
20
156.0685183316
30
0.0000000000
10
97.0353096516
20
156.5410711370
30
0.0000000000
10
96.8326513559
20
157.2581878583
30
0.0000000000
10
96.7017513579
20
157.7417129707
30
0.0000000000
10
96.6370669054
20
157.9858275306
30
0.0000000000
11
97.2450695785
21
155.8346250278
31
0.0000000000
11
97.0377848631
21
156.5375075601
31
0.0000000000
11
96.8350924853
21
157.2545479394
31
0.0000000000
11
96.6370669054
21
157.9858275306
31
0.0000000000
0
SPLINE
5
37A
100
AcDbEntity
8
0
100
AcDbSpline
62
7
6
CONTINUOUS
70
0
71
3
72
9
73
5
74
3
42
0.0000001000
43
0.0000001000
44
0.0000000001
40
0.0000000000
40
0.0000000000
40
0.0000000000
40
0.0000000000
40
0.7390808774
40
1.0000000000
40
1.0000000000
40
1.0000000000
40
1.0000000000
10
286.5734503257
20
110.8707318423
30
0.0000000000
10
287.0182873714
20
110.8665738763
30
0.0000000000
10
287.6201876753
20
110.8630279525
30
0.0000000000
10
288.2220938610
20
110.8622941447
30
0.0000000000
10
288.3791426753
20
110.8622941346
30
0.0000000000
11
286.5734503257
21
110.8707318423
31
0.0000000000
11
287.9079965937
21
110.8628685191
31
0.0000000000
11
288.3791426753
21
110.8622941346
31
0.0000000000
0
SPLINE
5
37B
100
AcDbEntity
8
0
100
AcDbSpline
62
7
6
CONTINUOUS
70
0
71
3
72
9
73
5
74
3
42
0.0000001000
43
0.0000001000
44
0.0000000001
40
0.0000000000
40
0.0000000000
40
0.0000000000
40
0.0000000000
40
0.7390808774
40
1.0000000000
40
1.0000000000
40
1.0000000000
40
1.0000000000
10
304.1808096601
20
110.8707318423
30
0.0000000000
10
303.7359726144
20
110.8665738763
30
0.0000000000
10
303.1340723105
20
110.8630279525
30
0.0000000000
10
302.5321661248
20
110.8622941447
30
0.0000000000
10
302.3751173105
20
110.8622941346
30
0.0000000000
11
304.1808096601
21
110.8707318423
31
0.0000000000
11
302.8462633921
21
110.8628685191
31
0.0000000000
11
302.3751173105
21
110.8622941346
31
0.0000000000
0
SPLINE
5
37C
100
AcDbEntity
8
0
100
AcDbSpline
62
7
6
CONTINUOUS
70
0
71
3
72
9
73
5
74
3
42
0.0000001000
43
0.0000001000
44
0.0000000001
40
0.0000000000
40
0.0000000000
40
0.0000000000
40
0.0000000000
40
0.3929181339
40
1.0000000000
40
1.0000000000
40
1.0000000000
40
1.0000000000
10
302.3751173105
20
110.8622941346
30
0.0000000000
10
302.0872347796
20
110.8622941160
30
0.0000000000
10
301.3545567979
20
110.8639313543
30
0.0000000000
10
300.6218959953
20
110.8697359362
30
0.0000000000
10
300.1771299929
20
110.8747972077
30
0.0000000000
11
302.3751173105
21
110.8622941346
31
0.0000000000
11
301.5114725011
21
110.8642240911
31
0.0000000000
11
300.1771299929
21
110.8747972077
31
0.0000000000
0
SPLINE
5
37D
100
AcDbEntity
8
0
100
AcDbSpline
62
7
6
CONTINUOUS
70
0
71
3
72
12
73
8
74
6
42
0.0000001000
43
0.0000001000
44
0.0000000001
40
0.0000000000
40
0.0000000000
40
0.0000000000
40
0.0000000000
40
0.1590209538
40
0.3358608247
40
0.5335900139
40
0.7546629705
40
1.0000000000
40
1.0000000000
40
1.0000000000
40
1.0000000000
10
306.5771299929
20
208.8518983587
30
0.0000000000
10
306.0752102429
20
208.4852798692
30
0.0000000000
10
305.0641745811
20
207.6420428708
30
0.0000000000
10
303.6285932205
20
206.1230555178
30
0.0000000000
10
302.2290433427
20
204.2563259622
30
0.0000000000
10
300.9055897437
20
202.0176288521
30
0.0000000000
10
300.1462304716
20
200.3560400593
30
0.0000000000
10
299.7902813186
20
199.4656145942
30
0.0000000000
11
306.5771299929
21
208.8518983587
31
0.0000000000
11
305.1418975720
21
207.6614779000
31
0.0000000000
11
303.7132448323
21
206.1585398083
31
0.0000000000
11
302.3172123423
21
204.3073743030
31
0.0000000000
11
300.9921509438
21
202.0793332440
31
0.0000000000
11
299.7902813186
21
199.4656145942
31
0.0000000000
0
SPLINE
5
37E
100
AcDbEntity
8
0
100
AcDbSpline
62
7
6
CONTINUOUS
70
0
71
3
72
12
73
8
74
6
42
0.0000001000
43
0.0000001000
44
0.0000000001
40
0.0000000000
40
0.0000000000
40
0.0000000000
40
0.0000000000
40
0.1590209538
40
0.3358608247
40
0.5335900139
40
0.7546629705
40
1.0000000000
40
1.0000000000
40
1.0000000000
40
1.0000000000
10
284.1771299929
20
208.8518983587
30
0.0000000000
10
284.6790497429
20
208.4852798692
30
0.0000000000
10
285.6900854048
20
207.6420428708
30
0.0000000000
10
287.1256667653
20
206.1230555178
30
0.0000000000
10
288.5252166431
20
204.2563259622
30
0.0000000000
10
289.8486702421
20
202.0176288521
30
0.0000000000
10
290.6080295142
20
200.3560400593
30
0.0000000000
10
290.9639786672
20
199.4656145942
30
0.0000000000
11
284.1771299929
21
208.8518983587
31
0.0000000000
11
285.6123624139
21
207.6614779000
31
0.0000000000
11
287.0410151535
21
206.1585398083
31
0.0000000000
11
288.4370476435
21
204.3073743030
31
0.0000000000
11
289.7621090420
21
202.0793332440
31
0.0000000000
11
290.9639786672
21
199.4656145942
31
0.0000000000
0
SPLINE
5
37F
100
AcDbEntity
8
0
100
AcDbSpline
62
7
6
CONTINUOUS
70
0
71
3
72
13
73
9
74
7
42
0.0000001000
43
0.0000001000
44
0.0000000001
40
0.0000000000
40
0.0000000000
40
0.0000000000
40
0.0000000000
40
0.1509609611
40
0.3145300206
40
0.4850407201
40
0.6592694728
40
0.8329035831
40
1.0000000000
40
1.0000000000
40
1.0000000000
40
1.0000000000
10
292.6401572136
20
189.4381278057
30
0.0000000000
10
292.6401572150
20
189.9524830259
30
0.0000000000
10
292.6124531540
20
191.0242543126
30
0.0000000000
10
292.4960670765
20
192.6733213134
30
0.0000000000
10
292.2907507725
20
194.3938100507
30
0.0000000000
10
291.9810434491
20
196.1338809933
30
0.0000000000
10
291.5528022325
20
197.8370633682
30
0.0000000000
10
291.1753101501
20
198.9369578116
30
0.0000000000
10
290.9639786672
20
199.4656145942
30
0.0000000000
11
292.6401572136
21
189.4381278057
31
0.0000000000
11
292.6025599501
21
190.9807353639
31
0.0000000000
11
292.4846012042
21
192.6485099189
31
0.0000000000
11
292.2759302868
21
194.3788687708
31
0.0000000000
11
291.9602561399
21
196.1315682164
31
0.0000000000
11
291.5229186989
21
197.8516638682
31
0.0000000000
11
290.9639786672
21
199.4656145942
31
0.0000000000
0
SPLINE
5
380
100
AcDbEntity
8
0
100
AcDbSpline
62
7
6
CONTINUOUS
70
0
71
3
72
13
73
9
74
7
42
0.0000001000
43
0.0000001000
44
0.0000000001
40
0.0000000000
40
0.0000000000
40
0.0000000000
40
0.0000000000
40
0.1509609611
40
0.3145300206
40
0.4850407201
40
0.6592694728
40
0.8329035831
40
1.0000000000
40
1.0000000000
40
1.0000000000
40
1.0000000000
10
298.1141027722
20
189.4381278057
30
0.0000000000
10
298.1141027708
20
189.9524830259
30
0.0000000000
10
298.1418068318
20
191.0242543126
30
0.0000000000
10
298.2581929093
20
192.6733213134
30
0.0000000000
10
298.4635092133
20
194.3938100507
30
0.0000000000
10
298.7732165367
20
196.1338809933
30
0.0000000000
10
299.2014577533
20
197.8370633682
30
0.0000000000
10
299.5789498357
20
198.9369578116
30
0.0000000000
10
299.7902813186
20
199.4656145942
30
0.0000000000
11
298.1141027722
21
189.4381278057
31
0.0000000000
11
298.1517000357
21
190.9807353639
31
0.0000000000
11
298.2696587816
21
192.6485099189
31
0.0000000000
11
298.4783296990
21
194.3788687708
31
0.0000000000
11
298.7940038460
21
196.1315682164
31
0.0000000000
11
299.2313412869
21
197.8516638682
31
0.0000000000
11
299.7902813186
21
199.4656145942
31
0.0000000000
0
SPLINE
5
381
100
AcDbEntity
8
0
100
AcDbSpline
62
7
6
CONTINUOUS
70
0
71
3
72
9
73
5
74
3
42
0.0000001000
43
0.0000001000
44
0.0000000001
40
0.0000000000
40
0.0000000000
40
0.0000000000
40
0.0000000000
40
0.3929181339
40
1.0000000000
40
1.0000000000
40
1.0000000000
40
1.0000000000
10
288.3791426753
20
110.8622941346
30
0.0000000000
10
288.6670252062
20
110.8622941160
30
0.0000000000
10
289.3997031879
20
110.8639313543
30
0.0000000000
10
290.1323639905
20
110.8697359362
30
0.0000000000
10
290.5771299929
20
110.8747972077
30
0.0000000000
11
288.3791426753
21
110.8622941346
31
0.0000000000
11
289.2427874847
21
110.8642240911
31
0.0000000000
11
290.5771299929
21
110.8747972077
31
0.0000000000
0
ENDSEC
0
SECTION
2
OBJECTS
0
DICTIONARY
5
382
100
AcDbDictionary
3
ACAD_GROUP
350
383
3
ACAD_MLINESTYLE
350
384
0
DICTIONARY
5
383
102
{ACAD_REACTORS
330
382
102
}
100
AcDbDictionary
0
DICTIONARY
5
384
102
{ACAD_REACTORS
330
382
102
}
100
AcDbDictionary
3
STANDARD
350
385
0
MLINESTYLE
5
385
102
{ACAD_REACTORS
330
384
102
}
100
AcDbMlineStyle
2
STANDARD
70
0
3

62
256
51
90.0
52
90.0
71
2
49
0.5
62
256
6
BYLAYER
49
-0.5
62
256
6
BYLAYER
0
ENDSEC
0
EOF
