999
DXF file: C:\Aktuell-Internet\CAD-Daten\2vvh6.dxf
999
Pro/ENGINEER 2001400 by Parametric Technology Corporation
0
SECTION
2
HEADER
9
$ACADVER
1
AC1014
9
$EXTMAX
10
420.0000000000
20
297.0000000000
9
$EXTMIN
10
0.0000000000
20
0.0000000000
9
$LIMMIN
10
0.0000000000
20
0.0000000000
9
$LIMMAX
10
420.0000000000
20
297.0000000000
9
$VIEWCTR
10
210.0000000000
20
148.5000000000
9
$VIEWSIZE
40
297.0000000000
9
$CLAYER
8
0
9
$LTSCALE
40
23.1000000000
9
$CELTYPE
6
BYLAYER
9
$DIMSCALE
40
1
9
$DIMASZ
40
3.5000000000
9
$DIMEXO
40
2.6250000000
9
$DIMDLI
40
15.9600000000
9
$DIMEXE
40
7.5600000000
9
$DIMCEN
40
3.7800000000
9
$DIMLFAC
40
1.0000000000
9
$DIMTXT
40
3.5000000000
9
$DIMTOL
70
1
9
$DIMTFAC
40
0.6000000000
9
$DIMTP
40
0.0050000000
9
$DIMTM
40
0.0050000000
9
$HANDSEED
5
288
0
ENDSEC
0
SECTION
2
CLASSES
0
ENDSEC
0
SECTION
2
TABLES
0
TABLE
2
VPORT
5
8
100
AcDbSymbolTable
70
2
0
VPORT
5
1F4
100
AcDbSymbolTableRecord
100
AcDbViewportTableRecord
2
*ACTIVE
70
0
10
0.0
20
0.0
11
1.0
21
1.0
12
210.0000000000
22
148.5000000000
13
0.0
23
0.0
14
1.0
24
1.0
15
0.0
25
0.0
16
0.0
26
0.0
36
1.0
17
0.0
27
0.0
37
0.0
40
297.0000000000
41
1.4141414141
42
50.0
43
0.0
44
0.0
50
0.0
51
0.0
71
0
72
100
73
1
74
1
75
0
76
0
77
0
78
0
0
ENDTAB
0
TABLE
2
LTYPE
5
5
100
AcDbSymbolTable
70
6
0
LTYPE
5
14
100
AcDbSymbolTableRecord
100
AcDbLinetypeTableRecord
2
BYBLOCK
70
0
3

72
65
73
0
40
0.0
0
LTYPE
5
15
100
AcDbSymbolTableRecord
100
AcDbLinetypeTableRecord
2
BYLAYER
70
0
3

72
65
73
0
40
0.0
0
LTYPE
5
16
100
AcDbSymbolTableRecord
100
AcDbLinetypeTableRecord
2
CONTINUOUS
70
64
3
Solid line
72
65
73
0
40
0
0
LTYPE
5
1F5
100
AcDbSymbolTableRecord
100
AcDbLinetypeTableRecord
2
CENTER
70
64
3
____ _ ____ _ ____ _ ____ _ ____ _ ____ _ ____
72
65
73
4
40
0.6
49
0.375
74
0
49
-0.075
74
0
49
0.075
74
0
49
-0.075
74
0
0
LTYPE
5
1F6
100
AcDbSymbolTableRecord
100
AcDbLinetypeTableRecord
2
HIDDEN
70
64
3
- - - - - - - - - - - - - - - - - - - -
72
65
73
2
40
0.2
49
0.1
74
0
49
-0.1
74
0
0
LTYPE
5
1F7
100
AcDbSymbolTableRecord
100
AcDbLinetypeTableRecord
2
PHANTOM
70
64
3
_____ _ _ _____ _ _ _____ _ _ _____
72
65
73
6
40
0.8
49
0.45
74
0
49
-0.05
74
0
49
0.1
74
0
49
-0.05
74
0
49
0.1
74
0
49
-0.05
74
0
0
LTYPE
5
1F8
100
AcDbSymbolTableRecord
100
AcDbLinetypeTableRecord
2
DOT
70
64
3
. . . . . . . . . . . . . . . . . . . .
72
65
73
2
40
0.2
49
0.1
74
0
49
-0.1
74
0
0
LTYPE
5
1F9
100
AcDbSymbolTableRecord
100
AcDbLinetypeTableRecord
2
DASHED
70
64
3
- - - - - - - - - - - - - - - - - - - -
72
65
73
2
40
0.2
49
0.1
74
0
49
-0.1
74
0
0
ENDTAB
0
TABLE
2
LAYER
5
2
100
AcDbSymbolTable
70
36
0
LAYER
5
10
100
AcDbSymbolTableRecord
100
AcDbLayerTableRecord
2
0
70
0
62
7
6
CONTINUOUS
0
LAYER
5
1FA
100
AcDbSymbolTableRecord
100
AcDbLayerTableRecord
2
DEFAULT_1
70
0
62
7
6
CENTER
0
LAYER
5
1FB
100
AcDbSymbolTableRecord
100
AcDbLayerTableRecord
2
DEFAULT_2
70
0
62
8
6
HIDDEN
0
LAYER
5
1FC
100
AcDbSymbolTableRecord
100
AcDbLayerTableRecord
2
DEFAULT_3
70
0
62
7
6
PHANTOM
0
ENDTAB
0
TABLE
2
STYLE
5
3
100
AcDbSymbolTable
70
1
0
STYLE
5
11
100
AcDbSymbolTableRecord
100
AcDbTextStyleTableRecord
2
STANDARD
70
0
40
0.0
41
1.0
50
0.0
71
0
42
0.0
3
txt
4

0
STYLE
5
1FD
100
AcDbSymbolTableRecord
100
AcDbTextStyleTableRecord
2
TEXTSTYLE_0
70
0
40
0.0
41
0.80
50
0.0
71
0
42
0.2
3
txt
4

0
ENDTAB
0
TABLE
2
VIEW
5
6
100
AcDbSymbolTable
70
0
0
ENDTAB
0
TABLE
2
UCS
5
7
100
AcDbSymbolTable
70
0
0
ENDTAB
0
TABLE
2
APPID
5
9
100
AcDbSymbolTable
70
1
0
APPID
5
1FE
100
AcDbSymbolTableRecord
100
AcDbRegAppTableRecord
2
ACAD
70
0
0
ENDTAB
0
TABLE
2
DIMSTYLE
5
A
100
AcDbSymbolTable
70
1
0
DIMSTYLE
105
1FF
100
AcDbSymbolTableRecord
100
AcDbDimStyleTableRecord
2
STANDARD
70
0
3

4

5

6

7

40
1.0
41
0.18
42
0.0625
43
0.38
44
0.18
45
0.0
46
0.0
47
0.0050000000
48
0.0050000000
140
3.5000000000
141
0.09
142
0.0
143
25.4
144
1.0000000000
145
0.0
146
0.6000000000
147
0.09
71
1
72
0
73
1
74
1
75
0
76
0
77
0
78
0
170
0
171
2
172
0
173
0
174
0
175
0
176
0
177
0
178
0
270
2
271
3
272
4
273
2
274
2
340
11
275
0
280
0
281
0
282
0
283
1
284
0
285
0
286
0
287
3
288
0
0
ENDTAB
0
TABLE
2
BLOCK_RECORD
5
1
100
AcDbSymbolTable
70
0
0
BLOCK_RECORD
5
1B
100
AcDbSymbolTableRecord
100
AcDbBlockTableRecord
2
*MODEL_SPACE
0
BLOCK_RECORD
5
1C
100
AcDbSymbolTableRecord
100
AcDbBlockTableRecord
2
*PAPER_SPACE
0
ENDTAB
0
ENDSEC
0
SECTION
2
BLOCKS
0
BLOCK
5
1E
100
AcDbEntity
8
0
100
AcDbBlockBegin
2
*MODEL_SPACE
70
0
10
0.0
20
0.0
30
0.0
3
*MODEL_SPACE
1

0
ENDBLK
5
1F
100
AcDbEntity
8
0
100
AcDbBlockEnd
0
BLOCK
5
20
100
AcDbEntity
8
0
100
AcDbBlockBegin
2
*PAPER_SPACE
70
0
10
0.0
20
0.0
30
0.0
3
*PAPER_SPACE
1

0
ENDBLK
5
21
100
AcDbEntity
8
0
100
AcDbBlockEnd
0
ENDSEC
0
SECTION
2
ENTITIES
0
TEXT
5
200
100
AcDbEntity
8
0
100
AcDbText
62
2
6
CONTINUOUS
10
293.9702705406
20
136.4583531030
7
TEXTSTYLE_0
40
3.0000000000
1
RUD
50
90.0000000000
72
5
11
293.9702705406
21
143.8869244607
100
AcDbText
0
TEXT
5
201
100
AcDbEntity
8
0
100
AcDbText
62
2
6
CONTINUOUS
10
299.8860992040
20
135.9570116908
7
TEXTSTYLE_0
40
3.0000000000
1
VVH 6/VIP
50
90.0000000000
72
5
11
299.8860992040
21
157.0998686320
100
AcDbText
0
LINE
5
202
100
AcDbEntity
8
0
100
AcDbLine
62
7
6
CONTINUOUS
10
0.0000000000
20
0.0000000000
11
0.0000000000
21
297.0000000000
0
LINE
5
203
100
AcDbEntity
8
0
100
AcDbLine
62
7
6
CONTINUOUS
10
0.0000000000
20
0.0000000000
11
420.0000000000
21
0.0000000000
0
LINE
5
204
100
AcDbEntity
8
0
100
AcDbLine
62
7
6
CONTINUOUS
10
0.0000000000
20
297.0000000000
11
420.0000000000
21
297.0000000000
0
LINE
5
205
100
AcDbEntity
8
0
100
AcDbLine
62
7
6
CONTINUOUS
10
420.0000000000
20
0.0000000000
11
420.0000000000
21
297.0000000000
0
LINE
5
206
100
AcDbEntity
8
0
100
AcDbLine
62
7
6
CONTINUOUS
10
121.0345975909
20
126.1633198478
11
121.2965725419
21
126.1633198478
0
LINE
5
207
100
AcDbEntity
8
0
100
AcDbLine
62
7
6
CONTINUOUS
10
96.0722773967
20
200.5597513322
11
100.1000445168
21
205.3598572677
0
LINE
5
208
100
AcDbEntity
8
0
100
AcDbLine
62
7
6
CONTINUOUS
10
113.8185181103
20
139.9481292359
11
112.5722773967
21
139.9481292359
0
LINE
5
209
100
AcDbEntity
8
0
100
AcDbLine
62
7
6
CONTINUOUS
10
106.5260366831
20
139.9481292359
11
107.7722773967
21
139.9481292359
0
LINE
5
20A
100
AcDbEntity
8
0
100
AcDbLine
62
7
6
CONTINUOUS
10
100.9268731330
20
142.7139428366
11
93.9909164443
21
142.7139428366
0
LINE
5
20B
100
AcDbEntity
8
0
100
AcDbLine
62
7
6
CONTINUOUS
10
107.7722773967
20
143.4664720868
11
112.5722773967
21
143.4664720868
0
LINE
5
20C
100
AcDbEntity
8
0
100
AcDbLine
62
7
6
CONTINUOUS
10
93.9722773967
20
155.5162998942
11
93.9722773967
21
143.5597513322
0
LINE
5
20D
100
AcDbEntity
8
0
100
AcDbLine
62
7
6
CONTINUOUS
10
107.7722773967
20
146.5041381032
11
112.5722773967
21
146.5041381032
0
LINE
5
20E
100
AcDbEntity
8
0
100
AcDbLine
62
7
6
CONTINUOUS
10
106.2053748396
20
125.6683492418
11
105.2983512321
21
128.1603761226
0
LINE
5
20F
100
AcDbEntity
8
0
100
AcDbLine
62
7
6
CONTINUOUS
10
96.0722773967
20
200.5597513322
11
96.0722773967
21
190.8122416620
0
LINE
5
210
100
AcDbEntity
8
0
100
AcDbLine
62
7
6
CONTINUOUS
10
95.1896351339
20
171.6578846616
11
94.1442066070
21
170.7806659702
0
LINE
5
211
100
AcDbEntity
8
0
100
AcDbLine
62
7
6
CONTINUOUS
10
106.5616746187
20
139.8795688186
11
106.5260366831
21
139.9481292359
0
LINE
5
212
100
AcDbEntity
8
0
100
AcDbLine
62
7
6
CONTINUOUS
10
99.6875318028
20
160.9738507777
11
93.2656587328
21
168.6271410800
0
LINE
5
213
100
AcDbEntity
8
0
100
AcDbLine
62
7
6
CONTINUOUS
10
100.9268731330
20
142.7139428366
11
100.9268731330
21
158.0889994872
0
LINE
5
214
100
AcDbEntity
8
0
100
AcDbLine
62
7
6
CONTINUOUS
10
102.0558092524
20
196.9597513322
11
102.0558092524
21
193.3597513322
0
LINE
5
215
100
AcDbEntity
8
0
100
AcDbLine
62
7
6
CONTINUOUS
10
102.0558092524
20
201.3974871813
11
102.0558092524
21
205.3597513322
0
LINE
5
216
100
AcDbEntity
8
0
100
AcDbLine
62
7
6
CONTINUOUS
10
106.5722773967
20
147.1597513322
11
106.5722773967
21
160.1391656455
0
LINE
5
217
100
AcDbEntity
8
0
100
AcDbLine
62
7
6
CONTINUOUS
10
106.8122773967
20
204.0397513322
11
106.8122773967
21
188.9197513322
0
LINE
5
218
100
AcDbEntity
8
0
100
AcDbLine
62
7
6
CONTINUOUS
10
107.7722773967
20
146.5041381032
11
107.7722773967
21
139.9481292359
0
LINE
5
219
100
AcDbEntity
8
0
100
AcDbLine
62
7
6
CONTINUOUS
10
107.7722773967
20
125.1347682929
11
107.7722773967
21
133.4901828731
0
LINE
5
21A
100
AcDbEntity
8
0
100
AcDbLine
62
7
6
CONTINUOUS
10
104.8877973872
20
164.7672364352
11
99.4161312923
21
171.2881141613
0
LINE
5
21B
100
AcDbEntity
8
DEFAULT_1
100
AcDbLine
62
2
6
CENTER
10
110.1722773967
20
121.3596222754
11
110.1722773967
21
208.6958831994
0
LINE
5
21C
100
AcDbEntity
8
0
100
AcDbLine
62
7
6
CONTINUOUS
10
105.1119419208
20
130.7951871058
11
106.5260366831
21
139.9481292359
0
LINE
5
21D
100
AcDbEntity
8
0
100
AcDbLine
62
7
6
CONTINUOUS
10
115.2326128727
20
130.7951871058
11
113.8185181103
21
139.9481292359
0
LINE
5
21E
100
AcDbEntity
8
0
100
AcDbLine
62
7
6
CONTINUOUS
10
112.5722773967
20
146.5041381032
11
112.5722773967
21
139.9481292359
0
LINE
5
21F
100
AcDbEntity
8
0
100
AcDbLine
62
7
6
CONTINUOUS
10
112.5722773967
20
124.3691286222
11
112.5722773967
21
133.4901828731
0
LINE
5
220
100
AcDbEntity
8
0
100
AcDbLine
62
7
6
CONTINUOUS
10
113.5322773967
20
188.9197513322
11
113.5322773967
21
204.0397513322
0
LINE
5
221
100
AcDbEntity
8
0
100
AcDbLine
62
7
6
CONTINUOUS
10
113.7722773967
20
147.1597513322
11
113.7722773967
21
162.8391656455
0
LINE
5
222
100
AcDbEntity
8
0
100
AcDbLine
62
7
6
CONTINUOUS
10
112.0877973872
20
167.4672364352
11
98.8095574122
21
183.2916266287
0
LINE
5
223
100
AcDbEntity
8
0
100
AcDbLine
62
7
6
CONTINUOUS
10
118.2887455410
20
205.3597513322
11
118.2887455410
21
201.3974871813
0
LINE
5
224
100
AcDbEntity
8
0
100
AcDbLine
62
7
6
CONTINUOUS
10
118.2887455410
20
196.9597513322
11
118.2887455410
21
193.3597513322
0
LINE
5
225
100
AcDbEntity
8
0
100
AcDbLine
62
7
6
CONTINUOUS
10
92.4054109032
20
168.6271410800
11
93.2656587328
21
168.6271410800
0
LINE
5
226
100
AcDbEntity
8
0
100
AcDbLine
62
7
6
CONTINUOUS
10
121.0345975909
20
126.1633198478
11
121.0345975909
21
162.8391656455
0
LINE
5
227
100
AcDbEntity
8
0
100
AcDbLine
62
7
6
CONTINUOUS
10
117.6510574161
20
172.1353658736
11
96.0722773967
21
197.8519544854
0
LINE
5
228
100
AcDbEntity
8
0
100
AcDbLine
62
7
6
CONTINUOUS
10
124.2722773967
20
183.1597513322
11
124.2722773967
21
200.5597513322
0
LINE
5
229
100
AcDbEntity
8
0
100
AcDbLine
62
7
6
CONTINUOUS
10
113.6651925665
20
124.3660795981
11
115.0462035614
21
128.1603761226
0
LINE
5
22A
100
AcDbEntity
8
0
100
AcDbLine
62
7
6
CONTINUOUS
10
113.7828801125
20
139.8795688324
11
113.8185181103
21
139.9481292359
0
LINE
5
22B
100
AcDbEntity
8
0
100
AcDbLine
62
7
6
CONTINUOUS
10
132.3722773967
20
143.5597513322
11
132.3722773967
21
163.6274703594
0
LINE
5
22C
100
AcDbEntity
8
0
100
AcDbLine
62
7
6
CONTINUOUS
10
106.8122773967
20
193.3597513322
11
113.5322773967
21
193.3597513322
0
LINE
5
22D
100
AcDbEntity
8
DEFAULT_1
100
AcDbLine
62
2
6
CENTER
10
94.4665386425
20
196.9597513322
11
125.3873433221
21
196.9597513322
0
LINE
5
22E
100
AcDbEntity
8
0
100
AcDbLine
62
7
6
CONTINUOUS
10
124.2722773967
20
200.5597513322
11
120.2445102767
21
205.3598572677
0
LINE
5
22F
100
AcDbEntity
8
0
100
AcDbLine
62
7
6
CONTINUOUS
10
96.0722773967
20
199.3597513322
11
101.2716696494
21
199.3597513322
0
LINE
5
230
100
AcDbEntity
8
0
100
AcDbLine
62
7
6
CONTINUOUS
10
119.0728851441
20
199.3597513322
11
124.2722773967
21
199.3597513322
0
LINE
5
231
100
AcDbEntity
8
0
100
AcDbLine
62
7
6
CONTINUOUS
10
106.8122773967
20
200.5597513322
11
113.5322773967
21
200.5597513322
0
LINE
5
232
100
AcDbEntity
8
0
100
AcDbLine
62
7
6
CONTINUOUS
10
100.0867920774
20
205.3597513322
11
102.0558092524
21
205.3597513322
0
LINE
5
233
100
AcDbEntity
8
0
100
AcDbLine
62
7
6
CONTINUOUS
10
118.2887455410
20
205.3597513322
11
120.2577627160
21
205.3597513322
0
LINE
5
234
100
AcDbEntity
8
0
100
AcDbLine
62
7
6
CONTINUOUS
10
298.9771299929
20
124.3597513322
11
291.7771299929
21
124.3597513322
0
LINE
5
235
100
AcDbEntity
8
0
100
AcDbLine
62
7
6
CONTINUOUS
10
284.9800737181
20
128.1603761226
11
288.7743702425
21
124.3660795981
0
LINE
5
236
100
AcDbEntity
8
0
100
AcDbLine
62
7
6
CONTINUOUS
10
286.9771299929
20
199.3597513322
11
288.2450545212
21
201.3974871813
0
LINE
5
237
100
AcDbEntity
8
0
100
AcDbLine
62
7
6
CONTINUOUS
10
283.3283974436
20
143.4664720868
11
288.3531117731
21
139.9481292359
0
LINE
5
238
100
AcDbEntity
8
DEFAULT_2
100
AcDbLine
62
8
6
HIDDEN
10
290.1408392883
20
144.1597513322
11
300.6134206975
21
144.1597513322
0
LINE
5
239
100
AcDbEntity
8
0
100
AcDbLine
62
7
6
CONTINUOUS
10
289.5271299929
20
144.4202554726
11
284.6178101676
21
146.5041381032
0
LINE
5
23A
100
AcDbEntity
8
0
100
AcDbLine
62
7
6
CONTINUOUS
10
286.9771299929
20
136.7065193038
11
286.9771299929
21
140.9116020508
0
LINE
5
23B
100
AcDbEntity
8
0
100
AcDbLine
62
7
6
CONTINUOUS
10
286.9771299929
20
145.5026662539
11
286.9771299929
21
199.3597513322
0
LINE
5
23C
100
AcDbEntity
8
0
100
AcDbLine
62
7
6
CONTINUOUS
10
288.4771299929
20
168.6271410800
11
288.4771299929
21
160.9738507777
0
LINE
5
23D
100
AcDbEntity
8
0
100
AcDbLine
62
7
6
CONTINUOUS
10
289.5271299929
20
142.7139428366
11
289.5271299929
21
158.0889994872
0
LINE
5
23E
100
AcDbEntity
8
0
100
AcDbLine
62
7
6
CONTINUOUS
10
292.9254362031
20
172.3597131804
11
288.4771299929
21
168.6271410800
0
LINE
5
23F
100
AcDbEntity
8
0
100
AcDbLine
62
7
6
CONTINUOUS
10
289.5271299929
20
158.0889994872
11
288.4771299929
21
160.9738507777
0
LINE
5
240
100
AcDbEntity
8
0
100
AcDbLine
62
7
6
CONTINUOUS
10
284.6178101676
20
146.5041381032
11
283.3283974436
21
143.4664720868
0
LINE
5
241
100
AcDbEntity
8
0
100
AcDbLine
62
7
6
CONTINUOUS
10
306.2863416412
20
130.7951871058
11
301.2271299929
21
142.7139428366
0
LINE
5
242
100
AcDbEntity
8
0
100
AcDbLine
62
7
6
CONTINUOUS
10
293.3244004099
20
172.3597513322
11
293.3244004099
21
183.2916266287
0
LINE
5
243
100
AcDbEntity
8
DEFAULT_1
100
AcDbLine
62
2
6
CENTER
10
295.3771299929
20
196.9597513322
11
295.3771299929
21
123.3798147165
0
LINE
5
244
100
AcDbEntity
8
DEFAULT_1
100
AcDbLine
62
2
6
CENTER
10
295.3771299929
20
196.9597513322
11
295.3771299929
21
206.5159405060
0
LINE
5
245
100
AcDbEntity
8
0
100
AcDbLine
62
7
6
CONTINUOUS
10
297.4298595759
20
172.3597513322
11
297.4298595759
21
183.2916266287
0
LINE
5
246
100
AcDbEntity
8
0
100
AcDbLine
62
7
6
CONTINUOUS
10
306.1364498182
20
146.5041381032
11
307.4258625422
21
143.4664720868
0
LINE
5
247
100
AcDbEntity
8
0
100
AcDbLine
62
7
6
CONTINUOUS
10
301.2271299929
20
142.7139428366
11
301.2271299929
21
158.0889994872
0
LINE
5
248
100
AcDbEntity
8
0
100
AcDbLine
62
7
6
CONTINUOUS
10
284.4679183446
20
130.7951871058
11
289.5271299929
21
142.7139428366
0
LINE
5
249
100
AcDbEntity
8
0
100
AcDbLine
62
7
6
CONTINUOUS
10
302.2771299929
20
168.6271410800
11
302.2771299929
21
160.9738507777
0
LINE
5
24A
100
AcDbEntity
8
0
100
AcDbLine
62
7
6
CONTINUOUS
10
303.7771299929
20
136.7065193038
11
303.7771299929
21
140.9116020508
0
LINE
5
24B
100
AcDbEntity
8
0
100
AcDbLine
62
7
6
CONTINUOUS
10
303.7771299929
20
145.5026662539
11
303.7771299929
21
199.3597513322
0
LINE
5
24C
100
AcDbEntity
8
0
100
AcDbLine
62
7
6
CONTINUOUS
10
301.2271299929
20
158.0889994872
11
302.2771299929
21
160.9738507777
0
LINE
5
24D
100
AcDbEntity
8
0
100
AcDbLine
62
7
6
CONTINUOUS
10
292.9254344157
20
172.3597116806
11
292.9303182299
21
172.3597512909
0
LINE
5
24E
100
AcDbEntity
8
0
100
AcDbLine
62
7
6
CONTINUOUS
10
292.9301160882
20
172.3597513322
11
297.8241438976
21
172.3597513322
0
LINE
5
24F
100
AcDbEntity
8
0
100
AcDbLine
62
7
6
CONTINUOUS
10
297.8288255701
20
172.3597116806
11
297.8239417559
21
172.3597512909
0
LINE
5
250
100
AcDbEntity
8
0
100
AcDbLine
62
7
6
CONTINUOUS
10
297.8288237827
20
172.3597131804
11
302.2771299929
21
168.6271410800
0
LINE
5
251
100
AcDbEntity
8
0
100
AcDbLine
62
7
6
CONTINUOUS
10
301.2271299929
20
144.4202554726
11
306.1364498182
21
146.5041381032
0
LINE
5
252
100
AcDbEntity
8
0
100
AcDbLine
62
7
6
CONTINUOUS
10
307.4258625422
20
143.4664720868
11
302.4011482127
21
139.9481292359
0
LINE
5
253
100
AcDbEntity
8
0
100
AcDbLine
62
7
6
CONTINUOUS
10
303.7771299929
20
199.3597513322
11
302.5092054646
21
201.3974871813
0
LINE
5
254
100
AcDbEntity
8
0
100
AcDbLine
62
7
6
CONTINUOUS
10
301.9798897433
20
124.3660795981
11
305.7741862678
21
128.1603761226
0
LINE
5
255
100
AcDbEntity
8
DEFAULT_1
100
AcDbLine
62
2
6
CENTER
10
295.3771299929
20
196.9597513322
11
285.8254808108
21
196.9597513322
0
LINE
5
256
100
AcDbEntity
8
DEFAULT_1
100
AcDbLine
62
2
6
CENTER
10
295.3771299929
20
196.9597513322
11
304.4946459003
21
196.9597513322
0
LINE
5
257
100
AcDbEntity
8
0
100
AcDbLine
62
7
6
CONTINUOUS
10
303.0304633262
20
200.5597513322
11
296.1871299929
21
200.5597513322
0
LINE
5
258
100
AcDbEntity
8
0
100
AcDbLine
62
7
6
CONTINUOUS
10
294.5671299929
20
200.5597513322
11
287.7237966596
21
200.5597513322
0
ARC
5
259
100
AcDbEntity
8
0
100
AcDbCircle
62
7
6
CONTINUOUS
10
110.1722773967
20
225.3768176723
40
21.6000000000
100
AcDbArc
50
247.9285574823
51
261.0509819347
0
ARC
5
25A
100
AcDbEntity
8
0
100
AcDbCircle
62
7
6
CONTINUOUS
10
110.1722773967
20
225.3768176723
40
21.6000000000
100
AcDbArc
50
278.9490180653
51
292.0714425177
0
ARC
5
25B
100
AcDbEntity
8
0
100
AcDbCircle
62
7
6
CONTINUOUS
10
99.3722773967
20
160.1391656455
40
7.2000000000
100
AcDbArc
50
0.0000000000
51
40.0000000000
0
ARC
5
25C
100
AcDbEntity
8
0
100
AcDbCircle
62
7
6
CONTINUOUS
10
80.1722773967
20
155.5162998942
40
13.8000000000
100
AcDbArc
50
0.0000000000
51
27.6604498993
0
ARC
5
25D
100
AcDbEntity
8
0
100
AcDbCircle
62
7
6
CONTINUOUS
10
98.7722773967
20
165.2651459798
40
7.2000000000
100
AcDbArc
50
130.0000000000
51
207.6604498993
0
ARC
5
25E
100
AcDbEntity
8
0
100
AcDbCircle
62
7
6
CONTINUOUS
10
97.1179979630
20
169.3597513322
40
3.0000000000
100
AcDbArc
50
40.0000000000
51
130.0000000000
0
CIRCLE
5
25F
100
AcDbEntity
8
0
100
AcDbCircle
62
7
6
CONTINUOUS
10
99.5522773967
20
196.9597513322
40
1.5000000000
0
ARC
5
260
100
AcDbEntity
8
0
100
AcDbCircle
62
7
6
CONTINUOUS
10
138.0722773967
20
183.1597513322
40
13.8000000000
100
AcDbArc
50
180.0000000000
51
225.0473854725
0
ARC
5
261
100
AcDbEntity
8
0
100
AcDbCircle
62
7
6
CONTINUOUS
10
118.5722773967
20
163.6274703594
40
13.8000000000
100
AcDbArc
50
0.0000000000
51
45.0473854725
0
ARC
5
262
100
AcDbEntity
8
0
100
AcDbCircle
62
7
6
CONTINUOUS
10
110.1722773967
20
188.9197513322
40
3.3600000000
100
AcDbArc
50
180.0000000000
51
360.0000000000
0
ARC
5
263
100
AcDbEntity
8
0
100
AcDbCircle
62
7
6
CONTINUOUS
10
107.7722773967
20
190.8122416620
40
11.7000000000
100
AcDbArc
50
180.0000000000
51
220.0000000000
0
ARC
5
264
100
AcDbEntity
8
0
100
AcDbCircle
62
7
6
CONTINUOUS
10
106.5722773967
20
162.8391656455
40
7.2000000000
100
AcDbArc
50
0.0000000000
51
40.0000000000
0
ARC
5
265
100
AcDbEntity
8
0
100
AcDbCircle
62
7
6
CONTINUOUS
10
109.5722773967
20
147.1597513322
40
3.0000000000
100
AcDbArc
50
180.0000000000
51
233.1030912599
0
ARC
5
266
100
AcDbEntity
8
0
100
AcDbCircle
62
7
6
CONTINUOUS
10
110.7722773967
20
147.1597513322
40
3.0000000000
100
AcDbArc
50
306.8969087392
51
360.0000000000
0
ARC
5
267
100
AcDbEntity
8
0
100
AcDbCircle
62
7
6
CONTINUOUS
10
113.1722773967
20
143.5597513322
40
19.2000000000
100
AcDbArc
50
180.0000000000
51
360.0000000000
0
ARC
5
268
100
AcDbEntity
8
0
100
AcDbCircle
62
7
6
CONTINUOUS
10
106.5722773967
20
162.8391656455
40
14.4623201941
100
AcDbArc
50
0.0000000000
51
40.0000000000
0
ARC
5
269
100
AcDbEntity
8
0
100
AcDbCircle
62
7
6
CONTINUOUS
10
295.3771299929
20
196.9597513322
40
8.4000000000
100
AcDbArc
50
31.8907918018
51
148.1092081982
0
CIRCLE
5
26A
100
AcDbEntity
8
0
100
AcDbCircle
62
7
6
CONTINUOUS
10
295.3771299929
20
196.9597513322
40
3.6900000000
0
ARC
5
26B
100
AcDbEntity
8
0
100
AcDbCircle
62
7
6
CONTINUOUS
10
286.6771299929
20
129.8574323975
40
2.4000000000
100
AcDbArc
50
157.0000000000
51
225.0000000000
0
ARC
5
26C
100
AcDbEntity
8
0
100
AcDbCircle
62
7
6
CONTINUOUS
10
304.0771299929
20
129.8574323975
40
2.4000000000
100
AcDbArc
50
315.0000000000
51
23.0000000000
0
SPLINE
5
26D
100
AcDbEntity
8
0
100
AcDbSpline
62
7
6
CONTINUOUS
70
0
71
3
72
13
73
9
74
7
42
0.0000001000
43
0.0000001000
44
0.0000000001
40
0.0000000000
40
0.0000000000
40
0.0000000000
40
0.0000000000
40
0.2000804191
40
0.3780666565
40
0.5404994044
40
0.6936683069
40
0.8442769529
40
1.0000000000
40
1.0000000000
40
1.0000000000
40
1.0000000000
10
97.1025952576
20
172.3597131804
30
0.0000000000
10
96.7499080104
20
172.2351259513
30
0.0000000000
10
96.0951038890
20
171.9636955719
30
0.0000000000
10
95.2173892669
20
171.4566726488
30
0.0000000000
10
94.4938232744
20
170.8775349071
30
0.0000000000
10
93.9156160530
20
170.2184484616
30
0.0000000000
10
93.4867807307
20
169.4670003803
30
0.0000000000
10
93.3187355012
20
168.9133824569
30
0.0000000000
10
93.2656587328
20
168.6271410800
30
0.0000000000
11
97.1025952576
21
172.3597131804
31
0.0000000000
11
96.0682819409
21
171.9245253925
31
0.0000000000
11
95.2068320385
21
171.4201895151
31
0.0000000000
11
94.4991119610
21
170.8465689014
31
0.0000000000
11
93.9361475854
21
170.1977111744
31
0.0000000000
11
93.5200390674
21
169.4626361836
31
0.0000000000
11
93.2656587328
21
168.6271410800
31
0.0000000000
0
SPLINE
5
26E
100
AcDbEntity
8
0
100
AcDbSpline
62
7
6
CONTINUOUS
70
0
71
3
72
15
73
11
74
9
42
0.0000001000
43
0.0000001000
44
0.0000000001
40
0.0000000000
40
0.0000000000
40
0.0000000000
40
0.0000000000
40
0.1259082512
40
0.2510369831
40
0.3757849940
40
0.5003907237
40
0.6252364343
40
0.7501752346
40
0.8751831543
40
1.0000000000
40
1.0000000000
40
1.0000000000
40
1.0000000000
10
119.0728851441
20
199.3597513322
30
0.0000000000
10
119.0171717944
20
199.2680361663
30
0.0000000000
10
118.9094499976
20
199.0830974264
30
0.0000000000
10
118.7604167293
20
198.7994748845
30
0.0000000000
10
118.6265328777
20
198.5095639201
30
0.0000000000
10
118.5102577031
20
198.2123519519
30
0.0000000000
10
118.4146765142
20
197.9076116159
30
0.0000000000
10
118.3431331908
20
197.5959136481
30
0.0000000000
10
118.2987723322
20
197.2791881618
30
0.0000000000
10
118.2887455410
20
197.0661321246
30
0.0000000000
10
118.2887455410
20
196.9597513322
30
0.0000000000
11
119.0728851441
21
199.3597513322
31
0.0000000000
11
118.9111688366
21
199.0813834517
31
0.0000000000
11
118.7627141566
21
198.7979708448
31
0.0000000000
11
118.6294019379
21
198.5081995550
31
0.0000000000
11
118.5137825340
21
198.2113161503
31
0.0000000000
11
118.4187194647
21
197.9065835080
31
0.0000000000
11
118.3476752632
21
197.5951293251
31
0.0000000000
11
118.3036434494
21
197.2785457945
31
0.0000000000
11
118.2887455410
21
196.9597513322
31
0.0000000000
0
SPLINE
5
26F
100
AcDbEntity
8
0
100
AcDbSpline
62
7
6
CONTINUOUS
70
0
71
3
72
12
73
8
74
6
42
0.0000001000
43
0.0000001000
44
0.0000000001
40
0.0000000000
40
0.0000000000
40
0.0000000000
40
0.0000000000
40
0.2038750415
40
0.4105629276
40
0.6152603114
40
0.8132553959
40
1.0000000000
40
1.0000000000
40
1.0000000000
40
1.0000000000
10
101.2716696494
20
199.3597513322
30
0.0000000000
10
101.3593866776
20
199.4823547113
30
0.0000000000
10
101.5285030264
20
199.7348190022
30
0.0000000000
10
101.7495774428
20
200.1332231071
30
0.0000000000
10
101.9230186837
20
200.5504694583
30
0.0000000000
10
102.0314432405
20
200.9743877282
30
0.0000000000
10
102.0558092524
20
201.2594029086
30
0.0000000000
10
102.0558092524
20
201.3974871813
30
0.0000000000
11
101.2716696494
21
199.3597513322
31
0.0000000000
11
101.5220197226
21
199.7363912548
31
0.0000000000
11
101.7425355756
21
200.1383717542
31
0.0000000000
11
101.9144510345
21
200.5586468832
31
0.0000000000
11
102.0212229905
21
200.9846807041
31
0.0000000000
11
102.0558092524
21
201.3974871813
31
0.0000000000
0
SPLINE
5
270
100
AcDbEntity
8
0
100
AcDbSpline
62
7
6
CONTINUOUS
70
0
71
3
72
10
73
6
74
4
42
0.0000001000
43
0.0000001000
44
0.0000000001
40
0.0000000000
40
0.0000000000
40
0.0000000000
40
0.0000000000
40
0.3205945419
40
0.6538330601
40
1.0000000000
40
1.0000000000
40
1.0000000000
40
1.0000000000
10
99.6875318028
20
160.9738507777
30
0.0000000000
10
99.8096547449
20
160.8678410413
30
0.0000000000
10
100.0374772260
20
160.6257941865
30
0.0000000000
10
100.3054158672
20
160.1948486998
30
0.0000000000
10
100.4261457688
20
159.8711917149
30
0.0000000000
10
100.4708711281
20
159.7024013644
30
0.0000000000
11
99.6875318028
21
160.9738507777
31
0.0000000000
11
100.0204167231
21
160.6209253967
31
0.0000000000
11
100.2872023508
21
160.1929934984
31
0.0000000000
11
100.4708711281
21
159.7024013644
31
0.0000000000
0
SPLINE
5
271
100
AcDbEntity
8
0
100
AcDbSpline
62
7
6
CONTINUOUS
70
0
71
3
72
12
73
8
74
6
42
0.0000001000
43
0.0000001000
44
0.0000000001
40
0.0000000000
40
0.0000000000
40
0.0000000000
40
0.0000000000
40
0.1868734550
40
0.3848671287
40
0.5894973325
40
0.7961186127
40
1.0000000000
40
1.0000000000
40
1.0000000000
40
1.0000000000
10
118.2887455410
20
201.3974871813
30
0.0000000000
10
118.2887455410
20
201.2593076500
30
0.0000000000
10
118.3131370497
20
200.9741973200
30
0.0000000000
10
118.4216158855
20
200.5502476504
30
0.0000000000
10
118.5950415760
20
200.1331047208
30
0.0000000000
10
118.8160740768
20
199.7347859279
30
0.0000000000
10
118.9851653966
20
199.4823585120
30
0.0000000000
10
119.0728851441
20
199.3597513322
30
0.0000000000
11
118.2887455410
21
201.3974871813
31
0.0000000000
11
118.3233790530
21
200.9843978863
31
0.0000000000
11
118.4301932064
21
200.5583779265
31
0.0000000000
11
118.6020774947
21
200.1382511200
31
0.0000000000
11
118.8225277535
21
199.7364032255
31
0.0000000000
11
119.0728851441
21
199.3597513322
31
0.0000000000
0
SPLINE
5
272
100
AcDbEntity
8
0
100
AcDbSpline
62
7
6
CONTINUOUS
70
0
71
3
72
14
73
10
74
8
42
0.0000001000
43
0.0000001000
44
0.0000000001
40
0.0000000000
40
0.0000000000
40
0.0000000000
40
0.0000000000
40
0.1035879964
40
0.2184797350
40
0.3456254869
40
0.4860786443
40
0.6410508396
40
0.8118430924
40
1.0000000000
40
1.0000000000
40
1.0000000000
40
1.0000000000
10
106.5722773967
20
151.6597513322
30
0.0000000000
10
106.2748524343
20
151.4393947412
30
0.0000000000
10
105.6773777588
20
150.9335447645
30
0.0000000000
10
104.8270765268
20
150.0349727392
30
0.0000000000
10
103.9876387046
20
148.9538567642
30
0.0000000000
10
103.1669047510
20
147.6844164123
30
0.0000000000
10
102.3715580309
20
146.2188724665
30
0.0000000000
10
101.6083683502
20
144.5471358415
30
0.0000000000
10
101.1496799646
20
143.3483105113
30
0.0000000000
10
100.9268731330
20
142.7139428366
30
0.0000000000
11
106.5722773967
21
151.6597513322
31
0.0000000000
11
105.7217723936
21
150.9457422573
31
0.0000000000
11
104.8717043278
21
150.0544690776
31
0.0000000000
11
104.0320932484
21
148.9807430431
31
0.0000000000
11
103.2108820151
21
147.7187251207
31
0.0000000000
11
102.4148335629
21
146.2605351086
31
0.0000000000
11
101.6509908844
21
144.5965581876
31
0.0000000000
11
100.9268731330
21
142.7139428366
31
0.0000000000
0
SPLINE
5
273
100
AcDbEntity
8
0
100
AcDbSpline
62
7
6
CONTINUOUS
70
0
71
3
72
14
73
10
74
8
42
0.0000001000
43
0.0000001000
44
0.0000000001
40
0.0000000000
40
0.0000000000
40
0.0000000000
40
0.0000000000
40
0.1595345191
40
0.3176108456
40
0.4709076791
40
0.6183054015
40
0.7565427339
40
0.8844599192
40
1.0000000000
40
1.0000000000
40
1.0000000000
40
1.0000000000
10
112.5722773967
20
133.4901828731
30
0.0000000000
10
112.5722773967
20
133.8388167168
30
0.0000000000
10
112.5891556925
20
134.5330201291
30
0.0000000000
10
112.6651124027
20
135.5597181850
30
0.0000000000
10
112.7911426364
20
136.5548251987
30
0.0000000000
10
112.9655745285
20
137.4986142840
30
0.0000000000
10
113.1866939732
20
138.3756659258
30
0.0000000000
10
113.4512603799
20
139.1675974202
30
0.0000000000
10
113.6664270009
20
139.6555357000
30
0.0000000000
10
113.7828801777
20
139.8795688324
30
0.0000000000
11
112.5722773967
21
133.4901828731
31
0.0000000000
11
112.5979001865
21
134.5357704998
31
0.0000000000
11
112.6749849803
21
135.5692413593
31
0.0000000000
11
112.8023515274
21
136.5661455156
31
0.0000000000
11
112.9796569045
21
137.5160732347
31
0.0000000000
11
113.2035887193
21
138.3942500394
31
0.0000000000
11
113.4726536867
21
139.1885339521
31
0.0000000000
11
113.7828801777
21
139.8795688324
31
0.0000000000
0
SPLINE
5
274
100
AcDbEntity
8
0
100
AcDbSpline
62
7
6
CONTINUOUS
70
0
71
3
72
15
73
11
74
9
42
0.0000001000
43
0.0000001000
44
0.0000000001
40
0.0000000000
40
0.0000000000
40
0.0000000000
40
0.0000000000
40
0.1251723950
40
0.2507355965
40
0.3761708418
40
0.5012149770
40
0.6255801406
40
0.7498209524
40
0.8744112298
40
1.0000000000
40
1.0000000000
40
1.0000000000
40
1.0000000000
10
102.0558092524
20
196.9597513322
30
0.0000000000
10
102.0558092524
20
197.0664350882
30
0.0000000000
10
102.0457169994
20
197.2802683896
30
0.0000000000
10
102.0010423008
20
197.5981659812
30
0.0000000000
10
101.9290173741
20
197.9108498932
30
0.0000000000
10
101.8330477015
20
198.2158741599
30
0.0000000000
10
101.7167181097
20
198.5125595775
30
0.0000000000
10
101.5831552332
20
198.8014084133
30
0.0000000000
10
101.4346036140
20
199.0839676482
30
0.0000000000
10
101.3272415953
20
199.2682689448
30
0.0000000000
10
101.2716696494
20
199.3597513322
30
0.0000000000
11
102.0558092524
21
196.9597513322
31
0.0000000000
11
102.0408266742
21
197.2794517175
31
0.0000000000
11
101.9964560178
21
197.5974213355
31
0.0000000000
11
101.9248914067
21
197.9100584588
31
0.0000000000
11
101.8294065028
21
198.2151906205
31
0.0000000000
11
101.7137829644
21
198.5114119936
31
0.0000000000
11
101.5808695501
21
198.7999389764
31
0.0000000000
11
101.4329901253
21
199.0820984563
31
0.0000000000
11
101.2716696494
21
199.3597513322
31
0.0000000000
0
SPLINE
5
275
100
AcDbEntity
8
0
100
AcDbSpline
62
7
6
CONTINUOUS
70
0
71
3
72
22
73
18
74
16
42
0.0000001000
43
0.0000001000
44
0.0000000001
40
0.0000000000
40
0.0000000000
40
0.0000000000
40
0.0000000000
40
0.1185317541
40
0.2277882630
40
0.3280319308
40
0.4194842035
40
0.5024270686
40
0.5774498737
40
0.6451902620
40
0.7064441579
40
0.7618675047
40
0.8119085803
40
0.8573506755
40
0.8988449711
40
0.9360755221
40
0.9699411739
40
1.0000000000
40
1.0000000000
40
1.0000000000
40
1.0000000000
10
106.8122773967
20
191.1438090947
30
0.0000000000
10
106.6005251765
20
191.1817296465
30
0.0000000000
10
106.1948452068
20
191.2618535200
30
0.0000000000
10
105.6151676439
20
191.3980164579
30
0.0000000000
10
105.0880121722
20
191.5413819699
30
0.0000000000
10
104.6117413368
20
191.6887007628
30
0.0000000000
10
104.1841031994
20
191.8374078145
30
0.0000000000
10
103.8021707255
20
191.9857277378
30
0.0000000000
10
103.4622714690
20
192.1328240115
30
0.0000000000
10
103.1608509917
20
192.2785672930
30
0.0000000000
10
102.8950112359
20
192.4233566443
30
0.0000000000
10
102.6623839244
20
192.5682640476
30
0.0000000000
10
102.4614790453
20
192.7151784158
30
0.0000000000
10
102.2934695231
20
192.8661492820
30
0.0000000000
10
102.1620740085
20
193.0239377874
30
0.0000000000
10
102.0762929067
20
193.1885508266
30
0.0000000000
10
102.0558092524
20
193.3051981903
30
0.0000000000
10
102.0558092524
20
193.3597513322
30
0.0000000000
11
106.8122773967
21
191.1438090947
31
0.0000000000
11
106.1791785010
21
191.2690230220
31
0.0000000000
11
105.6001246660
21
191.4052493607
31
0.0000000000
11
105.0735278043
21
191.5487170974
31
0.0000000000
11
104.5979258337
21
191.6961334738
31
0.0000000000
11
104.1714984317
21
191.8447830460
31
0.0000000000
11
103.7908779982
21
191.9930310477
31
0.0000000000
11
103.4525884569
21
192.1399656329
31
0.0000000000
11
103.1526043817
21
192.2856891058
31
0.0000000000
11
102.8879729826
21
192.4307041217
31
0.0000000000
11
102.6572569745
21
192.5756252875
31
0.0000000000
11
102.4583872782
21
192.7228170007
31
0.0000000000
11
102.2917698335
21
192.8753919447
31
0.0000000000
11
102.1643665241
21
193.0330576426
31
0.0000000000
11
102.0825300969
21
193.1982880111
31
0.0000000000
11
102.0558092524
21
193.3597513322
31
0.0000000000
0
SPLINE
5
276
100
AcDbEntity
8
0
100
AcDbSpline
62
7
6
CONTINUOUS
70
0
71
3
72
16
73
12
74
10
42
0.0000001000
43
0.0000001000
44
0.0000000001
40
0.0000000000
40
0.0000000000
40
0.0000000000
40
0.0000000000
40
0.1624599787
40
0.3088211893
40
0.4408614228
40
0.5600260797
40
0.6675319846
40
0.7643996875
40
0.8515533629
40
0.9298568316
40
1.0000000000
40
1.0000000000
40
1.0000000000
40
1.0000000000
10
121.0345975909
20
136.7065193038
30
0.0000000000
10
120.8552425800
20
137.6064602460
30
0.0000000000
10
120.4694311679
20
139.3087079349
30
0.0000000000
10
119.7813054676
20
141.7033045927
30
0.0000000000
10
119.0321806920
20
143.8218265274
30
0.0000000000
10
118.2339741065
20
145.6857858587
30
0.0000000000
10
117.3963276994
20
147.3119039492
30
0.0000000000
10
116.5276485180
20
148.7130543938
30
0.0000000000
10
115.6358304933
20
149.8992238147
30
0.0000000000
10
114.7300712518
20
150.8775181477
30
0.0000000000
10
114.0906228105
20
151.4238951702
30
0.0000000000
10
113.7722773967
20
151.6597513322
30
0.0000000000
11
121.0345975909
21
136.7065193038
31
0.0000000000
11
120.4226913771
21
139.3905699851
31
0.0000000000
11
119.7340674676
21
141.7731730321
31
0.0000000000
11
118.9842574937
21
143.8812440430
31
0.0000000000
11
118.1852394392
21
145.7357036800
31
0.0000000000
11
117.3466887961
21
147.3529418905
31
0.0000000000
11
116.4772912771
21
148.7452363861
31
0.0000000000
11
115.5853227885
21
149.9222835080
31
0.0000000000
11
114.6795703308
21
150.8919187224
31
0.0000000000
11
113.7722773967
21
151.6597513322
31
0.0000000000
0
SPLINE
5
277
100
AcDbEntity
8
0
100
AcDbSpline
62
7
6
CONTINUOUS
70
0
71
3
72
13
73
9
74
7
42
0.0000001000
43
0.0000001000
44
0.0000000001
40
0.0000000000
40
0.0000000000
40
0.0000000000
40
0.0000000000
40
0.1702527989
40
0.3458238286
40
0.5215976411
40
0.6926166346
40
0.8534667830
40
1.0000000000
40
1.0000000000
40
1.0000000000
40
1.0000000000
10
115.2326128727
20
130.7951871058
30
0.0000000000
10
115.2557028851
20
130.6457335098
30
0.0000000000
10
115.2898396217
20
130.3400885761
30
0.0000000000
10
115.3075241701
20
129.8767535198
30
0.0000000000
10
115.2925364083
20
129.4126157459
30
0.0000000000
10
115.2452350467
20
128.9637355989
30
0.0000000000
10
115.1667749462
20
128.5456356850
30
0.0000000000
10
115.0907201720
20
128.2826845050
30
0.0000000000
10
115.0462035614
20
128.1603761226
30
0.0000000000
11
115.2326128727
21
130.7951871058
31
0.0000000000
11
115.2838827242
21
130.3444131751
31
0.0000000000
11
115.3020253769
21
129.8769131429
31
0.0000000000
11
115.2866547819
21
129.4087731064
31
0.0000000000
11
115.2380456615
21
128.9556510192
31
0.0000000000
11
115.1574051892
21
128.5346805698
31
0.0000000000
11
115.0462035614
21
128.1603761226
31
0.0000000000
0
SPLINE
5
278
100
AcDbEntity
8
0
100
AcDbSpline
62
7
6
CONTINUOUS
70
0
71
3
72
13
73
9
74
7
42
0.0000001000
43
0.0000001000
44
0.0000000001
40
0.0000000000
40
0.0000000000
40
0.0000000000
40
0.0000000000
40
0.1702527989
40
0.3458238286
40
0.5215976411
40
0.6926166346
40
0.8534667830
40
1.0000000000
40
1.0000000000
40
1.0000000000
40
1.0000000000
10
105.1119419208
20
130.7951871058
30
0.0000000000
10
105.0888519084
20
130.6457335098
30
0.0000000000
10
105.0547151717
20
130.3400885761
30
0.0000000000
10
105.0370306234
20
129.8767535198
30
0.0000000000
10
105.0520183852
20
129.4126157459
30
0.0000000000
10
105.0993197468
20
128.9637355989
30
0.0000000000
10
105.1777798472
20
128.5456356850
30
0.0000000000
10
105.2538346215
20
128.2826845050
30
0.0000000000
10
105.2983512321
20
128.1603761226
30
0.0000000000
11
105.1119419208
21
130.7951871058
31
0.0000000000
11
105.0606720692
21
130.3444131751
31
0.0000000000
11
105.0425294166
21
129.8769131429
31
0.0000000000
11
105.0579000116
21
129.4087731064
31
0.0000000000
11
105.1065091319
21
128.9556510192
31
0.0000000000
11
105.1871496043
21
128.5346805698
31
0.0000000000
11
105.2983512321
21
128.1603761226
31
0.0000000000
0
SPLINE
5
279
100
AcDbEntity
8
0
100
AcDbSpline
62
7
6
CONTINUOUS
70
0
71
3
72
23
73
19
74
17
42
0.0000001000
43
0.0000001000
44
0.0000000001
40
0.0000000000
40
0.0000000000
40
0.0000000000
40
0.0000000000
40
0.0293237159
40
0.0623929941
40
0.0987961430
40
0.1394848003
40
0.1841313077
40
0.2328810087
40
0.2858087614
40
0.3426555783
40
0.4032985002
40
0.4685262238
40
0.5391424425
40
0.6159428046
40
0.6996917289
40
0.7910661150
40
0.8908630107
40
1.0000000000
40
1.0000000000
40
1.0000000000
40
1.0000000000
10
118.2887455410
20
193.3597513322
30
0.0000000000
10
118.2887455410
20
193.3065312345
30
0.0000000000
10
118.2692823454
20
193.1926900126
30
0.0000000000
10
118.1870569625
20
193.0311449419
30
0.0000000000
10
118.0599704704
20
192.8755204556
30
0.0000000000
10
117.8964632117
20
192.7261351689
30
0.0000000000
10
117.7007842885
20
192.5809646789
30
0.0000000000
10
117.4760886365
20
192.4390613264
30
0.0000000000
10
117.2242010902
20
192.2997676702
30
0.0000000000
10
116.9466898205
20
192.1629869145
30
0.0000000000
10
116.6435553196
20
192.0283399724
30
0.0000000000
10
116.3126813179
20
191.8951515734
30
0.0000000000
10
115.9501005421
20
191.7627575887
30
0.0000000000
10
115.5516536735
20
191.6311732635
30
0.0000000000
10
115.1132453062
20
191.5011216221
30
0.0000000000
10
114.6306794280
20
191.3739630536
30
0.0000000000
10
114.0994471721
20
191.2516918846
30
0.0000000000
10
113.7272502485
20
191.1787248000
30
0.0000000000
10
113.5322773967
20
191.1438090947
30
0.0000000000
11
118.2887455410
21
193.3597513322
31
0.0000000000
11
118.2632797614
21
193.2021350156
31
0.0000000000
11
118.1847729280
21
193.0400976758
31
0.0000000000
11
118.0616576090
21
192.8847649681
31
0.0000000000
11
117.8995234492
21
192.7337938171
31
0.0000000000
11
117.7051452453
21
192.5878164082
31
0.0000000000
11
117.4812575382
21
192.4452424377
31
0.0000000000
11
117.2294211215
21
192.3051525030
31
0.0000000000
11
116.9520294350
21
192.1678410574
31
0.0000000000
11
116.6504337017
21
192.0334442623
31
0.0000000000
11
116.3210926995
21
191.9005343213
31
0.0000000000
11
115.9600180459
21
191.7684137833
31
0.0000000000
11
115.5630206775
21
191.6370751805
31
0.0000000000
11
115.1259126327
21
191.5072091038
31
0.0000000000
11
114.6448667269
21
191.3802772541
31
0.0000000000
11
114.1153757553
21
191.2582554959
31
0.0000000000
11
113.5322773967
21
191.1438090947
31
0.0000000000
0
SPLINE
5
27A
100
AcDbEntity
8
0
100
AcDbSpline
62
7
6
CONTINUOUS
70
0
71
3
72
14
73
10
74
8
42
0.0000001000
43
0.0000001000
44
0.0000000001
40
0.0000000000
40
0.0000000000
40
0.0000000000
40
0.0000000000
40
0.1595345191
40
0.3176108456
40
0.4709076792
40
0.6183054017
40
0.7565427342
40
0.8844599199
40
1.0000000000
40
1.0000000000
40
1.0000000000
40
1.0000000000
10
107.7722773967
20
133.4901828731
30
0.0000000000
10
107.7722773967
20
133.8388167161
30
0.0000000000
10
107.7553991010
20
134.5330201270
30
0.0000000000
10
107.6794423911
20
135.5597181810
30
0.0000000000
10
107.5534121579
20
136.5548251929
30
0.0000000000
10
107.3789802666
20
137.4986142770
30
0.0000000000
10
107.1578608219
20
138.3756659179
30
0.0000000000
10
106.8932944188
20
139.1675974116
30
0.0000000000
10
106.6781277940
20
139.6555356876
30
0.0000000000
10
106.5616746187
20
139.8795688186
30
0.0000000000
11
107.7722773967
21
133.4901828731
31
0.0000000000
11
107.7466546070
21
134.5357704977
31
0.0000000000
11
107.6695698136
21
135.5692413552
31
0.0000000000
11
107.5422032669
21
136.5661455098
31
0.0000000000
11
107.3648978906
21
137.5160732274
31
0.0000000000
11
107.1409660766
21
138.3942500312
31
0.0000000000
11
106.8719011096
21
139.1885339449
31
0.0000000000
11
106.5616746187
21
139.8795688186
31
0.0000000000
0
SPLINE
5
27B
100
AcDbEntity
8
0
100
AcDbSpline
62
7
6
CONTINUOUS
70
0
71
3
72
10
73
6
74
4
42
0.0000001000
43
0.0000001000
44
0.0000000001
40
0.0000000000
40
0.0000000000
40
0.0000000000
40
0.0000000000
40
0.3277963032
40
0.6611071389
40
1.0000000000
40
1.0000000000
40
1.0000000000
40
1.0000000000
10
100.9268731330
20
158.0889994872
30
0.0000000000
10
100.8740431526
20
158.2644194651
30
0.0000000000
10
100.7695531878
20
158.6188340692
30
0.0000000000
10
100.6175594660
20
159.1566716102
30
0.0000000000
10
100.5193844676
20
159.5193154445
30
0.0000000000
10
100.4708711281
20
159.7024013644
30
0.0000000000
11
100.9268731330
21
158.0889994872
31
0.0000000000
11
100.7714095964
21
158.6161613866
31
0.0000000000
11
100.6193903131
21
159.1539416710
31
0.0000000000
11
100.4708711281
21
159.7024013644
31
0.0000000000
0
SPLINE
5
27C
100
AcDbEntity
8
0
100
AcDbSpline
62
7
6
CONTINUOUS
70
0
71
3
72
9
73
5
74
3
42
0.0000001000
43
0.0000001000
44
0.0000000001
40
0.0000000000
40
0.0000000000
40
0.0000000000
40
0.0000000000
40
0.7390808774
40
1.0000000000
40
1.0000000000
40
1.0000000000
40
1.0000000000
10
288.7743702425
20
124.3660795981
30
0.0000000000
10
289.1079980268
20
124.3629611236
30
0.0000000000
10
289.5594232547
20
124.3603016808
30
0.0000000000
10
290.0108528940
20
124.3597513249
30
0.0000000000
10
290.1286395047
20
124.3597513173
30
0.0000000000
11
288.7743702425
21
124.3660795981
31
0.0000000000
11
289.7752799435
21
124.3601821057
31
0.0000000000
11
290.1286395047
21
124.3597513173
31
0.0000000000
0
SPLINE
5
27D
100
AcDbEntity
8
0
100
AcDbSpline
62
7
6
CONTINUOUS
70
0
71
3
72
9
73
5
74
3
42
0.0000001000
43
0.0000001000
44
0.0000000001
40
0.0000000000
40
0.0000000000
40
0.0000000000
40
0.0000000000
40
0.7390808774
40
1.0000000000
40
1.0000000000
40
1.0000000000
40
1.0000000000
10
301.9798897433
20
124.3660795981
30
0.0000000000
10
301.6462619590
20
124.3629611236
30
0.0000000000
10
301.1948367311
20
124.3603016808
30
0.0000000000
10
300.7434070918
20
124.3597513249
30
0.0000000000
10
300.6256204811
20
124.3597513173
30
0.0000000000
11
301.9798897433
21
124.3660795981
31
0.0000000000
11
300.9789800423
21
124.3601821057
31
0.0000000000
11
300.6256204811
21
124.3597513173
31
0.0000000000
0
SPLINE
5
27E
100
AcDbEntity
8
0
100
AcDbSpline
62
7
6
CONTINUOUS
70
0
71
3
72
9
73
5
74
3
42
0.0000001000
43
0.0000001000
44
0.0000000001
40
0.0000000000
40
0.0000000000
40
0.0000000000
40
0.0000000000
40
0.3929181339
40
1.0000000000
40
1.0000000000
40
1.0000000000
40
1.0000000000
10
300.6256204811
20
124.3597513173
30
0.0000000000
10
300.4097085829
20
124.3597513034
30
0.0000000000
10
299.8602000966
20
124.3609792321
30
0.0000000000
10
299.3107044947
20
124.3653326685
30
0.0000000000
10
298.9771299929
20
124.3691286222
30
0.0000000000
11
300.6256204811
21
124.3597513173
31
0.0000000000
11
299.9778868740
21
124.3611987847
31
0.0000000000
11
298.9771299929
21
124.3691286222
31
0.0000000000
0
SPLINE
5
27F
100
AcDbEntity
8
0
100
AcDbSpline
62
7
6
CONTINUOUS
70
0
71
3
72
9
73
5
74
3
42
0.0000001000
43
0.0000001000
44
0.0000000001
40
0.0000000000
40
0.0000000000
40
0.0000000000
40
0.0000000000
40
0.3929181339
40
1.0000000000
40
1.0000000000
40
1.0000000000
40
1.0000000000
10
290.1286395047
20
124.3597513173
30
0.0000000000
10
290.3445514029
20
124.3597513034
30
0.0000000000
10
290.8940598892
20
124.3609792321
30
0.0000000000
10
291.4435554911
20
124.3653326685
30
0.0000000000
10
291.7771299929
20
124.3691286222
30
0.0000000000
11
290.1286395047
21
124.3597513173
31
0.0000000000
11
290.7763731118
21
124.3611987847
31
0.0000000000
11
291.7771299929
21
124.3691286222
31
0.0000000000
0
SPLINE
5
280
100
AcDbEntity
8
0
100
AcDbSpline
62
7
6
CONTINUOUS
70
0
71
3
72
12
73
8
74
6
42
0.0000001000
43
0.0000001000
44
0.0000000001
40
0.0000000000
40
0.0000000000
40
0.0000000000
40
0.0000000000
40
0.1590209536
40
0.3358608244
40
0.5335900135
40
0.7546629702
40
1.0000000000
40
1.0000000000
40
1.0000000000
40
1.0000000000
10
303.7771299929
20
197.8519544854
30
0.0000000000
10
303.4006901808
20
197.5769906186
30
0.0000000000
10
302.6424134351
20
196.9445628705
30
0.0000000000
10
301.5657274153
20
195.8053223567
30
0.0000000000
10
300.5160650069
20
194.4052751905
30
0.0000000000
10
299.5234748069
20
192.7262523572
30
0.0000000000
10
298.9539553522
20
191.4800607617
30
0.0000000000
10
298.6869934872
20
190.8122416620
30
0.0000000000
11
303.7771299929
21
197.8519544854
31
0.0000000000
11
302.7007056783
21
196.9591391425
31
0.0000000000
11
301.6292161243
21
195.8319355747
31
0.0000000000
11
300.5821917568
21
194.4435614464
31
0.0000000000
11
299.5883957073
21
192.7725306516
31
0.0000000000
11
298.6869934872
21
190.8122416620
31
0.0000000000
0
SPLINE
5
281
100
AcDbEntity
8
0
100
AcDbSpline
62
7
6
CONTINUOUS
70
0
71
3
72
12
73
8
74
6
42
0.0000001000
43
0.0000001000
44
0.0000000001
40
0.0000000000
40
0.0000000000
40
0.0000000000
40
0.0000000000
40
0.1590209536
40
0.3358608244
40
0.5335900135
40
0.7546629702
40
1.0000000000
40
1.0000000000
40
1.0000000000
40
1.0000000000
10
286.9771299929
20
197.8519544854
30
0.0000000000
10
287.3535698050
20
197.5769906186
30
0.0000000000
10
288.1118465507
20
196.9445628705
30
0.0000000000
10
289.1885325705
20
195.8053223567
30
0.0000000000
10
290.2381949790
20
194.4052751905
30
0.0000000000
10
291.2307851789
20
192.7262523572
30
0.0000000000
10
291.8003046336
20
191.4800607617
30
0.0000000000
10
292.0672664986
20
190.8122416620
30
0.0000000000
11
286.9771299929
21
197.8519544854
31
0.0000000000
11
288.0535543075
21
196.9591391425
31
0.0000000000
11
289.1250438616
21
195.8319355747
31
0.0000000000
11
290.1720682290
21
194.4435614464
31
0.0000000000
11
291.1658642786
21
192.7725306516
31
0.0000000000
11
292.0672664986
21
190.8122416620
31
0.0000000000
0
SPLINE
5
282
100
AcDbEntity
8
0
100
AcDbSpline
62
7
6
CONTINUOUS
70
0
71
3
72
13
73
9
74
7
42
0.0000001000
43
0.0000001000
44
0.0000000001
40
0.0000000000
40
0.0000000000
40
0.0000000000
40
0.0000000000
40
0.1509609685
40
0.3145300272
40
0.4850407253
40
0.6592694764
40
0.8329035849
40
1.0000000000
40
1.0000000000
40
1.0000000000
40
1.0000000000
10
293.3244004099
20
183.2916266287
30
0.0000000000
10
293.3244004099
20
183.6773930599
30
0.0000000000
10
293.3036223590
20
184.4812215357
30
0.0000000000
10
293.2163327972
20
185.7180217900
30
0.0000000000
10
293.0623455671
20
187.0083883230
30
0.0000000000
10
292.8300650748
20
188.3134415072
30
0.0000000000
10
292.5088841653
20
189.5908282650
30
0.0000000000
10
292.2257651079
20
190.4157490823
30
0.0000000000
10
292.0672664986
20
190.8122416620
30
0.0000000000
11
293.3244004099
21
183.2916266287
31
0.0000000000
11
293.2962024558
21
184.4485823454
31
0.0000000000
11
293.2077333929
21
185.6994132456
31
0.0000000000
11
293.0512302030
21
186.9971823639
31
0.0000000000
11
292.8144745932
21
188.3117069250
31
0.0000000000
11
292.4864715158
21
189.6017786399
31
0.0000000000
11
292.0672664986
21
190.8122416620
31
0.0000000000
0
SPLINE
5
283
100
AcDbEntity
8
0
100
AcDbSpline
62
7
6
CONTINUOUS
70
0
71
3
72
13
73
9
74
7
42
0.0000001000
43
0.0000001000
44
0.0000000001
40
0.0000000000
40
0.0000000000
40
0.0000000000
40
0.0000000000
40
0.1509609685
40
0.3145300272
40
0.4850407253
40
0.6592694764
40
0.8329035849
40
1.0000000000
40
1.0000000000
40
1.0000000000
40
1.0000000000
10
297.4298595759
20
183.2916266287
30
0.0000000000
10
297.4298595759
20
183.6773930599
30
0.0000000000
10
297.4506376268
20
184.4812215357
30
0.0000000000
10
297.5379271886
20
185.7180217900
30
0.0000000000
10
297.6919144188
20
187.0083883230
30
0.0000000000
10
297.9241949110
20
188.3134415072
30
0.0000000000
10
298.2453758205
20
189.5908282650
30
0.0000000000
10
298.5284948779
20
190.4157490823
30
0.0000000000
10
298.6869934872
20
190.8122416620
30
0.0000000000
11
297.4298595759
21
183.2916266287
31
0.0000000000
11
297.4580575300
21
184.4485823454
31
0.0000000000
11
297.5465265930
21
185.6994132456
31
0.0000000000
11
297.7030297828
21
186.9971823639
31
0.0000000000
11
297.9397853926
21
188.3117069250
31
0.0000000000
11
298.2677884700
21
189.6017786399
31
0.0000000000
11
298.6869934872
21
190.8122416620
31
0.0000000000
0
ENDSEC
0
SECTION
2
OBJECTS
0
DICTIONARY
5
284
100
AcDbDictionary
3
ACAD_GROUP
350
285
3
ACAD_MLINESTYLE
350
286
0
DICTIONARY
5
285
102
{ACAD_REACTORS
330
284
102
}
100
AcDbDictionary
0
DICTIONARY
5
286
102
{ACAD_REACTORS
330
284
102
}
100
AcDbDictionary
3
STANDARD
350
287
0
MLINESTYLE
5
287
102
{ACAD_REACTORS
330
286
102
}
100
AcDbMlineStyle
2
STANDARD
70
0
3

62
256
51
90.0
52
90.0
71
2
49
0.5
62
256
6
BYLAYER
49
-0.5
62
256
6
BYLAYER
0
ENDSEC
0
EOF
