999
DXF file: VIP-VV-22_7994855_M32010-P-1.dxf
999
Pro/ENGINEER 2010140 by Parametric Technology Corporation
  0
SECTION
  2
HEADER
  9
$ACADVER
  1
AC1015
  9
$DWGCODEPAGE
  3
ANSI_1252
  9
$EXTMAX
 10
420.0
 20
297.0
 30
0.0
  9
$EXTMIN
 10
0.0
 20
0.0
 30
0.0
  9
$LIMMIN
 10
0.0
 20
0.0
  9
$LIMMAX
 10
420.0
 20
297.0
  9
$VIEWCTR
 10
210.0
 20
148.5
  9
$VIEWSIZE
 40
297.0
  9
$CLAYER
  8
0
  9
$LTSCALE
 40
23.1
  9
$CELTYPE
  6
BYLAYER
  9
$DIMSCALE
 40
1.0
  9
$DIMASZ
 40
3.5
  9
$DIMEXO
 40
2.625
  9
$DIMDLI
 40
15.96
  9
$DIMEXE
 40
7.56
  9
$DIMCEN
 40
3.78
  9
$DIMLFAC
 40
1.0
  9
$DIMBLK
  1
_FILLED
  9
$DIMTXT
 40
3.5
  9
$DIMTOL
 70
1
  9
$DIMLIM
 70
0
  9
$DIMTFAC
 40
1.0
  9
$DIMTP
 40
0.005
  9
$DIMTM
 40
0.005
  9
$PDMODE
 70
3
  9
$PDSIZE
 40
0.3125
  9
$HANDSEED
  5
417
  9
$TILEMODE
 70
1
  9
$MEASUREMENT
 70
1
  9
$INSUNITS
 70
4
  0
ENDSEC
  0
SECTION
  2
CLASSES
  0
CLASS
  1
ACDBDICTIONARYWDFLT
  2
AcDbDictionaryWithDefault
  3
AutoCAD 2000
 90
0
280
0
281
0
  0
CLASS
  1
ACDBPLACEHOLDER
  2
AcDbPlaceHolder
  3
AutoCAD 2000
 90
0
280
0
281
0
  0
CLASS
  1
LAYOUT
  2
AcDbLayout
  3
AutoCAD 2000
 90
0
280
0
281
0
  0
ENDSEC
  0
SECTION
  2
TABLES
  0
TABLE
  2
VPORT
  5
8
100
AcDbSymbolTable
 70
2
  0
VPORT
  5
1F4
100
AcDbSymbolTableRecord
100
AcDbViewportTableRecord
  2
*ACTIVE
 70
0
 10
0.0
 20
0.0
 11
1.0
 21
1.0
 12
210.0
 22
148.5
 13
0.0
 23
0.0
 14
1.0
 24
1.0
 15
0.0
 25
0.0
 16
0.0
 26
0.0
 36
1.0
 17
0.0
 27
0.0
 37
0.0
 40
297.0
 41
1.4141414141
 42
50.0
 43
0.0
 44
0.0
 50
0.0
 51
0.0
 71
0
 72
100
 73
1
 74
1
 75
0
 76
0
 77
0
 78
0
  0
ENDTAB
  0
TABLE
  2
LTYPE
  5
5
100
AcDbSymbolTable
 70
6
  0
LTYPE
  5
14
100
AcDbSymbolTableRecord
100
AcDbLinetypeTableRecord
  2
BYBLOCK
 70
0
  3

 72
65
 73
0
 40
0.0
  0
LTYPE
  5
15
100
AcDbSymbolTableRecord
100
AcDbLinetypeTableRecord
  2
BYLAYER
 70
0
  3

 72
65
 73
0
 40
0.0
  0
LTYPE
  5
16
100
AcDbSymbolTableRecord
100
AcDbLinetypeTableRecord
  2
CONTINUOUS
 70
64
  3
Solid line
 72
65
 73
0
 40
0.0
  0
LTYPE
  5
1F5
100
AcDbSymbolTableRecord
100
AcDbLinetypeTableRecord
  2
CENTER
 70
64
  3
____ _ ____ _ ____ _ ____ _ ____ _ ____ _ ____
 72
65
 73
4
 40
0.6
 49
0.375
 74
0
 49
-0.075
 74
0
 49
0.075
 74
0
 49
-0.075
 74
0
  0
LTYPE
  5
1F6
100
AcDbSymbolTableRecord
100
AcDbLinetypeTableRecord
  2
HIDDEN
 70
64
  3
- - - - - - - - - - - - - - - - - - - -
 72
65
 73
2
 40
0.2
 49
0.1
 74
0
 49
-0.1
 74
0
  0
LTYPE
  5
1F7
100
AcDbSymbolTableRecord
100
AcDbLinetypeTableRecord
  2
PHANTOM
 70
64
  3
_____ _ _ _____ _ _ _____ _ _ _____
 72
65
 73
6
 40
0.8
 49
0.45
 74
0
 49
-0.05
 74
0
 49
0.1
 74
0
 49
-0.05
 74
0
 49
0.1
 74
0
 49
-0.05
 74
0
  0
LTYPE
  5
1F8
100
AcDbSymbolTableRecord
100
AcDbLinetypeTableRecord
  2
DOT
 70
64
  3
. . . . . . . . . . . . . . . . . . . .
 72
65
 73
2
 40
0.2
 49
0.1
 74
0
 49
-0.1
 74
0
  0
LTYPE
  5
1F9
100
AcDbSymbolTableRecord
100
AcDbLinetypeTableRecord
  2
DASHED
 70
64
  3
- - - - - - - - - - - - - - - - - - - -
 72
65
 73
2
 40
0.2
 49
0.1
 74
0
 49
-0.1
 74
0
  0
ENDTAB
  0
TABLE
  2
LAYER
  5
2
100
AcDbSymbolTable
 70
36
  0
LAYER
  5
10
100
AcDbSymbolTableRecord
100
AcDbLayerTableRecord
  2
0
 70
0
 62
7
  6
CONTINUOUS
370
-3
390
F
  0
LAYER
  5
1FA
100
AcDbSymbolTableRecord
100
AcDbLayerTableRecord
  2
DEFAULT_1
 70
0
 62
7
  6
CENTER
370
-3
390
F
  0
LAYER
  5
1FB
100
AcDbSymbolTableRecord
100
AcDbLayerTableRecord
  2
DEFAULT_2
 70
0
 62
8
  6
HIDDEN
370
-3
390
F
  0
LAYER
  5
1FC
100
AcDbSymbolTableRecord
100
AcDbLayerTableRecord
  2
DEFAULT_3
 70
0
 62
7
  6
PHANTOM
370
-3
390
F
  0
LAYER
  5
1FD
100
AcDbSymbolTableRecord
100
AcDbLayerTableRecord
  2
AUSFORMSCHRAEGEN
 70
0
 62
7
  6
CONTINUOUS
370
-3
390
F
  0
LAYER
  5
1FE
100
AcDbSymbolTableRecord
100
AcDbLayerTableRecord
  2
BEZUGSACHSEN
 70
0
 62
7
  6
CONTINUOUS
370
-3
390
F
  0
LAYER
  5
1FF
100
AcDbSymbolTableRecord
100
AcDbLayerTableRecord
  2
BEZUGSEBENEN
 70
0
 62
7
  6
CONTINUOUS
370
-3
390
F
  0
LAYER
  5
200
100
AcDbSymbolTableRecord
100
AcDbLayerTableRecord
  2
FASEN
 70
0
 62
7
  6
CONTINUOUS
370
-3
390
F
  0
LAYER
  5
201
100
AcDbSymbolTableRecord
100
AcDbLayerTableRecord
  2
HILFEN
 70
0
 62
7
  6
CONTINUOUS
370
-3
390
F
  0
LAYER
  5
202
100
AcDbSymbolTableRecord
100
AcDbLayerTableRecord
  2
KONSTRUKTIONSELEMENTE
 70
0
 62
7
  6
CONTINUOUS
370
-3
390
F
  0
LAYER
  5
203
100
AcDbSymbolTableRecord
100
AcDbLayerTableRecord
  2
KURVEN
 70
0
 62
7
  6
CONTINUOUS
370
-3
390
F
  0
LAYER
  5
204
100
AcDbSymbolTableRecord
100
AcDbLayerTableRecord
  2
PLATZIERUNG
 70
0
 62
7
  6
CONTINUOUS
370
-3
390
F
  0
LAYER
  5
205
100
AcDbSymbolTableRecord
100
AcDbLayerTableRecord
  2
RUNDUNGEN
 70
0
 62
7
  6
CONTINUOUS
370
-3
390
F
  0
LAYER
  5
206
100
AcDbSymbolTableRecord
100
AcDbLayerTableRecord
  2
TEIL_STARTBEZUEGE
 70
0
 62
7
  6
CONTINUOUS
370
-3
390
F
  0
ENDTAB
  0
TABLE
  2
STYLE
  5
3
100
AcDbSymbolTable
 70
1
  0
STYLE
  5
11
100
AcDbSymbolTableRecord
100
AcDbTextStyleTableRecord
  2
STANDARD
 70
0
 40
0.0
 41
0.7
 50
0.0
 71
0
 42
0.2
  3
txt
  4

  0
STYLE
  5
207
100
AcDbSymbolTableRecord
100
AcDbTextStyleTableRecord
  2
TEXTSTYLE_1
 70
0
 40
0.0
 41
0.8
 50
0.0
 71
0
 42
0.2
  3
gdt
  4

  0
ENDTAB
  0
TABLE
  2
VIEW
  5
6
100
AcDbSymbolTable
 70
0
  0
ENDTAB
  0
TABLE
  2
UCS
  5
7
100
AcDbSymbolTable
 70
0
  0
ENDTAB
  0
TABLE
  2
APPID
  5
9
100
AcDbSymbolTable
 70
1
  0
APPID
  5
208
100
AcDbSymbolTableRecord
100
AcDbRegAppTableRecord
  2
ACAD
 70
0
  0
ENDTAB
  0
TABLE
  2
BLOCK_RECORD
  5
1
100
AcDbSymbolTable
 70
0
  0
BLOCK_RECORD
  5
209
100
AcDbSymbolTableRecord
100
AcDbBlockTableRecord
  2
*Model_Space
  0
BLOCK_RECORD
  5
20A
100
AcDbSymbolTableRecord
100
AcDbBlockTableRecord
  2
*Paper_Space
  0
ENDTAB
  0
TABLE
  2
DIMSTYLE
  5
A
100
AcDbSymbolTable
 70
1
100
AcDbDimStyleTable
 71
0
  0
DIMSTYLE
105
20B
100
AcDbSymbolTableRecord
100
AcDbDimStyleTableRecord
  2
STANDARD
 70
0
  3

  4

 40
1.0
 41
3.5
 42
0.0625
 43
0.38
 44
0.18
 45
0.0
 46
0.0
 47
0.005
 48
0.005
140
3.5
141
0.09
142
0.0
143
25.4
144
1.0
145
0.0
146
1.0
147
0.09
 71
1.0
 72
0.0
 73
0
 74
0
 75
0
 76
0
 77
1
 78
8
170
0
171
2
172
0
173
0
174
0
175
0
176
0
177
0
178
5
270
2
271
3
272
3
273
2
274
2
275
0
280
0
281
0
282
0
283
1
284
8
285
0
286
0
287
3
288
0
340
11
  0
ENDTAB
  0
ENDSEC
  0
SECTION
  2
BLOCKS
  0
BLOCK
  5
20
100
AcDbEntity
  8
0
100
AcDbBlockBegin
  2
*Model_Space
 70
0
 10
0.0
 20
0.0
 30
0.0
  3
*Model_Space
  1

  0
ENDBLK
  5
21
100
AcDbEntity
  8
0
100
AcDbBlockEnd
  0
BLOCK
  5
1C
100
AcDbEntity
  8
0
100
AcDbBlockBegin
  2
*Paper_Space
 70
0
 10
0.0
 20
0.0
 30
0.0
  3
*Paper_Space
  1

  0
ENDBLK
  5
1D
100
AcDbEntity
  8
0
100
AcDbBlockEnd
  0
ENDSEC
  0
SECTION
  2
ENTITIES
  0
MTEXT
  5
20C
100
AcDbEntity
  8
0
100
AcDbMText
 62
5
  6
CONTINUOUS
  7
STANDARD
 71
1
 72
1
 10
301.7456502011
 20
288.1997682968
 30
0.0
 11
-0.0
 21
-1.0
 31
0.0
 44
0.9
  1
RUD VV-22
 40
5.0
 41
37.0238095238
  0
MTEXT
  5
20D
100
AcDbEntity
  8
0
100
AcDbMText
 62
5
  6
CONTINUOUS
  7
STANDARD
 71
1
 72
1
 10
460.4577320379
 20
332.4147754017
 30
0.0
 11
0.0
 21
1.0
 31
0.0
 44
0.9
  1
RUD VV-22
 40
5.0
 41
37.0238095238
  0
MTEXT
  5
20E
100
AcDbEntity
  8
0
100
AcDbMText
 62
5
  6
CONTINUOUS
  7
STANDARD
 71
1
 72
1
 10
118.8300609157
 20
31.780230334
 30
0.0
 11
0.0
 21
1.0
 31
0.0
 44
0.9
  1
RUD VV-22
 40
5.0
 41
37.0238095238
  0
LINE
  5
20F
100
AcDbEntity
  8
0
100
AcDbLine
 62
7
  6
CONTINUOUS
 10
0.0
 20
0.0
 11
0.0
 21
297.0
  0
LINE
  5
210
100
AcDbEntity
  8
0
100
AcDbLine
 62
7
  6
CONTINUOUS
 10
0.0
 20
0.0
 11
420.0
 21
0.0
  0
LINE
  5
211
100
AcDbEntity
  8
0
100
AcDbLine
 62
7
  6
CONTINUOUS
 10
0.0
 20
297.0
 11
420.0
 21
297.0
  0
LINE
  5
212
100
AcDbEntity
  8
0
100
AcDbLine
 62
7
  6
CONTINUOUS
 10
420.0
 20
0.0
 11
420.0
 21
297.0
  0
LWPOLYLINE
  5
213
100
AcDbEntity
  8
0
100
AcDbPolyline
 62
7
  6
CONTINUOUS
 90
14
 70
0
 10
123.8353338664
 20
171.1106453671
 10
124.2470162093
 20
171.1316089918
 10
124.6555725885
 20
171.186412897
 10
125.0582255238
 20
171.2746844408
 10
125.4522377175
 20
171.3958233203
 10
125.8349306841
 20
171.5490056608
 10
126.203703007
 20
171.7331896392
 10
126.5560479837
 20
171.9471225503
 10
126.889570664
 20
172.1893492933
 10
127.2020046317
 20
172.4582226773
 10
127.4912271721
 20
172.7519146738
 10
127.7552722947
 20
173.0684272501
 10
127.9923455708
 20
173.4056068997
 10
128.2007922992
 20
173.7610764025
  0
LINE
  5
214
100
AcDbEntity
  8
0
100
AcDbLine
 62
7
  6
CONTINUOUS
 10
123.7871112545
 20
171.1104128198
 11
123.8353338664
 21
171.1106453671
  0
LINE
  5
215
100
AcDbEntity
  8
0
100
AcDbLine
 62
7
  6
CONTINUOUS
 10
123.8056406193
 20
171.1103889533
 11
118.1332616005
 21
171.1103889533
  0
LINE
  5
216
100
AcDbEntity
  8
KONSTRUKTIONSELEMENTE
100
AcDbLine
 62
7
  6
CONTINUOUS
 10
56.9450274373
 20
171.1103889533
 11
51.2726484185
 21
171.1103889533
  0
LINE
  5
217
100
AcDbEntity
  8
RUNDUNGEN
100
AcDbLine
 62
7
  6
CONTINUOUS
 10
51.2333313313
 20
171.110747452
 11
51.2911777833
 21
171.1104128198
  0
LINE
  5
218
100
AcDbEntity
  8
KONSTRUKTIONSELEMENTE
100
AcDbLine
 62
7
  6
CONTINUOUS
 10
45.9487557994
 20
396.3243270018
 11
37.7089223033
 21
386.5044758304
  0
LWPOLYLINE
  5
219
100
AcDbEntity
  8
RUNDUNGEN
100
AcDbPolyline
 62
7
  6
CONTINUOUS
 90
14
 70
0
 10
46.8774967426
 20
173.7610763942
 10
47.085545051
 20
173.4062264303
 10
47.3221200591
 20
173.0695973034
 10
47.5855759287
 20
172.7535542597
 10
47.8741286544
 20
172.4602395591
 10
48.1858239025
 20
172.1916412252
 10
48.5185514602
 20
171.9495788019
 10
48.8700583653
 20
171.735692347
 10
49.237963969
 20
171.5514312771
 10
49.6197764755
 20
171.3980442064
 10
50.0129098214
 20
171.2765705118
 10
50.4147011582
 20
171.1878333072
 10
50.8224289312
 20
171.1324338481
 10
51.2333313313
 20
171.110747452
  0
LINE
  5
21A
100
AcDbEntity
  8
RUNDUNGEN
100
AcDbLine
 62
7
  6
CONTINUOUS
 10
101.8379171089
 20
200.2237883531
 11
101.8380265157
 21
200.2237444057
  0
LWPOLYLINE
  5
21B
100
AcDbEntity
  8
0
100
AcDbPolyline
 62
7
  6
CONTINUOUS
 90
5
 70
0
 10
101.838428061
 20
200.2235828705
 10
102.0610012381
 20
200.1331645258
 10
103.0237136725
 20
199.7205398528
 10
103.9523211652
 20
199.2875650014
 10
104.1132821581
 20
199.2088215463
  0
LINE
  5
21C
100
AcDbEntity
  8
RUNDUNGEN
100
AcDbLine
 62
7
  6
CONTINUOUS
 10
104.1132493089
 20
199.2088375233
 11
104.1118598433
 21
199.2095220891
  0
LINE
  5
21D
100
AcDbEntity
  8
RUNDUNGEN
100
AcDbLine
 62
7
  6
CONTINUOUS
 10
83.9787630727
 20
222.5608235889
 11
84.39160491
 21
222.5867828993
  0
LWPOLYLINE
  5
21E
100
AcDbEntity
  8
RUNDUNGEN
100
AcDbPolyline
 62
7
  6
CONTINUOUS
 90
9
 70
0
 10
84.3916115838
 20
222.5867900364
 10
85.0363078654
 20
222.6064803314
 10
85.8634068603
 20
222.625005734
 10
86.696126125
 20
222.6361762293
 10
87.531726253
 20
222.6399483886
 10
88.3673584997
 20
222.6363076879
 10
89.2001711523
 20
222.6252677889
 10
90.0274199283
 20
222.606871419
 10
90.6866778116
 20
222.5867900163
  0
LWPOLYLINE
  5
21F
100
AcDbEntity
  8
RUNDUNGEN
100
AcDbPolyline
 62
7
  6
CONTINUOUS
 90
32
 70
0
 10
90.6866858233
 20
222.5867831712
 10
91.0882502877
 20
222.5618473296
 10
91.6064104527
 20
222.4964230985
 10
92.0999031883
 20
222.3986599446
 10
92.5685973452
 20
222.2729517079
 10
93.0124488105
 20
222.1232559106
 10
93.4319889895
 20
221.9531231741
 10
93.8278763719
 20
221.7656561386
 10
94.2011645532
 20
221.563474912
 10
94.5529560529
 20
221.3488129036
 10
94.8843553075
 20
221.1235668734
 10
95.1965141207
 20
220.8893031388
 10
95.4904868643
 20
220.6473614031
 10
95.7673503194
 20
220.398808221
 10
96.0280435908
 20
220.1445746569
 10
96.2734982364
 20
219.8853828178
 10
96.5045517574
 20
219.621830434
 10
96.7220078886
 20
219.3543555213
 10
96.9265699579
 20
219.0833216991
 10
97.1189457477
 20
218.8088954757
 10
97.2995837491
 20
218.5314418767
 10
97.4689643604
 20
218.2511429438
 10
97.627433807
 20
217.9682691908
 10
97.7753306014
 20
217.6829849324
 10
97.9129129451
 20
217.3954909178
 10
98.0404130104
 20
217.1059128483
 10
98.1579543021
 20
216.8145213783
 10
98.2656131805
 20
216.5216193251
 10
98.3634246465
 20
216.2275047702
 10
98.4513900456
 20
215.9325766262
 10
98.5293632199
 20
215.6376455761
 10
98.5972382367
 20
215.34348783
  0
LINE
  5
220
100
AcDbEntity
  8
RUNDUNGEN
100
AcDbLine
 62
7
  6
CONTINUOUS
 10
36.5391445189
 20
309.9821271069
 11
36.5391445189
 21
383.290537782
  0
LINE
  5
221
100
AcDbEntity
  8
0
100
AcDbLine
 62
7
  6
CONTINUOUS
 10
92.6396757308
 20
246.5723319924
 11
93.8146542009
 21
246.8161042391
  0
LINE
  5
222
100
AcDbEntity
  8
0
100
AcDbLine
 62
7
  6
CONTINUOUS
 10
82.6117672816
 20
246.5408232442
 11
83.7973007909
 21
246.35505423
  0
LINE
  5
223
100
AcDbEntity
  8
0
100
AcDbLine
 62
7
  6
CONTINUOUS
 10
67.7177996255
 20
254.5467963545
 11
68.4518972515
 21
254.2950077276
  0
LINE
  5
224
100
AcDbEntity
  8
0
100
AcDbLine
 62
7
  6
CONTINUOUS
 10
68.4665001224
 20
255.4344780774
 11
67.8758218827
 21
255.8131487985
  0
LINE
  5
225
100
AcDbEntity
  8
0
100
AcDbLine
 62
7
  6
CONTINUOUS
 10
67.0153056908
 20
255.0518563448
 11
67.7177996255
 21
254.5467963545
  0
LINE
  5
226
100
AcDbEntity
  8
0
100
AcDbLine
 62
7
  6
CONTINUOUS
 10
64.3317497847
 20
258.0851759288
 11
67.0153056908
 21
255.0518563448
  0
LINE
  5
227
100
AcDbEntity
  8
0
100
AcDbLine
 62
7
  6
CONTINUOUS
 10
67.8758218827
 20
255.8131487985
 11
65.8631549532
 21
258.0881384865
  0
LINE
  5
228
100
AcDbEntity
  8
0
100
AcDbLine
 62
7
  6
CONTINUOUS
 10
60.7385003062
 20
266.5981265915
 11
60.8184786919
 21
265.7366249081
  0
LINE
  5
229
100
AcDbEntity
  8
0
100
AcDbLine
 62
7
  6
CONTINUOUS
 10
61.9106190444
 20
266.0933934145
 11
61.8830411172
 21
266.794486672
  0
LINE
  5
22A
100
AcDbEntity
  8
0
100
AcDbLine
 62
7
  6
CONTINUOUS
 10
59.9064922055
 20
279.6526417179
 11
59.8216125612
 21
278.6437057953
  0
LINE
  5
22B
100
AcDbEntity
  8
0
100
AcDbLine
 62
7
  6
CONTINUOUS
 10
59.46794739
 20
274.439806278
 11
59.3689211113
 21
273.2627140475
  0
LINE
  5
22C
100
AcDbEntity
  8
0
100
AcDbLine
 62
7
  6
CONTINUOUS
 10
104.4046224244
 20
261.5186369539
 11
104.9537757559
 21
261.6483294118
  0
LINE
  5
22D
100
AcDbEntity
  8
0
100
AcDbLine
 62
7
  6
CONTINUOUS
 10
94.5394632822
 20
255.1368405749
 11
93.6582292196
 21
254.9540113462
  0
LINE
  5
22E
100
AcDbEntity
  8
0
100
AcDbLine
 62
7
  6
CONTINUOUS
 10
89.5458033138
 20
254.100808221
 11
88.6645692512
 21
253.9179789924
  0
LINE
  5
22F
100
AcDbEntity
  8
0
100
AcDbLine
 62
7
  6
CONTINUOUS
 10
69.7426715394
 20
255.4369464082
 11
69.0887834083
 21
255.3090773399
  0
LINE
  5
230
100
AcDbEntity
  8
0
100
AcDbLine
 62
7
  6
CONTINUOUS
 10
99.9150905962
 20
257.6384510786
 11
99.2256302592
 21
257.6153583912
  0
LINE
  5
231
100
AcDbEntity
  8
0
100
AcDbLine
 62
7
  6
CONTINUOUS
 10
68.4518972515
 20
254.2950077276
 11
69.4728335872
 21
254.2969832334
  0
LINE
  5
232
100
AcDbEntity
  8
0
100
AcDbLine
 62
7
  6
CONTINUOUS
 10
99.4143308135
 20
256.7329175071
 11
99.9758790534
 21
256.6776627392
  0
LINE
  5
233
100
AcDbEntity
  8
0
100
AcDbLine
 62
7
  6
CONTINUOUS
 10
87.4068279777
 20
253.8870734016
 11
86.5176777928
 21
254.0264001705
  0
LINE
  5
234
100
AcDbEntity
  8
0
100
AcDbLine
 62
7
  6
CONTINUOUS
 10
82.3683104041
 20
254.6765917367
 11
81.4791602192
 21
254.8159185056
  0
LINE
  5
235
100
AcDbEntity
  8
0
100
AcDbLine
 62
7
  6
CONTINUOUS
 10
69.0887834083
 20
255.3090773399
 11
68.4665001224
 21
255.4344780774
  0
LINE
  5
236
100
AcDbEntity
  8
0
100
AcDbLine
 62
7
  6
CONTINUOUS
 10
63.6839643653
 20
264.3648561241
 11
63.0330936038
 21
264.5072878151
  0
LINE
  5
237
100
AcDbEntity
  8
0
100
AcDbLine
 62
7
  6
CONTINUOUS
 10
62.0457538366
 20
263.8297033646
 11
62.9834489816
 21
263.4259162639
  0
LINE
  5
238
100
AcDbEntity
  8
0
100
AcDbLine
 62
7
  6
CONTINUOUS
 10
63.0330936038
 20
264.5072878151
 11
62.5118456111
 21
264.869589296
  0
LINE
  5
239
100
AcDbEntity
  8
0
100
AcDbLine
 62
7
  6
CONTINUOUS
 10
61.4721054491
 20
264.3524132921
 11
62.0457538366
 21
263.8297033646
  0
LINE
  5
23A
100
AcDbEntity
  8
0
100
AcDbLine
 62
7
  6
CONTINUOUS
 10
70.8828328566
 20
262.5290112369
 11
72.8954997861
 21
260.2540215489
  0
LINE
  5
23B
100
AcDbEntity
  8
0
100
AcDbLine
 62
7
  6
CONTINUOUS
 10
73.7560158776
 20
261.0153139137
 11
71.0724599716
 21
264.0486334978
  0
LINE
  5
23C
100
AcDbEntity
  8
0
100
AcDbLine
 62
7
  6
CONTINUOUS
 10
62.5118456111
 20
264.869589296
 11
62.1202206423
 21
265.4517606498
  0
LINE
  5
23D
100
AcDbEntity
  8
0
100
AcDbLine
 62
7
  6
CONTINUOUS
 10
61.0280802898
 20
265.0949921435
 11
61.4721054491
 21
264.3524132921
  0
LINE
  5
23E
100
AcDbEntity
  8
0
100
AcDbLine
 62
7
  6
CONTINUOUS
 10
63.8849925931
 20
274.4069015108
 11
64.2100367406
 21
273.7021719509
  0
LINE
  5
23F
100
AcDbEntity
  8
0
100
AcDbLine
 62
7
  6
CONTINUOUS
 10
60.8184786919
 20
265.7366249081
 11
61.0280802898
 21
265.0949921435
  0
LINE
  5
240
100
AcDbEntity
  8
0
100
AcDbLine
 62
7
  6
CONTINUOUS
 10
62.1202206423
 20
265.4517606498
 11
61.9106190444
 21
266.0933934145
  0
LINE
  5
241
100
AcDbEntity
  8
0
100
AcDbLine
 62
7
  6
CONTINUOUS
 10
64.8532156363
 20
274.4947933891
 11
64.7048401767
 21
275.0153142363
  0
LINE
  5
242
100
AcDbEntity
  8
0
100
AcDbLine
 62
7
  6
CONTINUOUS
 10
73.1993393287
 20
259.6215867062
 11
73.2479451198
 21
258.9886576366
  0
LINE
  5
243
100
AcDbEntity
  8
0
100
AcDbLine
 62
7
  6
CONTINUOUS
 10
63.8287340129
 20
278.3065951464
 11
63.5882416941
 21
275.4479434458
  0
LINE
  5
244
100
AcDbEntity
  8
0
100
AcDbLine
 62
7
  6
CONTINUOUS
 10
64.7048401767
 20
275.0153142363
 11
64.9736257035
 21
278.210277831
  0
LINE
  5
245
100
AcDbEntity
  8
0
100
AcDbLine
 62
7
  6
CONTINUOUS
 10
67.8358554646
 20
277.9694844975
 11
67.5670699378
 21
274.7745209028
  0
LINE
  5
246
100
AcDbEntity
  8
0
100
AcDbLine
 62
7
  6
CONTINUOUS
 10
68.5352929405
 20
274.8624123001
 11
68.8748115178
 21
278.8981559906
  0
LINE
  5
247
100
AcDbEntity
  8
0
100
AcDbLine
 62
7
  6
CONTINUOUS
 10
60.8929454977
 20
267.3586821934
 11
60.7385003062
 21
266.5981265915
  0
LINE
  5
248
100
AcDbEntity
  8
0
100
AcDbLine
 62
7
  6
CONTINUOUS
 10
61.8830411172
 20
266.794486672
 11
62.0898868628
 21
267.3946338792
  0
LINE
  5
249
100
AcDbEntity
  8
0
100
AcDbLine
 62
7
  6
CONTINUOUS
 10
63.8163432414
 20
263.3429460253
 11
64.7788605701
 21
263.4798446585
  0
LINE
  5
24A
100
AcDbEntity
  8
0
100
AcDbLine
 62
7
  6
CONTINUOUS
 10
114.0760357144
 20
269.2477844724
 11
106.8331019881
 21
268.4400091089
  0
LINE
  5
24B
100
AcDbEntity
  8
0
100
AcDbLine
 62
7
  6
CONTINUOUS
 10
106.670887287
 20
267.5547484746
 11
114.9724434461
 21
268.4735361713
  0
LINE
  5
24C
100
AcDbEntity
  8
0
100
AcDbLine
 62
7
  6
CONTINUOUS
 10
64.4644583231
 20
264.4422933466
 11
63.6839643653
 21
264.3648561241
  0
LINE
  5
24D
100
AcDbEntity
  8
0
100
AcDbLine
 62
7
  6
CONTINUOUS
 10
105.4919914615
 20
262.5658232981
 11
104.5849305128
 21
262.5375777777
  0
LINE
  5
24E
100
AcDbEntity
  8
0
100
AcDbLine
 62
7
  6
CONTINUOUS
 10
62.9834489816
 20
263.4259162639
 11
63.8163432414
 21
263.3429460253
  0
LINE
  5
24F
100
AcDbEntity
  8
0
100
AcDbLine
 62
7
  6
CONTINUOUS
 10
104.9537757559
 20
261.6483294118
 11
105.5384494309
 21
261.5539448464
  0
LINE
  5
250
100
AcDbEntity
  8
0
100
AcDbLine
 62
7
  6
CONTINUOUS
 10
100.782362882
 20
257.371246632
 11
99.9150905962
 21
257.6384510786
  0
LINE
  5
251
100
AcDbEntity
  8
0
100
AcDbLine
 62
7
  6
CONTINUOUS
 10
64.9308580455
 20
273.133492446
 11
65.4891572969
 21
272.9171779616
  0
LINE
  5
252
100
AcDbEntity
  8
0
100
AcDbLine
 62
7
  6
CONTINUOUS
 10
65.764852223
 20
273.9100609983
 11
65.2065529716
 21
274.1263754827
  0
LINE
  5
253
100
AcDbEntity
  8
0
100
AcDbLine
 62
7
  6
CONTINUOUS
 10
99.9758790534
 20
256.6776627392
 11
100.4984204387
 21
256.3989115006
  0
LINE
  5
254
100
AcDbEntity
  8
0
100
AcDbLine
 62
7
  6
CONTINUOUS
 10
64.2100367406
 20
273.7021719509
 11
64.9308580455
 21
273.133492446
  0
LINE
  5
255
100
AcDbEntity
  8
0
100
AcDbLine
 62
7
  6
CONTINUOUS
 10
65.2065529716
 20
274.1263754827
 11
64.8532156363
 21
274.4947933891
  0
LINE
  5
256
100
AcDbEntity
  8
0
100
AcDbLine
 62
7
  6
CONTINUOUS
 10
74.1716711027
 20
260.2564897908
 11
73.7560158776
 21
261.0153139137
  0
LINE
  5
257
100
AcDbEntity
  8
0
100
AcDbLine
 62
7
  6
CONTINUOUS
 10
72.8954997861
 20
260.2540215489
 11
73.1993393287
 21
259.6215867062
  0
LINE
  5
258
100
AcDbEntity
  8
0
100
AcDbLine
 62
7
  6
CONTINUOUS
 10
70.4215858309
 20
265.3231486425
 11
70.1071835839
 21
266.2855973306
  0
LINE
  5
259
100
AcDbEntity
  8
0
100
AcDbLine
 62
7
  6
CONTINUOUS
 10
68.8495745961
 20
270.1353920827
 11
68.5351721992
 21
271.0978412297
  0
LINE
  5
25A
100
AcDbEntity
  8
0
100
AcDbLine
 62
7
  6
CONTINUOUS
 10
74.3320912966
 20
259.4971728873
 11
74.1716711027
 21
260.2564897908
  0
LINE
  5
25B
100
AcDbEntity
  8
RUNDUNGEN
100
AcDbLine
 62
7
  6
CONTINUOUS
 10
75.0391445189
 20
184.0270372558
 11
75.0391445189
 21
201.4544862777
  0
LINE
  5
25C
100
AcDbEntity
  8
RUNDUNGEN
100
AcDbLine
 62
7
  6
CONTINUOUS
 10
75.1891445189
 20
339.4606468187
 11
75.1891445189
 21
391.4642130834
  0
LWPOLYLINE
  5
25D
100
AcDbEntity
  8
RUNDUNGEN
100
AcDbPolyline
 62
7
  6
CONTINUOUS
 90
7
 70
0
 10
76.2891496477
 20
213.6115844687
 10
76.2898342853
 20
213.7103723572
 10
76.2969636134
 20
213.9483082406
 10
76.3129171894
 20
214.2036052925
 10
76.3386531217
 20
214.4729565844
 10
76.3747585387
 20
214.7528981611
 10
76.4214714153
 20
215.0404821374
  0
LWPOLYLINE
  5
25E
100
AcDbEntity
  8
RUNDUNGEN
100
AcDbPolyline
 62
7
  6
CONTINUOUS
 90
3
 70
0
 10
76.2867869288
 20
204.4698087686
 10
76.2889860068
 20
204.5803388864
 10
76.2891445189
 20
215.0889112001
  0
LINE
  5
25F
100
AcDbEntity
  8
0
100
AcDbLine
 62
7
  6
CONTINUOUS
 10
74.2056727935
 20
258.4840918622
 11
74.3320912966
 21
259.4971728873
  0
LINE
  5
260
100
AcDbEntity
  8
0
100
AcDbLine
 62
7
  6
CONTINUOUS
 10
68.2737446083
 20
274.0376850901
 11
68.5352929405
 21
274.8624123001
  0
LINE
  5
261
100
AcDbEntity
  8
0
100
AcDbLine
 62
7
  6
CONTINUOUS
 10
67.5670699378
 20
274.7745209028
 11
67.3338148339
 21
274.2861058274
  0
LINE
  5
262
100
AcDbEntity
  8
0
100
AcDbLine
 62
7
  6
CONTINUOUS
 10
61.4114377467
 20
268.2381597041
 11
60.8929454977
 21
267.3586821934
  0
LINE
  5
263
100
AcDbEntity
  8
0
100
AcDbLine
 62
7
  6
CONTINUOUS
 10
62.0898868628
 20
267.3946338792
 11
62.5311560265
 21
267.8938349528
  0
LINE
  5
264
100
AcDbEntity
  8
0
100
AcDbLine
 62
7
  6
CONTINUOUS
 10
107.5479718568
 20
276.8210064495
 11
115.2527349766
 21
278.9742888899
  0
LINE
  5
265
100
AcDbEntity
  8
0
100
AcDbLine
 62
7
  6
CONTINUOUS
 10
115.010490702
 20
279.8410747409
 11
111.5679369188
 21
278.878969807
  0
LINE
  5
266
100
AcDbEntity
  8
0
100
AcDbLine
 62
7
  6
CONTINUOUS
 10
110.5843502548
 20
278.6040827198
 11
108.1253831356
 21
277.9168648732
  0
LINE
  5
267
100
AcDbEntity
  8
0
100
AcDbLine
 62
7
  6
CONTINUOUS
 10
108.0996192717
 20
281.8033574685
 11
108.5914130629
 21
281.9408011405
  0
LINE
  5
268
100
AcDbEntity
  8
0
100
AcDbLine
 62
7
  6
CONTINUOUS
 10
107.5359249673
 20
274.6859510253
 11
115.52541241
 21
275.0959393215
  0
LINE
  5
269
100
AcDbEntity
  8
0
100
AcDbLine
 62
7
  6
CONTINUOUS
 10
115.4792887267
 20
275.9947566588
 11
107.489801284
 21
275.5847683626
  0
LINE
  5
26A
100
AcDbEntity
  8
0
100
AcDbLine
 62
7
  6
CONTINUOUS
 10
65.4891572969
 20
272.9171779616
 11
66.2524189585
 21
272.852966373
  0
LINE
  5
26B
100
AcDbEntity
  8
0
100
AcDbLine
 62
7
  6
CONTINUOUS
 10
66.3372986028
 20
273.8619022956
 11
65.764852223
 21
273.9100609983
  0
LINE
  5
26C
100
AcDbEntity
  8
0
100
AcDbLine
 62
7
  6
CONTINUOUS
 10
59.8216125612
 20
278.6437057953
 11
63.8287340129
 21
278.3065951464
  0
LINE
  5
26D
100
AcDbEntity
  8
0
100
AcDbLine
 62
7
  6
CONTINUOUS
 10
64.9736257035
 20
278.210277831
 11
67.8358554646
 21
277.9694844975
  0
LINE
  5
26E
100
AcDbEntity
  8
0
100
AcDbLine
 62
7
  6
CONTINUOUS
 10
109.0153467062
 20
262.7735870944
 11
109.7866334384
 21
262.4138279357
  0
LINE
  5
26F
100
AcDbEntity
  8
0
100
AcDbLine
 62
7
  6
CONTINUOUS
 10
110.6743392616
 20
264.3169781596
 11
109.9030525294
 21
264.6767373183
  0
LINE
  5
270
100
AcDbEntity
  8
0
100
AcDbLine
 62
7
  6
CONTINUOUS
 10
106.1121854799
 20
262.2473617095
 11
105.4919914615
 21
262.5658232981
  0
LINE
  5
271
100
AcDbEntity
  8
0
100
AcDbLine
 62
7
  6
CONTINUOUS
 10
106.735192088
 20
254.7231124056
 11
107.3909054474
 21
254.1805723953
  0
LINE
  5
272
100
AcDbEntity
  8
0
100
AcDbLine
 62
7
  6
CONTINUOUS
 10
101.2658959488
 20
256.868998026
 11
100.782362882
 21
257.371246632
  0
LINE
  5
273
100
AcDbEntity
  8
0
100
AcDbLine
 62
7
  6
CONTINUOUS
 10
99.4171058401
 20
249.5488586862
 11
99.8616321146
 21
248.8231135079
  0
LINE
  5
274
100
AcDbEntity
  8
0
100
AcDbLine
 62
7
  6
CONTINUOUS
 10
93.0196987548
 20
247.6941999411
 11
89.5458033138
 21
254.100808221
  0
LINE
  5
275
100
AcDbEntity
  8
0
100
AcDbLine
 62
7
  6
CONTINUOUS
 10
88.6645692512
 20
253.9179789924
 11
92.6396757308
 21
246.5723319924
  0
LINE
  5
276
100
AcDbEntity
  8
0
100
AcDbLine
 62
7
  6
CONTINUOUS
 10
83.3626352279
 20
247.4569035001
 11
82.3683104041
 21
254.6765917367
  0
LINE
  5
277
100
AcDbEntity
  8
0
100
AcDbLine
 62
7
  6
CONTINUOUS
 10
81.4791602192
 20
254.8159185056
 11
82.6117672816
 21
246.5408232442
  0
LWPOLYLINE
  5
278
100
AcDbEntity
  8
RUNDUNGEN
100
AcDbPolyline
 62
7
  6
CONTINUOUS
 90
3
 70
0
 10
76.2806821603
 20
204.3365561457
 10
76.281990641
 20
204.3592811732
 10
76.2867869288
 20
204.4698087686
  0
LINE
  5
279
100
AcDbEntity
  8
RUNDUNGEN
100
AcDbLine
 62
7
  6
CONTINUOUS
 10
76.2477914333
 20
203.9967419619
 11
76.2806480494
 21
204.3361641669
  0
LINE
  5
27A
100
AcDbEntity
  8
0
100
AcDbLine
 62
7
  6
CONTINUOUS
 10
73.2479451198
 20
258.9886576366
 11
73.0413167576
 21
258.3552339845
  0
LINE
  5
27B
100
AcDbEntity
  8
0
100
AcDbLine
 62
7
  6
CONTINUOUS
 10
73.8556254845
 20
257.7237865048
 11
74.2056727935
 21
258.4840918622
  0
LINE
  5
27C
100
AcDbEntity
  8
0
100
AcDbLine
 62
7
  6
CONTINUOUS
 10
67.644712347
 20
273.4132199597
 11
68.2737446083
 21
274.0376850901
  0
LINE
  5
27D
100
AcDbEntity
  8
0
100
AcDbLine
 62
7
  6
CONTINUOUS
 10
62.0347305586
 20
268.7968217712
 11
61.4114377467
 21
268.2381597041
  0
LINE
  5
27E
100
AcDbEntity
  8
0
100
AcDbLine
 62
7
  6
CONTINUOUS
 10
67.3338148339
 20
274.2861058274
 11
66.923891042
 21
273.9818994646
  0
LINE
  5
27F
100
AcDbEntity
  8
0
100
AcDbLine
 62
7
  6
CONTINUOUS
 10
66.8390113977
 20
272.972963542
 11
67.644712347
 21
273.4132199597
  0
LINE
  5
280
100
AcDbEntity
  8
0
100
AcDbLine
 62
7
  6
CONTINUOUS
 10
108.513099899
 20
282.853401506
 11
107.8573749971
 21
282.6701433195
  0
LINE
  5
281
100
AcDbEntity
  8
0
100
AcDbLine
 62
7
  6
CONTINUOUS
 10
59.3689211113
 20
273.2627140475
 11
63.8849925931
 21
274.4069015108
  0
LINE
  5
282
100
AcDbEntity
  8
0
100
AcDbLine
 62
7
  6
CONTINUOUS
 10
63.5882416941
 20
275.4479434458
 11
59.46794739
 21
274.439806278
  0
LINE
  5
283
100
AcDbEntity
  8
0
100
AcDbLine
 62
7
  6
CONTINUOUS
 10
66.2524189585
 20
272.852966373
 11
66.8390113977
 21
272.972963542
  0
LINE
  5
284
100
AcDbEntity
  8
0
100
AcDbLine
 62
7
  6
CONTINUOUS
 10
66.923891042
 20
273.9818994646
 11
66.3372986028
 21
273.8619022956
  0
LINE
  5
285
100
AcDbEntity
  8
0
100
AcDbLine
 62
7
  6
CONTINUOUS
 10
108.5914130629
 20
281.9408011405
 11
109.1235798246
 21
281.93378258
  0
LINE
  5
286
100
AcDbEntity
  8
0
100
AcDbLine
 62
7
  6
CONTINUOUS
 10
109.0452666607
 20
282.8463829455
 11
108.513099899
 21
282.853401506
  0
LINE
  5
287
100
AcDbEntity
  8
0
100
AcDbLine
 62
7
  6
CONTINUOUS
 10
68.8748115178
 20
278.8981559906
 11
59.9064922055
 21
279.6526417179
  0
LINE
  5
288
100
AcDbEntity
  8
0
100
AcDbLine
 62
7
  6
CONTINUOUS
 10
115.1887295079
 20
269.6538825582
 11
107.7523188337
 21
273.4564871627
  0
LINE
  5
289
100
AcDbEntity
  8
0
100
AcDbLine
 62
7
  6
CONTINUOUS
 10
107.5901041327
 20
272.5712265283
 11
114.0760357144
 21
269.2477844724
  0
LINE
  5
28A
100
AcDbEntity
  8
0
100
AcDbLine
 62
7
  6
CONTINUOUS
 10
105.5384494309
 20
261.5539448464
 11
105.8007351053
 21
261.3369285687
  0
LINE
  5
28B
100
AcDbEntity
  8
0
100
AcDbLine
 62
7
  6
CONTINUOUS
 10
110.8333217413
 20
258.3410735741
 11
110.1776083819
 21
258.8836135845
  0
LINE
  5
28C
100
AcDbEntity
  8
0
100
AcDbLine
 62
7
  6
CONTINUOUS
 10
106.3744711543
 20
262.0303454318
 11
106.1121854799
 21
262.2473617095
  0
LINE
  5
28D
100
AcDbEntity
  8
0
100
AcDbLine
 62
7
  6
CONTINUOUS
 10
102.336443192
 20
258.7520305508
 11
102.765391496
 21
258.202429567
  0
LINE
  5
28E
100
AcDbEntity
  8
0
100
AcDbLine
 62
7
  6
CONTINUOUS
 10
106.803418364
 20
261.4807431254
 11
106.3744711543
 21
262.0303454318
  0
LINE
  5
28F
100
AcDbEntity
  8
0
100
AcDbLine
 62
7
  6
CONTINUOUS
 10
100.4984204387
 20
256.3989115006
 11
100.6762311727
 21
256.1086130633
  0
LINE
  5
290
100
AcDbEntity
  8
0
100
AcDbLine
 62
7
  6
CONTINUOUS
 10
104.466485175
 20
251.6436326607
 11
104.0219589005
 21
252.369377839
  0
LINE
  5
291
100
AcDbEntity
  8
0
100
AcDbLine
 62
7
  6
CONTINUOUS
 10
101.4437066828
 20
256.5786995887
 11
101.2658959488
 21
256.868998026
  0
LINE
  5
292
100
AcDbEntity
  8
0
100
AcDbLine
 62
7
  6
CONTINUOUS
 10
96.5612475765
 20
254.7857707419
 11
96.7889549854
 21
254.1268263286
  0
LINE
  5
293
100
AcDbEntity
  8
RUNDUNGEN
100
AcDbLine
 62
7
  6
CONTINUOUS
 10
98.5972382367
 20
215.34348783
 11
98.6547675341
 21
215.0518805083
  0
LWPOLYLINE
  5
294
100
AcDbEntity
  8
RUNDUNGEN
100
AcDbPolyline
 62
7
  6
CONTINUOUS
 90
7
 70
0
 10
98.6547675341
 20
215.0518805083
 10
98.7018531626
 20
214.7643663527
 10
98.7383479277
 20
214.4843688286
 10
98.7644803877
 20
214.2148220014
 10
98.7808170787
 20
213.9592020388
 10
98.7883029652
 20
213.7208396947
 10
98.7891393449
 20
213.6122224814
  0
LWPOLYLINE
  5
295
100
AcDbEntity
  8
RUNDUNGEN
100
AcDbPolyline
 62
7
  6
CONTINUOUS
 90
15
 70
0
 10
98.7976392827
 20
204.3361557674
 10
98.8299851713
 20
204.000585026
 10
98.89430323
 20
203.6310704429
 10
98.9875232566
 20
203.2709180959
 10
99.1097093346
 20
202.9191372202
 10
99.2607302074
 20
202.5766184035
 10
99.4410657875
 20
202.2441683439
 10
99.6510006024
 20
201.9231084066
 10
99.8903666179
 20
201.6158623659
 10
100.1587056562
 20
201.3247919654
 10
100.4555753633
 20
201.0521930397
 10
100.7802584477
 20
200.8004560272
 10
101.1322242614
 20
200.5717673456
 10
101.5109865421
 20
200.3684577095
 10
101.838571848
 20
200.2235539209
  0
LINE
  5
296
100
AcDbEntity
  8
RUNDUNGEN
100
AcDbLine
 62
7
  6
CONTINUOUS
 10
98.7976392827
 20
204.3361557674
 11
98.7976142548
 21
204.3365712755
  0
LWPOLYLINE
  5
297
100
AcDbEntity
  8
RUNDUNGEN
100
AcDbPolyline
 62
7
  6
CONTINUOUS
 90
3
 70
0
 10
98.7910134898
 20
204.4862082992
 10
98.7954234379
 20
204.3756699062
 10
98.7976058681
 20
204.3365707742
  0
LINE
  5
298
100
AcDbEntity
  8
0
100
AcDbLine
 62
7
  6
CONTINUOUS
 10
97.4285183984
 20
254.5185653987
 11
97.4176283291
 21
255.110708252
  0
LINE
  5
299
100
AcDbEntity
  8
0
100
AcDbLine
 62
7
  6
CONTINUOUS
 10
93.8146542009
 20
246.8161042391
 11
94.5394632822
 21
255.1368405749
  0
LINE
  5
29A
100
AcDbEntity
  8
0
100
AcDbLine
 62
7
  6
CONTINUOUS
 10
93.6582292196
 20
254.9540113462
 11
93.0196987548
 21
247.6941999411
  0
LWPOLYLINE
  5
29B
100
AcDbEntity
  8
RUNDUNGEN
100
AcDbPolyline
 62
7
  6
CONTINUOUS
 90
32
 70
0
 10
76.4214714153
 20
215.0404821374
 10
76.4786514204
 20
215.3322406953
 10
76.5462023351
 20
215.6266143609
 10
76.6238707091
 20
215.9217863875
 10
76.7115483738
 20
216.2169682653
 10
76.8090842967
 20
216.5113376495
 10
76.9164761579
 20
216.8044912772
 10
77.0337565959
 20
217.0961289085
 10
77.160998911
 20
217.3859461333
 10
77.2983243429
 20
217.6736713032
 10
77.4459626972
 20
217.9591809797
 10
77.6041717379
 20
218.2422763921
 10
77.7732892122
 20
218.522797055
 10
77.9536614386
 20
218.8004745509
 10
78.1457673442
 20
219.0751288499
 10
78.3500548078
 20
219.3463959297
 10
78.5672307021
 20
219.6141121795
 10
78.7979975619
 20
219.8779154247
 10
79.0431584365
 20
220.137370518
 10
79.303550335
 20
220.3918820615
 10
79.5801043192
 20
220.6407308266
 10
79.8737598877
 20
220.8829894787
 10
80.1855929819
 20
221.1175941393
 10
80.5166592791
 20
221.3432098024
 10
80.8681101772
 20
221.5582738454
 10
81.2410533326
 20
221.7608949461
 10
81.6365926433
 20
221.9488453279
 10
82.0557860964
 20
222.1195101009
 10
82.4993010593
 20
222.2697929862
 10
82.9676762458
 20
222.3961489088
 10
83.4608730271
 20
222.494622547
 10
83.9787630727
 20
222.5608235889
  0
LINE
  5
29C
100
AcDbEntity
  8
0
100
AcDbLine
 62
7
  6
CONTINUOUS
 10
73.0413167576
 20
258.3552339845
 11
72.5794537662
 21
257.7213179074
  0
LINE
  5
29D
100
AcDbEntity
  8
0
100
AcDbLine
 62
7
  6
CONTINUOUS
 10
73.2503427427
 20
256.9629880114
 11
73.8556254845
 21
257.7237865048
  0
LINE
  5
29E
100
AcDbEntity
  8
0
100
AcDbLine
 62
7
  6
CONTINUOUS
 10
71.0724599716
 20
264.0486334978
 11
64.3317497847
 21
258.0851759288
  0
LINE
  5
29F
100
AcDbEntity
  8
0
100
AcDbLine
 62
7
  6
CONTINUOUS
 10
65.8631549532
 20
258.0881384865
 11
70.8828328566
 21
262.5290112369
  0
LINE
  5
2A0
100
AcDbEntity
  8
0
100
AcDbLine
 62
7
  6
CONTINUOUS
 10
62.5311560265
 20
267.8938349528
 11
63.2068493352
 21
268.2920880987
  0
LINE
  5
2A1
100
AcDbEntity
  8
0
100
AcDbLine
 62
7
  6
CONTINUOUS
 10
62.8924469383
 20
269.2545372457
 11
62.0347305586
 21
268.7968217712
  0
LINE
  5
2A2
100
AcDbEntity
  8
0
100
AcDbLine
 62
7
  6
CONTINUOUS
 10
68.5351721992
 20
271.0978412297
 11
62.8924469383
 21
269.2545372457
  0
LINE
  5
2A3
100
AcDbEntity
  8
0
100
AcDbLine
 62
7
  6
CONTINUOUS
 10
63.2068493352
 20
268.2920880987
 11
68.8495745961
 21
270.1353920827
  0
LINE
  5
2A4
100
AcDbEntity
  8
0
100
AcDbLine
 62
7
  6
CONTINUOUS
 10
109.8221132407
 20
282.5962480782
 11
109.0452666607
 21
282.8463829455
  0
LINE
  5
2A5
100
AcDbEntity
  8
0
100
AcDbLine
 62
7
  6
CONTINUOUS
 10
109.1235798246
 20
281.93378258
 11
109.5321907535
 21
281.7364807878
  0
LINE
  5
2A6
100
AcDbEntity
  8
0
100
AcDbLine
 62
7
  6
CONTINUOUS
 10
105.8007351053
 20
261.3369285687
 11
106.134060005
 21
260.6717572259
  0
LINE
  5
2A7
100
AcDbEntity
  8
0
100
AcDbLine
 62
7
  6
CONTINUOUS
 10
103.243505235
 20
258.7802773938
 11
103.0413218945
 21
259.3369394271
  0
LINE
  5
2A8
100
AcDbEntity
  8
0
100
AcDbLine
 62
7
  6
CONTINUOUS
 10
101.6714155555
 20
255.919756072
 11
101.4437066828
 21
256.5786995887
  0
LINE
  5
2A9
100
AcDbEntity
  8
0
100
AcDbLine
 62
7
  6
CONTINUOUS
 10
100.6762311727
 20
256.1086130633
 11
100.7760264845
 21
255.3713211946
  0
LINE
  5
2AA
100
AcDbEntity
  8
0
100
AcDbLine
 62
7
  6
CONTINUOUS
 10
106.134060005
 20
260.6717572259
 11
106.735192088
 21
254.7231124056
  0
LINE
  5
2AB
100
AcDbEntity
  8
0
100
AcDbLine
 62
7
  6
CONTINUOUS
 10
107.5001727571
 20
255.6476673414
 11
107.0056017045
 21
260.9240810921
  0
LINE
  5
2AC
100
AcDbEntity
  8
0
100
AcDbLine
 62
7
  6
CONTINUOUS
 10
101.6823056249
 20
255.3276132187
 11
101.6714155555
 21
255.919756072
  0
LINE
  5
2AD
100
AcDbEntity
  8
RUNDUNGEN
100
AcDbLine
 62
7
  6
CONTINUOUS
 10
98.7892001391
 20
204.5967533612
 11
98.7910134898
 21
204.4862082992
  0
LINE
  5
2AE
100
AcDbEntity
  8
RUNDUNGEN
100
AcDbLine
 62
7
  6
CONTINUOUS
 10
98.7891445189
 20
215.0889120775
 11
98.7892001391
 21
204.5967533612
  0
LINE
  5
2AF
100
AcDbEntity
  8
RUNDUNGEN
100
AcDbLine
 62
7
  6
CONTINUOUS
 10
99.8891445189
 20
391.4641085058
 11
99.8891445189
 21
339.4606053342
  0
LINE
  5
2B0
100
AcDbEntity
  8
RUNDUNGEN
100
AcDbLine
 62
7
  6
CONTINUOUS
 10
100.0391445189
 20
201.454481288
 11
100.0391445189
 21
184.0270372558
  0
LINE
  5
2B1
100
AcDbEntity
  8
0
100
AcDbLine
 62
7
  6
CONTINUOUS
 10
103.0413218945
 20
259.3369394271
 11
103.065904612
 21
259.9006638324
  0
LINE
  5
2B2
100
AcDbEntity
  8
0
100
AcDbLine
 62
7
  6
CONTINUOUS
 10
96.7172764589
 20
255.6797575213
 11
96.5612475765
 21
254.7857707419
  0
LINE
  5
2B3
100
AcDbEntity
  8
0
100
AcDbLine
 62
7
  6
CONTINUOUS
 10
83.7973007909
 20
246.35505423
 11
87.4068279777
 21
253.8870734016
  0
LINE
  5
2B4
100
AcDbEntity
  8
0
100
AcDbLine
 62
7
  6
CONTINUOUS
 10
86.5176777928
 20
254.0264001705
 11
83.3626352279
 21
247.4569035001
  0
LINE
  5
2B5
100
AcDbEntity
  8
0
100
AcDbLine
 62
7
  6
CONTINUOUS
 10
107.4059550948
 20
282.3882376717
 11
106.8713527894
 21
281.771586688
  0
LINE
  5
2B6
100
AcDbEntity
  8
0
100
AcDbLine
 62
7
  6
CONTINUOUS
 10
72.5794537662
 20
257.7213179074
 11
70.4281633366
 21
255.8180868175
  0
LINE
  5
2B7
100
AcDbEntity
  8
0
100
AcDbLine
 62
7
  6
CONTINUOUS
 10
71.0990523131
 20
255.0597569215
 11
73.2503427427
 21
256.9629880114
  0
LINE
  5
2B8
100
AcDbEntity
  8
0
100
AcDbLine
 62
7
  6
CONTINUOUS
 10
107.8573749971
 20
282.6701433195
 11
107.4059550948
 21
282.3882376717
  0
LINE
  5
2B9
100
AcDbEntity
  8
0
100
AcDbLine
 62
7
  6
CONTINUOUS
 10
107.6481993694
 20
281.5214518207
 11
108.0996192717
 21
281.8033574685
  0
LINE
  5
2BA
100
AcDbEntity
  8
0
100
AcDbLine
 62
7
  6
CONTINUOUS
 10
70.2701411673
 20
254.5517344513
 11
71.0990523131
 21
255.0597569215
  0
LINE
  5
2BB
100
AcDbEntity
  8
0
100
AcDbLine
 62
7
  6
CONTINUOUS
 10
70.4281633366
 20
255.8180868175
 11
69.7426715394
 21
255.4369464082
  0
LINE
  5
2BC
100
AcDbEntity
  8
0
100
AcDbLine
 62
7
  6
CONTINUOUS
 10
70.1071835839
 20
266.2855973306
 11
64.4644583231
 21
264.4422933466
  0
LINE
  5
2BD
100
AcDbEntity
  8
0
100
AcDbLine
 62
7
  6
CONTINUOUS
 10
64.7788605701
 20
263.4798446585
 11
70.4215858309
 21
265.3231486425
  0
LINE
  5
2BE
100
AcDbEntity
  8
0
100
AcDbLine
 62
7
  6
CONTINUOUS
 10
110.4754030637
 20
282.1558332857
 11
109.8221132407
 21
282.5962480782
  0
LINE
  5
2BF
100
AcDbEntity
  8
0
100
AcDbLine
 62
7
  6
CONTINUOUS
 10
109.5321907535
 20
281.7364807878
 11
109.8172440015
 21
281.3489023768
  0
LINE
  5
2C0
100
AcDbEntity
  8
0
100
AcDbLine
 62
7
  6
CONTINUOUS
 10
107.0056017045
 20
260.9240810921
 11
106.803418364
 21
261.4807431254
  0
LINE
  5
2C1
100
AcDbEntity
  8
0
100
AcDbLine
 62
7
  6
CONTINUOUS
 10
106.5789947586
 20
280.2881498534
 11
107.5479718568
 21
276.8210064495
  0
LINE
  5
2C2
100
AcDbEntity
  8
0
100
AcDbLine
 62
7
  6
CONTINUOUS
 10
108.1253831356
 20
277.9168648732
 11
107.3582768822
 21
280.6616845302
  0
LINE
  5
2C3
100
AcDbEntity
  8
0
100
AcDbLine
 62
7
  6
CONTINUOUS
 10
102.1943640068
 20
259.6483412888
 11
102.336443192
 21
258.7520305508
  0
LINE
  5
2C4
100
AcDbEntity
  8
0
100
AcDbLine
 62
7
  6
CONTINUOUS
 10
107.489801284
 20
275.5847683626
 11
107.5359249673
 21
274.6859510253
  0
LINE
  5
2C5
100
AcDbEntity
  8
0
100
AcDbLine
 62
7
  6
CONTINUOUS
 10
106.5410559485
 20
281.0562848082
 11
106.5789947586
 21
280.2881498534
  0
LINE
  5
2C6
100
AcDbEntity
  8
0
100
AcDbLine
 62
7
  6
CONTINUOUS
 10
107.3582768822
 20
280.6616845302
 11
107.4010858556
 21
281.1408919703
  0
LINE
  5
2C7
100
AcDbEntity
  8
0
100
AcDbLine
 62
7
  6
CONTINUOUS
 10
102.3145690343
 20
260.3276347305
 11
102.1943640068
 21
259.6483412888
  0
LINE
  5
2C8
100
AcDbEntity
  8
0
100
AcDbLine
 62
7
  6
CONTINUOUS
 10
107.7523188337
 20
273.4564871627
 11
107.5901041327
 21
272.5712265283
  0
LINE
  5
2C9
100
AcDbEntity
  8
0
100
AcDbLine
 62
7
  6
CONTINUOUS
 10
106.8331019881
 20
268.4400091089
 11
106.670887287
 21
267.5547484746
  0
LINE
  5
2CA
100
AcDbEntity
  8
0
100
AcDbLine
 62
7
  6
CONTINUOUS
 10
100.7760264845
 20
255.3713211946
 11
99.4171058401
 21
249.5488586862
  0
LINE
  5
2CB
100
AcDbEntity
  8
0
100
AcDbLine
 62
7
  6
CONTINUOUS
 10
100.4404070081
 20
250.175641019
 11
101.6823056249
 21
255.3276132187
  0
LINE
  5
2CC
100
AcDbEntity
  8
0
100
AcDbLine
 62
7
  6
CONTINUOUS
 10
97.4176283291
 20
255.110708252
 11
97.6235555992
 21
255.6360495454
  0
LINE
  5
2CD
100
AcDbEntity
  8
0
100
AcDbLine
 62
7
  6
CONTINUOUS
 10
106.8713527894
 20
281.771586688
 11
106.5410559485
 21
281.0562848082
  0
LINE
  5
2CE
100
AcDbEntity
  8
0
100
AcDbLine
 62
7
  6
CONTINUOUS
 10
103.065904612
 20
259.9006638324
 11
103.4128756974
 21
260.5870196461
  0
LINE
  5
2CF
100
AcDbEntity
  8
0
100
AcDbLine
 62
7
  6
CONTINUOUS
 10
97.0511158261
 20
256.2834462701
 11
96.7172764589
 21
255.6797575213
  0
LINE
  5
2D0
100
AcDbEntity
  8
0
100
AcDbLine
 62
7
  6
CONTINUOUS
 10
102.8527847399
 20
261.2451286168
 11
102.3145690343
 21
260.3276347305
  0
LINE
  5
2D1
100
AcDbEntity
  8
0
100
AcDbLine
 62
7
  6
CONTINUOUS
 10
107.4010858556
 20
281.1408919703
 11
107.6481993694
 21
281.5214518207
  0
LINE
  5
2D2
100
AcDbEntity
  8
0
100
AcDbLine
 62
7
  6
CONTINUOUS
 10
69.4728335872
 20
254.2969832334
 11
70.2701411673
 21
254.5517344513
  0
LINE
  5
2D3
100
AcDbEntity
  8
0
100
AcDbLine
 62
7
  6
CONTINUOUS
 10
110.8412040951
 20
281.47932736
 11
110.4754030637
 21
282.1558332857
  0
LINE
  5
2D4
100
AcDbEntity
  8
0
100
AcDbLine
 62
7
  6
CONTINUOUS
 10
109.8172440015
 20
281.3489023768
 11
110.5843502548
 21
278.6040827198
  0
LINE
  5
2D5
100
AcDbEntity
  8
0
100
AcDbLine
 62
7
  6
CONTINUOUS
 10
111.5679369188
 20
278.878969807
 11
110.8412040951
 21
281.47932736
  0
LINE
  5
2D6
100
AcDbEntity
  8
0
100
AcDbLine
 62
7
  6
CONTINUOUS
 10
115.2527349766
 20
278.9742888899
 11
115.010490702
 21
279.8410747409
  0
LINE
  5
2D7
100
AcDbEntity
  8
0
100
AcDbLine
 62
7
  6
CONTINUOUS
 10
115.52541241
 20
275.0959393215
 11
115.4792887267
 21
275.9947566588
  0
LINE
  5
2D8
100
AcDbEntity
  8
0
100
AcDbLine
 62
7
  6
CONTINUOUS
 10
114.9724434461
 20
268.4735361713
 11
115.1887295079
 21
269.6538825582
  0
LINE
  5
2D9
100
AcDbEntity
  8
0
100
AcDbLine
 62
7
  6
CONTINUOUS
 10
109.9030525294
 20
264.6767373183
 11
109.0153467062
 21
262.7735870944
  0
LINE
  5
2DA
100
AcDbEntity
  8
0
100
AcDbLine
 62
7
  6
CONTINUOUS
 10
109.7866334384
 20
262.4138279357
 11
110.6743392616
 21
264.3169781596
  0
LINE
  5
2DB
100
AcDbEntity
  8
0
100
AcDbLine
 62
7
  6
CONTINUOUS
 10
103.2352761687
 20
261.7074074073
 11
102.8527847399
 21
261.2451286168
  0
LINE
  5
2DC
100
AcDbEntity
  8
0
100
AcDbLine
 62
7
  6
CONTINUOUS
 10
103.4128756974
 20
260.5870196461
 11
103.7953660319
 21
261.049297114
  0
LINE
  5
2DD
100
AcDbEntity
  8
0
100
AcDbLine
 62
7
  6
CONTINUOUS
 10
102.765391496
 20
258.202429567
 11
103.243505235
 21
258.7802773938
  0
LINE
  5
2DE
100
AcDbEntity
  8
0
100
AcDbLine
 62
7
  6
CONTINUOUS
 10
110.1776083819
 20
258.8836135845
 11
107.5001727571
 21
255.6476673414
  0
LINE
  5
2DF
100
AcDbEntity
  8
0
100
AcDbLine
 62
7
  6
CONTINUOUS
 10
107.3909054474
 20
254.1805723953
 11
110.8333217413
 21
258.3410735741
  0
LINE
  5
2E0
100
AcDbEntity
  8
0
100
AcDbLine
 62
7
  6
CONTINUOUS
 10
97.6235555992
 20
255.6360495454
 11
98.1742123059
 21
256.1729367343
  0
LINE
  5
2E1
100
AcDbEntity
  8
0
100
AcDbLine
 62
7
  6
CONTINUOUS
 10
97.8575996546
 20
256.9770301629
 11
97.0511158261
 21
256.2834462701
  0
LINE
  5
2E2
100
AcDbEntity
  8
0
100
AcDbLine
 62
7
  6
CONTINUOUS
 10
103.9401548712
 20
262.2923162836
 11
103.2352761687
 21
261.7074074073
  0
LINE
  5
2E3
100
AcDbEntity
  8
0
100
AcDbLine
 62
7
  6
CONTINUOUS
 10
103.7953660319
 20
261.049297114
 11
104.4046224244
 21
261.5186369539
  0
LINE
  5
2E4
100
AcDbEntity
  8
0
100
AcDbLine
 62
7
  6
CONTINUOUS
 10
98.3692495067
 20
257.290420881
 11
97.8575996546
 21
256.9770301629
  0
LINE
  5
2E5
100
AcDbEntity
  8
0
100
AcDbLine
 62
7
  6
CONTINUOUS
 10
98.1742123059
 20
256.1729367343
 11
98.6858636219
 21
256.486328349
  0
LINE
  5
2E6
100
AcDbEntity
  8
0
100
AcDbLine
 62
7
  6
CONTINUOUS
 10
96.7889549854
 20
254.1268263286
 11
97.4285183984
 21
254.5185653987
  0
LINE
  5
2E7
100
AcDbEntity
  8
0
100
AcDbLine
 62
7
  6
CONTINUOUS
 10
104.5849305128
 20
262.5375777777
 11
103.9401548712
 21
262.2923162836
  0
LINE
  5
2E8
100
AcDbEntity
  8
0
100
AcDbLine
 62
7
  6
CONTINUOUS
 10
99.2256302592
 20
257.6153583912
 11
98.3692495067
 21
257.290420881
  0
LINE
  5
2E9
100
AcDbEntity
  8
0
100
AcDbLine
 62
7
  6
CONTINUOUS
 10
98.6858636219
 20
256.486328349
 11
99.4143308135
 21
256.7329175071
  0
LINE
  5
2EA
100
AcDbEntity
  8
0
100
AcDbLine
 62
7
  6
CONTINUOUS
 10
104.0219589005
 20
252.369377839
 11
100.4404070081
 21
250.175641019
  0
LINE
  5
2EB
100
AcDbEntity
  8
0
100
AcDbLine
 62
7
  6
CONTINUOUS
 10
99.8616321146
 20
248.8231135079
 11
104.466485175
 21
251.6436326607
  0
LINE
  5
2EC
100
AcDbEntity
  8
0
100
AcDbLine
 62
7
  6
CONTINUOUS
 10
138.5391445189
 20
309.9821271069
 11
138.5391445189
 21
383.290537782
  0
LWPOLYLINE
  5
2ED
100
AcDbEntity
  8
RUNDUNGEN
100
AcDbPolyline
 62
7
  6
CONTINUOUS
 90
4
 70
0
 10
70.965311323
 20
199.2089713394
 10
71.2121305055
 20
199.329256882
 10
72.1218430269
 20
199.7505390934
 10
73.0638689338
 20
200.1522387298
  0
LWPOLYLINE
  5
2EE
100
AcDbEntity
  8
RUNDUNGEN
100
AcDbPolyline
 62
7
  6
CONTINUOUS
 90
14
 70
0
 10
73.2397157912
 20
200.223553445
 10
73.5668839743
 20
200.3682551517
 10
73.945351427
 20
200.5713449806
 10
74.2971529727
 20
200.7998323625
 10
74.6217568193
 20
201.0513853632
 10
74.9186101401
 20
201.3238200766
 10
75.1869476759
 20
201.6147134032
 10
75.4262964226
 20
201.921719365
 10
75.6361949666
 20
202.2424462034
 10
75.8164556371
 20
202.5743695592
 10
75.9674586213
 20
202.9162876153
 10
76.0897219445
 20
203.2674786449
 10
76.1831550253
 20
203.6272182248
 10
76.2477914333
 20
203.9967419619
  0
LINE
  5
2EF
100
AcDbEntity
  8
RUNDUNGEN
100
AcDbLine
 62
7
  6
CONTINUOUS
 10
73.0638689338
 20
200.1522387298
 11
73.2398577244
 21
200.2235815624
  0
LINE
  5
2F0
100
AcDbEntity
  8
BEZUGSACHSEN
100
AcDbLine
 62
7
  6
CONTINUOUS
 10
75.1891445189
 20
354.6103889533
 11
99.8891445189
 21
354.6103889533
  0
LINE
  5
2F1
100
AcDbEntity
  8
BEZUGSACHSEN
100
AcDbLine
 62
7
  6
CONTINUOUS
 10
75.1891445189
 20
381.6103889533
 11
99.8891445189
 21
381.6103889533
  0
LINE
  5
2F2
100
AcDbEntity
  8
0
100
AcDbLine
 62
7
  6
CONTINUOUS
 10
137.3693667345
 20
386.5044758304
 11
129.1295332384
 21
396.3243270018
  0
LINE
  5
2F3
100
AcDbEntity
  8
0
100
AcDbLine
 62
7
  6
CONTINUOUS
 10
125.2993110228
 20
398.1103889533
 11
116.2619577516
 21
398.1103889533
  0
LINE
  5
2F4
100
AcDbEntity
  8
KONSTRUKTIONSELEMENTE
100
AcDbLine
 62
7
  6
CONTINUOUS
 10
58.8163312862
 20
398.1103889533
 11
49.778978015
 21
398.1103889533
  0
LINE
  5
2F5
100
AcDbEntity
  8
RUNDUNGEN
100
AcDbLine
 62
7
  6
CONTINUOUS
 10
253.2881074001
 20
377.3363192363
 11
257.3303173185
 21
383.7111305771
  0
LINE
  5
2F6
100
AcDbEntity
  8
RUNDUNGEN
100
AcDbLine
 62
7
  6
CONTINUOUS
 10
214.8253944507
 20
249.6292079402
 11
235.5008515138
 21
192.8238565224
  0
LINE
  5
2F7
100
AcDbEntity
  8
RUNDUNGEN
100
AcDbLine
 62
7
  6
CONTINUOUS
 10
252.5107561525
 20
374.6587760501
 11
252.5107561525
 21
358.8321506619
  0
LINE
  5
2F8
100
AcDbEntity
  8
RUNDUNGEN
100
AcDbLine
 62
7
  6
CONTINUOUS
 10
252.8122930486
 20
357.1220499453
 11
255.3668685332
 21
350.103411485
  0
LINE
  5
2F9
100
AcDbEntity
  8
RUNDUNGEN
100
AcDbLine
 62
7
  6
CONTINUOUS
 10
314.5107561525
 20
231.5863499637
 11
314.5107561525
 21
374.6587760501
  0
LINE
  5
2FA
100
AcDbEntity
  8
0
100
AcDbLine
 62
7
  6
CONTINUOUS
 10
304.6705000483
 20
202.9280780167
 11
304.7343845183
 21
203.0304588522
  0
LINE
  5
2FB
100
AcDbEntity
  8
RUNDUNGEN
100
AcDbLine
 62
7
  6
CONTINUOUS
 10
294.5074195107
 20
186.6407913389
 11
307.6880243682
 21
207.7639428387
  0
LINE
  5
2FC
100
AcDbEntity
  8
RUNDUNGEN
100
AcDbLine
 62
7
  6
CONTINUOUS
 10
313.7334049049
 20
377.3363192363
 11
309.6911950867
 21
383.7111304192
  0
LWPOLYLINE
  5
2FD
100
AcDbEntity
  8
RUNDUNGEN
100
AcDbPolyline
 62
7
  6
CONTINUOUS
 90
14
 70
0
 10
467.9467069443
 20
171.110747452
 10
468.3576093444
 20
171.1324338481
 10
468.7653371173
 20
171.1878333072
 10
469.1671284541
 20
171.2765705118
 10
469.5602618
 20
171.3980442064
 10
469.9420743065
 20
171.5514312771
 10
470.3099799102
 20
171.735692347
 10
470.6614868154
 20
171.9495788019
 10
470.994214373
 20
172.1916412252
 10
471.3059096211
 20
172.4602395591
 10
471.5944623468
 20
172.7535542597
 10
471.8579182164
 20
173.0695973034
 10
472.0944932245
 20
173.4062264303
 10
472.302541533
 20
173.7610763942
  0
LINE
  5
2FE
100
AcDbEntity
  8
RUNDUNGEN
100
AcDbLine
 62
7
  6
CONTINUOUS
 10
467.8888604922
 20
171.1104128198
 11
467.9467069443
 21
171.110747452
  0
LINE
  5
2FF
100
AcDbEntity
  8
0
100
AcDbLine
 62
7
  6
CONTINUOUS
 10
395.3743976563
 20
171.1103889533
 11
401.0467766751
 21
171.1103889533
  0
LINE
  5
300
100
AcDbEntity
  8
KONSTRUKTIONSELEMENTE
100
AcDbLine
 62
7
  6
CONTINUOUS
 10
462.2350108382
 20
171.1103889533
 11
467.907389857
 21
171.1103889533
  0
LINE
  5
301
100
AcDbEntity
  8
0
100
AcDbLine
 62
7
  6
CONTINUOUS
 10
395.3447044092
 20
171.1106453671
 11
395.3929270211
 21
171.1104128198
  0
LINE
  5
302
100
AcDbEntity
  8
0
100
AcDbLine
 62
7
  6
CONTINUOUS
 10
381.810671541
 20
386.5044758304
 11
390.0505050371
 21
396.3243270018
  0
LWPOLYLINE
  5
303
100
AcDbEntity
  8
0
100
AcDbPolyline
 62
7
  6
CONTINUOUS
 90
14
 70
0
 10
390.9792459763
 20
173.7610764025
 10
391.1876927048
 20
173.4056068997
 10
391.4247659808
 20
173.0684272501
 10
391.6888111035
 20
172.7519146738
 10
391.9780336439
 20
172.4582226773
 10
392.2904676115
 20
172.1893492933
 10
392.6239902918
 20
171.9471225503
 10
392.9763352685
 20
171.7331896392
 10
393.3451075914
 20
171.5490056608
 10
393.727800558
 20
171.3958233203
 10
394.1218127518
 20
171.2746844408
 10
394.5244656871
 20
171.186412897
 10
394.9330220662
 20
171.1316089918
 10
395.3447044092
 20
171.1106453671
  0
LWPOLYLINE
  5
304
100
AcDbEntity
  8
RUNDUNGEN
100
AcDbPolyline
 62
7
  6
CONTINUOUS
 90
9
 70
0
 10
428.4933604639
 20
222.5867900163
 10
429.1526183472
 20
222.606871419
 10
429.9798671232
 20
222.6252677889
 10
430.8126797758
 20
222.6363076879
 10
431.6483120225
 20
222.6399483886
 10
432.4839121505
 20
222.6361762293
 10
433.3166314152
 20
222.625005734
 10
434.1437304101
 20
222.6064803314
 10
434.7884266918
 20
222.5867900364
  0
LWPOLYLINE
  5
305
100
AcDbEntity
  8
RUNDUNGEN
100
AcDbPolyline
 62
7
  6
CONTINUOUS
 90
33
 70
0
 10
434.7884333656
 20
222.5867828993
 10
435.2012752028
 20
222.5608235889
 10
435.7191652484
 20
222.494622547
 10
436.2123620297
 20
222.3961489088
 10
436.6807372162
 20
222.2697929862
 10
437.1242521791
 20
222.1195101009
 10
437.5434456322
 20
221.9488453279
 10
437.938984943
 20
221.7608949461
 10
438.3119280984
 20
221.5582738454
 10
438.6633789965
 20
221.3432098024
 10
438.9944452936
 20
221.1175941393
 10
439.3062783879
 20
220.8829894787
 10
439.5999339563
 20
220.6407308266
 10
439.8764879405
 20
220.3918820615
 10
440.136879839
 20
220.137370518
 10
440.3820407136
 20
219.8779154247
 10
440.6128075735
 20
219.6141121795
 10
440.8299834677
 20
219.3463959297
 10
441.0342709313
 20
219.0751288499
 10
441.2263768369
 20
218.8004745509
 10
441.4067490633
 20
218.522797055
 10
441.5758665376
 20
218.2422763921
 10
441.7340755783
 20
217.9591809797
 10
441.8817139326
 20
217.6736713032
 10
442.0190393645
 20
217.3859461333
 10
442.1462816796
 20
217.0961289085
 10
442.2635621176
 20
216.8044912772
 10
442.3709539788
 20
216.5113376495
 10
442.4684899017
 20
216.2169682653
 10
442.5561675664
 20
215.9217863875
 10
442.6338359404
 20
215.6266143609
 10
442.7013868551
 20
215.3322406953
 10
442.7585668603
 20
215.0404821374
  0
LINE
  5
306
100
AcDbEntity
  8
0
100
AcDbLine
 62
7
  6
CONTINUOUS
 10
380.6408937566
 20
383.290537782
 11
380.6408937566
 21
309.9823731668
  0
LINE
  5
307
100
AcDbEntity
  8
0
100
AcDbLine
 62
7
  6
CONTINUOUS
 10
433.917862782
 20
252.0868968084
 11
419.4004982442
 21
252.0868968084
  0
LINE
  5
308
100
AcDbEntity
  8
0
100
AcDbLine
 62
7
  6
CONTINUOUS
 10
419.1408937566
 20
228.4908976689
 11
419.1408937566
 21
228.4611539496
  0
LINE
  5
309
100
AcDbEntity
  8
RUNDUNGEN
100
AcDbLine
 62
7
  6
CONTINUOUS
 10
419.1408937566
 20
184.0270372558
 11
419.1408937566
 21
270.940622462
  0
LINE
  5
30A
100
AcDbEntity
  8
0
100
AcDbLine
 62
7
  6
CONTINUOUS
 10
419.1408937566
 20
270.5057703986
 11
419.1408937566
 21
309.3099589799
  0
LINE
  5
30B
100
AcDbEntity
  8
RUNDUNGEN
100
AcDbLine
 62
7
  6
CONTINUOUS
 10
419.2908937566
 20
339.4605474092
 11
419.2908937566
 21
391.4642130834
  0
LINE
  5
30C
100
AcDbEntity
  8
RUNDUNGEN
100
AcDbLine
 62
7
  6
CONTINUOUS
 10
420.3908937566
 20
213.6115574812
 11
420.3908937566
 21
204.6358316767
  0
LINE
  5
30D
100
AcDbEntity
  8
0
100
AcDbLine
 62
7
  6
CONTINUOUS
 10
420.3908937566
 20
323.4869120108
 11
420.3908937566
 21
333.7542519063
  0
LINE
  5
30E
100
AcDbEntity
  8
RUNDUNGEN
100
AcDbLine
 62
7
  6
CONTINUOUS
 10
420.3908937566
 20
323.4869121583
 11
420.3908937566
 21
333.7542519063
  0
LWPOLYLINE
  5
30F
100
AcDbEntity
  8
RUNDUNGEN
100
AcDbPolyline
 62
7
  6
CONTINUOUS
 90
7
 70
0
 10
420.3908988847
 20
213.6115818102
 10
420.3917353104
 20
213.7208396947
 10
420.3992211968
 20
213.9592020388
 10
420.4155578878
 20
214.2148220014
 10
420.4416903479
 20
214.4843688286
 10
420.478185113
 20
214.7643663527
 10
420.5252707414
 20
215.0518805083
  0
LWPOLYLINE
  5
310
100
AcDbEntity
  8
RUNDUNGEN
100
AcDbPolyline
 62
7
  6
CONTINUOUS
 90
3
 70
0
 10
420.3890247857
 20
204.4862082992
 10
420.3908381365
 20
204.5967533612
 10
420.3908893368
 20
204.6185801788
  0
LINE
  5
311
100
AcDbEntity
  8
RUNDUNGEN
100
AcDbLine
 62
7
  6
CONTINUOUS
 10
420.3846148377
 20
204.3756699062
 11
420.3890247857
 21
204.4862082992
  0
LINE
  5
312
100
AcDbEntity
  8
0
100
AcDbLine
 62
7
  6
CONTINUOUS
 10
439.5003292372
 20
273.0868968084
 11
423.781019318
 21
273.0868968084
  0
LINE
  5
313
100
AcDbEntity
  8
RUNDUNGEN
100
AcDbLine
 62
7
  6
CONTINUOUS
 10
420.3824324074
 20
204.3365707742
 11
420.3846148377
 21
204.3756699062
  0
LINE
  5
314
100
AcDbEntity
  8
RUNDUNGEN
100
AcDbLine
 62
7
  6
CONTINUOUS
 10
420.3823989928
 20
204.3361557674
 11
420.3824240207
 21
204.3365712755
  0
LINE
  5
315
100
AcDbEntity
  8
RUNDUNGEN
100
AcDbLine
 62
7
  6
CONTINUOUS
 10
420.3789921525
 20
204.300811679
 11
420.3823989928
 21
204.3361557674
  0
LWPOLYLINE
  5
316
100
AcDbEntity
  8
RUNDUNGEN
100
AcDbPolyline
 62
7
  6
CONTINUOUS
 90
7
 70
0
 10
442.7585668603
 20
215.0404821374
 10
442.8052797368
 20
214.7528981611
 10
442.8413851538
 20
214.4729565844
 10
442.8671210861
 20
214.2036052925
 10
442.8830746621
 20
213.9483082406
 10
442.8902039903
 20
213.7103723572
 10
442.8908885708
 20
213.6123105612
  0
LWPOLYLINE
  5
317
100
AcDbEntity
  8
RUNDUNGEN
100
AcDbPolyline
 62
7
  6
CONTINUOUS
 90
10
 70
0
 10
442.8993902261
 20
204.3361641669
 10
442.9322468422
 20
203.9967419619
 10
442.9968832503
 20
203.6272182248
 10
443.090316331
 20
203.2674786449
 10
443.2125796542
 20
202.9162876153
 10
443.3635826384
 20
202.5743695592
 10
443.5438433089
 20
202.2424462034
 10
443.7537418529
 20
201.921719365
 10
443.9930905996
 20
201.6147134032
 10
444.1408937566
 20
201.4544862777
  0
LINE
  5
318
100
AcDbEntity
  8
RUNDUNGEN
100
AcDbLine
 62
7
  6
CONTINUOUS
 10
442.8980476345
 20
204.3592811732
 11
442.8993561152
 21
204.3365561457
  0
LINE
  5
319
100
AcDbEntity
  8
RUNDUNGEN
100
AcDbLine
 62
7
  6
CONTINUOUS
 10
442.8932513468
 20
204.4698087686
 11
442.8980476345
 21
204.3592811732
  0
LINE
  5
31A
100
AcDbEntity
  8
RUNDUNGEN
100
AcDbLine
 62
7
  6
CONTINUOUS
 10
442.8910522687
 20
204.5803388864
 11
442.8932513468
 21
204.4698087686
  0
LINE
  5
31B
100
AcDbEntity
  8
0
100
AcDbLine
 62
7
  6
CONTINUOUS
 10
441.1573280998
 20
253.4057998243
 11
441.1573280998
 21
253.5873153284
  0
LINE
  5
31C
100
AcDbEntity
  8
0
100
AcDbLine
 62
7
  6
CONTINUOUS
 10
441.1573280998
 20
272.9578293567
 11
441.1573280998
 21
273.1393448608
  0
LWPOLYLINE
  5
31D
100
AcDbEntity
  8
RUNDUNGEN
100
AcDbPolyline
 62
7
  6
CONTINUOUS
 90
33
 70
0
 10
420.5252707414
 20
215.0518805083
 10
420.5828000389
 20
215.34348783
 10
420.6506750556
 20
215.6376455761
 10
420.72864823
 20
215.9325766262
 10
420.8166136291
 20
216.2275047702
 10
420.9144250951
 20
216.5216193251
 10
421.0220839734
 20
216.8145213783
 10
421.1396252651
 20
217.1059128483
 10
421.2671253304
 20
217.3954909178
 10
421.4047076742
 20
217.6829849324
 10
421.5526044685
 20
217.9682691908
 10
421.7110739152
 20
218.2511429438
 10
421.8804545264
 20
218.5314418767
 10
422.0610925278
 20
218.8088954757
 10
422.2534683177
 20
219.0833216991
 10
422.4580303869
 20
219.3543555213
 10
422.6754865181
 20
219.621830434
 10
422.9065400392
 20
219.8853828178
 10
423.1519946847
 20
220.1445746569
 10
423.4126879561
 20
220.398808221
 10
423.6895514112
 20
220.6473614031
 10
423.9835241548
 20
220.8893031388
 10
424.2956829681
 20
221.1235668734
 10
424.6270822227
 20
221.3488129036
 10
424.9788737223
 20
221.563474912
 10
425.3521619036
 20
221.7656561386
 10
425.748049286
 20
221.9531231741
 10
426.167589465
 20
222.1232559106
 10
426.6114409303
 20
222.2729517079
 10
427.0801350872
 20
222.3986599446
 10
427.5736278228
 20
222.4964230985
 10
428.0917879878
 20
222.5618473296
 10
428.4933524523
 20
222.5867831712
  0
LINE
  5
31E
100
AcDbEntity
  8
RUNDUNGEN
100
AcDbLine
 62
7
  6
CONTINUOUS
 10
442.8908958458
 20
204.6185797564
 11
442.8910522687
 21
204.5803388864
  0
LINE
  5
31F
100
AcDbEntity
  8
RUNDUNGEN
100
AcDbLine
 62
7
  6
CONTINUOUS
 10
442.8908937566
 20
204.6358317509
 11
442.8908937566
 21
213.6114740516
  0
LINE
  5
320
100
AcDbEntity
  8
RUNDUNGEN
100
AcDbLine
 62
7
  6
CONTINUOUS
 10
442.8908937566
 20
323.4869121583
 11
442.8908937566
 21
333.7542519063
  0
LINE
  5
321
100
AcDbEntity
  8
RUNDUNGEN
100
AcDbLine
 62
7
  6
CONTINUOUS
 10
443.9908937566
 20
391.4641085058
 11
443.9908937566
 21
339.4605277434
  0
LINE
  5
322
100
AcDbEntity
  8
0
100
AcDbLine
 62
7
  6
CONTINUOUS
 10
444.1408937566
 20
228.4908976689
 11
444.1408937566
 21
228.4611539495
  0
LINE
  5
323
100
AcDbEntity
  8
RUNDUNGEN
100
AcDbLine
 62
7
  6
CONTINUOUS
 10
444.1408937566
 20
270.940622462
 11
444.1408937566
 21
184.0270372558
  0
LINE
  5
324
100
AcDbEntity
  8
0
100
AcDbLine
 62
7
  6
CONTINUOUS
 10
444.1408937566
 20
270.5057703986
 11
444.1408937566
 21
309.3099589799
  0
LINE
  5
325
100
AcDbEntity
  8
RUNDUNGEN
100
AcDbLine
 62
7
  6
CONTINUOUS
 10
482.6408937566
 20
383.290537782
 11
482.6408937566
 21
309.9823731668
  0
LINE
  5
326
100
AcDbEntity
  8
BEZUGSACHSEN
100
AcDbLine
 62
7
  6
CONTINUOUS
 10
443.9908937566
 20
354.6103889533
 11
419.2908937566
 21
354.6103889533
  0
LINE
  5
327
100
AcDbEntity
  8
BEZUGSACHSEN
100
AcDbLine
 62
7
  6
CONTINUOUS
 10
443.9908937566
 20
381.6103889533
 11
419.2908937566
 21
381.6103889533
  0
LINE
  5
328
100
AcDbEntity
  8
KONSTRUKTIONSELEMENTE
100
AcDbLine
 62
7
  6
CONTINUOUS
 10
473.2312824761
 20
396.3243270018
 11
481.4711159722
 21
386.5044758304
  0
LINE
  5
329
100
AcDbEntity
  8
0
100
AcDbLine
 62
7
  6
CONTINUOUS
 10
393.8807272527
 20
398.1103889533
 11
402.9180805239
 21
398.1103889533
  0
LINE
  5
32A
100
AcDbEntity
  8
KONSTRUKTIONSELEMENTE
100
AcDbLine
 62
7
  6
CONTINUOUS
 10
460.3637069893
 20
398.1103889533
 11
469.4010602605
 21
398.1103889533
  0
LWPOLYLINE
  5
32B
100
AcDbEntity
  8
RUNDUNGEN
100
AcDbPolyline
 62
7
  6
CONTINUOUS
 90
4
 70
0
 10
28.8879672587
 20
115.6067166797
 10
28.8503888308
 20
115.0049052825
 10
28.8274593556
 20
114.4027993193
 10
28.8191565277
 20
113.7616536751
  0
LINE
  5
32C
100
AcDbEntity
  8
RUNDUNGEN
100
AcDbLine
 62
7
  6
CONTINUOUS
 10
28.9335998855
 20
116.1406963002
 11
28.8879672587
 21
115.6067166797
  0
LINE
  5
32D
100
AcDbEntity
  8
RUNDUNGEN
100
AcDbLine
 62
7
  6
CONTINUOUS
 10
28.9335889161
 20
116.1405823624
 11
28.9335998855
 21
116.1406963002
  0
LINE
  5
32E
100
AcDbEntity
  8
KONSTRUKTIONSELEMENTE
100
AcDbLine
 62
7
  6
CONTINUOUS
 10
28.8191445189
 20
113.7618004063
 11
28.8191445189
 21
25.6744827023
  0
LINE
  5
32F
100
AcDbEntity
  8
RUNDUNGEN
100
AcDbLine
 62
7
  6
CONTINUOUS
 10
36.5391445189
 20
25.6744827023
 11
36.5391445189
 21
77.6744827023
  0
LINE
  5
330
100
AcDbEntity
  8
RUNDUNGEN
100
AcDbLine
 62
7
  6
CONTINUOUS
 10
33.8192708889
 20
20.6744827023
 11
119.0925675034
 21
20.6744827023
  0
LINE
  5
331
100
AcDbEntity
  8
0
100
AcDbLine
 62
7
  6
CONTINUOUS
 10
103.7891470266
 20
20.6744827023
 11
141.2590181489
 21
20.6744827023
  0
LINE
  5
332
100
AcDbEntity
  8
BEZUGSACHSEN
100
AcDbLine
 62
7
  6
CONTINUOUS
 10
75.1891445189
 20
38.1744827023
 11
99.8891445189
 21
38.1744827023
  0
LWPOLYLINE
  5
333
100
AcDbEntity
  8
RUNDUNGEN
100
AcDbPolyline
 62
7
  6
CONTINUOUS
 90
14
 70
0
 10
76.2854538007
 20
71.4832176128
 10
76.2593270625
 20
71.8422805325
 10
76.2120478366
 20
72.1750381744
 10
76.1497664969
 20
72.4780120715
 10
76.0769304743
 20
72.753014556
 10
75.9951623067
 20
73.0076475735
 10
75.9063066034
 20
73.2454009322
 10
75.8103929426
 20
73.4706542782
 10
75.7069239678
 20
73.687619051
 10
75.5982530187
 20
73.8939656429
 10
75.4854367453
 20
74.0897436071
 10
75.372667504
 20
74.2709153325
 10
75.2634429369
 20
74.4351645155
 10
75.1891445189
 20
74.5409325257
  0
LINE
  5
334
100
AcDbEntity
  8
0
100
AcDbLine
 62
7
  6
CONTINUOUS
 10
75.0391445189
 20
77.6991061065
 11
75.0391445189
 21
85.0386137632
  0
LINE
  5
335
100
AcDbEntity
  8
RUNDUNGEN
100
AcDbLine
 62
7
  6
CONTINUOUS
 10
75.0391445189
 20
85.0386137632
 11
75.0391445189
 21
118.420123119
  0
LINE
  5
336
100
AcDbEntity
  8
RUNDUNGEN
100
AcDbLine
 62
7
  6
CONTINUOUS
 10
75.1891445189
 20
23.8362826714
 11
75.1891445189
 21
76.0283068324
  0
LINE
  5
337
100
AcDbEntity
  8
RUNDUNGEN
100
AcDbLine
 62
7
  6
CONTINUOUS
 10
76.2891445189
 20
71.3908568017
 11
76.2891445189
 21
65.1744827023
  0
LINE
  5
338
100
AcDbEntity
  8
BEZUGSACHSEN
100
AcDbLine
 62
7
  6
CONTINUOUS
 10
75.1891445189
 20
65.1744827023
 11
99.8891445189
 21
65.1744827023
  0
LWPOLYLINE
  5
339
100
AcDbEntity
  8
0
100
AcDbPolyline
 62
7
  6
CONTINUOUS
 90
9
 70
0
 10
115.4916510566
 20
82.7162560459
 10
114.1504577355
 20
82.2796222433
 10
112.7513505525
 20
81.8762713713
 10
111.2906167731
 20
81.5042760253
 10
109.7683817836
 20
81.1629566992
 10
108.1834658251
 20
80.8513504713
 10
106.5363098322
 20
80.5688879388
 10
104.8258305567
 20
80.3147446977
 10
103.196774705
 20
80.1055544363
  0
LINE
  5
33A
100
AcDbEntity
  8
RUNDUNGEN
100
AcDbLine
 62
7
  6
CONTINUOUS
 10
55.3739550267
 20
84.5077825358
 11
55.3740259636
 21
84.5077455873
  0
LINE
  5
33B
100
AcDbEntity
  8
0
100
AcDbLine
 62
7
  6
CONTINUOUS
 10
119.7043232344
 20
84.5077769225
 11
119.7042630742
 21
84.5077455873
  0
LWPOLYLINE
  5
33C
100
AcDbEntity
  8
0
100
AcDbPolyline
 62
7
  6
CONTINUOUS
 90
5
 70
0
 10
119.7043381423
 20
84.5077846766
 10
119.193984516
 20
84.24890842
 10
118.0097594354
 20
83.6976198554
 10
116.7771459171
 20
83.1880725678
 10
115.4916510566
 20
82.7162560459
  0
LWPOLYLINE
  5
33D
100
AcDbEntity
  8
RUNDUNGEN
100
AcDbPolyline
 62
7
  6
CONTINUOUS
 90
6
 70
0
 10
60.8886020334
 20
82.2916632505
 10
59.5439494211
 20
82.7310416016
 10
58.2553514305
 20
83.2059467772
 10
57.0198600857
 20
83.7190167997
 10
55.8328257274
 20
84.2744048449
 10
55.3739401298
 20
84.5077902841
  0
LWPOLYLINE
  5
33E
100
AcDbEntity
  8
RUNDUNGEN
100
AcDbPolyline
 62
7
  6
CONTINUOUS
 90
14
 70
0
 10
99.8891445189
 20
74.5408720299
 10
99.824337742
 20
74.4489706808
 10
99.7166943922
 20
74.2880454877
 10
99.6043251452
 20
74.1087675393
 10
99.4904078692
 20
73.9126753061
 10
99.378553176
 20
73.7019027847
 10
99.2706722155
 20
73.4767711678
 10
99.1693747058
 20
73.2388748024
 10
99.0756908639
 20
72.9861419202
 10
98.9907504358
 20
72.7164198149
 10
98.9170484121
 20
72.428358049
 10
98.8565428696
 20
72.1178578391
 10
98.8131006679
 20
71.7853407165
 10
98.7932404625
 20
71.4938951581
  0
LINE
  5
33F
100
AcDbEntity
  8
0
100
AcDbLine
 62
7
  6
CONTINUOUS
 10
103.1967012833
 20
80.1055463892
 11
103.1968599696
 21
80.1055653241
  0
LINE
  5
340
100
AcDbEntity
  8
RUNDUNGEN
100
AcDbLine
 62
7
  6
CONTINUOUS
 10
71.8815877436
 20
80.1055463905
 11
71.8814290682
 21
80.1055653241
  0
LWPOLYLINE
  5
341
100
AcDbEntity
  8
RUNDUNGEN
100
AcDbPolyline
 62
7
  6
CONTINUOUS
 90
8
 70
0
 10
71.8815143218
 20
80.1055544376
 10
70.2450961712
 20
80.3157599528
 10
68.52783508
 20
80.5711489474
 10
66.8745351086
 20
80.8550813164
 10
65.2840562102
 20
81.168393054
 10
63.7568024605
 20
81.5116650888
 10
62.2915972658
 20
81.885864781
 10
60.8886020334
 20
82.2916632505
  0
LINE
  5
342
100
AcDbEntity
  8
0
100
AcDbLine
 62
7
  6
CONTINUOUS
 10
98.7891445189
 20
71.3908568864
 11
98.7891445189
 21
71.2672057114
  0
LINE
  5
343
100
AcDbEntity
  8
RUNDUNGEN
100
AcDbLine
 62
7
  6
CONTINUOUS
 10
98.7891445189
 20
65.1744827023
 11
98.7891445189
 21
71.3908568017
  0
LINE
  5
344
100
AcDbEntity
  8
RUNDUNGEN
100
AcDbLine
 62
7
  6
CONTINUOUS
 10
99.8891445189
 20
76.0283068324
 11
99.8891445189
 21
23.8362805701
  0
LINE
  5
345
100
AcDbEntity
  8
RUNDUNGEN
100
AcDbLine
 62
7
  6
CONTINUOUS
 10
100.0391445189
 20
118.420123119
 11
100.0391445189
 21
85.0386137632
  0
LINE
  5
346
100
AcDbEntity
  8
0
100
AcDbLine
 62
7
  6
CONTINUOUS
 10
100.0391445189
 20
85.0386137632
 11
100.0391445189
 21
77.6991061065
  0
LINE
  5
347
100
AcDbEntity
  8
RUNDUNGEN
100
AcDbLine
 62
7
  6
CONTINUOUS
 10
58.8163244312
 20
82.6744827023
 11
41.5391445189
 21
82.6744827023
  0
LINE
  5
348
100
AcDbEntity
  8
0
100
AcDbLine
 62
7
  6
CONTINUOUS
 10
116.2619577516
 20
82.6744827023
 11
133.5391445189
 21
82.6744827023
  0
LINE
  5
349
100
AcDbEntity
  8
0
100
AcDbLine
 62
7
  6
CONTINUOUS
 10
138.5391445189
 20
25.6744827023
 11
138.5391445189
 21
77.6744827023
  0
LWPOLYLINE
  5
34A
100
AcDbEntity
  8
RUNDUNGEN
100
AcDbPolyline
 62
7
  6
CONTINUOUS
 90
27
 70
0
 10
34.1790848241
 20
121.566073116
 10
33.973527686
 20
121.5619084273
 10
33.5532027868
 20
121.527314926
 10
33.1313641911
 20
121.4566892017
 10
32.7139450705
 20
121.3498674068
 10
32.305907263
 20
121.2075596809
 10
31.9118505787
 20
121.0312974367
 10
31.5357776625
 20
120.8232552255
 10
31.1822488319
 20
120.5869678788
 10
30.8544430028
 20
120.3263206272
 10
30.556032411
 20
120.0469618994
 10
30.2892304193
 20
119.7549712272
 10
30.0547966722
 20
119.4564264452
 10
29.8526217549
 20
119.1577358008
 10
29.6810526888
 20
118.8642398084
 10
29.5384742638
 20
118.5823042132
 10
29.4204696845
 20
118.3129574387
 10
29.3237347398
 20
118.0583429378
 10
29.2442285566
 20
117.817219017
 10
29.1788621561
 20
117.5889037087
 10
29.1245473584
 20
117.3704216171
 10
29.0789121546
 20
117.1588369784
 10
29.0400677125
 20
116.9508722036
 10
29.0065111578
 20
116.7428108975
 10
28.9771368504
 20
116.5309708382
 10
28.9509580993
 20
116.3099205263
 10
28.9335895535
 20
116.1405823013
  0
LINE
  5
34B
100
AcDbEntity
  8
0
100
AcDbLine
 62
7
  6
CONTINUOUS
 10
140.8992510041
 20
121.566075134
 11
103.7891445189
 21
121.5660751344
  0
LINE
  5
34C
100
AcDbEntity
  8
KONSTRUKTIONSELEMENTE
100
AcDbLine
 62
7
  6
CONTINUOUS
 10
71.2891445189
 20
121.5660751344
 11
34.1803604853
 21
121.5660751344
  0
LINE
  5
34D
100
AcDbEntity
  8
RUNDUNGEN
100
AcDbLine
 62
7
  6
CONTINUOUS
 10
34.1790962118
 20
121.5660751096
 11
34.1790380337
 21
121.566075134
  0
LINE
  5
34E
100
AcDbEntity
  8
0
100
AcDbLine
 62
7
  6
CONTINUOUS
 10
146.1894458714
 20
115.6184160938
 11
146.144689095
 21
116.1406968953
  0
LWPOLYLINE
  5
34F
100
AcDbEntity
  8
0
100
AcDbPolyline
 62
7
  6
CONTINUOUS
 90
4
 70
0
 10
146.2589840521
 20
113.8475291873
 10
146.249894112
 20
114.4379467715
 10
146.226712193
 20
115.0283218546
 10
146.1894458714
 20
115.6184160938
  0
LINE
  5
350
100
AcDbEntity
  8
0
100
AcDbLine
 62
7
  6
CONTINUOUS
 10
146.2591445189
 20
25.6744827023
 11
146.2589840521
 21
113.8475291873
  0
LWPOLYLINE
  5
351
100
AcDbEntity
  8
0
100
AcDbPolyline
 62
7
  6
CONTINUOUS
 90
27
 70
0
 10
146.1446995135
 20
116.1405819982
 10
146.1272926733
 20
116.310271248
 10
146.1010665246
 20
116.5316385504
 10
146.0716344213
 20
116.743769741
 10
146.0380065395
 20
116.9521095244
 10
145.9990732018
 20
117.1603502177
 10
145.9533267346
 20
117.3722143289
 10
145.8988724983
 20
117.590983014
 10
145.8333302165
 20
117.8195978147
 10
145.7536003878
 20
118.0610401565
 10
145.65658821
 20
118.3159777553
 10
145.5382505792
 20
118.5856296073
 10
145.3952651981
 20
118.8678679988
 10
145.2231984559
 20
119.1616621466
 10
145.0204161885
 20
119.460647021
 10
144.7852318447
 20
119.7594895134
 10
144.5175520304
 20
120.0517243481
 10
144.2181511309
 20
120.3312345333
 10
143.8892622114
 20
120.5919099
 10
143.5345786277
 20
120.8280816053
 10
143.1573327099
 20
121.0358323456
 10
142.7621407882
 20
121.2116150031
 10
142.3530577158
 20
121.3532579852
 10
141.9347377217
 20
121.4592464533
 10
141.5121930398
 20
121.5289013391
 10
141.0914160654
 20
121.5624319636
 10
140.8992029838
 20
121.5660731151
  0
LINE
  5
352
100
AcDbEntity
  8
0
100
AcDbLine
 62
7
  6
CONTINUOUS
 10
146.1447001509
 20
116.1405820594
 11
146.144689095
 21
116.1406968953
  0
ARC
  5
353
100
AcDbEntity
  8
0
100
AcDbCircle
 62
7
  6
CONTINUOUS
 10
-7.7408554811
 20
246.1203889533
 40
154.0
100
AcDbArc
 50
331.9743666384
 51
13.7856407276
  0
ARC
  5
354
100
AcDbEntity
  8
RUNDUNGEN
100
AcDbCircle
 62
7
  6
CONTINUOUS
 10
56.9450274373
 20
176.1103889533
 40
5.0
100
AcDbArc
 50
270.0
 51
316.0430532762
  0
ARC
  5
355
100
AcDbEntity
  8
RUNDUNGEN
100
AcDbCircle
 62
7
  6
CONTINUOUS
 10
72.0391445189
 20
184.0269628211
 40
3.0
100
AcDbArc
 50
292.5020228082
 51
360.0
  0
ARC
  5
356
100
AcDbEntity
  8
RUNDUNGEN
100
AcDbCircle
 62
7
  6
CONTINUOUS
 10
-77.4608554811
 20
309.9821271069
 40
114.0
100
AcDbArc
 50
346.2143592724
 51
360.0
  0
ARC
  5
357
100
AcDbEntity
  8
RUNDUNGEN
100
AcDbCircle
 62
7
  6
CONTINUOUS
 10
41.5391445189
 20
383.290537782
 40
5.0
100
AcDbArc
 50
140.0
 51
180.0
  0
ARC
  5
358
100
AcDbEntity
  8
RUNDUNGEN
100
AcDbCircle
 62
7
  6
CONTINUOUS
 10
49.778978015
 20
393.1103889533
 40
5.0
100
AcDbArc
 50
90.0
 51
140.0
  0
ARC
  5
359
100
AcDbEntity
  8
RUNDUNGEN
100
AcDbCircle
 62
7
  6
CONTINUOUS
 10
58.8163312862
 20
393.1103889533
 40
5.0
100
AcDbArc
 50
70.2500772044
 51
90.0
  0
ARC
  5
35A
100
AcDbEntity
  8
RUNDUNGEN
100
AcDbCircle
 62
7
  6
CONTINUOUS
 10
71.2891445189
 20
389.6781559735
 40
5.0
100
AcDbArc
 50
63.2563160496
 51
78.9785503645
  0
ARC
  5
35B
100
AcDbEntity
  8
RUNDUNGEN
100
AcDbCircle
 62
7
  6
CONTINUOUS
 10
72.1891445189
 20
391.4642130834
 40
3.0
100
AcDbArc
 50
0.0
 51
63.2563160496
  0
ARC
  5
35C
100
AcDbEntity
  8
0
100
AcDbCircle
 62
7
  6
CONTINUOUS
 10
87.5391445189
 20
146.6103889533
 40
37.5
100
AcDbArc
 50
43.9569467238
 51
67.4979771918
  0
ARC
  5
35D
100
AcDbEntity
  8
KONSTRUKTIONSELEMENTE
100
AcDbCircle
 62
7
  6
CONTINUOUS
 10
87.5391445189
 20
146.6103889533
 40
37.5
100
AcDbArc
 50
112.5020228082
 51
136.0430532762
  0
ARC
  5
35E
100
AcDbEntity
  8
0
100
AcDbCircle
 62
7
  6
CONTINUOUS
 10
118.1332616005
 20
176.1103889533
 40
5.0
100
AcDbArc
 50
223.9569467238
 51
270.0
  0
ARC
  5
35F
100
AcDbEntity
  8
RUNDUNGEN
100
AcDbCircle
 62
7
  6
CONTINUOUS
 10
103.0391445189
 20
184.0269628211
 40
3.0
100
AcDbArc
 50
180.0
 51
247.4979771918
  0
ARC
  5
360
100
AcDbEntity
  8
RUNDUNGEN
100
AcDbCircle
 62
7
  6
CONTINUOUS
 10
182.8191445189
 20
246.1203889533
 40
154.0
100
AcDbArc
 50
166.2143592724
 51
208.0256333689
  0
ARC
  5
361
100
AcDbEntity
  8
0
100
AcDbCircle
 62
7
  6
CONTINUOUS
 10
252.5391445189
 20
309.9821271069
 40
114.0
100
AcDbArc
 50
180.0
 51
193.7856407276
  0
ARC
  5
362
100
AcDbEntity
  8
0
100
AcDbCircle
 62
7
  6
CONTINUOUS
 10
87.5391445189
 20
473.1103889533
 40
80.0
100
AcDbArc
 50
281.0214496355
 51
289.7499227956
  0
ARC
  5
363
100
AcDbEntity
  8
KONSTRUKTIONSELEMENTE
100
AcDbCircle
 62
7
  6
CONTINUOUS
 10
87.5391445189
 20
473.1103889533
 40
80.0
100
AcDbArc
 50
250.2500772044
 51
258.9785503645
  0
ARC
  5
364
100
AcDbEntity
  8
RUNDUNGEN
100
AcDbCircle
 62
7
  6
CONTINUOUS
 10
87.5391445189
 20
339.4603889533
 40
12.35
100
AcDbArc
 50
179.9988036763
 51
0.0010038633
  0
ARC
  5
365
100
AcDbEntity
  8
0
100
AcDbCircle
 62
7
  6
CONTINUOUS
 10
133.5391445189
 20
383.290537782
 40
5.0
100
AcDbArc
 50
0.0
 51
40.0
  0
ARC
  5
366
100
AcDbEntity
  8
0
100
AcDbCircle
 62
7
  6
CONTINUOUS
 10
125.2993110228
 20
393.1103889533
 40
5.0
100
AcDbArc
 50
40.0
 51
90.0
  0
ARC
  5
367
100
AcDbEntity
  8
0
100
AcDbCircle
 62
7
  6
CONTINUOUS
 10
116.2619577516
 20
393.1103889533
 40
5.0
100
AcDbArc
 50
90.0
 51
109.7499227956
  0
ARC
  5
368
100
AcDbEntity
  8
0
100
AcDbCircle
 62
7
  6
CONTINUOUS
 10
103.7891445189
 20
389.6781559735
 40
5.0
100
AcDbArc
 50
101.0214496355
 51
116.7436839504
  0
ARC
  5
369
100
AcDbEntity
  8
RUNDUNGEN
100
AcDbCircle
 62
7
  6
CONTINUOUS
 10
102.8891445189
 20
391.4642130834
 40
3.0
100
AcDbArc
 50
116.7436839504
 51
180.0
  0
ARC
  5
36A
100
AcDbEntity
  8
RUNDUNGEN
100
AcDbCircle
 62
7
  6
CONTINUOUS
 10
233.6191637204
 20
256.4698392483
 40
20.0
100
AcDbArc
 50
116.0511968283
 51
200.0
  0
ARC
  5
36B
100
AcDbEntity
  8
0
100
AcDbCircle
 62
7
  6
CONTINUOUS
 10
233.6191637204
 20
256.4698392483
 40
20.0
100
AcDbArc
 50
143.8576210494
 51
200.0
  0
ARC
  5
36C
100
AcDbEntity
  8
0
100
AcDbCircle
 62
7
  6
CONTINUOUS
 10
233.6191637204
 20
256.4698392483
 40
20.0
100
AcDbArc
 50
128.80305955
 51
135.5820024577
  0
ARC
  5
36D
100
AcDbEntity
  8
0
100
AcDbCircle
 62
7
  6
CONTINUOUS
 10
233.6191637204
 20
256.4698392483
 40
20.0
100
AcDbArc
 50
116.0512509611
 51
128.69294901
  0
ARC
  5
36E
100
AcDbEntity
  8
RUNDUNGEN
100
AcDbCircle
 62
7
  6
CONTINUOUS
 10
198.0456186653
 20
329.2401827421
 40
61.0
100
AcDbArc
 50
296.0516428665
 51
20.0
  0
ARC
  5
36F
100
AcDbEntity
  8
RUNDUNGEN
100
AcDbCircle
 62
7
  6
CONTINUOUS
 10
266.5107561525
 20
204.1103889533
 40
33.0
100
AcDbArc
 50
199.9998380612
 51
328.0363085986
  0
ARC
  5
370
100
AcDbEntity
  8
0
100
AcDbCircle
 62
7
  6
CONTINUOUS
 10
266.5107561525
 20
204.1103889533
 40
33.0
100
AcDbArc
 50
199.9998380612
 51
206.2435990378
  0
ARC
  5
371
100
AcDbEntity
  8
0
100
AcDbCircle
 62
7
  6
CONTINUOUS
 10
266.5107561525
 20
204.1103889533
 40
33.0
100
AcDbArc
 50
209.6092493368
 51
328.0365561772
  0
ARC
  5
372
100
AcDbEntity
  8
RUNDUNGEN
100
AcDbCircle
 62
7
  6
CONTINUOUS
 10
269.5107561525
 20
231.5861214039
 40
45.0
100
AcDbArc
 50
328.036102026
 51
0.0002910114
  0
ARC
  5
373
100
AcDbEntity
  8
0
100
AcDbCircle
 62
7
  6
CONTINUOUS
 10
269.5107561525
 20
231.5861214039
 40
45.0
100
AcDbArc
 50
328.036102026
 51
330.5203348256
  0
ARC
  5
374
100
AcDbEntity
  8
0
100
AcDbCircle
 62
7
  6
CONTINUOUS
 10
269.5107561525
 20
231.5861214039
 40
45.0
100
AcDbArc
 50
330.8168981958
 51
331.3104511424
  0
ARC
  5
375
100
AcDbEntity
  8
0
100
AcDbCircle
 62
7
  6
CONTINUOUS
 10
269.5107561525
 20
231.5861214039
 40
45.0
100
AcDbArc
 50
336.8724533185
 51
338.6488699304
  0
ARC
  5
376
100
AcDbEntity
  8
0
100
AcDbCircle
 62
7
  6
CONTINUOUS
 10
269.5107561525
 20
231.5861214039
 40
45.0
100
AcDbArc
 50
338.9191789423
 51
341.370304241
  0
ARC
  5
377
100
AcDbEntity
  8
0
100
AcDbCircle
 62
7
  6
CONTINUOUS
 10
269.5107561525
 20
231.5861214039
 40
45.0
100
AcDbArc
 50
341.5165516216
 51
344.0585885668
  0
ARC
  5
378
100
AcDbEntity
  8
0
100
AcDbCircle
 62
7
  6
CONTINUOUS
 10
269.5107561525
 20
231.5861214039
 40
45.0
100
AcDbArc
 50
344.226468807
 51
0.0002910114
  0
ARC
  5
379
100
AcDbEntity
  8
RUNDUNGEN
100
AcDbCircle
 62
7
  6
CONTINUOUS
 10
257.5107561525
 20
358.8321506619
 40
5.0
100
AcDbArc
 50
180.0000252109
 51
200.0000227033
  0
ARC
  5
37A
100
AcDbEntity
  8
RUNDUNGEN
100
AcDbCircle
 62
7
  6
CONTINUOUS
 10
257.5107561525
 20
374.6587760501
 40
5.0
100
AcDbArc
 50
147.6215874859
 51
180.0
  0
ARC
  5
37B
100
AcDbEntity
  8
0
100
AcDbCircle
 62
7
  6
CONTINUOUS
 10
257.5107561525
 20
374.6587760501
 40
5.0
100
AcDbArc
 50
147.6215874828
 51
180.0
  0
ARC
  5
37C
100
AcDbEntity
  8
RUNDUNGEN
100
AcDbCircle
 62
7
  6
CONTINUOUS
 10
283.5107561525
 20
367.1103889533
 40
31.0
100
AcDbArc
 50
32.3783549819
 51
147.6215874859
  0
ARC
  5
37D
100
AcDbEntity
  8
0
100
AcDbCircle
 62
7
  6
CONTINUOUS
 10
283.5107561525
 20
367.1103889533
 40
31.0
100
AcDbArc
 50
112.2506598919
 51
147.6216446725
  0
ARC
  5
37E
100
AcDbEntity
  8
0
100
AcDbCircle
 62
7
  6
CONTINUOUS
 10
283.5107561525
 20
367.1103889533
 40
31.0
100
AcDbArc
 50
70.4267767128
 51
109.9999216746
  0
ARC
  5
37F
100
AcDbEntity
  8
RUNDUNGEN
100
AcDbCircle
 62
7
  6
CONTINUOUS
 10
309.5107561525
 20
374.6587760501
 40
5.0
100
AcDbArc
 50
0.0
 51
32.3784125141
  0
ARC
  5
380
100
AcDbEntity
  8
0
100
AcDbCircle
 62
7
  6
CONTINUOUS
 10
309.5107561525
 20
374.6587760501
 40
5.0
100
AcDbArc
 50
4.0472069461
 51
28.3310975725
  0
ARC
  5
381
100
AcDbEntity
  8
0
100
AcDbCircle
 62
7
  6
CONTINUOUS
 10
417.7736263004
 20
-215.5574156747
 40
490.406061454
100
AcDbArc
 50
85.2784150099
 51
86.441211669
  0
ARC
  5
382
100
AcDbEntity
  8
RUNDUNGEN
100
AcDbCircle
 62
7
  6
CONTINUOUS
 10
336.3608937566
 20
246.1203889533
 40
154.0
100
AcDbArc
 50
331.9743666311
 51
13.7856407276
  0
ARC
  5
383
100
AcDbEntity
  8
0
100
AcDbCircle
 62
7
  6
CONTINUOUS
 10
266.6408937566
 20
309.9821271069
 40
114.0
100
AcDbArc
 50
346.2143503856
 51
0.0001236683
  0
ARC
  5
384
100
AcDbEntity
  8
RUNDUNGEN
100
AcDbCircle
 62
7
  6
CONTINUOUS
 10
415.0616922169
 20
204.6461697502
 40
5.3295021841
100
AcDbArc
 50
356.2835293523
 51
356.665394935
  0
ARC
  5
385
100
AcDbEntity
  8
RUNDUNGEN
100
AcDbCircle
 62
7
  6
CONTINUOUS
 10
415.1097576877
 20
204.6433398922
 40
5.2813534902
100
AcDbArc
 50
356.6657121831
 51
356.8366154463
  0
ARC
  5
386
100
AcDbEntity
  8
RUNDUNGEN
100
AcDbCircle
 62
7
  6
CONTINUOUS
 10
415.3919865502
 20
268.6490687982
 40
5.2639140766
100
AcDbArc
 50
69.1457937864
 51
93.5356777118
  0
ARC
  5
387
100
AcDbEntity
  8
RUNDUNGEN
100
AcDbCircle
 62
7
  6
CONTINUOUS
 10
415.2239081096
 20
204.6351146076
 40
5.1669856968
100
AcDbArc
 50
359.2353780462
 51
0.007951451
  0
ARC
  5
388
100
AcDbEntity
  8
RUNDUNGEN
100
AcDbCircle
 62
7
  6
CONTINUOUS
 10
415.2376099632
 20
204.636694123
 40
5.1533293125
100
AcDbArc
 50
356.8319493079
 51
358.1345856898
  0
ARC
  5
389
100
AcDbEntity
  8
RUNDUNGEN
100
AcDbCircle
 62
7
  6
CONTINUOUS
 10
415.2629687374
 20
204.6346631616
 40
5.1279225232
100
AcDbArc
 50
359.0826187481
 51
359.234597598
  0
ARC
  5
38A
100
AcDbEntity
  8
RUNDUNGEN
100
AcDbCircle
 62
7
  6
CONTINUOUS
 10
415.276484608
 20
204.6344462021
 40
5.1144049114
100
AcDbArc
 50
358.9174031232
 51
359.0826247298
  0
ARC
  5
38B
100
AcDbEntity
  8
RUNDUNGEN
100
AcDbCircle
 62
7
  6
CONTINUOUS
 10
415.3169566212
 20
204.6336091835
 40
5.0739243086
100
AcDbArc
 50
358.140236562
 51
358.9182184296
  0
ARC
  5
38C
100
AcDbEntity
  8
0
100
AcDbCircle
 62
7
  6
CONTINUOUS
 10
401.0467766751
 20
176.1103889533
 40
5.0
100
AcDbArc
 50
270.0
 51
316.0430532762
  0
ARC
  5
38D
100
AcDbEntity
  8
RUNDUNGEN
100
AcDbCircle
 62
7
  6
CONTINUOUS
 10
415.6998488811
 20
204.6169188092
 40
4.6908377248
100
AcDbArc
 50
352.8522037258
 51
356.2169950346
  0
ARC
  5
38E
100
AcDbEntity
  8
RUNDUNGEN
100
AcDbCircle
 62
7
  6
CONTINUOUS
 10
415.8107409354
 20
204.5981415068
 40
4.5784735755
100
AcDbArc
 50
326.1565923796
 51
352.9126867089
  0
ARC
  5
38F
100
AcDbEntity
  8
RUNDUNGEN
100
AcDbCircle
 62
7
  6
CONTINUOUS
 10
415.8290076403
 20
204.5911061409
 40
4.559385815
100
AcDbArc
 50
316.5956096587
 51
326.1021807925
  0
ARC
  5
390
100
AcDbEntity
  8
RUNDUNGEN
100
AcDbCircle
 62
7
  6
CONTINUOUS
 10
416.1408937566
 20
184.0269628211
 40
3.0
100
AcDbArc
 50
292.5020228082
 51
360.0
  0
ARC
  5
391
100
AcDbEntity
  8
0
100
AcDbCircle
 62
7
  6
CONTINUOUS
 10
385.6408937566
 20
383.290537782
 40
5.0
100
AcDbArc
 50
140.0
 51
180.0
  0
ARC
  5
392
100
AcDbEntity
  8
0
100
AcDbCircle
 62
7
  6
CONTINUOUS
 10
393.8807272527
 20
393.1103889533
 40
5.0
100
AcDbArc
 50
90.0
 51
140.0
  0
ARC
  5
393
100
AcDbEntity
  8
0
100
AcDbCircle
 62
7
  6
CONTINUOUS
 10
402.9180805239
 20
393.1103889533
 40
5.0
100
AcDbArc
 50
70.2500772044
 51
90.0
  0
ARC
  5
394
100
AcDbEntity
  8
0
100
AcDbCircle
 62
7
  6
CONTINUOUS
 10
415.3908937566
 20
389.6781559735
 40
5.0
100
AcDbArc
 50
63.2563160496
 51
78.9785503645
  0
ARC
  5
395
100
AcDbEntity
  8
RUNDUNGEN
100
AcDbCircle
 62
7
  6
CONTINUOUS
 10
416.2908937566
 20
391.4642130834
 40
3.0
100
AcDbArc
 50
0.0
 51
63.2563160496
  0
ARC
  5
396
100
AcDbEntity
  8
RUNDUNGEN
100
AcDbCircle
 62
7
  6
CONTINUOUS
 10
417.3908937566
 20
333.7542519063
 40
3.0
100
AcDbArc
 50
0.0
 51
21.8226783713
  0
ARC
  5
397
100
AcDbEntity
  8
0
100
AcDbCircle
 62
7
  6
CONTINUOUS
 10
445.508161213
 20
-215.5574156771
 40
490.4060614564
100
AcDbArc
 50
93.558788331
 51
94.7215849901
  0
ARC
  5
398
100
AcDbEntity
  8
0
100
AcDbCircle
 62
7
  6
CONTINUOUS
 10
431.6408937566
 20
146.6103889533
 40
37.5
100
AcDbArc
 50
112.5020228082
 51
136.0430532762
  0
ARC
  5
399
100
AcDbEntity
  8
KONSTRUKTIONSELEMENTE
100
AcDbCircle
 62
7
  6
CONTINUOUS
 10
431.6408937566
 20
146.6103889533
 40
37.5
100
AcDbArc
 50
43.9569467238
 51
67.4979771918
  0
ARC
  5
39A
100
AcDbEntity
  8
RUNDUNGEN
100
AcDbCircle
 62
7
  6
CONTINUOUS
 10
444.6174347415
 20
218.0975658435
 40
35.4773882432
100
AcDbArc
 50
90.7700298018
 51
95.571745102
  0
ARC
  5
39B
100
AcDbEntity
  8
RUNDUNGEN
100
AcDbCircle
 62
7
  6
CONTINUOUS
 10
436.5671394677
 20
261.7090046487
 40
12.3175691207
100
AcDbArc
 50
67.7861035565
 51
68.1206241546
  0
ARC
  5
39C
100
AcDbEntity
  8
0
100
AcDbCircle
 62
7
  6
CONTINUOUS
 10
440.0603444903
 20
267.0907166144
 40
5.9687842121
100
AcDbArc
 50
79.4095929588
 51
79.6518958911
  0
ARC
  5
39D
100
AcDbEntity
  8
RUNDUNGEN
100
AcDbCircle
 62
7
  6
CONTINUOUS
 10
448.2101229658
 20
204.645695189
 40
5.3195201532
100
AcDbArc
 50
183.4402693422
 51
183.7181619882
  0
ARC
  5
39E
100
AcDbEntity
  8
RUNDUNGEN
100
AcDbCircle
 62
7
  6
CONTINUOUS
 10
447.8898009625
 20
268.649068806
 40
5.2639140689
100
AcDbArc
 50
86.4643222761
 51
110.854206271
  0
ARC
  5
39F
100
AcDbEntity
  8
RUNDUNGEN
100
AcDbCircle
 62
7
  6
CONTINUOUS
 10
448.1376333894
 20
204.6414140865
 40
5.2469043107
100
AcDbArc
 50
182.8029000625
 51
183.4411054116
  0
ARC
  5
3A0
100
AcDbEntity
  8
RUNDUNGEN
100
AcDbCircle
 62
7
  6
CONTINUOUS
 10
448.0821096653
 20
204.6352059017
 40
5.1912159464
100
AcDbArc
 50
179.9930932808
 51
180.1834361626
  0
ARC
  5
3A1
100
AcDbEntity
  8
RUNDUNGEN
100
AcDbCircle
 62
7
  6
CONTINUOUS
 10
448.0465496668
 20
204.6350398365
 40
5.1556555988
100
AcDbArc
 50
180.1828558673
 51
180.8758294365
  0
ARC
  5
3A2
100
AcDbEntity
  8
RUNDUNGEN
100
AcDbCircle
 62
7
  6
CONTINUOUS
 10
448.0116550457
 20
204.6353595275
 40
5.1207806108
100
AcDbArc
 50
181.8646033574
 51
182.8041651466
  0
ARC
  5
3A3
100
AcDbEntity
  8
RUNDUNGEN
100
AcDbCircle
 62
7
  6
CONTINUOUS
 10
448.0116391244
 20
204.634559625
 40
5.120741795
100
AcDbArc
 50
180.8764277106
 51
181.0377483625
  0
ARC
  5
3A4
100
AcDbEntity
  8
RUNDUNGEN
100
AcDbCircle
 62
7
  6
CONTINUOUS
 10
447.9707737043
 20
204.6337403942
 40
5.079868241
100
AcDbArc
 50
181.0368575797
 51
181.8613539919
  0
ARC
  5
3A5
100
AcDbEntity
  8
RUNDUNGEN
100
AcDbCircle
 62
7
  6
CONTINUOUS
 10
462.2350108382
 20
176.1103889533
 40
5.0
100
AcDbArc
 50
223.9569467238
 51
270.0
  0
ARC
  5
3A6
100
AcDbEntity
  8
RUNDUNGEN
100
AcDbCircle
 62
7
  6
CONTINUOUS
 10
447.5771181019
 20
204.6164197903
 40
4.6859948436
100
AcDbArc
 50
183.7856698993
 51
187.1967596257
  0
ARC
  5
3A7
100
AcDbEntity
  8
RUNDUNGEN
100
AcDbCircle
 62
7
  6
CONTINUOUS
 10
447.4711071815
 20
204.5981519322
 40
4.5785331165
100
AcDbArc
 50
187.1361518329
 51
213.8716784255
  0
ARC
  5
3A8
100
AcDbEntity
  8
RUNDUNGEN
100
AcDbCircle
 62
7
  6
CONTINUOUS
 10
447.4500805936
 20
204.5889213822
 40
4.5559322934
100
AcDbArc
 50
213.9226723645
 51
223.4098968197
  0
ARC
  5
3A9
100
AcDbEntity
  8
RUNDUNGEN
100
AcDbCircle
 62
7
  6
CONTINUOUS
 10
447.1408937566
 20
184.0269628211
 40
3.0
100
AcDbArc
 50
180.0
 51
247.4979771918
  0
ARC
  5
3AA
100
AcDbEntity
  8
0
100
AcDbCircle
 62
7
  6
CONTINUOUS
 10
431.6408937566
 20
473.1103889533
 40
80.0
100
AcDbArc
 50
250.2500772044
 51
258.9785503645
  0
ARC
  5
3AB
100
AcDbEntity
  8
KONSTRUKTIONSELEMENTE
100
AcDbCircle
 62
7
  6
CONTINUOUS
 10
431.6408937566
 20
473.1103889533
 40
80.0
100
AcDbArc
 50
281.0214496355
 51
289.7499227956
  0
ARC
  5
3AC
100
AcDbEntity
  8
RUNDUNGEN
100
AcDbCircle
 62
7
  6
CONTINUOUS
 10
431.6408937566
 20
339.4603889533
 40
12.35
100
AcDbArc
 50
179.9992648704
 51
0.0006438935
  0
ARC
  5
3AD
100
AcDbEntity
  8
RUNDUNGEN
100
AcDbCircle
 62
7
  6
CONTINUOUS
 10
477.6408937566
 20
383.290537782
 40
5.0
100
AcDbArc
 50
0.0
 51
40.0
  0
ARC
  5
3AE
100
AcDbEntity
  8
RUNDUNGEN
100
AcDbCircle
 62
7
  6
CONTINUOUS
 10
469.4010602605
 20
393.1103889533
 40
5.0
100
AcDbArc
 50
40.0
 51
90.0
  0
ARC
  5
3AF
100
AcDbEntity
  8
RUNDUNGEN
100
AcDbCircle
 62
7
  6
CONTINUOUS
 10
460.3637069893
 20
393.1103889533
 40
5.0
100
AcDbArc
 50
90.0
 51
109.7499227956
  0
ARC
  5
3B0
100
AcDbEntity
  8
RUNDUNGEN
100
AcDbCircle
 62
7
  6
CONTINUOUS
 10
447.8908937566
 20
389.6781559735
 40
5.0
100
AcDbArc
 50
101.0214496355
 51
116.7436839504
  0
ARC
  5
3B1
100
AcDbEntity
  8
RUNDUNGEN
100
AcDbCircle
 62
7
  6
CONTINUOUS
 10
446.9908937566
 20
391.4642130834
 40
3.0
100
AcDbArc
 50
116.7436839504
 51
180.0
  0
ARC
  5
3B2
100
AcDbEntity
  8
RUNDUNGEN
100
AcDbCircle
 62
7
  6
CONTINUOUS
 10
445.8908937566
 20
333.7542519063
 40
3.0
100
AcDbArc
 50
158.1773216287
 51
180.0
  0
ARC
  5
3B3
100
AcDbEntity
  8
0
100
AcDbCircle
 62
7
  6
CONTINUOUS
 10
526.9208937566
 20
246.1203889533
 40
154.0
100
AcDbArc
 50
166.2143592724
 51
208.0256333616
  0
ARC
  5
3B4
100
AcDbEntity
  8
RUNDUNGEN
100
AcDbCircle
 62
7
  6
CONTINUOUS
 10
596.6408937566
 20
309.9821271069
 40
114.0
100
AcDbArc
 50
179.9998763317
 51
193.7856496144
  0
ARC
  5
3B5
100
AcDbEntity
  8
0
100
AcDbCircle
 62
7
  6
CONTINUOUS
 10
72.0054520366
 20
-1297.1362212349
 40
1407.5420343776
100
AcDbArc
 50
88.2887109393
 51
88.6929213866
  0
ARC
  5
3B6
100
AcDbEntity
  8
RUNDUNGEN
100
AcDbCircle
 62
7
  6
CONTINUOUS
 10
41.5391445189
 20
25.6744827023
 40
5.0
100
AcDbArc
 50
180.0
 51
270.0
  0
ARC
  5
3B7
100
AcDbEntity
  8
RUNDUNGEN
100
AcDbCircle
 62
7
  6
CONTINUOUS
 10
33.8191445189
 20
25.6744827023
 40
5.0
100
AcDbArc
 50
180.0
 51
270.0
  0
ARC
  5
3B8
100
AcDbEntity
  8
RUNDUNGEN
100
AcDbCircle
 62
7
  6
CONTINUOUS
 10
41.5391445189
 20
77.6744827023
 40
5.0
100
AcDbArc
 50
90.0
 51
180.0
  0
ARC
  5
3B9
100
AcDbEntity
  8
RUNDUNGEN
100
AcDbCircle
 62
7
  6
CONTINUOUS
 10
71.2891445189
 20
25.6744827023
 40
5.0
100
AcDbArc
 50
269.9999712639
 51
296.7436839504
  0
ARC
  5
3BA
100
AcDbEntity
  8
RUNDUNGEN
100
AcDbCircle
 62
7
  6
CONTINUOUS
 10
58.8163312862
 20
25.6744827023
 40
5.0
100
AcDbArc
 50
270.0
 51
289.7499227956
  0
ARC
  5
3BB
100
AcDbEntity
  8
RUNDUNGEN
100
AcDbCircle
 62
7
  6
CONTINUOUS
 10
71.2891445189
 20
29.1067156821
 40
5.0
100
AcDbArc
 50
281.0214496355
 51
296.7436839504
  0
ARC
  5
3BC
100
AcDbEntity
  8
RUNDUNGEN
100
AcDbCircle
 62
7
  6
CONTINUOUS
 10
72.1891445189
 20
23.8884255923
 40
3.0
100
AcDbArc
 50
296.7436839504
 51
360.0
  0
ARC
  5
3BD
100
AcDbEntity
  8
RUNDUNGEN
100
AcDbCircle
 62
7
  6
CONTINUOUS
 10
72.1891445189
 20
27.3206585722
 40
3.0
100
AcDbArc
 50
296.7436839504
 51
360.0
  0
ARC
  5
3BE
100
AcDbEntity
  8
RUNDUNGEN
100
AcDbCircle
 62
7
  6
CONTINUOUS
 10
71.2317511572
 20
71.2919279585
 40
5.0574000734
100
AcDbArc
 50
1.1206065029
 51
2.1675602824
  0
ARC
  5
3BF
100
AcDbEntity
  8
RUNDUNGEN
100
AcDbCircle
 62
7
  6
CONTINUOUS
 10
71.2676629288
 20
71.2926099382
 40
5.0214818328
100
AcDbArc
 50
0.0178118713
 51
1.1208401615
  0
ARC
  5
3C0
100
AcDbEntity
  8
RUNDUNGEN
100
AcDbCircle
 62
7
  6
CONTINUOUS
 10
71.2891445189
 20
74.2422497225
 40
5.0
100
AcDbArc
 50
63.2563160496
 51
78.9785503645
  0
ARC
  5
3C1
100
AcDbEntity
  8
RUNDUNGEN
100
AcDbCircle
 62
7
  6
CONTINUOUS
 10
58.8163312862
 20
77.6744827023
 40
5.0
100
AcDbArc
 50
70.2500772044
 51
90.0
  0
ARC
  5
3C2
100
AcDbEntity
  8
RUNDUNGEN
100
AcDbCircle
 62
7
  6
CONTINUOUS
 10
71.2891445189
 20
116.5660751344
 40
5.0
100
AcDbArc
 50
67.975687163
 51
90.0
  0
ARC
  5
3C3
100
AcDbEntity
  8
RUNDUNGEN
100
AcDbCircle
 62
7
  6
CONTINUOUS
 10
71.2891210426
 20
75.1407959397
 40
4.9999762087
100
AcDbArc
 50
41.4092122604
 51
83.1966418135
  0
ARC
  5
3C4
100
AcDbEntity
  8
RUNDUNGEN
100
AcDbCircle
 62
7
  6
CONTINUOUS
 10
72.0391445189
 20
118.4201247562
 40
3.0
100
AcDbArc
 50
0.0
 51
67.975687163
  0
ARC
  5
3C5
100
AcDbEntity
  8
RUNDUNGEN
100
AcDbCircle
 62
7
  6
CONTINUOUS
 10
72.1891445189
 20
76.0283068324
 40
3.0
100
AcDbArc
 50
0.0
 51
63.2563160496
  0
ARC
  5
3C6
100
AcDbEntity
  8
0
100
AcDbCircle
 62
7
  6
CONTINUOUS
 10
103.0728370011
 20
-1297.1362212307
 40
1407.5420343735
100
AcDbArc
 50
91.3070786134
 51
91.7112890607
  0
ARC
  5
3C7
100
AcDbEntity
  8
RUNDUNGEN
100
AcDbCircle
 62
7
  6
CONTINUOUS
 10
87.5391445189
 20
-54.3255172977
 40
80.0
100
AcDbArc
 50
101.0214496355
 51
109.7499227956
  0
ARC
  5
3C8
100
AcDbEntity
  8
KONSTRUKTIONSELEMENTE
100
AcDbCircle
 62
7
  6
CONTINUOUS
 10
87.5391445189
 20
-54.3255172977
 40
80.0
100
AcDbArc
 50
101.0214496355
 51
109.7499227956
  0
ARC
  5
3C9
100
AcDbEntity
  8
0
100
AcDbCircle
 62
7
  6
CONTINUOUS
 10
87.5391445189
 20
-54.3255172977
 40
80.0
100
AcDbArc
 50
70.2500772044
 51
78.9785503645
  0
ARC
  5
3CA
100
AcDbEntity
  8
RUNDUNGEN
100
AcDbCircle
 62
7
  6
CONTINUOUS
 10
103.7891445189
 20
25.6744827023
 40
5.0
100
AcDbArc
 50
243.2563160496
 51
270.0000287361
  0
ARC
  5
3CB
100
AcDbEntity
  8
RUNDUNGEN
100
AcDbCircle
 62
7
  6
CONTINUOUS
 10
103.7891445189
 20
29.1067156821
 40
5.0
100
AcDbArc
 50
243.2563160496
 51
258.9785503645
  0
ARC
  5
3CC
100
AcDbEntity
  8
RUNDUNGEN
100
AcDbCircle
 62
7
  6
CONTINUOUS
 10
102.8891445189
 20
23.8884255923
 40
3.0
100
AcDbArc
 50
180.0
 51
243.2563160496
  0
ARC
  5
3CD
100
AcDbEntity
  8
RUNDUNGEN
100
AcDbCircle
 62
7
  6
CONTINUOUS
 10
102.8891445189
 20
27.3206585722
 40
3.0
100
AcDbArc
 50
180.0
 51
243.2563160496
  0
ARC
  5
3CE
100
AcDbEntity
  8
RUNDUNGEN
100
AcDbCircle
 62
7
  6
CONTINUOUS
 10
87.5391445189
 20
157.6744827023
 40
80.0
100
AcDbArc
 50
250.2500772044
 51
258.9785503645
  0
ARC
  5
3CF
100
AcDbEntity
  8
0
100
AcDbCircle
 62
7
  6
CONTINUOUS
 10
87.5391445189
 20
157.6744827023
 40
80.0
100
AcDbArc
 50
281.0214496355
 51
289.7499227956
  0
ARC
  5
3D0
100
AcDbEntity
  8
RUNDUNGEN
100
AcDbCircle
 62
7
  6
CONTINUOUS
 10
103.847501663
 20
71.2919179078
 40
5.0583643755
100
AcDbArc
 50
177.7117439005
 51
178.8795458367
  0
ARC
  5
3D1
100
AcDbEntity
  8
RUNDUNGEN
100
AcDbCircle
 62
7
  6
CONTINUOUS
 10
103.8098609885
 20
71.2926438963
 40
5.0207167018
100
AcDbArc
 50
178.879429551
 51
179.9825729402
  0
ARC
  5
3D2
100
AcDbEntity
  8
0
100
AcDbCircle
 62
7
  6
CONTINUOUS
 10
103.7891445189
 20
74.2422497225
 40
5.0
100
AcDbArc
 50
101.0214496355
 51
116.7436839504
  0
ARC
  5
3D3
100
AcDbEntity
  8
0
100
AcDbCircle
 62
7
  6
CONTINUOUS
 10
103.7891445189
 20
116.5660751344
 40
5.0
100
AcDbArc
 50
90.0
 51
112.024312837
  0
ARC
  5
3D4
100
AcDbEntity
  8
RUNDUNGEN
100
AcDbCircle
 62
7
  6
CONTINUOUS
 10
103.7891445189
 20
74.2422497225
 40
5.0
100
AcDbArc
 50
101.0214496355
 51
116.7436839504
  0
ARC
  5
3D5
100
AcDbEntity
  8
0
100
AcDbCircle
 62
7
  6
CONTINUOUS
 10
103.7891679952
 20
75.1407959397
 40
4.9999762087
100
AcDbArc
 50
96.8033581865
 51
138.5907877396
  0
ARC
  5
3D6
100
AcDbEntity
  8
RUNDUNGEN
100
AcDbCircle
 62
7
  6
CONTINUOUS
 10
103.0391445189
 20
118.4201247562
 40
3.0
100
AcDbArc
 50
112.024312837
 51
180.0
  0
ARC
  5
3D7
100
AcDbEntity
  8
RUNDUNGEN
100
AcDbCircle
 62
7
  6
CONTINUOUS
 10
102.8891445189
 20
76.0283068324
 40
3.0
100
AcDbArc
 50
116.7436839504
 51
180.0
  0
ARC
  5
3D8
100
AcDbEntity
  8
0
100
AcDbCircle
 62
7
  6
CONTINUOUS
 10
141.2591445189
 20
25.6744827023
 40
5.0
100
AcDbArc
 50
270.0
 51
360.0
  0
ARC
  5
3D9
100
AcDbEntity
  8
0
100
AcDbCircle
 62
7
  6
CONTINUOUS
 10
116.2619577516
 20
25.6744827023
 40
5.0
100
AcDbArc
 50
250.2500772044
 51
270.0
  0
ARC
  5
3DA
100
AcDbEntity
  8
0
100
AcDbCircle
 62
7
  6
CONTINUOUS
 10
133.5391445189
 20
25.6744827023
 40
5.0
100
AcDbArc
 50
270.0
 51
360.0
  0
ARC
  5
3DB
100
AcDbEntity
  8
0
100
AcDbCircle
 62
7
  6
CONTINUOUS
 10
116.2619577516
 20
77.6744827023
 40
5.0
100
AcDbArc
 50
90.0
 51
109.7499227956
  0
ARC
  5
3DC
100
AcDbEntity
  8
0
100
AcDbCircle
 62
7
  6
CONTINUOUS
 10
133.5391445189
 20
77.6744827023
 40
5.0
100
AcDbArc
 50
0.0
 51
90.0
  0
SPLINE
  5
3DD
100
AcDbEntity
  8
RUNDUNGEN
100
AcDbSpline
 62
7
  6
CONTINUOUS
 70
0
 71
3
 72
15
 73
11
 74
0
 42
0.0000001
 43
0.0000001
 44
0.0000000001
 40
0.0
 40
0.0
 40
0.0
 40
0.0
 40
0.113751981
 40
0.2316544113
 40
0.353668659
 40
0.4792933679
 40
0.6076421747
 40
0.7377135628
 40
0.8686804856
 40
1.0
 40
1.0
 40
1.0
 40
1.0
 10
76.28914452
 20
215.0889952582
 30
0.0
 10
76.2891508569
 20
215.5858832691
 30
0.0
 10
76.3641080352
 20
216.5995188224
 30
0.0
 10
76.7203228157
 20
218.109703107
 30
0.0
 10
77.351750491
 20
219.5858472589
 30
0.0
 10
78.2753367841
 20
220.9567203357
 30
0.0
 10
79.4830654258
 20
222.1387407303
 30
0.0
 10
80.9360681885
 20
223.0492835286
 30
0.0
 10
82.5657957439
 20
223.6225659413
 30
0.0
 10
83.7157045108
 20
223.7528065434
 30
0.0
 10
84.289330497
 20
223.7528130862
 30
0.0
  0
SPLINE
  5
3DE
100
AcDbEntity
  8
RUNDUNGEN
100
AcDbSpline
 62
7
  6
CONTINUOUS
 70
0
 71
3
 72
15
 73
11
 74
0
 42
0.0000001
 43
0.0000001
 44
0.0000000001
 40
0.0
 40
0.0
 40
0.0
 40
0.0
 40
0.1313195146
 40
0.2622864375
 40
0.3923578259
 40
0.5207066329
 40
0.6463313419
 40
0.768345589
 40
0.886248022
 40
1.0
 40
1.0
 40
1.0
 40
1.0
 10
90.7889585518
 20
223.7528130862
 30
0.0
 10
91.3625845387
 20
223.7528065436
 30
0.0
 10
92.5124933069
 20
223.6225659382
 30
0.0
 10
94.1422208635
 20
223.0492835221
 30
0.0
 10
95.5952236257
 20
222.1387407192
 30
0.0
 10
96.8029522682
 20
220.9567203209
 30
0.0
 10
97.7265385495
 20
219.585847241
 30
0.0
 10
98.3579662499
 20
218.1097030835
 30
0.0
 10
98.7141809592
 20
216.5995187959
 30
0.0
 10
98.7891382477
 20
215.5858832462
 30
0.0
 10
98.7891445178
 20
215.0889952485
 30
0.0
  0
SPLINE
  5
3DF
100
AcDbEntity
  8
0
100
AcDbSpline
 62
7
  6
CONTINUOUS
 70
0
 71
3
 72
11
 73
7
 74
0
 42
0.0000001
 43
0.0000001
 44
0.0000000001
 40
0.0
 40
0.0
 40
0.0
 40
0.0
 40
0.267875971
 40
0.5277370205
 40
0.773649875
 40
1.0
 40
1.0
 40
1.0
 40
1.0
 10
432.1408944267
 20
262.0981199725
 30
0.0
 10
432.1411712261
 20
261.5731874732
 30
0.0
 10
432.1471265669
 20
260.5390414041
 30
0.0
 10
432.1526191199
 20
259.0229925298
 30
0.0
 10
432.1476732155
 20
257.5883162362
 30
0.0
 10
432.1411879077
 20
256.6628813243
 30
0.0
 10
432.1408944184
 20
256.219323334
 30
0.0
  0
SPLINE
  5
3E0
100
AcDbEntity
  8
0
100
AcDbSpline
 62
7
  6
CONTINUOUS
 70
0
 71
3
 72
13
 73
9
 74
0
 42
0.0000001
 43
0.0000001
 44
0.0000000001
 40
0.0
 40
0.0
 40
0.0
 40
0.0
 40
0.0852361305
 40
0.1850407485
 40
0.298255425
 40
0.4230308313
 40
0.6993716814
 40
1.0
 40
1.0
 40
1.0
 40
1.0
 10
433.9099298319
 20
252.0869026869
 30
0.0
 10
434.1195833077
 20
252.0869519925
 30
0.0
 10
434.5744733654
 20
252.1285537533
 30
0.0
 10
435.295953136
 20
252.2627819304
 30
0.0
 10
436.1047509677
 20
252.4539134184
 30
0.0
 10
437.329922673
 20
252.7690357254
 30
0.0
 10
439.0025881746
 20
253.195498543
 30
0.0
 10
440.3964238179
 20
253.4705488653
 30
0.0
 10
441.1273143683
 20
253.5827266943
 30
0.0
  0
LINE
  5
3E1
100
AcDbEntity
  8
0
100
AcDbLine
 62
7
  6
CONTINUOUS
 10
441.1273143683
 20
253.5827266943
 11
441.1573280998
 21
253.5873153284
  0
SPLINE
  5
3E2
100
AcDbEntity
  8
RUNDUNGEN
100
AcDbSpline
 62
7
  6
CONTINUOUS
 70
0
 71
3
 72
12
 73
8
 74
0
 42
0.0000001
 43
0.0000001
 44
0.0000000001
 40
0.0
 40
0.0
 40
0.0
 40
0.0
 40
0.321897169
 40
0.5668605511
 40
0.671382585
 40
0.7731329033
 40
1.0
 40
1.0
 40
1.0
 40
1.0
 10
444.1408937566
 20
252.4696373098
 30
0.0
 10
444.1408937566
 20
252.4135169684
 30
0.0
 10
444.1356223607
 20
252.3145967032
 30
0.0
 10
444.0991196091
 20
252.2000335108
 30
0.0
 10
444.0484637678
 20
252.1385311483
 30
0.0
 10
443.9849250939
 20
252.0958267713
 30
0.0
 10
443.9254418387
 20
252.0868496824
 30
0.0
 10
443.8858893238
 20
252.086913092
 30
0.0
  0
SPLINE
  5
3E3
100
AcDbEntity
  8
0
100
AcDbSpline
 62
7
  6
CONTINUOUS
 70
0
 71
3
 72
15
 73
11
 74
0
 42
0.0000001
 43
0.0000001
 44
0.0000000001
 40
0.0
 40
0.0
 40
0.0
 40
0.0
 40
0.1207206513
 40
0.239298254
 40
0.3569250151
 40
0.4753386377
 40
0.5967346349
 40
0.7234552148
 40
0.8574846935
 40
1.0
 40
1.0
 40
1.0
 40
1.0
 10
472.6408992205
 20
280.0361811841
 30
0.0
 10
472.6407155437
 20
279.6098006
 30
0.0
 10
472.5756859914
 20
278.7628396547
 30
0.0
 10
472.2685955793
 20
277.5337211817
 30
0.0
 10
471.7447006234
 20
276.3875539324
 30
0.0
 10
470.9985615654
 20
275.3583599524
 30
0.0
 10
470.0322038984
 20
274.4828828286
 30
0.0
 10
468.8591899201
 20
273.796621366
 30
0.0
 10
467.5061345479
 20
273.3268129771
 30
0.0
 10
466.5366408095
 20
273.1716923767
 30
0.0
 10
466.035109808
 20
273.128838809
 30
0.0
  0
SPLINE
  5
3E4
100
AcDbEntity
  8
0
100
AcDbSpline
 62
7
  6
CONTINUOUS
 70
0
 71
3
 72
10
 73
6
 74
0
 42
0.0000001
 43
0.0000001
 44
0.0000000001
 40
0.0
 40
0.0
 40
0.0
 40
0.0
 40
0.2312139906
 40
0.4780367239
 40
1.0
 40
1.0
 40
1.0
 40
1.0
 10
466.035109808
 20
273.128838809
 30
0.0
 10
465.428307029
 20
273.0769902414
 30
0.0
 10
464.1705874666
 20
273.0047844801
 30
0.0
 10
461.5362249234
 20
272.9737564034
 30
0.0
 10
459.5111752503
 20
273.0725291858
 30
0.0
 10
458.1408937566
 20
273.184427049
 30
0.0
  0
SPLINE
  5
3E5
100
AcDbEntity
  8
RUNDUNGEN
100
AcDbSpline
 62
7
  6
CONTINUOUS
 70
0
 71
3
 72
11
 73
7
 74
0
 42
0.0000001
 43
0.0000001
 44
0.0000000001
 40
0.0
 40
0.0
 40
0.0
 40
0.0
 40
0.2346889319
 40
0.4723695143
 40
0.7245424436
 40
1.0
 40
1.0
 40
1.0
 40
1.0
 10
442.5514391142
 20
272.4536693266
 30
0.0
 10
442.7354584855
 20
272.3410969458
 30
0.0
 10
443.0832217778
 20
272.0738270105
 30
0.0
 10
443.5045930203
 20
271.5504244593
 30
0.0
 10
443.8150054705
 20
270.9136612856
 30
0.0
 10
443.9443733589
 20
270.4437395276
 30
0.0
 10
443.9951920184
 20
270.1956968805
 30
0.0
  0
SPLINE
  5
3E6
100
AcDbEntity
  8
RUNDUNGEN
100
AcDbSpline
 62
7
  6
CONTINUOUS
 70
0
 71
3
 72
9
 73
5
 74
0
 42
0.0000001
 43
0.0000001
 44
0.0000000001
 40
0.0
 40
0.0
 40
0.0
 40
0.0
 40
0.4787995947
 40
1.0
 40
1.0
 40
1.0
 40
1.0
 10
443.9951920184
 20
270.1956968805
 30
0.0
 10
444.048772258
 20
269.934175136
 30
0.0
 10
444.1222808289
 20
269.3799477599
 30
0.0
 10
444.1408937566
 20
268.8221051216
 30
0.0
 10
444.1408937566
 20
268.5315105583
 30
0.0
  0
SPLINE
  5
3E7
100
AcDbEntity
  8
0
100
AcDbSpline
 62
7
  6
CONTINUOUS
 70
0
 71
3
 72
15
 73
11
 74
0
 42
0.0000001
 43
0.0000001
 44
0.0000000001
 40
0.0
 40
0.0
 40
0.0
 40
0.0
 40
0.1425116043
 40
0.2765406774
 40
0.4032621125
 40
0.5246590702
 40
0.6430733682
 40
0.7607007157
 40
0.8792788442
 40
1.0
 40
1.0
 40
1.0
 40
1.0
 10
397.2466777053
 20
273.128838809
 30
0.0
 10
396.7451605906
 20
273.1716911901
 30
0.0
 10
395.7756833998
 20
273.3268097762
 30
0.0
 10
394.4226382213
 20
273.7966039001
 30
0.0
 10
393.2496171801
 20
274.4828587261
 30
0.0
 10
392.2832481787
 20
275.3583333761
 30
0.0
 10
391.5371009314
 20
276.387528691
 30
0.0
 10
391.0131997321
 20
277.5336978008
 30
0.0
 10
390.7061053384
 20
278.762818913
 30
0.0
 10
390.6410724576
 20
279.6097819068
 30
0.0
 10
390.6408885356
 20
280.0361635427
 30
0.0
  0
SPLINE
  5
3E8
100
AcDbEntity
  8
0
100
AcDbSpline
 62
7
  6
CONTINUOUS
 70
0
 71
3
 72
10
 73
6
 74
0
 42
0.0000001
 43
0.0000001
 44
0.0000000001
 40
0.0
 40
0.0
 40
0.0
 40
0.0
 40
0.2312139906
 40
0.4780367239
 40
1.0
 40
1.0
 40
1.0
 40
1.0
 10
397.2466777053
 20
273.128838809
 30
0.0
 10
397.8534804843
 20
273.0769902414
 30
0.0
 10
399.1112000467
 20
273.0047844801
 30
0.0
 10
401.7455625899
 20
272.9737564034
 30
0.0
 10
403.7706122629
 20
273.0725291858
 30
0.0
 10
405.1408937566
 20
273.184427049
 30
0.0
  0
SPLINE
  5
3E9
100
AcDbEntity
  8
RUNDUNGEN
100
AcDbSpline
 62
7
  6
CONTINUOUS
 70
0
 71
3
 72
9
 73
5
 74
0
 42
0.0000001
 43
0.0000001
 44
0.0000000001
 40
0.0
 40
0.0
 40
0.0
 40
0.0
 40
0.2319539518
 40
1.0
 40
1.0
 40
1.0
 40
1.0
 10
442.5514391142
 20
272.4536693266
 30
0.0
 10
442.4536388602
 20
272.513497851
 30
0.0
 10
442.0255021403
 20
272.7607978932
 30
0.0
 10
441.5754327519
 20
272.9688236384
 30
0.0
 10
441.2239853655
 20
273.112350444
 30
0.0
  0
SPLINE
  5
3EA
100
AcDbEntity
  8
RUNDUNGEN
100
AcDbSpline
 62
7
  6
CONTINUOUS
 70
0
 71
3
 72
11
 73
7
 74
0
 42
0.0000001
 43
0.0000001
 44
0.0000000001
 40
0.0
 40
0.0
 40
0.0
 40
0.0
 40
0.2448059955
 40
0.4921999257
 40
0.7438643624
 40
1.0
 40
1.0
 40
1.0
 40
1.0
 10
444.1408937566
 20
270.940622462
 30
0.0
 10
444.1408937565
 20
271.2197022095
 30
0.0
 10
444.2302695262
 20
271.7846567251
 30
0.0
 10
444.6196854698
 20
272.5525572218
 30
0.0
 10
445.2284781942
 20
273.178740711
 30
0.0
 10
445.7431388488
 20
273.4638992249
 30
0.0
 10
446.0158937644
 20
273.5681401754
 30
0.0
  0
SPLINE
  5
3EB
100
AcDbEntity
  8
RUNDUNGEN
100
AcDbSpline
 62
7
  6
CONTINUOUS
 70
0
 71
3
 72
11
 73
7
 74
0
 42
0.0000001
 43
0.0000001
 44
0.0000000001
 40
0.0
 40
0.0
 40
0.0
 40
0.0
 40
0.2561356376
 40
0.5078000743
 40
0.7551940045
 40
1.0
 40
1.0
 40
1.0
 40
1.0
 10
417.2658937461
 20
273.5681401768
 30
0.0
 10
417.5386486615
 20
273.463899226
 30
0.0
 10
418.0533093127
 20
273.1787407064
 30
0.0
 10
418.6621020389
 20
272.5525572203
 30
0.0
 10
419.0515179842
 20
271.7846567245
 30
0.0
 10
419.1408937561
 20
271.2197022094
 30
0.0
 10
419.1408937566
 20
270.940622462
 30
0.0
  0
SPLINE
  5
3EC
100
AcDbEntity
  8
0
100
AcDbSpline
 62
7
  6
CONTINUOUS
 70
0
 71
3
 72
20
 73
16
 74
0
 42
0.0000001
 43
0.0000001
 44
0.0000000001
 40
0.0
 40
0.0
 40
0.0
 40
0.0
 40
0.1066889534
 40
0.217814316
 40
0.2750907807
 40
0.3334081891
 40
0.392767445
 40
0.4532454327
 40
0.515039029
 40
0.5784591938
 40
0.6438381084
 40
0.7113769166
 40
0.7810509302
 40
0.8526272384
 40
1.0
 40
1.0
 40
1.0
 40
1.0
 10
390.6408885356
 20
280.0361635427
 30
0.0
 10
390.6405831182
 20
280.7442047972
 30
0.0
 10
390.8233937768
 20
282.1937780029
 30
0.0
 10
391.4570233143
 20
283.9226036311
 30
0.0
 10
392.2055908712
 20
285.2311486913
 30
0.0
 10
392.9002826273
 20
286.1653087971
 30
0.0
 10
393.7248240042
 20
287.0176642212
 30
0.0
 10
394.6808107587
 20
287.7592133457
 30
0.0
 10
395.7647715451
 20
288.3567140876
 30
0.0
 10
396.9635047278
 20
288.7784630338
 30
0.0
 10
398.2523639691
 20
289.0045861753
 30
0.0
 10
399.6009386224
 20
289.0350953267
 30
0.0
 10
400.981929302
 20
288.8879028278
 30
0.0
 10
402.8573135492
 20
288.4861941293
 30
0.0
 10
404.2349103223
 20
288.005578432
 30
0.0
 10
405.1408937566
 20
287.6371287443
 30
0.0
  0
SPLINE
  5
3ED
100
AcDbEntity
  8
0
100
AcDbSpline
 62
7
  6
CONTINUOUS
 70
0
 71
3
 72
9
 73
5
 74
0
 42
0.0000001
 43
0.0000001
 44
0.0000000001
 40
0.0
 40
0.0
 40
0.0
 40
0.0
 40
0.5010141657
 40
1.0
 40
1.0
 40
1.0
 40
1.0
 10
447.1953139186
 20
284.7928684067
 30
0.0
 10
449.0655347848
 20
285.0781031784
 30
0.0
 10
452.7780894263
 20
285.7943510307
 30
0.0
 10
456.3955213663
 20
286.9273123307
 30
0.0
 10
458.1408937566
 20
287.6371287443
 30
0.0
  0
SPLINE
  5
3EE
100
AcDbEntity
  8
0
100
AcDbSpline
 62
7
  6
CONTINUOUS
 70
0
 71
3
 72
20
 73
16
 74
0
 42
0.0000001
 43
0.0000001
 44
0.0000000001
 40
0.0
 40
0.0
 40
0.0
 40
0.0
 40
0.1473727304
 40
0.2189490729
 40
0.2886230808
 40
0.3561618755
 40
0.4215407658
 40
0.4849608939
 40
0.5467544433
 40
0.6072323852
 40
0.6665916385
 40
0.7249091793
 40
0.7821856489
 40
0.8933110231
 40
1.0
 40
1.0
 40
1.0
 40
1.0
 10
458.1408937566
 20
287.6371287443
 30
0.0
 10
459.046876186
 20
288.0055780233
 30
0.0
 10
460.4244717826
 20
288.4861930187
 30
0.0
 10
462.2998540879
 20
288.8879024745
 30
0.0
 10
463.6808436046
 20
289.0350951479
 30
0.0
 10
465.0294167429
 20
289.0045867848
 30
0.0
 10
466.3182745333
 20
288.7784650071
 30
0.0
 10
467.5170062412
 20
288.3567175447
 30
0.0
 10
468.6009660738
 20
287.7592191894
 30
0.0
 10
469.5569526835
 20
287.0176728988
 30
0.0
 10
470.3814970115
 20
286.1653209051
 30
0.0
 10
471.0761880839
 20
285.2311603213
 30
0.0
 10
471.8247565161
 20
283.9226163579
 30
0.0
 10
472.4583903011
 20
282.193793972
 30
0.0
 10
472.6412042314
 20
280.7442219596
 30
0.0
 10
472.6408992205
 20
280.0361811841
 30
0.0
  0
LINE
  5
3EF
100
AcDbEntity
  8
RUNDUNGEN
100
AcDbLine
 62
7
  6
CONTINUOUS
 10
441.1728605975
 20
253.407337657
 11
441.1573280998
 21
253.4057998243
  0
SPLINE
  5
3F0
100
AcDbEntity
  8
0
100
AcDbSpline
 62
7
  6
CONTINUOUS
 70
0
 71
3
 72
21
 73
17
 74
0
 42
0.0000001
 43
0.0000001
 44
0.0000000001
 40
0.0
 40
0.0
 40
0.0
 40
0.0
 40
0.1346006936
 40
0.1979894085
 40
0.2584758182
 40
0.3161329846
 40
0.3714007634
 40
0.4251834448
 40
0.4788259152
 40
0.5338661849
 40
0.5916169879
 40
0.6528244055
 40
0.717585849
 40
0.7854840736
 40
0.855787439
 40
1.0
 40
1.0
 40
1.0
 40
1.0
 10
441.1573280998
 20
272.9578293567
 30
0.0
 10
440.4083005937
 20
272.9232177722
 30
0.0
 10
439.3063957794
 20
272.8469834956
 30
0.0
 10
437.8818335483
 20
272.6311618901
 30
0.0
 10
436.8949521724
 20
272.404626155
 30
0.0
 10
435.9779788805
 20
272.094013028
 30
0.0
 10
435.1418549852
 20
271.6823371513
 30
0.0
 10
434.3995037571
 20
271.1545887527
 30
0.0
 10
433.7648103574
 20
270.5021487831
 30
0.0
 10
433.2475497555
 20
269.7268914539
 30
0.0
 10
432.8479714541
 20
268.8397453717
 30
0.0
 10
432.5568171524
 20
267.8560672811
 30
0.0
 10
432.3589571154
 20
266.7929373727
 30
0.0
 10
432.2363952514
 20
265.6682030818
 30
0.0
 10
432.148047968
 20
264.0969748875
 30
0.0
 10
432.1404708048
 20
262.9014919249
 30
0.0
 10
432.1408944267
 20
262.0981199725
 30
0.0
  0
SPLINE
  5
3F1
100
AcDbEntity
  8
0
100
AcDbSpline
 62
7
  6
CONTINUOUS
 70
0
 71
3
 72
9
 73
5
 74
0
 42
0.0000001
 43
0.0000001
 44
0.0000000001
 40
0.0
 40
0.0
 40
0.0
 40
0.0
 40
0.4989856839
 40
1.0
 40
1.0
 40
1.0
 40
1.0
 10
405.1408937566
 20
287.6371287443
 30
0.0
 10
406.8862656215
 20
286.9273125444
 30
0.0
 10
410.5036975138
 20
285.7943511131
 30
0.0
 10
414.2162521663
 20
285.0781032642
 30
0.0
 10
416.0864735947
 20
284.7928684067
 30
0.0
  0
SPLINE
  5
3F2
100
AcDbEntity
  8
0
100
AcDbSpline
 62
7
  6
CONTINUOUS
 70
0
 71
3
 72
11
 73
7
 74
0
 42
0.0000001
 43
0.0000001
 44
0.0000000001
 40
0.0
 40
0.0
 40
0.0
 40
0.0
 40
0.2463183601
 40
0.4952319004
 40
0.7466346628
 40
1.0
 40
1.0
 40
1.0
 40
1.0
 10
444.1408937566
 20
283.0290747414
 30
0.0
 10
444.3298704599
 20
283.2564410413
 30
0.0
 10
444.7486764212
 20
283.6828806577
 30
0.0
 10
445.4806390213
 20
284.2077435463
 30
0.0
 10
446.3032426106
 20
284.596037804
 30
0.0
 10
446.8946841533
 20
284.7470181737
 30
0.0
 10
447.1953139186
 20
284.7928684067
 30
0.0
  0
SPLINE
  5
3F3
100
AcDbEntity
  8
0
100
AcDbSpline
 62
7
  6
CONTINUOUS
 70
0
 71
3
 72
11
 73
7
 74
0
 42
0.0000001
 43
0.0000001
 44
0.0000000001
 40
0.0
 40
0.0
 40
0.0
 40
0.0
 40
0.2491391743
 40
0.5000000228
 40
0.7508609162
 40
1.0
 40
1.0
 40
1.0
 40
1.0
 10
428.2358689209
 20
314.8608258503
 30
0.0
 10
428.7798924508
 20
315.0486697621
 30
0.0
 10
429.9045327693
 20
315.3376410119
 30
0.0
 10
431.640894011
 20
315.4846052028
 30
0.0
 10
433.3772550972
 20
315.3376410537
 30
0.0
 10
434.5018951917
 20
315.0486694958
 30
0.0
 10
435.0459185923
 20
314.8608258503
 30
0.0
  0
SPLINE
  5
3F4
100
AcDbEntity
  8
0
100
AcDbSpline
 62
7
  6
CONTINUOUS
 70
0
 71
3
 72
11
 73
7
 74
0
 42
0.0000001
 43
0.0000001
 44
0.0000000001
 40
0.0
 40
0.0
 40
0.0
 40
0.0
 40
0.253365269
 40
0.5047681753
 40
0.7536817756
 40
1.0
 40
1.0
 40
1.0
 40
1.0
 10
416.0864735947
 20
284.7928684067
 30
0.0
 10
416.3871032788
 20
284.747018186
 30
0.0
 10
416.9785449035
 20
284.5960377859
 30
0.0
 10
417.8011486568
 20
284.2077434811
 30
0.0
 10
418.5331112823
 20
283.6828804809
 30
0.0
 10
418.9519171576
 20
283.2564409158
 30
0.0
 10
419.1408937566
 20
283.0290747414
 30
0.0
  0
SPLINE
  5
3F5
100
AcDbEntity
  8
0
100
AcDbSpline
 62
7
  6
CONTINUOUS
 70
0
 71
3
 72
27
 73
23
 74
0
 42
0.0000001
 43
0.0000001
 44
0.0000000001
 40
0.0
 40
0.0
 40
0.0
 40
0.0
 40
0.1443207353
 40
0.2876027256
 40
0.4294513498
 40
0.5690636459
 40
0.6375477106
 40
0.7046410119
 40
0.7696074426
 40
0.8008967652
 40
0.8310322987
 40
0.8595745131
 40
0.8858468958
 40
0.9088512563
 40
0.9187726964
 40
0.927475435
 40
0.9350475895
 40
0.9418957002
 40
0.9563485918
 40
0.965373266
 40
0.9757478685
 40
1.0
 40
1.0
 40
1.0
 40
1.0
 10
419.1408937566
 20
309.3099589799
 30
0.0
 10
419.1408937566
 20
309.5902362014
 30
0.0
 10
419.1489906848
 20
310.148813055
 30
0.0
 10
419.1874117691
 20
310.9820926192
 30
0.0
 10
419.2544641867
 20
311.8044132199
 30
0.0
 10
419.3375867224
 20
312.4792026824
 30
0.0
 10
419.424305685
 20
313.0066264175
 30
0.0
 10
419.5000603895
 20
313.3887298428
 30
0.0
 10
419.5746841543
 20
313.6972160785
 30
0.0
 10
419.6432018847
 20
313.9329654951
 30
0.0
 10
419.6983753725
 20
314.0987944163
 30
0.0
 10
419.758359372
 20
314.2526129362
 30
0.0
 10
419.8234088127
 20
314.3891375761
 30
0.0
 10
419.8843732735
 20
314.4873124429
 30
0.0
 10
419.9378566465
 20
314.5482224296
 30
0.0
 10
419.9772999148
 20
314.5808590908
 30
0.0
 10
420.0181680391
 20
314.6008037268
 30
0.0
 10
420.0755429591
 20
314.6071526518
 30
0.0
 10
420.1305267818
 20
314.5736744091
 30
0.0
 10
420.1710605153
 20
314.522210555
 30
0.0
 10
420.2135291415
 20
314.4483870719
 30
0.0
 10
420.2368692688
 20
314.3849325943
 30
0.0
 10
420.251058862
 20
314.3400221984
 30
0.0
  0
SPLINE
  5
3F6
100
AcDbEntity
  8
0
100
AcDbSpline
 62
7
  6
CONTINUOUS
 70
0
 71
3
 72
28
 73
24
 74
0
 42
0.0000001
 43
0.0000001
 44
0.0000000001
 40
0.0
 40
0.0
 40
0.0
 40
0.0
 40
0.0242559314
 40
0.0346307578
 40
0.0436617336
 40
0.0514093765
 40
0.0583167722
 40
0.0651647947
 40
0.0727393217
 40
0.0814493784
 40
0.0913641854
 40
0.1143731683
 40
0.1406447246
 40
0.1691785043
 40
0.1993058466
 40
0.2305915004
 40
0.2955415411
 40
0.3626182208
 40
0.4310850356
 40
0.5706622591
 40
0.7124739478
 40
0.8557182723
 40
1.0
 40
1.0
 40
1.0
 40
1.0
 10
443.0307193158
 20
314.3399996493
 30
0.0
 10
443.0449139859
 20
314.3849263827
 30
0.0
 10
443.0683522251
 20
314.4484344304
 30
0.0
 10
443.1106123274
 20
314.5222193842
 30
0.0
 10
443.1437900462
 20
314.5635990475
 30
0.0
 10
443.1806275915
 20
314.5922478988
 30
0.0
 10
443.221445312
 20
314.6052648667
 30
0.0
 10
443.2637390251
 20
314.600919989
 30
0.0
 10
443.3045951662
 20
314.5807076486
 30
0.0
 10
443.3440488572
 20
314.5481239168
 30
0.0
 10
443.3975398765
 20
314.4871565809
 30
0.0
 10
443.4584773788
 20
314.3889584634
 30
0.0
 10
443.5235086998
 20
314.2523961595
 30
0.0
 10
443.5834879526
 20
314.098577676
 30
0.0
 10
443.6386611162
 20
313.9327514417
 30
0.0
 10
443.7071510309
 20
313.6969984505
 30
0.0
 10
443.7817784717
 20
313.3885194759
 30
0.0
 10
443.8575182411
 20
313.006430324
 30
0.0
 10
443.9442273015
 20
312.4790289894
 30
0.0
 10
444.0273352941
 20
311.8042709966
 30
0.0
 10
444.0943829344
 20
310.9819929484
 30
0.0
 10
444.1327976571
 20
310.1487615502
 30
0.0
 10
444.1408937566
 20
309.5902183149
 30
0.0
 10
444.1408937566
 20
309.3099589799
 30
0.0
  0
SPLINE
  5
3F7
100
AcDbEntity
  8
0
100
AcDbSpline
 62
7
  6
CONTINUOUS
 70
0
 71
3
 72
19
 73
15
 74
0
 42
0.0000001
 43
0.0000001
 44
0.0000000001
 40
0.0
 40
0.0
 40
0.0
 40
0.0
 40
0.0517603406
 40
0.0739433214
 40
0.0948278941
 40
0.1359241188
 40
0.1796393672
 40
0.2275523106
 40
0.2799912903
 40
0.397907724
 40
0.531511402
 40
0.6783231378
 40
0.8355317889
 40
1.0
 40
1.0
 40
1.0
 40
1.0
 10
420.251058862
 20
314.3400221984
 30
0.0
 10
420.2955562324
 20
314.1991869746
 30
0.0
 10
420.3816930785
 20
314.0015019722
 30
0.0
 10
420.556119453
 20
313.792688847
 30
0.0
 10
420.7431083234
 20
313.6397745878
 30
0.0
 10
421.0235389437
 20
313.5155621551
 30
0.0
 10
421.3983345179
 20
313.4495358638
 30
0.0
 10
421.8099704274
 20
313.4351384037
 30
0.0
 10
422.4324045641
 20
313.4677070938
 30
0.0
 10
423.2928647976
 20
313.5850794855
 30
0.0
 10
424.4095172945
 20
313.798206244
 30
0.0
 10
425.6263275205
 20
314.0803819362
 30
0.0
 10
426.9168397775
 20
314.4302974635
 30
0.0
 10
427.7922675554
 20
314.7076560339
 30
0.0
 10
428.2358761822
 20
314.860828048
 30
0.0
  0
SPLINE
  5
3F8
100
AcDbEntity
  8
RUNDUNGEN
100
AcDbSpline
 62
7
  6
CONTINUOUS
 70
0
 71
3
 72
11
 73
7
 74
0
 42
0.0000001
 43
0.0000001
 44
0.0000000001
 40
0.0
 40
0.0
 40
0.0
 40
0.0
 40
0.1522553699
 40
0.3692774334
 40
0.6531400047
 40
1.0
 40
1.0
 40
1.0
 40
1.0
 10
443.8858893238
 20
252.086913092
 30
0.0
 10
443.8104115029
 20
252.0870340962
 30
0.0
 10
443.6295334584
 20
252.1338416898
 30
0.0
 10
443.3347467274
 20
252.2663463502
 30
0.0
 10
442.9659231621
 20
252.4692150945
 30
0.0
 10
442.698119507
 20
252.6303937312
 30
0.0
 10
442.5514391142
 20
252.7201242901
 30
0.0
  0
SPLINE
  5
3F9
100
AcDbEntity
  8
0
100
AcDbSpline
 62
7
  6
CONTINUOUS
 70
0
 71
3
 72
19
 73
15
 74
0
 42
0.0000001
 43
0.0000001
 44
0.0000000001
 40
0.0
 40
0.0
 40
0.0
 40
0.0
 40
0.1644601896
 40
0.3216628218
 40
0.4684730322
 40
0.602078362
 40
0.7199984868
 40
0.7724395108
 40
0.8203547831
 40
0.8640720177
 40
0.9051699543
 40
0.9260559889
 40
0.9482408099
 40
1.0
 40
1.0
 40
1.0
 40
1.0
 10
435.0459076111
 20
314.860829178
 30
0.0
 10
435.4894936039
 20
314.7076651599
 30
0.0
 10
436.3648801873
 20
314.4303166362
 30
0.0
 10
437.6553452054
 20
314.08040909
 30
0.0
 10
438.8721342991
 20
313.7982292409
 30
0.0
 10
439.9887949818
 20
313.5851026886
 30
0.0
 10
440.8492734404
 20
313.4677205892
 30
0.0
 10
441.4717282626
 20
313.4351476551
 30
0.0
 10
441.8833824474
 20
313.4495260746
 30
0.0
 10
442.2581944824
 20
313.5155452917
 30
0.0
 10
442.5386491117
 20
313.6397427479
 30
0.0
 10
442.7256453934
 20
313.7926706116
 30
0.0
 10
442.9000790647
 20
314.0014837711
 30
0.0
 10
442.9862232822
 20
314.199167814
 30
0.0
 10
443.0307193158
 20
314.3399996493
 30
0.0
  0
SPLINE
  5
3FA
100
AcDbEntity
  8
0
100
AcDbSpline
 62
7
  6
CONTINUOUS
 70
0
 71
3
 72
17
 73
13
 74
0
 42
0.0000001
 43
0.0000001
 44
0.0000000001
 40
0.0
 40
0.0
 40
0.0
 40
0.0
 40
0.1839535237
 40
0.3480106389
 40
0.4902729546
 40
0.6102281799
 40
0.7104749427
 40
0.7557363562
 40
0.7998035936
 40
0.8446189491
 40
0.8920346349
 40
1.0
 40
1.0
 40
1.0
 40
1.0
 10
432.1408944184
 20
256.219323334
 30
0.0
 10
432.1406870049
 20
255.905853784
 30
0.0
 10
432.1429787329
 20
255.3127845895
 30
0.0
 10
432.1698187015
 20
254.4775891065
 30
0.0
 10
432.2368624198
 20
253.7533766948
 30
0.0
 10
432.3628265863
 20
253.1469325545
 30
0.0
 10
432.5471555687
 20
252.7265140339
 30
0.0
 10
432.750782933
 20
252.4733270673
 30
0.0
 10
432.9270120643
 20
252.3253448014
 30
0.0
 10
433.1324519334
 20
252.2138477887
 30
0.0
 10
433.4583040864
 20
252.107885334
 30
0.0
 10
433.725949334
 20
252.086859419
 30
0.0
 10
433.9099298319
 20
252.0869026869
 30
0.0
  0
SPLINE
  5
3FB
100
AcDbEntity
  8
0
100
AcDbSpline
 62
7
  6
CONTINUOUS
 70
0
 71
3
 72
15
 73
11
 74
0
 42
0.0000001
 43
0.0000001
 44
0.0000000001
 40
0.0
 40
0.0
 40
0.0
 40
0.0
 40
0.1451740712
 40
0.2798879558
 40
0.4047237445
 40
0.521565817
 40
0.6341104962
 40
0.7477263998
 40
0.8681995019
 40
1.0
 40
1.0
 40
1.0
 40
1.0
 10
423.7579806823
 20
273.0868918269
 30
0.0
 10
423.4730770572
 20
273.0871370733
 30
0.0
 10
422.9234465834
 20
273.0711980609
 30
0.0
 10
422.1334011879
 20
272.9760654377
 30
0.0
 10
421.4146207656
 20
272.7944779021
 30
0.0
 10
420.7757620212
 20
272.5094221587
 30
0.0
 10
420.2296939629
 20
272.1053989731
 30
0.0
 10
419.791995275
 20
271.5759742425
 30
0.0
 10
419.4709387559
 20
270.9277952388
 30
0.0
 10
419.3382744976
 20
270.4481104533
 30
0.0
 10
419.2863998033
 20
270.1947075256
 30
0.0
  0
SPLINE
  5
3FC
100
AcDbEntity
  8
0
100
AcDbSpline
 62
7
  6
CONTINUOUS
 70
0
 71
3
 72
9
 73
5
 74
0
 42
0.0000001
 43
0.0000001
 44
0.0000000001
 40
0.0
 40
0.0
 40
0.0
 40
0.0
 40
0.4788045416
 40
1.0
 40
1.0
 40
1.0
 40
1.0
 10
419.2863998033
 20
270.1947075256
 30
0.0
 10
419.2328930251
 20
269.9333320246
 30
0.0
 10
419.1594856081
 20
269.379433494
 30
0.0
 10
419.1408937566
 20
268.8219273607
 30
0.0
 10
419.1408937566
 20
268.5315105557
 30
0.0
  0
SPLINE
  5
3FD
100
AcDbEntity
  8
0
100
AcDbSpline
 62
7
  6
CONTINUOUS
 70
0
 71
3
 72
12
 73
8
 74
0
 42
0.0000001
 43
0.0000001
 44
0.0000000001
 40
0.0
 40
0.0
 40
0.0
 40
0.0
 40
0.3219846006
 40
0.5669803084
 40
0.6715285706
 40
0.7732868818
 40
1.0
 40
1.0
 40
1.0
 40
1.0
 10
419.1408937566
 20
252.4696373124
 30
0.0
 10
419.1408937566
 20
252.4135458586
 30
0.0
 10
419.1461413698
 20
252.3146749402
 30
0.0
 10
419.1826121864
 20
252.2001932307
 30
0.0
 10
419.2331555515
 20
252.1386636614
 30
0.0
 10
419.2965972566
 20
252.0959656931
 30
0.0
 10
419.3559811142
 20
252.0868719237
 30
0.0
 10
419.3954757527
 20
252.0868990973
 30
0.0
  0
SPLINE
  5
3FE
100
AcDbEntity
  8
RUNDUNGEN
100
AcDbSpline
 62
7
  6
CONTINUOUS
 70
0
 71
3
 72
9
 73
5
 74
0
 42
0.0000001
 43
0.0000001
 44
0.0000000001
 40
0.0
 40
0.0
 40
0.0
 40
0.0
 40
0.2687095389
 40
1.0
 40
1.0
 40
1.0
 40
1.0
 10
441.1573280998
 20
253.4057998243
 30
0.0
 10
441.2865395594
 20
253.3539095841
 30
0.0
 10
441.7639956879
 20
253.1527332289
 30
0.0
 10
442.2281834757
 20
252.9178733455
 30
0.0
 10
442.5514391142
 20
252.7201242901
 30
0.0
  0
SPLINE
  5
3FF
100
AcDbEntity
  8
0
100
AcDbSpline
 62
7
  6
CONTINUOUS
 70
0
 71
3
 72
9
 73
5
 74
0
 42
0.0000001
 43
0.0000001
 44
0.0000000001
 40
0.0
 40
0.0
 40
0.0
 40
0.0
 40
0.4816919255
 40
1.0
 40
1.0
 40
1.0
 40
1.0
 10
441.1325064387
 20
272.9624160044
 30
0.0
 10
440.8773351533
 20
273.0090110604
 30
0.0
 10
440.3412849012
 20
273.0718469235
 30
0.0
 10
439.8025557658
 20
273.0871473945
 30
0.0
 10
439.5234475166
 20
273.0868990644
 30
0.0
  0
SPLINE
  5
400
100
AcDbEntity
  8
RUNDUNGEN
100
AcDbSpline
 62
7
  6
CONTINUOUS
 70
0
 71
3
 72
10
 73
6
 74
0
 42
0.0000001
 43
0.0000001
 44
0.0000000001
 40
0.0
 40
0.0
 40
0.0
 40
0.0
 40
0.2668314029
 40
0.52641748
 40
1.0
 40
1.0
 40
1.0
 40
1.0
 10
98.7931708276
 20
71.4938831569
 30
0.0
 10
98.8047371824
 20
71.7834175872
 30
0.0
 10
98.8771168839
 20
72.3539236208
 30
0.0
 10
99.1888458005
 20
73.3977857139
 30
0.0
 10
99.5839559747
 20
74.1033050596
 30
0.0
 10
99.8885837914
 20
74.5176631031
 30
0.0
  0
SPLINE
  5
401
100
AcDbEntity
  8
0
100
AcDbSpline
 62
7
  6
CONTINUOUS
 70
0
 71
3
 72
15
 73
11
 74
0
 42
0.0000001
 43
0.0000001
 44
0.0000000001
 40
0.0
 40
0.0
 40
0.0
 40
0.0
 40
0.1028150588
 40
0.2070471453
 40
0.3180451414
 40
0.4406135245
 40
0.5763365856
 40
0.7199587701
 40
0.8627618076
 40
1.0
 40
1.0
 40
1.0
 40
1.0
 10
128.53914974
 20
96.8464255139
 30
0.0
 10
128.5394461691
 20
96.1345344106
 30
0.0
 10
128.3664458786
 20
94.6945744397
 30
0.0
 10
127.5788636241
 20
92.6174281162
 30
0.0
 10
126.2749436237
 20
90.6548450441
 30
0.0
 10
124.4664145528
 20
88.8285976058
 30
0.0
 10
122.2088722579
 20
87.1843708348
 30
0.0
 10
119.626569064
 20
85.7968046352
 30
0.0
 10
116.8771117421
 20
84.7514434042
 30
0.0
 10
114.9791393888
 20
84.3163800681
 30
0.0
 10
114.0391445189
 20
84.1772409368
 30
0.0
  0
SPLINE
  5
402
100
AcDbEntity
  8
0
100
AcDbSpline
 62
7
  6
CONTINUOUS
 70
0
 71
3
 72
9
 73
5
 74
0
 42
0.0000001
 43
0.0000001
 44
0.0000000001
 40
0.0
 40
0.0
 40
0.0
 40
0.0
 40
0.5074947073
 40
1.0
 40
1.0
 40
1.0
 40
1.0
 10
71.984724357
 20
83.1420148354
 30
0.0
 10
70.1272487456
 20
83.2451243062
 30
0.0
 10
66.4698843337
 20
83.5012187415
 30
0.0
 10
62.8250736333
 20
83.9128856371
 30
0.0
 10
61.0391445189
 20
84.1772409368
 30
0.0
  0
SPLINE
  5
403
100
AcDbEntity
  8
0
100
AcDbSpline
 62
7
  6
CONTINUOUS
 70
0
 71
3
 72
15
 73
11
 74
0
 42
0.0000001
 43
0.0000001
 44
0.0000000001
 40
0.0
 40
0.0
 40
0.0
 40
0.0
 40
0.1372381544
 40
0.2800411953
 40
0.4236633193
 40
0.5593862964
 40
0.6819547405
 40
0.7929527977
 40
0.8971849749
 40
1.0
 40
1.0
 40
1.0
 40
1.0
 10
61.0391445189
 20
84.1772409368
 30
0.0
 10
60.0991507248
 20
84.3163799089
 30
0.0
 10
58.2011802386
 20
84.7514426874
 30
0.0
 10
55.4517257126
 20
85.7968021472
 30
0.0
 10
52.8694250788
 20
87.1843657458
 30
0.0
 10
50.6118847577
 20
88.8285898626
 30
0.0
 10
48.8033543075
 20
90.6548332365
 30
0.0
 10
47.4994335078
 20
92.6174150595
 30
0.0
 10
46.7118470697
 20
94.6945582632
 30
0.0
 10
46.5388430198
 20
96.1345171745
 30
0.0
 10
46.539139055
 20
96.8464074266
 30
0.0
  0
SPLINE
  5
404
100
AcDbEntity
  8
0
100
AcDbSpline
 62
7
  6
CONTINUOUS
 70
0
 71
3
 72
10
 73
6
 74
0
 42
0.0000001
 43
0.0000001
 44
0.0000000001
 40
0.0
 40
0.0
 40
0.0
 40
0.0
 40
0.2116175598
 40
0.4519492741
 40
1.0
 40
1.0
 40
1.0
 40
1.0
 10
75.0391445189
 20
82.5000464419
 30
0.0
 10
74.8366188871
 20
82.5887342026
 30
0.0
 10
74.391601091
 20
82.7500871626
 30
0.0
 10
73.3785023814
 20
83.0093341147
 30
0.0
 10
72.5564347849
 20
83.1102788819
 30
0.0
 10
71.984724357
 20
83.1420148354
 30
0.0
  0
SPLINE
  5
405
100
AcDbEntity
  8
0
100
AcDbSpline
 62
7
  6
CONTINUOUS
 70
0
 71
3
 72
12
 73
8
 74
0
 42
0.0000001
 43
0.0000001
 44
0.0000000001
 40
0.0
 40
0.0
 40
0.0
 40
0.0
 40
0.2143564968
 40
0.4063306315
 40
0.6586235909
 40
0.8435958192
 40
1.0
 40
1.0
 40
1.0
 40
1.0
 10
76.1493189597
 20
74.0494403643
 30
0.0
 10
76.0741558018
 20
74.3129294951
 30
0.0
 10
75.8945191365
 20
74.8014916651
 30
0.0
 10
75.5668943725
 20
75.5764926817
 30
0.0
 10
75.269545699
 20
76.3250486298
 30
0.0
 10
75.0797007858
 20
77.0622674709
 30
0.0
 10
75.0391445189
 20
77.4991833024
 30
0.0
 10
75.0391445189
 20
77.6991061065
 30
0.0
  0
SPLINE
  5
406
100
AcDbEntity
  8
RUNDUNGEN
100
AcDbSpline
 62
7
  6
CONTINUOUS
 70
0
 71
3
 72
11
 73
7
 74
0
 42
0.0000001
 43
0.0000001
 44
0.0000000001
 40
0.0
 40
0.0
 40
0.0
 40
0.0
 40
0.2280335596
 40
0.4741457642
 40
0.7334790476
 40
1.0
 40
1.0
 40
1.0
 40
1.0
 10
75.189711742
 20
74.5176305981
 30
0.0
 10
75.3370249878
 20
74.3172548032
 30
0.0
 10
75.6191571672
 20
73.8820903775
 30
0.0
 10
75.9618122243
 20
73.1562215428
 30
0.0
 10
76.2031051357
 20
72.3460546497
 30
0.0
 10
76.2745412295
 20
71.7736766382
 30
0.0
 10
76.2855326136
 20
71.4832091484
 30
0.0
  0
SPLINE
  5
407
100
AcDbEntity
  8
0
100
AcDbSpline
 62
7
  6
CONTINUOUS
 70
0
 71
3
 72
16
 73
12
 74
0
 42
0.0000001
 43
0.0000001
 44
0.0000000001
 40
0.0
 40
0.0
 40
0.0
 40
0.0
 40
0.1231288255
 40
0.2481152951
 40
0.3745031241
 40
0.5019811969
 40
0.630326531
 40
0.7591177691
 40
0.8862437066
 40
0.9464040415
 40
1.0
 40
1.0
 40
1.0
 40
1.0
 10
84.1341306644
 20
66.9202751696
 30
0.0
 10
83.6799462697
 20
67.0000310945
 30
0.0
 10
82.7752848408
 20
67.2285905883
 30
0.0
 10
81.4745139881
 20
67.7650770012
 30
0.0
 10
80.2475345596
 20
68.48677867
 30
0.0
 10
79.1212464631
 20
69.3772902258
 30
0.0
 10
78.118160337
 20
70.4170654738
 30
0.0
 10
77.2622292653
 20
71.5789647737
 30
0.0
 10
76.6897385536
 20
72.6197096544
 30
0.0
 10
76.3401884849
 20
73.4520192998
 30
0.0
 10
76.2043811832
 20
73.856416311
 30
0.0
 10
76.1493189597
 20
74.0494403643
 30
0.0
  0
SPLINE
  5
408
100
AcDbEntity
  8
0
100
AcDbSpline
 62
7
  6
CONTINUOUS
 70
0
 71
3
 72
9
 73
5
 74
0
 42
0.0000001
 43
0.0000001
 44
0.0000000001
 40
0.0
 40
0.0
 40
0.0
 40
0.0
 40
0.4925051411
 40
1.0
 40
1.0
 40
1.0
 40
1.0
 10
114.0391445189
 20
84.1772409368
 30
0.0
 10
112.253215954
 20
83.9128857185
 30
0.0
 10
108.6084052607
 20
83.5012187687
 30
0.0
 10
104.951040847
 20
83.245124337
 30
0.0
 10
103.0935646808
 20
83.1420148354
 30
0.0
  0
SPLINE
  5
409
100
AcDbEntity
  8
0
100
AcDbSpline
 62
7
  6
CONTINUOUS
 70
0
 71
3
 72
9
 73
5
 74
0
 42
0.0000001
 43
0.0000001
 44
0.0000000001
 40
0.0
 40
0.0
 40
0.0
 40
0.0
 40
0.5000000233
 40
1.0
 40
1.0
 40
1.0
 40
1.0
 10
90.9441693546
 20
66.9202772462
 30
0.0
 10
89.822110335
 20
66.7232406208
 30
0.0
 10
87.5391444445
 20
66.5295598638
 30
0.0
 10
85.256178638
 20
66.7232408647
 30
0.0
 10
84.1341196832
 20
66.9202772462
 30
0.0
  0
SPLINE
  5
40A
100
AcDbEntity
  8
0
100
AcDbSpline
 62
7
  6
CONTINUOUS
 70
0
 71
3
 72
10
 73
6
 74
0
 42
0.0000001
 43
0.0000001
 44
0.0000000001
 40
0.0
 40
0.0
 40
0.0
 40
0.0
 40
0.5480508029
 40
0.7883825645
 40
1.0
 40
1.0
 40
1.0
 40
1.0
 10
103.0935646808
 20
83.1420148354
 30
0.0
 10
102.5218541726
 20
83.1102788775
 30
0.0
 10
101.6997864464
 20
83.0093340864
 30
0.0
 10
100.6866877448
 20
82.7500870986
 30
0.0
 10
100.2416700317
 20
82.5887341505
 30
0.0
 10
100.0391445189
 20
82.5000464419
 30
0.0
  0
SPLINE
  5
40B
100
AcDbEntity
  8
0
100
AcDbSpline
 62
7
  6
CONTINUOUS
 70
0
 71
3
 72
12
 73
8
 74
0
 42
0.0000001
 43
0.0000001
 44
0.0000000001
 40
0.0
 40
0.0
 40
0.0
 40
0.0
 40
0.1564161195
 40
0.3414041392
 40
0.5937265813
 40
0.7857253245
 40
1.0
 40
1.0
 40
1.0
 40
1.0
 10
100.0391445189
 20
77.6991061065
 30
0.0
 10
100.0391445189
 20
77.4991696926
 30
0.0
 10
99.9985819456
 20
77.0622220012
 30
0.0
 10
99.808709931
 20
76.3249407118
 30
0.0
 10
99.5113177876
 20
75.5763131943
 30
0.0
 10
99.1837145215
 20
74.8013489465
 30
0.0
 10
99.0041131722
 20
74.3128569492
 30
0.0
 10
98.9289794136
 20
74.0494705435
 30
0.0
  0
SPLINE
  5
40C
100
AcDbEntity
  8
0
100
AcDbSpline
 62
7
  6
CONTINUOUS
 70
0
 71
3
 72
16
 73
12
 74
0
 42
0.0000001
 43
0.0000001
 44
0.0000000001
 40
0.0
 40
0.0
 40
0.0
 40
0.0
 40
0.0535961806
 40
0.1137521033
 40
0.24087289
 40
0.3696608013
 40
0.4980043483
 40
0.625482657
 40
0.7518731256
 40
0.876865006
 40
1.0
 40
1.0
 40
1.0
 40
1.0
 10
98.9289794136
 20
74.0494705435
 30
0.0
 10
98.8739168868
 20
73.8564451806
 30
0.0
 10
98.7381189308
 20
73.4520604686
 30
0.0
 10
98.3885816445
 20
72.6197808595
 30
0.0
 10
97.8161250104
 20
71.5790697589
 30
0.0
 10
96.9602297674
 20
70.4171873605
 30
0.0
 10
95.9571706992
 20
69.3774066861
 30
0.0
 10
94.8308925383
 20
68.4868701717
 30
0.0
 10
93.6038949366
 20
67.765130234
 30
0.0
 10
92.3030758808
 20
67.2286098636
 30
0.0
 10
91.3983703813
 20
67.0000360937
 30
0.0
 10
90.9441620934
 20
66.9202758791
 30
0.0
  0
SPLINE
  5
40D
100
AcDbEntity
  8
RUNDUNGEN
100
AcDbSpline
 62
7
  6
CONTINUOUS
 70
0
 71
3
 72
9
 73
5
 74
0
 42
0.0000001
 43
0.0000001
 44
0.0000000001
 40
0.0
 40
0.0
 40
0.0
 40
0.0
 40
0.4919285518
 40
1.0
 40
1.0
 40
1.0
 40
1.0
 10
101.9141445295
 20
109.9177032738
 30
0.0
 10
102.2720430007
 20
109.9674874683
 30
0.0
 10
103.0043264402
 20
110.0361147015
 30
0.0
 10
103.7395682405
 20
110.0478882812
 30
0.0
 10
104.112677621
 20
110.0395689936
 30
0.0
  0
SPLINE
  5
40E
100
AcDbEntity
  8
0
100
AcDbSpline
 62
7
  6
CONTINUOUS
 70
0
 71
3
 72
14
 73
10
 74
0
 42
0.0000001
 43
0.0000001
 44
0.0000000001
 40
0.0
 40
0.0
 40
0.0
 40
0.0
 40
0.1058403066
 40
0.2156767636
 40
0.3309391969
 40
0.4526313541
 40
0.5811645459
 40
0.7161948905
 40
1.0
 40
1.0
 40
1.0
 40
1.0
 10
46.539139055
 20
96.8464074266
 30
0.0
 10
46.5393273514
 20
97.2992128766
 30
0.0
 10
46.6098796298
 20
98.2232272783
 30
0.0
 10
46.9233672285
 20
99.608617986
 30
0.0
 10
47.4509093303
 20
101.0002791688
 30
0.0
 10
48.1947015063
 20
102.3804288951
 30
0.0
 10
49.1517059264
 20
103.7273784111
 30
0.0
 10
50.7205551251
 20
105.4709148799
 30
0.0
 10
52.1313842308
 20
106.6019715146
 30
0.0
 10
53.1449284675
 20
107.2705115162
 30
0.0
  0
SPLINE
  5
40F
100
AcDbEntity
  8
RUNDUNGEN
100
AcDbSpline
 62
7
  6
CONTINUOUS
 70
0
 71
3
 72
14
 73
10
 74
0
 42
0.0000001
 43
0.0000001
 44
0.0000000001
 40
0.0
 40
0.0
 40
0.0
 40
0.0
 40
0.0699052927
 40
0.1498927949
 40
0.2462780816
 40
0.3617090935
 40
0.4964548882
 40
0.6493179801
 40
1.0
 40
1.0
 40
1.0
 40
1.0
 10
75.0391445189
 20
108.9613650356
 30
0.0
 10
75.039144519
 20
109.0132430429
 30
0.0
 10
75.0129924935
 20
109.1252797674
 30
0.0
 10
74.9064715977
 20
109.2773172241
 30
0.0
 10
74.7403828792
 20
109.4186411464
 30
0.0
 10
74.5177006933
 20
109.5491277562
 30
0.0
 10
74.2421935773
 20
109.6670804891
 30
0.0
 10
73.7903871207
 20
109.8110251965
 30
0.0
 10
73.4219102728
 20
109.8818476831
 30
0.0
 10
73.1641445111
 20
109.9177032733
 30
0.0
  0
SPLINE
  5
410
100
AcDbEntity
  8
RUNDUNGEN
100
AcDbSpline
 62
7
  6
CONTINUOUS
 70
0
 71
3
 72
14
 73
10
 74
0
 42
0.0000001
 43
0.0000001
 44
0.0000000001
 40
0.0
 40
0.0
 40
0.0
 40
0.0
 40
0.3506820189
 40
0.5035451108
 40
0.6382909056
 40
0.7537219178
 40
0.8501072048
 40
0.9300947073
 40
1.0
 40
1.0
 40
1.0
 40
1.0
 10
101.9141445295
 20
109.9177032738
 30
0.0
 10
101.6563787685
 20
109.8818476836
 30
0.0
 10
101.2879019217
 20
109.8110251947
 30
0.0
 10
100.8360954654
 20
109.6670804885
 30
0.0
 10
100.5605883491
 20
109.5491277553
 30
0.0
 10
100.3379061624
 20
109.4186411459
 30
0.0
 10
100.1718174429
 20
109.2773172238
 30
0.0
 10
100.0652965457
 20
109.1252797675
 30
0.0
 10
100.0391445192
 20
109.0132430429
 30
0.0
 10
100.0391445189
 20
108.9613650356
 30
0.0
  0
SPLINE
  5
411
100
AcDbEntity
  8
0
100
AcDbSpline
 62
7
  6
CONTINUOUS
 70
0
 71
3
 72
9
 73
5
 74
0
 42
0.0000001
 43
0.0000001
 44
0.0000000001
 40
0.0
 40
0.0
 40
0.0
 40
0.0
 40
0.5001394437
 40
1.0
 40
1.0
 40
1.0
 40
1.0
 10
53.1449284675
 20
107.2705115162
 30
0.0
 10
54.3086936268
 20
108.0381381606
 30
0.0
 10
56.8589046069
 20
109.2581518272
 30
0.0
 10
59.6464063899
 20
109.7366481694
 30
0.0
 10
61.0391445189
 20
109.7780431168
 30
0.0
  0
SPLINE
  5
412
100
AcDbEntity
  8
RUNDUNGEN
100
AcDbSpline
 62
7
  6
CONTINUOUS
 70
0
 71
3
 72
9
 73
5
 74
0
 42
0.0000001
 43
0.0000001
 44
0.0000000001
 40
0.0
 40
0.0
 40
0.0
 40
0.0
 40
0.5080714874
 40
1.0
 40
1.0
 40
1.0
 40
1.0
 10
70.9656114168
 20
110.0395689936
 30
0.0
 10
71.3387208265
 20
110.0478882819
 30
0.0
 10
72.0739626278
 20
110.0361147001
 30
0.0
 10
72.8062460678
 20
109.9674874639
 30
0.0
 10
73.1641445111
 20
109.9177032733
 30
0.0
  0
SPLINE
  5
413
100
AcDbEntity
  8
0
100
AcDbSpline
 62
7
  6
CONTINUOUS
 70
0
 71
3
 72
14
 73
10
 74
0
 42
0.0000001
 43
0.0000001
 44
0.0000000001
 40
0.0
 40
0.0
 40
0.0
 40
0.0
 40
0.2838006873
 40
0.4188318864
 40
0.5473661416
 40
0.6690590734
 40
0.7843221746
 40
0.8941592014
 40
1.0
 40
1.0
 40
1.0
 40
1.0
 10
121.9333605703
 20
107.2705115162
 30
0.0
 10
122.9468875972
 20
106.6019828663
 30
0.0
 10
124.3577034829
 20
105.4709394531
 30
0.0
 10
125.9265499701
 20
103.7274194361
 30
0.0
 10
126.8835652491
 20
102.3804662415
 30
0.0
 10
127.6273655443
 20
101.0003111336
 30
0.0
 10
128.1549138604
 20
99.6086452285
 30
0.0
 10
128.4684054241
 20
98.2232499326
 30
0.0
 10
128.5389611926
 20
97.2992324357
 30
0.0
 10
128.53914974
 20
96.8464255139
 30
0.0
  0
SPLINE
  5
414
100
AcDbEntity
  8
0
100
AcDbSpline
 62
7
  6
CONTINUOUS
 70
0
 71
3
 72
9
 73
5
 74
0
 42
0.0000001
 43
0.0000001
 44
0.0000000001
 40
0.0
 40
0.0
 40
0.0
 40
0.0
 40
0.5001394437
 40
1.0
 40
1.0
 40
1.0
 40
1.0
 10
121.9333605703
 20
107.2705115162
 30
0.0
 10
120.769595411
 20
108.0381381606
 30
0.0
 10
118.2193844309
 20
109.2581518272
 30
0.0
 10
115.4318826479
 20
109.7366481694
 30
0.0
 10
114.0391445189
 20
109.7780431168
 30
0.0
  0
ENDSEC
  0
SECTION
  2
OBJECTS
  0
DICTIONARY
  5
C
100
AcDbDictionary
280
0
281
1
  3
ACAD_GROUP
350
D
  3
ACAD_MLINESTYLE
350
17
  3
ACAD_LAYOUT
350
1A
  3
ACAD_PLOTSETTINGS
350
19
  3
ACAD_PLOTSTYLENAME
350
E
  0
DICTIONARY
  5
D
102
{ACAD_REACTORS
330
C
102
}
100
AcDbDictionary
280
0
281
1
  0
ACDBDICTIONARYWDFLT
  5
E
102
{ACAD_REACTORS
330
C
102
}
100
AcDbDictionary
281
1
  3
Normal
350
F
100
AcDbDictionaryWithDefault
340
F
  0
DICTIONARY
  5
17
102
{ACAD_REACTORS
330
C
102
}
100
AcDbDictionary
280
0
281
1
  3
Standard
350
18
  0
DICTIONARY
  5
19
102
{ACAD_REACTORS
330
C
102
}
100
AcDbDictionary
281
1
  0
DICTIONARY
  5
1A
102
{ACAD_REACTORS
330
C
102
}
100
AcDbDictionary
281
1
  3
Model
350
415
  3
Layout1
350
416
  0
ACDBPLACEHOLDER
  5
F
102
{ACAD_REACTORS
330
E
102
}
  0
MLINESTYLE
  5
18
102
{ACAD_REACTORS
330
17
102
}
100
AcDbMlineStyle
  2
STANDARD
 70
0
  3

 62
256
 51
90.0
 52
90.0
 71
2
 49
0.5
 62
256
  6
BYLAYER
 49
-0.5
 62
256
  6
BYLAYER
  0
LAYOUT
  5
415
102
{ACAD_REACTORS
330
1A
102
}
100
AcDbPlotSettings
  1

  2
none_device
  4
ISO_A3_(420.00_x_297.00_MM)
  6

 40
0.0
 41
0.0
 42
0.0
 43
0.0
 44
420.0
 45
297.0
 46
0.0
 47
0.0
 48
0.0
 49
0.0
140
0.0
141
0.0
142
1.0
143
1.0
 70
1024
 72
1
 73
0
 74
0
  7

 75
0
147
1.0
148
0.0
149
0.0
100
AcDbLayout
  1
Model
 70
0
 71
0
 10
0.0
 20
0.0
 11
420.0
 21
297.0
 12
0.0
 22
0.0
 32
0.0
 14
0.0
 24
0.0
 34
0.0
 15
0.0
 25
0.0
 35
0.0
146
0.0
 13
0.0
 23
0.0
 33
0.0
 16
1.0
 26
0.0
 36
0.0
 17
0.0
 27
1.0
 37
0.0
 76
0
330
209
345
0
346
0
  0
LAYOUT
  5
416
102
{ACAD_REACTORS
330
1A
102
}
100
AcDbPlotSettings
  1

  2
none_device
  4
ISO_A3_(420.00_x_297.00_MM)
  6

 40
0.0
 41
0.0
 42
0.0
 43
0.0
 44
420.0
 45
297.0
 46
0.0
 47
0.0
 48
0.0
 49
0.0
140
0.0
141
0.0
142
1.0
143
1.0
 70
0
 72
1
 73
0
 74
0
  7

 75
0
147
1.0
148
0.0
149
0.0
100
AcDbLayout
  1
Layout1
 70
0
 71
1
 10
0.0
 20
0.0
 11
420.0
 21
297.0
 12
0.0
 22
0.0
 32
0.0
 14
0.0
 24
0.0
 34
0.0
 15
0.0
 25
0.0
 35
0.0
146
0.0
 13
0.0
 23
0.0
 33
0.0
 16
1.0
 26
0.0
 36
0.0
 17
0.0
 27
1.0
 37
0.0
 76
0
330
20A
345
0
346
0
  0
ENDSEC
  0
EOF
