999
DXF file: vip-vv-20_7994856-m32010-p-2.dxf
999
Pro/ENGINEER 2010140 by Parametric Technology Corporation
  0
SECTION
  2
HEADER
  9
$ACADVER
  1
AC1015
  9
$DWGCODEPAGE
  3
ANSI_1252
  9
$EXTMAX
 10
420.0
 20
297.0
 30
0.0
  9
$EXTMIN
 10
0.0
 20
0.0
 30
0.0
  9
$LIMMIN
 10
0.0
 20
0.0
  9
$LIMMAX
 10
420.0
 20
297.0
  9
$VIEWCTR
 10
210.0
 20
148.5
  9
$VIEWSIZE
 40
297.0
  9
$CLAYER
  8
0
  9
$LTSCALE
 40
23.1
  9
$CELTYPE
  6
BYLAYER
  9
$DIMSCALE
 40
1.0
  9
$DIMASZ
 40
3.5
  9
$DIMEXO
 40
2.625
  9
$DIMDLI
 40
15.96
  9
$DIMEXE
 40
7.56
  9
$DIMCEN
 40
3.78
  9
$DIMLFAC
 40
1.0
  9
$DIMBLK
  1
_FILLED
  9
$DIMTXT
 40
3.5
  9
$DIMTOL
 70
1
  9
$DIMLIM
 70
0
  9
$DIMTFAC
 40
1.0
  9
$DIMTP
 40
0.005
  9
$DIMTM
 40
0.005
  9
$PDMODE
 70
3
  9
$PDSIZE
 40
0.3125
  9
$HANDSEED
  5
414
  9
$TILEMODE
 70
1
  9
$MEASUREMENT
 70
1
  9
$INSUNITS
 70
4
  0
ENDSEC
  0
SECTION
  2
CLASSES
  0
CLASS
  1
ACDBDICTIONARYWDFLT
  2
AcDbDictionaryWithDefault
  3
AutoCAD 2000
 90
0
280
0
281
0
  0
CLASS
  1
ACDBPLACEHOLDER
  2
AcDbPlaceHolder
  3
AutoCAD 2000
 90
0
280
0
281
0
  0
CLASS
  1
LAYOUT
  2
AcDbLayout
  3
AutoCAD 2000
 90
0
280
0
281
0
  0
ENDSEC
  0
SECTION
  2
TABLES
  0
TABLE
  2
VPORT
  5
8
100
AcDbSymbolTable
 70
2
  0
VPORT
  5
1F4
100
AcDbSymbolTableRecord
100
AcDbViewportTableRecord
  2
*ACTIVE
 70
0
 10
0.0
 20
0.0
 11
1.0
 21
1.0
 12
210.0
 22
148.5
 13
0.0
 23
0.0
 14
1.0
 24
1.0
 15
0.0
 25
0.0
 16
0.0
 26
0.0
 36
1.0
 17
0.0
 27
0.0
 37
0.0
 40
297.0
 41
1.4141414141
 42
50.0
 43
0.0
 44
0.0
 50
0.0
 51
0.0
 71
0
 72
100
 73
1
 74
1
 75
0
 76
0
 77
0
 78
0
  0
ENDTAB
  0
TABLE
  2
LTYPE
  5
5
100
AcDbSymbolTable
 70
6
  0
LTYPE
  5
14
100
AcDbSymbolTableRecord
100
AcDbLinetypeTableRecord
  2
BYBLOCK
 70
0
  3

 72
65
 73
0
 40
0.0
  0
LTYPE
  5
15
100
AcDbSymbolTableRecord
100
AcDbLinetypeTableRecord
  2
BYLAYER
 70
0
  3

 72
65
 73
0
 40
0.0
  0
LTYPE
  5
16
100
AcDbSymbolTableRecord
100
AcDbLinetypeTableRecord
  2
CONTINUOUS
 70
64
  3
Solid line
 72
65
 73
0
 40
0.0
  0
LTYPE
  5
1F5
100
AcDbSymbolTableRecord
100
AcDbLinetypeTableRecord
  2
CENTER
 70
64
  3
____ _ ____ _ ____ _ ____ _ ____ _ ____ _ ____
 72
65
 73
4
 40
0.6
 49
0.375
 74
0
 49
-0.075
 74
0
 49
0.075
 74
0
 49
-0.075
 74
0
  0
LTYPE
  5
1F6
100
AcDbSymbolTableRecord
100
AcDbLinetypeTableRecord
  2
HIDDEN
 70
64
  3
- - - - - - - - - - - - - - - - - - - -
 72
65
 73
2
 40
0.2
 49
0.1
 74
0
 49
-0.1
 74
0
  0
LTYPE
  5
1F7
100
AcDbSymbolTableRecord
100
AcDbLinetypeTableRecord
  2
PHANTOM
 70
64
  3
_____ _ _ _____ _ _ _____ _ _ _____
 72
65
 73
6
 40
0.8
 49
0.45
 74
0
 49
-0.05
 74
0
 49
0.1
 74
0
 49
-0.05
 74
0
 49
0.1
 74
0
 49
-0.05
 74
0
  0
LTYPE
  5
1F8
100
AcDbSymbolTableRecord
100
AcDbLinetypeTableRecord
  2
DOT
 70
64
  3
. . . . . . . . . . . . . . . . . . . .
 72
65
 73
2
 40
0.2
 49
0.1
 74
0
 49
-0.1
 74
0
  0
LTYPE
  5
1F9
100
AcDbSymbolTableRecord
100
AcDbLinetypeTableRecord
  2
DASHED
 70
64
  3
- - - - - - - - - - - - - - - - - - - -
 72
65
 73
2
 40
0.2
 49
0.1
 74
0
 49
-0.1
 74
0
  0
ENDTAB
  0
TABLE
  2
LAYER
  5
2
100
AcDbSymbolTable
 70
36
  0
LAYER
  5
10
100
AcDbSymbolTableRecord
100
AcDbLayerTableRecord
  2
0
 70
0
 62
7
  6
CONTINUOUS
370
-3
390
F
  0
LAYER
  5
1FA
100
AcDbSymbolTableRecord
100
AcDbLayerTableRecord
  2
DEFAULT_1
 70
0
 62
7
  6
CENTER
370
-3
390
F
  0
LAYER
  5
1FB
100
AcDbSymbolTableRecord
100
AcDbLayerTableRecord
  2
DEFAULT_2
 70
0
 62
8
  6
HIDDEN
370
-3
390
F
  0
LAYER
  5
1FC
100
AcDbSymbolTableRecord
100
AcDbLayerTableRecord
  2
DEFAULT_3
 70
0
 62
7
  6
PHANTOM
370
-3
390
F
  0
LAYER
  5
1FD
100
AcDbSymbolTableRecord
100
AcDbLayerTableRecord
  2
AUSFORMSCHRAEGEN
 70
0
 62
7
  6
CONTINUOUS
370
-3
390
F
  0
LAYER
  5
1FE
100
AcDbSymbolTableRecord
100
AcDbLayerTableRecord
  2
BEZUGSACHSEN
 70
0
 62
7
  6
CONTINUOUS
370
-3
390
F
  0
LAYER
  5
1FF
100
AcDbSymbolTableRecord
100
AcDbLayerTableRecord
  2
BEZUGSEBENEN
 70
0
 62
7
  6
CONTINUOUS
370
-3
390
F
  0
LAYER
  5
200
100
AcDbSymbolTableRecord
100
AcDbLayerTableRecord
  2
FASEN
 70
0
 62
7
  6
CONTINUOUS
370
-3
390
F
  0
LAYER
  5
201
100
AcDbSymbolTableRecord
100
AcDbLayerTableRecord
  2
HILFEN
 70
0
 62
7
  6
CONTINUOUS
370
-3
390
F
  0
LAYER
  5
202
100
AcDbSymbolTableRecord
100
AcDbLayerTableRecord
  2
KONSTRUKTIONSELEMENTE
 70
0
 62
7
  6
CONTINUOUS
370
-3
390
F
  0
LAYER
  5
203
100
AcDbSymbolTableRecord
100
AcDbLayerTableRecord
  2
KURVEN
 70
0
 62
7
  6
CONTINUOUS
370
-3
390
F
  0
LAYER
  5
204
100
AcDbSymbolTableRecord
100
AcDbLayerTableRecord
  2
PLATZIERUNG
 70
0
 62
7
  6
CONTINUOUS
370
-3
390
F
  0
LAYER
  5
205
100
AcDbSymbolTableRecord
100
AcDbLayerTableRecord
  2
RUNDUNGEN
 70
0
 62
7
  6
CONTINUOUS
370
-3
390
F
  0
LAYER
  5
206
100
AcDbSymbolTableRecord
100
AcDbLayerTableRecord
  2
TEIL_STARTBEZUEGE
 70
0
 62
7
  6
CONTINUOUS
370
-3
390
F
  0
ENDTAB
  0
TABLE
  2
STYLE
  5
3
100
AcDbSymbolTable
 70
1
  0
STYLE
  5
11
100
AcDbSymbolTableRecord
100
AcDbTextStyleTableRecord
  2
STANDARD
 70
0
 40
0.0
 41
0.7
 50
0.0
 71
0
 42
0.2
  3
txt
  4

  0
STYLE
  5
207
100
AcDbSymbolTableRecord
100
AcDbTextStyleTableRecord
  2
TEXTSTYLE_1
 70
0
 40
0.0
 41
0.8
 50
0.0
 71
0
 42
0.2
  3
gdt
  4

  0
ENDTAB
  0
TABLE
  2
VIEW
  5
6
100
AcDbSymbolTable
 70
0
  0
ENDTAB
  0
TABLE
  2
UCS
  5
7
100
AcDbSymbolTable
 70
0
  0
ENDTAB
  0
TABLE
  2
APPID
  5
9
100
AcDbSymbolTable
 70
1
  0
APPID
  5
208
100
AcDbSymbolTableRecord
100
AcDbRegAppTableRecord
  2
ACAD
 70
0
  0
ENDTAB
  0
TABLE
  2
BLOCK_RECORD
  5
1
100
AcDbSymbolTable
 70
0
  0
BLOCK_RECORD
  5
209
100
AcDbSymbolTableRecord
100
AcDbBlockTableRecord
  2
*Model_Space
  0
BLOCK_RECORD
  5
20A
100
AcDbSymbolTableRecord
100
AcDbBlockTableRecord
  2
*Paper_Space
  0
ENDTAB
  0
TABLE
  2
DIMSTYLE
  5
A
100
AcDbSymbolTable
 70
1
100
AcDbDimStyleTable
 71
0
  0
DIMSTYLE
105
20B
100
AcDbSymbolTableRecord
100
AcDbDimStyleTableRecord
  2
STANDARD
 70
0
  3

  4

 40
1.0
 41
3.5
 42
0.0625
 43
0.38
 44
0.18
 45
0.0
 46
0.0
 47
0.005
 48
0.005
140
3.5
141
0.09
142
0.0
143
25.4
144
1.0
145
0.0
146
1.0
147
0.09
 71
1.0
 72
0.0
 73
0
 74
0
 75
0
 76
0
 77
1
 78
8
170
0
171
2
172
0
173
0
174
0
175
0
176
0
177
0
178
5
270
2
271
3
272
3
273
2
274
2
275
0
280
0
281
0
282
0
283
1
284
8
285
0
286
0
287
3
288
0
340
11
  0
ENDTAB
  0
ENDSEC
  0
SECTION
  2
BLOCKS
  0
BLOCK
  5
20
100
AcDbEntity
  8
0
100
AcDbBlockBegin
  2
*Model_Space
 70
0
 10
0.0
 20
0.0
 30
0.0
  3
*Model_Space
  1

  0
ENDBLK
  5
21
100
AcDbEntity
  8
0
100
AcDbBlockEnd
  0
BLOCK
  5
1C
100
AcDbEntity
  8
0
100
AcDbBlockBegin
  2
*Paper_Space
 70
0
 10
0.0
 20
0.0
 30
0.0
  3
*Paper_Space
  1

  0
ENDBLK
  5
1D
100
AcDbEntity
  8
0
100
AcDbBlockEnd
  0
ENDSEC
  0
SECTION
  2
ENTITIES
  0
MTEXT
  5
20C
100
AcDbEntity
  8
0
100
AcDbMText
 62
5
  6
CONTINUOUS
  7
STANDARD
 71
1
 72
1
 10
272.728928799
 20
282.8420026943
 30
0.0
 11
-0.0
 21
-1.0
 31
0.0
 44
0.9
  1
RUD VV-20
 40
5.0
 41
37.0238095238
  0
MTEXT
  5
20D
100
AcDbEntity
  8
0
100
AcDbMText
 62
5
  6
CONTINUOUS
  7
STANDARD
 71
1
 72
1
 10
427.8534600015
 20
340.7277475799
 30
0.0
 11
0.0
 21
1.0
 31
0.0
 44
0.9
  1
RUD VV-20
 40
5.0
 41
37.0238095238
  0
MTEXT
  5
20E
100
AcDbEntity
  8
0
100
AcDbMText
 62
5
  6
CONTINUOUS
  7
STANDARD
 71
1
 72
1
 10
114.381528171
 20
78.7548641681
 30
0.0
 11
-0.0
 21
-1.0
 31
0.0
 44
0.9
  1
RUD VV-20
 40
5.0
 41
37.0238095238
  0
LINE
  5
20F
100
AcDbEntity
  8
0
100
AcDbLine
 62
7
  6
CONTINUOUS
 10
0.0
 20
0.0
 11
0.0
 21
297.0
  0
LINE
  5
210
100
AcDbEntity
  8
0
100
AcDbLine
 62
7
  6
CONTINUOUS
 10
0.0
 20
0.0
 11
420.0
 21
0.0
  0
LINE
  5
211
100
AcDbEntity
  8
0
100
AcDbLine
 62
7
  6
CONTINUOUS
 10
0.0
 20
297.0
 11
420.0
 21
297.0
  0
LINE
  5
212
100
AcDbEntity
  8
0
100
AcDbLine
 62
7
  6
CONTINUOUS
 10
420.0
 20
0.0
 11
420.0
 21
297.0
  0
LWPOLYLINE
  5
213
100
AcDbEntity
  8
0
100
AcDbPolyline
 62
7
  6
CONTINUOUS
 90
14
 70
0
 10
115.7836441957
 20
180.3698475911
 10
116.1953265387
 20
180.3908112158
 10
116.6038829178
 20
180.445615121
 10
117.0065358531
 20
180.5338866648
 10
117.4005480469
 20
180.6550255443
 10
117.7832410134
 20
180.8082078848
 10
118.1520133363
 20
180.9923918632
 10
118.5043583131
 20
181.2063247743
 10
118.8378809934
 20
181.4485515173
 10
119.150314961
 20
181.7174249013
 10
119.4395375014
 20
182.0111168978
 10
119.703582624
 20
182.3276294741
 10
119.9406559001
 20
182.6648091237
 10
120.1491026285
 20
183.0202786265
  0
LINE
  5
214
100
AcDbEntity
  8
0
100
AcDbLine
 62
7
  6
CONTINUOUS
 10
115.7354215838
 20
180.3696150438
 11
115.7836441957
 21
180.3698475911
  0
LINE
  5
215
100
AcDbEntity
  8
0
100
AcDbLine
 62
7
  6
CONTINUOUS
 10
115.7539509486
 20
180.3695911773
 11
110.0815719298
 21
180.3695911773
  0
LINE
  5
216
100
AcDbEntity
  8
KONSTRUKTIONSELEMENTE
100
AcDbLine
 62
7
  6
CONTINUOUS
 10
48.8933377667
 20
180.3695911773
 11
43.2209587479
 21
180.3695911773
  0
LINE
  5
217
100
AcDbEntity
  8
RUNDUNGEN
100
AcDbLine
 62
7
  6
CONTINUOUS
 10
43.1816416606
 20
180.3699496759
 11
43.2394881127
 21
180.3696150438
  0
LINE
  5
218
100
AcDbEntity
  8
KONSTRUKTIONSELEMENTE
100
AcDbLine
 62
7
  6
CONTINUOUS
 10
37.8970661287
 20
405.5835292258
 11
29.6572326326
 21
395.7636780544
  0
LWPOLYLINE
  5
219
100
AcDbEntity
  8
RUNDUNGEN
100
AcDbPolyline
 62
7
  6
CONTINUOUS
 90
14
 70
0
 10
38.8258070719
 20
183.0202786182
 10
39.0338553803
 20
182.6654286543
 10
39.2704303884
 20
182.3287995274
 10
39.533886258
 20
182.0127564837
 10
39.8224389837
 20
181.7194417831
 10
40.1341342319
 20
181.4508434491
 10
40.4668617895
 20
181.2087810259
 10
40.8183686946
 20
180.994894571
 10
41.1862742984
 20
180.8106335011
 10
41.5680868048
 20
180.6572464304
 10
41.9612201508
 20
180.5357727358
 10
42.3630114875
 20
180.4470355312
 10
42.7707392605
 20
180.391636072
 10
43.1816416606
 20
180.3699496759
  0
LINE
  5
21A
100
AcDbEntity
  8
RUNDUNGEN
100
AcDbLine
 62
7
  6
CONTINUOUS
 10
93.7862274382
 20
209.4829905771
 11
93.7863368451
 21
209.4829466297
  0
LWPOLYLINE
  5
21B
100
AcDbEntity
  8
0
100
AcDbPolyline
 62
7
  6
CONTINUOUS
 90
5
 70
0
 10
93.7867383904
 20
209.4827850944
 10
94.0093115674
 20
209.3923667498
 10
94.9720240018
 20
208.9797420768
 10
95.9006314945
 20
208.5467672254
 10
96.0615924874
 20
208.4680237703
  0
LINE
  5
21C
100
AcDbEntity
  8
RUNDUNGEN
100
AcDbLine
 62
7
  6
CONTINUOUS
 10
96.0615596382
 20
208.4680397473
 11
96.0601701726
 21
208.4687243131
  0
LWPOLYLINE
  5
21D
100
AcDbEntity
  8
RUNDUNGEN
100
AcDbPolyline
 62
7
  6
CONTINUOUS
 90
9
 70
0
 10
76.3473413241
 20
230.8861982503
 10
76.9882031194
 20
230.9071851675
 10
77.8133596309
 20
230.9269913892
 10
78.6450149471
 20
230.9389400544
 10
79.4799800815
 20
230.942976433
 10
80.3149812208
 20
230.939081833
 10
81.1467422725
 20
230.9272739494
 10
81.9720696882
 20
230.907606627
 10
82.6275688652
 20
230.8861982244
  0
LWPOLYLINE
  5
21E
100
AcDbEntity
  8
RUNDUNGEN
100
AcDbPolyline
 62
7
  6
CONTINUOUS
 90
54
 70
0
 10
82.6275809326
 20
230.8861896903
 10
82.9330865976
 20
230.8684079224
 10
83.3604992946
 20
230.8214666059
 10
83.7692971946
 20
230.7521462569
 10
84.1595562721
 20
230.6632622911
 10
84.5314331951
 20
230.557399896
 10
84.8852690529
 20
230.4368749842
 10
85.2215737257
 20
230.3037844978
 10
85.5409612581
 20
230.1599370264
 10
85.8441871351
 20
230.0068882477
 10
86.1320461296
 20
229.8459977787
 10
86.4053180057
 20
229.678435392
 10
86.6647472005
 20
229.5052106615
 10
86.9111737782
 20
229.3271085365
 10
87.1452167164
 20
229.14492903
 10
87.3675425646
 20
228.9593154783
 10
87.5786841238
 20
228.7708953445
 10
87.7792109785
 20
228.5801683531
 10
87.9696401383
 20
228.3876002164
 10
88.1504739208
 20
228.1935850774
 10
88.3221910661
 20
227.9984448172
 10
88.4852557821
 20
227.8024460649
 10
88.6400792263
 20
227.6058528352
 10
88.7870618861
 20
227.4088644608
 10
88.9265868626
 20
227.2116384185
 10
89.0590177773
 20
227.0143048026
 10
89.1846887274
 20
226.8169684171
 10
89.3039192783
 20
226.6196958121
 10
89.4170053999
 20
226.4225448638
 10
89.524233391
 20
226.2255260385
 10
89.6258471131
 20
226.028672472
 10
89.722102861
 20
225.8319508354
 10
89.8131597381
 20
225.6354683567
 10
89.899191976
 20
225.4392768641
 10
89.9803643837
 20
225.2434259413
 10
90.0568371472
 20
225.0479228626
 10
90.1287546168
 20
224.8527903852
 10
90.1962581132
 20
224.6580306826
 10
90.2594738735
 20
224.4636234341
 10
90.3185250019
 20
224.2695408294
 10
90.3735142494
 20
224.0757697582
 10
90.4245325321
 20
223.8822684369
 10
90.4716820034
 20
223.6889379914
 10
90.5150178597
 20
223.4957496897
 10
90.5546647213
 20
223.3022790586
 10
90.5906840128
 20
223.1081998261
 10
90.6230792887
 20
222.9132375512
 10
90.6517809281
 20
222.717429909
 10
90.6767445503
 20
222.5202595332
 10
90.6978824946
 20
222.3209757316
 10
90.714673109
 20
222.1228967448
 10
90.7268404645
 20
221.9293230964
 10
90.7342839793
 20
221.7448715498
 10
90.73731301
 20
221.5743009811
  0
LINE
  5
21F
100
AcDbEntity
  8
RUNDUNGEN
100
AcDbLine
 62
7
  6
CONTINUOUS
 10
28.4874548482
 20
319.2413293309
 11
28.4874548482
 21
392.549740006
  0
LINE
  5
220
100
AcDbEntity
  8
0
100
AcDbLine
 62
7
  6
CONTINUOUS
 10
84.5879860601
 20
255.8315342164
 11
85.7629645302
 21
256.0753064631
  0
LINE
  5
221
100
AcDbEntity
  8
0
100
AcDbLine
 62
7
  6
CONTINUOUS
 10
74.5600776109
 20
255.8000254682
 11
75.7456111203
 21
255.614256454
  0
LINE
  5
222
100
AcDbEntity
  8
0
100
AcDbLine
 62
7
  6
CONTINUOUS
 10
59.6661099549
 20
263.8059985785
 11
60.4002075808
 21
263.5542099516
  0
LINE
  5
223
100
AcDbEntity
  8
0
100
AcDbLine
 62
7
  6
CONTINUOUS
 10
60.4148104517
 20
264.6936803014
 11
59.824132212
 21
265.0723510225
  0
LINE
  5
224
100
AcDbEntity
  8
0
100
AcDbLine
 62
7
  6
CONTINUOUS
 10
58.9636160201
 20
264.3110585688
 11
59.6661099549
 21
263.8059985785
  0
LINE
  5
225
100
AcDbEntity
  8
0
100
AcDbLine
 62
7
  6
CONTINUOUS
 10
56.2800601141
 20
267.3443781528
 11
58.9636160201
 21
264.3110585688
  0
LINE
  5
226
100
AcDbEntity
  8
0
100
AcDbLine
 62
7
  6
CONTINUOUS
 10
59.824132212
 20
265.0723510225
 11
57.8114652825
 21
267.3473407105
  0
LINE
  5
227
100
AcDbEntity
  8
0
100
AcDbLine
 62
7
  6
CONTINUOUS
 10
52.6868106355
 20
275.8573288155
 11
52.7667890212
 21
274.9958271321
  0
LINE
  5
228
100
AcDbEntity
  8
0
100
AcDbLine
 62
7
  6
CONTINUOUS
 10
53.8589293737
 20
275.3525956385
 11
53.8313514465
 21
276.053688896
  0
LINE
  5
229
100
AcDbEntity
  8
0
100
AcDbLine
 62
7
  6
CONTINUOUS
 10
51.8548025348
 20
288.9118439419
 11
51.7699228905
 21
287.9029080193
  0
LINE
  5
22A
100
AcDbEntity
  8
0
100
AcDbLine
 62
7
  6
CONTINUOUS
 10
51.4162577193
 20
283.699008502
 11
51.3172314407
 21
282.5219162715
  0
LINE
  5
22B
100
AcDbEntity
  8
0
100
AcDbLine
 62
7
  6
CONTINUOUS
 10
99.7954541718
 20
265.5932253791
 11
99.2463008403
 21
265.4635329213
  0
LINE
  5
22C
100
AcDbEntity
  8
0
100
AcDbLine
 62
7
  6
CONTINUOUS
 10
96.1616870393
 20
270.5466997827
 11
96.7108403708
 21
270.6763922405
  0
LINE
  5
22D
100
AcDbEntity
  8
0
100
AcDbLine
 62
7
  6
CONTINUOUS
 10
86.4877736116
 20
264.3960427989
 11
85.6065395489
 21
264.2132135702
  0
LINE
  5
22E
100
AcDbEntity
  8
0
100
AcDbLine
 62
7
  6
CONTINUOUS
 10
81.4941136432
 20
263.360010445
 11
80.6128795805
 21
263.1771812164
  0
LINE
  5
22F
100
AcDbEntity
  8
0
100
AcDbLine
 62
7
  6
CONTINUOUS
 10
61.6909818687
 20
264.6961486322
 11
61.0370937376
 21
264.5682795639
  0
LINE
  5
230
100
AcDbEntity
  8
0
100
AcDbLine
 62
7
  6
CONTINUOUS
 10
91.8634009256
 20
266.8976533026
 11
91.1739405886
 21
266.8745606152
  0
LINE
  5
231
100
AcDbEntity
  8
0
100
AcDbLine
 62
7
  6
CONTINUOUS
 10
98.8037074448
 20
264.6616080713
 11
99.4840034758
 21
264.6827925042
  0
LINE
  5
232
100
AcDbEntity
  8
0
100
AcDbLine
 62
7
  6
CONTINUOUS
 10
60.4002075808
 20
263.5542099516
 11
61.4211439165
 21
263.5561854574
  0
LINE
  5
233
100
AcDbEntity
  8
0
100
AcDbLine
 62
7
  6
CONTINUOUS
 10
91.3626411428
 20
265.9921197311
 11
91.9241893827
 21
265.9368649632
  0
LINE
  5
234
100
AcDbEntity
  8
0
100
AcDbLine
 62
7
  6
CONTINUOUS
 10
79.3551383071
 20
263.1462756256
 11
78.4659881221
 21
263.2856023945
  0
LINE
  5
235
100
AcDbEntity
  8
0
100
AcDbLine
 62
7
  6
CONTINUOUS
 10
74.3166207335
 20
263.9357939607
 11
73.4274705485
 21
264.0751207296
  0
LINE
  5
236
100
AcDbEntity
  8
0
100
AcDbLine
 62
7
  6
CONTINUOUS
 10
99.2463008403
 20
265.4635329213
 11
98.0769544928
 21
265.6523034506
  0
LINE
  5
237
100
AcDbEntity
  8
0
100
AcDbLine
 62
7
  6
CONTINUOUS
 10
61.0370937376
 20
264.5682795639
 11
60.4148104517
 21
264.6936803014
  0
LINE
  5
238
100
AcDbEntity
  8
0
100
AcDbLine
 62
7
  6
CONTINUOUS
 10
55.6322746946
 20
273.6240583481
 11
54.9814039331
 21
273.7664900391
  0
LINE
  5
239
100
AcDbEntity
  8
0
100
AcDbLine
 62
7
  6
CONTINUOUS
 10
53.9940641659
 20
273.0889055886
 11
54.9317593109
 21
272.6851184879
  0
LINE
  5
23A
100
AcDbEntity
  8
0
100
AcDbLine
 62
7
  6
CONTINUOUS
 10
54.9814039331
 20
273.7664900391
 11
54.4601559404
 21
274.1287915199
  0
LINE
  5
23B
100
AcDbEntity
  8
0
100
AcDbLine
 62
7
  6
CONTINUOUS
 10
53.4204157785
 20
273.6116155161
 11
53.9940641659
 21
273.0889055886
  0
LINE
  5
23C
100
AcDbEntity
  8
0
100
AcDbLine
 62
7
  6
CONTINUOUS
 10
62.8311431859
 20
271.7882134609
 11
64.8438101155
 21
269.5132237729
  0
LINE
  5
23D
100
AcDbEntity
  8
0
100
AcDbLine
 62
7
  6
CONTINUOUS
 10
65.7043262069
 20
270.2745161377
 11
63.0207703009
 21
273.3078357218
  0
LINE
  5
23E
100
AcDbEntity
  8
0
100
AcDbLine
 62
7
  6
CONTINUOUS
 10
54.4601559404
 20
274.1287915199
 11
54.0685309717
 21
274.7109628738
  0
LINE
  5
23F
100
AcDbEntity
  8
0
100
AcDbLine
 62
7
  6
CONTINUOUS
 10
52.9763906192
 20
274.3541943675
 11
53.4204157785
 21
273.6116155161
  0
LINE
  5
240
100
AcDbEntity
  8
0
100
AcDbLine
 62
7
  6
CONTINUOUS
 10
55.8333029224
 20
283.6661037348
 11
56.1583470699
 21
282.9613741749
  0
LINE
  5
241
100
AcDbEntity
  8
0
100
AcDbLine
 62
7
  6
CONTINUOUS
 10
52.7667890212
 20
274.9958271321
 11
52.9763906192
 21
274.3541943675
  0
LINE
  5
242
100
AcDbEntity
  8
0
100
AcDbLine
 62
7
  6
CONTINUOUS
 10
54.0685309717
 20
274.7109628738
 11
53.8589293737
 21
275.3525956385
  0
LINE
  5
243
100
AcDbEntity
  8
0
100
AcDbLine
 62
7
  6
CONTINUOUS
 10
56.8015259656
 20
283.7539956131
 11
56.653150506
 21
284.2745164603
  0
LINE
  5
244
100
AcDbEntity
  8
0
100
AcDbLine
 62
7
  6
CONTINUOUS
 10
65.147649658
 20
268.8807889302
 11
65.1962554491
 21
268.2478598605
  0
LINE
  5
245
100
AcDbEntity
  8
0
100
AcDbLine
 62
7
  6
CONTINUOUS
 10
55.7770443422
 20
287.5657973704
 11
55.5365520234
 21
284.7071456698
  0
LINE
  5
246
100
AcDbEntity
  8
0
100
AcDbLine
 62
7
  6
CONTINUOUS
 10
56.653150506
 20
284.2745164603
 11
56.9219360329
 21
287.469480055
  0
LINE
  5
247
100
AcDbEntity
  8
0
100
AcDbLine
 62
7
  6
CONTINUOUS
 10
59.784165794
 20
287.2286867215
 11
59.5153802671
 21
284.0337231268
  0
LINE
  5
248
100
AcDbEntity
  8
0
100
AcDbLine
 62
7
  6
CONTINUOUS
 10
60.4836032699
 20
284.1216145241
 11
60.8231218471
 21
288.1573582146
  0
LINE
  5
249
100
AcDbEntity
  8
0
100
AcDbLine
 62
7
  6
CONTINUOUS
 10
52.841255827
 20
276.6178844174
 11
52.6868106355
 21
275.8573288155
  0
LINE
  5
24A
100
AcDbEntity
  8
0
100
AcDbLine
 62
7
  6
CONTINUOUS
 10
53.8313514465
 20
276.053688896
 11
54.0381971922
 21
276.6538361032
  0
LINE
  5
24B
100
AcDbEntity
  8
0
100
AcDbLine
 62
7
  6
CONTINUOUS
 10
55.7646535708
 20
272.6021482493
 11
56.7271708994
 21
272.7390468825
  0
LINE
  5
24C
100
AcDbEntity
  8
0
100
AcDbLine
 62
7
  6
CONTINUOUS
 10
106.0243460437
 20
278.5069866964
 11
98.7814123174
 21
277.6992113329
  0
LINE
  5
24D
100
AcDbEntity
  8
0
100
AcDbLine
 62
7
  6
CONTINUOUS
 10
98.6191976164
 20
276.8139506986
 11
106.9207537754
 21
277.7327383953
  0
LINE
  5
24E
100
AcDbEntity
  8
0
100
AcDbLine
 62
7
  6
CONTINUOUS
 10
56.4127686524
 20
273.7014955706
 11
55.6322746946
 21
273.6240583481
  0
LINE
  5
24F
100
AcDbEntity
  8
0
100
AcDbLine
 62
7
  6
CONTINUOUS
 10
97.1534337663
 20
271.4783170905
 11
96.4731377812
 21
271.4571326196
  0
LINE
  5
250
100
AcDbEntity
  8
0
100
AcDbLine
 62
7
  6
CONTINUOUS
 10
54.9317593109
 20
272.6851184879
 11
55.7646535708
 21
272.6021482493
  0
LINE
  5
251
100
AcDbEntity
  8
0
100
AcDbLine
 62
7
  6
CONTINUOUS
 10
96.7108403708
 20
270.6763922405
 11
97.8801880882
 21
270.4876228058
  0
LINE
  5
252
100
AcDbEntity
  8
0
100
AcDbLine
 62
7
  6
CONTINUOUS
 10
98.0878910244
 20
264.8645006995
 11
98.8037074448
 21
264.6616080713
  0
LINE
  5
253
100
AcDbEntity
  8
0
100
AcDbLine
 62
7
  6
CONTINUOUS
 10
97.8692500948
 20
271.2754245383
 11
97.1534337663
 21
271.4783170905
  0
LINE
  5
254
100
AcDbEntity
  8
0
100
AcDbLine
 62
7
  6
CONTINUOUS
 10
92.7306732113
 20
266.630448856
 11
91.8634009256
 21
266.8976533026
  0
LINE
  5
255
100
AcDbEntity
  8
0
100
AcDbLine
 62
7
  6
CONTINUOUS
 10
56.8791683748
 20
282.39269467
 11
57.4374676262
 21
282.1763801855
  0
LINE
  5
256
100
AcDbEntity
  8
0
100
AcDbLine
 62
7
  6
CONTINUOUS
 10
57.7131625523
 20
283.1692632223
 11
57.1548633009
 21
283.3855777067
  0
LINE
  5
257
100
AcDbEntity
  8
0
100
AcDbLine
 62
7
  6
CONTINUOUS
 10
97.5988407538
 20
265.0744556238
 11
98.0878910244
 21
264.8645006995
  0
LINE
  5
258
100
AcDbEntity
  8
0
100
AcDbLine
 62
7
  6
CONTINUOUS
 10
91.9241893827
 20
265.9368649632
 11
92.4467307681
 21
265.6581137245
  0
LINE
  5
259
100
AcDbEntity
  8
0
100
AcDbLine
 62
7
  6
CONTINUOUS
 10
96.8475049925
 20
265.5014266738
 11
97.5988407538
 21
265.0744556238
  0
LINE
  5
25A
100
AcDbEntity
  8
0
100
AcDbLine
 62
7
  6
CONTINUOUS
 10
56.1583470699
 20
282.9613741749
 11
56.8791683748
 21
282.39269467
  0
LINE
  5
25B
100
AcDbEntity
  8
0
100
AcDbLine
 62
7
  6
CONTINUOUS
 10
57.1548633009
 20
283.3855777067
 11
56.8015259656
 21
283.7539956131
  0
LINE
  5
25C
100
AcDbEntity
  8
0
100
AcDbLine
 62
7
  6
CONTINUOUS
 10
66.119981432
 20
269.5156920148
 11
65.7043262069
 21
270.2745161377
  0
LINE
  5
25D
100
AcDbEntity
  8
0
100
AcDbLine
 62
7
  6
CONTINUOUS
 10
64.8438101155
 20
269.5132237729
 11
65.147649658
 21
268.8807889302
  0
LINE
  5
25E
100
AcDbEntity
  8
0
100
AcDbLine
 62
7
  6
CONTINUOUS
 10
62.3698961602
 20
274.5823508665
 11
62.0554939133
 21
275.5447995546
  0
LINE
  5
25F
100
AcDbEntity
  8
0
100
AcDbLine
 62
7
  6
CONTINUOUS
 10
60.7978849254
 20
279.3945943067
 11
60.4834825285
 21
280.3570434537
  0
LINE
  5
260
100
AcDbEntity
  8
0
100
AcDbLine
 62
7
  6
CONTINUOUS
 10
66.280401626
 20
268.7563751113
 11
66.119981432
 21
269.5156920148
  0
LINE
  5
261
100
AcDbEntity
  8
RUNDUNGEN
100
AcDbLine
 62
7
  6
CONTINUOUS
 10
67.9874548482
 20
194.1721116744
 11
67.9874548482
 21
211.2920052889
  0
LINE
  5
262
100
AcDbEntity
  8
RUNDUNGEN
100
AcDbLine
 62
7
  6
CONTINUOUS
 10
68.2374548482
 20
213.1905980914
 11
68.2374548482
 21
224.3481134241
  0
LINE
  5
263
100
AcDbEntity
  8
RUNDUNGEN
100
AcDbLine
 62
7
  6
CONTINUOUS
 10
68.2374548482
 20
347.6195911772
 11
68.2374548482
 21
398.9373581975
  0
LWPOLYLINE
  5
264
100
AcDbEntity
  8
RUNDUNGEN
100
AcDbPolyline
 62
7
  6
CONTINUOUS
 90
54
 70
0
 10
68.2375396505
 20
221.5637926173
 10
68.2403112927
 20
221.7337381858
 10
68.2474856548
 20
221.9178662672
 10
68.2593919688
 20
222.1113626634
 10
68.2759473014
 20
222.3095989824
 10
68.2968765229
 20
222.5091403364
 10
68.3216532253
 20
222.7065913851
 10
68.3501811769
 20
222.9026600313
 10
68.3824155351
 20
223.0978771836
 10
68.4182794608
 20
223.2921888616
 10
68.4577757688
 20
223.4858648627
 10
68.5009621153
 20
223.6792386715
 10
68.5479622249
 20
223.8727314981
 10
68.5988304654
 20
224.0663789653
 10
68.6536688653
 20
224.2602860663
 10
68.7125678008
 20
224.4544936565
 10
68.7756299785
 20
224.6490179503
 10
68.8429775115
 20
224.8438887193
 10
68.9147354857
 20
225.0391236726
 10
68.9910456506
 20
225.2347227742
 10
69.0720529076
 20
225.4306706333
 10
69.1579174559
 20
225.6269573643
 10
69.2488047399
 20
225.8235358757
 10
69.3448880088
 20
226.0203570548
 10
69.4463251428
 20
226.2173077539
 10
69.5533726059
 20
226.4144243071
 10
69.6662742364
 20
226.6116773225
 10
69.7853161708
 20
226.8090534006
 10
69.9107948774
 20
227.006498258
 10
70.0430289031
 20
227.203946684
 10
70.1823509173
 20
227.4012893694
 10
70.329125103
 20
227.5983998668
 10
70.4837347279
 20
227.7951244051
 10
70.6465799426
 20
227.9912610923
 10
70.8180736918
 20
228.186549555
 10
70.9986781305
 20
228.3807245402
 10
71.1888673488
 20
228.573459537
 10
71.3891466643
 20
228.7643629105
 10
71.600039239
 20
228.9529781205
 10
71.8221122315
 20
229.1388066196
 10
72.0558882874
 20
229.3212114567
 10
72.3020385364
 20
229.4995547115
 10
72.5611892212
 20
229.6730445983
 10
72.8341779265
 20
229.8408983656
 10
73.1217385017
 20
230.0021016943
 10
73.4246610937
 20
230.1554919742
 10
73.7437508049
 20
230.2997170425
 10
74.0797516664
 20
230.4332223261
 10
74.4332808166
 20
230.5542009697
 10
74.8048581918
 20
230.6605606014
 10
75.1948266592
 20
230.7499904033
 10
75.6033548801
 20
230.8199070201
 10
76.0305289755
 20
230.8674978003
 10
76.3473304835
 20
230.8861895815
  0
LWPOLYLINE
  5
265
100
AcDbEntity
  8
RUNDUNGEN
100
AcDbPolyline
 62
7
  6
CONTINUOUS
 90
9
 70
0
 10
67.9874603187
 20
211.289760429
 10
67.9874975776
 20
211.2906287831
 10
67.9882684804
 20
211.302478892
 10
67.9904651901
 20
211.3258725606
 10
67.9946870667
 20
211.3608776582
 10
68.0014390643
 20
211.4078281916
 10
68.0111299342
 20
211.4672578045
 10
68.0239299649
 20
211.5390556124
 10
68.039894508
 20
211.6236311367
  0
LINE
  5
266
100
AcDbEntity
  8
0
100
AcDbLine
 62
7
  6
CONTINUOUS
 10
66.1539831228
 20
267.7432940861
 11
66.280401626
 21
268.7563751113
  0
LINE
  5
267
100
AcDbEntity
  8
0
100
AcDbLine
 62
7
  6
CONTINUOUS
 10
60.2220549377
 20
283.2968873141
 11
60.4836032699
 21
284.1216145241
  0
LINE
  5
268
100
AcDbEntity
  8
0
100
AcDbLine
 62
7
  6
CONTINUOUS
 10
59.5153802671
 20
284.0337231268
 11
59.2821251632
 21
283.5453080514
  0
LINE
  5
269
100
AcDbEntity
  8
0
100
AcDbLine
 62
7
  6
CONTINUOUS
 10
53.359748076
 20
277.4973619281
 11
52.841255827
 21
276.6178844174
  0
LINE
  5
26A
100
AcDbEntity
  8
0
100
AcDbLine
 62
7
  6
CONTINUOUS
 10
54.0381971922
 20
276.6538361032
 11
54.4794663558
 21
277.1530371768
  0
LINE
  5
26B
100
AcDbEntity
  8
0
100
AcDbLine
 62
7
  6
CONTINUOUS
 10
99.4962821861
 20
286.0802086735
 11
107.2010453059
 21
288.2334911139
  0
LINE
  5
26C
100
AcDbEntity
  8
0
100
AcDbLine
 62
7
  6
CONTINUOUS
 10
106.9588010313
 20
289.1002769649
 11
103.5162472481
 21
288.138172031
  0
LINE
  5
26D
100
AcDbEntity
  8
0
100
AcDbLine
 62
7
  6
CONTINUOUS
 10
102.5326605841
 20
287.8632849437
 11
100.0736934649
 21
287.1760670972
  0
LINE
  5
26E
100
AcDbEntity
  8
0
100
AcDbLine
 62
7
  6
CONTINUOUS
 10
100.047929601
 20
291.0625596925
 11
100.5397233922
 21
291.2000033645
  0
LINE
  5
26F
100
AcDbEntity
  8
0
100
AcDbLine
 62
7
  6
CONTINUOUS
 10
99.4842352966
 20
283.9451532493
 11
107.4737227393
 21
284.3551415455
  0
LINE
  5
270
100
AcDbEntity
  8
0
100
AcDbLine
 62
7
  6
CONTINUOUS
 10
107.427599056
 20
285.2539588828
 11
99.4381116133
 21
284.8439705866
  0
LINE
  5
271
100
AcDbEntity
  8
0
100
AcDbLine
 62
7
  6
CONTINUOUS
 10
57.4374676262
 20
282.1763801855
 11
58.2007292878
 21
282.112168597
  0
LINE
  5
272
100
AcDbEntity
  8
0
100
AcDbLine
 62
7
  6
CONTINUOUS
 10
58.2856089322
 20
283.1211045196
 11
57.7131625523
 21
283.1692632223
  0
LINE
  5
273
100
AcDbEntity
  8
0
100
AcDbLine
 62
7
  6
CONTINUOUS
 10
51.7699228905
 20
287.9029080193
 11
55.7770443422
 21
287.5657973704
  0
LINE
  5
274
100
AcDbEntity
  8
0
100
AcDbLine
 62
7
  6
CONTINUOUS
 10
56.9219360329
 20
287.469480055
 11
59.784165794
 21
287.2286867215
  0
LINE
  5
275
100
AcDbEntity
  8
0
100
AcDbLine
 62
7
  6
CONTINUOUS
 10
98.3583007328
 20
271.06546931
 11
97.8692500948
 21
271.2754245383
  0
LINE
  5
276
100
AcDbEntity
  8
0
100
AcDbLine
 62
7
  6
CONTINUOUS
 10
100.9636570356
 20
272.0327893184
 11
101.7349437677
 21
271.6730301597
  0
LINE
  5
277
100
AcDbEntity
  8
0
100
AcDbLine
 62
7
  6
CONTINUOUS
 10
102.6226495909
 20
273.5761803836
 11
101.8513628587
 21
273.9359395423
  0
LINE
  5
278
100
AcDbEntity
  8
0
100
AcDbLine
 62
7
  6
CONTINUOUS
 10
99.1096374048
 20
270.6384997346
 11
98.3583007328
 21
271.06546931
  0
LINE
  5
279
100
AcDbEntity
  8
0
100
AcDbLine
 62
7
  6
CONTINUOUS
 10
98.0769544928
 20
265.6523034506
 11
97.1944749836
 21
266.1877811649
  0
LINE
  5
27A
100
AcDbEntity
  8
0
100
AcDbLine
 62
7
  6
CONTINUOUS
 10
97.8801880882
 20
270.4876228058
 11
98.7626663194
 21
269.9521439209
  0
LINE
  5
27B
100
AcDbEntity
  8
0
100
AcDbLine
 62
7
  6
CONTINUOUS
 10
95.6672211108
 20
266.4779985557
 11
96.8475049925
 21
265.5014266738
  0
LINE
  5
27C
100
AcDbEntity
  8
0
100
AcDbLine
 62
7
  6
CONTINUOUS
 10
97.1944749836
 20
266.1877811649
 11
96.276476409
 21
266.9473370731
  0
LINE
  5
27D
100
AcDbEntity
  8
0
100
AcDbLine
 62
7
  6
CONTINUOUS
 10
93.2142062781
 20
266.12820025
 11
92.7306732113
 21
266.630448856
  0
LINE
  5
27E
100
AcDbEntity
  8
0
100
AcDbLine
 62
7
  6
CONTINUOUS
 10
91.3654161694
 20
258.8080609102
 11
91.8099424439
 21
258.0823157319
  0
LINE
  5
27F
100
AcDbEntity
  8
0
100
AcDbLine
 62
7
  6
CONTINUOUS
 10
84.9680090841
 20
256.9534021651
 11
81.4941136432
 21
263.360010445
  0
LINE
  5
280
100
AcDbEntity
  8
0
100
AcDbLine
 62
7
  6
CONTINUOUS
 10
80.6128795805
 20
263.1771812164
 11
84.5879860601
 21
255.8315342164
  0
LINE
  5
281
100
AcDbEntity
  8
0
100
AcDbLine
 62
7
  6
CONTINUOUS
 10
75.3109455573
 20
256.7161057241
 11
74.3166207335
 21
263.9357939607
  0
LINE
  5
282
100
AcDbEntity
  8
0
100
AcDbLine
 62
7
  6
CONTINUOUS
 10
73.4274705485
 20
264.0751207296
 11
74.5600776109
 21
255.8000254682
  0
LWPOLYLINE
  5
283
100
AcDbEntity
  8
RUNDUNGEN
100
AcDbPolyline
 62
7
  6
CONTINUOUS
 90
4
 70
0
 10
68.2289924897
 20
213.5957583697
 10
68.2303009703
 20
213.6184833972
 10
68.2350972581
 20
213.7290109926
 10
68.2372963361
 20
213.8395411104
  0
LINE
  5
284
100
AcDbEntity
  8
0
100
AcDbLine
 62
7
  6
CONTINUOUS
 10
65.1962554491
 20
268.2478598605
 11
64.989627087
 21
267.6144362085
  0
LINE
  5
285
100
AcDbEntity
  8
0
100
AcDbLine
 62
7
  6
CONTINUOUS
 10
65.8039358138
 20
266.9829887288
 11
66.1539831228
 21
267.7432940861
  0
LINE
  5
286
100
AcDbEntity
  8
0
100
AcDbLine
 62
7
  6
CONTINUOUS
 10
59.5930226763
 20
282.6724221837
 11
60.2220549377
 21
283.2968873141
  0
LINE
  5
287
100
AcDbEntity
  8
0
100
AcDbLine
 62
7
  6
CONTINUOUS
 10
53.9830408879
 20
278.0560239951
 11
53.359748076
 21
277.4973619281
  0
LINE
  5
288
100
AcDbEntity
  8
0
100
AcDbLine
 62
7
  6
CONTINUOUS
 10
59.2821251632
 20
283.5453080514
 11
58.8722013714
 21
283.2411016886
  0
LINE
  5
289
100
AcDbEntity
  8
0
100
AcDbLine
 62
7
  6
CONTINUOUS
 10
58.7873217271
 20
282.232165766
 11
59.5930226763
 21
282.6724221837
  0
LINE
  5
28A
100
AcDbEntity
  8
0
100
AcDbLine
 62
7
  6
CONTINUOUS
 10
100.4614102283
 20
292.11260373
 11
99.8056853264
 21
291.9293455435
  0
LINE
  5
28B
100
AcDbEntity
  8
0
100
AcDbLine
 62
7
  6
CONTINUOUS
 10
51.3172314407
 20
282.5219162715
 11
55.8333029224
 21
283.6661037348
  0
LINE
  5
28C
100
AcDbEntity
  8
0
100
AcDbLine
 62
7
  6
CONTINUOUS
 10
55.5365520234
 20
284.7071456698
 11
51.4162577193
 21
283.699008502
  0
LINE
  5
28D
100
AcDbEntity
  8
0
100
AcDbLine
 62
7
  6
CONTINUOUS
 10
58.2007292878
 20
282.112168597
 11
58.7873217271
 21
282.232165766
  0
LINE
  5
28E
100
AcDbEntity
  8
0
100
AcDbLine
 62
7
  6
CONTINUOUS
 10
58.8722013714
 20
283.2411016886
 11
58.2856089322
 21
283.1211045196
  0
LINE
  5
28F
100
AcDbEntity
  8
0
100
AcDbLine
 62
7
  6
CONTINUOUS
 10
100.5397233922
 20
291.2000033645
 11
101.0718901539
 21
291.192984804
  0
LINE
  5
290
100
AcDbEntity
  8
0
100
AcDbLine
 62
7
  6
CONTINUOUS
 10
100.99357699
 20
292.1055851695
 11
100.4614102283
 21
292.11260373
  0
LINE
  5
291
100
AcDbEntity
  8
0
100
AcDbLine
 62
7
  6
CONTINUOUS
 10
60.8231218471
 20
288.1573582146
 11
51.8548025348
 21
288.9118439419
  0
LINE
  5
292
100
AcDbEntity
  8
0
100
AcDbLine
 62
7
  6
CONTINUOUS
 10
107.1370398372
 20
278.9130847822
 11
99.700629163
 21
282.7156893867
  0
LINE
  5
293
100
AcDbEntity
  8
0
100
AcDbLine
 62
7
  6
CONTINUOUS
 10
99.538414462
 20
281.8304287523
 11
106.0243460437
 21
278.5069866964
  0
LINE
  5
294
100
AcDbEntity
  8
0
100
AcDbLine
 62
7
  6
CONTINUOUS
 10
98.7626663194
 20
269.9521439209
 11
99.680664894
 21
269.1925880127
  0
LINE
  5
295
100
AcDbEntity
  8
0
100
AcDbLine
 62
7
  6
CONTINUOUS
 10
100.2899212864
 20
269.6619278527
 11
99.1096374048
 21
270.6384997346
  0
LINE
  5
296
100
AcDbEntity
  8
0
100
AcDbLine
 62
7
  6
CONTINUOUS
 10
96.276476409
 20
266.9473370731
 11
95.5852438922
 21
267.7139553532
  0
LINE
  5
297
100
AcDbEntity
  8
0
100
AcDbLine
 62
7
  6
CONTINUOUS
 10
99.680664894
 20
269.1925880127
 11
100.3718986887
 21
268.4259709032
  0
LINE
  5
298
100
AcDbEntity
  8
0
100
AcDbLine
 62
7
  6
CONTINUOUS
 10
95.1071301533
 20
267.1361075264
 11
95.6672211108
 21
266.4779985557
  0
LINE
  5
299
100
AcDbEntity
  8
0
100
AcDbLine
 62
7
  6
CONTINUOUS
 10
100.8500113333
 20
269.0038174074
 11
100.2899212864
 21
269.6619278527
  0
LINE
  5
29A
100
AcDbEntity
  8
0
100
AcDbLine
 62
7
  6
CONTINUOUS
 10
94.8093241354
 20
267.5772008273
 11
95.1071301533
 21
267.1361075264
  0
LINE
  5
29B
100
AcDbEntity
  8
0
100
AcDbLine
 62
7
  6
CONTINUOUS
 10
92.4467307681
 20
265.6581137245
 11
92.624541502
 21
265.3678152873
  0
LINE
  5
29C
100
AcDbEntity
  8
0
100
AcDbLine
 62
7
  6
CONTINUOUS
 10
96.4147955043
 20
260.9028348847
 11
95.9702692298
 21
261.628580063
  0
LINE
  5
29D
100
AcDbEntity
  8
0
100
AcDbLine
 62
7
  6
CONTINUOUS
 10
93.3920170121
 20
265.8379018127
 11
93.2142062781
 21
266.12820025
  0
LINE
  5
29E
100
AcDbEntity
  8
0
100
AcDbLine
 62
7
  6
CONTINUOUS
 10
88.5095579059
 20
264.0449729659
 11
88.7372653147
 21
263.3860285525
  0
LWPOLYLINE
  5
29F
100
AcDbEntity
  8
RUNDUNGEN
100
AcDbPolyline
 62
7
  6
CONTINUOUS
 90
8
 70
0
 10
90.8898791453
 20
211.8548116718
 10
90.9438358293
 20
211.5773815204
 10
90.9572328457
 20
211.504611913
 10
90.9679319268
 20
211.4425648715
 10
90.9759867149
 20
211.3911065522
 10
90.9815680601
 20
211.3504588076
 10
90.985035336
 20
211.320203106
 10
90.9857427968
 20
211.3129228308
  0
LWPOLYLINE
  5
2A0
100
AcDbEntity
  8
RUNDUNGEN
100
AcDbPolyline
 62
7
  6
CONTINUOUS
 90
15
 70
0
 10
90.745949612
 20
213.5953579914
 10
90.7782955006
 20
213.25978725
 10
90.8426135594
 20
212.8902726669
 10
90.935833586
 20
212.5301203199
 10
91.058019664
 20
212.1783394442
 10
91.2090405368
 20
211.8358206275
 10
91.3893761168
 20
211.5033705679
 10
91.5993109318
 20
211.1823106306
 10
91.8386769472
 20
210.8750645899
 10
92.1070159855
 20
210.5839941893
 10
92.4038856926
 20
210.3113952637
 10
92.728568777
 20
210.0596582512
 10
93.0805345908
 20
209.8309695696
 10
93.4592968715
 20
209.6276599335
 10
93.7868821773
 20
209.4827561449
  0
LWPOLYLINE
  5
2A1
100
AcDbEntity
  8
RUNDUNGEN
100
AcDbPolyline
 62
7
  6
CONTINUOUS
 90
4
 70
0
 10
90.9857427968
 20
211.3129228308
 10
90.986822053
 20
211.3000890005
 10
90.9874362304
 20
211.2901052144
 10
90.9874548482
 20
211.2902157027
  0
LINE
  5
2A2
100
AcDbEntity
  8
RUNDUNGEN
100
AcDbLine
 62
7
  6
CONTINUOUS
 10
90.745949612
 20
213.5953579914
 11
90.7459245841
 21
213.5957734995
  0
LINE
  5
2A3
100
AcDbEntity
  8
0
100
AcDbLine
 62
7
  6
CONTINUOUS
 10
89.3768287278
 20
263.7777676226
 11
89.3659386584
 21
264.369910476
  0
LINE
  5
2A4
100
AcDbEntity
  8
0
100
AcDbLine
 62
7
  6
CONTINUOUS
 10
85.7629645302
 20
256.0753064631
 11
86.4877736116
 21
264.3960427989
  0
LINE
  5
2A5
100
AcDbEntity
  8
0
100
AcDbLine
 62
7
  6
CONTINUOUS
 10
85.6065395489
 20
264.2132135702
 11
84.9680090841
 21
256.9534021651
  0
LWPOLYLINE
  5
2A6
100
AcDbEntity
  8
RUNDUNGEN
100
AcDbPolyline
 62
7
  6
CONTINUOUS
 90
10
 70
0
 10
68.102595297
 20
211.9464130269
 10
68.1260778633
 20
212.0739126919
 10
68.1493122762
 20
212.2088357245
 10
68.1713086777
 20
212.3498206448
 10
68.1913254671
 20
212.4958585151
 10
68.2085160748
 20
212.6462268879
 10
68.2222074769
 20
212.800043525
 10
68.2318029857
 20
212.9549399025
 10
68.2367560798
 20
213.1113554908
 10
68.2374006427
 20
213.190702569
  0
LINE
  5
2A7
100
AcDbEntity
  8
RUNDUNGEN
100
AcDbLine
 62
7
  6
CONTINUOUS
 10
68.039894508
 20
211.6236311367
 11
68.102595297
 21
211.9464130269
  0
LINE
  5
2A8
100
AcDbEntity
  8
0
100
AcDbLine
 62
7
  6
CONTINUOUS
 10
64.989627087
 20
267.6144362085
 11
64.5277640955
 21
266.9805201314
  0
LINE
  5
2A9
100
AcDbEntity
  8
0
100
AcDbLine
 62
7
  6
CONTINUOUS
 10
65.198653072
 20
266.2221902354
 11
65.8039358138
 21
266.9829887288
  0
LINE
  5
2AA
100
AcDbEntity
  8
0
100
AcDbLine
 62
7
  6
CONTINUOUS
 10
63.0207703009
 20
273.3078357218
 11
56.2800601141
 21
267.3443781528
  0
LINE
  5
2AB
100
AcDbEntity
  8
0
100
AcDbLine
 62
7
  6
CONTINUOUS
 10
57.8114652825
 20
267.3473407105
 11
62.8311431859
 21
271.7882134609
  0
LINE
  5
2AC
100
AcDbEntity
  8
0
100
AcDbLine
 62
7
  6
CONTINUOUS
 10
54.4794663558
 20
277.1530371768
 11
55.1551596645
 21
277.5512903227
  0
LINE
  5
2AD
100
AcDbEntity
  8
0
100
AcDbLine
 62
7
  6
CONTINUOUS
 10
54.8407572677
 20
278.5137394697
 11
53.9830408879
 21
278.0560239951
  0
LINE
  5
2AE
100
AcDbEntity
  8
0
100
AcDbLine
 62
7
  6
CONTINUOUS
 10
60.4834825285
 20
280.3570434537
 11
54.8407572677
 21
278.5137394697
  0
LINE
  5
2AF
100
AcDbEntity
  8
0
100
AcDbLine
 62
7
  6
CONTINUOUS
 10
55.1551596645
 20
277.5512903227
 11
60.7978849254
 21
279.3945943067
  0
LINE
  5
2B0
100
AcDbEntity
  8
0
100
AcDbLine
 62
7
  6
CONTINUOUS
 10
101.77042357
 20
291.8554503022
 11
100.99357699
 21
292.1055851695
  0
LINE
  5
2B1
100
AcDbEntity
  8
0
100
AcDbLine
 62
7
  6
CONTINUOUS
 10
101.0718901539
 20
291.192984804
 11
101.4805010828
 21
290.9956830117
  0
LINE
  5
2B2
100
AcDbEntity
  8
0
100
AcDbLine
 62
7
  6
CONTINUOUS
 10
101.1478169838
 20
268.5627244105
 11
100.8500113333
 21
269.0038174074
  0
LINE
  5
2B3
100
AcDbEntity
  8
0
100
AcDbLine
 62
7
  6
CONTINUOUS
 10
94.4759992358
 20
268.2423721701
 11
94.8093241354
 21
267.5772008273
  0
LINE
  5
2B4
100
AcDbEntity
  8
0
100
AcDbLine
 62
7
  6
CONTINUOUS
 10
101.4811419753
 20
267.8975529917
 11
101.1478169838
 21
268.5627244105
  0
LINE
  5
2B5
100
AcDbEntity
  8
0
100
AcDbLine
 62
7
  6
CONTINUOUS
 10
95.5852438922
 20
267.7139553532
 11
95.1808779383
 21
268.8272810463
  0
LINE
  5
2B6
100
AcDbEntity
  8
0
100
AcDbLine
 62
7
  6
CONTINUOUS
 10
93.6197258848
 20
265.178958296
 11
93.3920170121
 21
265.8379018127
  0
LINE
  5
2B7
100
AcDbEntity
  8
0
100
AcDbLine
 62
7
  6
CONTINUOUS
 10
92.624541502
 20
265.3678152873
 11
92.7243368138
 21
264.6305234185
  0
LINE
  5
2B8
100
AcDbEntity
  8
0
100
AcDbLine
 62
7
  6
CONTINUOUS
 10
93.6306159542
 20
264.5868154426
 11
93.6197258848
 21
265.178958296
  0
LWPOLYLINE
  5
2B9
100
AcDbEntity
  8
RUNDUNGEN
100
AcDbPolyline
 62
7
  6
CONTINUOUS
 90
4
 70
0
 10
90.7375104684
 20
213.8559555852
 10
90.7393238191
 20
213.7454105232
 10
90.7437337672
 20
213.6348721302
 10
90.7459161974
 20
213.5957729982
  0
LWPOLYLINE
  5
2BA
100
AcDbEntity
  8
RUNDUNGEN
100
AcDbPolyline
 62
7
  6
CONTINUOUS
 90
11
 70
0
 10
90.7375131406
 20
213.19028115
 10
90.7386254452
 20
213.0860017646
 10
90.743559902
 20
212.9455561115
 10
90.7527588669
 20
212.7993230536
 10
90.7660051838
 20
212.6500618136
 10
90.7828809142
 20
212.5014090269
 10
90.8026588304
 20
212.3562401314
 10
90.8241063245
 20
212.2179200325
 10
90.8464167828
 20
212.0874440837
 10
90.8685255058
 20
211.9665369843
 10
90.8898791453
 20
211.8548116718
  0
LINE
  5
2BB
100
AcDbEntity
  8
RUNDUNGEN
100
AcDbLine
 62
7
  6
CONTINUOUS
 10
90.9874548482
 20
211.2911582323
 11
90.98745081
 21
211.2920761118
  0
LINE
  5
2BC
100
AcDbEntity
  8
0
100
AcDbLine
 62
7
  6
CONTINUOUS
 10
90.7374548482
 20
398.9373581975
 11
90.7374548482
 21
351.9075786389
  0
LINE
  5
2BD
100
AcDbEntity
  8
RUNDUNGEN
100
AcDbLine
 62
7
  6
CONTINUOUS
 10
90.7374548482
 20
224.3481143015
 11
90.7375104684
 21
213.8559555852
  0
LINE
  5
2BE
100
AcDbEntity
  8
RUNDUNGEN
100
AcDbLine
 62
7
  6
CONTINUOUS
 10
90.7374548482
 20
213.8207397576
 11
90.7374548482
 21
213.1905971429
  0
LINE
  5
2BF
100
AcDbEntity
  8
0
100
AcDbLine
 62
7
  6
CONTINUOUS
 10
90.7374548482
 20
213.1906097314
 11
90.7374548482
 21
213.9103826676
  0
LINE
  5
2C0
100
AcDbEntity
  8
0
100
AcDbLine
 62
7
  6
CONTINUOUS
 10
90.7374548482
 20
347.6199337296
 11
90.7374548482
 21
350.3695911773
  0
LINE
  5
2C1
100
AcDbEntity
  8
RUNDUNGEN
100
AcDbLine
 62
7
  6
CONTINUOUS
 10
90.7374548482
 20
347.6199337297
 11
90.7374548482
 21
351.9075786389
  0
LINE
  5
2C2
100
AcDbEntity
  8
RUNDUNGEN
100
AcDbLine
 62
7
  6
CONTINUOUS
 10
90.9874548478
 20
211.2920973887
 11
90.9874548482
 21
194.1721116743
  0
LINE
  5
2C3
100
AcDbEntity
  8
0
100
AcDbLine
 62
7
  6
CONTINUOUS
 10
95.1808779383
 20
268.8272810463
 11
95.2054606557
 21
269.3910054517
  0
LINE
  5
2C4
100
AcDbEntity
  8
0
100
AcDbLine
 62
7
  6
CONTINUOUS
 10
94.4541250781
 20
269.8179763497
 11
94.3694392997
 21
268.9146045623
  0
LINE
  5
2C5
100
AcDbEntity
  8
0
100
AcDbLine
 62
7
  6
CONTINUOUS
 10
88.6655867882
 20
264.9389597453
 11
88.5095579059
 21
264.0449729659
  0
LINE
  5
2C6
100
AcDbEntity
  8
0
100
AcDbLine
 62
7
  6
CONTINUOUS
 10
75.7456111203
 20
255.614256454
 11
79.3551383071
 21
263.1462756256
  0
LINE
  5
2C7
100
AcDbEntity
  8
0
100
AcDbLine
 62
7
  6
CONTINUOUS
 10
78.4659881221
 20
263.2856023945
 11
75.3109455573
 21
256.7161057241
  0
LINE
  5
2C8
100
AcDbEntity
  8
0
100
AcDbLine
 62
7
  6
CONTINUOUS
 10
99.3542654241
 20
291.6474398957
 11
98.8196631188
 21
291.030788912
  0
LINE
  5
2C9
100
AcDbEntity
  8
0
100
AcDbLine
 62
7
  6
CONTINUOUS
 10
64.5277640955
 20
266.9805201314
 11
62.3764736659
 21
265.0772890415
  0
LINE
  5
2CA
100
AcDbEntity
  8
0
100
AcDbLine
 62
7
  6
CONTINUOUS
 10
63.0473626424
 20
264.3189591455
 11
65.198653072
 21
266.2221902354
  0
LINE
  5
2CB
100
AcDbEntity
  8
0
100
AcDbLine
 62
7
  6
CONTINUOUS
 10
99.8056853264
 20
291.9293455435
 11
99.3542654241
 21
291.6474398957
  0
LINE
  5
2CC
100
AcDbEntity
  8
0
100
AcDbLine
 62
7
  6
CONTINUOUS
 10
99.5965096987
 20
290.7806540447
 11
100.047929601
 21
291.0625596925
  0
LINE
  5
2CD
100
AcDbEntity
  8
0
100
AcDbLine
 62
7
  6
CONTINUOUS
 10
62.2184514967
 20
263.8109366753
 11
63.0473626424
 21
264.3189591455
  0
LINE
  5
2CE
100
AcDbEntity
  8
0
100
AcDbLine
 62
7
  6
CONTINUOUS
 10
62.3764736659
 20
265.0772890415
 11
61.6909818687
 21
264.6961486322
  0
LINE
  5
2CF
100
AcDbEntity
  8
0
100
AcDbLine
 62
7
  6
CONTINUOUS
 10
62.0554939133
 20
275.5447995546
 11
56.4127686524
 21
273.7014955706
  0
LINE
  5
2D0
100
AcDbEntity
  8
0
100
AcDbLine
 62
7
  6
CONTINUOUS
 10
56.7271708994
 20
272.7390468825
 11
62.3698961602
 21
274.5823508665
  0
LINE
  5
2D1
100
AcDbEntity
  8
0
100
AcDbLine
 62
7
  6
CONTINUOUS
 10
102.423713393
 20
291.4150355097
 11
101.77042357
 21
291.8554503022
  0
LINE
  5
2D2
100
AcDbEntity
  8
0
100
AcDbLine
 62
7
  6
CONTINUOUS
 10
101.4805010828
 20
290.9956830117
 11
101.7655543308
 21
290.6081046008
  0
LINE
  5
2D3
100
AcDbEntity
  8
0
100
AcDbLine
 62
7
  6
CONTINUOUS
 10
100.3718986887
 20
268.4259709032
 11
100.7762632728
 21
267.3126441155
  0
LINE
  5
2D4
100
AcDbEntity
  8
0
100
AcDbLine
 62
7
  6
CONTINUOUS
 10
98.5273050879
 20
289.5473520774
 11
99.4962821861
 21
286.0802086735
  0
LINE
  5
2D5
100
AcDbEntity
  8
0
100
AcDbLine
 62
7
  6
CONTINUOUS
 10
100.0736934649
 20
287.1760670972
 11
99.3065872116
 21
289.9208867542
  0
LINE
  5
2D6
100
AcDbEntity
  8
0
100
AcDbLine
 62
7
  6
CONTINUOUS
 10
94.3694392997
 20
268.9146045623
 11
94.4759992358
 21
268.2423721701
  0
LINE
  5
2D7
100
AcDbEntity
  8
0
100
AcDbLine
 62
7
  6
CONTINUOUS
 10
101.5877019573
 20
267.2253205615
 11
101.4811419753
 21
267.8975529917
  0
LINE
  5
2D8
100
AcDbEntity
  8
0
100
AcDbLine
 62
7
  6
CONTINUOUS
 10
99.4381116133
 20
284.8439705866
 11
99.4842352966
 21
283.9451532493
  0
LINE
  5
2D9
100
AcDbEntity
  8
0
100
AcDbLine
 62
7
  6
CONTINUOUS
 10
98.4893662778
 20
290.3154870322
 11
98.5273050879
 21
289.5473520774
  0
LINE
  5
2DA
100
AcDbEntity
  8
0
100
AcDbLine
 62
7
  6
CONTINUOUS
 10
100.7762632728
 20
267.3126441155
 11
100.7516805554
 21
266.7489197101
  0
LINE
  5
2DB
100
AcDbEntity
  8
0
100
AcDbLine
 62
7
  6
CONTINUOUS
 10
99.3065872116
 20
289.9208867542
 11
99.3493961849
 21
290.4000941943
  0
LINE
  5
2DC
100
AcDbEntity
  8
0
100
AcDbLine
 62
7
  6
CONTINUOUS
 10
101.5030173077
 20
266.3219500682
 11
101.5877019573
 21
267.2253205615
  0
LINE
  5
2DD
100
AcDbEntity
  8
0
100
AcDbLine
 62
7
  6
CONTINUOUS
 10
99.700629163
 20
282.7156893867
 11
99.538414462
 21
281.8304287523
  0
LINE
  5
2DE
100
AcDbEntity
  8
0
100
AcDbLine
 62
7
  6
CONTINUOUS
 10
98.7814123174
 20
277.6992113329
 11
98.6191976164
 21
276.8139506986
  0
LINE
  5
2DF
100
AcDbEntity
  8
0
100
AcDbLine
 62
7
  6
CONTINUOUS
 10
92.7243368138
 20
264.6305234185
 11
91.3654161694
 21
258.8080609102
  0
LINE
  5
2E0
100
AcDbEntity
  8
0
100
AcDbLine
 62
7
  6
CONTINUOUS
 10
92.3887173374
 20
259.434843243
 11
93.6306159542
 21
264.5868154426
  0
LINE
  5
2E1
100
AcDbEntity
  8
0
100
AcDbLine
 62
7
  6
CONTINUOUS
 10
89.3659386584
 20
264.369910476
 11
89.5718659285
 21
264.8952517694
  0
LINE
  5
2E2
100
AcDbEntity
  8
0
100
AcDbLine
 62
7
  6
CONTINUOUS
 10
98.8196631188
 20
291.030788912
 11
98.4893662778
 21
290.3154870322
  0
LINE
  5
2E3
100
AcDbEntity
  8
0
100
AcDbLine
 62
7
  6
CONTINUOUS
 10
95.2054606557
 20
269.3910054517
 11
95.5524317412
 21
270.0773612653
  0
LINE
  5
2E4
100
AcDbEntity
  8
0
100
AcDbLine
 62
7
  6
CONTINUOUS
 10
94.8967184736
 20
270.6199011997
 11
94.4541250781
 21
269.8179763497
  0
LINE
  5
2E5
100
AcDbEntity
  8
0
100
AcDbLine
 62
7
  6
CONTINUOUS
 10
88.9994261554
 20
265.5426484941
 11
88.6655867882
 21
264.9389597453
  0
LINE
  5
2E6
100
AcDbEntity
  8
0
100
AcDbLine
 62
7
  6
CONTINUOUS
 10
99.3493961849
 20
290.4000941943
 11
99.5965096987
 21
290.7806540447
  0
LINE
  5
2E7
100
AcDbEntity
  8
0
100
AcDbLine
 62
7
  6
CONTINUOUS
 10
61.4211439165
 20
263.5561854574
 11
62.2184514967
 21
263.8109366753
  0
LINE
  5
2E8
100
AcDbEntity
  8
0
100
AcDbLine
 62
7
  6
CONTINUOUS
 10
96.4731377812
 20
271.4571326196
 11
95.6015971761
 21
271.204810076
  0
LINE
  5
2E9
100
AcDbEntity
  8
0
100
AcDbLine
 62
7
  6
CONTINUOUS
 10
102.7895144245
 20
290.738529584
 11
102.423713393
 21
291.4150355097
  0
LINE
  5
2EA
100
AcDbEntity
  8
0
100
AcDbLine
 62
7
  6
CONTINUOUS
 10
101.7655543308
 20
290.6081046008
 11
102.5326605841
 21
287.8632849437
  0
LINE
  5
2EB
100
AcDbEntity
  8
0
100
AcDbLine
 62
7
  6
CONTINUOUS
 10
103.5162472481
 20
288.138172031
 11
102.7895144245
 21
290.738529584
  0
LINE
  5
2EC
100
AcDbEntity
  8
0
100
AcDbLine
 62
7
  6
CONTINUOUS
 10
107.2010453059
 20
288.2334911139
 11
106.9588010313
 21
289.1002769649
  0
LINE
  5
2ED
100
AcDbEntity
  8
0
100
AcDbLine
 62
7
  6
CONTINUOUS
 10
107.4737227393
 20
284.3551415455
 11
107.427599056
 21
285.2539588828
  0
LINE
  5
2EE
100
AcDbEntity
  8
0
100
AcDbLine
 62
7
  6
CONTINUOUS
 10
106.9207537754
 20
277.7327383953
 11
107.1370398372
 21
278.9130847822
  0
LINE
  5
2EF
100
AcDbEntity
  8
0
100
AcDbLine
 62
7
  6
CONTINUOUS
 10
101.8513628587
 20
273.9359395423
 11
100.9636570356
 21
272.0327893184
  0
LINE
  5
2F0
100
AcDbEntity
  8
0
100
AcDbLine
 62
7
  6
CONTINUOUS
 10
101.7349437677
 20
271.6730301597
 11
102.6226495909
 21
273.5761803836
  0
LINE
  5
2F1
100
AcDbEntity
  8
0
100
AcDbLine
 62
7
  6
CONTINUOUS
 10
100.7516805554
 20
266.7489197101
 11
100.4047105643
 21
266.062565219
  0
LINE
  5
2F2
100
AcDbEntity
  8
0
100
AcDbLine
 62
7
  6
CONTINUOUS
 10
101.0604239237
 20
265.5200252087
 11
101.5030173077
 21
266.3219500682
  0
LINE
  5
2F3
100
AcDbEntity
  8
0
100
AcDbLine
 62
7
  6
CONTINUOUS
 10
89.5718659285
 20
264.8952517694
 11
90.1225226353
 21
265.4321389582
  0
LINE
  5
2F4
100
AcDbEntity
  8
0
100
AcDbLine
 62
7
  6
CONTINUOUS
 10
89.8059099839
 20
266.2362323869
 11
88.9994261554
 21
265.5426484941
  0
LINE
  5
2F5
100
AcDbEntity
  8
0
100
AcDbLine
 62
7
  6
CONTINUOUS
 10
95.6015971761
 20
271.204810076
 11
94.8967184736
 21
270.6199011997
  0
LINE
  5
2F6
100
AcDbEntity
  8
0
100
AcDbLine
 62
7
  6
CONTINUOUS
 10
95.5524317412
 20
270.0773612653
 11
96.1616870393
 21
270.5466997827
  0
LINE
  5
2F7
100
AcDbEntity
  8
0
100
AcDbLine
 62
7
  6
CONTINUOUS
 10
100.4047105643
 20
266.062565219
 11
99.7954541718
 21
265.5932253791
  0
LINE
  5
2F8
100
AcDbEntity
  8
0
100
AcDbLine
 62
7
  6
CONTINUOUS
 10
90.317559836
 20
266.549623105
 11
89.8059099839
 21
266.2362323869
  0
LINE
  5
2F9
100
AcDbEntity
  8
0
100
AcDbLine
 62
7
  6
CONTINUOUS
 10
90.1225226353
 20
265.4321389582
 11
90.6341739512
 21
265.745530573
  0
LINE
  5
2FA
100
AcDbEntity
  8
0
100
AcDbLine
 62
7
  6
CONTINUOUS
 10
88.7372653147
 20
263.3860285525
 11
89.3768287278
 21
263.7777676226
  0
LINE
  5
2FB
100
AcDbEntity
  8
0
100
AcDbLine
 62
7
  6
CONTINUOUS
 10
91.1739405886
 20
266.8745606152
 11
90.317559836
 21
266.549623105
  0
LINE
  5
2FC
100
AcDbEntity
  8
0
100
AcDbLine
 62
7
  6
CONTINUOUS
 10
90.6341739512
 20
265.745530573
 11
91.3626411428
 21
265.9921197311
  0
LINE
  5
2FD
100
AcDbEntity
  8
0
100
AcDbLine
 62
7
  6
CONTINUOUS
 10
99.4840034758
 20
264.6827925042
 11
100.3555452097
 21
264.9351163419
  0
LINE
  5
2FE
100
AcDbEntity
  8
0
100
AcDbLine
 62
7
  6
CONTINUOUS
 10
100.3555452097
 20
264.9351163419
 11
101.0604239237
 21
265.5200252087
  0
LINE
  5
2FF
100
AcDbEntity
  8
0
100
AcDbLine
 62
7
  6
CONTINUOUS
 10
95.9702692298
 20
261.628580063
 11
92.3887173374
 21
259.434843243
  0
LINE
  5
300
100
AcDbEntity
  8
0
100
AcDbLine
 62
7
  6
CONTINUOUS
 10
91.8099424439
 20
258.0823157319
 11
96.4147955043
 21
260.9028348847
  0
LINE
  5
301
100
AcDbEntity
  8
0
100
AcDbLine
 62
7
  6
CONTINUOUS
 10
130.4874548482
 20
319.2413293309
 11
130.4874548482
 21
392.549740006
  0
LWPOLYLINE
  5
302
100
AcDbEntity
  8
RUNDUNGEN
100
AcDbPolyline
 62
7
  6
CONTINUOUS
 90
4
 70
0
 10
62.9136216524
 20
208.4681735634
 10
63.1604408348
 20
208.588459106
 10
64.0701533562
 20
209.0097413174
 10
65.0121792632
 20
209.4114409538
  0
LWPOLYLINE
  5
303
100
AcDbEntity
  8
RUNDUNGEN
100
AcDbPolyline
 62
7
  6
CONTINUOUS
 90
15
 70
0
 10
65.1880261205
 20
209.482755669
 10
65.5151943037
 20
209.6274573757
 10
65.8936617563
 20
209.8305472046
 10
66.245463302
 20
210.0590345865
 10
66.5700671486
 20
210.3105875871
 10
66.8669204694
 20
210.5830223006
 10
67.1352580053
 20
210.8739156272
 10
67.374606752
 20
211.180921589
 10
67.584505296
 20
211.5016484274
 10
67.7647659664
 20
211.8335717832
 10
67.9157689507
 20
212.1754898393
 10
68.0380322739
 20
212.5266808689
 10
68.1314653546
 20
212.8864204488
 10
68.1961017626
 20
213.2559441859
 10
68.2289583788
 20
213.5953663909
  0
LINE
  5
304
100
AcDbEntity
  8
RUNDUNGEN
100
AcDbLine
 62
7
  6
CONTINUOUS
 10
65.0121792632
 20
209.4114409538
 11
65.1881680537
 21
209.4827837864
  0
LINE
  5
305
100
AcDbEntity
  8
BEZUGSACHSEN
100
AcDbLine
 62
7
  6
CONTINUOUS
 10
68.2374548482
 20
366.6195911773
 11
90.7374548482
 21
366.6195911773
  0
LINE
  5
306
100
AcDbEntity
  8
BEZUGSACHSEN
100
AcDbLine
 62
7
  6
CONTINUOUS
 10
68.2374548482
 20
391.1195911773
 11
90.7374548482
 21
391.1195911773
  0
LINE
  5
307
100
AcDbEntity
  8
0
100
AcDbLine
 62
7
  6
CONTINUOUS
 10
129.3176770638
 20
395.7636780544
 11
121.0778435677
 21
405.5835292258
  0
LINE
  5
308
100
AcDbEntity
  8
0
100
AcDbLine
 62
7
  6
CONTINUOUS
 10
117.2476213521
 20
407.3695911773
 11
108.2102680809
 21
407.3695911773
  0
LINE
  5
309
100
AcDbEntity
  8
KONSTRUKTIONSELEMENTE
100
AcDbLine
 62
7
  6
CONTINUOUS
 10
50.7646416155
 20
407.3695911773
 11
41.7272883443
 21
407.3695911773
  0
LINE
  5
30A
100
AcDbEntity
  8
RUNDUNGEN
100
AcDbLine
 62
7
  6
CONTINUOUS
 10
226.5315911807
 20
386.5955214603
 11
230.5738010991
 21
392.9703328011
  0
LINE
  5
30B
100
AcDbEntity
  8
RUNDUNGEN
100
AcDbLine
 62
7
  6
CONTINUOUS
 10
188.0688782312
 20
258.8884101642
 11
208.7443352943
 21
202.0830587464
  0
LINE
  5
30C
100
AcDbEntity
  8
RUNDUNGEN
100
AcDbLine
 62
7
  6
CONTINUOUS
 10
225.7542399331
 20
383.9179782741
 11
225.7542399331
 21
368.0913528859
  0
LINE
  5
30D
100
AcDbEntity
  8
RUNDUNGEN
100
AcDbLine
 62
7
  6
CONTINUOUS
 10
226.0557768292
 20
366.3812521693
 11
228.6103523138
 21
359.362613709
  0
LINE
  5
30E
100
AcDbEntity
  8
RUNDUNGEN
100
AcDbLine
 62
7
  6
CONTINUOUS
 10
287.7542399331
 20
240.8455521877
 11
287.7542399331
 21
383.9179782741
  0
LINE
  5
30F
100
AcDbEntity
  8
0
100
AcDbLine
 62
7
  6
CONTINUOUS
 10
277.9139838288
 20
212.1872802406
 11
277.9778682989
 21
212.2896610762
  0
LINE
  5
310
100
AcDbEntity
  8
RUNDUNGEN
100
AcDbLine
 62
7
  6
CONTINUOUS
 10
267.7509032912
 20
195.8999935628
 11
280.9315081487
 21
217.0231450627
  0
LINE
  5
311
100
AcDbEntity
  8
RUNDUNGEN
100
AcDbLine
 62
7
  6
CONTINUOUS
 10
286.9768886855
 20
386.5955214603
 11
282.9346788673
 21
392.9703326432
  0
LWPOLYLINE
  5
312
100
AcDbEntity
  8
RUNDUNGEN
100
AcDbPolyline
 62
7
  6
CONTINUOUS
 90
14
 70
0
 10
435.5587655287
 20
180.3699496759
 10
435.9696679288
 20
180.391636072
 10
436.3773957018
 20
180.4470355312
 10
436.7791870385
 20
180.5357727358
 10
437.1723203845
 20
180.6572464304
 10
437.5541328909
 20
180.8106335011
 10
437.9220384946
 20
180.994894571
 10
438.2735453998
 20
181.2087810259
 10
438.6062729574
 20
181.4508434491
 10
438.9179682055
 20
181.7194417831
 10
439.2065209312
 20
182.0127564837
 10
439.4699768009
 20
182.3287995274
 10
439.7065518089
 20
182.6654286543
 10
439.9146001174
 20
183.0202786182
  0
LINE
  5
313
100
AcDbEntity
  8
RUNDUNGEN
100
AcDbLine
 62
7
  6
CONTINUOUS
 10
435.5009190766
 20
180.3696150438
 11
435.5587655287
 21
180.3699496759
  0
LINE
  5
314
100
AcDbEntity
  8
0
100
AcDbLine
 62
7
  6
CONTINUOUS
 10
362.9864562407
 20
180.3695911773
 11
368.6588352595
 21
180.3695911773
  0
LINE
  5
315
100
AcDbEntity
  8
KONSTRUKTIONSELEMENTE
100
AcDbLine
 62
7
  6
CONTINUOUS
 10
429.8470694226
 20
180.3695911773
 11
435.5194484414
 21
180.3695911773
  0
LINE
  5
316
100
AcDbEntity
  8
0
100
AcDbLine
 62
7
  6
CONTINUOUS
 10
362.9567629936
 20
180.3698475911
 11
363.0049856055
 21
180.3696150438
  0
LINE
  5
317
100
AcDbEntity
  8
0
100
AcDbLine
 62
7
  6
CONTINUOUS
 10
349.4227301255
 20
395.7636780544
 11
357.6625636215
 21
405.5835292258
  0
LWPOLYLINE
  5
318
100
AcDbEntity
  8
0
100
AcDbPolyline
 62
7
  6
CONTINUOUS
 90
14
 70
0
 10
358.5913045608
 20
183.0202786265
 10
358.7997512892
 20
182.6648091237
 10
359.0368245653
 20
182.3276294741
 10
359.3008696879
 20
182.0111168978
 10
359.5900922283
 20
181.7174249013
 10
359.9025261959
 20
181.4485515173
 10
360.2360488762
 20
181.2063247743
 10
360.5883938529
 20
180.9923918632
 10
360.9571661759
 20
180.8082078848
 10
361.3398591424
 20
180.6550255443
 10
361.7338713362
 20
180.5338866648
 10
362.1365242715
 20
180.445615121
 10
362.5450806506
 20
180.3908112158
 10
362.9567629936
 20
180.3698475911
  0
LWPOLYLINE
  5
319
100
AcDbEntity
  8
RUNDUNGEN
100
AcDbPolyline
 62
7
  6
CONTINUOUS
 90
9
 70
0
 10
396.1128383241
 20
230.8861982244
 10
396.7683375011
 20
230.907606627
 10
397.5936649167
 20
230.9272739494
 10
398.4254259685
 20
230.939081833
 10
399.2604271078
 20
230.942976433
 10
400.0953922422
 20
230.9389400544
 10
400.9270475584
 20
230.9269913892
 10
401.7522040699
 20
230.9071851675
 10
402.3930658651
 20
230.8861982503
  0
LWPOLYLINE
  5
31A
100
AcDbEntity
  8
RUNDUNGEN
100
AcDbPolyline
 62
7
  6
CONTINUOUS
 90
54
 70
0
 10
402.3930767058
 20
230.8861895815
 10
402.7098782137
 20
230.8674978003
 10
403.1370523092
 20
230.8199070201
 10
403.5455805301
 20
230.7499904033
 10
403.9355489975
 20
230.6605606014
 10
404.3071263727
 20
230.5542009697
 10
404.6606555229
 20
230.4332223261
 10
404.9966563844
 20
230.2997170425
 10
405.3157460956
 20
230.1554919742
 10
405.6186686876
 20
230.0021016943
 10
405.9062292628
 20
229.8408983656
 10
406.179217968
 20
229.6730445983
 10
406.4383686529
 20
229.4995547115
 10
406.6845189019
 20
229.3212114567
 10
406.9182949578
 20
229.1388066196
 10
407.1403679503
 20
228.9529781205
 10
407.351260525
 20
228.7643629105
 10
407.5515398405
 20
228.573459537
 10
407.7417290588
 20
228.3807245402
 10
407.9223334975
 20
228.186549555
 10
408.0938272467
 20
227.9912610923
 10
408.2566724614
 20
227.7951244051
 10
408.4112820862
 20
227.5983998668
 10
408.5580562719
 20
227.4012893694
 10
408.6973782862
 20
227.203946684
 10
408.8296123118
 20
227.006498258
 10
408.9550910185
 20
226.8090534006
 10
409.0741329529
 20
226.6116773225
 10
409.1870345834
 20
226.4144243071
 10
409.2940820465
 20
226.2173077539
 10
409.3955191805
 20
226.0203570548
 10
409.4916024493
 20
225.8235358757
 10
409.5824897334
 20
225.6269573643
 10
409.6683542817
 20
225.4306706333
 10
409.7493615387
 20
225.2347227742
 10
409.8256717036
 20
225.0391236726
 10
409.8974296778
 20
224.8438887193
 10
409.9647772108
 20
224.6490179503
 10
410.0278393885
 20
224.4544936565
 10
410.086738324
 20
224.2602860663
 10
410.1415767239
 20
224.0663789653
 10
410.1924449644
 20
223.8727314981
 10
410.239445074
 20
223.6792386715
 10
410.2826314205
 20
223.4858648627
 10
410.3221277285
 20
223.2921888616
 10
410.3579916542
 20
223.0978771836
 10
410.3902260124
 20
222.9026600313
 10
410.418753964
 20
222.7065913851
 10
410.4435306663
 20
222.5091403364
 10
410.4644598879
 20
222.3095989824
 10
410.4810152205
 20
222.1113626634
 10
410.4929215345
 20
221.9178662672
 10
410.5000958966
 20
221.7337381858
 10
410.5028675388
 20
221.5637926173
  0
LINE
  5
31B
100
AcDbEntity
  8
0
100
AcDbLine
 62
7
  6
CONTINUOUS
 10
348.2529523411
 20
392.549740006
 11
348.2529523411
 21
319.2415753908
  0
LINE
  5
31C
100
AcDbEntity
  8
BEZUGSACHSEN
100
AcDbLine
 62
7
  6
CONTINUOUS
 10
401.5380324851
 20
259.7386043587
 11
388.1101327192
 21
259.7386043587
  0
LINE
  5
31D
100
AcDbEntity
  8
RUNDUNGEN
100
AcDbLine
 62
7
  6
CONTINUOUS
 10
387.7529523411
 20
194.1721116743
 11
387.7529523411
 21
279.3629123339
  0
LINE
  5
31E
100
AcDbEntity
  8
0
100
AcDbLine
 62
7
  6
CONTINUOUS
 10
387.7529523411
 20
278.9060774477
 11
387.7529523411
 21
301.7785320099
  0
LINE
  5
31F
100
AcDbEntity
  8
0
100
AcDbLine
 62
7
  6
CONTINUOUS
 10
388.0029523411
 20
332.7461142348
 11
388.0029523411
 21
398.9373581975
  0
LWPOLYLINE
  5
320
100
AcDbEntity
  8
RUNDUNGEN
100
AcDbPolyline
 62
7
  6
CONTINUOUS
 90
55
 70
0
 10
388.0029523411
 20
213.1905971429
 10
388.0030941793
 20
221.5743009811
 10
388.00612321
 20
221.7448715498
 10
388.0135667248
 20
221.9293230964
 10
388.0257340803
 20
222.1228967448
 10
388.0425246947
 20
222.3209757316
 10
388.063662639
 20
222.5202595332
 10
388.0886262612
 20
222.717429909
 10
388.1173279006
 20
222.9132375512
 10
388.1497231765
 20
223.1081998261
 10
388.1857424679
 20
223.3022790586
 10
388.2253893296
 20
223.4957496897
 10
388.2687251859
 20
223.6889379914
 10
388.3158746571
 20
223.8822684369
 10
388.3668929399
 20
224.0757697582
 10
388.4218821874
 20
224.2695408294
 10
388.4809333158
 20
224.4636234341
 10
388.5441490761
 20
224.6580306826
 10
388.6116525725
 20
224.8527903852
 10
388.6835700421
 20
225.0479228626
 10
388.7600428056
 20
225.2434259413
 10
388.8412152133
 20
225.4392768641
 10
388.9272474512
 20
225.6354683567
 10
389.0183043282
 20
225.8319508354
 10
389.1145600762
 20
226.028672472
 10
389.2161737982
 20
226.2255260385
 10
389.3234017894
 20
226.4225448638
 10
389.436487911
 20
226.6196958121
 10
389.5557184618
 20
226.8169684171
 10
389.681389412
 20
227.0143048026
 10
389.8138203267
 20
227.2116384185
 10
389.9533453032
 20
227.4088644608
 10
390.100327963
 20
227.6058528352
 10
390.2551514072
 20
227.8024460649
 10
390.4182161232
 20
227.9984448172
 10
390.5899332685
 20
228.1935850774
 10
390.770767051
 20
228.3876002164
 10
390.9611962108
 20
228.5801683531
 10
391.1617230655
 20
228.7708953445
 10
391.3728646247
 20
228.9593154783
 10
391.5951904729
 20
229.14492903
 10
391.8292334111
 20
229.3271085365
 10
392.0756599888
 20
229.5052106615
 10
392.3350891836
 20
229.678435392
 10
392.6083610597
 20
229.8459977787
 10
392.8962200542
 20
230.0068882477
 10
393.1994459311
 20
230.1599370264
 10
393.5188334636
 20
230.3037844978
 10
393.8551381364
 20
230.4368749842
 10
394.2089739942
 20
230.557399896
 10
394.5808509171
 20
230.6632622911
 10
394.9711099947
 20
230.7521462569
 10
395.3799078947
 20
230.8214666059
 10
395.8073205917
 20
230.8684079224
 10
396.1128262566
 20
230.8861896903
  0
LWPOLYLINE
  5
321
100
AcDbEntity
  8
RUNDUNGEN
100
AcDbPolyline
 62
7
  6
CONTINUOUS
 90
3
 70
0
 10
387.9968472873
 20
212.9455561115
 10
388.0017817441
 20
213.0860017646
 10
388.0028940487
 20
213.19028115
  0
LWPOLYLINE
  5
322
100
AcDbEntity
  8
RUNDUNGEN
100
AcDbPolyline
 62
7
  6
CONTINUOUS
 90
9
 70
0
 10
387.7529447751
 20
211.2894578481
 10
387.7529709589
 20
211.2901052144
 10
387.7535851362
 20
211.3000890005
 10
387.7553718533
 20
211.320203106
 10
387.7588391292
 20
211.3504588076
 10
387.7644204744
 20
211.3911065522
 10
387.7724752625
 20
211.4425648715
 10
387.7831743435
 20
211.504611913
 10
387.7965713599
 20
211.5773815204
  0
LINE
  5
323
100
AcDbEntity
  8
BEZUGSACHSEN
100
AcDbLine
 62
7
  6
CONTINUOUS
 10
404.9154473305
 20
280.7386043587
 11
393.591968729
 21
280.7386043587
  0
LWPOLYLINE
  5
324
100
AcDbEntity
  8
RUNDUNGEN
100
AcDbPolyline
 62
7
  6
CONTINUOUS
 90
3
 70
0
 10
410.7005126813
 20
211.6236311367
 10
410.7164772244
 20
211.5390556124
 10
410.7292772551
 20
211.4672578045
  0
LWPOLYLINE
  5
325
100
AcDbEntity
  8
RUNDUNGEN
100
AcDbPolyline
 62
7
  6
CONTINUOUS
 90
5
 70
0
 10
410.7292772551
 20
211.4672578045
 10
410.7389681249
 20
211.4078281916
 10
410.7457201226
 20
211.3608776582
 10
410.7499419992
 20
211.3258725606
 10
410.7508729391
 20
211.3167703272
  0
LWPOLYLINE
  5
326
100
AcDbEntity
  8
RUNDUNGEN
100
AcDbPolyline
 62
7
  6
CONTINUOUS
 90
9
 70
0
 10
410.5086042036
 20
212.9549399025
 10
410.5181997123
 20
212.800043525
 10
410.5318911145
 20
212.6462268879
 10
410.5490817222
 20
212.4958585151
 10
410.5690985115
 20
212.3498206448
 10
410.5910949131
 20
212.2088357245
 10
410.614329326
 20
212.0739126919
 10
410.6378118923
 20
211.9464130269
 10
410.7005126813
 20
211.6236311367
  0
LINE
  5
327
100
AcDbEntity
  8
0
100
AcDbLine
 62
7
  6
CONTINUOUS
 10
407.5371661351
 20
260.9109676286
 11
407.5371661351
 21
261.0227896777
  0
LINE
  5
328
100
AcDbEntity
  8
0
100
AcDbLine
 62
7
  6
CONTINUOUS
 10
407.5371661351
 20
280.532690616
 11
407.5371661351
 21
280.6445126651
  0
LWPOLYLINE
  5
329
100
AcDbEntity
  8
RUNDUNGEN
100
AcDbPolyline
 62
7
  6
CONTINUOUS
 90
8
 70
0
 10
387.8718816835
 20
211.9665369843
 10
387.8939904064
 20
212.0874440837
 10
387.9163008648
 20
212.2179200325
 10
387.9377483588
 20
212.3562401314
 10
387.9575262751
 20
212.5014090269
 10
387.9744020055
 20
212.6500618136
 10
387.9876483224
 20
212.7993230536
 10
387.9968472873
 20
212.9455561115
  0
LINE
  5
32A
100
AcDbEntity
  8
RUNDUNGEN
100
AcDbLine
 62
7
  6
CONTINUOUS
 10
387.7965713599
 20
211.5773815204
 11
387.8718816835
 21
211.9665369843
  0
LWPOLYLINE
  5
32B
100
AcDbEntity
  8
RUNDUNGEN
100
AcDbPolyline
 62
7
  6
CONTINUOUS
 90
3
 70
0
 10
410.5030065466
 20
213.190702569
 10
410.5036511095
 20
213.1113554908
 10
410.5086042036
 20
212.9549399025
  0
LINE
  5
32C
100
AcDbEntity
  8
RUNDUNGEN
100
AcDbLine
 62
7
  6
CONTINUOUS
 10
410.5029523411
 20
213.1905980914
 11
410.5028675388
 21
221.5637926173
  0
LINE
  5
32D
100
AcDbEntity
  8
RUNDUNGEN
100
AcDbLine
 62
7
  6
CONTINUOUS
 10
410.5029523411
 20
332.7461142348
 11
410.5029523411
 21
398.9373581975
  0
LINE
  5
32E
100
AcDbEntity
  8
0
100
AcDbLine
 62
7
  6
CONTINUOUS
 10
410.7529523411
 20
301.7785320099
 11
410.7529523411
 21
278.9060774477
  0
LINE
  5
32F
100
AcDbEntity
  8
RUNDUNGEN
100
AcDbLine
 62
7
  6
CONTINUOUS
 10
410.7529523411
 20
279.3629123339
 11
410.7529523411
 21
194.1721116744
  0
LINE
  5
330
100
AcDbEntity
  8
RUNDUNGEN
100
AcDbLine
 62
7
  6
CONTINUOUS
 10
450.2529523411
 20
392.549740006
 11
450.2529523411
 21
319.2415753908
  0
LINE
  5
331
100
AcDbEntity
  8
BEZUGSACHSEN
100
AcDbLine
 62
7
  6
CONTINUOUS
 10
410.5029523411
 20
366.6195911773
 11
388.0029523411
 21
366.6195911773
  0
LINE
  5
332
100
AcDbEntity
  8
BEZUGSACHSEN
100
AcDbLine
 62
7
  6
CONTINUOUS
 10
410.5029523411
 20
391.1195911773
 11
388.0029523411
 21
391.1195911773
  0
LINE
  5
333
100
AcDbEntity
  8
KONSTRUKTIONSELEMENTE
100
AcDbLine
 62
7
  6
CONTINUOUS
 10
440.8433410606
 20
405.5835292258
 11
449.0831745567
 21
395.7636780544
  0
LINE
  5
334
100
AcDbEntity
  8
0
100
AcDbLine
 62
7
  6
CONTINUOUS
 10
361.4927858371
 20
407.3695911773
 11
370.5301391084
 21
407.3695911773
  0
LINE
  5
335
100
AcDbEntity
  8
KONSTRUKTIONSELEMENTE
100
AcDbLine
 62
7
  6
CONTINUOUS
 10
427.9757655737
 20
407.3695911773
 11
437.013118845
 21
407.3695911773
  0
LWPOLYLINE
  5
336
100
AcDbEntity
  8
RUNDUNGEN
100
AcDbPolyline
 62
7
  6
CONTINUOUS
 90
4
 70
0
 10
20.836277588
 20
124.3152769003
 10
20.7986991602
 20
123.713465503
 10
20.7757696849
 20
123.1113595399
 10
20.7674668571
 20
122.4702138956
  0
LINE
  5
337
100
AcDbEntity
  8
RUNDUNGEN
100
AcDbLine
 62
7
  6
CONTINUOUS
 10
20.8819102148
 20
124.8492565207
 11
20.836277588
 21
124.3152769003
  0
LINE
  5
338
100
AcDbEntity
  8
RUNDUNGEN
100
AcDbLine
 62
7
  6
CONTINUOUS
 10
20.8818992454
 20
124.849142583
 11
20.8819102148
 21
124.8492565207
  0
LINE
  5
339
100
AcDbEntity
  8
KONSTRUKTIONSELEMENTE
100
AcDbLine
 62
7
  6
CONTINUOUS
 10
20.7674548482
 20
122.4703606269
 11
20.7674548482
 21
34.3830429228
  0
LINE
  5
33A
100
AcDbEntity
  8
RUNDUNGEN
100
AcDbLine
 62
7
  6
CONTINUOUS
 10
28.4874548482
 20
34.3830429228
 11
28.4874548482
 21
86.3830429228
  0
LINE
  5
33B
100
AcDbEntity
  8
RUNDUNGEN
100
AcDbLine
 62
7
  6
CONTINUOUS
 10
25.7675812182
 20
29.3830429228
 11
111.0408778327
 21
29.3830429228
  0
LINE
  5
33C
100
AcDbEntity
  8
0
100
AcDbLine
 62
7
  6
CONTINUOUS
 10
95.7374573559
 20
29.3830429228
 11
133.2073284782
 21
29.3830429228
  0
LINE
  5
33D
100
AcDbEntity
  8
BEZUGSACHSEN
100
AcDbLine
 62
7
  6
CONTINUOUS
 10
68.2374548482
 20
48.1330429228
 11
90.7374548482
 21
48.1330429228
  0
LINE
  5
33E
100
AcDbEntity
  8
0
100
AcDbLine
 62
7
  6
CONTINUOUS
 10
67.9874548482
 20
85.6172659482
 11
67.9874548482
 21
94.6186613527
  0
LINE
  5
33F
100
AcDbEntity
  8
RUNDUNGEN
100
AcDbLine
 62
7
  6
CONTINUOUS
 10
67.9874548482
 20
94.6186613527
 11
67.9874548482
 21
126.2428796409
  0
LINE
  5
340
100
AcDbEntity
  8
RUNDUNGEN
100
AcDbLine
 62
7
  6
CONTINUOUS
 10
68.2374548482
 20
33.2697610608
 11
68.2374548482
 21
82.950809943
  0
LINE
  5
341
100
AcDbEntity
  8
BEZUGSACHSEN
100
AcDbLine
 62
7
  6
CONTINUOUS
 10
68.2374548482
 20
72.6330429228
 11
90.7374548482
 21
72.6330429228
  0
LINE
  5
342
100
AcDbEntity
  8
0
100
AcDbLine
 62
7
  6
CONTINUOUS
 10
68.993236487
 20
83.7065678147
 11
68.994093413
 21
83.7055891264
  0
LWPOLYLINE
  5
343
100
AcDbEntity
  8
RUNDUNGEN
100
AcDbPolyline
 62
7
  6
CONTINUOUS
 90
6
 70
0
 10
68.993236487
 20
83.7065678147
 10
68.9394571971
 20
83.7690688859
 10
68.7268501497
 20
84.0386362381
 10
68.5080819163
 20
84.3599852483
 10
68.2925527525
 20
84.7338278304
 10
68.0901135221
 20
85.1596238188
  0
LINE
  5
344
100
AcDbEntity
  8
RUNDUNGEN
100
AcDbLine
 62
7
  6
CONTINUOUS
 10
68.0901135221
 20
85.1596238188
 11
67.9525066469
 21
85.513146345
  0
LINE
  5
345
100
AcDbEntity
  8
RUNDUNGEN
100
AcDbLine
 62
7
  6
CONTINUOUS
 10
67.9522680701
 20
85.5138218888
 11
67.952470549
 21
85.5132485721
  0
LWPOLYLINE
  5
346
100
AcDbEntity
  8
0
100
AcDbPolyline
 62
7
  6
CONTINUOUS
 90
9
 70
0
 10
107.4399613859
 20
91.4248162664
 10
106.0987680648
 20
90.9881824639
 10
104.6996608818
 20
90.5848315919
 10
103.2389271024
 20
90.2128362459
 10
101.7166921129
 20
89.8715169197
 10
100.1317761544
 20
89.5599106919
 10
98.4846201615
 20
89.2774481593
 10
96.774140886
 20
89.0233049183
 10
95.1450850343
 20
88.8141146568
  0
LINE
  5
347
100
AcDbEntity
  8
RUNDUNGEN
100
AcDbLine
 62
7
  6
CONTINUOUS
 10
47.322265356
 20
93.2163427563
 11
47.3223362929
 21
93.2163058078
  0
LINE
  5
348
100
AcDbEntity
  8
0
100
AcDbLine
 62
7
  6
CONTINUOUS
 10
89.9816730726
 20
83.7065676584
 11
89.9808044734
 21
83.7055756411
  0
LINE
  5
349
100
AcDbEntity
  8
0
100
AcDbLine
 62
7
  6
CONTINUOUS
 10
111.6526335637
 20
93.2163371431
 11
111.6525734036
 21
93.2163058078
  0
LWPOLYLINE
  5
34A
100
AcDbEntity
  8
0
100
AcDbPolyline
 62
7
  6
CONTINUOUS
 90
5
 70
0
 10
111.6526484717
 20
93.2163448972
 10
111.1422948453
 20
92.9574686406
 10
109.9580697647
 20
92.4061800759
 10
108.7254562464
 20
91.8966327884
 10
107.4399613859
 20
91.4248162664
  0
LWPOLYLINE
  5
34B
100
AcDbEntity
  8
RUNDUNGEN
100
AcDbPolyline
 62
7
  6
CONTINUOUS
 90
6
 70
0
 10
52.8369123627
 20
91.000223471
 10
51.4922597504
 20
91.4396018222
 10
50.2036617598
 20
91.9145069977
 10
48.968170415
 20
92.4275770203
 10
47.7811360567
 20
92.9829650654
 10
47.3222504591
 20
93.2163505046
  0
LINE
  5
34C
100
AcDbEntity
  8
0
100
AcDbLine
 62
7
  6
CONTINUOUS
 10
91.0226416263
 20
85.5138218888
 11
91.0224425641
 21
85.5132582583
  0
LINE
  5
34D
100
AcDbEntity
  8
0
100
AcDbLine
 62
7
  6
CONTINUOUS
 10
91.0224064652
 20
85.5131560285
 11
90.8814408125
 21
85.1517759934
  0
LWPOLYLINE
  5
34E
100
AcDbEntity
  8
0
100
AcDbPolyline
 62
7
  6
CONTINUOUS
 90
6
 70
0
 10
90.8814408125
 20
85.1517759934
 10
90.6793959219
 20
84.728212519
 10
90.4645369628
 20
84.3563486603
 10
90.246574537
 20
84.0366187187
 10
90.0347536881
 20
83.7682428767
 10
89.9816730726
 20
83.7065676584
  0
LINE
  5
34F
100
AcDbEntity
  8
0
100
AcDbLine
 62
7
  6
CONTINUOUS
 10
95.1450116126
 20
88.8141066098
 11
95.1451719199
 21
88.8141257378
  0
LINE
  5
350
100
AcDbEntity
  8
RUNDUNGEN
100
AcDbLine
 62
7
  6
CONTINUOUS
 10
63.8298980729
 20
88.8141066111
 11
63.8297377766
 21
88.8141257378
  0
LWPOLYLINE
  5
351
100
AcDbEntity
  8
RUNDUNGEN
100
AcDbPolyline
 62
7
  6
CONTINUOUS
 90
8
 70
0
 10
63.8298246511
 20
88.8141146582
 10
62.1934065006
 20
89.0243201734
 10
60.4761454093
 20
89.279709168
 10
58.8228454379
 20
89.5636415369
 10
57.2323665395
 20
89.8769532745
 10
55.7051127899
 20
90.2202253094
 10
54.2399075951
 20
90.5944250016
 10
52.8369123627
 20
91.000223471
  0
LINE
  5
352
100
AcDbEntity
  8
0
100
AcDbLine
 62
7
  6
CONTINUOUS
 10
90.7374548482
 20
82.950809943
 11
90.7374548482
 21
34.3830429228
  0
LINE
  5
353
100
AcDbEntity
  8
RUNDUNGEN
100
AcDbLine
 62
7
  6
CONTINUOUS
 10
90.7374548482
 20
34.3830429228
 11
90.7374548482
 21
33.2698213526
  0
LINE
  5
354
100
AcDbEntity
  8
RUNDUNGEN
100
AcDbLine
 62
7
  6
CONTINUOUS
 10
90.9874548482
 20
126.2428796409
 11
90.9874548482
 21
94.6186613527
  0
LINE
  5
355
100
AcDbEntity
  8
0
100
AcDbLine
 62
7
  6
CONTINUOUS
 10
90.9874548482
 20
94.6186613527
 11
90.9874548482
 21
85.6172659482
  0
LINE
  5
356
100
AcDbEntity
  8
RUNDUNGEN
100
AcDbLine
 62
7
  6
CONTINUOUS
 10
50.7646347605
 20
91.3830429228
 11
33.4874548482
 21
91.3830429228
  0
LINE
  5
357
100
AcDbEntity
  8
0
100
AcDbLine
 62
7
  6
CONTINUOUS
 10
108.2102680809
 20
91.3830429228
 11
125.4874548482
 21
91.3830429228
  0
LINE
  5
358
100
AcDbEntity
  8
0
100
AcDbLine
 62
7
  6
CONTINUOUS
 10
130.4874548482
 20
34.3830429228
 11
130.4874548482
 21
86.3830429228
  0
LWPOLYLINE
  5
359
100
AcDbEntity
  8
RUNDUNGEN
100
AcDbPolyline
 62
7
  6
CONTINUOUS
 90
27
 70
0
 10
26.1273951534
 20
130.2746333365
 10
25.9218380153
 20
130.2704686478
 10
25.5015131162
 20
130.2358751466
 10
25.0796745204
 20
130.1652494222
 10
24.6622553998
 20
130.0584276273
 10
24.2542175923
 20
129.9161199014
 10
23.860160908
 20
129.7398576573
 10
23.4840879918
 20
129.5318154461
 10
23.1305591612
 20
129.2955280994
 10
22.8027533321
 20
129.0348808477
 10
22.5043427403
 20
128.75552212
 10
22.2375407486
 20
128.4635314477
 10
22.0031070015
 20
128.1649866658
 10
21.8009320843
 20
127.8662960213
 10
21.6293630181
 20
127.572800029
 10
21.4867845932
 20
127.2908644338
 10
21.3687800139
 20
127.0215176593
 10
21.2720450691
 20
126.7669031583
 10
21.1925388859
 20
126.5257792376
 10
21.1271724854
 20
126.2974639293
 10
21.0728576878
 20
126.0789818377
 10
21.027222484
 20
125.867397199
 10
20.9883780419
 20
125.6594324242
 10
20.9548214871
 20
125.451371118
 10
20.9254471797
 20
125.2395310588
 10
20.8992684287
 20
125.0184807469
 10
20.8818998828
 20
124.8491425218
  0
LINE
  5
35A
100
AcDbEntity
  8
0
100
AcDbLine
 62
7
  6
CONTINUOUS
 10
132.8475613334
 20
130.2746353546
 11
95.7374548482
 21
130.2746353549
  0
LINE
  5
35B
100
AcDbEntity
  8
KONSTRUKTIONSELEMENTE
100
AcDbLine
 62
7
  6
CONTINUOUS
 10
63.2374548482
 20
130.2746353549
 11
26.1286708147
 21
130.2746353549
  0
LINE
  5
35C
100
AcDbEntity
  8
RUNDUNGEN
100
AcDbLine
 62
7
  6
CONTINUOUS
 10
26.1274065412
 20
130.2746353301
 11
26.1273483631
 21
130.2746353546
  0
LINE
  5
35D
100
AcDbEntity
  8
0
100
AcDbLine
 62
7
  6
CONTINUOUS
 10
138.1377562008
 20
124.3269763143
 11
138.0929994243
 21
124.8492571158
  0
LWPOLYLINE
  5
35E
100
AcDbEntity
  8
0
100
AcDbPolyline
 62
7
  6
CONTINUOUS
 90
4
 70
0
 10
138.2072943815
 20
122.5560894079
 10
138.1982044413
 20
123.146506992
 10
138.1750225223
 20
123.7368820752
 10
138.1377562008
 20
124.3269763143
  0
LINE
  5
35F
100
AcDbEntity
  8
0
100
AcDbLine
 62
7
  6
CONTINUOUS
 10
138.2074548482
 20
34.3830429228
 11
138.2072943815
 21
122.5560894079
  0
LWPOLYLINE
  5
360
100
AcDbEntity
  8
0
100
AcDbPolyline
 62
7
  6
CONTINUOUS
 90
27
 70
0
 10
138.0930098428
 20
124.8491422188
 10
138.0756030026
 20
125.0188314686
 10
138.0493768539
 20
125.240198771
 10
138.0199447506
 20
125.4523299615
 10
137.9863168688
 20
125.660669745
 10
137.9473835311
 20
125.8689104383
 10
137.9016370639
 20
126.0807745494
 10
137.8471828276
 20
126.2995432346
 10
137.7816405459
 20
126.5281580352
 10
137.7019107171
 20
126.769600377
 10
137.6048985394
 20
127.0245379759
 10
137.4865609085
 20
127.2941898278
 10
137.3435755274
 20
127.5764282193
 10
137.1715087852
 20
127.8702223672
 10
136.9687265178
 20
128.1692072416
 10
136.7335421741
 20
128.4680497339
 10
136.4658623597
 20
128.7602845687
 10
136.1664614602
 20
129.0397947539
 10
135.8375725407
 20
129.3004701205
 10
135.4828889571
 20
129.5366418258
 10
135.1056430392
 20
129.7443925662
 10
134.7104511175
 20
129.9201752236
 10
134.3013680451
 20
130.0618182058
 10
133.883048051
 20
130.1678066739
 10
133.4605033691
 20
130.2374615597
 10
133.0397263947
 20
130.2709921842
 10
132.8475133131
 20
130.2746333357
  0
LINE
  5
361
100
AcDbEntity
  8
0
100
AcDbLine
 62
7
  6
CONTINUOUS
 10
138.0930104802
 20
124.8491422799
 11
138.0929994243
 21
124.8492571158
  0
ARC
  5
362
100
AcDbEntity
  8
0
100
AcDbCircle
 62
7
  6
CONTINUOUS
 10
-15.7925451518
 20
255.3795911773
 40
154.0
100
AcDbArc
 50
331.9743666384
 51
13.7856407276
  0
ARC
  5
363
100
AcDbEntity
  8
RUNDUNGEN
100
AcDbCircle
 62
7
  6
CONTINUOUS
 10
63.2374548482
 20
195.1402863583
 40
5.0
100
AcDbArc
 50
292.4795056094
 51
331.0449756281
  0
ARC
  5
364
100
AcDbEntity
  8
RUNDUNGEN
100
AcDbCircle
 62
7
  6
CONTINUOUS
 10
48.8933377667
 20
185.3695911773
 40
5.0
100
AcDbArc
 50
270.0
 51
316.0430532762
  0
ARC
  5
365
100
AcDbEntity
  8
RUNDUNGEN
100
AcDbCircle
 62
7
  6
CONTINUOUS
 10
64.9874548482
 20
194.1720405218
 40
3.0
100
AcDbArc
 50
331.0449756281
 51
360.0
  0
ARC
  5
366
100
AcDbEntity
  8
RUNDUNGEN
100
AcDbCircle
 62
7
  6
CONTINUOUS
 10
-85.5125451518
 20
319.2413293309
 40
114.0
100
AcDbArc
 50
346.2143592724
 51
360.0
  0
ARC
  5
367
100
AcDbEntity
  8
RUNDUNGEN
100
AcDbCircle
 62
7
  6
CONTINUOUS
 10
33.4874548482
 20
392.549740006
 40
5.0
100
AcDbArc
 50
140.0
 51
180.0
  0
ARC
  5
368
100
AcDbEntity
  8
RUNDUNGEN
100
AcDbCircle
 62
7
  6
CONTINUOUS
 10
41.7272883443
 20
402.3695911773
 40
5.0
100
AcDbArc
 50
90.0
 51
140.0
  0
ARC
  5
369
100
AcDbEntity
  8
RUNDUNGEN
100
AcDbCircle
 62
7
  6
CONTINUOUS
 10
50.7646416155
 20
402.3695911773
 40
5.0
100
AcDbArc
 50
70.2500772044
 51
90.0
  0
ARC
  5
36A
100
AcDbEntity
  8
RUNDUNGEN
100
AcDbCircle
 62
7
  6
CONTINUOUS
 10
63.2374548482
 20
398.9373581975
 40
5.0
100
AcDbArc
 50
0.0
 51
78.9785503645
  0
ARC
  5
36B
100
AcDbEntity
  8
0
100
AcDbCircle
 62
7
  6
CONTINUOUS
 10
79.4874548482
 20
155.8695911773
 40
37.5
100
AcDbArc
 50
43.9569467238
 51
67.5204943906
  0
ARC
  5
36C
100
AcDbEntity
  8
KONSTRUKTIONSELEMENTE
100
AcDbCircle
 62
7
  6
CONTINUOUS
 10
79.4874548482
 20
155.8695911773
 40
37.5
100
AcDbArc
 50
112.4795056094
 51
136.0430532762
  0
ARC
  5
36D
100
AcDbEntity
  8
0
100
AcDbCircle
 62
7
  6
CONTINUOUS
 10
95.7374548482
 20
195.1402863583
 40
5.0
100
AcDbArc
 50
208.9550243719
 51
247.5204943906
  0
ARC
  5
36E
100
AcDbEntity
  8
0
100
AcDbCircle
 62
7
  6
CONTINUOUS
 10
110.0815719298
 20
185.3695911773
 40
5.0
100
AcDbArc
 50
223.9569467238
 51
270.0
  0
ARC
  5
36F
100
AcDbEntity
  8
RUNDUNGEN
100
AcDbCircle
 62
7
  6
CONTINUOUS
 10
93.9874548482
 20
194.1720405218
 40
3.0
100
AcDbArc
 50
180.0
 51
208.9550243719
  0
ARC
  5
370
100
AcDbEntity
  8
RUNDUNGEN
100
AcDbCircle
 62
7
  6
CONTINUOUS
 10
174.7674548482
 20
255.3795911773
 40
154.0
100
AcDbArc
 50
166.2143592724
 51
208.0256333689
  0
ARC
  5
371
100
AcDbEntity
  8
0
100
AcDbCircle
 62
7
  6
CONTINUOUS
 10
244.4874548482
 20
319.2413293309
 40
114.0
100
AcDbArc
 50
180.0
 51
193.7856407276
  0
ARC
  5
372
100
AcDbEntity
  8
0
100
AcDbCircle
 62
7
  6
CONTINUOUS
 10
79.4874548482
 20
482.3695911773
 40
80.0
100
AcDbArc
 50
281.0214496355
 51
289.7499227956
  0
ARC
  5
373
100
AcDbEntity
  8
KONSTRUKTIONSELEMENTE
100
AcDbCircle
 62
7
  6
CONTINUOUS
 10
79.4874548482
 20
482.3695911773
 40
80.0
100
AcDbArc
 50
250.2500772044
 51
258.9785503645
  0
ARC
  5
374
100
AcDbEntity
  8
RUNDUNGEN
100
AcDbCircle
 62
7
  6
CONTINUOUS
 10
79.4874548482
 20
347.6195911773
 40
11.25
100
AcDbArc
 50
179.9990630824
 51
0.0017446045
  0
ARC
  5
375
100
AcDbEntity
  8
0
100
AcDbCircle
 62
7
  6
CONTINUOUS
 10
125.4874548482
 20
392.549740006
 40
5.0
100
AcDbArc
 50
0.0
 51
40.0
  0
ARC
  5
376
100
AcDbEntity
  8
0
100
AcDbCircle
 62
7
  6
CONTINUOUS
 10
117.2476213521
 20
402.3695911773
 40
5.0
100
AcDbArc
 50
40.0
 51
90.0
  0
ARC
  5
377
100
AcDbEntity
  8
0
100
AcDbCircle
 62
7
  6
CONTINUOUS
 10
108.2102680809
 20
402.3695911773
 40
5.0
100
AcDbArc
 50
90.0
 51
109.7499227956
  0
ARC
  5
378
100
AcDbEntity
  8
0
100
AcDbCircle
 62
7
  6
CONTINUOUS
 10
95.7374548482
 20
398.9373581975
 40
5.0
100
AcDbArc
 50
101.0214496355
 51
180.0
  0
ARC
  5
379
100
AcDbEntity
  8
RUNDUNGEN
100
AcDbCircle
 62
7
  6
CONTINUOUS
 10
206.862647501
 20
265.7290414723
 40
20.0
100
AcDbArc
 50
116.0511968283
 51
200.0
  0
ARC
  5
37A
100
AcDbEntity
  8
0
100
AcDbCircle
 62
7
  6
CONTINUOUS
 10
206.862647501
 20
265.7290414723
 40
20.0
100
AcDbArc
 50
143.8576210494
 51
200.0
  0
ARC
  5
37B
100
AcDbEntity
  8
0
100
AcDbCircle
 62
7
  6
CONTINUOUS
 10
206.862647501
 20
265.7290414723
 40
20.0
100
AcDbArc
 50
116.0512509611
 51
137.0076236583
  0
ARC
  5
37C
100
AcDbEntity
  8
RUNDUNGEN
100
AcDbCircle
 62
7
  6
CONTINUOUS
 10
171.2891024459
 20
338.4993849661
 40
61.0
100
AcDbArc
 50
296.0516428665
 51
20.0
  0
ARC
  5
37D
100
AcDbEntity
  8
RUNDUNGEN
100
AcDbCircle
 62
7
  6
CONTINUOUS
 10
239.7542399331
 20
213.3695911773
 40
33.0
100
AcDbArc
 50
199.9998380612
 51
328.0363085986
  0
ARC
  5
37E
100
AcDbEntity
  8
0
100
AcDbCircle
 62
7
  6
CONTINUOUS
 10
239.7542399331
 20
213.3695911773
 40
33.0
100
AcDbArc
 50
199.9998380612
 51
206.2435990378
  0
ARC
  5
37F
100
AcDbEntity
  8
0
100
AcDbCircle
 62
7
  6
CONTINUOUS
 10
239.7542399331
 20
213.3695911773
 40
33.0
100
AcDbArc
 50
209.6092493368
 51
328.0363085986
  0
ARC
  5
380
100
AcDbEntity
  8
RUNDUNGEN
100
AcDbCircle
 62
7
  6
CONTINUOUS
 10
242.7542399331
 20
240.8453236279
 40
45.0
100
AcDbArc
 50
328.036102026
 51
0.0002910114
  0
ARC
  5
381
100
AcDbEntity
  8
0
100
AcDbCircle
 62
7
  6
CONTINUOUS
 10
242.7542399331
 20
240.8453236279
 40
45.0
100
AcDbArc
 50
328.036102026
 51
331.3104511424
  0
ARC
  5
382
100
AcDbEntity
  8
0
100
AcDbCircle
 62
7
  6
CONTINUOUS
 10
242.7542399331
 20
240.8453236279
 40
45.0
100
AcDbArc
 50
333.0198235882
 51
333.2071855142
  0
ARC
  5
383
100
AcDbEntity
  8
0
100
AcDbCircle
 62
7
  6
CONTINUOUS
 10
242.7542399331
 20
240.8453236279
 40
45.0
100
AcDbArc
 50
336.8724533185
 51
338.6488699304
  0
ARC
  5
384
100
AcDbEntity
  8
0
100
AcDbCircle
 62
7
  6
CONTINUOUS
 10
242.7542399331
 20
240.8453236279
 40
45.0
100
AcDbArc
 50
338.9191789423
 51
341.370304241
  0
ARC
  5
385
100
AcDbEntity
  8
0
100
AcDbCircle
 62
7
  6
CONTINUOUS
 10
242.7542399331
 20
240.8453236279
 40
45.0
100
AcDbArc
 50
341.5165516216
 51
344.0585885668
  0
ARC
  5
386
100
AcDbEntity
  8
0
100
AcDbCircle
 62
7
  6
CONTINUOUS
 10
242.7542399331
 20
240.8453236279
 40
45.0
100
AcDbArc
 50
344.226468807
 51
0.0002910114
  0
ARC
  5
387
100
AcDbEntity
  8
RUNDUNGEN
100
AcDbCircle
 62
7
  6
CONTINUOUS
 10
230.7542399331
 20
368.0913528859
 40
5.0
100
AcDbArc
 50
180.0000252109
 51
200.0000227033
  0
ARC
  5
388
100
AcDbEntity
  8
RUNDUNGEN
100
AcDbCircle
 62
7
  6
CONTINUOUS
 10
230.7542399331
 20
383.9179782741
 40
5.0
100
AcDbArc
 50
147.6215874859
 51
180.0
  0
ARC
  5
389
100
AcDbEntity
  8
0
100
AcDbCircle
 62
7
  6
CONTINUOUS
 10
230.7542399331
 20
383.9179782741
 40
5.0
100
AcDbArc
 50
147.6215874859
 51
180.0
  0
ARC
  5
38A
100
AcDbEntity
  8
RUNDUNGEN
100
AcDbCircle
 62
7
  6
CONTINUOUS
 10
256.7542399331
 20
376.3695911773
 40
31.0
100
AcDbArc
 50
32.3783549819
 51
147.6215874859
  0
ARC
  5
38B
100
AcDbEntity
  8
0
100
AcDbCircle
 62
7
  6
CONTINUOUS
 10
256.7542399331
 20
376.3695911773
 40
31.0
100
AcDbArc
 50
70.000078312
 51
70.4267767128
  0
ARC
  5
38C
100
AcDbEntity
  8
0
100
AcDbCircle
 62
7
  6
CONTINUOUS
 10
256.7542399331
 20
376.3695911773
 40
31.0
100
AcDbArc
 50
109.5732232015
 51
147.6215874859
  0
ARC
  5
38D
100
AcDbEntity
  8
RUNDUNGEN
100
AcDbCircle
 62
7
  6
CONTINUOUS
 10
282.7542399331
 20
383.9179782741
 40
5.0
100
AcDbArc
 50
0.0
 51
32.3784125141
  0
ARC
  5
38E
100
AcDbEntity
  8
0
100
AcDbCircle
 62
7
  6
CONTINUOUS
 10
282.7542399331
 20
383.9179782741
 40
5.0
100
AcDbArc
 50
4.0472069461
 51
32.3784125141
  0
ARC
  5
38F
100
AcDbEntity
  8
0
100
AcDbCircle
 62
7
  6
CONTINUOUS
 10
388.2441337504
 20
-164.0038663815
 40
448.0158997011
100
AcDbArc
 50
85.6464982384
 51
86.4703208333
  0
ARC
  5
390
100
AcDbEntity
  8
RUNDUNGEN
100
AcDbCircle
 62
7
  6
CONTINUOUS
 10
303.9729523411
 20
255.3795911773
 40
154.0
100
AcDbArc
 50
331.9743666311
 51
13.7856407276
  0
ARC
  5
391
100
AcDbEntity
  8
0
100
AcDbCircle
 62
7
  6
CONTINUOUS
 10
234.2529523411
 20
319.2413293309
 40
114.0
100
AcDbArc
 50
346.2143503856
 51
0.0001236683
  0
ARC
  5
392
100
AcDbEntity
  8
0
100
AcDbCircle
 62
7
  6
CONTINUOUS
 10
383.0029523411
 20
195.1402863583
 40
5.0
100
AcDbArc
 50
292.4795056094
 51
331.0449756281
  0
ARC
  5
393
100
AcDbEntity
  8
0
100
AcDbCircle
 62
7
  6
CONTINUOUS
 10
368.6588352595
 20
185.3695911773
 40
5.0
100
AcDbArc
 50
270.0
 51
316.0430532762
  0
ARC
  5
394
100
AcDbEntity
  8
RUNDUNGEN
100
AcDbCircle
 62
7
  6
CONTINUOUS
 10
384.7529523411
 20
194.1720405218
 40
3.0
100
AcDbArc
 50
331.0449756281
 51
360.0
  0
ARC
  5
395
100
AcDbEntity
  8
0
100
AcDbCircle
 62
7
  6
CONTINUOUS
 10
347.1965700089
 20
324.0028376762
 40
72.8139768085
100
AcDbArc
 50
330.7926692156
 51
331.3674117014
  0
ARC
  5
396
100
AcDbEntity
  8
0
100
AcDbCircle
 62
7
  6
CONTINUOUS
 10
353.2529523411
 20
392.549740006
 40
5.0
100
AcDbArc
 50
140.0
 51
180.0
  0
ARC
  5
397
100
AcDbEntity
  8
0
100
AcDbCircle
 62
7
  6
CONTINUOUS
 10
361.4927858371
 20
402.3695911773
 40
5.0
100
AcDbArc
 50
90.0
 51
140.0
  0
ARC
  5
398
100
AcDbEntity
  8
0
100
AcDbCircle
 62
7
  6
CONTINUOUS
 10
370.5301391084
 20
402.3695911773
 40
5.0
100
AcDbArc
 50
70.2500772044
 51
90.0
  0
ARC
  5
399
100
AcDbEntity
  8
0
100
AcDbCircle
 62
7
  6
CONTINUOUS
 10
383.0029523411
 20
398.9373581975
 40
5.0
100
AcDbArc
 50
0.0
 51
78.9785503645
  0
ARC
  5
39A
100
AcDbEntity
  8
0
100
AcDbCircle
 62
7
  6
CONTINUOUS
 10
410.261770932
 20
-164.0038663855
 40
448.0158997052
100
AcDbArc
 50
93.5296791667
 51
94.3535017616
  0
ARC
  5
39B
100
AcDbEntity
  8
0
100
AcDbCircle
 62
7
  6
CONTINUOUS
 10
399.2529523411
 20
155.8695911773
 40
37.5
100
AcDbArc
 50
112.4795056094
 51
136.0430532762
  0
ARC
  5
39C
100
AcDbEntity
  8
KONSTRUKTIONSELEMENTE
100
AcDbCircle
 62
7
  6
CONTINUOUS
 10
399.2529523411
 20
155.8695911773
 40
37.5
100
AcDbArc
 50
43.9569467238
 51
67.5204943906
  0
ARC
  5
39D
100
AcDbEntity
  8
0
100
AcDbCircle
 62
7
  6
CONTINUOUS
 10
451.3093346726
 20
324.0028376758
 40
72.8139768077
100
AcDbArc
 50
208.6325882986
 51
209.2073307844
  0
ARC
  5
39E
100
AcDbEntity
  8
RUNDUNGEN
100
AcDbCircle
 62
7
  6
CONTINUOUS
 10
403.0784139517
 20
268.0923907043
 40
13.3205193875
100
AcDbArc
 50
70.273786021
 51
70.4439951286
  0
ARC
  5
39F
100
AcDbEntity
  8
RUNDUNGEN
100
AcDbCircle
 62
7
  6
CONTINUOUS
 10
415.5029523411
 20
195.1402863583
 40
5.0
100
AcDbArc
 50
208.9550243719
 51
247.5204943906
  0
ARC
  5
3A0
100
AcDbEntity
  8
RUNDUNGEN
100
AcDbCircle
 62
7
  6
CONTINUOUS
 10
429.8470694226
 20
185.3695911773
 40
5.0
100
AcDbArc
 50
223.9569467238
 51
270.0
  0
ARC
  5
3A1
100
AcDbEntity
  8
RUNDUNGEN
100
AcDbCircle
 62
7
  6
CONTINUOUS
 10
413.7529523411
 20
194.1720405218
 40
3.0
100
AcDbArc
 50
180.0
 51
208.9550243719
  0
ARC
  5
3A2
100
AcDbEntity
  8
0
100
AcDbCircle
 62
7
  6
CONTINUOUS
 10
399.2529523411
 20
482.3695911773
 40
80.0
100
AcDbArc
 50
250.2500772044
 51
258.9785503645
  0
ARC
  5
3A3
100
AcDbEntity
  8
KONSTRUKTIONSELEMENTE
100
AcDbCircle
 62
7
  6
CONTINUOUS
 10
399.2529523411
 20
482.3695911773
 40
80.0
100
AcDbArc
 50
281.0214496355
 51
289.7499227956
  0
ARC
  5
3A4
100
AcDbEntity
  8
RUNDUNGEN
100
AcDbCircle
 62
7
  6
CONTINUOUS
 10
399.2529523411
 20
347.6195911773
 40
11.25
100
AcDbArc
 50
180.0
 51
360.0
  0
ARC
  5
3A5
100
AcDbEntity
  8
RUNDUNGEN
100
AcDbCircle
 62
7
  6
CONTINUOUS
 10
445.2529523411
 20
392.549740006
 40
5.0
100
AcDbArc
 50
0.0
 51
40.0
  0
ARC
  5
3A6
100
AcDbEntity
  8
RUNDUNGEN
100
AcDbCircle
 62
7
  6
CONTINUOUS
 10
437.013118845
 20
402.3695911773
 40
5.0
100
AcDbArc
 50
40.0
 51
90.0
  0
ARC
  5
3A7
100
AcDbEntity
  8
RUNDUNGEN
100
AcDbCircle
 62
7
  6
CONTINUOUS
 10
427.9757655737
 20
402.3695911773
 40
5.0
100
AcDbArc
 50
90.0
 51
109.7499227956
  0
ARC
  5
3A8
100
AcDbEntity
  8
RUNDUNGEN
100
AcDbCircle
 62
7
  6
CONTINUOUS
 10
415.5029523411
 20
398.9373581975
 40
5.0
100
AcDbArc
 50
101.0214496355
 51
180.0
  0
ARC
  5
3A9
100
AcDbEntity
  8
0
100
AcDbCircle
 62
7
  6
CONTINUOUS
 10
494.5329523411
 20
255.3795911773
 40
154.0
100
AcDbArc
 50
166.2143592724
 51
208.0256333616
  0
ARC
  5
3AA
100
AcDbEntity
  8
RUNDUNGEN
100
AcDbCircle
 62
7
  6
CONTINUOUS
 10
564.2529523411
 20
319.2413293309
 40
114.0
100
AcDbArc
 50
179.9998763317
 51
193.7856496144
  0
ARC
  5
3AB
100
AcDbEntity
  8
0
100
AcDbCircle
 62
7
  6
CONTINUOUS
 10
67.6485649866
 20
-1142.4017319054
 40
1261.4698720067
100
AcDbArc
 50
88.4174214255
 51
88.7094027147
  0
ARC
  5
3AC
100
AcDbEntity
  8
RUNDUNGEN
100
AcDbCircle
 62
7
  6
CONTINUOUS
 10
50.7646416155
 20
34.3830429228
 40
5.0
100
AcDbArc
 50
270.0
 51
289.7499227956
  0
ARC
  5
3AD
100
AcDbEntity
  8
RUNDUNGEN
100
AcDbCircle
 62
7
  6
CONTINUOUS
 10
25.7674548482
 20
34.3830429228
 40
5.0
100
AcDbArc
 50
180.0
 51
270.0
  0
ARC
  5
3AE
100
AcDbEntity
  8
RUNDUNGEN
100
AcDbCircle
 62
7
  6
CONTINUOUS
 10
33.4874548482
 20
34.3830429228
 40
5.0
100
AcDbArc
 50
180.0
 51
270.0
  0
ARC
  5
3AF
100
AcDbEntity
  8
0
100
AcDbCircle
 62
7
  6
CONTINUOUS
 10
43.3462943362
 20
86.0095725535
 40
47.639641043
100
AcDbArc
 50
358.0720704794
 51
359.1419789566
  0
ARC
  5
3B0
100
AcDbEntity
  8
RUNDUNGEN
100
AcDbCircle
 62
7
  6
CONTINUOUS
 10
50.7646416155
 20
86.3830429228
 40
5.0
100
AcDbArc
 50
70.2500772044
 51
90.0
  0
ARC
  5
3B1
100
AcDbEntity
  8
RUNDUNGEN
100
AcDbCircle
 62
7
  6
CONTINUOUS
 10
33.4874548482
 20
86.3830429228
 40
5.0
100
AcDbArc
 50
90.0
 51
180.0
  0
ARC
  5
3B2
100
AcDbEntity
  8
RUNDUNGEN
100
AcDbCircle
 62
7
  6
CONTINUOUS
 10
63.2374548482
 20
34.3830429228
 40
5.0
100
AcDbArc
 50
269.9999712639
 51
360.0
  0
ARC
  5
3B3
100
AcDbEntity
  8
RUNDUNGEN
100
AcDbCircle
 62
7
  6
CONTINUOUS
 10
63.2374548482
 20
37.8152759027
 40
5.0
100
AcDbArc
 50
281.0214496355
 51
360.0
  0
ARC
  5
3B4
100
AcDbEntity
  8
0
100
AcDbCircle
 62
7
  6
CONTINUOUS
 10
70.2282364385
 20
124.9076538141
 40
38.0562287631
100
AcDbArc
 50
303.0580222745
 51
303.694836181
  0
ARC
  5
3B5
100
AcDbEntity
  8
0
100
AcDbCircle
 62
7
  6
CONTINUOUS
 10
68.2928970123
 20
106.5093125838
 40
31.4233368359
100
AcDbArc
 50
313.5655717363
 51
313.8992873174
  0
ARC
  5
3B6
100
AcDbEntity
  8
0
100
AcDbCircle
 62
7
  6
CONTINUOUS
 10
77.2228219886
 20
92.5334968736
 40
12.0204072098
100
AcDbArc
 50
225.2340469251
 51
226.038793846
  0
ARC
  5
3B7
100
AcDbEntity
  8
RUNDUNGEN
100
AcDbCircle
 62
7
  6
CONTINUOUS
 10
63.2374548482
 20
82.950809943
 40
5.0
100
AcDbArc
 50
0.0
 51
78.9785503645
  0
ARC
  5
3B8
100
AcDbEntity
  8
RUNDUNGEN
100
AcDbCircle
 62
7
  6
CONTINUOUS
 10
63.2374548482
 20
125.2746353549
 40
5.0
100
AcDbArc
 50
28.9550243719
 51
90.0
  0
ARC
  5
3B9
100
AcDbEntity
  8
RUNDUNGEN
100
AcDbCircle
 62
7
  6
CONTINUOUS
 10
63.2374679271
 20
83.8493848822
 40
4.9999433548
100
AcDbArc
 50
19.4429020994
 51
83.1970374749
  0
ARC
  5
3BA
100
AcDbEntity
  8
RUNDUNGEN
100
AcDbCircle
 62
7
  6
CONTINUOUS
 10
64.9874548482
 20
126.2428811915
 40
3.0
100
AcDbArc
 50
0.0
 51
28.9550243719
  0
ARC
  5
3BB
100
AcDbEntity
  8
0
100
AcDbCircle
 62
7
  6
CONTINUOUS
 10
70.2384278487
 20
85.6168902153
 40
2.2509730318
100
AcDbArc
 50
179.9904361763
 51
182.6059832004
  0
ARC
  5
3BC
100
AcDbEntity
  8
0
100
AcDbCircle
 62
7
  6
CONTINUOUS
 10
70.1331338464
 20
85.6119624281
 40
2.1455638727
100
AcDbArc
 50
182.6023712753
 51
185.8438712725
  0
ARC
  5
3BD
100
AcDbEntity
  8
0
100
AcDbCircle
 62
7
  6
CONTINUOUS
 10
91.3263447096
 20
-1142.4017318938
 40
1261.4698719951
100
AcDbArc
 50
91.2905972853
 51
91.5825785745
  0
ARC
  5
3BE
100
AcDbEntity
  8
RUNDUNGEN
100
AcDbCircle
 62
7
  6
CONTINUOUS
 10
79.4874548482
 20
-45.6169570772
 40
80.0
100
AcDbArc
 50
101.0214496355
 51
109.7499227956
  0
ARC
  5
3BF
100
AcDbEntity
  8
KONSTRUKTIONSELEMENTE
100
AcDbCircle
 62
7
  6
CONTINUOUS
 10
79.4874548482
 20
-45.6169570772
 40
80.0
100
AcDbArc
 50
101.0214496355
 51
109.7499227956
  0
ARC
  5
3C0
100
AcDbEntity
  8
0
100
AcDbCircle
 62
7
  6
CONTINUOUS
 10
79.4874548482
 20
-45.6169570772
 40
80.0
100
AcDbArc
 50
70.2500772044
 51
78.9785503645
  0
ARC
  5
3C1
100
AcDbEntity
  8
0
100
AcDbCircle
 62
7
  6
CONTINUOUS
 10
95.7374548482
 20
37.8152759027
 40
5.0
100
AcDbArc
 50
180.0
 51
258.9785503645
  0
ARC
  5
3C2
100
AcDbEntity
  8
0
100
AcDbCircle
 62
7
  6
CONTINUOUS
 10
95.7374548482
 20
34.3830429228
 40
5.0
100
AcDbArc
 50
180.0
 51
270.0000287361
  0
ARC
  5
3C3
100
AcDbEntity
  8
RUNDUNGEN
100
AcDbCircle
 62
7
  6
CONTINUOUS
 10
79.4874548482
 20
166.3830429228
 40
80.0
100
AcDbArc
 50
250.2500772044
 51
258.9785503645
  0
ARC
  5
3C4
100
AcDbEntity
  8
0
100
AcDbCircle
 62
7
  6
CONTINUOUS
 10
79.4874548482
 20
166.3830429228
 40
80.0
100
AcDbArc
 50
281.0214496355
 51
289.7499227956
  0
ARC
  5
3C5
100
AcDbEntity
  8
0
100
AcDbCircle
 62
7
  6
CONTINUOUS
 10
89.5848273086
 20
126.1799197286
 40
39.5797424143
100
AcDbArc
 50
236.3174201405
 51
236.929721404
  0
ARC
  5
3C6
100
AcDbEntity
  8
0
100
AcDbCircle
 62
7
  6
CONTINUOUS
 10
92.0343247966
 20
107.9204731307
 40
33.3778301257
100
AcDbArc
 50
226.0726580589
 51
226.3830007807
  0
ARC
  5
3C7
100
AcDbEntity
  8
0
100
AcDbCircle
 62
7
  6
CONTINUOUS
 10
95.7374548482
 20
82.950809943
 40
5.0
100
AcDbArc
 50
101.0214496355
 51
180.0
  0
ARC
  5
3C8
100
AcDbEntity
  8
0
100
AcDbCircle
 62
7
  6
CONTINUOUS
 10
95.7374548482
 20
125.2746353549
 40
5.0
100
AcDbArc
 50
90.0
 51
151.0449756281
  0
ARC
  5
3C9
100
AcDbEntity
  8
0
100
AcDbCircle
 62
7
  6
CONTINUOUS
 10
95.7374417694
 20
83.8493848822
 40
4.9999433548
100
AcDbArc
 50
96.8029625251
 51
160.5570979006
  0
ARC
  5
3CA
100
AcDbEntity
  8
RUNDUNGEN
100
AcDbCircle
 62
7
  6
CONTINUOUS
 10
93.9874548482
 20
126.2428811915
 40
3.0
100
AcDbArc
 50
151.0449756281
 51
180.0
  0
ARC
  5
3CB
100
AcDbEntity
  8
0
100
AcDbCircle
 62
7
  6
CONTINUOUS
 10
88.7451117284
 20
85.6167510357
 40
2.2423431789
100
AcDbArc
 50
356.9315836517
 51
0.013156911
  0
ARC
  5
3CC
100
AcDbEntity
  8
0
100
AcDbCircle
 62
7
  6
CONTINUOUS
 10
88.8497891478
 20
85.6112848794
 40
2.1375232429
100
AcDbArc
 50
354.158231802
 51
356.9276998513
  0
ARC
  5
3CD
100
AcDbEntity
  8
0
100
AcDbCircle
 62
7
  6
CONTINUOUS
 10
133.2074548482
 20
34.3830429228
 40
5.0
100
AcDbArc
 50
270.0
 51
360.0
  0
ARC
  5
3CE
100
AcDbEntity
  8
0
100
AcDbCircle
 62
7
  6
CONTINUOUS
 10
108.2102680809
 20
34.3830429228
 40
5.0
100
AcDbArc
 50
250.2500772044
 51
270.0
  0
ARC
  5
3CF
100
AcDbEntity
  8
0
100
AcDbCircle
 62
7
  6
CONTINUOUS
 10
125.4874548482
 20
34.3830429228
 40
5.0
100
AcDbArc
 50
270.0
 51
360.0
  0
ARC
  5
3D0
100
AcDbEntity
  8
RUNDUNGEN
100
AcDbCircle
 62
7
  6
CONTINUOUS
 10
115.6286079912
 20
86.009572401
 40
47.6396336725
100
AcDbArc
 50
180.8580209927
 51
181.9279629943
  0
ARC
  5
3D1
100
AcDbEntity
  8
0
100
AcDbCircle
 62
7
  6
CONTINUOUS
 10
108.2102680809
 20
86.3830429228
 40
5.0
100
AcDbArc
 50
90.0
 51
109.7499227956
  0
ARC
  5
3D2
100
AcDbEntity
  8
0
100
AcDbCircle
 62
7
  6
CONTINUOUS
 10
125.4874548482
 20
86.3830429228
 40
5.0
100
AcDbArc
 50
0.0
 51
90.0
  0
SPLINE
  5
3D3
100
AcDbEntity
  8
RUNDUNGEN
100
AcDbSpline
 62
7
  6
CONTINUOUS
 70
0
 71
3
 72
15
 73
11
 74
0
 42
0.0000001
 43
0.0000001
 44
0.0000000001
 40
0.0
 40
0.0
 40
0.0
 40
0.0
 40
0.1137518448
 40
0.2316541682
 40
0.3536683528
 40
0.4792930529
 40
0.6076419021
 40
0.7377133674
 40
0.8686803849
 40
1.0
 40
1.0
 40
1.0
 40
1.0
 10
68.2374548486
 20
224.3481115674
 30
0.0
 10
68.2374569542
 20
224.8450022259
 30
0.0
 10
68.3124061282
 20
225.8586439769
 30
0.0
 10
68.6686110593
 20
227.3688396493
 30
0.0
 10
69.3000318106
 20
228.8449973754
 30
0.0
 10
70.2236152177
 20
230.2158853715
 30
0.0
 10
71.4313458269
 20
231.3979204308
 30
0.0
 10
72.8843553715
 20
232.3084756106
 30
0.0
 10
74.5140934677
 20
232.881766251
 30
0.0
 10
75.6640106567
 20
233.0120087673
 30
0.0
 10
76.2376408263
 20
233.0120153102
 30
0.0
  0
SPLINE
  5
3D4
100
AcDbEntity
  8
RUNDUNGEN
100
AcDbSpline
 62
7
  6
CONTINUOUS
 70
0
 71
3
 72
15
 73
11
 74
0
 42
0.0000001
 43
0.0000001
 44
0.0000000001
 40
0.0
 40
0.0
 40
0.0
 40
0.0
 40
0.1313196142
 40
0.2622866309
 40
0.3923580956
 40
0.5207069445
 40
0.6463316449
 40
0.7683458296
 40
0.8862481568
 40
1.0
 40
1.0
 40
1.0
 40
1.0
 10
82.7372688811
 20
233.0120153102
 30
0.0
 10
83.3108990073
 20
233.0120087676
 30
0.0
 10
84.4608161088
 20
232.8817662681
 30
0.0
 10
86.0905540948
 20
232.3084757111
 30
0.0
 10
87.5435635673
 20
231.3979206574
 30
0.0
 10
88.7512941566
 20
230.2158857491
 30
0.0
 10
89.6748775824
 20
228.8449979075
 30
0.0
 10
90.3062984318
 20
227.3688403191
 30
0.0
 10
90.6625033956
 20
225.8586447639
 30
0.0
 10
90.7374527644
 20
224.8450030819
 30
0.0
 10
90.7374548479
 20
224.3481124644
 30
0.0
  0
SPLINE
  5
3D5
100
AcDbEntity
  8
0
100
AcDbSpline
 62
7
  6
CONTINUOUS
 70
0
 71
3
 72
11
 73
7
 74
0
 42
0.0000001
 43
0.0000001
 44
0.0000000001
 40
0.0
 40
0.0
 40
0.0
 40
0.0
 40
0.2678512947
 40
0.5276910797
 40
0.773606038
 40
1.0
 40
1.0
 40
1.0
 40
1.0
 10
399.7529534056
 20
269.7445940241
 30
0.0
 10
399.7532526928
 20
269.2205452401
 30
0.0
 10
399.7591948619
 20
268.1881349687
 30
0.0
 10
399.7646706486
 20
266.6745845978
 30
0.0
 10
399.7597382501
 20
265.2421432465
 30
0.0
 10
399.7532703165
 20
264.3180913629
 30
0.0
 10
399.752953385
 20
263.8751535395
 30
0.0
  0
SPLINE
  5
3D6
100
AcDbEntity
  8
0
100
AcDbSpline
 62
7
  6
CONTINUOUS
 70
0
 71
3
 72
13
 73
9
 74
0
 42
0.0000001
 43
0.0000001
 44
0.0000000001
 40
0.0
 40
0.0
 40
0.0
 40
0.0
 40
0.0873133517
 40
0.1877045755
 40
0.3004607607
 40
0.4242597246
 40
0.6988752601
 40
1.0
 40
1.0
 40
1.0
 40
1.0
 10
401.5230222125
 20
259.7386208056
 30
0.0
 10
401.7015605805
 20
259.73871878
 30
0.0
 10
402.0852886084
 20
259.7690161824
 30
0.0
 10
402.691421973
 20
259.871102419
 30
0.0
 10
403.3642957239
 20
260.0201478776
 30
0.0
 10
404.3785049503
 20
260.273044469
 30
0.0
 10
405.7621590406
 20
260.635693462
 30
0.0
 10
406.9102651722
 20
260.8985299341
 30
0.0
 10
407.5142530464
 20
261.0182565388
 30
0.0
  0
LINE
  5
3D7
100
AcDbEntity
  8
0
100
AcDbLine
 62
7
  6
CONTINUOUS
 10
407.5142530464
 20
261.0182565388
 11
407.5371661351
 21
261.0227896777
  0
SPLINE
  5
3D8
100
AcDbEntity
  8
RUNDUNGEN
100
AcDbSpline
 62
7
  6
CONTINUOUS
 70
0
 71
3
 72
12
 73
8
 74
0
 42
0.0000001
 43
0.0000001
 44
0.0000000001
 40
0.0
 40
0.0
 40
0.0
 40
0.0
 40
0.3136638531
 40
0.5539978717
 40
0.6585935722
 40
0.7625610306
 40
1.0
 40
1.0
 40
1.0
 40
1.0
 10
410.7529523411
 20
260.2276162668
 30
0.0
 10
410.7529523411
 20
260.1558090276
 30
0.0
 10
410.7460814281
 20
260.0287856995
 30
0.0
 10
410.6960861261
 20
259.8817372763
 30
0.0
 10
410.6270226144
 20
259.8037586744
 30
0.0
 10
410.5390662125
 20
259.7492984165
 30
0.0
 10
410.4581702527
 20
259.7385552647
 30
0.0
 10
410.4038132585
 20
259.7386213904
 30
0.0
  0
SPLINE
  5
3D9
100
AcDbEntity
  8
0
100
AcDbSpline
 62
7
  6
CONTINUOUS
 70
0
 71
3
 72
14
 73
10
 74
0
 42
0.0000001
 43
0.0000001
 44
0.0000000001
 40
0.0
 40
0.0
 40
0.0
 40
0.0
 40
0.1194350745
 40
0.2366075995
 40
0.3532180304
 40
0.4713030158
 40
0.5930867777
 40
0.7207395066
 40
1.0
 40
1.0
 40
1.0
 40
1.0
 10
435.252950717
 20
286.7951374986
 30
0.0
 10
435.2529157127
 20
286.5778548122
 30
0.0
 10
435.2188983091
 20
286.1464442776
 30
0.0
 10
435.0589462398
 20
285.5207518179
 30
0.0
 10
434.7895434021
 20
284.9359956464
 30
0.0
 10
434.4110481999
 20
284.4047172521
 30
0.0
 10
433.925804508
 20
283.9390931575
 30
0.0
 10
433.1209230195
 20
283.4050352581
 30
0.0
 10
432.4059457598
 20
283.1610398175
 30
0.0
 10
431.9085108789
 20
283.0577493057
 30
0.0
  0
SPLINE
  5
3DA
100
AcDbEntity
  8
0
100
AcDbSpline
 62
7
  6
CONTINUOUS
 70
0
 71
3
 72
11
 73
7
 74
0
 42
0.0000001
 43
0.0000001
 44
0.0000000001
 40
0.0
 40
0.0
 40
0.0
 40
0.0
 40
0.2105381988
 40
0.4536573777
 40
0.7203085553
 40
1.0
 40
1.0
 40
1.0
 40
1.0
 10
431.9085108789
 20
283.0577493057
 30
0.0
 10
431.2428242006
 20
282.9195219309
 30
0.0
 10
429.7900313687
 20
282.7101560195
 30
0.0
 10
427.4671615787
 20
282.5618020744
 30
0.0
 10
424.9163147503
 20
282.5594724558
 30
0.0
 10
423.1535765302
 20
282.6511825133
 30
0.0
 10
422.2529523411
 20
282.7193663288
 30
0.0
  0
SPLINE
  5
3DB
100
AcDbEntity
  8
RUNDUNGEN
100
AcDbSpline
 62
7
  6
CONTINUOUS
 70
0
 71
3
 72
11
 73
7
 74
0
 42
0.0000001
 43
0.0000001
 44
0.0000000001
 40
0.0
 40
0.0
 40
0.0
 40
0.0
 40
0.2541758766
 40
0.5065773432
 40
0.7554200326
 40
1.0
 40
1.0
 40
1.0
 40
1.0
 10
415.8264854431
 20
283.1621657141
 30
0.0
 10
415.3574784743
 20
283.1908975513
 30
0.0
 10
414.4102635369
 20
283.12272783
 30
0.0
 10
413.0782226821
 20
282.6511937138
 30
0.0
 10
411.9362204018
 20
281.8485284027
 30
0.0
 10
411.3564390787
 20
281.1252809966
 30
0.0
 10
411.1279523684
 20
280.7351139044
 30
0.0
  0
SPLINE
  5
3DC
100
AcDbEntity
  8
RUNDUNGEN
100
AcDbSpline
 62
7
  6
CONTINUOUS
 70
0
 71
3
 72
14
 73
10
 74
0
 42
0.0000001
 43
0.0000001
 44
0.0000000001
 40
0.0
 40
0.0
 40
0.0
 40
0.0
 40
0.1129797796
 40
0.2238266847
 40
0.3357134275
 40
0.4519744382
 40
0.5753346812
 40
0.7075144056
 40
1.0
 40
1.0
 40
1.0
 40
1.0
 10
408.8075323946
 20
280.105376877
 30
0.0
 10
408.972821991
 20
280.0209795225
 30
0.0
 10
409.2887134213
 20
279.8292204434
 30
0.0
 10
409.706109817
 20
279.4644088136
 30
0.0
 10
410.0535047515
 20
279.025222966
 30
0.0
 10
410.3278292034
 20
278.514080194
 30
0.0
 10
410.530278124
 20
277.9356427338
 30
0.0
 10
410.7162959823
 20
277.0529717624
 30
0.0
 10
410.7529523411
 20
276.352195239
 30
0.0
 10
410.7529523411
 20
275.8717346161
 30
0.0
  0
SPLINE
  5
3DD
100
AcDbEntity
  8
0
100
AcDbSpline
 62
7
  6
CONTINUOUS
 70
0
 71
3
 72
14
 73
10
 74
0
 42
0.0000001
 43
0.0000001
 44
0.0000000001
 40
0.0
 40
0.0
 40
0.0
 40
0.0
 40
0.279256915
 40
0.4069096189
 40
0.5286936113
 40
0.6467792899
 40
0.7633904782
 40
0.880563874
 40
1.0
 40
1.0
 40
1.0
 40
1.0
 10
366.5973938032
 20
283.0577493057
 30
0.0
 10
366.0999581181
 20
283.1610399845
 30
0.0
 10
365.3849764275
 20
283.4050362506
 30
0.0
 10
364.5800904275
 20
283.9391016704
 30
0.0
 10
364.0948402186
 20
284.404735338
 30
0.0
 10
363.7163411326
 20
284.9360266845
 30
0.0
 10
363.4469413812
 20
285.5207993835
 30
0.0
 10
363.2869953151
 20
286.1465080375
 30
0.0
 10
363.2529846548
 20
286.5779289932
 30
0.0
 10
363.2529537948
 20
286.7952167288
 30
0.0
  0
SPLINE
  5
3DE
100
AcDbEntity
  8
0
100
AcDbSpline
 62
7
  6
CONTINUOUS
 70
0
 71
3
 72
11
 73
7
 74
0
 42
0.0000001
 43
0.0000001
 44
0.0000000001
 40
0.0
 40
0.0
 40
0.0
 40
0.0
 40
0.2105381988
 40
0.4536573777
 40
0.7203085553
 40
1.0
 40
1.0
 40
1.0
 40
1.0
 10
366.5973938032
 20
283.0577493057
 30
0.0
 10
367.2630804815
 20
282.9195219309
 30
0.0
 10
368.7158733134
 20
282.7101560195
 30
0.0
 10
371.0387431034
 20
282.5618020744
 30
0.0
 10
373.5895899318
 20
282.5594724558
 30
0.0
 10
375.3523281519
 20
282.6511825133
 30
0.0
 10
376.2529523411
 20
282.7193663288
 30
0.0
  0
SPLINE
  5
3DF
100
AcDbEntity
  8
RUNDUNGEN
100
AcDbSpline
 62
7
  6
CONTINUOUS
 70
0
 71
3
 72
11
 73
7
 74
0
 42
0.0000001
 43
0.0000001
 44
0.0000000001
 40
0.0
 40
0.0
 40
0.0
 40
0.0
 40
0.2445799794
 40
0.4934226684
 40
0.7458241442
 40
1.0
 40
1.0
 40
1.0
 40
1.0
 10
387.3779523096
 20
280.7351139126
 30
0.0
 10
387.1494655885
 20
281.1252810232
 30
0.0
 10
386.5696842443
 20
281.8485284406
 30
0.0
 10
385.4276819231
 20
282.6511937561
 30
0.0
 10
384.0956410808
 20
283.1227278384
 30
0.0
 10
383.1484261687
 20
283.1908975489
 30
0.0
 10
382.679419239
 20
283.1621657141
 30
0.0
  0
SPLINE
  5
3E0
100
AcDbEntity
  8
RUNDUNGEN
100
AcDbSpline
 62
7
  6
CONTINUOUS
 70
0
 71
3
 72
9
 73
5
 74
0
 42
0.0000001
 43
0.0000001
 44
0.0000000001
 40
0.0
 40
0.0
 40
0.0
 40
0.0
 40
0.2349552883
 40
1.0
 40
1.0
 40
1.0
 40
1.0
 10
408.8075323946
 20
280.105376877
 30
0.0
 10
408.7139909281
 20
280.1531394251
 30
0.0
 10
408.3119574919
 20
280.3487558377
 30
0.0
 10
407.89635618
 20
280.5157800085
 30
0.0
 10
407.5744351117
 20
280.6312116409
 30
0.0
  0
SPLINE
  5
3E1
100
AcDbEntity
  8
RUNDUNGEN
100
AcDbSpline
 62
7
  6
CONTINUOUS
 70
0
 71
3
 72
9
 73
5
 74
0
 42
0.0000001
 43
0.0000001
 44
0.0000000001
 40
0.0
 40
0.0
 40
0.0
 40
0.0
 40
0.498036625
 40
1.0
 40
1.0
 40
1.0
 40
1.0
 10
410.7529523411
 20
279.3629123339
 30
0.0
 10
410.7529523397
 20
279.6011610977
 30
0.0
 10
410.8175210289
 20
280.0816876424
 30
0.0
 10
411.0066070348
 20
280.5279029129
 30
0.0
 10
411.1279523684
 20
280.7351139044
 30
0.0
  0
SPLINE
  5
3E2
100
AcDbEntity
  8
RUNDUNGEN
100
AcDbSpline
 62
7
  6
CONTINUOUS
 70
0
 71
3
 72
9
 73
5
 74
0
 42
0.0000001
 43
0.0000001
 44
0.0000000001
 40
0.0
 40
0.0
 40
0.0
 40
0.0
 40
0.501963375
 40
1.0
 40
1.0
 40
1.0
 40
1.0
 10
387.3779523096
 20
280.7351139126
 30
0.0
 10
387.4992976435
 20
280.5279029195
 30
0.0
 10
387.6883836499
 20
280.0816876463
 30
0.0
 10
387.7529523415
 20
279.6011610992
 30
0.0
 10
387.7529523411
 20
279.3629123339
 30
0.0
  0
SPLINE
  5
3E3
100
AcDbEntity
  8
0
100
AcDbSpline
 62
7
  6
CONTINUOUS
 70
0
 71
3
 72
15
 73
11
 74
0
 42
0.0000001
 43
0.0000001
 44
0.0000000001
 40
0.0
 40
0.0
 40
0.0
 40
0.0
 40
0.090709019
 40
0.1897791386
 40
0.2986543648
 40
0.4182820652
 40
0.549276511
 40
0.6913484954
 40
0.8426652419
 40
1.0
 40
1.0
 40
1.0
 40
1.0
 10
363.2529537948
 20
286.7952167288
 30
0.0
 10
363.2528838951
 20
287.2873854328
 30
0.0
 10
363.4381949154
 20
288.321388912
 30
0.0
 10
364.1826202836
 20
289.781806756
 30
0.0
 10
365.3812899391
 20
291.119632267
 30
0.0
 10
367.0103215029
 20
292.2255255427
 30
0.0
 10
369.0167660212
 20
292.9933145327
 30
0.0
 10
371.3060842882
 20
293.3523566566
 30
0.0
 10
373.7610011353
 20
293.3000758643
 30
0.0
 10
375.4187662226
 20
293.0309166878
 30
0.0
 10
376.2529523411
 20
292.8495885328
 30
0.0
  0
SPLINE
  5
3E4
100
AcDbEntity
  8
0
100
AcDbSpline
 62
7
  6
CONTINUOUS
 70
0
 71
3
 72
9
 73
5
 74
0
 42
0.0000001
 43
0.0000001
 44
0.0000000001
 40
0.0
 40
0.0
 40
0.0
 40
0.0
 40
0.2502348171
 40
1.0
 40
1.0
 40
1.0
 40
1.0
 10
414.9673552152
 20
291.6992703407
 30
0.0
 10
415.5791437278
 20
291.7656499944
 30
0.0
 10
418.0210498804
 20
292.0557285013
 30
0.0
 10
420.4512002626
 20
292.4579392679
 30
0.0
 10
422.2529523411
 20
292.8495885328
 30
0.0
  0
SPLINE
  5
3E5
100
AcDbEntity
  8
0
100
AcDbSpline
 62
7
  6
CONTINUOUS
 70
0
 71
3
 72
15
 73
11
 74
0
 42
0.0000001
 43
0.0000001
 44
0.0000000001
 40
0.0
 40
0.0
 40
0.0
 40
0.0
 40
0.1573350419
 40
0.308652031
 40
0.4507241324
 40
0.5817185443
 40
0.701346174
 40
0.8102212208
 40
0.9092911486
 40
1.0
 40
1.0
 40
1.0
 40
1.0
 10
422.2529523411
 20
292.8495885328
 30
0.0
 10
423.0871439813
 20
293.030917888
 30
0.0
 10
424.7449200532
 20
293.3000784407
 30
0.0
 10
427.1998524013
 20
293.3523553074
 30
0.0
 10
429.4891828977
 20
292.99330495
 30
0.0
 10
431.4956327247
 20
292.2254999609
 30
0.0
 10
433.1246638287
 20
291.1195914168
 30
0.0
 10
434.3233249553
 20
289.7817493558
 30
0.0
 10
435.0677353945
 20
288.3213178691
 30
0.0
 10
435.2530300059
 20
287.2873076621
 30
0.0
 10
435.252950717
 20
286.7951374986
 30
0.0
  0
SPLINE
  5
3E6
100
AcDbEntity
  8
0
100
AcDbSpline
 62
7
  6
CONTINUOUS
 70
0
 71
3
 72
17
 73
13
 74
0
 42
0.0000001
 43
0.0000001
 44
0.0000000001
 40
0.0
 40
0.0
 40
0.0
 40
0.0
 40
0.1839740494
 40
0.348050562
 40
0.4903264684
 40
0.6102838755
 40
0.7105175164
 40
0.7557682573
 40
0.7998233671
 40
0.8446273278
 40
0.8920369861
 40
1.0
 40
1.0
 40
1.0
 40
1.0
 10
399.752953385
 20
263.8751535395
 30
0.0
 10
399.75272884
 20
263.5613334558
 30
0.0
 10
399.7549890834
 20
262.9675992999
 30
0.0
 10
399.7817464679
 20
262.1314689406
 30
0.0
 10
399.8487125963
 20
261.4064559195
 30
0.0
 10
399.9746309612
 20
260.7993615149
 30
0.0
 10
400.1590250887
 20
260.3785060407
 30
0.0
 10
400.3627788596
 20
260.1250740443
 30
0.0
 10
400.5391584554
 20
259.9770012793
 30
0.0
 10
400.7447630155
 20
259.8654161234
 30
0.0
 10
401.0709600292
 20
259.759494909
 30
0.0
 10
401.3388605563
 20
259.7385197453
 30
0.0
 10
401.5230222125
 20
259.7386208056
 30
0.0
  0
SPLINE
  5
3E7
100
AcDbEntity
  8
0
100
AcDbSpline
 62
7
  6
CONTINUOUS
 70
0
 71
3
 72
17
 73
13
 74
0
 42
0.0000001
 43
0.0000001
 44
0.0000000001
 40
0.0
 40
0.0
 40
0.0
 40
0.0
 40
0.1461957262
 40
0.2795138699
 40
0.400025176
 40
0.5104287203
 40
0.5639449171
 40
0.617764956
 40
0.6731188151
 40
0.731095619
 40
0.8576065003
 40
1.0
 40
1.0
 40
1.0
 40
1.0
 10
393.5832198482
 20
280.73859468
 30
0.0
 10
393.149779655
 20
280.7389691358
 30
0.0
 10
392.3206667889
 20
280.721911008
 30
0.0
 10
391.1391353283
 20
280.593772771
 30
0.0
 10
390.088407898
 20
280.321386278
 30
0.0
 10
389.3313094904
 20
279.9248327573
 30
0.0
 10
388.8410694544
 20
279.5009657321
 30
0.0
 10
388.5291812383
 20
279.1303533977
 30
0.0
 10
388.271959806
 20
278.7045717711
 30
0.0
 10
387.9940314895
 20
278.0477734929
 30
0.0
 10
387.7901043967
 20
277.0922532238
 30
0.0
 10
387.7529523411
 20
276.293902144
 30
0.0
 10
387.7529523411
 20
275.871734611
 30
0.0
  0
SPLINE
  5
3E8
100
AcDbEntity
  8
0
100
AcDbSpline
 62
7
  6
CONTINUOUS
 70
0
 71
3
 72
11
 73
7
 74
0
 42
0.0000001
 43
0.0000001
 44
0.0000000001
 40
0.0
 40
0.0
 40
0.0
 40
0.0
 40
0.2449868469
 40
0.4934902515
 40
0.7454621123
 40
1.0
 40
1.0
 40
1.0
 40
1.0
 10
411.1061668332
 20
289.1110241318
 30
0.0
 10
411.2947546507
 20
289.4565903788
 30
0.0
 10
411.7590952357
 20
290.11008452
 30
0.0
 10
412.6709261707
 20
290.9037464249
 30
0.0
 10
413.7589943836
 20
291.4659875837
 30
0.0
 10
414.5607171557
 20
291.6551497124
 30
0.0
 10
414.9673552152
 20
291.6992703407
 30
0.0
  0
SPLINE
  5
3E9
100
AcDbEntity
  8
RUNDUNGEN
100
AcDbSpline
 62
7
  6
CONTINUOUS
 70
0
 71
3
 72
9
 73
5
 74
0
 42
0.0000001
 43
0.0000001
 44
0.0000000001
 40
0.0
 40
0.0
 40
0.0
 40
0.0
 40
0.2551793118
 40
1.0
 40
1.0
 40
1.0
 40
1.0
 10
410.7525801293
 20
261.195972736
 30
0.0
 10
410.4793601149
 20
261.1846765692
 30
0.0
 10
409.4092294571
 20
261.1281209868
 30
0.0
 10
408.3414947282
 20
261.0226536722
 30
0.0
 10
407.5509200279
 20
260.9128806504
 30
0.0
  0
LINE
  5
3EA
100
AcDbEntity
  8
RUNDUNGEN
100
AcDbLine
 62
7
  6
CONTINUOUS
 10
407.5509200279
 20
260.9128806504
 11
407.5371661351
 21
260.9109676286
  0
SPLINE
  5
3EB
100
AcDbEntity
  8
0
100
AcDbSpline
 62
7
  6
CONTINUOUS
 70
0
 71
3
 72
21
 73
17
 74
0
 42
0.0000001
 43
0.0000001
 44
0.0000000001
 40
0.0
 40
0.0
 40
0.0
 40
0.0
 40
0.1302997419
 40
0.1914541341
 40
0.2499284133
 40
0.3060479652
 40
0.3605078557
 40
0.4143903889
 40
0.4690245903
 40
0.5256947894
 40
0.5853247473
 40
0.6483112557
 40
0.7145497686
 40
0.7835704896
 40
0.8546870637
 40
1.0
 40
1.0
 40
1.0
 40
1.0
 10
407.5371661351
 20
280.532690616
 30
0.0
 10
406.8668677007
 20
280.4782623072
 30
0.0
 10
405.8826901117
 20
280.365298166
 30
0.0
 10
404.6221694887
 20
280.0855447137
 30
0.0
 10
403.7567118004
 20
279.8085768181
 30
0.0
 10
402.9600892579
 20
279.4467123861
 30
0.0
 10
402.242297893
 20
278.9873401749
 30
0.0
 10
401.6143002081
 20
278.421635482
 30
0.0
 10
401.0854693976
 20
277.7476622047
 30
0.0
 10
400.659450251
 20
276.9711442858
 30
0.0
 10
400.3323865666
 20
276.1028471634
 30
0.0
 10
400.0945437111
 20
275.1559185699
 30
0.0
 10
399.9327490946
 20
274.1446425197
 30
0.0
 10
399.832166551
 20
273.0837432998
 30
0.0
 10
399.7592576491
 20
271.6119618275
 30
0.0
 10
399.7525250817
 20
270.4945847777
 30
0.0
 10
399.7529534056
 20
269.7445940241
 30
0.0
  0
SPLINE
  5
3EC
100
AcDbEntity
  8
0
100
AcDbSpline
 62
7
  6
CONTINUOUS
 70
0
 71
3
 72
9
 73
5
 74
0
 42
0.0000001
 43
0.0000001
 44
0.0000000001
 40
0.0
 40
0.0
 40
0.0
 40
0.0
 40
0.2498139723
 40
1.0
 40
1.0
 40
1.0
 40
1.0
 10
376.2529523411
 20
292.8495885328
 30
0.0
 10
376.8533037218
 20
292.7190893483
 30
0.0
 10
379.2653095805
 20
292.2371997628
 30
0.0
 10
381.7043710495
 20
291.8982804981
 30
0.0
 10
383.5385494669
 20
291.6992703407
 30
0.0
  0
SPLINE
  5
3ED
100
AcDbEntity
  8
0
100
AcDbSpline
 62
7
  6
CONTINUOUS
 70
0
 71
3
 72
11
 73
7
 74
0
 42
0.0000001
 43
0.0000001
 44
0.0000000001
 40
0.0
 40
0.0
 40
0.0
 40
0.0
 40
0.2489258494
 40
0.4999999973
 40
0.7510742397
 40
1.0
 40
1.0
 40
1.0
 40
1.0
 10
395.4248478621
 20
316.2426359962
 30
0.0
 10
396.0179958828
 20
316.5214848855
 30
0.0
 10
397.2716684193
 20
316.9603379797
 30
0.0
 10
399.2529525687
 20
317.187850273
 30
0.0
 10
401.2342365155
 20
316.9603380064
 30
0.0
 10
402.4879090118
 20
316.5214847858
 30
0.0
 10
403.08105682
 20
316.2426359962
 30
0.0
  0
SPLINE
  5
3EE
100
AcDbEntity
  8
0
100
AcDbSpline
 62
7
  6
CONTINUOUS
 70
0
 71
3
 72
11
 73
7
 74
0
 42
0.0000001
 43
0.0000001
 44
0.0000000001
 40
0.0
 40
0.0
 40
0.0
 40
0.0
 40
0.2545378562
 40
0.5065097972
 40
0.7550131755
 40
1.0
 40
1.0
 40
1.0
 40
1.0
 10
383.5385494669
 20
291.6992703407
 30
0.0
 10
383.945187476
 20
291.6551497178
 30
0.0
 10
384.7469103222
 20
291.4659875759
 30
0.0
 10
385.8349785742
 20
290.9037463954
 30
0.0
 10
386.7468095184
 20
290.1100844279
 30
0.0
 10
387.2111500488
 20
289.4565903471
 30
0.0
 10
387.3997378489
 20
289.1110241318
 30
0.0
  0
SPLINE
  5
3EF
100
AcDbEntity
  8
0
100
AcDbSpline
 62
7
  6
CONTINUOUS
 70
0
 71
3
 72
9
 73
5
 74
0
 42
0.0000001
 43
0.0000001
 44
0.0000000001
 40
0.0
 40
0.0
 40
0.0
 40
0.0
 40
0.4786735462
 40
1.0
 40
1.0
 40
1.0
 40
1.0
 10
391.719042594
 20
314.5529696531
 30
0.0
 10
392.3054544305
 20
314.8330206631
 30
0.0
 10
393.5448591596
 20
315.3874926464
 30
0.0
 10
394.7843336758
 20
315.9415197237
 30
0.0
 10
395.4248424744
 20
316.2426337137
 30
0.0
  0
SPLINE
  5
3F0
100
AcDbEntity
  8
0
100
AcDbSpline
 62
7
  6
CONTINUOUS
 70
0
 71
3
 72
11
 73
7
 74
0
 42
0.0000001
 43
0.0000001
 44
0.0000000001
 40
0.0
 40
0.0
 40
0.0
 40
0.0
 40
0.2593141166
 40
0.50500121
 40
0.7495072472
 40
1.0
 40
1.0
 40
1.0
 40
1.0
 10
389.8226460752
 20
313.1147970435
 30
0.0
 10
389.9374417837
 20
313.2885696748
 30
0.0
 10
390.1986533999
 20
313.6039225813
 30
0.0
 10
390.6710154077
 20
313.9814252694
 30
0.0
 10
391.181903165
 20
314.2880531263
 30
0.0
 10
391.5375005445
 20
314.4662713519
 30
0.0
 10
391.719042594
 20
314.5529696531
 30
0.0
  0
SPLINE
  5
3F1
100
AcDbEntity
  8
0
100
AcDbSpline
 62
7
  6
CONTINUOUS
 70
0
 71
3
 72
13
 73
9
 74
0
 42
0.0000001
 43
0.0000001
 44
0.0000000001
 40
0.0
 40
0.0
 40
0.0
 40
0.0
 40
0.2511949615
 40
0.5046551382
 40
0.6316038533
 40
0.7579136147
 40
0.8819642421
 40
1.0
 40
1.0
 40
1.0
 40
1.0
 10
387.7529523411
 20
301.7785320099
 30
0.0
 10
387.7529523411
 20
302.7520506327
 30
0.0
 10
387.8392716423
 20
304.7082460918
 30
0.0
 10
388.1155697085
 20
307.1423242467
 30
0.0
 10
388.4407902934
 20
309.0794245157
 30
0.0
 10
388.7525956701
 20
310.5091416873
 30
0.0
 10
389.1635390154
 20
311.8779872916
 30
0.0
 10
389.5705162317
 20
312.7330979141
 30
0.0
 10
389.8226460752
 20
313.1147970435
 30
0.0
  0
SPLINE
  5
3F2
100
AcDbEntity
  8
RUNDUNGEN
100
AcDbSpline
 62
7
  6
CONTINUOUS
 70
0
 71
3
 72
11
 73
7
 74
0
 42
0.0000001
 43
0.0000001
 44
0.0000000001
 40
0.0
 40
0.0
 40
0.0
 40
0.0
 40
0.1606814313
 40
0.3813397502
 40
0.6626343159
 40
1.0
 40
1.0
 40
1.0
 40
1.0
 10
410.4038132585
 20
259.7386213904
 30
0.0
 10
410.3113341741
 20
259.7387338917
 30
0.0
 10
410.0934786973
 20
259.7850820971
 30
0.0
 10
409.7370206693
 20
259.9197494136
 30
0.0
 10
409.2982759432
 20
260.1231555798
 30
0.0
 10
408.980462471
 20
260.2835332345
 30
0.0
 10
408.8075323946
 20
260.3718318405
 30
0.0
  0
SPLINE
  5
3F3
100
AcDbEntity
  8
0
100
AcDbSpline
 62
7
  6
CONTINUOUS
 70
0
 71
3
 72
11
 73
7
 74
0
 42
0.0000001
 43
0.0000001
 44
0.0000000001
 40
0.0
 40
0.0
 40
0.0
 40
0.0
 40
0.2886398794
 40
0.5230309616
 40
0.7433620491
 40
1.0
 40
1.0
 40
1.0
 40
1.0
 10
387.759733382
 20
260.0909538895
 30
0.0
 10
387.765498153
 20
260.0383926193
 30
0.0
 10
387.7831049232
 20
259.9433521189
 30
0.0
 10
387.8508306991
 20
259.8203774351
 30
0.0
 10
387.9656342389
 20
259.7481862735
 30
0.0
 10
388.0547364353
 20
259.7385654474
 30
0.0
 10
388.10175038
 20
259.7386106404
 30
0.0
  0
SPLINE
  5
3F4
100
AcDbEntity
  8
RUNDUNGEN
100
AcDbSpline
 62
7
  6
CONTINUOUS
 70
0
 71
3
 72
9
 73
5
 74
0
 42
0.0000001
 43
0.0000001
 44
0.0000000001
 40
0.0
 40
0.0
 40
0.0
 40
0.0
 40
0.2652537506
 40
1.0
 40
1.0
 40
1.0
 40
1.0
 10
407.5371661351
 20
260.9109676286
 30
0.0
 10
407.6521908096
 20
260.8701083199
 30
0.0
 10
408.0836470989
 20
260.7101369648
 30
0.0
 10
408.50639633
 20
260.5255928015
 30
0.0
 10
408.8075323946
 20
260.3718318405
 30
0.0
  0
LINE
  5
3F5
100
AcDbEntity
  8
0
100
AcDbLine
 62
7
  6
CONTINUOUS
 10
407.5371661351
 20
280.532690616
 11
407.519487922
 21
280.5363267473
  0
SPLINE
  5
3F6
100
AcDbEntity
  8
0
100
AcDbSpline
 62
7
  6
CONTINUOUS
 70
0
 71
3
 72
9
 73
5
 74
0
 42
0.0000001
 43
0.0000001
 44
0.0000000001
 40
0.0
 40
0.0
 40
0.0
 40
0.0
 40
0.4755470512
 40
1.0
 40
1.0
 40
1.0
 40
1.0
 10
407.519487922
 20
280.5363267473
 30
0.0
 10
407.1146007082
 20
280.619065041
 30
0.0
 10
406.2484663337
 20
280.7202162268
 30
0.0
 10
405.3792680878
 20
280.7389691613
 30
0.0
 10
404.9235140941
 20
280.7385951826
 30
0.0
  0
SPLINE
  5
3F7
100
AcDbEntity
  8
0
100
AcDbSpline
 62
7
  6
CONTINUOUS
 70
0
 71
3
 72
9
 73
5
 74
0
 42
0.0000001
 43
0.0000001
 44
0.0000000001
 40
0.0
 40
0.0
 40
0.0
 40
0.0
 40
0.5213263437
 40
1.0
 40
1.0
 40
1.0
 40
1.0
 10
403.0810622089
 20
316.2426337132
 30
0.0
 10
403.7215708784
 20
315.9415197838
 30
0.0
 10
404.9610454032
 20
315.3874926937
 30
0.0
 10
406.2004501498
 20
314.8330207167
 30
0.0
 10
406.7868621246
 20
314.5529696348
 30
0.0
  0
SPLINE
  5
3F8
100
AcDbEntity
  8
0
100
AcDbSpline
 62
7
  6
CONTINUOUS
 70
0
 71
3
 72
11
 73
7
 74
0
 42
0.0000001
 43
0.0000001
 44
0.0000000001
 40
0.0
 40
0.0
 40
0.0
 40
0.0
 40
0.250493279
 40
0.4949996633
 40
0.7406867295
 40
1.0
 40
1.0
 40
1.0
 40
1.0
 10
406.7868621246
 20
314.5529696348
 30
0.0
 10
406.968404586
 20
314.466271135
 30
0.0
 10
407.3240027664
 20
314.2880527792
 30
0.0
 10
407.8348909955
 20
313.9814241498
 30
0.0
 10
408.3072524381
 20
313.6039212756
 30
0.0
 10
408.5684635253
 20
313.2885687925
 30
0.0
 10
408.6832588652
 20
313.114796689
 30
0.0
  0
SPLINE
  5
3F9
100
AcDbEntity
  8
0
100
AcDbSpline
 62
7
  6
CONTINUOUS
 70
0
 71
3
 72
13
 73
9
 74
0
 42
0.0000001
 43
0.0000001
 44
0.0000000001
 40
0.0
 40
0.0
 40
0.0
 40
0.0
 40
0.1180404446
 40
0.2420921404
 40
0.3684012398
 40
0.4953487692
 40
0.7488069977
 40
1.0
 40
1.0
 40
1.0
 40
1.0
 10
408.6832588652
 20
313.114796689
 30
0.0
 10
408.9353987049
 20
312.7330823595
 30
0.0
 10
409.3424006379
 20
311.8779574861
 30
0.0
 10
409.7533131211
 20
310.5090806144
 30
0.0
 10
410.0651226371
 20
309.0793685673
 30
0.0
 10
410.3903447585
 20
307.1422828389
 30
0.0
 10
410.6666327711
 20
304.7082233796
 30
0.0
 10
410.7529523411
 20
302.7520431017
 30
0.0
 10
410.7529523411
 20
301.7785320099
 30
0.0
  0
SPLINE
  5
3FA
100
AcDbEntity
  8
0
100
AcDbSpline
 62
7
  6
CONTINUOUS
 70
0
 71
3
 72
14
 73
10
 74
0
 42
0.0000001
 43
0.0000001
 44
0.0000000001
 40
0.0
 40
0.0
 40
0.0
 40
0.0
 40
0.1126375413
 40
0.225711206
 40
0.3426404035
 40
0.4658057588
 40
0.5956425226
 40
0.7302508098
 40
1.0
 40
1.0
 40
1.0
 40
1.0
 10
115.4874533945
 20
106.2371279127
 30
0.0
 10
115.4875202586
 20
105.5217893049
 30
0.0
 10
115.3245221034
 20
104.0826932948
 30
0.0
 10
114.5882371734
 20
102.0164486277
 30
0.0
 10
113.3886722097
 20
100.1018031232
 30
0.0
 10
111.764256964
 20
98.3857936153
 30
0.0
 10
109.7715336181
 20
96.9189266234
 30
0.0
 10
106.7425256758
 20
95.3711146201
 30
0.0
 10
104.1952417102
 20
94.7405551396
 30
0.0
 10
102.4874548482
 20
94.6054406825
 30
0.0
  0
SPLINE
  5
3FB
100
AcDbEntity
  8
0
100
AcDbSpline
 62
7
  6
CONTINUOUS
 70
0
 71
3
 72
9
 73
5
 74
0
 42
0.0000001
 43
0.0000001
 44
0.0000000001
 40
0.0
 40
0.0
 40
0.0
 40
0.0
 40
0.2514268643
 40
1.0
 40
1.0
 40
1.0
 40
1.0
 10
63.7730519741
 20
94.1867591007
 30
0.0
 10
63.161902434
 20
94.2108940851
 30
0.0
 10
60.7315746312
 20
94.315983578
 30
0.0
 10
58.3027759214
 20
94.4618184738
 30
0.0
 10
56.4874548482
 20
94.6054406825
 30
0.0
  0
SPLINE
  5
3FC
100
AcDbEntity
  8
0
100
AcDbSpline
 62
7
  6
CONTINUOUS
 70
0
 71
3
 72
14
 73
10
 74
0
 42
0.0000001
 43
0.0000001
 44
0.0000000001
 40
0.0
 40
0.0
 40
0.0
 40
0.0
 40
0.2697493396
 40
0.4043576569
 40
0.5341943171
 40
0.6573595739
 40
0.7742886275
 40
0.8873622761
 40
1.0
 40
1.0
 40
1.0
 40
1.0
 10
56.4874548482
 20
94.6054406825
 30
0.0
 10
54.779656328
 20
94.740556062
 30
0.0
 10
52.2323552966
 20
95.3711228486
 30
0.0
 10
49.2033316573
 20
96.9189525219
 30
0.0
 10
47.2106028089
 20
98.3858366898
 30
0.0
 10
45.5861880669
 20
100.1018644336
 30
0.0
 10
44.3866315723
 20
102.0165304321
 30
0.0
 10
43.6503623684
 20
104.0827958242
 30
0.0
 10
43.4873806268
 20
105.5219041386
 30
0.0
 10
43.4874564722
 20
106.2372483922
 30
0.0
  0
SPLINE
  5
3FD
100
AcDbEntity
  8
0
100
AcDbSpline
 62
7
  6
CONTINUOUS
 70
0
 71
3
 72
11
 73
7
 74
0
 42
0.0000001
 43
0.0000001
 44
0.0000000001
 40
0.0
 40
0.0
 40
0.0
 40
0.0
 40
0.191488545
 40
0.4276419332
 40
0.7013205535
 40
1.0
 40
1.0
 40
1.0
 40
1.0
 10
67.634240356
 20
93.2447145217
 30
0.0
 10
67.4211231166
 20
93.3868498812
 30
0.0
 10
66.9018860964
 20
93.6382861383
 30
0.0
 10
66.0027214718
 20
93.9126723588
 30
0.0
 10
64.9365467873
 20
94.107087782
 30
0.0
 10
64.172303842
 20
94.1709921943
 30
0.0
 10
63.7730519741
 20
94.1867591007
 30
0.0
  0
SPLINE
  5
3FE
100
AcDbEntity
  8
0
100
AcDbSpline
 62
7
  6
CONTINUOUS
 70
0
 71
3
 72
9
 73
5
 74
0
 42
0.0000001
 43
0.0000001
 44
0.0000000001
 40
0.0
 40
0.0
 40
0.0
 40
0.0
 40
0.4965334999
 40
1.0
 40
1.0
 40
1.0
 40
1.0
 10
75.6593449804
 20
79.3416657479
 30
0.0
 10
74.9956079846
 20
79.4774387848
 30
0.0
 10
73.6862533727
 20
79.90498526
 30
0.0
 10
72.5033772416
 20
80.6088701253
 30
0.0
 10
71.9535450647
 20
81.0206619472
 30
0.0
  0
SPLINE
  5
3FF
100
AcDbEntity
  8
0
100
AcDbSpline
 62
7
  6
CONTINUOUS
 70
0
 71
3
 72
10
 73
6
 74
0
 42
0.0000001
 43
0.0000001
 44
0.0000000001
 40
0.0
 40
0.0
 40
0.0
 40
0.0
 40
0.5315138709
 40
0.7808422083
 40
1.0
 40
1.0
 40
1.0
 40
1.0
 10
71.9535450647
 20
81.0206619472
 30
0.0
 10
71.5903692218
 20
81.2926593551
 30
0.0
 10
71.0826510515
 20
81.7273828224
 30
0.0
 10
70.4722909992
 20
82.3241233181
 30
0.0
 10
70.1911852414
 20
82.608662245
 30
0.0
 10
70.0571483241
 20
82.7391860375
 30
0.0
  0
SPLINE
  5
400
100
AcDbEntity
  8
0
100
AcDbSpline
 62
7
  6
CONTINUOUS
 70
0
 71
3
 72
9
 73
5
 74
0
 42
0.0000001
 43
0.0000001
 44
0.0000000001
 40
0.0
 40
0.0
 40
0.0
 40
0.0
 40
0.5893435613
 40
1.0
 40
1.0
 40
1.0
 40
1.0
 10
70.0571483241
 20
82.7391860375
 30
0.0
 10
69.8516263857
 20
82.9393104794
 30
0.0
 10
69.5058988532
 20
83.2819680306
 30
0.0
 10
69.1538171499
 20
83.618084353
 30
0.0
 10
69.0091503922
 20
83.7560180871
 30
0.0
  0
LINE
  5
401
100
AcDbEntity
  8
0
100
AcDbLine
 62
7
  6
CONTINUOUS
 10
67.9999970912
 20
85.3814089035
 11
67.9987203863
 21
85.3935053074
  0
SPLINE
  5
402
100
AcDbEntity
  8
0
100
AcDbSpline
 62
7
  6
CONTINUOUS
 70
0
 71
3
 72
9
 73
5
 74
0
 42
0.0000001
 43
0.0000001
 44
0.0000000001
 40
0.0
 40
0.0
 40
0.0
 40
0.0
 40
0.2482837529
 40
1.0
 40
1.0
 40
1.0
 40
1.0
 10
102.4874548482
 20
94.6054406825
 30
0.0
 10
101.8853525853
 20
94.5578043398
 30
0.0
 10
99.4590652824
 20
94.38147267
 30
0.0
 10
97.0290846777
 20
94.2589183532
 30
0.0
 10
95.2018577224
 20
94.1867591007
 30
0.0
  0
SPLINE
  5
403
100
AcDbEntity
  8
0
100
AcDbSpline
 62
7
  6
CONTINUOUS
 70
0
 71
3
 72
9
 73
5
 74
0
 42
0.0000001
 43
0.0000001
 44
0.0000000001
 40
0.0
 40
0.0
 40
0.0
 40
0.0
 40
0.4999999979
 40
1.0
 40
1.0
 40
1.0
 40
1.0
 10
83.3155593272
 20
79.341664504
 30
0.0
 10
82.0592169507
 20
79.084669006
 30
0.0
 10
79.4874548538
 20
78.8355036692
 30
0.0
 10
76.9156927562
 20
79.0846690037
 30
0.0
 10
75.6593503693
 20
79.341664504
 30
0.0
  0
SPLINE
  5
404
100
AcDbEntity
  8
0
100
AcDbSpline
 62
7
  6
CONTINUOUS
 70
0
 71
3
 72
11
 73
7
 74
0
 42
0.0000001
 43
0.0000001
 44
0.0000000001
 40
0.0
 40
0.0
 40
0.0
 40
0.0
 40
0.2986794102
 40
0.5723581168
 40
0.8085114747
 40
1.0
 40
1.0
 40
1.0
 40
1.0
 10
95.2018577224
 20
94.1867591007
 30
0.0
 10
94.802605903
 20
94.1709921962
 30
0.0
 10
94.0383628916
 20
94.1070877787
 30
0.0
 10
92.9721881789
 20
93.9126723537
 30
0.0
 10
92.0730235132
 20
93.6382861012
 30
0.0
 10
91.5537865579
 20
93.3868498666
 30
0.0
 10
91.3406693404
 20
93.2447145217
 30
0.0
  0
SPLINE
  5
405
100
AcDbEntity
  8
0
100
AcDbSpline
 62
7
  6
CONTINUOUS
 70
0
 71
3
 72
9
 73
5
 74
0
 42
0.0000001
 43
0.0000001
 44
0.0000000001
 40
0.0
 40
0.0
 40
0.0
 40
0.0
 40
0.503466391
 40
1.0
 40
1.0
 40
1.0
 40
1.0
 10
87.0213645953
 20
81.0206619203
 30
0.0
 10
86.4715325423
 20
80.6088701934
 30
0.0
 10
85.2886564455
 20
79.9049853126
 30
0.0
 10
83.9793018495
 20
79.4774388129
 30
0.0
 10
83.3155647149
 20
79.3416657476
 30
0.0
  0
SPLINE
  5
406
100
AcDbEntity
  8
0
100
AcDbSpline
 62
7
  6
CONTINUOUS
 70
0
 71
3
 72
10
 73
6
 74
0
 42
0.0000001
 43
0.0000001
 44
0.0000000001
 40
0.0
 40
0.0
 40
0.0
 40
0.0
 40
0.2191585863
 40
0.4684870884
 40
1.0
 40
1.0
 40
1.0
 40
1.0
 10
88.9177611141
 20
82.7391857728
 30
0.0
 10
88.7837237256
 20
82.6086615256
 30
0.0
 10
88.5026174
 20
82.3241220795
 30
0.0
 10
87.8922574264
 20
81.7273816532
 30
0.0
 10
87.384539738
 20
81.2926588023
 30
0.0
 10
87.0213645953
 20
81.0206619203
 30
0.0
  0
LINE
  5
407
100
AcDbEntity
  8
0
100
AcDbLine
 62
7
  6
CONTINUOUS
 10
90.976211752
 20
85.3937244913
 11
90.9747902673
 21
85.3802844817
  0
SPLINE
  5
408
100
AcDbEntity
  8
0
100
AcDbSpline
 62
7
  6
CONTINUOUS
 70
0
 71
3
 72
9
 73
5
 74
0
 42
0.0000001
 43
0.0000001
 44
0.0000000001
 40
0.0
 40
0.0
 40
0.0
 40
0.0
 40
0.2407942771
 40
1.0
 40
1.0
 40
1.0
 40
1.0
 10
90.2188703278
 20
84.0009860662
 30
0.0
 10
90.2079553395
 20
83.9901219749
 30
0.0
 10
90.1624965277
 20
83.9451344909
 30
0.0
 10
90.1165899765
 20
83.9006016058
 30
0.0
 10
90.0816145856
 20
83.8669212698
 30
0.0
  0
SPLINE
  5
409
100
AcDbEntity
  8
0
100
AcDbSpline
 62
7
  6
CONTINUOUS
 70
0
 71
3
 72
9
 73
5
 74
0
 42
0.0000001
 43
0.0000001
 44
0.0000000001
 40
0.0
 40
0.0
 40
0.0
 40
0.0
 40
0.4124461984
 40
1.0
 40
1.0
 40
1.0
 40
1.0
 10
89.9493666002
 20
83.7403990635
 30
0.0
 10
89.8062887216
 20
83.604047454
 30
0.0
 10
89.459909501
 20
83.2728886085
 30
0.0
 10
89.1194818316
 20
82.9356088166
 30
0.0
 10
88.9177611141
 20
82.7391857728
 30
0.0
  0
SPLINE
  5
40A
100
AcDbEntity
  8
0
100
AcDbSpline
 62
7
  6
CONTINUOUS
 70
0
 71
3
 72
11
 73
7
 74
0
 42
0.0000001
 43
0.0000001
 44
0.0000000001
 40
0.0
 40
0.0
 40
0.0
 40
0.0
 40
0.2675254862
 40
0.523827609
 40
0.7672661434
 40
1.0
 40
1.0
 40
1.0
 40
1.0
 10
112.1430133861
 20
114.1390633798
 30
0.0
 10
112.6675397954
 20
113.5595357609
 30
0.0
 10
113.6126353356
 20
112.3462202713
 30
0.0
 10
114.6821877866
 20
110.3630176086
 30
0.0
 10
115.3373849131
 20
108.3121215909
 30
0.0
 10
115.4873898337
 20
106.917126446
 30
0.0
 10
115.4874533945
 20
106.2371279127
 30
0.0
  0
SPLINE
  5
40B
100
AcDbEntity
  8
0
100
AcDbSpline
 62
7
  6
CONTINUOUS
 70
0
 71
3
 72
11
 73
7
 74
0
 42
0.0000001
 43
0.0000001
 44
0.0000000001
 40
0.0
 40
0.0
 40
0.0
 40
0.0
 40
0.2489984615
 40
0.4991547871
 40
0.7497366633
 40
1.0
 40
1.0
 40
1.0
 40
1.0
 10
112.1430133861
 20
114.1390633798
 30
0.0
 10
111.535656789
 20
114.8101066605
 30
0.0
 10
110.1769411341
 20
116.0344336203
 30
0.0
 10
107.8137328987
 20
117.4266858877
 30
0.0
 10
105.2166585384
 20
118.3234614195
 30
0.0
 10
103.3967936423
 20
118.5619064062
 30
0.0
 10
102.4874548482
 20
118.5869634182
 30
0.0
  0
SPLINE
  5
40C
100
AcDbEntity
  8
RUNDUNGEN
100
AcDbSpline
 62
7
  6
CONTINUOUS
 70
0
 71
3
 72
12
 73
8
 74
0
 42
0.0000001
 43
0.0000001
 44
0.0000000001
 40
0.0
 40
0.0
 40
0.0
 40
0.0
 40
0.089802667
 40
0.192811644
 40
0.4336575806
 40
0.7089243512
 40
1.0
 40
1.0
 40
1.0
 40
1.0
 10
91.3624548797
 20
117.8647546014
 30
0.0
 10
91.4853001423
 20
117.9411054684
 30
0.0
 10
91.7619786602
 20
118.0843899232
 30
0.0
 10
92.4140950522
 20
118.3369648723
 30
0.0
 10
93.3866972237
 20
118.5742902679
 30
0.0
 10
94.6786352037
 20
118.735302439
 30
0.0
 10
95.5922891524
 20
118.7585798763
 30
0.0
 10
96.0609879503
 20
118.7481292142
 30
0.0
  0
SPLINE
  5
40D
100
AcDbEntity
  8
RUNDUNGEN
100
AcDbSpline
 62
7
  6
CONTINUOUS
 70
0
 71
3
 72
11
 73
7
 74
0
 42
0.0000001
 43
0.0000001
 44
0.0000000001
 40
0.0
 40
0.0
 40
0.0
 40
0.0
 40
0.2033293126
 40
0.4286840391
 40
0.6915396503
 40
1.0
 40
1.0
 40
1.0
 40
1.0
 10
67.9874548482
 20
117.3653140714
 30
0.0
 10
67.9874548489
 20
117.4093527792
 30
0.0
 10
67.9692395827
 20
117.5028212872
 30
0.0
 10
67.8924460126
 20
117.633761732
 30
0.0
 10
67.770616742
 20
117.7576608425
 30
0.0
 10
67.6691971553
 20
117.8294880647
 30
0.0
 10
67.6124548208
 20
117.8647545984
 30
0.0
  0
SPLINE
  5
40E
100
AcDbEntity
  8
RUNDUNGEN
100
AcDbSpline
 62
7
  6
CONTINUOUS
 70
0
 71
3
 72
11
 73
7
 74
0
 42
0.0000001
 43
0.0000001
 44
0.0000000001
 40
0.0
 40
0.0
 40
0.0
 40
0.0
 40
0.3084603483
 40
0.5713159601
 40
0.7966706872
 40
1.0
 40
1.0
 40
1.0
 40
1.0
 10
91.3624548797
 20
117.8647546014
 30
0.0
 10
91.3057125453
 20
117.8294880675
 30
0.0
 10
91.2042929587
 20
117.7576608441
 30
0.0
 10
91.0824636868
 20
117.6337617336
 30
0.0
 10
91.0056701152
 20
117.5028212881
 30
0.0
 10
90.987454848
 20
117.4093527795
 30
0.0
 10
90.9874548482
 20
117.3653140714
 30
0.0
  0
SPLINE
  5
40F
100
AcDbEntity
  8
0
100
AcDbSpline
 62
7
  6
CONTINUOUS
 70
0
 71
3
 72
11
 73
7
 74
0
 42
0.0000001
 43
0.0000001
 44
0.0000000001
 40
0.0
 40
0.0
 40
0.0
 40
0.0
 40
0.2327326391
 40
0.4761697209
 40
0.7324713101
 40
1.0
 40
1.0
 40
1.0
 40
1.0
 10
43.4874564722
 20
106.2372483922
 30
0.0
 10
43.4875285687
 20
106.9172340736
 30
0.0
 10
43.637544237
 20
108.3122003107
 30
0.0
 10
44.2927404898
 20
110.3630552541
 30
0.0
 10
45.362283287
 20
112.3462316988
 30
0.0
 10
46.3073707885
 20
113.5595367414
 30
0.0
 10
46.8318963103
 20
114.1390633798
 30
0.0
  0
SPLINE
  5
410
100
AcDbEntity
  8
0
100
AcDbSpline
 62
7
  6
CONTINUOUS
 70
0
 71
3
 72
11
 73
7
 74
0
 42
0.0000001
 43
0.0000001
 44
0.0000000001
 40
0.0
 40
0.0
 40
0.0
 40
0.0
 40
0.2489984615
 40
0.4991547871
 40
0.7497366633
 40
1.0
 40
1.0
 40
1.0
 40
1.0
 10
46.8318963103
 20
114.1390633798
 30
0.0
 10
47.4392529074
 20
114.8101066605
 30
0.0
 10
48.7979685624
 20
116.0344336203
 30
0.0
 10
51.1611767977
 20
117.4266858877
 30
0.0
 10
53.758251158
 20
118.3234614195
 30
0.0
 10
55.5781160541
 20
118.5619064062
 30
0.0
 10
56.4874548482
 20
118.5869634182
 30
0.0
  0
SPLINE
  5
411
100
AcDbEntity
  8
RUNDUNGEN
100
AcDbSpline
 62
7
  6
CONTINUOUS
 70
0
 71
3
 72
12
 73
8
 74
0
 42
0.0000001
 43
0.0000001
 44
0.0000000001
 40
0.0
 40
0.0
 40
0.0
 40
0.0
 40
0.2910756726
 40
0.5663424318
 40
0.8071883668
 40
0.9101973367
 40
1.0
 40
1.0
 40
1.0
 40
1.0
 10
62.9139217461
 20
118.7481292142
 30
0.0
 10
63.3826205828
 20
118.7585798772
 30
0.0
 10
64.2962745527
 20
118.7353024365
 30
0.0
 10
65.5882125501
 20
118.5742902533
 30
0.0
 10
66.5608146891
 20
118.3369648573
 30
0.0
 10
67.2129310619
 20
118.0843899118
 30
0.0
 10
67.4896095632
 20
117.9411054624
 30
0.0
 10
67.6124548208
 20
117.8647545984
 30
0.0
  0
ENDSEC
  0
SECTION
  2
OBJECTS
  0
DICTIONARY
  5
C
100
AcDbDictionary
280
0
281
1
  3
ACAD_GROUP
350
D
  3
ACAD_MLINESTYLE
350
17
  3
ACAD_LAYOUT
350
1A
  3
ACAD_PLOTSETTINGS
350
19
  3
ACAD_PLOTSTYLENAME
350
E
  0
DICTIONARY
  5
D
102
{ACAD_REACTORS
330
C
102
}
100
AcDbDictionary
280
0
281
1
  0
ACDBDICTIONARYWDFLT
  5
E
102
{ACAD_REACTORS
330
C
102
}
100
AcDbDictionary
281
1
  3
Normal
350
F
100
AcDbDictionaryWithDefault
340
F
  0
DICTIONARY
  5
17
102
{ACAD_REACTORS
330
C
102
}
100
AcDbDictionary
280
0
281
1
  3
Standard
350
18
  0
DICTIONARY
  5
19
102
{ACAD_REACTORS
330
C
102
}
100
AcDbDictionary
281
1
  0
DICTIONARY
  5
1A
102
{ACAD_REACTORS
330
C
102
}
100
AcDbDictionary
281
1
  3
Model
350
412
  3
Layout1
350
413
  0
ACDBPLACEHOLDER
  5
F
102
{ACAD_REACTORS
330
E
102
}
  0
MLINESTYLE
  5
18
102
{ACAD_REACTORS
330
17
102
}
100
AcDbMlineStyle
  2
STANDARD
 70
0
  3

 62
256
 51
90.0
 52
90.0
 71
2
 49
0.5
 62
256
  6
BYLAYER
 49
-0.5
 62
256
  6
BYLAYER
  0
LAYOUT
  5
412
102
{ACAD_REACTORS
330
1A
102
}
100
AcDbPlotSettings
  1

  2
none_device
  4
ISO_A3_(420.00_x_297.00_MM)
  6

 40
0.0
 41
0.0
 42
0.0
 43
0.0
 44
420.0
 45
297.0
 46
0.0
 47
0.0
 48
0.0
 49
0.0
140
0.0
141
0.0
142
1.0
143
1.0
 70
1024
 72
1
 73
0
 74
0
  7

 75
0
147
1.0
148
0.0
149
0.0
100
AcDbLayout
  1
Model
 70
0
 71
0
 10
0.0
 20
0.0
 11
420.0
 21
297.0
 12
0.0
 22
0.0
 32
0.0
 14
0.0
 24
0.0
 34
0.0
 15
0.0
 25
0.0
 35
0.0
146
0.0
 13
0.0
 23
0.0
 33
0.0
 16
1.0
 26
0.0
 36
0.0
 17
0.0
 27
1.0
 37
0.0
 76
0
330
209
345
0
346
0
  0
LAYOUT
  5
413
102
{ACAD_REACTORS
330
1A
102
}
100
AcDbPlotSettings
  1

  2
none_device
  4
ISO_A3_(420.00_x_297.00_MM)
  6

 40
0.0
 41
0.0
 42
0.0
 43
0.0
 44
420.0
 45
297.0
 46
0.0
 47
0.0
 48
0.0
 49
0.0
140
0.0
141
0.0
142
1.0
143
1.0
 70
0
 72
1
 73
0
 74
0
  7

 75
0
147
1.0
148
0.0
149
0.0
100
AcDbLayout
  1
Layout1
 70
0
 71
1
 10
0.0
 20
0.0
 11
420.0
 21
297.0
 12
0.0
 22
0.0
 32
0.0
 14
0.0
 24
0.0
 34
0.0
 15
0.0
 25
0.0
 35
0.0
146
0.0
 13
0.0
 23
0.0
 33
0.0
 16
1.0
 26
0.0
 36
0.0
 17
0.0
 27
1.0
 37
0.0
 76
0
330
20A
345
0
346
0
  0
ENDSEC
  0
EOF
