999
DXF file: 2-vv28.dxf
999
Pro/ENGINEER 2010140 by Parametric Technology Corporation
  0
SECTION
  2
HEADER
  9
$ACADVER
  1
AC1021
  9
$DWGCODEPAGE
  3
ANSI_1252
  9
$EXTMAX
 10
420.0
 20
297.0
 30
0.0
  9
$EXTMIN
 10
0.0
 20
0.0
 30
0.0
  9
$LIMMIN
 10
0.0
 20
0.0
  9
$LIMMAX
 10
420.0
 20
297.0
  9
$VIEWCTR
 10
210.0
 20
148.5
  9
$VIEWSIZE
 40
297.0
  9
$CLAYER
  8
0
  9
$LTSCALE
 40
23.1
  9
$CELTYPE
  6
BYLAYER
  9
$DIMSCALE
 40
1.0
  9
$DIMASZ
 40
3.5
  9
$DIMEXO
 40
2.625
  9
$DIMDLI
 40
15.96
  9
$DIMEXE
 40
7.56
  9
$DIMCEN
 40
3.78
  9
$DIMLFAC
 40
1.0
  9
$DIMBLK
  1
_FILLED
  9
$DIMTXT
 40
3.5
  9
$DIMTOL
 70
1
  9
$DIMLIM
 70
0
  9
$DIMTFAC
 40
1.0
  9
$DIMTP
 40
0.005
  9
$DIMTM
 40
0.005
  9
$PDMODE
 70
3
  9
$PDSIZE
 40
0.3125
  9
$HANDSEED
  5
2D4
  9
$TILEMODE
 70
1
  9
$MEASUREMENT
 70
1
  9
$INSUNITS
 70
4
  0
ENDSEC
  0
SECTION
  2
CLASSES
  0
CLASS
  1
ACDBDICTIONARYWDFLT
  2
AcDbDictionaryWithDefault
  3
AutoCAD 2000
 90
0
 91
1
280
0
281
0
  0
CLASS
  1
ACDBPLACEHOLDER
  2
AcDbPlaceHolder
  3
AutoCAD 2000
 90
0
 91
1
280
0
281
0
  0
CLASS
  1
LAYOUT
  2
AcDbLayout
  3
AutoCAD 2000
 90
0
 91
0
280
0
281
0
  0
ENDSEC
  0
SECTION
  2
TABLES
  0
TABLE
  2
VPORT
  5
8
100
AcDbSymbolTable
 70
2
  0
VPORT
  5
1F4
100
AcDbSymbolTableRecord
100
AcDbViewportTableRecord
  2
*ACTIVE
 70
0
 10
0.0
 20
0.0
 11
1.0
 21
1.0
 12
210.0
 22
148.5
 13
0.0
 23
0.0
 14
1.0
 24
1.0
 15
0.0
 25
0.0
 16
0.0
 26
0.0
 36
1.0
 17
0.0
 27
0.0
 37
0.0
 40
297.0
 41
1.4141414141
 42
50.0
 43
0.0
 44
0.0
 50
0.0
 51
0.0
 71
0
 72
100
 73
1
 74
1
 75
0
 76
0
 77
0
 78
0
  0
ENDTAB
  0
TABLE
  2
LTYPE
  5
5
100
AcDbSymbolTable
 70
6
  0
LTYPE
  5
14
100
AcDbSymbolTableRecord
100
AcDbLinetypeTableRecord
  2
BYBLOCK
 70
0
  3

 72
65
 73
0
 40
0.0
  0
LTYPE
  5
15
100
AcDbSymbolTableRecord
100
AcDbLinetypeTableRecord
  2
BYLAYER
 70
0
  3

 72
65
 73
0
 40
0.0
  0
LTYPE
  5
16
100
AcDbSymbolTableRecord
100
AcDbLinetypeTableRecord
  2
CONTINUOUS
 70
64
  3
Solid line
 72
65
 73
0
 40
0.0
  0
LTYPE
  5
1F5
100
AcDbSymbolTableRecord
100
AcDbLinetypeTableRecord
  2
CENTER
 70
64
  3
____ _ ____ _ ____ _ ____ _ ____ _ ____ _ ____
 72
65
 73
4
 40
0.6
 49
0.375
 74
0
 49
-0.075
 74
0
 49
0.075
 74
0
 49
-0.075
 74
0
  0
LTYPE
  5
1F6
100
AcDbSymbolTableRecord
100
AcDbLinetypeTableRecord
  2
HIDDEN
 70
64
  3
- - - - - - - - - - - - - - - - - - - -
 72
65
 73
2
 40
0.2
 49
0.1
 74
0
 49
-0.1
 74
0
  0
LTYPE
  5
1F7
100
AcDbSymbolTableRecord
100
AcDbLinetypeTableRecord
  2
PHANTOM
 70
64
  3
_____ _ _ _____ _ _ _____ _ _ _____
 72
65
 73
6
 40
0.8
 49
0.45
 74
0
 49
-0.05
 74
0
 49
0.1
 74
0
 49
-0.05
 74
0
 49
0.1
 74
0
 49
-0.05
 74
0
  0
LTYPE
  5
1F8
100
AcDbSymbolTableRecord
100
AcDbLinetypeTableRecord
  2
DOT
 70
64
  3
. . . . . . . . . . . . . . . . . . . .
 72
65
 73
2
 40
0.2
 49
0.1
 74
0
 49
-0.1
 74
0
  0
LTYPE
  5
1F9
100
AcDbSymbolTableRecord
100
AcDbLinetypeTableRecord
  2
DASHED
 70
64
  3
- - - - - - - - - - - - - - - - - - - -
 72
65
 73
2
 40
0.2
 49
0.1
 74
0
 49
-0.1
 74
0
  0
ENDTAB
  0
TABLE
  2
LAYER
  5
2
100
AcDbSymbolTable
 70
36
  0
LAYER
  5
10
100
AcDbSymbolTableRecord
100
AcDbLayerTableRecord
  2
0
 70
0
 62
7
  6
CONTINUOUS
370
-3
390
F
  0
LAYER
  5
1FA
100
AcDbSymbolTableRecord
100
AcDbLayerTableRecord
  2
DEFAULT_1
 70
0
 62
7
  6
CENTER
370
-3
390
F
  0
LAYER
  5
1FB
100
AcDbSymbolTableRecord
100
AcDbLayerTableRecord
  2
DEFAULT_2
 70
0
 62
8
  6
HIDDEN
370
-3
390
F
  0
LAYER
  5
1FC
100
AcDbSymbolTableRecord
100
AcDbLayerTableRecord
  2
DEFAULT_3
 70
0
 62
7
  6
PHANTOM
370
-3
390
F
  0
LAYER
  5
1FD
100
AcDbSymbolTableRecord
100
AcDbLayerTableRecord
  2
AUSFORMSCHRAEGEN
 70
0
 62
7
  6
CONTINUOUS
370
-3
390
F
  0
LAYER
  5
1FE
100
AcDbSymbolTableRecord
100
AcDbLayerTableRecord
  2
BEZUGSACHSEN
 70
0
 62
7
  6
CONTINUOUS
370
-3
390
F
  0
LAYER
  5
1FF
100
AcDbSymbolTableRecord
100
AcDbLayerTableRecord
  2
BEZUGSEBENEN
 70
0
 62
7
  6
CONTINUOUS
370
-3
390
F
  0
LAYER
  5
200
100
AcDbSymbolTableRecord
100
AcDbLayerTableRecord
  2
BG_STARTBEZUEGE
 70
0
 62
7
  6
CONTINUOUS
370
-3
390
F
  0
LAYER
  5
201
100
AcDbSymbolTableRecord
100
AcDbLayerTableRecord
  2
FASEN
 70
0
 62
7
  6
CONTINUOUS
370
-3
390
F
  0
LAYER
  5
202
100
AcDbSymbolTableRecord
100
AcDbLayerTableRecord
  2
HILFEN
 70
0
 62
7
  6
CONTINUOUS
370
-3
390
F
  0
LAYER
  5
203
100
AcDbSymbolTableRecord
100
AcDbLayerTableRecord
  2
KONSTRUKTIONSELEMENTE
 70
0
 62
7
  6
CONTINUOUS
370
-3
390
F
  0
LAYER
  5
204
100
AcDbSymbolTableRecord
100
AcDbLayerTableRecord
  2
KURVEN
 70
0
 62
7
  6
CONTINUOUS
370
-3
390
F
  0
LAYER
  5
205
100
AcDbSymbolTableRecord
100
AcDbLayerTableRecord
  2
PLATZIERUNG
 70
0
 62
7
  6
CONTINUOUS
370
-3
390
F
  0
LAYER
  5
206
100
AcDbSymbolTableRecord
100
AcDbLayerTableRecord
  2
RUNDUNGEN
 70
0
 62
7
  6
CONTINUOUS
370
-3
390
F
  0
LAYER
  5
207
100
AcDbSymbolTableRecord
100
AcDbLayerTableRecord
  2
TEIL_STARTBEZUEGE
 70
0
 62
7
  6
CONTINUOUS
370
-3
390
F
  0
LAYER
  5
208
100
AcDbSymbolTableRecord
100
AcDbLayerTableRecord
  2
T_STARTBEZUEGE
 70
0
 62
7
  6
CONTINUOUS
370
-3
390
F
  0
LAYER
  5
209
100
AcDbSymbolTableRecord
100
AcDbLayerTableRecord
  2
XSEC_DATUMS
 70
0
 62
7
  6
CONTINUOUS
370
-3
390
F
  0
ENDTAB
  0
TABLE
  2
STYLE
  5
3
100
AcDbSymbolTable
 70
1
  0
STYLE
  5
11
100
AcDbSymbolTableRecord
100
AcDbTextStyleTableRecord
  2
STANDARD
 70
0
 40
0.0
 41
0.7
 50
0.0
 71
0
 42
0.2
  3
txt
  4

  0
STYLE
  5
20A
100
AcDbSymbolTableRecord
100
AcDbTextStyleTableRecord
  2
TEXTSTYLE_1
 70
0
 40
0.0
 41
0.8
 50
0.0
 71
0
 42
0.2
  3
gdt
  4

  0
ENDTAB
  0
TABLE
  2
VIEW
  5
6
100
AcDbSymbolTable
 70
0
  0
ENDTAB
  0
TABLE
  2
UCS
  5
7
100
AcDbSymbolTable
 70
0
  0
ENDTAB
  0
TABLE
  2
APPID
  5
9
100
AcDbSymbolTable
 70
1
  0
APPID
  5
20B
100
AcDbSymbolTableRecord
100
AcDbRegAppTableRecord
  2
ACAD
 70
0
  0
ENDTAB
  0
TABLE
  2
BLOCK_RECORD
  5
1
100
AcDbSymbolTable
 70
0
  0
BLOCK_RECORD
  5
20C
100
AcDbSymbolTableRecord
100
AcDbBlockTableRecord
  2
*Model_Space
  0
BLOCK_RECORD
  5
20D
100
AcDbSymbolTableRecord
100
AcDbBlockTableRecord
  2
*Paper_Space
  0
ENDTAB
  0
TABLE
  2
DIMSTYLE
  5
A
100
AcDbSymbolTable
 70
1
100
AcDbDimStyleTable
 71
0
  0
DIMSTYLE
105
20E
100
AcDbSymbolTableRecord
100
AcDbDimStyleTableRecord
  2
STANDARD
 70
0
  3

  4

 40
1.0
 41
3.5
 42
0.0625
 43
0.38
 44
0.18
 45
0.0
 46
0.0
 47
0.005
 48
0.005
140
3.5
141
0.09
142
0.0
143
25.4
144
1.0
145
0.0
146
1.0
147
0.09
 71
1.0
 72
0.0
 73
0
 74
0
 75
0
 76
0
 77
1
 78
8
170
0
171
2
172
0
173
0
174
0
175
0
176
0
177
0
178
5
270
2
271
3
272
3
273
2
274
2
275
0
280
0
281
0
282
0
283
1
284
8
285
0
286
0
287
3
288
0
340
11
  0
ENDTAB
  0
ENDSEC
  0
SECTION
  2
BLOCKS
  0
BLOCK
  5
20
100
AcDbEntity
  8
0
100
AcDbBlockBegin
  2
*Model_Space
 70
0
 10
0.0
 20
0.0
 30
0.0
  3
*Model_Space
  1

  0
ENDBLK
  5
21
100
AcDbEntity
  8
0
100
AcDbBlockEnd
  0
BLOCK
  5
1C
100
AcDbEntity
  8
0
100
AcDbBlockBegin
  2
*Paper_Space
 70
0
 10
0.0
 20
0.0
 30
0.0
  3
*Paper_Space
  1

  0
ENDBLK
  5
1D
100
AcDbEntity
  8
0
100
AcDbBlockEnd
  0
ENDSEC
  0
SECTION
  2
ENTITIES
  0
MTEXT
  5
20F
100
AcDbEntity
  8
0
100
AcDbMText
 62
5
  6
CONTINUOUS
  7
STANDARD
 71
1
 72
1
 10
48.9795815396
 20
227.6702181114
 30
0.0
 11
0.0
 21
1.0
 31
0.0
 44
0.9
  1
RUD-MAXI
 40
10.0
 41
65.9523809524
  0
MTEXT
  5
210
100
AcDbEntity
  8
0
100
AcDbMText
 62
5
  6
CONTINUOUS
  7
STANDARD
 71
1
 72
1
 10
135.8338192936
 20
224.7260066621
 30
0.0
 11
0.0
 21
1.0
 31
0.0
 44
0.9
  1
VV-28/VIP
 40
10.0
 41
71.6666666667
  0
MTEXT
  5
211
100
AcDbEntity
  8
0
100
AcDbMText
 62
5
  6
CONTINUOUS
  7
STANDARD
 71
1
 72
1
 10
266.8512287869
 20
211.4770551403
 30
0.0
 11
0.0
 21
1.0
 31
0.0
 44
0.9
  1
RUD-MAXI\PVV-28/VIP
 40
10.0
 41
69.7619047619
  0
LINE
  5
212
100
AcDbEntity
  8
0
100
AcDbLine
 62
7
  6
CONTINUOUS
 10
0.0
 20
0.0
 11
0.0
 21
297.0
  0
LINE
  5
213
100
AcDbEntity
  8
0
100
AcDbLine
 62
7
  6
CONTINUOUS
 10
0.0
 20
0.0
 11
420.0
 21
0.0
  0
LINE
  5
214
100
AcDbEntity
  8
0
100
AcDbLine
 62
7
  6
CONTINUOUS
 10
0.0
 20
297.0
 11
420.0
 21
297.0
  0
LINE
  5
215
100
AcDbEntity
  8
0
100
AcDbLine
 62
7
  6
CONTINUOUS
 10
420.0
 20
0.0
 11
420.0
 21
297.0
  0
LWPOLYLINE
  5
216
100
AcDbEntity
  8
RUNDUNGEN
100
AcDbPolyline
 62
7
  6
CONTINUOUS
 90
14
 70
0
 10
142.4411630901
 20
63.3054028959
 10
142.5756750699
 20
63.3072125704
 10
143.0120309529
 20
63.3380988077
 10
143.4440170716
 20
63.4070068385
 10
143.8683268316
 20
63.5134091873
 10
144.2817123942
 20
63.6564913811
 10
144.6810095437
 20
63.8351581842
 10
145.0631619102
 20
64.0480419844
 10
145.4252443572
 20
64.2935132586
 10
145.7644853839
 20
64.5696930549
 10
146.0782883304
 20
64.8744673735
 10
146.3642512352
 20
65.2055033271
 10
146.6201852401
 20
65.5602670138
 10
146.8441313589
 20
65.936042938
  0
LINE
  5
217
100
AcDbEntity
  8
0
100
AcDbLine
 62
7
  6
CONTINUOUS
 10
48.540075656
 20
63.3054
 11
61.243132244
 21
63.3054
  0
LINE
  5
218
100
AcDbEntity
  8
KONSTRUKTIONSELEMENTE
100
AcDbLine
 62
7
  6
CONTINUOUS
 10
129.7399408987
 20
63.3054
 11
142.4429974867
 21
63.3054
  0
LINE
  5
219
100
AcDbEntity
  8
0
100
AcDbLine
 62
7
  6
CONTINUOUS
 10
33.0838365713
 20
342.1046702892
 11
49.4235825335
 21
351.5384270189
  0
LWPOLYLINE
  5
21A
100
AcDbEntity
  8
0
100
AcDbPolyline
 62
7
  6
CONTINUOUS
 90
14
 70
0
 10
44.1389442964
 20
65.9360382689
 10
44.3634729639
 20
65.5593765597
 10
44.6201401018
 20
65.2038358102
 10
44.9069715872
 20
64.8721506579
 10
45.2217612685
 20
64.5668722834
 10
45.5620879484
 20
64.2903487615
 10
45.9253340272
 20
64.0447069844
 10
46.308705617
 20
63.8318363244
 10
46.7092540217
 20
63.6533741033
 10
47.1238984295
 20
63.5106929897
 10
47.5494496012
 20
63.4048904435
 10
47.9826344038
 20
63.3367802729
 10
48.420120992
 20
63.3068863733
 10
48.5419100526
 20
63.3054028959
  0
LINE
  5
21B
100
AcDbEntity
  8
0
100
AcDbLine
 62
7
  6
CONTINUOUS
 10
87.8275592151
 20
121.1532885415
 11
103.1555139276
 21
121.1532885415
  0
LINE
  5
21C
100
AcDbEntity
  8
0
100
AcDbLine
 62
7
  6
CONTINUOUS
 10
30.5838365713
 20
337.7744969044
 11
30.5838365713
 21
231.756551328
  0
LINE
  5
21D
100
AcDbEntity
  8
DEFAULT_2
100
AcDbLine
 62
8
  6
HIDDEN
 10
45.4915365713
 20
145.4540448072
 11
45.4915365713
 21
199.1297614665
  0
LINE
  5
21E
100
AcDbEntity
  8
KONSTRUKTIONSELEMENTE
100
AcDbLine
 62
7
  6
CONTINUOUS
 10
77.9074809872
 20
167.3350743348
 11
97.946726798
 21
167.3350743348
  0
LINE
  5
21F
100
AcDbEntity
  8
0
100
AcDbLine
 62
7
  6
CONTINUOUS
 10
76.5206732688
 20
175.303
 11
76.1299454427
 21
175.3030000002
  0
LINE
  5
220
100
AcDbEntity
  8
0
100
AcDbLine
 62
7
  6
CONTINUOUS
 10
114.4623998739
 20
175.303
 11
114.8531277
 21
175.3030000002
  0
LINE
  5
221
100
AcDbEntity
  8
BEZUGSACHSEN
100
AcDbLine
 62
7
  6
CENTER
 10
196.9796365713
 20
180.8350743348
 11
20.9796365713
 21
180.8350743348
  0
LINE
  5
222
100
AcDbEntity
  8
KONSTRUKTIONSELEMENTE
100
AcDbLine
 62
7
  6
CONTINUOUS
 10
84.6387490834
 20
194.3350743348
 11
106.3443579044
 21
194.3350743348
  0
LINE
  5
223
100
AcDbEntity
  8
KONSTRUKTIONSELEMENTE
100
AcDbLine
 62
7
  6
CONTINUOUS
 10
166.9699033207
 20
194.3350743348
 11
169.4915365713
 21
194.3350743348
  0
LINE
  5
224
100
AcDbEntity
  8
0
100
AcDbLine
 62
7
  6
CONTINUOUS
 10
76.5206732688
 20
175.303
 11
76.3715595346
 21
186.1191012303
  0
LINE
  5
225
100
AcDbEntity
  8
0
100
AcDbLine
 62
7
  6
CONTINUOUS
 10
76.8455016108
 20
201.5941841632
 11
76.8480072781
 21
201.4124332959
  0
LINE
  5
226
100
AcDbEntity
  8
0
100
AcDbLine
 62
7
  6
CONTINUOUS
 10
76.5206732688
 20
175.303
 11
76.8102786648
 21
115.2936403148
  0
LINE
  5
227
100
AcDbEntity
  8
0
100
AcDbLine
 62
7
  6
CONTINUOUS
 10
76.9915365713
 20
102.272854473
 11
76.9915365713
 21
101.9875498087
  0
LINE
  5
228
100
AcDbEntity
  8
0
100
AcDbLine
 62
7
  6
CONTINUOUS
 10
76.9915365713
 20
117.2323298306
 11
76.9915365713
 21
213.89343034
  0
LINE
  5
229
100
AcDbEntity
  8
0
100
AcDbLine
 62
7
  6
CONTINUOUS
 10
77.0915365713
 20
78.7649670164
 11
77.0915365713
 21
100.7756346014
  0
LINE
  5
22A
100
AcDbEntity
  8
0
100
AcDbLine
 62
7
  6
CONTINUOUS
 10
77.0915368034
 20
265.2083
 11
77.0915365713
 21
292.2083
  0
LINE
  5
22B
100
AcDbEntity
  8
0
100
AcDbLine
 62
7
  6
CONTINUOUS
 10
77.0915365713
 20
332.2083
 11
77.0915365713
 21
344.1288561977
  0
LWPOLYLINE
  5
22C
100
AcDbEntity
  8
RUNDUNGEN
100
AcDbPolyline
 62
7
  6
CONTINUOUS
 90
17
 70
0
 10
113.9466196162
 20
77.7955414624
 10
113.9810307684
 20
77.6448162214
 10
114.0230575815
 20
77.4823428978
 10
114.0766888072
 20
77.299986268
 10
114.1442737144
 20
77.0987175665
 10
114.2294884726
 20
76.8771154375
 10
114.3336027019
 20
76.6409559974
 10
114.4580928662
 20
76.3943923232
 10
114.6036271904
 20
76.1422315084
 10
114.769541326
 20
75.8901403808
 10
114.9570744647
 20
75.6398468121
 10
115.166317571
 20
75.3944934061
 10
115.3979640531
 20
75.1562083095
 10
115.6522688063
 20
74.9275379286
 10
115.9291131468
 20
74.7112209679
 10
116.2279486451
 20
74.5101259869
 10
116.2712629427
 20
74.4834906693
  0
LINE
  5
22D
100
AcDbEntity
  8
0
100
AcDbLine
 62
7
  6
CONTINUOUS
 10
113.8915363393
 20
265.2083
 11
113.8915365713
 21
292.2083
  0
LINE
  5
22E
100
AcDbEntity
  8
0
100
AcDbLine
 62
7
  6
CONTINUOUS
 10
113.8915365713
 20
78.7649670164
 11
113.8915365713
 21
100.7756346014
  0
LINE
  5
22F
100
AcDbEntity
  8
0
100
AcDbLine
 62
7
  6
CONTINUOUS
 10
113.8915365713
 20
332.2083
 11
113.8915365713
 21
344.1288561977
  0
LINE
  5
230
100
AcDbEntity
  8
0
100
AcDbLine
 62
7
  6
CONTINUOUS
 10
113.9915365713
 20
213.89343034
 11
113.9915365713
 21
117.2323298306
  0
LINE
  5
231
100
AcDbEntity
  8
0
100
AcDbLine
 62
7
  6
CONTINUOUS
 10
113.9915365713
 20
102.272854473
 11
113.9915365713
 21
101.9875498087
  0
LINE
  5
232
100
AcDbEntity
  8
0
100
AcDbLine
 62
7
  6
CONTINUOUS
 10
114.4623998739
 20
175.303
 11
114.1727944754
 21
115.2936397913
  0
LINE
  5
233
100
AcDbEntity
  8
0
100
AcDbLine
 62
7
  6
CONTINUOUS
 10
114.1375715319
 20
201.5941841632
 11
114.1350658646
 21
201.4124332959
  0
LINE
  5
234
100
AcDbEntity
  8
0
100
AcDbLine
 62
7
  6
CONTINUOUS
 10
114.4623998739
 20
175.303
 11
114.6115136081
 21
186.1191012303
  0
LINE
  5
235
100
AcDbEntity
  8
FASEN
100
AcDbLine
 62
7
  6
CONTINUOUS
 10
169.4915365713
 20
194.3350743348
 11
171.4915365713
 21
192.3350743348
  0
LINE
  5
236
100
AcDbEntity
  8
0
100
AcDbLine
 62
7
  6
CONTINUOUS
 10
108.8907747002
 20
260.2083
 11
82.0922984425
 21
260.2083
  0
LINE
  5
237
100
AcDbEntity
  8
DEFAULT_2
100
AcDbLine
 62
8
  6
HIDDEN
 10
145.4915365713
 20
199.1297615432
 11
145.4915365713
 21
145.4540448072
  0
LINE
  5
238
100
AcDbEntity
  8
RUNDUNGEN
100
AcDbLine
 62
7
  6
CONTINUOUS
 10
160.3992365713
 20
337.7744969044
 11
160.3992365713
 21
231.756551328
  0
LINE
  5
239
100
AcDbEntity
  8
FASEN
100
AcDbLine
 62
7
  6
CONTINUOUS
 10
169.4915365713
 20
175.4440313552
 11
169.4915365713
 21
194.3350743348
  0
LINE
  5
23A
100
AcDbEntity
  8
FASEN
100
AcDbLine
 62
7
  6
CONTINUOUS
 10
171.4915365713
 20
169.3352336728
 11
171.4915365713
 21
192.3349149969
  0
LINE
  5
23B
100
AcDbEntity
  8
0
100
AcDbLine
 62
7
  6
CONTINUOUS
 10
77.037617386
 20
292.4583
 11
113.9454557567
 21
292.4583
  0
LINE
  5
23C
100
AcDbEntity
  8
FASEN
100
AcDbLine
 62
7
  6
CONTINUOUS
 10
169.9959284475
 20
167.839466211
 11
171.4915365713
 21
169.3350743348
  0
LINE
  5
23D
100
AcDbEntity
  8
0
100
AcDbLine
 62
7
  6
CONTINUOUS
 10
76.7723779819
 20
304.1273481052
 11
114.2106951608
 21
304.1273481052
  0
LINE
  5
23E
100
AcDbEntity
  8
BEZUGSACHSEN
100
AcDbLine
 62
7
  6
CENTER
 10
20.7415365713
 20
312.2083
 11
175.1415365713
 21
312.2083
  0
LINE
  5
23F
100
AcDbEntity
  8
0
100
AcDbLine
 62
7
  6
CONTINUOUS
 10
76.7723779821
 20
320.2892518948
 11
114.2106951606
 21
320.2892518948
  0
LWPOLYLINE
  5
240
100
AcDbEntity
  8
0
100
AcDbPolyline
 62
7
  6
CONTINUOUS
 90
18
 70
0
 10
74.7118132482
 20
74.4834925195
 10
74.7561729757
 20
74.5107782562
 10
75.0614211411
 20
74.7166514978
 10
75.3353361982
 20
74.9313464436
 10
75.5811051542
 20
75.1523576534
 10
75.8011491147
 20
75.3774186123
 10
75.9979650484
 20
75.6050746163
 10
76.1739782847
 20
75.8345894494
 10
76.3309420869
 20
76.0650764462
 10
76.4711072567
 20
76.2970973811
 10
76.5945164072
 20
76.5279908359
 10
76.7025138533
 20
76.7572448974
 10
76.7945819665
 20
76.9799537228
 10
76.8712865609
 20
77.1921105718
 10
76.9340340703
 20
77.3910170653
 10
76.9841024324
 20
77.5729522897
 10
77.0239111989
 20
77.7384098489
 10
77.0364652766
 20
77.7955963109
  0
LINE
  5
241
100
AcDbEntity
  8
0
100
AcDbLine
 62
7
  6
CONTINUOUS
 10
77.0376173859
 20
331.9583
 11
113.9454557568
 21
331.9583
  0
LINE
  5
242
100
AcDbEntity
  8
0
100
AcDbLine
 62
7
  6
CONTINUOUS
 10
51.9235825335
 20
352.2083
 11
63.8194689447
 21
352.2083
  0
LINE
  5
243
100
AcDbEntity
  8
KONSTRUKTIONSELEMENTE
100
AcDbLine
 62
7
  6
CONTINUOUS
 10
127.163604198
 20
352.2083
 11
139.0594906092
 21
352.2083
  0
LINE
  5
244
100
AcDbEntity
  8
KONSTRUKTIONSELEMENTE
100
AcDbLine
 62
7
  6
CONTINUOUS
 10
141.5594906092
 20
351.5384270189
 11
157.8992365713
 21
342.1046702892
  0
LINE
  5
245
100
AcDbEntity
  8
0
100
AcDbLine
 62
7
  6
CONTINUOUS
 10
240.4936534179
 20
333.7075519443
 11
254.9691105002
 21
344.443686213
  0
LINE
  5
246
100
AcDbEntity
  8
RUNDUNGEN
100
AcDbLine
 62
7
  6
CONTINUOUS
 10
253.4346097575
 20
100.3932319641
 11
243.246595022
 21
116.3788706428
  0
LINE
  5
247
100
AcDbEntity
  8
0
100
AcDbLine
 62
7
  6
CONTINUOUS
 10
264.6904969869
 20
82.7320338868
 11
242.3899518143
 21
117.7229979483
  0
LINE
  5
248
100
AcDbEntity
  8
0
100
AcDbLine
 62
7
  6
CONTINUOUS
 10
238.4722221809
 20
329.6915678651
 11
238.4722221809
 21
131.159436324
  0
LINE
  5
249
100
AcDbEntity
  8
0
100
AcDbLine
 62
7
  6
CONTINUOUS
 10
261.9722221809
 20
304.1273481052
 11
261.9722221809
 21
320.2892518948
  0
LINE
  5
24A
100
AcDbEntity
  8
BEZUGSACHSEN
100
AcDbLine
 62
7
  6
CENTER
 10
278.6458677219
 20
180.8350743348
 11
253.6458677219
 21
180.8350743348
  0
LINE
  5
24B
100
AcDbEntity
  8
BEZUGSACHSEN
100
AcDbLine
 62
7
  6
CENTER
 10
278.6458677219
 20
180.8350743348
 11
303.6458677219
 21
180.8350743348
  0
LINE
  5
24C
100
AcDbEntity
  8
BEZUGSACHSEN
100
AcDbLine
 62
7
  6
CENTER
 10
278.4722221809
 20
312.2083
 11
278.4722221809
 21
289.2083
  0
LINE
  5
24D
100
AcDbEntity
  8
BEZUGSACHSEN
100
AcDbLine
 62
7
  6
CENTER
 10
278.4722221809
 20
312.2083
 11
278.4722221809
 21
335.2083
  0
LINE
  5
24E
100
AcDbEntity
  8
BEZUGSACHSEN
100
AcDbLine
 62
7
  6
CENTER
 10
278.6458677219
 20
180.8350743348
 11
278.6458677219
 21
155.8350743348
  0
LINE
  5
24F
100
AcDbEntity
  8
BEZUGSACHSEN
100
AcDbLine
 62
7
  6
CENTER
 10
278.6458677219
 20
180.8350743348
 11
278.6458677219
 21
205.8350743348
  0
LINE
  5
250
100
AcDbEntity
  8
0
100
AcDbLine
 62
7
  6
CONTINUOUS
 10
318.1706852848
 20
300.0695266327
 11
312.2260267657
 21
283.7367115852
  0
LINE
  5
251
100
AcDbEntity
  8
0
100
AcDbLine
 62
7
  6
CONTINUOUS
 10
360.6283416618
 20
187.532254886
 11
358.1701303825
 21
188.1972093479
  0
LWPOLYLINE
  5
252
100
AcDbEntity
  8
0
100
AcDbPolyline
 62
7
  6
CONTINUOUS
 90
3
 70
0
 10
366.0844705944
 20
186.0014313019
 10
363.5312150991
 20
186.7276922842
 10
360.6283416618
 20
187.532254886
  0
LINE
  5
253
100
AcDbEntity
  8
0
100
AcDbLine
 62
7
  6
CONTINUOUS
 10
294.9722221809
 20
320.2892518948
 11
294.9722221809
 21
304.1273481052
  0
LWPOLYLINE
  5
254
100
AcDbEntity
  8
0
100
AcDbPolyline
 62
7
  6
CONTINUOUS
 90
10
 70
0
 10
358.4314122994
 20
188.0562039508
 10
356.7533123621
 20
188.9618201946
 10
354.4420973055
 20
190.2758689999
 10
352.2278100972
 20
191.6179758293
 10
350.1133882491
 20
192.9879737345
 10
348.1013806409
 20
194.3850999963
 10
346.194361466
 20
195.8076444933
 10
344.3945010008
 20
197.2531901442
 10
342.7036884151
 20
198.7184760213
 10
341.071193234
 20
200.2505016013
  0
LWPOLYLINE
  5
255
100
AcDbEntity
  8
RUNDUNGEN
100
AcDbPolyline
 62
7
  6
CONTINUOUS
 90
10
 70
0
 10
358.1701303825
 20
188.1972093479
 10
356.7533123621
 20
188.9618201946
 10
354.4420973055
 20
190.2758689999
 10
352.2278100972
 20
191.6179758293
 10
350.1133882491
 20
192.9879737345
 10
348.1013806409
 20
194.3850999963
 10
346.194361466
 20
195.8076444933
 10
344.3945010008
 20
197.2531901442
 10
342.7036884151
 20
198.7184760213
 10
341.071193234
 20
200.2505016013
  0
LINE
  5
256
100
AcDbEntity
  8
0
100
AcDbLine
 62
7
  6
CONTINUOUS
 10
340.5775644581
 20
200.6410647567
 11
340.574591231
 21
200.6429460251
  0
LINE
  5
257
100
AcDbEntity
  8
RUNDUNGEN
100
AcDbLine
 62
7
  6
CONTINUOUS
 10
340.809147783
 20
200.4787189871
 11
340.5772242259
 21
200.6412799062
  0
LINE
  5
258
100
AcDbEntity
  8
0
100
AcDbLine
 62
7
  6
CONTINUOUS
 10
340.8108290275
 20
200.4774170637
 11
340.5772242259
 21
200.6412799062
  0
LINE
  5
259
100
AcDbEntity
  8
RUNDUNGEN
100
AcDbLine
 62
7
  6
CONTINUOUS
 10
341.0247685287
 20
200.2949539065
 11
340.8099608002
 21
200.4780260845
  0
LINE
  5
25A
100
AcDbEntity
  8
0
100
AcDbLine
 62
7
  6
CONTINUOUS
 10
341.0278646378
 20
200.2920478245
 11
340.8108290275
 21
200.4774170637
  0
LINE
  5
25B
100
AcDbEntity
  8
RUNDUNGEN
100
AcDbLine
 62
7
  6
CONTINUOUS
 10
341.0709699668
 20
200.2507149087
 11
341.0247685287
 21
200.2949539065
  0
LINE
  5
25C
100
AcDbEntity
  8
0
100
AcDbLine
 62
7
  6
CONTINUOUS
 10
341.0709700379
 20
200.2507148392
 11
341.0278646378
 21
200.2920478245
  0
LINE
  5
25D
100
AcDbEntity
  8
0
100
AcDbLine
 62
7
  6
CONTINUOUS
 10
341.0713097887
 20
200.2503819071
 11
341.0711873765
 21
200.2505022228
  0
LINE
  5
25E
100
AcDbEntity
  8
0
100
AcDbLine
 62
7
  6
CONTINUOUS
 10
318.4722221809
 20
329.6915678651
 11
318.4722221809
 21
301.7796273493
  0
LINE
  5
25F
100
AcDbEntity
  8
DEFAULT_2
100
AcDbLine
 62
8
  6
HIDDEN
 10
315.8233362326
 20
209.8842195764
 11
285.95580881
 21
127.8238624079
  0
LINE
  5
260
100
AcDbEntity
  8
DEFAULT_2
100
AcDbLine
 62
8
  6
HIDDEN
 10
348.0611644567
 20
190.2761618684
 11
320.7697583048
 21
115.2936397208
  0
LINE
  5
261
100
AcDbEntity
  8
0
100
AcDbLine
 62
7
  6
CONTINUOUS
 10
369.3560102147
 20
172.7643553348
 11
339.5743665305
 21
90.9399617985
  0
LINE
  5
262
100
AcDbEntity
  8
0
100
AcDbLine
 62
7
  6
CONTINUOUS
 10
258.8829198123
 20
308.2083
 11
261.9722221809
 21
308.2083
  0
LINE
  5
263
100
AcDbEntity
  8
0
100
AcDbLine
 62
7
  6
CONTINUOUS
 10
294.9722221809
 20
308.2083
 11
298.0615245129
 21
308.2083
  0
LINE
  5
264
100
AcDbEntity
  8
BEZUGSACHSEN
100
AcDbLine
 62
7
  6
CENTER
 10
278.4722221809
 20
312.2083
 11
255.4722221809
 21
312.2083
  0
LINE
  5
265
100
AcDbEntity
  8
BEZUGSACHSEN
100
AcDbLine
 62
7
  6
CENTER
 10
278.4722221809
 20
312.2083
 11
301.4722221809
 21
312.2083
  0
LINE
  5
266
100
AcDbEntity
  8
0
100
AcDbLine
 62
7
  6
CONTINUOUS
 10
259.3932115586
 20
318.2083
 11
261.9722221809
 21
318.2083
  0
LINE
  5
267
100
AcDbEntity
  8
0
100
AcDbLine
 62
7
  6
CONTINUOUS
 10
294.9722221809
 20
318.2083
 11
297.5457411806
 21
318.2083
  0
LINE
  5
268
100
AcDbEntity
  8
0
100
AcDbLine
 62
7
  6
CONTINUOUS
 10
301.9753338616
 20
344.443686213
 11
316.4507909439
 21
333.7075519443
  0
ARC
  5
269
100
AcDbEntity
  8
0
100
AcDbCircle
 62
7
  6
CONTINUOUS
 10
78.2512517608
 20
-445.7652380848
 40
637.9061669382
100
AcDbArc
 50
85.6179495946
 51
86.2507523129
  0
ARC
  5
26A
100
AcDbEntity
  8
RUNDUNGEN
100
AcDbCircle
 62
7
  6
CONTINUOUS
 10
-25.7713194287
 20
158.770627
 40
195.9958
100
AcDbArc
 50
331.7284738081
 51
15.3339816033
  0
ARC
  5
26B
100
AcDbEntity
  8
0
100
AcDbCircle
 62
7
  6
CONTINUOUS
 10
-49.4161634287
 20
231.7563566757
 40
80.0
100
AcDbArc
 50
344.6659596313
 51
0.0001394094
  0
ARC
  5
26C
100
AcDbEntity
  8
0
100
AcDbCircle
 62
7
  6
CONTINUOUS
 10
92.0885036612
 20
201.6209299529
 40
15.2419224796
100
AcDbArc
 50
180.7837667803
 51
187.9082380032
  0
ARC
  5
26D
100
AcDbEntity
  8
0
100
AcDbCircle
 62
7
  6
CONTINUOUS
 10
70.7512808027
 20
201.5096949541
 40
6.0948064511
100
AcDbArc
 50
0.794211576
 51
4.8213022754
  0
ARC
  5
26E
100
AcDbEntity
  8
0
100
AcDbCircle
 62
7
  6
CONTINUOUS
 10
81.7675880137
 20
115.6775457981
 40
5.0227503191
100
AcDbArc
 50
161.9679864139
 51
171.1655744843
  0
ARC
  5
26F
100
AcDbEntity
  8
0
100
AcDbCircle
 62
7
  6
CONTINUOUS
 10
72.0907035859
 20
344.1285401418
 40
5.0008492746
100
AcDbArc
 50
0.0036211308
 51
74.0218931673
  0
ARC
  5
270
100
AcDbEntity
  8
0
100
AcDbCircle
 62
7
  6
CONTINUOUS
 10
82.0917428755
 20
265.2086094027
 40
5.0002525515
100
AcDbArc
 50
180.0035453475
 51
270.0063632889
  0
ARC
  5
271
100
AcDbEntity
  8
0
100
AcDbCircle
 62
7
  6
CONTINUOUS
 10
35.5838365713
 20
337.7745432703
 40
5.0
100
AcDbArc
 50
120.0
 51
180.0
  0
ARC
  5
272
100
AcDbEntity
  8
0
100
AcDbCircle
 62
7
  6
CONTINUOUS
 10
51.9235825335
 20
347.2083
 40
5.0
100
AcDbArc
 50
90.0
 51
120.0
  0
ARC
  5
273
100
AcDbEntity
  8
0
100
AcDbCircle
 62
7
  6
CONTINUOUS
 10
61.2431322408
 20
66.3054
 40
3.0
100
AcDbArc
 50
270.0
 51
322.7947509817
  0
ARC
  5
274
100
AcDbEntity
  8
0
100
AcDbCircle
 62
7
  6
CONTINUOUS
 10
63.8194689447
 20
350.2083
 40
2.0
100
AcDbArc
 50
67.2789637932
 51
90.0
  0
ARC
  5
275
100
AcDbEntity
  8
0
100
AcDbCircle
 62
7
  6
CONTINUOUS
 10
112.7318213852
 20
-445.7652381293
 40
637.9061669829
100
AcDbArc
 50
93.7492476871
 51
94.3820504054
  0
ARC
  5
276
100
AcDbEntity
  8
0
100
AcDbCircle
 62
7
  6
CONTINUOUS
 10
95.4915365713
 20
40.3045
 40
40.0
100
AcDbArc
 50
121.2982070484
 51
142.7947503259
  0
ARC
  5
277
100
AcDbEntity
  8
KONSTRUKTIONSELEMENTE
100
AcDbCircle
 62
7
  6
CONTINUOUS
 10
95.4915365713
 20
40.3045
 40
40.0
100
AcDbArc
 50
37.2052496741
 51
58.7017929516
  0
ARC
  5
278
100
AcDbEntity
  8
0
100
AcDbCircle
 62
7
  6
CONTINUOUS
 10
98.8945692162
 20
201.6209299731
 40
15.2419227452
100
AcDbArc
 50
352.0917620588
 51
359.2162332818
  0
ARC
  5
279
100
AcDbEntity
  8
0
100
AcDbCircle
 62
7
  6
CONTINUOUS
 10
120.231792333
 20
201.5096949544
 40
6.0948064441
100
AcDbArc
 50
175.1786977303
 51
179.2057884297
  0
ARC
  5
27A
100
AcDbEntity
  8
0
100
AcDbCircle
 62
7
  6
CONTINUOUS
 10
109.2154873887
 20
115.6775463224
 40
5.0227480081
100
AcDbArc
 50
8.8345674986
 51
18.0320158781
  0
ARC
  5
27B
100
AcDbEntity
  8
0
100
AcDbCircle
 62
7
  6
CONTINUOUS
 10
135.1277643865
 20
199.2927863688
 40
4.6355531631
100
AcDbArc
 50
167.6467266386
 51
174.6394344208
  0
ARC
  5
27C
100
AcDbEntity
  8
KONSTRUKTIONSELEMENTE
100
AcDbCircle
 62
7
  6
CONTINUOUS
 10
129.7399409019
 20
66.3054
 40
3.0
100
AcDbArc
 50
217.2052490183
 51
270.0
  0
ARC
  5
27D
100
AcDbEntity
  8
0
100
AcDbCircle
 62
7
  6
CONTINUOUS
 10
95.4915365713
 20
425.8448
 40
80.0
100
AcDbArc
 50
247.2789637932
 51
254.0199235514
  0
ARC
  5
27E
100
AcDbEntity
  8
KONSTRUKTIONSELEMENTE
100
AcDbCircle
 62
7
  6
CONTINUOUS
 10
95.4915365713
 20
425.8448
 40
80.0
100
AcDbArc
 50
285.9800764486
 51
292.7210362068
  0
ARC
  5
27F
100
AcDbEntity
  8
RUNDUNGEN
100
AcDbCircle
 62
7
  6
CONTINUOUS
 10
118.8923695568
 20
344.1285401418
 40
5.0008492746
100
AcDbArc
 50
105.9781068328
 51
179.9963788695
  0
ARC
  5
280
100
AcDbEntity
  8
RUNDUNGEN
100
AcDbCircle
 62
7
  6
CONTINUOUS
 10
108.8913304851
 20
265.2086094103
 40
5.0002525515
100
AcDbArc
 50
269.9936342142
 51
359.9964545654
  0
CIRCLE
  5
281
100
AcDbEntity
  8
0
100
AcDbCircle
 62
7
  6
CONTINUOUS
 10
145.4915365713
 20
313.2083
 40
5.0
  0
ARC
  5
282
100
AcDbEntity
  8
RUNDUNGEN
100
AcDbCircle
 62
7
  6
CONTINUOUS
 10
155.3992365713
 20
337.7745432703
 40
5.0
100
AcDbArc
 50
0.0
 51
60.0
  0
ARC
  5
283
100
AcDbEntity
  8
RUNDUNGEN
100
AcDbCircle
 62
7
  6
CONTINUOUS
 10
139.0594906092
 20
347.2083
 40
5.0
100
AcDbArc
 50
60.0
 51
90.0
  0
ARC
  5
284
100
AcDbEntity
  8
RUNDUNGEN
100
AcDbCircle
 62
7
  6
CONTINUOUS
 10
127.163604198
 20
350.2083
 40
2.0
100
AcDbArc
 50
90.0
 51
112.7210362068
  0
ARC
  5
285
100
AcDbEntity
  8
0
100
AcDbCircle
 62
7
  6
CONTINUOUS
 10
216.7543925713
 20
158.770627
 40
195.9958
100
AcDbArc
 50
164.6660423831
 51
208.2715261919
  0
ARC
  5
286
100
AcDbEntity
  8
RUNDUNGEN
100
AcDbCircle
 62
7
  6
CONTINUOUS
 10
240.3992365713
 20
231.7563566757
 40
80.0
100
AcDbArc
 50
179.9998605906
 51
195.3340403687
  0
ARC
  5
287
100
AcDbEntity
  8
RUNDUNGEN
100
AcDbCircle
 62
7
  6
CONTINUOUS
 10
263.4722221809
 20
131.159436324
 40
25.0
100
AcDbArc
 50
179.9994361458
 51
202.7442774723
  0
ARC
  5
288
100
AcDbEntity
  8
0
100
AcDbCircle
 62
7
  6
CONTINUOUS
 10
263.4722221809
 20
131.159436324
 40
25.0
100
AcDbArc
 50
179.9994361458
 51
212.5107293849
  0
CIRCLE
  5
289
100
AcDbEntity
  8
DEFAULT_2
100
AcDbCircle
 62
8
  6
HIDDEN
 10
278.6458677219
 20
180.8350743348
 40
15.0
  0
ARC
  5
28A
100
AcDbEntity
  8
RUNDUNGEN
100
AcDbCircle
 62
7
  6
CONTINUOUS
 10
300.1081221809
 20
105.3045
 40
41.9991
100
AcDbArc
 50
314.7342549345
 51
319.9889231246
  0
ARC
  5
28B
100
AcDbEntity
  8
RUNDUNGEN
100
AcDbCircle
 62
7
  6
CONTINUOUS
 10
300.1081221809
 20
105.3045
 40
41.9991
100
AcDbArc
 50
212.5100419186
 51
314.5836001322
  0
ARC
  5
28C
100
AcDbEntity
  8
KONSTRUKTIONSELEMENTE
100
AcDbCircle
 62
7
  6
CONTINUOUS
 10
300.1081221809
 20
105.3045
 40
41.9991
100
AcDbArc
 50
314.7349322851
 51
319.9922447355
  0
ARC
  5
28D
100
AcDbEntity
  8
KONSTRUKTIONSELEMENTE
100
AcDbCircle
 62
7
  6
CONTINUOUS
 10
300.1081221809
 20
105.3045
 40
41.9991
100
AcDbArc
 50
212.510298026
 51
311.9411649877
  0
ARC
  5
28E
100
AcDbEntity
  8
0
100
AcDbCircle
 62
7
  6
CONTINUOUS
 10
300.1081221809
 20
105.3045
 40
41.9991
100
AcDbArc
 50
212.510298026
 51
340.0
  0
ARC
  5
28F
100
AcDbEntity
  8
RUNDUNGEN
100
AcDbCircle
 62
7
  6
CONTINUOUS
 10
243.4722221809
 20
329.6915678651
 40
5.0
100
AcDbArc
 50
130.6970030199
 51
131.9526436708
  0
ARC
  5
290
100
AcDbEntity
  8
RUNDUNGEN
100
AcDbCircle
 62
7
  6
CONTINUOUS
 10
243.4722221809
 20
329.6915678651
 40
5.0
100
AcDbArc
 50
139.1113383227
 51
179.9990525844
  0
ARC
  5
291
100
AcDbEntity
  8
0
100
AcDbCircle
 62
7
  6
CONTINUOUS
 10
243.4722221809
 20
329.6915678651
 40
5.0
100
AcDbArc
 50
126.5680501174
 51
179.9990525844
  0
ARC
  5
292
100
AcDbEntity
  8
RUNDUNGEN
100
AcDbCircle
 62
7
  6
CONTINUOUS
 10
278.4722221809
 20
312.7546
 40
39.4537
100
AcDbArc
 50
53.4364693563
 51
74.9999567678
  0
ARC
  5
293
100
AcDbEntity
  8
RUNDUNGEN
100
AcDbCircle
 62
7
  6
CONTINUOUS
 10
278.4722221809
 20
312.7546
 40
39.4537
100
AcDbArc
 50
76.5623289224
 51
105.234804373
  0
ARC
  5
294
100
AcDbEntity
  8
0
100
AcDbCircle
 62
7
  6
CONTINUOUS
 10
278.4722221809
 20
312.7546
 40
39.4537
100
AcDbArc
 50
53.4364693563
 51
126.5635306437
  0
CIRCLE
  5
295
100
AcDbEntity
  8
0
100
AcDbCircle
 62
7
  6
CONTINUOUS
 10
278.4722221809
 20
312.2083
 40
20.0
  0
ARC
  5
296
100
AcDbEntity
  8
0
100
AcDbCircle
 62
7
  6
CONTINUOUS
 10
278.4722221809
 20
314.4583
 40
17.5
100
AcDbArc
 50
19.4629509463
 51
160.5370490537
  0
ARC
  5
297
100
AcDbEntity
  8
0
100
AcDbCircle
 62
7
  6
CONTINUOUS
 10
278.4722221809
 20
309.9583
 40
17.5
100
AcDbArc
 50
199.4629509463
 51
340.5370490537
  0
ARC
  5
298
100
AcDbEntity
  8
RUNDUNGEN
100
AcDbCircle
 62
7
  6
CONTINUOUS
 10
355.2606209029
 20
177.8946574847
 40
15.0
100
AcDbArc
 50
13.2787812102
 51
19.2831875185
  0
ARC
  5
299
100
AcDbEntity
  8
RUNDUNGEN
100
AcDbCircle
 62
7
  6
CONTINUOUS
 10
355.2606209029
 20
177.8946574847
 40
15.0
100
AcDbArc
 50
4.5607390063
 51
11.4137107684
  0
ARC
  5
29A
100
AcDbEntity
  8
0
100
AcDbCircle
 62
7
  6
CONTINUOUS
 10
355.2606209029
 20
177.8946574847
 40
15.0
100
AcDbArc
 50
357.8666427034
 51
19.2831875185
  0
ARC
  5
29B
100
AcDbEntity
  8
0
100
AcDbCircle
 62
7
  6
CONTINUOUS
 10
355.2606209029
 20
177.8946574847
 40
15.0
100
AcDbArc
 50
340.0
 51
357.3476445552
  0
ARC
  5
29C
100
AcDbEntity
  8
0
100
AcDbCircle
 62
7
  6
CONTINUOUS
 10
364.699594492
 20
181.1970457122
 40
5.0000002558
100
AcDbArc
 50
19.2832749262
 51
73.920241828
  0
ARC
  5
29D
100
AcDbEntity
  8
0
100
AcDbCircle
 62
7
  6
CONTINUOUS
 10
378.0045102207
 20
259.7953015524
 40
70.0
100
AcDbArc
 50
160.0
 51
237.6755414175
  0
ARC
  5
29E
100
AcDbEntity
  8
RUNDUNGEN
100
AcDbCircle
 62
7
  6
CONTINUOUS
 10
313.4722221809
 20
301.7796273493
 40
5.0
100
AcDbArc
 50
343.8867996403
 51
346.1104291507
  0
ARC
  5
29F
100
AcDbEntity
  8
RUNDUNGEN
100
AcDbCircle
 62
7
  6
CONTINUOUS
 10
313.4722221809
 20
301.7796273493
 40
5.0
100
AcDbArc
 50
352.9976742908
 51
360.0
  0
ARC
  5
2A0
100
AcDbEntity
  8
RUNDUNGEN
100
AcDbCircle
 62
7
  6
CONTINUOUS
 10
313.4722221809
 20
301.7796273493
 40
5.0
100
AcDbArc
 50
340.0000289344
 51
342.9985179319
  0
ARC
  5
2A1
100
AcDbEntity
  8
RUNDUNGEN
100
AcDbCircle
 62
7
  6
CONTINUOUS
 10
313.4722221809
 20
329.6915678651
 40
5.0
100
AcDbArc
 50
0.0000000367
 51
4.6257587274
  0
ARC
  5
2A2
100
AcDbEntity
  8
0
100
AcDbCircle
 62
7
  6
CONTINUOUS
 10
313.4722221809
 20
301.7796273493
 40
5.0
100
AcDbArc
 50
340.0000289344
 51
360.0
  0
ARC
  5
2A3
100
AcDbEntity
  8
0
100
AcDbCircle
 62
7
  6
CONTINUOUS
 10
313.4722221809
 20
329.6915678651
 40
5.0
100
AcDbArc
 50
0.0
 51
53.4364693563
  0
SPLINE
  5
2A4
100
AcDbEntity
  8
DEFAULT_2
100
AcDbSpline
 62
8
  6
HIDDEN
 70
0
 71
3
 72
15
 73
11
 74
0
 42
0.0000001
 43
0.0000001
 44
0.0000000001
 40
0.0
 40
0.0
 40
0.0
 40
0.0
 40
0.1263286888
 40
0.2522621622
 40
0.3777620676
 40
0.5028299236
 40
0.6275063375
 40
0.7518611006
 40
0.8759879776
 40
1.0
 40
1.0
 40
1.0
 40
1.0
 10
77.0687215396
 20
100.7350828584
 30
0.0
 10
74.7797322943
 20
101.6072224458
 30
0.0
 10
70.327280742
 20
103.6804951716
 30
0.0
 10
64.184497755
 20
107.7159933061
 30
0.0
 10
58.7168175132
 20
112.5941175106
 30
0.0
 10
54.0512479575
 20
118.2130148095
 30
0.0
 10
50.2975081735
 20
124.4527476772
 30
0.0
 10
47.5468364765
 20
131.1763906576
 30
0.0
 10
45.867928359
 20
138.229656651
 30
0.0
 10
45.4915365713
 20
143.0494549129
 30
0.0
 10
45.4915365713
 20
145.4540448072
 30
0.0
  0
SPLINE
  5
2A5
100
AcDbEntity
  8
DEFAULT_2
100
AcDbSpline
 62
8
  6
HIDDEN
 70
0
 71
3
 72
15
 73
11
 74
0
 42
0.0000001
 43
0.0000001
 44
0.0000000001
 40
0.0
 40
0.0
 40
0.0
 40
0.0
 40
0.1240113361
 40
0.2481379073
 40
0.3724926604
 40
0.4971692661
 40
0.6222374149
 40
0.747737581
 40
0.8736712689
 40
1.0
 40
1.0
 40
1.0
 40
1.0
 10
145.4915365713
 20
145.4540448072
 30
0.0
 10
145.4915365713
 20
143.0494682237
 30
0.0
 10
145.1151480862
 20
138.2296893613
 30
0.0
 10
143.4362521151
 20
131.1764407199
 30
0.0
 10
140.6855896158
 20
124.4527964392
 30
0.0
 10
136.9318508482
 20
118.2130524097
 30
0.0
 10
132.2662789655
 20
112.594137438
 30
0.0
 10
126.7985848158
 20
107.7160070606
 30
0.0
 10
120.655800824
 20
103.6804911327
 30
0.0
 10
116.2033393471
 20
101.6072274734
 30
0.0
 10
113.9143499093
 20
100.7350860988
 30
0.0
  0
SPLINE
  5
2A6
100
AcDbEntity
  8
0
100
AcDbSpline
 62
7
  6
CONTINUOUS
 70
0
 71
3
 72
20
 73
16
 74
0
 42
0.0000001
 43
0.0000001
 44
0.0000000001
 40
0.0
 40
0.0
 40
0.0
 40
0.0
 40
0.1229280628
 40
0.2472778666
 40
0.3101316749
 40
0.373301622
 40
0.4366762345
 40
0.5001417518
 40
0.5635914941
 40
0.6268970701
 40
0.7523210005
 40
0.8147401762
 40
0.8767961511
 40
0.9385071561
 40
1.0
 40
1.0
 40
1.0
 40
1.0
 10
140.3146176605
 20
200.5591593732
 30
0.0
 10
140.1683180726
 20
201.0761711687
 30
0.0
 10
139.6896524168
 20
202.0724255172
 30
0.0
 10
138.7112589523
 20
203.0481562069
 30
0.0
 10
137.7678237648
 20
203.6109350726
 30
0.0
 10
136.9938292579
 20
203.9150481903
 30
0.0
 10
136.178783129
 20
204.0924246026
 30
0.0
 10
135.3445625867
 20
204.1353114169
 30
0.0
 10
134.5142132836
 20
204.0449835127
 30
0.0
 10
133.4483634263
 20
203.7502668367
 30
0.0
 10
132.4708649669
 20
203.2007392333
 30
0.0
 10
131.6784829442
 20
202.4432162166
 30
0.0
 10
131.1880700406
 20
201.7886717086
 30
0.0
 10
130.8180126363
 20
201.0642315602
 30
0.0
 10
130.6570284914
 20
200.5470726029
 30
0.0
 10
130.599537827
 20
200.2845108028
 30
0.0
  0
SPLINE
  5
2A7
100
AcDbEntity
  8
0
100
AcDbSpline
 62
7
  6
CONTINUOUS
 70
0
 71
3
 72
11
 73
7
 74
0
 42
0.0000001
 43
0.0000001
 44
0.0000000001
 40
0.0
 40
0.0
 40
0.0
 40
0.0
 40
0.3113165022
 40
0.5916105689
 40
0.8262165662
 40
1.0
 40
1.0
 40
1.0
 40
1.0
 10
114.1727944754
 20
115.2936397913
 30
0.0
 10
114.1662728597
 20
113.9422908424
 30
0.0
 10
114.150098322
 20
111.3742724072
 30
0.0
 10
114.1132082093
 20
107.7879898097
 30
0.0
 10
114.0645579788
 20
104.7989530161
 30
0.0
 10
114.0202002076
 20
103.0266699592
 30
0.0
 10
113.9915365713
 20
102.272854473
 30
0.0
  0
SPLINE
  5
2A8
100
AcDbEntity
  8
0
100
AcDbSpline
 62
7
  6
CONTINUOUS
 70
0
 71
3
 72
11
 73
7
 74
0
 42
0.0000001
 43
0.0000001
 44
0.0000000001
 40
0.0
 40
0.0
 40
0.0
 40
0.0
 40
0.3686986669
 40
0.6600537744
 40
0.8709775166
 40
1.0
 40
1.0
 40
1.0
 40
1.0
 10
113.9852703726
 20
102.1141792901
 30
0.0
 10
113.9785988395
 20
101.9493268391
 30
0.0
 10
113.9654545923
 20
101.6542798408
 30
0.0
 10
113.943560567
 20
101.2650282951
 30
0.0
 10
113.9206349726
 20
100.9836363921
 30
0.0
 10
113.9035418164
 20
100.8321083786
 30
0.0
 10
113.8915365713
 20
100.7756346014
 30
0.0
  0
SPLINE
  5
2A9
100
AcDbEntity
  8
0
100
AcDbSpline
 62
7
  6
CONTINUOUS
 70
0
 71
3
 72
20
 73
16
 74
0
 42
0.0000001
 43
0.0000001
 44
0.0000000001
 40
0.0
 40
0.0
 40
0.0
 40
0.0
 40
0.0557179846
 40
0.1060873945
 40
0.1521112354
 40
0.1954952938
 40
0.2384777593
 40
0.2833469994
 40
0.3319496253
 40
0.3854685194
 40
0.4444970816
 40
0.5091907135
 40
0.654874236
 40
0.8197999904
 40
1.0
 40
1.0
 40
1.0
 40
1.0
 10
80.8980826609
 20
165.8350750398
 30
0.0
 10
80.6748910241
 20
165.8350734301
 30
0.0
 10
80.2494456559
 20
165.8524308859
 30
0.0
 10
79.6461628068
 20
165.9509006516
 30
0.0
 10
79.1125042903
 20
166.130571094
 30
0.0
 10
78.6510609195
 20
166.400351355
 30
0.0
 10
78.2644844403
 20
166.7629294535
 30
0.0
 10
77.9510949499
 20
167.2149290812
 30
0.0
 10
77.7030991889
 20
167.7514092883
 30
0.0
 10
77.5105891656
 20
168.3689372272
 30
0.0
 10
77.3643637563
 20
169.0644585484
 30
0.0
 10
77.2142979925
 20
170.1337116171
 30
0.0
 10
77.112301505
 20
171.6349789801
 30
0.0
 10
77.0608231339
 20
173.600370204
 30
0.0
 10
77.0524476568
 20
174.982938196
 30
0.0
 10
77.0524476568
 20
175.7047721849
 30
0.0
  0
SPLINE
  5
2AA
100
AcDbEntity
  8
0
100
AcDbSpline
 62
7
  6
CONTINUOUS
 70
0
 71
3
 72
15
 73
11
 74
0
 42
0.0000001
 43
0.0000001
 44
0.0000000001
 40
0.0
 40
0.0
 40
0.0
 40
0.0
 40
0.1225615305
 40
0.2423289251
 40
0.3604839529
 40
0.4788175639
 40
0.599651174
 40
0.7254997973
 40
0.8585165798
 40
1.0
 40
1.0
 40
1.0
 40
1.0
 10
145.491542317
 20
199.112942018
 30
0.0
 10
145.4912656594
 20
198.5616449646
 30
0.0
 10
145.4110904587
 20
197.4694441055
 30
0.0
 10
145.0284447637
 20
195.8857495868
 30
0.0
 10
144.3724985416
 20
194.4129275263
 30
0.0
 10
143.4346497813
 20
193.0937283866
 30
0.0
 10
142.2165385837
 20
191.9746664976
 30
0.0
 10
140.7355631222
 20
191.1000126323
 30
0.0
 10
139.0261356786
 20
190.5019950794
 30
0.0
 10
137.8011580343
 20
190.3028827
 30
0.0
 10
137.1672541682
 20
190.2464577767
 30
0.0
  0
SPLINE
  5
2AB
100
AcDbEntity
  8
0
100
AcDbSpline
 62
7
  6
CONTINUOUS
 70
0
 71
3
 72
11
 73
7
 74
0
 42
0.0000001
 43
0.0000001
 44
0.0000000001
 40
0.0
 40
0.0
 40
0.0
 40
0.0
 40
0.0983647347
 40
0.2546381606
 40
0.4974523156
 40
1.0
 40
1.0
 40
1.0
 40
1.0
 10
77.0364652771
 20
77.7955961335
 30
0.0
 10
77.0431382992
 20
77.826753841
 30
0.0
 10
77.0546027127
 20
77.9085731283
 30
0.0
 10
77.0693976476
 20
78.0690225449
 30
0.0
 10
77.0860657635
 20
78.3606900748
 30
0.0
 10
77.0915364991
 20
78.6021717099
 30
0.0
 10
77.0915365713
 20
78.7649670164
 30
0.0
  0
SPLINE
  5
2AC
100
AcDbEntity
  8
RUNDUNGEN
100
AcDbSpline
 62
7
  6
CONTINUOUS
 70
0
 71
3
 72
11
 73
7
 74
0
 42
0.0000001
 43
0.0000001
 44
0.0000000001
 40
0.0
 40
0.0
 40
0.0
 40
0.0
 40
0.0983436196
 40
0.2546061488
 40
0.4974208696
 40
1.0
 40
1.0
 40
1.0
 40
1.0
 10
113.9466196157
 20
77.7955412841
 30
0.0
 10
113.9399443416
 20
77.8266933921
 30
0.0
 10
113.9284778076
 20
77.9085069272
 30
0.0
 10
113.9136799861
 20
78.0689550788
 30
0.0
 10
113.8970085244
 20
78.3606462332
 30
0.0
 10
113.8915366436
 20
78.6021521381
 30
0.0
 10
113.8915365713
 20
78.7649670164
 30
0.0
  0
SPLINE
  5
2AD
100
AcDbEntity
  8
0
100
AcDbSpline
 62
7
  6
CONTINUOUS
 70
0
 71
3
 72
10
 73
6
 74
0
 42
0.0000001
 43
0.0000001
 44
0.0000000001
 40
0.0
 40
0.0
 40
0.0
 40
0.0
 40
0.2307848889
 40
0.4775481295
 40
1.0
 40
1.0
 40
1.0
 40
1.0
 10
137.1672541682
 20
190.2464577767
 30
0.0
 10
136.3868043408
 20
190.1769885337
 30
0.0
 10
134.7676550821
 20
190.0783520887
 30
0.0
 10
131.3722625483
 20
190.0255405297
 30
0.0
 10
128.760158493
 20
190.1411030248
 30
0.0
 10
126.9915365713
 20
190.2761618684
 30
0.0
  0
SPLINE
  5
2AE
100
AcDbEntity
  8
0
100
AcDbSpline
 62
7
  6
CONTINUOUS
 70
0
 71
3
 72
20
 73
16
 74
0
 42
0.0000001
 43
0.0000001
 44
0.0000000001
 40
0.0
 40
0.0
 40
0.0
 40
0.0
 40
0.0056300656
 40
0.014575678
 40
0.0267564454
 40
0.0420271617
 40
0.0806748981
 40
0.1281407642
 40
0.182416494
 40
0.2418511327
 40
0.3721639135
 40
0.5141825172
 40
0.6661192717
 40
0.8278108006
 40
1.0
 40
1.0
 40
1.0
 40
1.0
 10
113.9915365713
 20
117.9304930013
 30
0.0
 10
113.9915365713
 20
117.9411927144
 30
0.0
 10
113.9865277506
 20
117.9686871688
 30
0.0
 10
113.9735203057
 20
118.0177549901
 30
0.0
 10
113.9517864699
 20
118.0835084528
 30
0.0
 10
113.9078098001
 20
118.2011725614
 30
0.0
 10
113.8306325536
 20
118.3779086236
 30
0.0
 10
113.7087548249
 20
118.6154234231
 30
0.0
 10
113.5515093341
 20
118.8785845885
 30
0.0
 10
113.2861485973
 20
119.2593113339
 30
0.0
 10
112.8678569539
 20
119.7347129552
 30
0.0
 10
112.2421893638
 20
120.2491841829
 30
0.0
 10
111.4838455096
 20
120.6771347784
 30
0.0
 10
110.6041918926
 20
120.9750938144
 30
0.0
 10
109.9692547298
 20
121.055286132
 30
0.0
 10
109.6420946576
 20
121.0624567575
 30
0.0
  0
SPLINE
  5
2AF
100
AcDbEntity
  8
0
100
AcDbSpline
 62
7
  6
CONTINUOUS
 70
0
 71
3
 72
15
 73
11
 74
0
 42
0.0000001
 43
0.0000001
 44
0.0000000001
 40
0.0
 40
0.0
 40
0.0
 40
0.0
 40
0.1286617212
 40
0.2569051501
 40
0.3841850196
 40
0.5100928839
 40
0.6344439248
 40
0.7573043158
 40
0.8789823816
 40
1.0
 40
1.0
 40
1.0
 40
1.0
 10
119.9639532403
 20
190.7756705401
 30
0.0
 10
119.6250620328
 20
190.7977878734
 30
0.0
 10
118.9423043941
 20
190.7765776309
 30
0.0
 10
117.9476391512
 20
190.5500911764
 30
0.0
 10
117.0215837438
 20
190.1386437711
 30
0.0
 10
116.2026706063
 20
189.5592204841
 30
0.0
 10
115.524331349
 20
188.8357714926
 30
0.0
 10
115.0145031477
 20
187.9977788889
 30
0.0
 10
114.6942130078
 20
187.080202523
 30
0.0
 10
114.615917008
 20
186.4385058728
 30
0.0
 10
114.6115136081
 20
186.1191012303
 30
0.0
  0
SPLINE
  5
2B0
100
AcDbEntity
  8
0
100
AcDbSpline
 62
7
  6
CONTINUOUS
 70
0
 71
3
 72
39
 73
35
 74
0
 42
0.0000001
 43
0.0000001
 44
0.0000000001
 40
0.0
 40
0.0
 40
0.0
 40
0.0
 40
0.0329785499
 40
0.0669713229
 40
0.1012179818
 40
0.1349566769
 40
0.1674858719
 40
0.1982851395
 40
0.2272177945
 40
0.2547067023
 40
0.2816569885
 40
0.3090665973
 40
0.3376478595
 40
0.3677139283
 40
0.3992589183
 40
0.4320684555
 40
0.4657940474
 40
0.4999999965
 40
0.534205944
 40
0.5679315338
 40
0.6007410703
 40
0.63228606
 40
0.6623521302
 40
0.6909333942
 40
0.7183430023
 40
0.7452932902
 40
0.7727822045
 40
0.80171486
 40
0.8325141282
 40
0.8650433231
 40
0.8987820181
 40
0.9330286771
 40
0.9670214501
 40
1.0
 40
1.0
 40
1.0
 40
1.0
 10
77.0524476568
 20
175.7047721849
 30
0.0
 10
77.0524476568
 20
176.4252805128
 30
0.0
 10
77.0615819131
 20
177.8884735195
 30
0.0
 10
77.1092912879
 20
180.0994795007
 30
0.0
 10
77.2167104698
 20
182.3253174692
 30
0.0
 10
77.4230292142
 20
184.5128271109
 30
0.0
 10
77.7773618308
 20
186.6065965064
 30
0.0
 10
78.3332027628
 20
188.5502042037
 30
0.0
 10
79.1403132672
 20
190.2877033979
 30
0.0
 10
80.2290665695
 20
191.7655026574
 30
0.0
 10
81.5900813119
 20
192.9470376487
 30
0.0
 10
83.1805913119
 20
193.8369048898
 30
0.0
 10
84.9553868801
 20
194.4760640962
 30
0.0
 10
86.8796144377
 20
194.9157402575
 30
0.0
 10
88.9240414598
 20
195.2031493132
 30
0.0
 10
91.0605415595
 20
195.3777762178
 30
0.0
 10
93.2599863723
 20
195.4697642379
 30
0.0
 10
95.4915363059
 20
195.4982267995
 30
0.0
 10
97.7230861937
 20
195.4697642401
 30
0.0
 10
99.9225309124
 20
195.3777762799
 30
0.0
 10
102.0590309468
 20
195.2031494068
 30
0.0
 10
104.1034579835
 20
194.9157404026
 30
0.0
 10
106.0276856242
 20
194.4760642989
 30
0.0
 10
107.8024812467
 20
193.8369051039
 30
0.0
 10
109.392991406
 20
192.9470380215
 30
0.0
 10
110.7540062872
 20
191.7655029325
 30
0.0
 10
111.8427597863
 20
190.2877035778
 30
0.0
 10
112.6498703698
 20
188.5502042314
 30
0.0
 10
113.2057113141
 20
186.6065965134
 30
0.0
 10
113.5600439273
 20
184.512827108
 30
0.0
 10
113.7663626731
 20
182.3253174692
 30
0.0
 10
113.8737818546
 20
180.0994795018
 30
0.0
 10
113.9214912298
 20
177.8884735198
 30
0.0
 10
113.9306254859
 20
176.4252805123
 30
0.0
 10
113.9306254859
 20
175.7047721849
 30
0.0
  0
SPLINE
  5
2B1
100
AcDbEntity
  8
0
100
AcDbSpline
 62
7
  6
CONTINUOUS
 70
0
 71
3
 72
20
 73
16
 74
0
 42
0.0000001
 43
0.0000001
 44
0.0000000001
 40
0.0
 40
0.0
 40
0.0
 40
0.0
 40
0.1802000048
 40
0.3451257425
 40
0.4908092317
 40
0.5555028401
 40
0.6145313754
 40
0.6680502411
 40
0.7166528408
 40
0.7615220625
 40
0.8045045217
 40
0.847888594
 40
0.8939124761
 40
0.944281946
 40
1.0
 40
1.0
 40
1.0
 40
1.0
 10
113.9306254859
 20
175.7047721849
 30
0.0
 10
113.9306254859
 20
174.9829377602
 30
0.0
 10
113.9222500004
 20
173.6003689824
 30
0.0
 10
113.8707715579
 20
171.6349767407
 30
0.0
 10
113.7687748999
 20
170.1337087286
 30
0.0
 10
113.6187088481
 20
169.0644553495
 30
0.0
 10
113.4724831521
 20
168.3689339503
 30
0.0
 10
113.2799727454
 20
167.7514060407
 30
0.0
 10
113.0319764653
 20
167.2149259735
 30
0.0
 10
112.7185862999
 20
166.7629266268
 30
0.0
 10
112.332009038
 20
166.4003489251
 30
0.0
 10
111.8705647255
 20
166.1305692073
 30
0.0
 10
111.3369051382
 20
165.950899418
 30
0.0
 10
110.7336211179
 20
165.8524302178
 30
0.0
 10
110.3081749449
 20
165.835073266
 30
0.0
 10
110.0849828896
 20
165.8350750528
 30
0.0
  0
SPLINE
  5
2B2
100
AcDbEntity
  8
0
100
AcDbSpline
 62
7
  6
CONTINUOUS
 70
0
 71
3
 72
20
 73
16
 74
0
 42
0.0000001
 43
0.0000001
 44
0.0000000001
 40
0.0
 40
0.0
 40
0.0
 40
0.0
 40
0.1259668123
 40
0.2406578948
 40
0.3506520662
 40
0.4058724858
 40
0.4623441218
 40
0.5213003813
 40
0.5842000961
 40
0.6517956791
 40
0.7225725338
 40
0.7937261298
 40
0.8637300691
 40
0.9324004541
 40
1.0
 40
1.0
 40
1.0
 40
1.0
 10
140.4915365713
 20
202.0542412204
 30
0.0
 10
140.4915365713
 20
201.3245664486
 30
0.0
 10
140.2621072847
 20
199.9251271688
 30
0.0
 10
139.4405260251
 20
198.050674033
 30
0.0
 10
138.4407918996
 20
196.7476065461
 30
0.0
 10
137.4529121313
 20
195.9196836757
 30
0.0
 10
136.5926184337
 20
195.4209474474
 30
0.0
 10
135.6023064849
 20
195.0965800325
 30
0.0
 10
134.4923936414
 20
195.0296056376
 30
0.0
 10
133.3413296884
 20
195.3131063166
 30
0.0
 10
132.2940612531
 20
195.9635795221
 30
0.0
 10
131.465835705
 20
196.8890261171
 30
0.0
 10
130.8919282371
 20
197.9720546609
 30
0.0
 10
130.5621556051
 20
199.1282600849
 30
0.0
 10
130.4915365713
 20
199.9195805488
 30
0.0
 10
130.4915365713
 20
200.3111573645
 30
0.0
  0
SPLINE
  5
2B3
100
AcDbEntity
  8
0
100
AcDbSpline
 62
7
  6
CONTINUOUS
 70
0
 71
3
 72
11
 73
7
 74
0
 42
0.0000001
 43
0.0000001
 44
0.0000000001
 40
0.0
 40
0.0
 40
0.0
 40
0.0
 40
0.1290224834
 40
0.3399462256
 40
0.6313013331
 40
1.0
 40
1.0
 40
1.0
 40
1.0
 10
77.0915365713
 20
100.7756346014
 30
0.0
 10
77.0795313263
 20
100.8321083786
 30
0.0
 10
77.0624381701
 20
100.9836363921
 30
0.0
 10
77.0395125757
 20
101.2650282951
 30
0.0
 10
77.0176185504
 20
101.6542798408
 30
0.0
 10
77.0044743032
 20
101.9493268391
 30
0.0
 10
76.9978027701
 20
102.1141792901
 30
0.0
  0
SPLINE
  5
2B4
100
AcDbEntity
  8
0
100
AcDbSpline
 62
7
  6
CONTINUOUS
 70
0
 71
3
 72
11
 73
7
 74
0
 42
0.0000001
 43
0.0000001
 44
0.0000000001
 40
0.0
 40
0.0
 40
0.0
 40
0.0
 40
0.1737834332
 40
0.4083894309
 40
0.688683498
 40
1.0
 40
1.0
 40
1.0
 40
1.0
 10
76.9915365713
 20
102.272854473
 30
0.0
 10
76.962872934
 20
103.0266699871
 30
0.0
 10
76.9185151617
 20
104.7989531144
 30
0.0
 10
76.8698649303
 20
107.7879900291
 30
0.0
 10
76.8329748176
 20
111.3742727731
 30
0.0
 10
76.8168002802
 20
113.9422913124
 30
0.0
 10
76.8102786648
 20
115.2936403148
 30
0.0
  0
SPLINE
  5
2B5
100
AcDbEntity
  8
0
100
AcDbSpline
 62
7
  6
CONTINUOUS
 70
0
 71
3
 72
15
 73
11
 74
0
 42
0.0000001
 43
0.0000001
 44
0.0000000001
 40
0.0
 40
0.0
 40
0.0
 40
0.0
 40
0.1210176608
 40
0.2426957582
 40
0.3655561684
 40
0.489907203
 40
0.6158150592
 40
0.743094913
 40
0.8713383083
 40
1.0
 40
1.0
 40
1.0
 40
1.0
 10
76.3715595346
 20
186.1191012303
 30
0.0
 10
76.3671561332
 20
186.4385059847
 30
0.0
 10
76.2888601044
 20
187.0802028374
 30
0.0
 10
75.9685697344
 20
187.9977793862
 30
0.0
 10
75.4587414078
 20
188.8357720522
 30
0.0
 10
74.7804020026
 20
189.559220929
 30
0.0
 10
73.9614888577
 20
190.1386440521
 30
0.0
 10
73.0354335663
 20
190.5500913504
 30
0.0
 10
72.0407684975
 20
190.7765776143
 30
0.0
 10
71.3580110328
 20
190.7977878684
 30
0.0
 10
71.0191199029
 20
190.7756705402
 30
0.0
  0
SPLINE
  5
2B6
100
AcDbEntity
  8
0
100
AcDbSpline
 62
7
  6
CONTINUOUS
 70
0
 71
3
 72
15
 73
11
 74
0
 42
0.0000001
 43
0.0000001
 44
0.0000000001
 40
0.0
 40
0.0
 40
0.0
 40
0.0
 40
0.1414834384
 40
0.2745002318
 40
0.4003488601
 40
0.52118247
 40
0.6395160764
 40
0.7576710965
 40
0.8774384806
 40
1.0
 40
1.0
 40
1.0
 40
1.0
 10
53.8158189745
 20
190.2464577767
 30
0.0
 10
53.1819152604
 20
190.3028826865
 30
0.0
 10
51.9569379358
 20
190.5019949811
 30
0.0
 10
50.2475109412
 20
191.100012245
 30
0.0
 10
48.7665358458
 20
191.974665603
 30
0.0
 10
47.548424839
 20
193.0937267852
 30
0.0
 10
46.6105760412
 20
194.4129250874
 30
0.0
 10
45.9546295451
 20
195.8857462573
 30
0.0
 10
45.5719833607
 20
197.4694399022
 30
0.0
 10
45.4918077312
 20
198.5616402257
 30
0.0
 10
45.4915308257
 20
199.1129370257
 30
0.0
  0
SPLINE
  5
2B7
100
AcDbEntity
  8
0
100
AcDbSpline
 62
7
  6
CONTINUOUS
 70
0
 71
3
 72
10
 73
6
 74
0
 42
0.0000001
 43
0.0000001
 44
0.0000000001
 40
0.0
 40
0.0
 40
0.0
 40
0.0
 40
0.5224518705
 40
0.7692151111
 40
1.0
 40
1.0
 40
1.0
 40
1.0
 10
63.9915365713
 20
190.2761618684
 30
0.0
 10
62.2229146497
 20
190.1411030248
 30
0.0
 10
59.6108105944
 20
190.0255405297
 30
0.0
 10
56.2154180606
 20
190.0783520887
 30
0.0
 10
54.5962688019
 20
190.1769885337
 30
0.0
 10
53.8158189745
 20
190.2464577767
 30
0.0
  0
SPLINE
  5
2B8
100
AcDbEntity
  8
0
100
AcDbSpline
 62
7
  6
CONTINUOUS
 70
0
 71
3
 72
20
 73
16
 74
0
 42
0.0000001
 43
0.0000001
 44
0.0000000001
 40
0.0
 40
0.0
 40
0.0
 40
0.0
 40
0.1721890146
 40
0.3338794634
 40
0.4858156426
 40
0.6278342095
 40
0.7581469249
 40
0.8175821878
 40
0.8718570663
 40
0.9193236864
 40
0.9579730431
 40
0.9732421462
 40
0.985422
 40
0.9943689273
 40
1.0
 40
1.0
 40
1.0
 40
1.0
 10
81.3409784851
 20
121.0624567575
 30
0.0
 10
81.0138187536
 20
121.0552861394
 30
0.0
 10
80.3788839379
 20
120.9750942317
 30
0.0
 10
79.4992335927
 20
120.6771369266
 30
0.0
 10
78.7408913794
 20
120.2491896339
 30
0.0
 10
78.1152248008
 20
119.7347198386
 30
0.0
 10
77.6969278103
 20
119.259320902
 30
0.0
 10
77.4315722584
 20
118.8785913791
 30
0.0
 10
77.2743199179
 20
118.615433209
 30
0.0
 10
77.1524435134
 20
118.3779141506
 30
0.0
 10
77.0752689464
 20
118.2011755819
 30
0.0
 10
77.0312876608
 20
118.0835150855
 30
0.0
 10
77.009553168
 20
118.0177641807
 30
0.0
 10
76.9965465857
 20
117.9686933907
 30
0.0
 10
76.9915365713
 20
117.9411946288
 30
0.0
 10
76.9915365713
 20
117.9304930013
 30
0.0
  0
SPLINE
  5
2B9
100
AcDbEntity
  8
RUNDUNGEN
100
AcDbSpline
 62
7
  6
CONTINUOUS
 70
0
 71
3
 72
9
 73
5
 74
0
 42
0.0000001
 43
0.0000001
 44
0.0000000001
 40
0.0
 40
0.0
 40
0.0
 40
0.0
 40
0.2595291691
 40
1.0
 40
1.0
 40
1.0
 40
1.0
 10
168.5976353643
 20
183.9710851196
 30
0.0
 10
168.5919120262
 20
184.0152288558
 30
0.0
 10
168.5674757432
 20
184.1849890947
 30
0.0
 10
168.5330615856
 20
184.3534197583
 30
0.0
 10
168.5005520173
 20
184.4761904684
 30
0.0
  0
SPLINE
  5
2BA
100
AcDbEntity
  8
0
100
AcDbSpline
 62
7
  6
CONTINUOUS
 70
0
 71
3
 72
9
 73
5
 74
0
 42
0.0000001
 43
0.0000001
 44
0.0000000001
 40
0.0
 40
0.0
 40
0.0
 40
0.0
 40
0.5008812628
 40
1.0
 40
1.0
 40
1.0
 40
1.0
 10
118.1028136096
 20
207.0704567267
 30
0.0
 10
119.6221671303
 20
207.4162870992
 30
0.0
 10
122.6327677738
 20
208.2125819443
 30
0.0
 10
125.564116681
 20
209.2731174747
 30
0.0
 10
126.9915375316
 20
209.8842195764
 30
0.0
  0
SPLINE
  5
2BB
100
AcDbEntity
  8
0
100
AcDbSpline
 62
7
  6
CONTINUOUS
 70
0
 71
3
 72
20
 73
16
 74
0
 42
0.0000001
 43
0.0000001
 44
0.0000000001
 40
0.0
 40
0.0
 40
0.0
 40
0.0
 40
0.0730134339
 40
0.1449057588
 40
0.21530349
 40
0.2839312286
 40
0.3506551648
 40
0.4155826177
 40
0.4790061742
 40
0.5412316076
 40
0.6024450473
 40
0.6626968684
 40
0.7799340603
 40
0.8925194656
 40
1.0
 40
1.0
 40
1.0
 40
1.0
 10
126.9915375316
 20
209.8842195786
 30
0.0
 10
127.5753435288
 20
210.1341563889
 30
0.0
 10
128.749013352
 20
210.5964080757
 30
0.0
 10
130.5399984467
 20
211.1508262138
 30
0.0
 10
132.3400355339
 20
211.5230771241
 30
0.0
 10
134.1291962094
 20
211.6691302351
 30
0.0
 10
135.8747207815
 20
211.5491771514
 30
0.0
 10
137.5316334285
 20
211.1450115785
 30
0.0
 10
139.0560765285
 20
210.4733828588
 30
0.0
 10
140.4208708699
 20
209.578684315
 30
0.0
 10
141.6177336927
 20
208.5124017243
 30
0.0
 10
142.9784815921
 20
206.9383572624
 30
0.0
 10
144.2876247454
 20
204.7557036178
 30
0.0
 10
145.25613285
 20
201.9669605856
 30
0.0
 10
145.4920114509
 20
200.0477877341
 30
0.0
 10
145.491542317
 20
199.112942018
 30
0.0
  0
SPLINE
  5
2BC
100
AcDbEntity
  8
0
100
AcDbSpline
 62
7
  6
CONTINUOUS
 70
0
 71
3
 72
14
 73
10
 74
0
 42
0.0000001
 43
0.0000001
 44
0.0000000001
 40
0.0
 40
0.0
 40
0.0
 40
0.0
 40
0.2687263931
 40
0.3951384264
 40
0.5164611006
 40
0.6339832711
 40
0.7503999711
 40
0.8705004296
 40
1.0
 40
1.0
 40
1.0
 40
1.0
 10
109.197481607
 20
227.3264024714
 30
0.0
 10
109.8369541769
 20
226.3130312381
 30
0.0
 10
110.7842668702
 20
224.8266089297
 30
0.0
 10
111.9123446763
 20
222.8178886781
 30
0.0
 10
112.6259704926
 20
221.3524210179
 30
0.0
 10
113.2041085818
 20
219.8752653631
 30
0.0
 10
113.630727316
 20
218.3520920862
 30
0.0
 10
113.8917559319
 20
216.7376776799
 30
0.0
 10
113.9577882232
 20
215.6252084202
 30
0.0
 10
113.9754429934
 20
215.0480315423
 30
0.0
  0
SPLINE
  5
2BD
100
AcDbEntity
  8
0
100
AcDbSpline
 62
7
  6
CONTINUOUS
 70
0
 71
3
 72
9
 73
5
 74
0
 42
0.0000001
 43
0.0000001
 44
0.0000000001
 40
0.0
 40
0.0
 40
0.0
 40
0.0
 40
0.2462947896
 40
1.0
 40
1.0
 40
1.0
 40
1.0
 10
113.9754429934
 20
215.0480315423
 30
0.0
 10
113.9783414597
 20
214.9532737108
 30
0.0
 10
113.9881603936
 20
214.5684810163
 30
0.0
 10
113.9915365713
 20
214.1835415309
 30
0.0
 10
113.9915365713
 20
213.89343034
 30
0.0
  0
SPLINE
  5
2BE
100
AcDbEntity
  8
0
100
AcDbSpline
 62
7
  6
CONTINUOUS
 70
0
 71
3
 72
12
 73
8
 74
0
 42
0.0000001
 43
0.0000001
 44
0.0000000001
 40
0.0
 40
0.0
 40
0.0
 40
0.0
 40
0.2447193849
 40
0.4918224899
 40
0.7429424274
 40
0.8708793269
 40
1.0
 40
1.0
 40
1.0
 40
1.0
 10
114.1585512681
 20
202.0219532477
 30
0.0
 10
114.2052797771
 20
202.5763158262
 30
0.0
 10
114.4462984235
 20
203.6835214632
 30
0.0
 10
115.2343965426
 20
205.1996011384
 30
0.0
 10
116.2537801739
 20
206.2338766137
 30
0.0
 10
117.2587087746
 20
206.8155011893
 30
0.0
 10
117.8166000482
 20
207.0053097106
 30
0.0
 10
118.1028136096
 20
207.0704567267
 30
0.0
  0
SPLINE
  5
2BF
100
AcDbEntity
  8
0
100
AcDbSpline
 62
7
  6
CONTINUOUS
 70
0
 71
3
 72
11
 73
7
 74
0
 42
0.0000001
 43
0.0000001
 44
0.0000000001
 40
0.0
 40
0.0
 40
0.0
 40
0.0
 40
0.2449053983
 40
0.5
 40
0.7550946017
 40
1.0
 40
1.0
 40
1.0
 40
1.0
 10
103.1555139276
 20
121.1532885415
 30
0.0
 10
101.9148063385
 20
121.3464357795
 30
0.0
 10
99.3636868499
 20
121.6296297013
 30
0.0
 10
95.4915365713
 20
121.7687823535
 30
0.0
 10
91.6193862928
 20
121.6296297013
 30
0.0
 10
89.0682668041
 20
121.3464357795
 30
0.0
 10
87.8275592151
 20
121.1532885415
 30
0.0
  0
SPLINE
  5
2C0
100
AcDbEntity
  8
0
100
AcDbSpline
 62
7
  6
CONTINUOUS
 70
0
 71
3
 72
20
 73
16
 74
0
 42
0.0000001
 43
0.0000001
 44
0.0000000001
 40
0.0
 40
0.0
 40
0.0
 40
0.0
 40
0.1074805344
 40
0.2200659381
 40
0.3373031259
 40
0.3975549476
 40
0.4587683875
 40
0.5209938206
 40
0.5844173768
 40
0.649344829
 40
0.7160687648
 40
0.7846965044
 40
0.8550942376
 40
0.9269865635
 40
1.0
 40
1.0
 40
1.0
 40
1.0
 10
45.4915308257
 20
199.1129370257
 30
0.0
 10
45.4910612712
 20
200.0477829569
 30
0.0
 10
45.726939216
 20
201.9669563515
 30
0.0
 10
46.6954468296
 20
204.7557002263
 30
0.0
 10
48.004589664
 20
206.9383546998
 30
0.0
 10
49.3653375374
 20
208.5123997856
 30
0.0
 10
50.5622004091
 20
209.57868288
 30
0.0
 10
51.9269948596
 20
210.4733819401
 30
0.0
 10
53.4514381768
 20
211.1450111032
 30
0.0
 10
55.1083511406
 20
211.5491770112
 30
0.0
 10
56.8538761093
 20
211.6691302717
 30
0.0
 10
58.6430372298
 20
211.5230772064
 30
0.0
 10
60.4430747698
 20
211.1508262075
 30
0.0
 10
62.2340603154
 20
210.5964078972
 30
0.0
 10
63.407730426
 20
210.13415606
 30
0.0
 10
63.9915365713
 20
209.8842191664
 30
0.0
  0
SPLINE
  5
2C1
100
AcDbEntity
  8
0
100
AcDbSpline
 62
7
  6
CONTINUOUS
 70
0
 71
3
 72
9
 73
5
 74
0
 42
0.0000001
 43
0.0000001
 44
0.0000000001
 40
0.0
 40
0.0
 40
0.0
 40
0.0
 40
0.2595291691
 40
1.0
 40
1.0
 40
1.0
 40
1.0
 10
22.3854377784
 20
183.9710851196
 30
0.0
 10
22.3911611165
 20
184.0152288558
 30
0.0
 10
22.4155973995
 20
184.1849890947
 30
0.0
 10
22.4500115571
 20
184.3534197583
 30
0.0
 10
22.4825211254
 20
184.4761904684
 30
0.0
  0
SPLINE
  5
2C2
100
AcDbEntity
  8
0
100
AcDbSpline
 62
7
  6
CONTINUOUS
 70
0
 71
3
 72
12
 73
8
 74
0
 42
0.0000001
 43
0.0000001
 44
0.0000000001
 40
0.0
 40
0.0
 40
0.0
 40
0.0
 40
0.1291210731
 40
0.2570579887
 40
0.5081777561
 40
0.7552806485
 40
1.0
 40
1.0
 40
1.0
 40
1.0
 10
72.8802595423
 20
207.0704567246
 30
0.0
 10
73.1664739919
 20
207.0053095063
 30
0.0
 10
73.7243662009
 20
206.8155006539
 30
0.0
 10
74.7292948563
 20
206.2338750134
 30
0.0
 10
75.7486774122
 20
205.1995997714
 30
0.0
 10
76.5367748378
 20
203.6835208399
 30
0.0
 10
76.7777933716
 20
202.5763157548
 30
0.0
 10
76.8245218745
 20
202.0219532485
 30
0.0
  0
SPLINE
  5
2C3
100
AcDbEntity
  8
0
100
AcDbSpline
 62
7
  6
CONTINUOUS
 70
0
 71
3
 72
9
 73
5
 74
0
 42
0.0000001
 43
0.0000001
 44
0.0000000001
 40
0.0
 40
0.0
 40
0.0
 40
0.0
 40
0.2531263485
 40
1.0
 40
1.0
 40
1.0
 40
1.0
 10
76.9915365713
 20
213.89343034
 30
0.0
 10
76.9915365713
 20
213.9907779856
 30
0.0
 10
76.9927203594
 20
214.3753555437
 30
0.0
 10
76.9988281172
 20
214.7599398538
 30
0.0
 10
77.0076005732
 20
215.047039459
 30
0.0
  0
SPLINE
  5
2C4
100
AcDbEntity
  8
0
100
AcDbSpline
 62
7
  6
CONTINUOUS
 70
0
 71
3
 72
9
 73
5
 74
0
 42
0.0000001
 43
0.0000001
 44
0.0000000001
 40
0.0
 40
0.0
 40
0.0
 40
0.0
 40
0.4991186998
 40
1.0
 40
1.0
 40
1.0
 40
1.0
 10
63.9915365713
 20
209.8842191664
 30
0.0
 10
65.4189571751
 20
209.2731172202
 30
0.0
 10
68.3503057612
 20
208.2125818264
 30
0.0
 10
71.3609060763
 20
207.4162870846
 30
0.0
 10
72.8802595423
 20
207.0704567246
 30
0.0
  0
SPLINE
  5
2C5
100
AcDbEntity
  8
0
100
AcDbSpline
 62
7
  6
CONTINUOUS
 70
0
 71
3
 72
13
 73
9
 74
0
 42
0.0000001
 43
0.0000001
 44
0.0000000001
 40
0.0
 40
0.0
 40
0.0
 40
0.0
 40
0.0939282883
 40
0.1997350581
 40
0.316098704
 40
0.4413583787
 40
0.711997306
 40
1.0
 40
1.0
 40
1.0
 40
1.0
 10
110.0849828896
 20
165.8350750528
 30
0.0
 10
109.7260919283
 20
165.8350779259
 30
0.0
 10
108.9630537874
 20
165.8845529744
 30
0.0
 10
107.7658465369
 20
166.0459797896
 30
0.0
 10
106.4572059206
 20
166.2698892138
 30
0.0
 10
104.5322487585
 20
166.6239433764
 30
0.0
 10
101.9581843082
 20
167.0758855314
 30
0.0
 10
99.8367001905
 20
167.3296188978
 30
0.0
 10
98.7397913673
 20
167.4175880018
 30
0.0
  0
SPLINE
  5
2C6
100
AcDbEntity
  8
0
100
AcDbSpline
 62
7
  6
CONTINUOUS
 70
0
 71
3
 72
13
 73
9
 74
0
 42
0.0000001
 43
0.0000001
 44
0.0000000001
 40
0.0
 40
0.0
 40
0.0
 40
0.0
 40
0.2883924834
 40
0.5584076593
 40
0.6832676767
 40
0.7993975464
 40
0.9053483712
 40
1.0
 40
1.0
 40
1.0
 40
1.0
 10
91.3708477431
 20
167.3387689551
 30
0.0
 10
90.3581840706
 20
167.2372054194
 30
0.0
 10
88.4037912315
 20
166.9740902769
 30
0.0
 10
86.0307550664
 20
166.5457683979
 30
0.0
 10
84.2567223296
 20
166.2220797256
 30
0.0
 10
83.0488327262
 20
166.0209206821
 30
0.0
 10
81.9399739369
 20
165.8779750108
 30
0.0
 10
81.2321105348
 20
165.8350774489
 30
0.0
 10
80.8980826609
 20
165.8350750398
 30
0.0
  0
SPLINE
  5
2C7
100
AcDbEntity
  8
0
100
AcDbSpline
 62
7
  6
CONTINUOUS
 70
0
 71
3
 72
14
 73
10
 74
0
 42
0.0000001
 43
0.0000001
 44
0.0000000001
 40
0.0
 40
0.0
 40
0.0
 40
0.0
 40
0.1295034994
 40
0.2496060579
 40
0.3660226483
 40
0.4835436393
 40
0.6048647183
 40
0.7312753173
 40
1.0
 40
1.0
 40
1.0
 40
1.0
 10
77.0076005732
 20
215.047039459
 30
0.0
 10
77.0252381959
 20
215.624277221
 30
0.0
 10
77.0912276046
 20
216.7368581475
 30
0.0
 10
77.3521961314
 20
218.3514320203
 30
0.0
 10
77.7787829545
 20
219.874740582
 30
0.0
 10
78.3569178978
 20
221.3520106062
 30
0.0
 10
79.0705639927
 20
222.8175823172
 30
0.0
 10
80.1986996108
 20
224.826442049
 30
0.0
 10
81.146075627
 20
226.3129625591
 30
0.0
 10
81.7855915357
 20
227.3264024714
 30
0.0
  0
SPLINE
  5
2C8
100
AcDbEntity
  8
0
100
AcDbSpline
 62
7
  6
CONTINUOUS
 70
0
 71
3
 72
19
 73
15
 74
0
 42
0.0000001
 43
0.0000001
 44
0.0000000001
 40
0.0
 40
0.0
 40
0.0
 40
0.0
 40
0.1224207039
 40
0.2461862042
 40
0.3089376931
 40
0.372232101
 40
0.435983853
 40
0.5000000034
 40
0.5640161952
 40
0.6277679283
 40
0.6910623239
 40
0.753813825
 40
0.8775793223
 40
1.0
 40
1.0
 40
1.0
 40
1.0
 10
81.785591537
 20
227.3264007085
 30
0.0
 10
82.516663437
 20
228.4849293142
 30
0.0
 10
84.1924824242
 20
230.694367059
 30
0.0
 10
86.8409788561
 20
232.9694960745
 30
0.0
 10
89.2754442995
 20
234.3588334723
 30
0.0
 10
91.2546808296
 20
235.1495038701
 30
0.0
 10
93.3432893421
 20
235.6433139655
 30
0.0
 10
95.4915371628
 20
235.81153231
 30
0.0
 10
97.6397847743
 20
235.6433139048
 30
0.0
 10
99.7283933762
 20
235.1495036511
 30
0.0
 10
101.7076295414
 20
234.3588329451
 30
0.0
 10
104.1420950574
 20
232.9694957568
 30
0.0
 10
106.7905910943
 20
230.6943665216
 30
0.0
 10
108.4664098621
 20
228.4849290663
 30
0.0
 10
109.1974816056
 20
227.3264007085
 30
0.0
  0
SPLINE
  5
2C9
100
AcDbEntity
  8
DEFAULT_2
100
AcDbSpline
 62
8
  6
HIDDEN
 70
0
 71
3
 72
11
 73
7
 74
0
 42
0.0000001
 43
0.0000001
 44
0.0000000001
 40
0.0
 40
0.0
 40
0.0
 40
0.0
 40
0.2498753206
 40
0.4998360586
 40
0.7498808556
 40
1.0
 40
1.0
 40
1.0
 40
1.0
 10
309.2463288568
 20
102.272854473
 30
0.0
 10
310.6059717691
 20
102.8728934193
 30
0.0
 10
313.1912749966
 20
104.4034127116
 30
0.0
 10
316.4542539829
 20
107.4913248061
 30
0.0
 10
319.022473245
 20
111.1730732971
 30
0.0
 10
320.2609654127
 20
113.8957427387
 30
0.0
 10
320.769758521
 20
115.2936403148
 30
0.0
  0
SPLINE
  5
2CA
100
AcDbEntity
  8
DEFAULT_2
100
AcDbSpline
 62
8
  6
HIDDEN
 70
0
 71
3
 72
9
 73
5
 74
0
 42
0.0000001
 43
0.0000001
 44
0.0000000001
 40
0.0
 40
0.0
 40
0.0
 40
0.0
 40
0.2536571152
 40
1.0
 40
1.0
 40
1.0
 40
1.0
 10
284.8315518555
 20
115.6530025212
 30
0.0
 10
284.8063132744
 20
115.7864627612
 30
0.0
 10
284.7068286658
 20
116.3126087851
 30
0.0
 10
284.6087206102
 20
116.8390223626
 30
0.0
 10
284.5378363958
 20
117.2323298306
 30
0.0
  0
SPLINE
  5
2CB
100
AcDbEntity
  8
DEFAULT_2
100
AcDbSpline
 62
8
  6
HIDDEN
 70
0
 71
3
 72
9
 73
5
 74
0
 42
0.0000001
 43
0.0000001
 44
0.0000000001
 40
0.0
 40
0.0
 40
0.0
 40
0.0
 40
0.5000119416
 40
1.0
 40
1.0
 40
1.0
 40
1.0
 10
308.8734562922
 20
102.1141792901
 30
0.0
 10
308.0015092319
 20
101.7517736631
 30
0.0
 10
306.2004747265
 20
101.1565200362
 30
0.0
 10
304.3274369867
 20
100.852356901
 30
0.0
 10
303.3863429282
 20
100.7756346014
 30
0.0
  0
SPLINE
  5
2CC
100
AcDbEntity
  8
DEFAULT_2
100
AcDbSpline
 62
8
  6
HIDDEN
 70
0
 71
3
 72
15
 73
11
 74
0
 42
0.0000001
 43
0.0000001
 44
0.0000000001
 40
0.0
 40
0.0
 40
0.0
 40
0.0
 40
0.1249834948
 40
0.2499615006
 40
0.3749423472
 40
0.4999301922
 40
0.6249301369
 40
0.7499427633
 40
0.8749643271
 40
1.0
 40
1.0
 40
1.0
 40
1.0
 10
303.3863429282
 20
100.7756346014
 30
0.0
 10
302.3048729303
 20
100.7015011202
 30
0.0
 10
300.1225539845
 20
100.7548740544
 30
0.0
 10
296.9260379604
 20
101.4468312495
 30
0.0
 10
293.9158082676
 20
102.7283870569
 30
0.0
 10
291.1995265304
 20
104.5512739848
 30
0.0
 10
288.8673722106
 20
106.8446506417
 30
0.0
 10
286.988619432
 20
109.5215034927
 30
0.0
 10
285.6083054678
 20
112.4843615335
 30
0.0
 10
285.0330618969
 20
114.5874284148
 30
0.0
 10
284.8315518555
 20
115.6530025212
 30
0.0
  0
SPLINE
  5
2CD
100
AcDbEntity
  8
DEFAULT_2
100
AcDbSpline
 62
8
  6
HIDDEN
 70
0
 71
3
 72
11
 73
7
 74
0
 42
0.0000001
 43
0.0000001
 44
0.0000000001
 40
0.0
 40
0.0
 40
0.0
 40
0.0
 40
0.2500411099
 40
0.5000519648
 40
0.7500342667
 40
1.0
 40
1.0
 40
1.0
 40
1.0
 10
285.95580881
 20
127.8238624079
 30
0.0
 10
285.6486995396
 20
126.980086622
 30
0.0
 10
285.114692567
 20
125.2619062122
 30
0.0
 10
284.5894284839
 20
122.6147216861
 30
0.0
 10
284.3694218861
 20
119.9245127167
 30
0.0
 10
284.4430899151
 20
118.1249723933
 30
0.0
 10
284.5378363958
 20
117.2323298306
 30
0.0
  0
ELLIPSE
  5
2CE
100
AcDbEntity
  8
0
100
AcDbEllipse
 62
7
  6
CONTINUOUS
 10
113.8915365713
 20
312.2083
 30
0.0
 11
0.0
 21
20.0
 31
0.0
 40
0.0174550649
 41
-3.1415926536
 42
-0.0
  0
ELLIPSE
  5
2CF
100
AcDbEntity
  8
0
100
AcDbEllipse
 62
7
  6
CONTINUOUS
 10
77.0915365713
 20
312.2083
 30
0.0
 11
-0.0
 21
20.0
 31
0.0
 40
0.0174550649
 41
0.0
 42
3.1415926536
  0
ELLIPSE
  5
2D0
100
AcDbEntity
  8
0
100
AcDbEllipse
 62
7
  6
CONTINUOUS
 10
95.4915365713
 20
120.842494927
 30
0.0
 11
18.5
 21
-0.0
 31
0.0
 40
0.018458026
 41
0.6999179672
 42
1.1436567803
  0
ELLIPSE
  5
2D1
100
AcDbEntity
  8
0
100
AcDbEllipse
 62
7
  6
CONTINUOUS
 10
95.4915365713
 20
120.842494927
 30
0.0
 11
18.5
 21
-0.0
 31
0.0
 40
0.018458026
 41
1.9979358733
 42
2.4416746864
  0
ENDSEC
  0
SECTION
  2
OBJECTS
  0
DICTIONARY
  5
C
100
AcDbDictionary
280
0
281
1
  3
ACAD_GROUP
350
D
  3
ACAD_MLINESTYLE
350
17
  3
ACAD_LAYOUT
350
1A
  3
ACAD_PLOTSETTINGS
350
19
  3
ACAD_PLOTSTYLENAME
350
E
  0
DICTIONARY
  5
D
102
{ACAD_REACTORS
330
C
102
}
100
AcDbDictionary
280
0
281
1
  0
ACDBDICTIONARYWDFLT
  5
E
102
{ACAD_REACTORS
330
C
102
}
100
AcDbDictionary
281
1
  3
Normal
350
F
100
AcDbDictionaryWithDefault
340
F
  0
DICTIONARY
  5
17
102
{ACAD_REACTORS
330
C
102
}
100
AcDbDictionary
280
0
281
1
  3
Standard
350
18
  0
DICTIONARY
  5
19
102
{ACAD_REACTORS
330
C
102
}
100
AcDbDictionary
281
1
  0
DICTIONARY
  5
1A
102
{ACAD_REACTORS
330
C
102
}
100
AcDbDictionary
281
1
  3
Model
350
2D2
  3
Layout1
350
2D3
  0
ACDBPLACEHOLDER
  5
F
102
{ACAD_REACTORS
330
E
102
}
  0
MLINESTYLE
  5
18
102
{ACAD_REACTORS
330
17
102
}
100
AcDbMlineStyle
  2
STANDARD
 70
0
  3

 62
256
 51
90.0
 52
90.0
 71
2
 49
0.5
 62
256
  6
BYLAYER
 49
-0.5
 62
256
  6
BYLAYER
  0
LAYOUT
  5
2D2
102
{ACAD_REACTORS
330
1A
102
}
100
AcDbPlotSettings
  1

  2
none_device
  4
ISO_A3_(420.00_x_297.00_MM)
  6

 40
0.0
 41
0.0
 42
0.0
 43
0.0
 44
420.0
 45
297.0
 46
0.0
 47
0.0
 48
0.0
 49
0.0
140
0.0
141
0.0
142
1.0
143
1.0
 70
1024
 72
1
 73
0
 74
0
  7

 75
0
147
1.0
148
0.0
149
0.0
100
AcDbLayout
  1
Model
 70
0
 71
0
 10
0.0
 20
0.0
 11
420.0
 21
297.0
 12
0.0
 22
0.0
 32
0.0
 14
0.0
 24
0.0
 34
0.0
 15
0.0
 25
0.0
 35
0.0
146
0.0
 13
0.0
 23
0.0
 33
0.0
 16
1.0
 26
0.0
 36
0.0
 17
0.0
 27
1.0
 37
0.0
 76
0
330
20C
345
0
346
0
  0
LAYOUT
  5
2D3
102
{ACAD_REACTORS
330
1A
102
}
100
AcDbPlotSettings
  1

  2
none_device
  4
ISO_A3_(420.00_x_297.00_MM)
  6

 40
0.0
 41
0.0
 42
0.0
 43
0.0
 44
420.0
 45
297.0
 46
0.0
 47
0.0
 48
0.0
 49
0.0
140
0.0
141
0.0
142
1.0
143
1.0
 70
0
 72
1
 73
0
 74
0
  7

 75
0
147
1.0
148
0.0
149
0.0
100
AcDbLayout
  1
Layout1
 70
0
 71
1
 10
0.0
 20
0.0
 11
420.0
 21
297.0
 12
0.0
 22
0.0
 32
0.0
 14
0.0
 24
0.0
 34
0.0
 15
0.0
 25
0.0
 35
0.0
146
0.0
 13
0.0
 23
0.0
 33
0.0
 16
1.0
 26
0.0
 36
0.0
 17
0.0
 27
1.0
 37
0.0
 76
0
330
20D
345
0
346
0
  0
ENDSEC
  0
EOF
