999
DXF file: C:\Aktuell-Internet\CAD-Daten\2vmvk16.dxf
999
Pro/ENGINEER 2001400 by Parametric Technology Corporation
0
SECTION
2
HEADER
9
$ACADVER
1
AC1014
9
$EXTMAX
10
420.0000000000
20
297.0000000000
9
$EXTMIN
10
0.0000000000
20
0.0000000000
9
$LIMMIN
10
0.0000000000
20
0.0000000000
9
$LIMMAX
10
420.0000000000
20
297.0000000000
9
$VIEWCTR
10
210.0000000000
20
148.5000000000
9
$VIEWSIZE
40
297.0000000000
9
$CLAYER
8
0
9
$LTSCALE
40
23.1000000000
9
$CELTYPE
6
BYLAYER
9
$DIMSCALE
40
1
9
$DIMASZ
40
3.5000000000
9
$DIMEXO
40
2.6250000000
9
$DIMDLI
40
15.9600000000
9
$DIMEXE
40
7.5600000000
9
$DIMCEN
40
3.7800000000
9
$DIMLFAC
40
1.0000000000
9
$DIMTXT
40
3.5000000000
9
$DIMTOL
70
1
9
$DIMTFAC
40
0.6000000000
9
$DIMTP
40
0.0050000000
9
$DIMTM
40
0.0050000000
9
$HANDSEED
5
32A
0
ENDSEC
0
SECTION
2
CLASSES
0
ENDSEC
0
SECTION
2
TABLES
0
TABLE
2
VPORT
5
8
100
AcDbSymbolTable
70
2
0
VPORT
5
1F4
100
AcDbSymbolTableRecord
100
AcDbViewportTableRecord
2
*ACTIVE
70
0
10
0.0
20
0.0
11
1.0
21
1.0
12
210.0000000000
22
148.5000000000
13
0.0
23
0.0
14
1.0
24
1.0
15
0.0
25
0.0
16
0.0
26
0.0
36
1.0
17
0.0
27
0.0
37
0.0
40
297.0000000000
41
1.4141414141
42
50.0
43
0.0
44
0.0
50
0.0
51
0.0
71
0
72
100
73
1
74
1
75
0
76
0
77
0
78
0
0
ENDTAB
0
TABLE
2
LTYPE
5
5
100
AcDbSymbolTable
70
6
0
LTYPE
5
14
100
AcDbSymbolTableRecord
100
AcDbLinetypeTableRecord
2
BYBLOCK
70
0
3

72
65
73
0
40
0.0
0
LTYPE
5
15
100
AcDbSymbolTableRecord
100
AcDbLinetypeTableRecord
2
BYLAYER
70
0
3

72
65
73
0
40
0.0
0
LTYPE
5
16
100
AcDbSymbolTableRecord
100
AcDbLinetypeTableRecord
2
CONTINUOUS
70
64
3
Solid line
72
65
73
0
40
0
0
LTYPE
5
1F5
100
AcDbSymbolTableRecord
100
AcDbLinetypeTableRecord
2
CENTER
70
64
3
____ _ ____ _ ____ _ ____ _ ____ _ ____ _ ____
72
65
73
4
40
0.6
49
0.375
74
0
49
-0.075
74
0
49
0.075
74
0
49
-0.075
74
0
0
LTYPE
5
1F6
100
AcDbSymbolTableRecord
100
AcDbLinetypeTableRecord
2
HIDDEN
70
64
3
- - - - - - - - - - - - - - - - - - - -
72
65
73
2
40
0.2
49
0.1
74
0
49
-0.1
74
0
0
LTYPE
5
1F7
100
AcDbSymbolTableRecord
100
AcDbLinetypeTableRecord
2
PHANTOM
70
64
3
_____ _ _ _____ _ _ _____ _ _ _____
72
65
73
6
40
0.8
49
0.45
74
0
49
-0.05
74
0
49
0.1
74
0
49
-0.05
74
0
49
0.1
74
0
49
-0.05
74
0
0
LTYPE
5
1F8
100
AcDbSymbolTableRecord
100
AcDbLinetypeTableRecord
2
DOT
70
64
3
. . . . . . . . . . . . . . . . . . . .
72
65
73
2
40
0.2
49
0.1
74
0
49
-0.1
74
0
0
LTYPE
5
1F9
100
AcDbSymbolTableRecord
100
AcDbLinetypeTableRecord
2
DASHED
70
64
3
- - - - - - - - - - - - - - - - - - - -
72
65
73
2
40
0.2
49
0.1
74
0
49
-0.1
74
0
0
ENDTAB
0
TABLE
2
LAYER
5
2
100
AcDbSymbolTable
70
36
0
LAYER
5
10
100
AcDbSymbolTableRecord
100
AcDbLayerTableRecord
2
0
70
0
62
7
6
CONTINUOUS
0
LAYER
5
1FA
100
AcDbSymbolTableRecord
100
AcDbLayerTableRecord
2
DEFAULT_1
70
0
62
7
6
CENTER
0
LAYER
5
1FB
100
AcDbSymbolTableRecord
100
AcDbLayerTableRecord
2
DEFAULT_2
70
0
62
8
6
HIDDEN
0
LAYER
5
1FC
100
AcDbSymbolTableRecord
100
AcDbLayerTableRecord
2
DEFAULT_3
70
0
62
7
6
PHANTOM
0
LAYER
5
1FD
100
AcDbSymbolTableRecord
100
AcDbLayerTableRecord
2
ZEICHNUNGSBEMASSUNGEN
70
0
62
7
6
CONTINUOUS
0
ENDTAB
0
TABLE
2
STYLE
5
3
100
AcDbSymbolTable
70
1
0
STYLE
5
11
100
AcDbSymbolTableRecord
100
AcDbTextStyleTableRecord
2
STANDARD
70
0
40
0.0
41
1.0
50
0.0
71
0
42
0.0
3
txt
4

0
STYLE
5
1FE
100
AcDbSymbolTableRecord
100
AcDbTextStyleTableRecord
2
TEXTSTYLE_0
70
0
40
0.0
41
0.80
50
0.0
71
0
42
0.2
3
txt
4

0
ENDTAB
0
TABLE
2
VIEW
5
6
100
AcDbSymbolTable
70
0
0
ENDTAB
0
TABLE
2
UCS
5
7
100
AcDbSymbolTable
70
0
0
ENDTAB
0
TABLE
2
APPID
5
9
100
AcDbSymbolTable
70
1
0
APPID
5
1FF
100
AcDbSymbolTableRecord
100
AcDbRegAppTableRecord
2
ACAD
70
0
0
ENDTAB
0
TABLE
2
DIMSTYLE
5
A
100
AcDbSymbolTable
70
1
0
DIMSTYLE
105
200
100
AcDbSymbolTableRecord
100
AcDbDimStyleTableRecord
2
STANDARD
70
0
3

4

5

6

7

40
1.0
41
0.18
42
0.0625
43
0.38
44
0.18
45
0.0
46
0.0
47
0.0050000000
48
0.0050000000
140
3.5000000000
141
0.09
142
0.0
143
25.4
144
1.0000000000
145
0.0
146
0.6000000000
147
0.09
71
1
72
0
73
1
74
1
75
0
76
0
77
0
78
0
170
0
171
2
172
0
173
0
174
0
175
0
176
0
177
0
178
0
270
2
271
3
272
4
273
2
274
2
340
11
275
0
280
0
281
0
282
0
283
1
284
0
285
0
286
0
287
3
288
0
0
ENDTAB
0
TABLE
2
BLOCK_RECORD
5
1
100
AcDbSymbolTable
70
0
0
BLOCK_RECORD
5
1B
100
AcDbSymbolTableRecord
100
AcDbBlockTableRecord
2
*MODEL_SPACE
0
BLOCK_RECORD
5
1C
100
AcDbSymbolTableRecord
100
AcDbBlockTableRecord
2
*PAPER_SPACE
0
ENDTAB
0
ENDSEC
0
SECTION
2
BLOCKS
0
BLOCK
5
1E
100
AcDbEntity
8
0
100
AcDbBlockBegin
2
*MODEL_SPACE
70
0
10
0.0
20
0.0
30
0.0
3
*MODEL_SPACE
1

0
ENDBLK
5
1F
100
AcDbEntity
8
0
100
AcDbBlockEnd
0
BLOCK
5
20
100
AcDbEntity
8
0
100
AcDbBlockBegin
2
*PAPER_SPACE
70
0
10
0.0
20
0.0
30
0.0
3
*PAPER_SPACE
1

0
ENDBLK
5
21
100
AcDbEntity
8
0
100
AcDbBlockEnd
0
ENDSEC
0
SECTION
2
ENTITIES
0
TEXT
5
201
100
AcDbEntity
8
0
100
AcDbText
62
2
6
CONTINUOUS
10
146.4628248357
20
76.8312549752
7
TEXTSTYLE_0
40
8.0000000000
1
RUD
50
90.0000000000
72
5
11
146.4628248357
21
96.6407785958
100
AcDbText
0
TEXT
5
202
100
AcDbEntity
8
0
100
AcDbText
62
2
6
CONTINUOUS
10
157.7345669744
20
121.9182235296
7
TEXTSTYLE_0
40
8.0000000000
1
VMVK 16
50
90.0000000000
72
5
11
157.7345669744
21
165.5372707327
100
AcDbText
0
TEXT
5
203
100
AcDbEntity
8
0
100
AcDbText
62
2
6
CONTINUOUS
10
261.7814174846
20
211.6586320947
7
TEXTSTYLE_0
40
8.0000000000
1
RUD
50
90.0000000000
72
5
11
261.7814174846
21
231.4681557153
100
AcDbText
0
TEXT
5
204
100
AcDbEntity
8
0
100
AcDbText
62
2
6
CONTINUOUS
10
338.5159697359
20
189.9822049050
7
TEXTSTYLE_0
40
8.0000000000
1
VMVK 16
50
90.0000000000
72
5
11
338.5159697359
21
233.6012521081
100
AcDbText
0
LINE
5
205
100
AcDbEntity
8
0
100
AcDbLine
62
7
6
CONTINUOUS
10
0.0000000000
20
0.0000000000
11
0.0000000000
21
297.0000000000
0
LINE
5
206
100
AcDbEntity
8
0
100
AcDbLine
62
7
6
CONTINUOUS
10
0.0000000000
20
0.0000000000
11
420.0000000000
21
0.0000000000
0
LINE
5
207
100
AcDbEntity
8
0
100
AcDbLine
62
7
6
CONTINUOUS
10
0.0000000000
20
297.0000000000
11
420.0000000000
21
297.0000000000
0
LINE
5
208
100
AcDbEntity
8
0
100
AcDbLine
62
7
6
CONTINUOUS
10
420.0000000000
20
0.0000000000
11
420.0000000000
21
297.0000000000
0
LINE
5
209
100
AcDbEntity
8
0
100
AcDbLine
62
7
6
CONTINUOUS
10
89.0175806951
20
96.4761126259
11
101.5965315356
21
61.9157292313
0
LINE
5
20A
100
AcDbEntity
8
DEFAULT_2
100
AcDbLine
62
8
6
HIDDEN
10
111.1799395480
20
73.0102284378
11
96.6676513052
21
112.8824126895
0
LINE
5
20B
100
AcDbEntity
8
DEFAULT_2
100
AcDbLine
62
8
6
HIDDEN
10
90.6456462412
20
233.9580000346
11
90.6456462412
21
232.8790314721
0
LINE
5
20C
100
AcDbEntity
8
DEFAULT_2
100
AcDbLine
62
8
6
HIDDEN
10
93.0456462412
20
233.9554999370
11
93.0456462412
21
257.6902550648
0
LINE
5
20D
100
AcDbEntity
8
0
100
AcDbLine
62
7
6
CONTINUOUS
10
163.5478174127
20
129.0426010924
11
164.2085994965
21
129.0426010924
0
LINE
5
20E
100
AcDbEntity
8
DEFAULT_2
100
AcDbLine
62
8
6
HIDDEN
10
163.4958814732
20
129.2468564051
11
164.1561935817
21
129.2468564051
0
LINE
5
20F
100
AcDbEntity
8
DEFAULT_2
100
AcDbLine
62
8
6
HIDDEN
10
163.3436830720
20
129.8596223431
11
164.0026217763
21
129.8596223431
0
LINE
5
210
100
AcDbEntity
8
DEFAULT_2
100
AcDbLine
62
8
6
HIDDEN
10
163.2941492671
20
130.0638777094
11
163.9526422265
21
130.0638777094
0
LINE
5
211
100
AcDbEntity
8
DEFAULT_2
100
AcDbLine
62
8
6
HIDDEN
10
163.2452129633
20
130.2681330042
11
163.9032661490
21
130.2681330042
0
LINE
5
212
100
AcDbEntity
8
DEFAULT_2
100
AcDbLine
62
8
6
HIDDEN
10
163.1491280817
20
130.6766435938
11
163.8063195000
21
130.6766435938
0
LINE
5
213
100
AcDbEntity
8
DEFAULT_2
100
AcDbLine
62
8
6
HIDDEN
10
163.0094527799
20
131.2894096213
11
163.6653955122
21
131.2894096213
0
LINE
5
214
100
AcDbEntity
8
DEFAULT_2
100
AcDbLine
62
8
6
HIDDEN
10
162.9192909432
20
131.6979202109
11
163.5744301639
21
131.6979202109
0
LINE
5
215
100
AcDbEntity
8
DEFAULT_2
100
AcDbLine
62
8
6
HIDDEN
10
162.8750932791
20
131.9021755057
11
163.5298393374
21
131.9021755057
0
LINE
5
216
100
AcDbEntity
8
DEFAULT_2
100
AcDbLine
62
8
6
HIDDEN
10
162.7884592121
20
132.3106860953
11
163.4424359863
21
132.3106860953
0
LINE
5
217
100
AcDbEntity
8
DEFAULT_2
100
AcDbLine
62
8
6
HIDDEN
10
162.7460207591
20
132.5149413901
11
163.3996213549
21
132.5149413901
0
LINE
5
218
100
AcDbEntity
8
DEFAULT_2
100
AcDbLine
62
8
6
HIDDEN
10
162.7041666285
20
132.7191969710
11
163.3573966510
21
132.7191969710
0
LINE
5
219
100
AcDbEntity
8
DEFAULT_2
100
AcDbLine
62
8
6
HIDDEN
10
162.6222077044
20
133.1277075606
11
163.2747132898
21
133.1277075606
0
LINE
5
21A
100
AcDbEntity
8
DEFAULT_2
100
AcDbLine
62
8
6
HIDDEN
10
162.5425746921
20
133.5362181502
11
163.1943779435
21
133.5362181502
0
LINE
5
21B
100
AcDbEntity
8
DEFAULT_2
100
AcDbLine
62
8
6
HIDDEN
10
162.5036280692
20
133.7404734450
11
163.1550883782
21
133.7404734450
0
LINE
5
21C
100
AcDbEntity
8
DEFAULT_2
100
AcDbLine
62
8
6
HIDDEN
10
162.4652601545
20
133.9447287398
11
163.1163829713
21
133.9447287398
0
LINE
5
21D
100
AcDbEntity
8
DEFAULT_2
100
AcDbLine
62
8
6
HIDDEN
10
162.4274700572
20
134.1489840346
11
163.0782608074
21
134.1489840346
0
LINE
5
21E
100
AcDbEntity
8
DEFAULT_2
100
AcDbLine
62
8
6
HIDDEN
10
162.3902569012
20
134.3532393294
11
163.0407209868
21
134.3532393294
0
LINE
5
21F
100
AcDbEntity
8
DEFAULT_2
100
AcDbLine
62
8
6
HIDDEN
10
162.3536198257
20
134.5574946242
11
163.0037626252
21
134.5574946242
0
LINE
5
220
100
AcDbEntity
8
DEFAULT_2
100
AcDbLine
62
8
6
HIDDEN
10
162.3175579849
20
134.7617499190
11
162.9673848541
21
134.7617499190
0
LINE
5
221
100
AcDbEntity
8
DEFAULT_2
100
AcDbLine
62
8
6
HIDDEN
10
162.2820705480
20
134.9660052138
11
162.9315868198
21
134.9660052138
0
LINE
5
222
100
AcDbEntity
8
DEFAULT_2
100
AcDbLine
62
8
6
HIDDEN
10
162.2471566987
20
135.1702605086
11
162.8963676844
21
135.1702605086
0
LINE
5
223
100
AcDbEntity
8
DEFAULT_2
100
AcDbLine
62
8
6
HIDDEN
10
162.1790465722
20
135.5787710982
11
162.8276628329
21
135.5787710982
0
LINE
5
224
100
AcDbEntity
8
DEFAULT_2
100
AcDbLine
62
8
6
HIDDEN
10
162.1458487359
20
135.7830263930
11
162.7941755156
21
135.7830263930
0
LINE
5
225
100
AcDbEntity
8
DEFAULT_2
100
AcDbLine
62
8
6
HIDDEN
10
162.1132213688
20
135.9872816878
11
162.7612638949
21
135.9872816878
0
LINE
5
226
100
AcDbEntity
8
DEFAULT_2
100
AcDbLine
62
8
6
HIDDEN
10
162.0496749950
20
136.3957928496
11
162.6971646152
21
136.3957928496
0
LINE
5
227
100
AcDbEntity
8
DEFAULT_2
100
AcDbLine
62
8
6
HIDDEN
10
162.0187546329
20
136.6000481444
11
162.6659755629
21
136.6000481444
0
LINE
5
228
100
AcDbEntity
8
DEFAULT_2
100
AcDbLine
62
8
6
HIDDEN
10
161.9586159619
20
137.0085587340
11
162.6053149430
21
137.0085587340
0
LINE
5
229
100
AcDbEntity
8
DEFAULT_2
100
AcDbLine
62
8
6
HIDDEN
10
161.9293962929
20
137.2128140288
11
162.5758419789
21
137.2128140288
0
LINE
5
22A
100
AcDbEntity
8
DEFAULT_2
100
AcDbLine
62
8
6
HIDDEN
10
161.9007421844
20
137.4170693236
11
162.5469396714
21
137.4170693236
0
LINE
5
22B
100
AcDbEntity
8
DEFAULT_2
100
AcDbLine
62
8
6
HIDDEN
10
161.8726529908
20
137.6213246184
11
162.5186073578
21
137.6213246184
0
LINE
5
22C
100
AcDbEntity
8
DEFAULT_2
100
AcDbLine
62
8
6
HIDDEN
10
161.8451280802
20
137.8255799132
11
162.4908443894
21
137.8255799132
0
LINE
5
22D
100
AcDbEntity
8
DEFAULT_2
100
AcDbLine
62
8
6
HIDDEN
10
161.7659329310
20
138.4383457976
11
162.4109652781
21
138.4383457976
0
LINE
5
22E
100
AcDbEntity
8
0
100
AcDbLine
62
7
6
CONTINUOUS
10
161.7406591044
20
138.6426010924
11
162.3854734824
21
138.6426010924
0
LINE
5
22F
100
AcDbEntity
8
0
100
AcDbLine
62
7
6
CONTINUOUS
10
161.3163201792
20
143.2903573258
11
161.9574969002
21
143.2903573258
0
LINE
5
230
100
AcDbEntity
8
DEFAULT_2
100
AcDbLine
62
8
6
HIDDEN
10
161.3042567846
20
143.4946126384
11
161.9453306942
21
143.4946126384
0
LINE
5
231
100
AcDbEntity
8
DEFAULT_2
100
AcDbLine
62
8
6
HIDDEN
10
161.2817848316
20
143.9031232817
11
161.9226673103
21
143.9031232817
0
LINE
5
232
100
AcDbEntity
8
DEFAULT_2
100
AcDbLine
62
8
6
HIDDEN
10
161.2522104125
20
144.5158892376
11
161.8928411317
21
144.5158892376
0
LINE
5
233
100
AcDbEntity
8
DEFAULT_2
100
AcDbLine
62
8
6
HIDDEN
10
161.2434536725
20
144.7201445324
11
161.8840098859
21
144.7201445324
0
LINE
5
234
100
AcDbEntity
8
DEFAULT_2
100
AcDbLine
62
8
6
HIDDEN
10
161.2275911242
20
145.1286552651
11
161.8680124171
21
145.1286552651
0
LINE
5
235
100
AcDbEntity
8
DEFAULT_2
100
AcDbLine
62
8
6
HIDDEN
10
161.2139287017
20
145.5371658547
11
161.8542338333
21
145.5371658547
0
LINE
5
236
100
AcDbEntity
8
DEFAULT_2
100
AcDbLine
62
8
6
HIDDEN
10
161.2079221571
20
145.7414211495
11
161.8481762329
21
145.7414211495
0
LINE
5
237
100
AcDbEntity
8
DEFAULT_2
100
AcDbLine
62
8
6
HIDDEN
10
161.1893908526
20
146.5584423287
11
161.8294874634
21
146.5584423287
0
LINE
5
238
100
AcDbEntity
8
DEFAULT_2
100
AcDbLine
62
8
6
HIDDEN
10
115.3524319985
20
127.0396182109
11
132.2289872278
21
80.6716638001
0
LINE
5
239
100
AcDbEntity
8
DEFAULT_2
100
AcDbLine
62
8
6
HIDDEN
10
161.1785835453
20
147.5797190888
11
161.8185883597
21
147.5797190888
0
LINE
5
23A
100
AcDbEntity
8
DEFAULT_2
100
AcDbLine
62
8
6
HIDDEN
10
161.1781036142
20
147.9882296784
11
161.8181043527
21
147.9882296784
0
LINE
5
23B
100
AcDbEntity
8
DEFAULT_2
100
AcDbLine
62
8
6
HIDDEN
10
161.1798195079
20
148.3967402680
11
161.8198348191
21
148.3967402680
0
LINE
5
23C
100
AcDbEntity
8
DEFAULT_2
100
AcDbLine
62
8
6
HIDDEN
10
161.1837313750
20
148.8052508576
11
161.8237799114
21
148.8052508576
0
LINE
5
23D
100
AcDbEntity
8
DEFAULT_2
100
AcDbLine
62
8
6
HIDDEN
10
161.1865108972
20
149.0095061524
11
161.8265830433
21
149.0095061524
0
LINE
5
23E
100
AcDbEntity
8
DEFAULT_2
100
AcDbLine
62
8
6
HIDDEN
10
161.1898395548
20
149.2137614472
11
161.8299399774
21
149.2137614472
0
LINE
5
23F
100
AcDbEntity
8
DEFAULT_2
100
AcDbLine
62
8
6
HIDDEN
10
161.1937174200
20
149.4180167420
11
161.8338507878
21
149.4180167420
0
LINE
5
240
100
AcDbEntity
8
DEFAULT_2
100
AcDbLine
62
8
6
HIDDEN
10
161.1981445769
20
149.6222720368
11
161.8383155606
21
149.6222720368
0
LINE
5
241
100
AcDbEntity
8
DEFAULT_2
100
AcDbLine
62
8
6
HIDDEN
10
161.2031211215
20
149.8265273316
11
161.8433343943
21
149.8265273316
0
LINE
5
242
100
AcDbEntity
8
DEFAULT_2
100
AcDbLine
62
8
6
HIDDEN
10
161.2086471618
20
150.0307826264
11
161.8489073997
21
150.0307826264
0
LINE
5
243
100
AcDbEntity
8
DEFAULT_2
100
AcDbLine
62
8
6
HIDDEN
10
143.9048425182
20
150.3769804418
11
143.9075591096
21
150.3769804418
0
LINE
5
244
100
AcDbEntity
8
DEFAULT_2
100
AcDbLine
62
8
6
HIDDEN
10
161.2213482211
20
150.4392932160
11
161.8617164300
21
150.4392932160
0
LINE
5
245
100
AcDbEntity
8
DEFAULT_2
100
AcDbLine
62
8
6
HIDDEN
10
161.2285235367
20
150.6435490830
11
161.8689527588
21
150.6435490830
0
LINE
5
246
100
AcDbEntity
8
DEFAULT_2
100
AcDbLine
62
8
6
HIDDEN
10
161.2445244389
20
151.0520596726
11
161.8850897619
21
151.0520596726
0
LINE
5
247
100
AcDbEntity
8
DEFAULT_2
100
AcDbLine
62
8
6
HIDDEN
10
161.2533503926
20
151.2563149674
11
161.8939908124
21
151.2563149674
0
LINE
5
248
100
AcDbEntity
8
DEFAULT_2
100
AcDbLine
62
8
6
HIDDEN
10
161.2627269332
20
151.4605702622
11
161.9034471541
21
151.4605702622
0
LINE
5
249
100
AcDbEntity
8
DEFAULT_2
100
AcDbLine
62
8
6
HIDDEN
10
161.2726542649
20
151.6648255570
11
161.9134589962
21
151.6648255570
0
LINE
5
24A
100
AcDbEntity
8
DEFAULT_2
100
AcDbLine
62
8
6
HIDDEN
10
161.2831326038
20
151.8690808518
11
161.9240265605
21
151.8690808518
0
LINE
5
24B
100
AcDbEntity
8
DEFAULT_2
100
AcDbLine
62
8
6
HIDDEN
10
161.2941621781
20
152.0733361466
11
161.9351500810
21
152.0733361466
0
LINE
5
24C
100
AcDbEntity
8
DEFAULT_2
100
AcDbLine
62
8
6
HIDDEN
10
161.3057432282
20
152.2775914414
11
161.9468298044
21
152.2775914414
0
LINE
5
24D
100
AcDbEntity
8
DEFAULT_2
100
AcDbLine
62
8
6
HIDDEN
10
161.3305607784
20
152.6861020310
11
161.9718589088
21
152.6861020310
0
LINE
5
24E
100
AcDbEntity
8
0
100
AcDbLine
62
7
6
CONTINUOUS
10
161.3437978203
20
152.8903573258
11
161.9852088455
21
152.8903573258
0
LINE
5
24F
100
AcDbEntity
8
0
100
AcDbLine
62
7
6
CONTINUOUS
10
122.6456462412
20
150.3441715108
11
122.6456462412
21
196.6925620714
0
LINE
5
250
100
AcDbEntity
8
DEFAULT_1
100
AcDbLine
62
2
6
CENTER
10
122.6456462412
20
44.1769804418
11
122.6456462412
21
150.3441715108
0
LINE
5
251
100
AcDbEntity
8
DEFAULT_1
100
AcDbLine
62
2
6
CENTER
10
122.6456462412
20
196.6925620714
11
122.6456462412
21
264.5769804418
0
LINE
5
252
100
AcDbEntity
8
DEFAULT_2
100
AcDbLine
62
8
6
HIDDEN
10
131.5425127069
20
179.5769804418
11
131.5425127069
21
178.7769804418
0
LINE
5
253
100
AcDbEntity
8
DEFAULT_2
100
AcDbLine
62
8
6
HIDDEN
10
145.4048809772
20
169.9769804418
11
164.4343990793
21
169.9769804418
0
LINE
5
254
100
AcDbEntity
8
DEFAULT_2
100
AcDbLine
62
8
6
HIDDEN
10
134.5593993305
20
135.0840406933
11
141.7173721080
21
115.4176721181
0
LINE
5
255
100
AcDbEntity
8
DEFAULT_2
100
AcDbLine
62
8
6
HIDDEN
10
163.9885499771
20
188.3769804418
11
142.0751492113
21
188.3769804418
0
LINE
5
256
100
AcDbEntity
8
0
100
AcDbLine
62
7
6
CONTINUOUS
10
109.3198749615
20
220.9822357109
11
68.7472493744
21
246.8298488753
0
LINE
5
257
100
AcDbEntity
8
0
100
AcDbLine
62
7
6
CONTINUOUS
10
160.9540180347
20
91.0894527278
11
142.0387483207
21
58.3668247011
0
LINE
5
258
100
AcDbEntity
8
DEFAULT_2
100
AcDbLine
62
8
6
HIDDEN
10
101.8456462412
20
232.6069804418
11
110.2312882173
21
232.6069804418
0
LINE
5
259
100
AcDbEntity
8
DEFAULT_2
100
AcDbLine
62
8
6
HIDDEN
10
90.6456462412
20
233.9580000346
11
93.0456462412
21
233.9580000346
0
LINE
5
25A
100
AcDbEntity
8
0
100
AcDbLine
62
7
6
CONTINUOUS
10
74.6330518438
20
261.4179079031
11
112.1385938636
21
253.8248638625
0
LINE
5
25B
100
AcDbEntity
8
0
100
AcDbLine
62
7
6
CONTINUOUS
10
258.5712867531
20
252.8142924612
11
265.5172355567
21
257.6208381373
0
LINE
5
25C
100
AcDbEntity
8
0
100
AcDbLine
62
7
6
CONTINUOUS
10
267.8270684092
20
47.1769804418
11
276.5136676408
21
47.1769804418
0
LINE
5
25D
100
AcDbEntity
8
0
100
AcDbLine
62
7
6
CONTINUOUS
10
314.2405923450
20
47.1769804418
11
322.9271915766
21
47.1769804418
0
LINE
5
25E
100
AcDbEntity
8
0
100
AcDbLine
62
7
6
CONTINUOUS
10
250.8606495935
20
243.3778750652
11
250.8604301804
21
243.3774665501
0
LINE
5
25F
100
AcDbEntity
8
0
100
AcDbLine
62
7
6
CONTINUOUS
10
295.7771299929
20
80.0685498485
11
294.9771299929
21
80.0685498485
0
LINE
5
260
100
AcDbEntity
8
0
100
AcDbLine
62
7
6
CONTINUOUS
10
304.5771299929
20
98.2826344101
11
286.1771299929
21
98.2826344101
0
LINE
5
261
100
AcDbEntity
8
0
100
AcDbLine
62
7
6
CONTINUOUS
10
248.1771299967
20
231.1096586106
11
248.1771299929
21
178.8114607564
0
LINE
5
262
100
AcDbEntity
8
DEFAULT_2
100
AcDbLine
62
8
6
HIDDEN
10
295.7771299929
20
103.5254545366
11
294.9771299929
21
103.5254545366
0
LINE
5
263
100
AcDbEntity
8
0
100
AcDbLine
62
7
6
CONTINUOUS
10
286.1771299929
20
112.8824126895
11
276.1771299929
21
112.8824126895
0
LINE
5
264
100
AcDbEntity
8
0
100
AcDbLine
62
7
6
CONTINUOUS
10
304.5771299929
20
112.8824126895
11
314.5771299929
21
112.8824126895
0
LINE
5
265
100
AcDbEntity
8
DEFAULT_2
100
AcDbLine
62
8
6
HIDDEN
10
295.7771299929
20
115.4176721181
11
294.9771299929
21
115.4176721181
0
LINE
5
266
100
AcDbEntity
8
0
100
AcDbLine
62
7
6
CONTINUOUS
10
302.6302129827
20
116.2826344101
11
288.1240470339
21
116.2826344101
0
LINE
5
267
100
AcDbEntity
8
0
100
AcDbLine
62
7
6
CONTINUOUS
10
252.9956382876
20
142.2883347472
11
248.4885517932
21
174.3579215256
0
LINE
5
268
100
AcDbEntity
8
0
100
AcDbLine
62
7
6
CONTINUOUS
10
263.9162109314
20
187.1769804418
11
263.9162109314
21
174.3769804418
0
LINE
5
269
100
AcDbEntity
8
DEFAULT_2
100
AcDbLine
62
8
6
HIDDEN
10
264.9771299929
20
92.6768355702
11
264.9771299929
21
118.3171360337
0
LINE
5
26A
100
AcDbEntity
8
DEFAULT_2
100
AcDbLine
62
8
6
HIDDEN
10
270.0111250759
20
129.2468564051
11
270.8622618154
21
129.0426010924
0
LINE
5
26B
100
AcDbEntity
8
DEFAULT_2
100
AcDbLine
62
8
6
HIDDEN
10
270.1813500861
20
130.2681330042
11
270.6920329090
21
130.0638777094
0
LINE
5
26C
100
AcDbEntity
8
DEFAULT_2
100
AcDbLine
62
8
6
HIDDEN
10
269.1599844402
20
129.8596223431
11
270.0111250759
21
129.2468564051
0
LINE
5
26D
100
AcDbEntity
8
DEFAULT_2
100
AcDbLine
62
8
6
HIDDEN
10
269.6706672632
20
130.6766435938
11
270.1813500861
21
130.2681330042
0
LINE
5
26E
100
AcDbEntity
8
DEFAULT_2
100
AcDbLine
62
8
6
HIDDEN
10
272.3943102841
20
133.9447287398
11
272.9049931071
21
133.5362181502
0
LINE
5
26F
100
AcDbEntity
8
DEFAULT_2
100
AcDbLine
62
8
6
HIDDEN
10
272.9049931071
20
133.5362181502
11
273.2454470236
21
133.1277075606
0
LINE
5
270
100
AcDbEntity
8
DEFAULT_2
100
AcDbLine
62
8
6
HIDDEN
10
268.6493016173
20
130.6766435938
11
269.1599844402
21
129.8596223431
0
LINE
5
271
100
AcDbEntity
8
DEFAULT_2
100
AcDbLine
62
8
6
HIDDEN
10
269.3302133466
20
131.2894096213
11
269.6706672632
21
130.6766435938
0
LINE
5
272
100
AcDbEntity
8
DEFAULT_2
100
AcDbLine
62
8
6
HIDDEN
10
268.3088477008
20
131.6979202109
11
268.6493016173
21
130.6766435938
0
LINE
5
273
100
AcDbEntity
8
DEFAULT_2
100
AcDbLine
62
8
6
HIDDEN
10
269.1599844402
20
131.9021755057
11
269.3302133466
21
131.2894096213
0
LINE
5
274
100
AcDbEntity
8
0
100
AcDbLine
62
7
6
CONTINUOUS
10
266.9771299929
20
179.5769804418
11
266.9771299929
21
178.7769804418
0
LINE
5
275
100
AcDbEntity
8
DEFAULT_2
100
AcDbLine
62
8
6
HIDDEN
10
268.3088477008
20
132.7191969710
11
268.3088477008
21
131.6979202109
0
LINE
5
276
100
AcDbEntity
8
DEFAULT_2
100
AcDbLine
62
8
6
HIDDEN
10
269.1599844402
20
132.5149413901
11
269.1599844402
21
131.9021755057
0
LINE
5
277
100
AcDbEntity
8
DEFAULT_2
100
AcDbLine
62
8
6
HIDDEN
10
270.8622618154
20
129.0426010924
11
271.7133985548
21
129.0426010924
0
LINE
5
278
100
AcDbEntity
8
DEFAULT_2
100
AcDbLine
62
8
6
HIDDEN
10
270.6920329090
20
130.0638777094
11
271.8836274612
21
130.0638777094
0
LINE
5
279
100
AcDbEntity
8
DEFAULT_2
100
AcDbLine
62
8
6
HIDDEN
10
271.7133985548
20
135.1702605086
11
272.5645391905
21
134.9660052138
0
LINE
5
27A
100
AcDbEntity
8
DEFAULT_2
100
AcDbLine
62
8
6
HIDDEN
10
271.8836274612
20
134.1489840346
11
272.3943102841
21
133.9447287398
0
LINE
5
27B
100
AcDbEntity
8
DEFAULT_2
100
AcDbLine
62
8
6
HIDDEN
10
271.8836274612
20
137.6213246184
11
272.3943102841
21
137.4170693236
0
LINE
5
27C
100
AcDbEntity
8
DEFAULT_2
100
AcDbLine
62
8
6
HIDDEN
10
272.5645391905
20
138.4383457976
11
273.4156759300
21
137.8255799132
0
LINE
5
27D
100
AcDbEntity
8
DEFAULT_2
100
AcDbLine
62
8
6
HIDDEN
10
272.5645391905
20
134.9660052138
11
273.5859048364
21
134.1489840346
0
LINE
5
27E
100
AcDbEntity
8
DEFAULT_2
100
AcDbLine
62
8
6
HIDDEN
10
272.3943102841
20
137.4170693236
11
272.9049931071
21
137.0085587340
0
LINE
5
27F
100
AcDbEntity
8
DEFAULT_2
100
AcDbLine
62
8
6
HIDDEN
10
273.4156759300
20
137.8255799132
11
273.9263587529
21
137.0085587340
0
LINE
5
280
100
AcDbEntity
8
DEFAULT_2
100
AcDbLine
62
8
6
HIDDEN
10
272.9049931071
20
137.0085587340
11
273.2454470236
21
136.3957928496
0
LINE
5
281
100
AcDbEntity
8
DEFAULT_2
100
AcDbLine
62
8
6
HIDDEN
10
273.9263587529
20
137.0085587340
11
274.2668126694
21
135.9872816878
0
LINE
5
282
100
AcDbEntity
8
DEFAULT_2
100
AcDbLine
62
8
6
HIDDEN
10
273.2454470236
20
133.1277075606
11
273.4156759300
21
132.5149413901
0
LINE
5
283
100
AcDbEntity
8
DEFAULT_2
100
AcDbLine
62
8
6
HIDDEN
10
273.2454470236
20
136.3957928496
11
273.4156759300
21
135.7830263930
0
LINE
5
284
100
AcDbEntity
8
DEFAULT_2
100
AcDbLine
62
8
6
HIDDEN
10
273.4156759300
20
135.7830263930
11
273.5859048364
21
134.5574946242
0
LINE
5
285
100
AcDbEntity
8
DEFAULT_2
100
AcDbLine
62
8
6
HIDDEN
10
274.2668126694
20
135.9872816878
11
274.4370415758
21
134.5574946242
0
LINE
5
286
100
AcDbEntity
8
DEFAULT_2
100
AcDbLine
62
8
6
HIDDEN
10
273.4156759300
20
132.5149413901
11
273.4156759300
21
131.9021755057
0
LINE
5
287
100
AcDbEntity
8
DEFAULT_2
100
AcDbLine
62
8
6
HIDDEN
10
273.5859048364
20
134.5574946242
11
273.5859048364
21
134.1489840346
0
LINE
5
288
100
AcDbEntity
8
DEFAULT_2
100
AcDbLine
62
8
6
HIDDEN
10
274.4370415758
20
134.5574946242
11
274.4370415758
21
133.1277075606
0
LINE
5
289
100
AcDbEntity
8
0
100
AcDbLine
62
7
6
CONTINUOUS
10
276.5136676408
20
96.4761126259
11
276.5136676408
21
47.1769804418
0
LINE
5
28A
100
AcDbEntity
8
DEFAULT_2
100
AcDbLine
62
8
6
HIDDEN
10
274.4370415758
20
133.1277075606
11
274.2668126694
21
131.6979202109
0
LINE
5
28B
100
AcDbEntity
8
DEFAULT_2
100
AcDbLine
62
8
6
HIDDEN
10
268.8195305237
20
137.0085587340
11
268.6493016173
21
136.3957928496
0
LINE
5
28C
100
AcDbEntity
8
DEFAULT_2
100
AcDbLine
62
8
6
HIDDEN
10
269.3302133466
20
133.1277075606
11
269.1599844402
21
132.5149413901
0
LINE
5
28D
100
AcDbEntity
8
DEFAULT_2
100
AcDbLine
62
8
6
HIDDEN
10
273.4156759300
20
131.9021755057
11
273.2454470236
21
131.2894096213
0
LINE
5
28E
100
AcDbEntity
8
DEFAULT_2
100
AcDbLine
62
8
6
HIDDEN
10
268.6493016173
20
133.7404734450
11
268.3088477008
21
132.7191969710
0
LINE
5
28F
100
AcDbEntity
8
DEFAULT_2
100
AcDbLine
62
8
6
HIDDEN
10
272.5645391905
20
129.2468564051
11
271.7133985548
21
129.0426010924
0
LINE
5
290
100
AcDbEntity
8
DEFAULT_2
100
AcDbLine
62
8
6
HIDDEN
10
270.6920329090
20
134.1489840346
11
271.8836274612
21
134.1489840346
0
LINE
5
291
100
AcDbEntity
8
DEFAULT_2
100
AcDbLine
62
8
6
HIDDEN
10
270.8622618154
20
135.1702605086
11
271.7133985548
21
135.1702605086
0
LINE
5
292
100
AcDbEntity
8
DEFAULT_2
100
AcDbLine
62
8
6
HIDDEN
10
268.6493016173
20
136.3957928496
11
269.5004422530
21
136.3957928496
0
LINE
5
293
100
AcDbEntity
8
DEFAULT_2
100
AcDbLine
62
8
6
HIDDEN
10
270.8622618154
20
137.6213246184
11
271.8836274612
21
137.6213246184
0
LINE
5
294
100
AcDbEntity
8
DEFAULT_2
100
AcDbLine
62
8
6
HIDDEN
10
271.0324907217
20
138.6426010924
11
271.7133985548
21
138.6426010924
0
LINE
5
295
100
AcDbEntity
8
DEFAULT_2
100
AcDbLine
62
8
6
HIDDEN
10
271.7133985548
20
138.6426010924
11
272.5645391905
21
138.4383457976
0
LINE
5
296
100
AcDbEntity
8
DEFAULT_2
100
AcDbLine
62
8
6
HIDDEN
10
286.1771299929
20
232.6069804418
11
286.1771299929
21
232.6014176809
0
LINE
5
297
100
AcDbEntity
8
0
100
AcDbLine
62
7
6
CONTINUOUS
10
286.1771299929
20
232.6014176809
11
286.1771299929
21
193.1769804418
0
LINE
5
298
100
AcDbEntity
8
0
100
AcDbLine
62
7
6
CONTINUOUS
10
286.1771299929
20
165.1769804418
11
286.1771299929
21
159.1769804418
0
LINE
5
299
100
AcDbEntity
8
0
100
AcDbLine
62
7
6
CONTINUOUS
10
286.1771299929
20
51.9770786379
11
286.1771299929
21
129.4705607863
0
LINE
5
29A
100
AcDbEntity
8
DEFAULT_2
100
AcDbLine
62
8
6
HIDDEN
10
274.2668126694
20
131.6979202109
11
273.9263587529
21
130.6766435938
0
LINE
5
29B
100
AcDbEntity
8
DEFAULT_2
100
AcDbLine
62
8
6
HIDDEN
10
269.8408961695
20
137.0085587340
11
269.5004422530
21
136.3957928496
0
LINE
5
29C
100
AcDbEntity
8
DEFAULT_2
100
AcDbLine
62
8
6
HIDDEN
10
273.2454470236
20
131.2894096213
11
272.9049931071
21
130.6766435938
0
LINE
5
29D
100
AcDbEntity
8
DEFAULT_2
100
AcDbLine
62
8
6
HIDDEN
10
269.3302133466
20
137.8255799132
11
268.8195305237
21
137.0085587340
0
LINE
5
29E
100
AcDbEntity
8
DEFAULT_2
100
AcDbLine
62
8
6
HIDDEN
10
269.1599844402
20
134.3532393294
11
268.6493016173
21
133.7404734450
0
LINE
5
29F
100
AcDbEntity
8
DEFAULT_2
100
AcDbLine
62
8
6
HIDDEN
10
270.8622618154
20
135.1702605086
11
270.0111250759
21
134.9660052138
0
LINE
5
2A0
100
AcDbEntity
8
DEFAULT_2
100
AcDbLine
62
8
6
HIDDEN
10
271.0324907217
20
138.6426010924
11
270.1813500861
21
138.4383457976
0
LINE
5
2A1
100
AcDbEntity
8
DEFAULT_1
100
AcDbLine
62
2
6
CENTER
10
295.3771299929
20
44.1769804418
11
295.3771299929
21
264.5769804418
0
LINE
5
2A2
100
AcDbEntity
8
DEFAULT_2
100
AcDbLine
62
8
6
HIDDEN
10
273.9263587529
20
130.6766435938
11
273.4156759300
21
129.8596223431
0
LINE
5
2A3
100
AcDbEntity
8
DEFAULT_2
100
AcDbLine
62
8
6
HIDDEN
10
269.6706672632
20
133.5362181502
11
269.3302133466
21
133.1277075606
0
LINE
5
2A4
100
AcDbEntity
8
DEFAULT_2
100
AcDbLine
62
8
6
HIDDEN
10
270.3515789925
20
137.4170693236
11
269.8408961695
21
137.0085587340
0
LINE
5
2A5
100
AcDbEntity
8
DEFAULT_2
100
AcDbLine
62
8
6
HIDDEN
10
270.1813500861
20
133.9447287398
11
269.6706672632
21
133.5362181502
0
LINE
5
2A6
100
AcDbEntity
8
DEFAULT_2
100
AcDbLine
62
8
6
HIDDEN
10
270.1813500861
20
138.4383457976
11
269.3302133466
21
137.8255799132
0
LINE
5
2A7
100
AcDbEntity
8
DEFAULT_2
100
AcDbLine
62
8
6
HIDDEN
10
270.0111250759
20
134.9660052138
11
269.1599844402
21
134.3532393294
0
LINE
5
2A8
100
AcDbEntity
8
0
100
AcDbLine
62
7
6
CONTINUOUS
10
294.9771299929
20
150.3769804418
11
295.7771299929
21
150.3769804418
0
LINE
5
2A9
100
AcDbEntity
8
DEFAULT_2
100
AcDbLine
62
8
6
HIDDEN
10
272.9049931071
20
130.6766435938
11
272.3943102841
21
130.2681330042
0
LINE
5
2AA
100
AcDbEntity
8
DEFAULT_2
100
AcDbLine
62
8
6
HIDDEN
10
273.4156759300
20
129.8596223431
11
272.5645391905
21
129.2468564051
0
LINE
5
2AB
100
AcDbEntity
8
DEFAULT_2
100
AcDbLine
62
8
6
HIDDEN
10
270.8622618154
20
137.6213246184
11
270.3515789925
21
137.4170693236
0
LINE
5
2AC
100
AcDbEntity
8
DEFAULT_2
100
AcDbLine
62
8
6
HIDDEN
10
304.5771299929
20
232.6069804418
11
304.5771299929
21
232.6014176809
0
LINE
5
2AD
100
AcDbEntity
8
0
100
AcDbLine
62
7
6
CONTINUOUS
10
304.5771299929
20
232.6014176809
11
304.5771299929
21
193.1769804418
0
LINE
5
2AE
100
AcDbEntity
8
0
100
AcDbLine
62
7
6
CONTINUOUS
10
304.5771299929
20
165.1769804418
11
304.5771299929
21
159.1769804418
0
LINE
5
2AF
100
AcDbEntity
8
0
100
AcDbLine
62
7
6
CONTINUOUS
10
304.5771299929
20
51.9770786379
11
304.5771299929
21
129.4705607863
0
LINE
5
2B0
100
AcDbEntity
8
DEFAULT_2
100
AcDbLine
62
8
6
HIDDEN
10
270.6920329090
20
134.1489840346
11
270.1813500861
21
133.9447287398
0
LINE
5
2B1
100
AcDbEntity
8
DEFAULT_2
100
AcDbLine
62
8
6
HIDDEN
10
272.3943102841
20
130.2681330042
11
271.8836274612
21
130.0638777094
0
LINE
5
2B2
100
AcDbEntity
8
0
100
AcDbLine
62
7
6
CONTINUOUS
10
281.3771299929
20
169.9769804418
11
275.7771299929
21
169.9769804418
0
LINE
5
2B3
100
AcDbEntity
8
DEFAULT_2
100
AcDbLine
62
8
6
HIDDEN
10
275.7771299929
20
169.9769804418
11
275.2284554654
21
169.9769804418
0
LINE
5
2B4
100
AcDbEntity
8
0
100
AcDbLine
62
7
6
CONTINUOUS
10
309.3771299929
20
169.9769804418
11
314.9771299929
21
169.9769804418
0
LINE
5
2B5
100
AcDbEntity
8
DEFAULT_2
100
AcDbLine
62
8
6
HIDDEN
10
314.9771299929
20
169.9769804418
11
315.5258045204
21
169.9769804418
0
LINE
5
2B6
100
AcDbEntity
8
0
100
AcDbLine
62
7
6
CONTINUOUS
10
314.2405923450
20
96.4761126259
11
314.2405923450
21
47.1769804418
0
LINE
5
2B7
100
AcDbEntity
8
0
100
AcDbLine
62
7
6
CONTINUOUS
10
323.7771299929
20
179.5769804418
11
323.7771299929
21
178.7769804418
0
LINE
5
2B8
100
AcDbEntity
8
DEFAULT_2
100
AcDbLine
62
8
6
HIDDEN
10
325.7771299929
20
118.3171360337
11
325.7771299929
21
92.6768355702
0
LINE
5
2B9
100
AcDbEntity
8
0
100
AcDbLine
62
7
6
CONTINUOUS
10
326.8380490544
20
187.1769804418
11
326.8380490544
21
174.3769804418
0
LINE
5
2BA
100
AcDbEntity
8
DEFAULT_2
100
AcDbLine
62
8
6
HIDDEN
10
330.1771299929
20
118.5956710922
11
330.1771299929
21
72.8538267206
0
LINE
5
2BB
100
AcDbEntity
8
0
100
AcDbLine
62
7
6
CONTINUOUS
10
314.9771299929
20
188.3769804418
11
309.3771299929
21
188.3769804418
0
LINE
5
2BC
100
AcDbEntity
8
0
100
AcDbLine
62
7
6
CONTINUOUS
10
275.7771299929
20
188.3769804418
11
281.3771299929
21
188.3769804418
0
LINE
5
2BD
100
AcDbEntity
8
0
100
AcDbLine
62
7
6
CONTINUOUS
10
342.5771299929
20
231.1095005876
11
342.5771299929
21
178.8114607564
0
LINE
5
2BE
100
AcDbEntity
8
0
100
AcDbLine
62
7
6
CONTINUOUS
10
337.7586216982
20
142.2883347472
11
342.2657081926
21
174.3579215256
0
LINE
5
2BF
100
AcDbEntity
8
0
100
AcDbLine
62
7
6
CONTINUOUS
10
304.5771299929
20
195.3769804418
11
286.1771299929
21
195.3769804418
0
LINE
5
2C0
100
AcDbEntity
8
0
100
AcDbLine
62
7
6
CONTINUOUS
10
304.5771299929
20
205.3769804418
11
286.1771299929
21
205.3769804418
0
LINE
5
2C1
100
AcDbEntity
8
0
100
AcDbLine
62
7
6
CONTINUOUS
10
287.1376024069
20
232.8790314721
11
303.6166575790
21
232.8790314721
0
LINE
5
2C2
100
AcDbEntity
8
0
100
AcDbLine
62
7
6
CONTINUOUS
10
339.8936129038
20
243.3778703899
11
339.8938298054
21
243.3774665501
0
LINE
5
2C3
100
AcDbEntity
8
0
100
AcDbLine
62
7
6
CONTINUOUS
10
325.2370244291
20
257.6208381373
11
332.1820553847
21
252.8149277386
0
LINE
5
2C4
100
AcDbEntity
8
0
100
AcDbLine
62
7
6
CONTINUOUS
10
281.2476912600
20
261.5243154927
11
281.2475390412
21
261.5243031851
0
LINE
5
2C5
100
AcDbEntity
8
DEFAULT_2
100
AcDbLine
62
8
6
HIDDEN
10
295.7771299929
20
257.6902550648
11
294.9771299929
21
257.6902550648
0
LINE
5
2C6
100
AcDbEntity
8
0
100
AcDbLine
62
7
6
CONTINUOUS
10
282.5902639866
20
261.5769804198
11
308.1639959992
21
261.5769804198
0
LINE
5
2C7
100
AcDbEntity
8
0
100
AcDbLine
62
7
6
CONTINUOUS
10
309.5065687258
20
261.5243154927
11
309.5067209446
21
261.5243031851
0
ARC
5
2C8
100
AcDbEntity
8
DEFAULT_2
100
AcDbCircle
62
8
6
HIDDEN
10
87.4456462412
20
174.3769804418
40
61.3510195928
100
AcDbArc
50
320.1706371716
51
336.9712287216
0
ARC
5
2C9
100
AcDbEntity
8
DEFAULT_2
100
AcDbCircle
62
8
6
HIDDEN
10
98.6456462412
20
187.1769804418
40
48.8000000000
100
AcDbArc
50
7.0624335538
51
57.5629737064
0
ARC
5
2CA
100
AcDbEntity
8
DEFAULT_2
100
AcDbCircle
62
8
6
HIDDEN
10
110.2312882173
20
205.4069804418
40
27.2000000000
100
AcDbArc
50
57.5629737064
51
90.0000000000
0
ARC
5
2CB
100
AcDbEntity
8
DEFAULT_2
100
AcDbCircle
62
8
6
HIDDEN
10
87.4456462412
20
174.3769804418
40
60.0000000000
100
AcDbArc
50
345.3251502571
51
351.1798521708
0
ARC
5
2CC
100
AcDbEntity
8
DEFAULT_2
100
AcDbCircle
62
8
6
HIDDEN
10
87.4456462412
20
174.3769804418
40
60.0000000000
100
AcDbArc
50
299.6264839068
51
311.5445457223
0
CIRCLE
5
2CD
100
AcDbEntity
8
0
100
AcDbCircle
62
7
6
CONTINUOUS
10
151.4456462412
20
200.3769804418
40
5.0000000000
0
ARC
5
2CE
100
AcDbEntity
8
0
100
AcDbCircle
62
7
6
CONTINUOUS
10
237.1780166553
20
147.8732611846
40
75.3600000000
100
AcDbArc
50
176.1827069226
51
183.4865070150
0
ARC
5
2CF
100
AcDbEntity
8
0
100
AcDbCircle
62
7
6
CONTINUOUS
10
82.6456462412
20
150.3441715108
40
40.0000000000
100
AcDbArc
50
290.3946696523
51
360.0000000000
0
ARC
5
2D0
100
AcDbEntity
8
0
100
AcDbCircle
62
7
6
CONTINUOUS
10
93.8456462412
20
196.6925620714
40
28.8000000000
100
AcDbArc
50
0.0000000000
51
57.5000000000
0
ARC
5
2D1
100
AcDbEntity
8
0
100
AcDbCircle
62
7
6
CONTINUOUS
10
101.0456462412
20
100.8539704605
40
12.8000000000
100
AcDbArc
50
110.3946696523
51
200.0000000000
0
ARC
5
2D2
100
AcDbEntity
8
0
100
AcDbCircle
62
7
6
CONTINUOUS
10
98.6456462412
20
187.1769804418
40
68.0000000000
100
AcDbArc
50
344.1605622604
51
78.5550866460
0
ARC
5
2D3
100
AcDbEntity
8
0
100
AcDbCircle
62
7
6
CONTINUOUS
10
122.6456462412
20
69.5769804418
40
22.4000000000
100
AcDbArc
50
200.0000000000
51
329.9700000000
0
ARC
5
2D4
100
AcDbEntity
8
0
100
AcDbCircle
62
7
6
CONTINUOUS
10
237.1780166553
20
147.8732611846
40
75.3600000000
100
AcDbArc
50
187.0356867147
51
194.4701783445
0
CIRCLE
5
2D5
100
AcDbEntity
8
0
100
AcDbCircle
62
7
6
CONTINUOUS
10
137.8675459445
20
107.2826344101
40
9.0000000000
0
ARC
5
2D6
100
AcDbEntity
8
0
100
AcDbCircle
62
7
6
CONTINUOUS
10
124.2456462412
20
112.3086760942
40
42.4000000000
100
AcDbArc
50
329.9700000000
51
17.4802217829
0
ARC
5
2D7
100
AcDbEntity
8
0
100
AcDbCircle
62
7
6
CONTINUOUS
10
237.1780166553
20
147.8732611846
40
76.0000000000
100
AcDbArc
50
164.1605622604
51
197.4802217829
0
ARC
5
2D8
100
AcDbEntity
8
0
100
AcDbCircle
62
7
6
CONTINUOUS
10
73.0456462412
20
253.5769804418
40
8.0000000000
100
AcDbArc
50
78.5550866460
51
237.5000000000
0
ARC
5
2D9
100
AcDbEntity
8
DEFAULT_2
100
AcDbCircle
62
8
6
HIDDEN
10
295.3771299929
20
201.9580000346
40
32.0000000000
100
AcDbArc
50
75.0791028262
51
104.9208971738
0
ARC
5
2DA
100
AcDbEntity
8
0
100
AcDbCircle
62
7
6
CONTINUOUS
10
295.3771299929
20
21.3280000346
40
32.0000000000
100
AcDbArc
50
106.7083437157
51
126.1203429718
0
ARC
5
2DB
100
AcDbEntity
8
0
100
AcDbCircle
62
7
6
CONTINUOUS
10
314.9771299929
20
179.5769804418
40
8.8000000000
100
AcDbArc
50
0.0000000000
51
90.0000000000
0
ARC
5
2DC
100
AcDbEntity
8
0
100
AcDbCircle
62
7
6
CONTINUOUS
10
314.9771299929
20
178.7769804418
40
8.8000000000
100
AcDbArc
50
270.0000000000
51
360.0000000000
0
ARC
5
2DD
100
AcDbEntity
8
0
100
AcDbCircle
62
7
6
CONTINUOUS
10
295.7771299929
20
159.1769804418
40
8.8000000000
100
AcDbArc
50
270.0000000000
51
360.0000000000
0
ARC
5
2DE
100
AcDbEntity
8
0
100
AcDbCircle
62
7
6
CONTINUOUS
10
309.3771299929
20
193.1769804418
40
4.8000000000
100
AcDbArc
50
180.0000000000
51
270.0000000000
0
ARC
5
2DF
100
AcDbEntity
8
0
100
AcDbCircle
62
7
6
CONTINUOUS
10
309.3771299929
20
165.1769804418
40
4.8000000000
100
AcDbArc
50
90.0000000000
51
180.0000000000
0
ARC
5
2E0
100
AcDbEntity
8
0
100
AcDbCircle
62
7
6
CONTINUOUS
10
295.3771299929
20
21.3280000346
40
32.0000000000
100
AcDbArc
50
53.8796570282
51
73.2916562843
0
ARC
5
2E1
100
AcDbEntity
8
0
100
AcDbCircle
62
7
6
CONTINUOUS
10
295.3771299929
20
201.9580000346
40
32.0000000000
100
AcDbArc
50
35.1411372917
51
75.0791028262
0
ARC
5
2E2
100
AcDbEntity
8
0
100
AcDbCircle
62
7
6
CONTINUOUS
10
230.1771299929
20
102.3769804418
40
111.2000000000
100
AcDbArc
50
332.2477798524
51
13.2437498085
0
ARC
5
2E3
100
AcDbEntity
8
0
100
AcDbCircle
62
7
6
CONTINUOUS
10
376.5771299929
20
136.8327491896
40
39.2000000000
100
AcDbArc
50
172.0000000000
51
193.2437498085
0
ARC
5
2E4
100
AcDbEntity
8
0
100
AcDbCircle
62
7
6
CONTINUOUS
10
310.5771299929
20
178.8114607564
40
32.0000000000
100
AcDbArc
50
352.0000000000
51
360.0000000000
0
ARC
5
2E5
100
AcDbEntity
8
0
100
AcDbCircle
62
7
6
CONTINUOUS
10
295.3771299929
20
201.9580000346
40
32.0000000000
100
AcDbArc
50
104.9208971738
51
144.8588627083
0
ARC
5
2E6
100
AcDbEntity
8
0
100
AcDbCircle
62
7
6
CONTINUOUS
10
360.5771299929
20
102.3769804418
40
111.2000000000
100
AcDbArc
50
166.7562501915
51
207.7522201475
0
ARC
5
2E7
100
AcDbEntity
8
0
100
AcDbCircle
62
7
6
CONTINUOUS
10
214.1771299929
20
136.8327491896
40
39.2000000000
100
AcDbArc
50
346.7562501915
51
8.0000000000
0
ARC
5
2E8
100
AcDbEntity
8
0
100
AcDbCircle
62
7
6
CONTINUOUS
10
275.7771299929
20
179.5769804418
40
8.8000000000
100
AcDbArc
50
90.0000000000
51
180.0000000000
0
ARC
5
2E9
100
AcDbEntity
8
0
100
AcDbCircle
62
7
6
CONTINUOUS
10
275.7771299929
20
178.7769804418
40
8.8000000000
100
AcDbArc
50
180.0000000000
51
270.0000000000
0
ARC
5
2EA
100
AcDbEntity
8
0
100
AcDbCircle
62
7
6
CONTINUOUS
10
294.9771299929
20
159.1769804418
40
8.8000000000
100
AcDbArc
50
180.0000000000
51
270.0000000000
0
ARC
5
2EB
100
AcDbEntity
8
0
100
AcDbCircle
62
7
6
CONTINUOUS
10
281.3771299929
20
193.1769804418
40
4.8000000000
100
AcDbArc
50
270.0000000000
51
360.0000000000
0
ARC
5
2EC
100
AcDbEntity
8
0
100
AcDbCircle
62
7
6
CONTINUOUS
10
281.3771299929
20
165.1769804418
40
4.8000000000
100
AcDbArc
50
0.0000000000
51
90.0000000000
0
ARC
5
2ED
100
AcDbEntity
8
0
100
AcDbCircle
62
7
6
CONTINUOUS
10
280.1771299929
20
178.8114607564
40
32.0000000000
100
AcDbArc
50
180.0000000000
51
188.0000000000
0
SPLINE
5
2EE
100
AcDbEntity
8
DEFAULT_2
100
AcDbSpline
62
8
6
HIDDEN
70
0
71
3
72
9
73
5
74
3
42
0.0000001000
43
0.0000001000
44
0.0000000001
40
0.0000000000
40
0.0000000000
40
0.0000000000
40
0.0000000000
40
0.5077812098
40
1.0000000000
40
1.0000000000
40
1.0000000000
40
1.0000000000
10
164.4389653424
20
169.9944555507
30
0.0000000000
10
164.3647444164
20
169.9886783827
30
0.0000000000
10
164.2183538133
20
169.9799838131
30
0.0000000000
10
164.0717316741
20
169.9769804418
30
0.0000000000
10
163.9995678423
20
169.9769804418
30
0.0000000000
11
164.4389653424
21
169.9944555507
31
0.0000000000
11
164.2160159216
21
169.9813159331
31
0.0000000000
11
163.9995678423
21
169.9769804418
31
0.0000000000
0
SPLINE
5
2EF
100
AcDbEntity
8
DEFAULT_2
100
AcDbSpline
62
8
6
HIDDEN
70
0
71
3
72
18
73
14
74
12
42
0.0000001000
43
0.0000001000
44
0.0000000001
40
0.0000000000
40
0.0000000000
40
0.0000000000
40
0.0000000000
40
0.0101278048
40
0.0402931233
40
0.0900403019
40
0.1581919203
40
0.2436231594
40
0.3443035345
40
0.4585934422
40
0.5835594338
40
0.7171817386
40
0.8567059890
40
1.0000000000
40
1.0000000000
40
1.0000000000
40
1.0000000000
10
143.9048425182
20
150.3769804418
30
0.0000000000
10
143.8746136152
20
150.3769804418
30
0.0000000000
10
143.9326586297
20
150.5701661280
30
0.0000000000
10
143.9006870119
20
150.7683052022
30
0.0000000000
10
143.9746275642
20
151.2472489038
30
0.0000000000
10
144.0335465456
20
151.8330479331
30
0.0000000000
10
144.1401003918
20
152.5914787219
30
0.0000000000
10
144.2734561453
20
153.4757399132
30
0.0000000000
10
144.4443425257
20
154.4767234215
30
0.0000000000
10
144.6513603684
20
155.5700653280
30
0.0000000000
10
144.8951536932
20
156.7332057422
30
0.0000000000
10
145.1741738629
20
157.9445108953
30
0.0000000000
10
145.3800393827
20
158.7632363979
30
0.0000000000
10
145.4883891122
20
159.1769804418
30
0.0000000000
11
143.9048425182
21
150.3769804418
31
0.0000000000
11
143.8992221065
21
150.4674928174
31
0.0000000000
11
143.9173697509
21
150.7369897328
31
0.0000000000
11
143.9610368137
21
151.1802919894
31
0.0000000000
11
144.0324496744
21
151.7863444759
31
0.0000000000
11
144.1346846964
21
152.5444531600
31
0.0000000000
11
144.2701860192
21
153.4357271862
31
0.0000000000
11
144.4418412121
21
154.4446065795
31
0.0000000000
11
144.6500078970
21
155.5440475241
31
0.0000000000
11
144.8953072289
21
156.7151174303
31
0.0000000000
11
145.1756331533
21
157.9325938900
31
0.0000000000
11
145.4883891122
21
159.1769804418
31
0.0000000000
0
SPLINE
5
2F0
100
AcDbEntity
8
DEFAULT_2
100
AcDbSpline
62
8
6
HIDDEN
70
0
71
3
72
17
73
13
74
11
42
0.0000001000
43
0.0000001000
44
0.0000000001
40
0.0000000000
40
0.0000000000
40
0.0000000000
40
0.0000000000
40
0.1902018561
40
0.3733359443
40
0.5324983819
40
0.6617301649
40
0.7655508462
40
0.8482659151
40
0.9134416278
40
0.9614129963
40
0.9904721935
40
1.0000000000
40
1.0000000000
40
1.0000000000
40
1.0000000000
10
127.2377745295
20
129.4705607863
30
0.0000000000
10
127.6761205350
20
129.8589845904
30
0.0000000000
10
128.5451454438
20
130.6116932533
30
0.0000000000
10
129.8096527871
20
131.6559912521
30
0.0000000000
10
130.9499647278
20
132.5543477038
30
0.0000000000
10
131.9143754886
20
133.2832922549
30
0.0000000000
10
132.6990782491
20
133.8525081965
30
0.0000000000
10
133.3374582304
20
134.3058460739
30
0.0000000000
10
133.8249458043
20
134.6256042076
30
0.0000000000
10
134.2173709604
20
134.9110529742
30
0.0000000000
10
134.3972548023
20
134.9708710613
30
0.0000000000
10
134.5493649687
20
135.1116098757
30
0.0000000000
10
134.5593993305
20
135.0840406933
30
0.0000000000
11
127.2377745295
21
129.4705607863
31
0.0000000000
11
128.5661458287
21
130.6206095419
31
0.0000000000
11
129.8708556041
21
131.6975229992
31
0.0000000000
11
131.0259090591
21
132.6072722955
31
0.0000000000
11
131.9787346089
21
133.3265144049
31
0.0000000000
11
132.7544794086
21
133.8904604345
31
0.0000000000
11
133.3797560277
21
134.3296417201
31
0.0000000000
11
133.8779259939
21
134.6677595232
31
0.0000000000
11
134.2492044332
21
134.9096938314
31
0.0000000000
11
134.4786324474
21
135.0490629186
31
0.0000000000
11
134.5593993305
21
135.0840406933
31
0.0000000000
0
SPLINE
5
2F1
100
AcDbEntity
8
DEFAULT_2
100
AcDbSpline
62
8
6
HIDDEN
70
0
71
3
72
18
73
14
74
12
42
0.0000001000
43
0.0000001000
44
0.0000000001
40
0.0000000000
40
0.0000000000
40
0.0000000000
40
0.0000000000
40
0.0101278048
40
0.0402931233
40
0.0900403019
40
0.1581919203
40
0.2436231594
40
0.3443035345
40
0.4585934422
40
0.5835594338
40
0.7171817386
40
0.8567059890
40
1.0000000000
40
1.0000000000
40
1.0000000000
40
1.0000000000
10
143.9048425182
20
150.3769804418
30
0.0000000000
10
143.8746136152
20
150.3769804418
30
0.0000000000
10
143.9326586297
20
150.5701661280
30
0.0000000000
10
143.9006870119
20
150.7683052022
30
0.0000000000
10
143.9746275642
20
151.2472489038
30
0.0000000000
10
144.0335465456
20
151.8330479331
30
0.0000000000
10
144.1401003918
20
152.5914787219
30
0.0000000000
10
144.2734561453
20
153.4757399132
30
0.0000000000
10
144.4443425257
20
154.4767234215
30
0.0000000000
10
144.6513603684
20
155.5700653280
30
0.0000000000
10
144.8951536932
20
156.7332057422
30
0.0000000000
10
145.1741738629
20
157.9445108953
30
0.0000000000
10
145.3800393827
20
158.7632363979
30
0.0000000000
10
145.4883891122
20
159.1769804418
30
0.0000000000
11
143.9048425182
21
150.3769804418
31
0.0000000000
11
143.8992221065
21
150.4674928174
31
0.0000000000
11
143.9173697509
21
150.7369897328
31
0.0000000000
11
143.9610368137
21
151.1802919894
31
0.0000000000
11
144.0324496744
21
151.7863444759
31
0.0000000000
11
144.1346846964
21
152.5444531600
31
0.0000000000
11
144.2701860192
21
153.4357271862
31
0.0000000000
11
144.4418412121
21
154.4446065795
31
0.0000000000
11
144.6500078970
21
155.5440475241
31
0.0000000000
11
144.8953072289
21
156.7151174303
31
0.0000000000
11
145.1756331533
21
157.9325938900
31
0.0000000000
11
145.4883891122
21
159.1769804418
31
0.0000000000
0
SPLINE
5
2F2
100
AcDbEntity
8
DEFAULT_2
100
AcDbSpline
62
8
6
HIDDEN
70
0
71
3
72
25
73
21
74
19
42
0.0000001000
43
0.0000001000
44
0.0000000001
40
0.0000000000
40
0.0000000000
40
0.0000000000
40
0.0000000000
40
0.0632498841
40
0.1231076186
40
0.1805065326
40
0.2360844693
40
0.2903068085
40
0.3435339546
40
0.3960604100
40
0.4481393772
40
0.5000000946
40
0.5518598241
40
0.6039377769
40
0.6564632617
40
0.7096905702
40
0.7639164160
40
0.8194969606
40
0.8768955227
40
0.9367516478
40
1.0000000000
40
1.0000000000
40
1.0000000000
40
1.0000000000
10
132.2290542536
20
80.6714796483
30
0.0000000000
10
132.4937056695
20
79.9443558592
30
0.0000000000
10
132.8963345558
20
78.4844707976
30
0.0000000000
10
133.1168428821
20
76.2769086838
30
0.0000000000
10
132.9633742740
20
74.1573744142
30
0.0000000000
10
132.4623369898
20
72.1634870900
30
0.0000000000
10
131.6419257571
20
70.3342674290
30
0.0000000000
10
130.5339197487
20
68.7085827482
30
0.0000000000
10
129.1746364941
20
67.3228689425
30
0.0000000000
10
127.6049737019
20
66.2096434932
30
0.0000000000
10
125.8699892979
20
65.3962827852
30
0.0000000000
10
124.0181089638
20
64.9041281503
30
0.0000000000
10
122.1001474979
20
64.7479429036
30
0.0000000000
10
120.1681776716
20
64.9357135366
30
0.0000000000
10
118.2743890783
20
65.4688396099
30
0.0000000000
10
116.4700446755
20
66.3427823061
30
0.0000000000
10
114.8045320286
20
67.5481818156
30
0.0000000000
10
113.3245677936
20
69.0732118851
30
0.0000000000
10
112.0745300446
20
70.9060148521
30
0.0000000000
10
111.4445845539
20
72.2831222598
30
0.0000000000
10
111.1799395480
20
73.0102284378
30
0.0000000000
11
132.2290542536
21
80.6714796483
31
0.0000000000
11
132.8408458135
21
78.4321816609
31
0.0000000000
11
133.0553859267
21
76.2458125716
31
0.0000000000
11
132.9002633966
21
74.1449041724
31
0.0000000000
11
132.4010062620
21
72.1671516393
31
0.0000000000
11
131.5851008977
21
70.3520574854
31
0.0000000000
11
130.4838960935
21
68.7384970065
31
0.0000000000
11
129.1333351282
21
67.3628513592
31
0.0000000000
11
127.5739749950
21
66.2575192304
31
0.0000000000
11
125.8505206200
21
65.4497372964
31
0.0000000000
11
124.0110813012
21
64.9607264232
31
0.0000000000
11
122.1060861466
21
64.8051170914
31
0.0000000000
11
120.1872824569
21
64.9907805654
31
0.0000000000
11
118.3065234587
21
65.5189834798
31
0.0000000000
11
116.5146653182
21
66.3850233128
31
0.0000000000
11
114.8608679330
21
67.5792207287
31
0.0000000000
11
113.3916233939
21
69.0889045294
31
0.0000000000
11
112.1506451758
21
70.9016236993
31
0.0000000000
11
111.1799395480
21
73.0102284378
31
0.0000000000
0
SPLINE
5
2F3
100
AcDbEntity
8
DEFAULT_2
100
AcDbSpline
62
8
6
HIDDEN
70
0
71
3
72
18
73
14
74
12
42
0.0000001000
43
0.0000001000
44
0.0000000001
40
0.0000000000
40
0.0000000000
40
0.0000000000
40
0.0000000000
40
0.1408997889
40
0.2789015387
40
0.4113906814
40
0.5354292913
40
0.6491183709
40
0.7499073868
40
0.8362186708
40
0.9058202307
40
0.9572346863
40
0.9888995625
40
1.0000000000
40
1.0000000000
40
1.0000000000
40
1.0000000000
10
101.8456462412
20
232.6069804418
30
0.0000000000
10
101.4258112044
20
232.6069804418
30
0.0000000000
10
100.5946615859
20
232.6248480684
30
0.0000000000
10
99.3710308451
20
232.7031265353
30
0.0000000000
10
98.2015141978
20
232.8257658714
30
0.0000000000
10
97.1095003768
20
232.9824815289
30
0.0000000000
10
96.1158255136
20
233.1598094320
30
0.0000000000
10
95.2405787632
20
233.3458133492
30
0.0000000000
10
94.4912987514
20
233.5212611067
30
0.0000000000
10
93.9086737112
20
233.6874461580
30
0.0000000000
10
93.4373799014
20
233.7959556076
30
0.0000000000
10
93.2322243966
20
233.9138719575
30
0.0000000000
10
93.0456462412
20
233.9224242835
30
0.0000000000
10
93.0456462412
20
233.9554999370
30
0.0000000000
11
101.8456462412
21
232.6069804418
31
0.0000000000
11
100.5864313661
21
232.6340178433
31
0.0000000000
11
99.3553414362
21
232.7126645815
31
0.0000000000
11
98.1774679969
21
232.8360878682
31
0.0000000000
11
97.0798970370
21
232.9933688132
31
0.0000000000
11
96.0794984569
21
233.1722647684
31
0.0000000000
11
95.1979601729
21
233.3582997949
31
0.0000000000
11
94.4477190700
21
233.5383241158
31
0.0000000000
11
93.8464915347
21
233.6983868054
31
0.0000000000
11
93.4053224813
21
233.8272160756
31
0.0000000000
11
93.1362108747
21
233.9149532131
31
0.0000000000
11
93.0456462412
21
233.9554999370
31
0.0000000000
0
SPLINE
5
2F4
100
AcDbEntity
8
DEFAULT_2
100
AcDbSpline
62
8
6
HIDDEN
70
0
71
3
72
8
73
4
74
2
42
0.0000001000
43
0.0000001000
44
0.0000000001
40
0.0000000000
40
0.0000000000
40
0.0000000000
40
0.0000000000
40
1.0000000000
40
1.0000000000
40
1.0000000000
40
1.0000000000
10
164.4389653424
20
169.9944555507
30
0.0000000000
10
164.3647444164
20
169.9886783827
30
0.0000000000
10
164.2904100188
20
169.9842634436
30
0.0000000000
10
164.2160159216
20
169.9813159331
30
0.0000000000
11
164.4389653424
21
169.9944555507
31
0.0000000000
11
164.2160159216
21
169.9813159331
31
0.0000000000
0
SPLINE
5
2F5
100
AcDbEntity
8
DEFAULT_2
100
AcDbSpline
62
8
6
HIDDEN
70
0
71
3
72
8
73
4
74
2
42
0.0000001000
43
0.0000001000
44
0.0000000001
40
0.0000000000
40
0.0000000000
40
0.0000000000
40
0.0000000000
40
1.0000000000
40
1.0000000000
40
1.0000000000
40
1.0000000000
10
164.2160159216
20
169.9813159331
30
0.0000000000
10
164.1439018460
20
169.9784587576
30
0.0000000000
10
164.0717316741
20
169.9769804418
30
0.0000000000
10
163.9995678423
20
169.9769804418
30
0.0000000000
11
164.2160159216
21
169.9813159331
31
0.0000000000
11
163.9995678423
21
169.9769804418
31
0.0000000000
0
SPLINE
5
2F6
100
AcDbEntity
8
DEFAULT_2
100
AcDbSpline
62
8
6
HIDDEN
70
0
71
3
72
15
73
11
74
9
42
0.0000001000
43
0.0000001000
44
0.0000000001
40
0.0000000000
40
0.0000000000
40
0.0000000000
40
0.0000000000
40
0.1717610885
40
0.3346882381
40
0.4853977257
40
0.6207787574
40
0.7381321764
40
0.8366110767
40
0.9203043293
40
1.0000000000
40
1.0000000000
40
1.0000000000
40
1.0000000000
10
146.7361176510
20
165.1769804418
30
0.0000000000
10
146.7841824670
20
165.4867397355
30
0.0000000000
10
146.8560401312
20
166.0939815801
30
0.0000000000
10
146.8921715103
20
166.9800484699
30
0.0000000000
10
146.8524486080
20
167.7998703184
30
0.0000000000
10
146.7335490784
20
168.5286590863
30
0.0000000000
10
146.5315735524
20
169.1407251733
30
0.0000000000
10
146.2414666158
20
169.6130337929
30
0.0000000000
10
145.8539094678
20
169.9155210991
30
0.0000000000
10
145.5503265944
20
169.9769804418
30
0.0000000000
10
145.4048809772
20
169.9769804418
30
0.0000000000
11
146.7361176510
21
165.1769804418
31
0.0000000000
11
146.8455729155
21
166.1109873819
31
0.0000000000
11
146.8792933451
21
167.0023821959
31
0.0000000000
11
146.8347183038
21
167.8263175392
31
0.0000000000
11
146.7079041651
21
168.5566050392
31
0.0000000000
11
146.4956123278
21
169.1630347679
31
0.0000000000
11
146.1999201442
21
169.6138968597
31
0.0000000000
11
145.8317852933
21
169.8867443461
31
0.0000000000
11
145.4048809772
21
169.9769804418
31
0.0000000000
0
SPLINE
5
2F7
100
AcDbEntity
8
DEFAULT_2
100
AcDbSpline
62
8
6
HIDDEN
70
0
71
3
72
17
73
13
74
11
42
0.0000001000
43
0.0000001000
44
0.0000000001
40
0.0000000000
40
0.0000000000
40
0.0000000000
40
0.0000000000
40
0.1902018561
40
0.3733359443
40
0.5324983819
40
0.6617301649
40
0.7655508462
40
0.8482659151
40
0.9134416278
40
0.9614129963
40
0.9904721935
40
1.0000000000
40
1.0000000000
40
1.0000000000
40
1.0000000000
10
127.2377745295
20
129.4705607863
30
0.0000000000
10
127.6761205350
20
129.8589845904
30
0.0000000000
10
128.5451454438
20
130.6116932533
30
0.0000000000
10
129.8096527871
20
131.6559912521
30
0.0000000000
10
130.9499647278
20
132.5543477038
30
0.0000000000
10
131.9143754886
20
133.2832922549
30
0.0000000000
10
132.6990782491
20
133.8525081965
30
0.0000000000
10
133.3374582304
20
134.3058460739
30
0.0000000000
10
133.8249458043
20
134.6256042076
30
0.0000000000
10
134.2173709604
20
134.9110529742
30
0.0000000000
10
134.3972548023
20
134.9708710613
30
0.0000000000
10
134.5493649687
20
135.1116098757
30
0.0000000000
10
134.5593993305
20
135.0840406933
30
0.0000000000
11
127.2377745295
21
129.4705607863
31
0.0000000000
11
128.5661458287
21
130.6206095419
31
0.0000000000
11
129.8708556041
21
131.6975229992
31
0.0000000000
11
131.0259090591
21
132.6072722955
31
0.0000000000
11
131.9787346089
21
133.3265144049
31
0.0000000000
11
132.7544794086
21
133.8904604345
31
0.0000000000
11
133.3797560277
21
134.3296417201
31
0.0000000000
11
133.8779259939
21
134.6677595232
31
0.0000000000
11
134.2492044332
21
134.9096938314
31
0.0000000000
11
134.4786324474
21
135.0490629186
31
0.0000000000
11
134.5593993305
21
135.0840406933
31
0.0000000000
0
SPLINE
5
2F8
100
AcDbEntity
8
DEFAULT_2
100
AcDbSpline
62
8
6
HIDDEN
70
0
71
3
72
12
73
8
74
6
42
0.0000001000
43
0.0000001000
44
0.0000000001
40
0.0000000000
40
0.0000000000
40
0.0000000000
40
0.0000000000
40
0.1852953281
40
0.3812745200
40
0.5848620500
40
0.7924734390
40
1.0000000000
40
1.0000000000
40
1.0000000000
40
1.0000000000
10
151.9632204663
20
75.5357477612
30
0.0000000000
10
151.7626671992
20
75.2564021518
30
0.0000000000
10
151.3436627963
20
74.6861192618
30
0.0000000000
10
150.6804169937
20
73.8267673917
30
0.0000000000
10
149.9688418681
20
72.9528380145
30
0.0000000000
10
149.2188767892
20
72.0831063164
30
0.0000000000
10
148.6983703786
20
71.5148863702
30
0.0000000000
10
148.4337774087
20
71.2350214931
30
0.0000000000
11
151.9632204663
21
75.5357477612
31
0.0000000000
11
151.3522463691
21
74.7044771107
31
0.0000000000
11
150.6854002738
21
73.8408296913
31
0.0000000000
11
149.9695080596
21
72.9620211942
31
0.0000000000
11
149.2144441031
21
72.0868217130
31
0.0000000000
11
148.4337774087
21
71.2350214931
31
0.0000000000
0
SPLINE
5
2F9
100
AcDbEntity
8
DEFAULT_2
100
AcDbSpline
62
8
6
HIDDEN
70
0
71
3
72
9
73
5
74
3
42
0.0000001000
43
0.0000001000
44
0.0000000001
40
0.0000000000
40
0.0000000000
40
0.0000000000
40
0.0000000000
40
0.5024489874
40
1.0000000000
40
1.0000000000
40
1.0000000000
40
1.0000000000
10
115.2839191650
20
127.2196576661
30
0.0000000000
10
115.2958252279
20
127.1896709038
30
0.0000000000
10
115.3190984175
20
127.1298208783
30
0.0000000000
10
115.3415046600
20
127.0696408267
30
0.0000000000
10
115.3524319985
20
127.0396182109
30
0.0000000000
11
115.2839191650
21
127.2196576661
31
0.0000000000
11
115.3189935439
21
127.1294444177
31
0.0000000000
11
115.3524319985
21
127.0396182109
31
0.0000000000
0
SPLINE
5
2FA
100
AcDbEntity
8
DEFAULT_2
100
AcDbSpline
62
8
6
HIDDEN
70
0
71
3
72
15
73
11
74
9
42
0.0000001000
43
0.0000001000
44
0.0000000001
40
0.0000000000
40
0.0000000000
40
0.0000000000
40
0.0000000000
40
0.0803687977
40
0.1658040623
40
0.2660187092
40
0.3841407839
40
0.5190168896
40
0.6682370827
40
0.8294939636
40
1.0000000000
40
1.0000000000
40
1.0000000000
40
1.0000000000
10
145.5563091610
20
188.3769804418
30
0.0000000000
10
145.7040103596
20
188.3769804418
30
0.0000000000
10
146.0136210082
20
188.4411296458
30
0.0000000000
10
146.4124860885
20
188.7453688094
30
0.0000000000
10
146.7225854106
20
189.2180725395
30
0.0000000000
10
146.9501637661
20
189.8297388908
30
0.0000000000
10
147.0984032668
20
190.5560760587
30
0.0000000000
10
147.1697755433
20
191.3728061091
30
0.0000000000
10
147.1657879203
20
192.2577580583
30
0.0000000000
10
147.1139163186
20
192.8660031609
30
0.0000000000
10
147.0753891684
20
193.1769804418
30
0.0000000000
11
145.5563091610
21
188.3769804418
31
0.0000000000
11
145.9898265553
21
188.4686508591
31
0.0000000000
11
146.3715106353
21
188.7446817761
31
0.0000000000
11
146.6869859602
21
189.1982841091
31
0.0000000000
11
146.9241611438
21
189.8048125153
31
0.0000000000
11
147.0797789237
21
190.5319701952
31
0.0000000000
11
147.1557585086
21
191.3511616010
31
0.0000000000
11
147.1542595007
21
192.2402305469
31
0.0000000000
11
147.0753891684
21
193.1769804418
31
0.0000000000
0
SPLINE
5
2FB
100
AcDbEntity
8
DEFAULT_2
100
AcDbSpline
62
8
6
HIDDEN
70
0
71
3
72
8
73
4
74
2
42
0.0000001000
43
0.0000001000
44
0.0000000001
40
0.0000000000
40
0.0000000000
40
0.0000000000
40
0.0000000000
40
1.0000000000
40
1.0000000000
40
1.0000000000
40
1.0000000000
10
330.1785414802
20
116.2826254987
30
0.0000000000
10
330.1791501574
20
116.2820745985
30
0.0000000000
10
330.1796303837
20
116.2496984091
30
0.0000000000
10
330.1796303837
20
116.2333314684
30
0.0000000000
11
330.1785414802
21
116.2826254987
31
0.0000000000
11
330.1796303837
21
116.2333314684
31
0.0000000000
0
SPLINE
5
2FC
100
AcDbEntity
8
DEFAULT_2
100
AcDbSpline
62
8
6
HIDDEN
70
0
71
3
72
9
73
5
74
3
42
0.0000001000
43
0.0000001000
44
0.0000000001
40
0.0000000000
40
0.0000000000
40
0.0000000000
40
0.0000000000
40
0.4999815953
40
1.0000000000
40
1.0000000000
40
1.0000000000
40
1.0000000000
10
315.5258045204
20
169.9769804418
30
0.0000000000
10
315.5267439331
20
169.9798926403
30
0.0000000000
10
315.5286221685
20
169.9857174644
30
0.0000000000
10
315.5304990865
20
169.9915427131
30
0.0000000000
10
315.5314372508
20
169.9944555507
30
0.0000000000
11
315.5258045204
21
169.9769804418
31
0.0000000000
11
315.5286217700
21
169.9857173561
31
0.0000000000
11
315.5314372508
21
169.9944555507
31
0.0000000000
0
SPLINE
5
2FD
100
AcDbEntity
8
DEFAULT_2
100
AcDbSpline
62
8
6
HIDDEN
70
0
71
3
72
8
73
4
74
2
42
0.0000001000
43
0.0000001000
44
0.0000000001
40
0.0000000000
40
0.0000000000
40
0.0000000000
40
0.0000000000
40
1.0000000000
40
1.0000000000
40
1.0000000000
40
1.0000000000
10
330.1771299929
20
116.2316509994
30
0.0000000000
10
330.1771299929
20
116.2487209616
30
0.0000000000
10
330.1779066580
20
116.2832000621
30
0.0000000000
10
330.1785414802
20
116.2826254987
30
0.0000000000
11
330.1771299929
21
116.2316509994
31
0.0000000000
11
330.1785414802
21
116.2826254987
31
0.0000000000
0
SPLINE
5
2FE
100
AcDbEntity
8
DEFAULT_2
100
AcDbSpline
62
8
6
HIDDEN
70
0
71
3
72
16
73
12
74
10
42
0.0000001000
43
0.0000001000
44
0.0000000001
40
0.0000000000
40
0.0000000000
40
0.0000000000
40
0.0000000000
40
0.1096143046
40
0.2235862653
40
0.3367237465
40
0.4489907024
40
0.5603967826
40
0.6710309439
40
0.7810391892
40
0.8906189140
40
1.0000000000
40
1.0000000000
40
1.0000000000
40
1.0000000000
10
286.1771304620
20
64.8048203517
30
0.0000000000
10
284.8670781368
20
65.2046564977
30
0.0000000000
10
282.2451970067
20
66.1970859401
30
0.0000000000
10
278.5365054526
20
68.2105895905
30
0.0000000000
10
275.1163418580
20
70.7407247409
30
0.0000000000
10
272.1079811350
20
73.7032454242
30
0.0000000000
10
269.5680756082
20
77.0370421103
30
0.0000000000
10
267.5436596992
20
80.6745941761
30
0.0000000000
10
266.0712600775
20
84.5443975750
30
0.0000000000
10
265.1771053032
20
88.5703003968
30
0.0000000000
10
264.9771299929
20
91.3102085067
30
0.0000000000
10
264.9771299929
20
92.6768355702
30
0.0000000000
11
286.1771304620
21
64.8048203517
31
0.0000000000
11
282.3345826575
21
66.2605555900
31
0.0000000000
11
278.5808641618
21
68.2999745855
31
0.0000000000
11
275.1726402256
21
70.8233414046
31
0.0000000000
11
272.1754840461
21
73.7771097557
31
0.0000000000
11
269.6460991177
21
77.0996654832
31
0.0000000000
11
267.6307063039
21
80.7238279641
31
0.0000000000
11
266.1652854531
21
84.5780303757
31
0.0000000000
11
265.2755375739
21
88.5878285157
31
0.0000000000
11
264.9771299929
21
92.6768355702
31
0.0000000000
0
SPLINE
5
2FF
100
AcDbEntity
8
DEFAULT_2
100
AcDbSpline
62
8
6
HIDDEN
70
0
71
3
72
16
73
12
74
10
42
0.0000001000
43
0.0000001000
44
0.0000000001
40
0.0000000000
40
0.0000000000
40
0.0000000000
40
0.0000000000
40
0.1096143046
40
0.2235862653
40
0.3367237465
40
0.4489907024
40
0.5603967826
40
0.6710309439
40
0.7810391892
40
0.8906189140
40
1.0000000000
40
1.0000000000
40
1.0000000000
40
1.0000000000
10
304.5771295238
20
64.8048203517
30
0.0000000000
10
305.8871818490
20
65.2046564977
30
0.0000000000
10
308.5090629791
20
66.1970859401
30
0.0000000000
10
312.2177545332
20
68.2105895905
30
0.0000000000
10
315.6379181279
20
70.7407247409
30
0.0000000000
10
318.6462788509
20
73.7032454242
30
0.0000000000
10
321.1861843776
20
77.0370421103
30
0.0000000000
10
323.2106002866
20
80.6745941761
30
0.0000000000
10
324.6829999083
20
84.5443975750
30
0.0000000000
10
325.5771546826
20
88.5703003968
30
0.0000000000
10
325.7771299929
20
91.3102085067
30
0.0000000000
10
325.7771299929
20
92.6768355702
30
0.0000000000
11
304.5771295238
21
64.8048203517
31
0.0000000000
11
308.4196773284
21
66.2605555900
31
0.0000000000
11
312.1733958240
21
68.2999745855
31
0.0000000000
11
315.5816197602
21
70.8233414046
31
0.0000000000
11
318.5787759398
21
73.7771097557
31
0.0000000000
11
321.1081608681
21
77.0996654832
31
0.0000000000
11
323.1235536819
21
80.7238279641
31
0.0000000000
11
324.5889745327
21
84.5780303757
31
0.0000000000
11
325.4787224120
21
88.5878285157
31
0.0000000000
11
325.7771299929
21
92.6768355702
31
0.0000000000
0
SPLINE
5
300
100
AcDbEntity
8
DEFAULT_2
100
AcDbSpline
62
8
6
HIDDEN
70
0
71
3
72
9
73
5
74
3
42
0.0000001000
43
0.0000001000
44
0.0000000001
40
0.0000000000
40
0.0000000000
40
0.0000000000
40
0.0000000000
40
0.4999815953
40
1.0000000000
40
1.0000000000
40
1.0000000000
40
1.0000000000
10
275.2284554654
20
169.9769804418
30
0.0000000000
10
275.2275160528
20
169.9798926403
30
0.0000000000
10
275.2256378173
20
169.9857174644
30
0.0000000000
10
275.2237608993
20
169.9915427131
30
0.0000000000
10
275.2228227350
20
169.9944555507
30
0.0000000000
11
275.2284554654
21
169.9769804418
31
0.0000000000
11
275.2256382158
21
169.9857173561
31
0.0000000000
11
275.2228227350
21
169.9944555507
31
0.0000000000
0
SPLINE
5
301
100
AcDbEntity
8
0
100
AcDbSpline
62
7
6
CONTINUOUS
70
0
71
3
72
8
73
4
74
2
42
0.0000001000
43
0.0000001000
44
0.0000000001
40
0.0000000000
40
0.0000000000
40
0.0000000000
40
0.0000000000
40
1.0000000000
40
1.0000000000
40
1.0000000000
40
1.0000000000
10
282.5911131654
20
261.5769464454
30
0.0000000000
10
282.1426313361
20
261.5769664363
30
0.0000000000
10
281.6942512920
20
261.5604364512
30
0.0000000000
10
281.2476918142
20
261.5243086293
30
0.0000000000
11
282.5911131654
21
261.5769464454
31
0.0000000000
11
281.2476918142
21
261.5243086293
31
0.0000000000
0
SPLINE
5
302
100
AcDbEntity
8
0
100
AcDbSpline
62
7
6
CONTINUOUS
70
0
71
3
72
17
73
13
74
11
42
0.0000001000
43
0.0000001000
44
0.0000000001
40
0.0000000000
40
0.0000000000
40
0.0000000000
40
0.0000000000
40
0.1437269707
40
0.2835024509
40
0.4155976099
40
0.5369709588
40
0.6459124885
40
0.7427004175
40
0.8300728862
40
0.9132002829
40
0.9987278380
40
1.0000000000
40
1.0000000000
40
1.0000000000
40
1.0000000000
10
314.5771299929
20
112.8824126895
30
0.0000000000
10
315.2332125163
20
112.8824126895
30
0.0000000000
10
316.5277230871
20
112.9218009040
30
0.0000000000
10
318.4177179963
20
113.1019616837
30
0.0000000000
10
320.1886350532
20
113.4085162143
30
0.0000000000
10
321.7867814016
20
113.8489987284
30
0.0000000000
10
323.1676150513
20
114.4318505325
30
0.0000000000
10
324.2966835994
20
115.1670623196
30
0.0000000000
10
325.1427042413
20
116.0667335845
30
0.0000000000
10
325.6665699621
20
117.1328502341
30
0.0000000000
10
325.7760630504
20
117.9129260792
30
0.0000000000
10
325.7771375779
20
118.3104016919
30
0.0000000000
10
325.7771415912
20
118.3162269689
30
0.0000000000
11
314.5771299929
21
112.8824126895
31
0.0000000000
11
316.5444196155
21
112.9438133312
31
0.0000000000
11
318.4494618623
21
113.1301593064
31
0.0000000000
11
320.2304769519
21
113.4468805350
31
0.0000000000
11
321.8295544288
21
113.9003392435
31
0.0000000000
11
323.1976176691
21
114.4954186103
31
0.0000000000
11
324.2980102944
21
115.2343016243
31
0.0000000000
11
325.1060354456
21
116.1167582692
31
0.0000000000
11
325.6042249947
21
117.1403336193
31
0.0000000000
11
325.7770942975
21
118.2987504417
31
0.0000000000
11
325.7771415912
21
118.3162269689
31
0.0000000000
0
SPLINE
5
303
100
AcDbEntity
8
0
100
AcDbSpline
62
7
6
CONTINUOUS
70
0
71
3
72
13
73
9
74
7
42
0.0000001000
43
0.0000001000
44
0.0000000001
40
0.0000000000
40
0.0000000000
40
0.0000000000
40
0.0000000000
40
0.2097522374
40
0.4109599426
40
0.6018942166
40
0.7574410860
40
0.8860555631
40
1.0000000000
40
1.0000000000
40
1.0000000000
40
1.0000000000
10
281.2475390412
20
261.5243031851
30
0.0000000000
10
280.1075535754
20
261.4320303430
30
0.0000000000
10
277.8769698143
20
261.2107574382
30
0.0000000000
10
274.6272715650
20
260.7429620475
30
0.0000000000
10
271.6982832710
20
260.1487734968
30
0.0000000000
10
269.2037116776
20
259.4373248339
30
0.0000000000
10
267.1838058973
20
258.6304107874
30
0.0000000000
10
266.0281418361
20
257.9743815292
30
0.0000000000
10
265.5172355567
20
257.6208381373
30
0.0000000000
11
281.2475390412
21
261.5243031851
31
0.0000000000
11
277.8336564383
21
261.1805942539
31
0.0000000000
11
274.5770912883
21
260.7032110656
31
0.0000000000
11
271.5192653856
21
260.0669706141
31
0.0000000000
11
269.0773589853
21
259.3519185230
31
0.0000000000
11
267.1304680103
21
258.5544571481
31
0.0000000000
11
265.5172355567
21
257.6208381373
31
0.0000000000
0
SPLINE
5
304
100
AcDbEntity
8
0
100
AcDbSpline
62
7
6
CONTINUOUS
70
0
71
3
72
10
73
6
74
4
42
0.0000001000
43
0.0000001000
44
0.0000000001
40
0.0000000000
40
0.0000000000
40
0.0000000000
40
0.0000000000
40
0.2737758558
40
0.6213396004
40
1.0000000000
40
1.0000000000
40
1.0000000000
40
1.0000000000
10
258.5712889582
20
252.8142892757
30
0.0000000000
10
257.6494316340
20
252.1762004536
30
0.0000000000
10
255.7102448907
20
250.5005860334
30
0.0000000000
10
253.1298171502
20
247.2997151291
30
0.0000000000
10
251.5945606758
20
244.7438351581
30
0.0000000000
10
250.8606398432
20
243.3778803030
30
0.0000000000
11
258.5712889582
21
252.8142892757
31
0.0000000000
11
256.0057425860
21
250.6387658609
31
0.0000000000
11
253.2876414214
21
247.3462656491
31
0.0000000000
11
250.8606398432
21
243.3778803030
31
0.0000000000
0
SPLINE
5
305
100
AcDbEntity
8
0
100
AcDbSpline
62
7
6
CONTINUOUS
70
0
71
3
72
11
73
7
74
5
42
0.0000001000
43
0.0000001000
44
0.0000000001
40
0.0000000000
40
0.0000000000
40
0.0000000000
40
0.0000000000
40
0.2099722770
40
0.4542004512
40
0.7206761808
40
1.0000000000
40
1.0000000000
40
1.0000000000
40
1.0000000000
10
250.8604333797
20
243.3774648314
30
0.0000000000
10
250.4404104957
20
242.5955727709
30
0.0000000000
10
249.6493181963
20
240.8386315842
30
0.0000000000
10
248.7895264730
20
237.9070392750
30
0.0000000000
10
248.2761972156
20
234.5993302519
30
0.0000000000
10
248.1771268372
20
232.2902962262
30
0.0000000000
10
248.1771304730
20
231.1096586104
30
0.0000000000
11
250.8604333797
21
243.3774648314
31
0.0000000000
11
249.7622428534
21
240.9517628614
31
0.0000000000
11
248.8795199506
21
237.9836412055
31
0.0000000000
11
248.3454649997
21
234.6474340699
31
0.0000000000
11
248.1771304730
21
231.1096586104
31
0.0000000000
0
SPLINE
5
306
100
AcDbEntity
8
0
100
AcDbSpline
62
7
6
CONTINUOUS
70
0
71
3
72
13
73
9
74
7
42
0.0000001000
43
0.0000001000
44
0.0000000001
40
0.0000000000
40
0.0000000000
40
0.0000000000
40
0.0000000000
40
0.1705986015
40
0.3411991157
40
0.5118008242
40
0.6824034346
40
0.8530065580
40
1.0000000000
40
1.0000000000
40
1.0000000000
40
1.0000000000
10
262.1704945784
20
50.5930644273
30
0.0000000000
10
262.3544676970
20
50.2439854620
30
0.0000000000
10
262.7882616421
20
49.5783249620
30
0.0000000000
10
263.6108000174
20
48.7180108353
30
0.0000000000
10
264.5779682723
20
48.0235604692
30
0.0000000000
10
265.6564391985
20
47.5192101399
30
0.0000000000
10
266.7561607672
20
47.2357856043
30
0.0000000000
10
267.4918545902
20
47.1770180696
30
0.0000000000
10
267.8323144181
20
47.1769944197
30
0.0000000000
11
262.1704945784
21
50.5930644273
31
0.0000000000
11
262.8168995562
21
49.6013584750
31
0.0000000000
11
263.6349017648
21
48.7456576515
31
0.0000000000
11
264.5965160582
21
48.0552453954
31
0.0000000000
11
265.6688432452
21
47.5537472848
31
0.0000000000
11
266.8151939630
21
47.2583248559
31
0.0000000000
11
267.8323144181
21
47.1769944197
31
0.0000000000
0
SPLINE
5
307
100
AcDbEntity
8
0
100
AcDbSpline
62
7
6
CONTINUOUS
70
0
71
3
72
8
73
4
74
2
42
0.0000001000
43
0.0000001000
44
0.0000000001
40
0.0000000000
40
0.0000000000
40
0.0000000000
40
0.0000000000
40
1.0000000000
40
1.0000000000
40
1.0000000000
40
1.0000000000
10
309.5065681716
20
261.5243086293
30
0.0000000000
10
309.0600086938
20
261.5604364512
30
0.0000000000
10
308.6116286497
20
261.5769664363
30
0.0000000000
10
308.1631468204
20
261.5769464454
30
0.0000000000
11
309.5065681716
21
261.5243086293
31
0.0000000000
11
308.1631468204
21
261.5769464454
31
0.0000000000
0
SPLINE
5
308
100
AcDbEntity
8
0
100
AcDbSpline
62
7
6
CONTINUOUS
70
0
71
3
72
13
73
9
74
7
42
0.0000001000
43
0.0000001000
44
0.0000000001
40
0.0000000000
40
0.0000000000
40
0.0000000000
40
0.0000000000
40
0.2097522374
40
0.4109599426
40
0.6018942166
40
0.7574410860
40
0.8860555631
40
1.0000000000
40
1.0000000000
40
1.0000000000
40
1.0000000000
10
309.5067209446
20
261.5243031851
30
0.0000000000
10
310.6467064104
20
261.4320303430
30
0.0000000000
10
312.8772901715
20
261.2107574382
30
0.0000000000
10
316.1269884208
20
260.7429620475
30
0.0000000000
10
319.0559767148
20
260.1487734968
30
0.0000000000
10
321.5505483082
20
259.4373248339
30
0.0000000000
10
323.5704540885
20
258.6304107874
30
0.0000000000
10
324.7261181497
20
257.9743815292
30
0.0000000000
10
325.2370244291
20
257.6208381373
30
0.0000000000
11
309.5067209446
21
261.5243031851
31
0.0000000000
11
312.9206035475
21
261.1805942539
31
0.0000000000
11
316.1771686975
21
260.7032110656
31
0.0000000000
11
319.2349946002
21
260.0669706141
31
0.0000000000
11
321.6769010005
21
259.3519185230
31
0.0000000000
11
323.6237919755
21
258.5544571481
31
0.0000000000
11
325.2370244291
21
257.6208381373
31
0.0000000000
0
SPLINE
5
309
100
AcDbEntity
8
0
100
AcDbSpline
62
7
6
CONTINUOUS
70
0
71
3
72
10
73
6
74
4
42
0.0000001000
43
0.0000001000
44
0.0000000001
40
0.0000000000
40
0.0000000000
40
0.0000000000
40
0.0000000000
40
0.3787097533
40
0.7265457881
40
1.0000000000
40
1.0000000000
40
1.0000000000
40
1.0000000000
10
339.8936226572
20
243.3778756293
30
0.0000000000
10
339.1596080799
20
244.7440054580
30
0.0000000000
10
337.6236643632
20
247.3009983383
30
0.0000000000
10
335.0429740623
20
250.5017171244
30
0.0000000000
10
333.1037697478
20
252.1769302267
30
0.0000000000
10
332.1829988493
20
252.8142700171
30
0.0000000000
11
339.8936226572
21
243.3778756293
31
0.0000000000
11
337.4662779948
21
247.3467500547
31
0.0000000000
11
334.7457484849
21
250.6415708762
31
0.0000000000
11
332.1829988493
21
252.8142700171
31
0.0000000000
0
SPLINE
5
30A
100
AcDbEntity
8
0
100
AcDbSpline
62
7
6
CONTINUOUS
70
0
71
3
72
11
73
7
74
5
42
0.0000001000
43
0.0000001000
44
0.0000000001
40
0.0000000000
40
0.0000000000
40
0.0000000000
40
0.0000000000
40
0.2793238192
40
0.5457995488
40
0.7900277230
40
1.0000000000
40
1.0000000000
40
1.0000000000
40
1.0000000000
10
342.5771295129
20
231.1096586104
30
0.0000000000
10
342.5771331486
20
232.2902962262
30
0.0000000000
10
342.4780627702
20
234.5993302519
30
0.0000000000
10
341.9647335128
20
237.9070392750
30
0.0000000000
10
341.1049417895
20
240.8386315842
30
0.0000000000
10
340.3138494902
20
242.5955727709
30
0.0000000000
10
339.8938266061
20
243.3774648314
30
0.0000000000
11
342.5771295129
21
231.1096586104
31
0.0000000000
11
342.4087949861
21
234.6474340699
31
0.0000000000
11
341.8747400352
21
237.9836412055
31
0.0000000000
11
340.9920171324
21
240.9517628614
31
0.0000000000
11
339.8938266061
21
243.3774648314
31
0.0000000000
0
SPLINE
5
30B
100
AcDbEntity
8
0
100
AcDbSpline
62
7
6
CONTINUOUS
70
0
71
3
72
13
73
9
74
7
42
0.0000001000
43
0.0000001000
44
0.0000000001
40
0.0000000000
40
0.0000000000
40
0.0000000000
40
0.0000000000
40
0.1450753534
40
0.3160620595
40
0.4870482613
40
0.6580335785
40
0.8290177287
40
1.0000000000
40
1.0000000000
40
1.0000000000
40
1.0000000000
10
322.9219455677
20
47.1769956020
30
0.0000000000
10
323.2579649551
20
47.1770192973
30
0.0000000000
10
323.9901063268
20
47.2347328040
30
0.0000000000
10
325.0877873215
20
47.5154394961
30
0.0000000000
10
326.1694421456
20
48.0193599621
30
0.0000000000
10
327.1395296668
20
48.7143795972
30
0.0000000000
10
327.9644720097
20
49.5761326617
30
0.0000000000
10
328.3993896916
20
50.2432188916
30
0.0000000000
10
328.5837747793
20
50.5930822101
30
0.0000000000
11
322.9219455677
21
47.1769956020
31
0.0000000000
11
323.9259083456
21
47.2562209026
31
0.0000000000
11
325.0753849712
21
47.5501534255
31
0.0000000000
11
326.1508502040
21
48.0512113758
31
0.0000000000
11
327.1153419685
21
48.7421712941
31
0.0000000000
11
327.9357143100
21
49.5992827091
31
0.0000000000
11
328.5837747793
21
50.5930822101
31
0.0000000000
0
SPLINE
5
30C
100
AcDbEntity
8
0
100
AcDbSpline
62
7
6
CONTINUOUS
70
0
71
3
72
12
73
8
74
6
42
0.0000001000
43
0.0000001000
44
0.0000000001
40
0.0000000000
40
0.0000000000
40
0.0000000000
40
0.0000000000
40
0.2103510793
40
0.4174348222
40
0.6192282394
40
0.8138950448
40
1.0000000000
40
1.0000000000
40
1.0000000000
40
1.0000000000
10
303.1608681347
20
75.5357477612
30
0.0000000000
10
303.3379322194
20
75.2671399173
30
0.0000000000
10
303.6634708950
20
74.7164719502
30
0.0000000000
10
304.0602889955
20
73.8547113276
30
0.0000000000
10
304.3534294794
20
72.9772627793
30
0.0000000000
10
304.5342779606
20
72.1026306814
30
0.0000000000
10
304.5771299929
20
71.5196558218
30
0.0000000000
10
304.5771299929
20
71.2350214931
30
0.0000000000
11
303.1608681347
21
75.5357477612
31
0.0000000000
11
303.6512821239
21
74.7044771107
31
0.0000000000
11
304.0474090859
21
73.8408296913
31
0.0000000000
11
304.3388894439
21
72.9620211942
31
0.0000000000
11
304.5172409696
21
72.0868217130
31
0.0000000000
11
304.5771299929
21
71.2350214931
31
0.0000000000
0
SPLINE
5
30D
100
AcDbEntity
8
0
100
AcDbSpline
62
7
6
CONTINUOUS
70
0
71
3
72
14
73
10
74
8
42
0.0000001000
43
0.0000001000
44
0.0000000001
40
0.0000000000
40
0.0000000000
40
0.0000000000
40
0.0000000000
40
0.1640348062
40
0.3193678141
40
0.4658788558
40
0.6063843311
40
0.7428850653
40
0.8744363396
40
1.0000000000
40
1.0000000000
40
1.0000000000
40
1.0000000000
10
303.1608681347
20
75.5357477612
30
0.0000000000
10
302.9139874739
20
75.9658847085
30
0.0000000000
10
302.3710240700
20
76.7695648873
30
0.0000000000
10
301.4131679410
20
77.8092093037
30
0.0000000000
10
300.3661918367
20
78.6495005527
30
0.0000000000
10
299.2546334558
20
79.2948335187
30
0.0000000000
10
298.1003558273
20
79.7481787317
30
0.0000000000
10
296.9353035967
20
80.0114597857
30
0.0000000000
10
296.1567657702
20
80.0685498485
30
0.0000000000
10
295.7771299929
20
80.0685498485
30
0.0000000000
11
303.1608681347
21
75.5357477612
31
0.0000000000
11
302.3262446095
21
76.7674596830
31
0.0000000000
11
301.3701829316
21
77.8023598941
31
0.0000000000
11
300.3327019285
21
78.6327986423
31
0.0000000000
11
299.2298217107
21
79.2714218803
31
0.0000000000
11
298.0770147656
21
79.7230342916
31
0.0000000000
11
296.9129971658
21
79.9853893036
31
0.0000000000
11
295.7771299929
21
80.0685498485
31
0.0000000000
0
SPLINE
5
30E
100
AcDbEntity
8
0
100
AcDbSpline
62
7
6
CONTINUOUS
70
0
71
3
72
17
73
13
74
11
42
0.0000001000
43
0.0000001000
44
0.0000000001
40
0.0000000000
40
0.0000000000
40
0.0000000000
40
0.0000000000
40
0.1437269707
40
0.2835024509
40
0.4155976099
40
0.5369709588
40
0.6459124885
40
0.7427004175
40
0.8300728862
40
0.9132002829
40
0.9987278380
40
1.0000000000
40
1.0000000000
40
1.0000000000
40
1.0000000000
10
276.1771299929
20
112.8824126895
30
0.0000000000
10
275.5210474695
20
112.8824126895
30
0.0000000000
10
274.2265368987
20
112.9218009040
30
0.0000000000
10
272.3365419895
20
113.1019616837
30
0.0000000000
10
270.5656249326
20
113.4085162143
30
0.0000000000
10
268.9674785842
20
113.8489987284
30
0.0000000000
10
267.5866449345
20
114.4318505325
30
0.0000000000
10
266.4575763864
20
115.1670623196
30
0.0000000000
10
265.6115557445
20
116.0667335845
30
0.0000000000
10
265.0876900237
20
117.1328502341
30
0.0000000000
10
264.9781969354
20
117.9129260792
30
0.0000000000
10
264.9771224079
20
118.3104016919
30
0.0000000000
10
264.9771183946
20
118.3162269689
30
0.0000000000
11
276.1771299929
21
112.8824126895
31
0.0000000000
11
274.2098403704
21
112.9438133312
31
0.0000000000
11
272.3047981235
21
113.1301593064
31
0.0000000000
11
270.5237830339
21
113.4468805350
31
0.0000000000
11
268.9247055570
21
113.9003392435
31
0.0000000000
11
267.5566423167
21
114.4954186103
31
0.0000000000
11
266.4562496914
21
115.2343016243
31
0.0000000000
11
265.6482245402
21
116.1167582692
31
0.0000000000
11
265.1500349911
21
117.1403336193
31
0.0000000000
11
264.9771656883
21
118.2987504417
31
0.0000000000
11
264.9771183946
21
118.3162269689
31
0.0000000000
0
SPLINE
5
30F
100
AcDbEntity
8
0
100
AcDbSpline
62
7
6
CONTINUOUS
70
0
71
3
72
14
73
10
74
8
42
0.0000001000
43
0.0000001000
44
0.0000000001
40
0.0000000000
40
0.0000000000
40
0.0000000000
40
0.0000000000
40
0.1640348062
40
0.3193678141
40
0.4658788558
40
0.6063843311
40
0.7428850653
40
0.8744363396
40
1.0000000000
40
1.0000000000
40
1.0000000000
40
1.0000000000
10
287.5933918512
20
75.5357477612
30
0.0000000000
10
287.8402725119
20
75.9658847085
30
0.0000000000
10
288.3832359158
20
76.7695648873
30
0.0000000000
10
289.3410920448
20
77.8092093037
30
0.0000000000
10
290.3880681491
20
78.6495005527
30
0.0000000000
10
291.4996265300
20
79.2948335187
30
0.0000000000
10
292.6539041585
20
79.7481787317
30
0.0000000000
10
293.8189563891
20
80.0114597857
30
0.0000000000
10
294.5974942156
20
80.0685498485
30
0.0000000000
10
294.9771299929
20
80.0685498485
30
0.0000000000
11
287.5933918512
21
75.5357477612
31
0.0000000000
11
288.4280153763
21
76.7674596830
31
0.0000000000
11
289.3840770542
21
77.8023598941
31
0.0000000000
11
290.4215580573
21
78.6327986423
31
0.0000000000
11
291.5244382751
21
79.2714218803
31
0.0000000000
11
292.6772452202
21
79.7230342916
31
0.0000000000
11
293.8412628201
21
79.9853893036
31
0.0000000000
11
294.9771299929
21
80.0685498485
31
0.0000000000
0
SPLINE
5
310
100
AcDbEntity
8
0
100
AcDbSpline
62
7
6
CONTINUOUS
70
0
71
3
72
12
73
8
74
6
42
0.0000001000
43
0.0000001000
44
0.0000000001
40
0.0000000000
40
0.0000000000
40
0.0000000000
40
0.0000000000
40
0.2103510793
40
0.4174348222
40
0.6192282394
40
0.8138950448
40
1.0000000000
40
1.0000000000
40
1.0000000000
40
1.0000000000
10
287.5933918512
20
75.5357477612
30
0.0000000000
10
287.4163277664
20
75.2671399173
30
0.0000000000
10
287.0907890908
20
74.7164719502
30
0.0000000000
10
286.6939709903
20
73.8547113276
30
0.0000000000
10
286.4008305064
20
72.9772627793
30
0.0000000000
10
286.2199820252
20
72.1026306814
30
0.0000000000
10
286.1771299929
20
71.5196558218
30
0.0000000000
10
286.1771299929
20
71.2350214931
30
0.0000000000
11
287.5933918512
21
75.5357477612
31
0.0000000000
11
287.1029778620
21
74.7044771107
31
0.0000000000
11
286.7068508999
21
73.8408296913
31
0.0000000000
11
286.4153705419
21
72.9620211942
31
0.0000000000
11
286.2370190162
21
72.0868217130
31
0.0000000000
11
286.1771299929
21
71.2350214931
31
0.0000000000
0
SPLINE
5
311
100
AcDbEntity
8
0
100
AcDbSpline
62
7
6
CONTINUOUS
70
0
71
3
72
10
73
6
74
4
42
0.0000001000
43
0.0000001000
44
0.0000000001
40
0.0000000000
40
0.0000000000
40
0.0000000000
40
0.0000000000
40
0.3437531465
40
0.6687280980
40
1.0000000000
40
1.0000000000
40
1.0000000000
40
1.0000000000
10
269.2095567567
20
220.3769606711
30
0.0000000000
10
268.8109287367
20
219.8106351268
30
0.0000000000
10
268.1321275513
20
218.6383668428
30
0.0000000000
10
267.3843864300
20
216.7623922824
30
0.0000000000
10
267.0449605562
20
215.4811138789
30
0.0000000000
10
266.9077865018
20
214.8279561184
30
0.0000000000
11
269.2095567567
21
220.3769606711
31
0.0000000000
11
268.1603030727
21
218.5837158491
31
0.0000000000
11
267.4261918409
21
216.7619007754
31
0.0000000000
11
266.9077865018
21
214.8279561184
31
0.0000000000
0
SPLINE
5
312
100
AcDbEntity
8
0
100
AcDbSpline
62
7
6
CONTINUOUS
70
0
71
3
72
16
73
12
74
10
42
0.0000001000
43
0.0000001000
44
0.0000000001
40
0.0000000000
40
0.0000000000
40
0.0000000000
40
0.0000000000
40
0.0831411393
40
0.1789155209
40
0.2871082866
40
0.4054328253
40
0.5289750671
40
0.6523344218
40
0.7720508872
40
0.8874724267
40
1.0000000000
40
1.0000000000
40
1.0000000000
40
1.0000000000
10
264.9771183946
20
118.3162269689
30
0.0000000000
10
264.9768251854
20
118.7418214631
30
0.0000000000
10
265.1109929546
20
119.6549034952
30
0.0000000000
10
265.6528453489
20
121.0274493685
30
0.0000000000
10
266.5381401578
20
122.4233468458
30
0.0000000000
10
267.7314383865
20
123.7623049125
30
0.0000000000
10
269.1703475796
20
124.9574662102
30
0.0000000000
10
270.7736754287
20
125.9344313845
30
0.0000000000
10
272.4647415395
20
126.6499724399
30
0.0000000000
10
274.1896153089
20
127.0917351283
30
0.0000000000
10
275.3524451136
20
127.2069088238
30
0.0000000000
10
275.9265324359
20
127.2196576661
30
0.0000000000
11
264.9771183946
21
118.3162269689
31
0.0000000000
11
265.1454623685
21
119.5779576963
31
0.0000000000
11
265.6680660001
21
120.9478708844
31
0.0000000000
11
266.5445178493
21
122.3533047941
31
0.0000000000
11
267.7443856043
21
123.7103622083
31
0.0000000000
11
269.1978667155
21
124.9205057799
31
0.0000000000
11
270.8111303062
21
125.9022657133
31
0.0000000000
11
272.4998858857
21
126.6143372446
31
0.0000000000
11
274.2121533446
21
127.0506801224
31
0.0000000000
11
275.9265324359
21
127.2196576661
31
0.0000000000
0
SPLINE
5
313
100
AcDbEntity
8
0
100
AcDbSpline
62
7
6
CONTINUOUS
70
0
71
3
72
10
73
6
74
4
42
0.0000001000
43
0.0000001000
44
0.0000000001
40
0.0000000000
40
0.0000000000
40
0.0000000000
40
0.0000000000
40
0.3437531465
40
0.6687280980
40
1.0000000000
40
1.0000000000
40
1.0000000000
40
1.0000000000
10
321.5447032291
20
220.3769606711
30
0.0000000000
10
321.9433312492
20
219.8106351268
30
0.0000000000
10
322.6221324346
20
218.6383668428
30
0.0000000000
10
323.3698735558
20
216.7623922824
30
0.0000000000
10
323.7092994296
20
215.4811138789
30
0.0000000000
10
323.8464734841
20
214.8279561184
30
0.0000000000
11
321.5447032291
21
220.3769606711
31
0.0000000000
11
322.5939569131
21
218.5837158491
31
0.0000000000
11
323.3280681449
21
216.7619007754
31
0.0000000000
11
323.8464734841
21
214.8279561184
31
0.0000000000
0
SPLINE
5
314
100
AcDbEntity
8
0
100
AcDbSpline
62
7
6
CONTINUOUS
70
0
71
3
72
16
73
12
74
10
42
0.0000001000
43
0.0000001000
44
0.0000000001
40
0.0000000000
40
0.0000000000
40
0.0000000000
40
0.0000000000
40
0.0831411393
40
0.1789155209
40
0.2871082866
40
0.4054328253
40
0.5289750671
40
0.6523344218
40
0.7720508872
40
0.8874724267
40
1.0000000000
40
1.0000000000
40
1.0000000000
40
1.0000000000
10
325.7771415912
20
118.3162269689
30
0.0000000000
10
325.7774348004
20
118.7418214631
30
0.0000000000
10
325.6432670312
20
119.6549034952
30
0.0000000000
10
325.1014146369
20
121.0274493685
30
0.0000000000
10
324.2161198280
20
122.4233468458
30
0.0000000000
10
323.0228215993
20
123.7623049125
30
0.0000000000
10
321.5839124062
20
124.9574662102
30
0.0000000000
10
319.9805845572
20
125.9344313845
30
0.0000000000
10
318.2895184463
20
126.6499724399
30
0.0000000000
10
316.5646446769
20
127.0917351283
30
0.0000000000
10
315.4018148722
20
127.2069088238
30
0.0000000000
10
314.8277275499
20
127.2196576661
30
0.0000000000
11
325.7771415912
21
118.3162269689
31
0.0000000000
11
325.6087976174
21
119.5779576963
31
0.0000000000
11
325.0861939857
21
120.9478708844
31
0.0000000000
11
324.2097421365
21
122.3533047941
31
0.0000000000
11
323.0098743815
21
123.7103622083
31
0.0000000000
11
321.5563932703
21
124.9205057799
31
0.0000000000
11
319.9431296796
21
125.9022657133
31
0.0000000000
11
318.2543741001
21
126.6143372446
31
0.0000000000
11
316.5421066412
21
127.0506801224
31
0.0000000000
11
314.8277275499
21
127.2196576661
31
0.0000000000
0
SPLINE
5
315
100
AcDbEntity
8
0
100
AcDbSpline
62
7
6
CONTINUOUS
70
0
71
3
72
16
73
12
74
10
42
0.0000001000
43
0.0000001000
44
0.0000000001
40
0.0000000000
40
0.0000000000
40
0.0000000000
40
0.0000000000
40
0.1477568165
40
0.2769095180
40
0.3920484772
40
0.4977392712
40
0.5985010663
40
0.6985487248
40
0.7991032151
40
0.8997476085
40
1.0000000000
40
1.0000000000
40
1.0000000000
40
1.0000000000
10
326.8380490544
20
174.3769804418
30
0.0000000000
10
326.8380490544
20
173.1846808917
30
0.0000000000
10
326.8172381067
20
170.9501367226
30
0.0000000000
10
326.7279599552
20
167.7876446210
30
0.0000000000
10
326.5924998824
20
164.9665698819
30
0.0000000000
10
326.4123609074
20
162.3775816075
30
0.0000000000
10
326.1817188302
20
159.9148411559
30
0.0000000000
10
325.8890004919
20
157.5003705236
30
0.0000000000
10
325.5204569641
20
155.0971318352
30
0.0000000000
10
325.0650399241
20
152.7070644305
30
0.0000000000
10
324.6969763610
20
151.1276842864
30
0.0000000000
10
324.4956290674
20
150.3441715108
30
0.0000000000
11
326.8380490544
21
174.3769804418
31
0.0000000000
11
326.8038111815
21
170.8002456567
31
0.0000000000
11
326.7138898172
21
167.6750089990
31
0.0000000000
11
326.5784513375
21
164.8910163255
31
0.0000000000
11
326.3991922401
21
162.3387397980
31
0.0000000000
11
326.1701184103
21
159.9102773441
31
0.0000000000
11
325.8769144718
21
157.5061357867
31
0.0000000000
11
325.5061260703
21
155.1003171119
31
0.0000000000
11
325.0482448953
21
152.7073288831
31
0.0000000000
11
324.4956290674
21
150.3441715108
31
0.0000000000
0
SPLINE
5
316
100
AcDbEntity
8
0
100
AcDbSpline
62
7
6
CONTINUOUS
70
0
71
3
72
12
73
8
74
6
42
0.0000001000
43
0.0000001000
44
0.0000000001
40
0.0000000000
40
0.0000000000
40
0.0000000000
40
0.0000000000
40
0.1918164859
40
0.3923307947
40
0.5968293247
40
0.8009365763
40
1.0000000000
40
1.0000000000
40
1.0000000000
40
1.0000000000
10
326.4451873997
20
196.6925620714
30
0.0000000000
10
326.5003602525
20
196.0859374237
30
0.0000000000
10
326.5987797235
20
194.8438345272
30
0.0000000000
10
326.7090217629
20
192.9516471861
30
0.0000000000
10
326.7851666321
20
191.0187319253
30
0.0000000000
10
326.8286913393
20
189.0894429485
30
0.0000000000
10
326.8380490544
20
187.8091221500
30
0.0000000000
10
326.8380490544
20
187.1769804418
30
0.0000000000
11
326.4451873997
21
196.6925620714
31
0.0000000000
11
326.5903945402
21
194.8709549653
31
0.0000000000
11
326.7023588706
21
192.9639917147
31
0.0000000000
11
326.7797520156
21
191.0173255986
31
0.0000000000
11
326.8240498312
21
189.0733538951
31
0.0000000000
11
326.8380490544
21
187.1769804418
31
0.0000000000
0
SPLINE
5
317
100
AcDbEntity
8
0
100
AcDbSpline
62
7
6
CONTINUOUS
70
0
71
3
72
17
73
13
74
11
42
0.0000001000
43
0.0000001000
44
0.0000000001
40
0.0000000000
40
0.0000000000
40
0.0000000000
40
0.0000000000
40
0.1003513143
40
0.2016963318
40
0.3010445871
40
0.3967461857
40
0.4908556829
40
0.5853401597
40
0.6833542495
40
0.7864423119
40
0.8926851520
40
1.0000000000
40
1.0000000000
40
1.0000000000
40
1.0000000000
10
304.5771299929
20
129.4705607863
30
0.0000000000
10
304.5771299929
20
129.8573529871
30
0.0000000000
10
304.4741502172
20
130.6393453803
30
0.0000000000
10
304.0069115450
20
131.7167803139
30
0.0000000000
10
303.2964178272
20
132.6246542421
30
0.0000000000
10
302.4399989930
20
133.3472117315
30
0.0000000000
10
301.4967728383
20
133.9122294222
30
0.0000000000
10
300.4812904174
20
134.3535333777
30
0.0000000000
10
299.3910347126
20
134.6910230874
30
0.0000000000
10
298.2288837533
20
134.9295381288
30
0.0000000000
10
297.0146687097
20
135.0667683418
30
0.0000000000
10
296.1907241262
20
135.0896605874
30
0.0000000000
10
295.7771299929
20
135.0840406933
30
0.0000000000
11
304.5771299929
21
129.4705607863
31
0.0000000000
11
304.4226576021
21
130.6206095419
31
0.0000000000
11
303.9605650623
21
131.6975229992
31
0.0000000000
11
303.2591042203
21
132.6072722955
31
0.0000000000
11
302.4181052313
21
133.3265144049
31
0.0000000000
11
301.4874347475
21
133.8904604345
31
0.0000000000
11
300.4870558026
21
134.3296417201
31
0.0000000000
11
299.4053161355
21
134.6677595232
31
0.0000000000
11
298.2381039588
21
134.9096938314
31
0.0000000000
11
297.0175338659
21
135.0490629186
31
0.0000000000
11
295.7771299929
21
135.0840406933
31
0.0000000000
0
SPLINE
5
318
100
AcDbEntity
8
0
100
AcDbSpline
62
7
6
CONTINUOUS
70
0
71
3
72
10
73
6
74
4
42
0.0000001000
43
0.0000001000
44
0.0000000001
40
0.0000000000
40
0.0000000000
40
0.0000000000
40
0.0000000000
40
0.3319886405
40
0.6654479417
40
1.0000000000
40
1.0000000000
40
1.0000000000
40
1.0000000000
10
314.5771299929
20
127.0396182109
30
0.0000000000
10
313.5743668319
20
126.3208177941
30
0.0000000000
10
311.4782512745
20
124.9960781621
30
0.0000000000
10
308.1230964421
20
123.3810374100
30
0.0000000000
10
305.7724754071
20
122.5629763795
30
0.0000000000
10
304.5771299929
20
122.2209891699
30
0.0000000000
11
314.5771299929
21
127.0396182109
31
0.0000000000
11
311.4488931656
21
125.0612334359
31
0.0000000000
11
308.0995172954
21
123.4477902495
31
0.0000000000
11
304.5771299929
21
122.2209891699
31
0.0000000000
0
SPLINE
5
319
100
AcDbEntity
8
0
100
AcDbSpline
62
7
6
CONTINUOUS
70
0
71
3
72
9
73
5
74
3
42
0.0000001000
43
0.0000001000
44
0.0000000001
40
0.0000000000
40
0.0000000000
40
0.0000000000
40
0.0000000000
40
0.5006973719
40
1.0000000000
40
1.0000000000
40
1.0000000000
40
1.0000000000
10
314.8277275499
20
127.2196576661
30
0.0000000000
10
314.7859361066
20
127.1895632497
30
0.0000000000
10
314.7024356240
20
127.1295054644
30
0.0000000000
10
314.6188700400
20
127.0695383001
30
0.0000000000
10
314.5771299929
20
127.0396182109
30
0.0000000000
11
314.8277275499
21
127.2196576661
31
0.0000000000
11
314.7023028415
21
127.1294444177
31
0.0000000000
11
314.5771299929
21
127.0396182109
31
0.0000000000
0
SPLINE
5
31A
100
AcDbEntity
8
0
100
AcDbSpline
62
7
6
CONTINUOUS
70
0
71
3
72
13
73
9
74
7
42
0.0000001000
43
0.0000001000
44
0.0000000001
40
0.0000000000
40
0.0000000000
40
0.0000000000
40
0.0000000000
40
0.1660479933
40
0.3341111361
40
0.5028274335
40
0.6708521683
40
0.8370081773
40
1.0000000000
40
1.0000000000
40
1.0000000000
40
1.0000000000
10
324.4956290674
20
150.3441715108
30
0.0000000000
10
324.1489145059
20
148.9949838284
30
0.0000000000
10
323.3942908062
20
146.2945018524
30
0.0000000000
10
322.0840766574
20
142.2833609597
30
0.0000000000
10
320.5835048367
20
138.3214053406
30
0.0000000000
10
318.8887582150
20
134.4554967994
30
0.0000000000
10
316.9945850326
20
130.7367344426
30
0.0000000000
10
315.5765226889
20
128.3637947961
30
0.0000000000
10
314.8277275499
20
127.2196576661
30
0.0000000000
11
324.4956290674
21
150.3441715108
31
0.0000000000
11
323.3701990170
21
146.3194885783
31
0.0000000000
11
322.0550081461
21
142.2993628123
31
0.0000000000
11
320.5478575733
21
138.3296060791
31
0.0000000000
11
318.8452949890
21
134.4586575716
31
0.0000000000
11
316.9407262712
21
130.7357537679
31
0.0000000000
11
314.8277275499
21
127.2196576661
31
0.0000000000
0
SPLINE
5
31B
100
AcDbEntity
8
0
100
AcDbSpline
62
7
6
CONTINUOUS
70
0
71
3
72
12
73
8
74
6
42
0.0000001000
43
0.0000001000
44
0.0000000001
40
0.0000000000
40
0.0000000000
40
0.0000000000
40
0.0000000000
40
0.1788704395
40
0.3717672660
40
0.5752451629
40
0.7862496850
40
1.0000000000
40
1.0000000000
40
1.0000000000
40
1.0000000000
10
266.9077865018
20
214.8279561184
30
0.0000000000
10
266.6831590587
20
213.7583868165
30
0.0000000000
10
266.2512921522
20
211.5279454939
30
0.0000000000
10
265.6730021075
20
208.0607571701
30
0.0000000000
10
265.1480852898
20
204.3866426949
30
0.0000000000
10
264.6870692322
20
200.5756452336
30
0.0000000000
10
264.4273675246
20
197.9932130543
30
0.0000000000
10
264.3090725862
20
196.6925620714
30
0.0000000000
11
266.9077865018
21
214.8279561184
31
0.0000000000
11
266.2810430481
21
211.6097086976
31
0.0000000000
11
265.6968810929
21
208.1224858173
31
0.0000000000
11
265.1676161237
21
204.4304648939
31
0.0000000000
11
264.7019156971
21
200.5908763655
31
0.0000000000
11
264.3090725862
21
196.6925620714
31
0.0000000000
0
SPLINE
5
31C
100
AcDbEntity
8
0
100
AcDbSpline
62
7
6
CONTINUOUS
70
0
71
3
72
12
73
8
74
6
42
0.0000001000
43
0.0000001000
44
0.0000000001
40
0.0000000000
40
0.0000000000
40
0.0000000000
40
0.0000000000
40
0.1918164859
40
0.3923307947
40
0.5968293247
40
0.8009365763
40
1.0000000000
40
1.0000000000
40
1.0000000000
40
1.0000000000
10
264.3090725862
20
196.6925620714
30
0.0000000000
10
264.2538997333
20
196.0859374237
30
0.0000000000
10
264.1554802623
20
194.8438345272
30
0.0000000000
10
264.0452382229
20
192.9516471861
30
0.0000000000
10
263.9690933537
20
191.0187319253
30
0.0000000000
10
263.9255686465
20
189.0894429485
30
0.0000000000
10
263.9162109314
20
187.8091221500
30
0.0000000000
10
263.9162109314
20
187.1769804418
30
0.0000000000
11
264.3090725862
21
196.6925620714
31
0.0000000000
11
264.1638654456
21
194.8709549653
31
0.0000000000
11
264.0519011152
21
192.9639917147
31
0.0000000000
11
263.9745079702
21
191.0173255986
31
0.0000000000
11
263.9302101546
21
189.0733538951
31
0.0000000000
11
263.9162109314
21
187.1769804418
31
0.0000000000
0
SPLINE
5
31D
100
AcDbEntity
8
0
100
AcDbSpline
62
7
6
CONTINUOUS
70
0
71
3
72
16
73
12
74
10
42
0.0000001000
43
0.0000001000
44
0.0000000001
40
0.0000000000
40
0.0000000000
40
0.0000000000
40
0.0000000000
40
0.1477568165
40
0.2769095180
40
0.3920484772
40
0.4977392712
40
0.5985010663
40
0.6985487248
40
0.7991032151
40
0.8997476085
40
1.0000000000
40
1.0000000000
40
1.0000000000
40
1.0000000000
10
263.9162109314
20
174.3769804418
30
0.0000000000
10
263.9162109314
20
173.1846808917
30
0.0000000000
10
263.9370218791
20
170.9501367226
30
0.0000000000
10
264.0263000306
20
167.7876446210
30
0.0000000000
10
264.1617601034
20
164.9665698819
30
0.0000000000
10
264.3418990784
20
162.3775816075
30
0.0000000000
10
264.5725411556
20
159.9148411559
30
0.0000000000
10
264.8652594939
20
157.5003705236
30
0.0000000000
10
265.2338030217
20
155.0971318352
30
0.0000000000
10
265.6892200617
20
152.7070644305
30
0.0000000000
10
266.0572836248
20
151.1276842864
30
0.0000000000
10
266.2586309184
20
150.3441715108
30
0.0000000000
11
263.9162109314
21
174.3769804418
31
0.0000000000
11
263.9504488043
21
170.8002456567
31
0.0000000000
11
264.0403701686
21
167.6750089990
31
0.0000000000
11
264.1758086483
21
164.8910163255
31
0.0000000000
11
264.3550677457
21
162.3387397980
31
0.0000000000
11
264.5841415755
21
159.9102773441
31
0.0000000000
11
264.8773455140
21
157.5061357867
31
0.0000000000
11
265.2481339156
21
155.1003171119
31
0.0000000000
11
265.7060150905
21
152.7073288831
31
0.0000000000
11
266.2586309184
21
150.3441715108
31
0.0000000000
0
SPLINE
5
31E
100
AcDbEntity
8
0
100
AcDbSpline
62
7
6
CONTINUOUS
70
0
71
3
72
13
73
9
74
7
42
0.0000001000
43
0.0000001000
44
0.0000000001
40
0.0000000000
40
0.0000000000
40
0.0000000000
40
0.0000000000
40
0.1660479933
40
0.3341111361
40
0.5028274335
40
0.6708521683
40
0.8370081773
40
1.0000000000
40
1.0000000000
40
1.0000000000
40
1.0000000000
10
266.2586309184
20
150.3441715108
30
0.0000000000
10
266.6053454799
20
148.9949838284
30
0.0000000000
10
267.3599691797
20
146.2945018524
30
0.0000000000
10
268.6701833284
20
142.2833609597
30
0.0000000000
10
270.1707551492
20
138.3214053406
30
0.0000000000
10
271.8655017708
20
134.4554967994
30
0.0000000000
10
273.7596749532
20
130.7367344426
30
0.0000000000
10
275.1777372969
20
128.3637947961
30
0.0000000000
10
275.9265324359
20
127.2196576661
30
0.0000000000
11
266.2586309184
21
150.3441715108
31
0.0000000000
11
267.3840609688
21
146.3194885783
31
0.0000000000
11
268.6992518398
21
142.2993628123
31
0.0000000000
11
270.2064024125
21
138.3296060791
31
0.0000000000
11
271.9089649968
21
134.4586575716
31
0.0000000000
11
273.8135337147
21
130.7357537679
31
0.0000000000
11
275.9265324359
21
127.2196576661
31
0.0000000000
0
SPLINE
5
31F
100
AcDbEntity
8
0
100
AcDbSpline
62
7
6
CONTINUOUS
70
0
71
3
72
15
73
11
74
9
42
0.0000001000
43
0.0000001000
44
0.0000000001
40
0.0000000000
40
0.0000000000
40
0.0000000000
40
0.0000000000
40
0.1758438354
40
0.3319815199
40
0.4708846878
40
0.5952862045
40
0.7081263987
40
0.8109292464
40
0.9077430316
40
1.0000000000
40
1.0000000000
40
1.0000000000
40
1.0000000000
10
286.1771299929
20
107.5072149713
30
0.0000000000
10
285.3047742502
20
107.2206440462
30
0.0000000000
10
283.6883240517
20
106.5761061851
30
0.0000000000
10
281.5557917620
20
105.3329888716
30
0.0000000000
10
279.8560591045
20
103.9361540253
30
0.0000000000
10
278.5568417943
20
102.4514942575
30
0.0000000000
10
277.6135431441
20
100.9383226966
30
0.0000000000
10
276.9740497760
20
99.4302136205
30
0.0000000000
10
276.6002297635
20
97.9466938923
30
0.0000000000
10
276.5136676408
20
96.9578592087
30
0.0000000000
10
276.5136676408
20
96.4761126259
30
0.0000000000
11
286.1771299929
21
107.5072149713
31
0.0000000000
11
283.6240704864
21
106.4727904511
31
0.0000000000
11
281.5171062580
21
105.2304550184
31
0.0000000000
11
279.8411366726
21
103.8426615762
31
0.0000000000
11
278.5612656606
21
102.3730574506
31
0.0000000000
11
277.6286483106
21
100.8714149057
31
0.0000000000
11
277.0023417893
21
99.3877461986
31
0.0000000000
11
276.6351891722
21
97.9162343041
31
0.0000000000
11
276.5136676408
21
96.4761126259
31
0.0000000000
0
SPLINE
5
320
100
AcDbEntity
8
0
100
AcDbSpline
62
7
6
CONTINUOUS
70
0
71
3
72
15
73
11
74
9
42
0.0000001000
43
0.0000001000
44
0.0000000001
40
0.0000000000
40
0.0000000000
40
0.0000000000
40
0.0000000000
40
0.1758438354
40
0.3319815199
40
0.4708846878
40
0.5952862045
40
0.7081263987
40
0.8109292464
40
0.9077430316
40
1.0000000000
40
1.0000000000
40
1.0000000000
40
1.0000000000
10
304.5771299929
20
107.5072149713
30
0.0000000000
10
305.4494857356
20
107.2206440462
30
0.0000000000
10
307.0659359341
20
106.5761061851
30
0.0000000000
10
309.1984682239
20
105.3329888716
30
0.0000000000
10
310.8982008813
20
103.9361540253
30
0.0000000000
10
312.1974181915
20
102.4514942575
30
0.0000000000
10
313.1407168417
20
100.9383226966
30
0.0000000000
10
313.7802102099
20
99.4302136205
30
0.0000000000
10
314.1540302223
20
97.9466938923
30
0.0000000000
10
314.2405923450
20
96.9578592087
30
0.0000000000
10
314.2405923450
20
96.4761126259
30
0.0000000000
11
304.5771299929
21
107.5072149713
31
0.0000000000
11
307.1301894994
21
106.4727904511
31
0.0000000000
11
309.2371537278
21
105.2304550184
31
0.0000000000
11
310.9131233132
21
103.8426615762
31
0.0000000000
11
312.1929943252
21
102.3730574506
31
0.0000000000
11
313.1256116752
21
100.8714149057
31
0.0000000000
11
313.7519181965
21
99.3877461986
31
0.0000000000
11
314.1190708136
21
97.9162343041
31
0.0000000000
11
314.2405923450
21
96.4761126259
31
0.0000000000
0
SPLINE
5
321
100
AcDbEntity
8
0
100
AcDbSpline
62
7
6
CONTINUOUS
70
0
71
3
72
10
73
6
74
4
42
0.0000001000
43
0.0000001000
44
0.0000000001
40
0.0000000000
40
0.0000000000
40
0.0000000000
40
0.0000000000
40
0.3333340927
40
0.6666659073
40
1.0000000000
40
1.0000000000
40
1.0000000000
40
1.0000000000
10
295.7771299929
20
135.0840406933
30
0.0000000000
10
295.6882466754
20
135.0828329517
30
0.0000000000
10
295.5104686140
20
135.0812225813
30
0.0000000000
10
295.2437913719
20
135.0812225813
30
0.0000000000
10
295.0660133104
20
135.0828329517
30
0.0000000000
10
294.9771299929
20
135.0840406933
30
0.0000000000
11
295.7771299929
21
135.0840406933
31
0.0000000000
11
295.5104663654
21
135.0816251711
31
0.0000000000
11
295.2437936204
21
135.0816251711
31
0.0000000000
11
294.9771299929
21
135.0840406933
31
0.0000000000
0
SPLINE
5
322
100
AcDbEntity
8
0
100
AcDbSpline
62
7
6
CONTINUOUS
70
0
71
3
72
12
73
8
74
6
42
0.0000001000
43
0.0000001000
44
0.0000000001
40
0.0000000000
40
0.0000000000
40
0.0000000000
40
0.0000000000
40
0.1788704395
40
0.3717672660
40
0.5752451629
40
0.7862496850
40
1.0000000000
40
1.0000000000
40
1.0000000000
40
1.0000000000
10
323.8464734841
20
214.8279561184
30
0.0000000000
10
324.0711009272
20
213.7583868165
30
0.0000000000
10
324.5029678336
20
211.5279454939
30
0.0000000000
10
325.0812578783
20
208.0607571701
30
0.0000000000
10
325.6061746960
20
204.3866426949
30
0.0000000000
10
326.0671907536
20
200.5756452336
30
0.0000000000
10
326.3268924613
20
197.9932130543
30
0.0000000000
10
326.4451873997
20
196.6925620714
30
0.0000000000
11
323.8464734841
21
214.8279561184
31
0.0000000000
11
324.4732169377
21
211.6097086976
31
0.0000000000
11
325.0573788929
21
208.1224858173
31
0.0000000000
11
325.5866438621
21
204.4304648939
31
0.0000000000
11
326.0523442887
21
200.5908763655
31
0.0000000000
11
326.4451873997
21
196.6925620714
31
0.0000000000
0
SPLINE
5
323
100
AcDbEntity
8
0
100
AcDbSpline
62
7
6
CONTINUOUS
70
0
71
3
72
17
73
13
74
11
42
0.0000001000
43
0.0000001000
44
0.0000000001
40
0.0000000000
40
0.0000000000
40
0.0000000000
40
0.0000000000
40
0.1003513143
40
0.2016963318
40
0.3010445871
40
0.3967461857
40
0.4908556829
40
0.5853401597
40
0.6833542495
40
0.7864423119
40
0.8926851520
40
1.0000000000
40
1.0000000000
40
1.0000000000
40
1.0000000000
10
286.1771299929
20
129.4705607863
30
0.0000000000
10
286.1771299929
20
129.8573529871
30
0.0000000000
10
286.2801097686
20
130.6393453803
30
0.0000000000
10
286.7473484408
20
131.7167803139
30
0.0000000000
10
287.4578421586
20
132.6246542421
30
0.0000000000
10
288.3142609929
20
133.3472117315
30
0.0000000000
10
289.2574871475
20
133.9122294222
30
0.0000000000
10
290.2729695684
20
134.3535333777
30
0.0000000000
10
291.3632252732
20
134.6910230874
30
0.0000000000
10
292.5253762325
20
134.9295381288
30
0.0000000000
10
293.7395912761
20
135.0667683418
30
0.0000000000
10
294.5635358596
20
135.0896605874
30
0.0000000000
10
294.9771299929
20
135.0840406933
30
0.0000000000
11
286.1771299929
21
129.4705607863
31
0.0000000000
11
286.3316023837
21
130.6206095419
31
0.0000000000
11
286.7936949235
21
131.6975229992
31
0.0000000000
11
287.4951557655
21
132.6072722955
31
0.0000000000
11
288.3361547545
21
133.3265144049
31
0.0000000000
11
289.2668252383
21
133.8904604345
31
0.0000000000
11
290.2672041832
21
134.3296417201
31
0.0000000000
11
291.3489438503
21
134.6677595232
31
0.0000000000
11
292.5161560270
21
134.9096938314
31
0.0000000000
11
293.7367261199
21
135.0490629186
31
0.0000000000
11
294.9771299929
21
135.0840406933
31
0.0000000000
0
SPLINE
5
324
100
AcDbEntity
8
0
100
AcDbSpline
62
7
6
CONTINUOUS
70
0
71
3
72
10
73
6
74
4
42
0.0000001000
43
0.0000001000
44
0.0000000001
40
0.0000000000
40
0.0000000000
40
0.0000000000
40
0.0000000000
40
0.3319886405
40
0.6654479417
40
1.0000000000
40
1.0000000000
40
1.0000000000
40
1.0000000000
10
276.1771299929
20
127.0396182109
30
0.0000000000
10
277.1798931539
20
126.3208177941
30
0.0000000000
10
279.2760087113
20
124.9960781621
30
0.0000000000
10
282.6311635437
20
123.3810374100
30
0.0000000000
10
284.9817845787
20
122.5629763795
30
0.0000000000
10
286.1771299929
20
122.2209891699
30
0.0000000000
11
276.1771299929
21
127.0396182109
31
0.0000000000
11
279.3053668203
21
125.0612334359
31
0.0000000000
11
282.6547426905
21
123.4477902495
31
0.0000000000
11
286.1771299929
21
122.2209891699
31
0.0000000000
0
SPLINE
5
325
100
AcDbEntity
8
0
100
AcDbSpline
62
7
6
CONTINUOUS
70
0
71
3
72
9
73
5
74
3
42
0.0000001000
43
0.0000001000
44
0.0000000001
40
0.0000000000
40
0.0000000000
40
0.0000000000
40
0.0000000000
40
0.5006973719
40
1.0000000000
40
1.0000000000
40
1.0000000000
40
1.0000000000
10
275.9265324359
20
127.2196576661
30
0.0000000000
10
275.9683238792
20
127.1895632497
30
0.0000000000
10
276.0518243618
20
127.1295054644
30
0.0000000000
10
276.1353899458
20
127.0695383001
30
0.0000000000
10
276.1771299929
20
127.0396182109
30
0.0000000000
11
275.9265324359
21
127.2196576661
31
0.0000000000
11
276.0519571444
21
127.1294444177
31
0.0000000000
11
276.1771299929
21
127.0396182109
31
0.0000000000
0
ENDSEC
0
SECTION
2
OBJECTS
0
DICTIONARY
5
326
100
AcDbDictionary
3
ACAD_GROUP
350
327
3
ACAD_MLINESTYLE
350
328
0
DICTIONARY
5
327
102
{ACAD_REACTORS
330
326
102
}
100
AcDbDictionary
0
DICTIONARY
5
328
102
{ACAD_REACTORS
330
326
102
}
100
AcDbDictionary
3
STANDARD
350
329
0
MLINESTYLE
5
329
102
{ACAD_REACTORS
330
328
102
}
100
AcDbMlineStyle
2
STANDARD
70
0
3

62
256
51
90.0
52
90.0
71
2
49
0.5
62
256
6
BYLAYER
49
-0.5
62
256
6
BYLAYER
0
ENDSEC
0
EOF
