999
DXF file: C:\Aktuell-Internet\CAD-Daten\2vmvk13.dxf
999
Pro/ENGINEER 2001400 by Parametric Technology Corporation
0
SECTION
2
HEADER
9
$ACADVER
1
AC1014
9
$EXTMAX
10
420.0000000000
20
297.0000000000
9
$EXTMIN
10
0.0000000000
20
0.0000000000
9
$LIMMIN
10
0.0000000000
20
0.0000000000
9
$LIMMAX
10
420.0000000000
20
297.0000000000
9
$VIEWCTR
10
210.0000000000
20
148.5000000000
9
$VIEWSIZE
40
297.0000000000
9
$CLAYER
8
0
9
$LTSCALE
40
23.1000000000
9
$CELTYPE
6
BYLAYER
9
$DIMSCALE
40
1
9
$DIMASZ
40
3.5000000000
9
$DIMEXO
40
2.6250000000
9
$DIMDLI
40
15.9600000000
9
$DIMEXE
40
7.5600000000
9
$DIMCEN
40
3.7800000000
9
$DIMLFAC
40
1.0000000000
9
$DIMTXT
40
3.5000000000
9
$DIMTOL
70
1
9
$DIMTFAC
40
0.6000000000
9
$DIMTP
40
0.0050000000
9
$DIMTM
40
0.0050000000
9
$HANDSEED
5
2E9
0
ENDSEC
0
SECTION
2
CLASSES
0
ENDSEC
0
SECTION
2
TABLES
0
TABLE
2
VPORT
5
8
100
AcDbSymbolTable
70
2
0
VPORT
5
1F4
100
AcDbSymbolTableRecord
100
AcDbViewportTableRecord
2
*ACTIVE
70
0
10
0.0
20
0.0
11
1.0
21
1.0
12
210.0000000000
22
148.5000000000
13
0.0
23
0.0
14
1.0
24
1.0
15
0.0
25
0.0
16
0.0
26
0.0
36
1.0
17
0.0
27
0.0
37
0.0
40
297.0000000000
41
1.4141414141
42
50.0
43
0.0
44
0.0
50
0.0
51
0.0
71
0
72
100
73
1
74
1
75
0
76
0
77
0
78
0
0
ENDTAB
0
TABLE
2
LTYPE
5
5
100
AcDbSymbolTable
70
6
0
LTYPE
5
14
100
AcDbSymbolTableRecord
100
AcDbLinetypeTableRecord
2
BYBLOCK
70
0
3

72
65
73
0
40
0.0
0
LTYPE
5
15
100
AcDbSymbolTableRecord
100
AcDbLinetypeTableRecord
2
BYLAYER
70
0
3

72
65
73
0
40
0.0
0
LTYPE
5
16
100
AcDbSymbolTableRecord
100
AcDbLinetypeTableRecord
2
CONTINUOUS
70
64
3
Solid line
72
65
73
0
40
0
0
LTYPE
5
1F5
100
AcDbSymbolTableRecord
100
AcDbLinetypeTableRecord
2
CENTER
70
64
3
____ _ ____ _ ____ _ ____ _ ____ _ ____ _ ____
72
65
73
4
40
0.6
49
0.375
74
0
49
-0.075
74
0
49
0.075
74
0
49
-0.075
74
0
0
LTYPE
5
1F6
100
AcDbSymbolTableRecord
100
AcDbLinetypeTableRecord
2
HIDDEN
70
64
3
- - - - - - - - - - - - - - - - - - - -
72
65
73
2
40
0.2
49
0.1
74
0
49
-0.1
74
0
0
LTYPE
5
1F7
100
AcDbSymbolTableRecord
100
AcDbLinetypeTableRecord
2
PHANTOM
70
64
3
_____ _ _ _____ _ _ _____ _ _ _____
72
65
73
6
40
0.8
49
0.45
74
0
49
-0.05
74
0
49
0.1
74
0
49
-0.05
74
0
49
0.1
74
0
49
-0.05
74
0
0
LTYPE
5
1F8
100
AcDbSymbolTableRecord
100
AcDbLinetypeTableRecord
2
DOT
70
64
3
. . . . . . . . . . . . . . . . . . . .
72
65
73
2
40
0.2
49
0.1
74
0
49
-0.1
74
0
0
LTYPE
5
1F9
100
AcDbSymbolTableRecord
100
AcDbLinetypeTableRecord
2
DASHED
70
64
3
- - - - - - - - - - - - - - - - - - - -
72
65
73
2
40
0.2
49
0.1
74
0
49
-0.1
74
0
0
ENDTAB
0
TABLE
2
LAYER
5
2
100
AcDbSymbolTable
70
36
0
LAYER
5
10
100
AcDbSymbolTableRecord
100
AcDbLayerTableRecord
2
0
70
0
62
7
6
CONTINUOUS
0
LAYER
5
1FA
100
AcDbSymbolTableRecord
100
AcDbLayerTableRecord
2
DEFAULT_1
70
0
62
7
6
CENTER
0
LAYER
5
1FB
100
AcDbSymbolTableRecord
100
AcDbLayerTableRecord
2
DEFAULT_2
70
0
62
8
6
HIDDEN
0
LAYER
5
1FC
100
AcDbSymbolTableRecord
100
AcDbLayerTableRecord
2
DEFAULT_3
70
0
62
7
6
PHANTOM
0
LAYER
5
1FD
100
AcDbSymbolTableRecord
100
AcDbLayerTableRecord
2
ZEICHNUNGSBEMASSUNGEN
70
0
62
7
6
CONTINUOUS
0
ENDTAB
0
TABLE
2
STYLE
5
3
100
AcDbSymbolTable
70
1
0
STYLE
5
11
100
AcDbSymbolTableRecord
100
AcDbTextStyleTableRecord
2
STANDARD
70
0
40
0.0
41
1.0
50
0.0
71
0
42
0.0
3
txt
4

0
STYLE
5
1FE
100
AcDbSymbolTableRecord
100
AcDbTextStyleTableRecord
2
TEXTSTYLE_0
70
0
40
0.0
41
0.80
50
0.0
71
0
42
0.2
3
txt
4

0
ENDTAB
0
TABLE
2
VIEW
5
6
100
AcDbSymbolTable
70
0
0
ENDTAB
0
TABLE
2
UCS
5
7
100
AcDbSymbolTable
70
0
0
ENDTAB
0
TABLE
2
APPID
5
9
100
AcDbSymbolTable
70
1
0
APPID
5
1FF
100
AcDbSymbolTableRecord
100
AcDbRegAppTableRecord
2
ACAD
70
0
0
ENDTAB
0
TABLE
2
DIMSTYLE
5
A
100
AcDbSymbolTable
70
1
0
DIMSTYLE
105
200
100
AcDbSymbolTableRecord
100
AcDbDimStyleTableRecord
2
STANDARD
70
0
3

4

5

6

7

40
1.0
41
0.18
42
0.0625
43
0.38
44
0.18
45
0.0
46
0.0
47
0.0050000000
48
0.0050000000
140
3.5000000000
141
0.09
142
0.0
143
25.4
144
1.0000000000
145
0.0
146
0.6000000000
147
0.09
71
1
72
0
73
1
74
1
75
0
76
0
77
0
78
0
170
0
171
2
172
0
173
0
174
0
175
0
176
0
177
0
178
0
270
2
271
3
272
4
273
2
274
2
340
11
275
0
280
0
281
0
282
0
283
1
284
0
285
0
286
0
287
3
288
0
0
ENDTAB
0
TABLE
2
BLOCK_RECORD
5
1
100
AcDbSymbolTable
70
0
0
BLOCK_RECORD
5
1B
100
AcDbSymbolTableRecord
100
AcDbBlockTableRecord
2
*MODEL_SPACE
0
BLOCK_RECORD
5
1C
100
AcDbSymbolTableRecord
100
AcDbBlockTableRecord
2
*PAPER_SPACE
0
ENDTAB
0
ENDSEC
0
SECTION
2
BLOCKS
0
BLOCK
5
1E
100
AcDbEntity
8
0
100
AcDbBlockBegin
2
*MODEL_SPACE
70
0
10
0.0
20
0.0
30
0.0
3
*MODEL_SPACE
1

0
ENDBLK
5
1F
100
AcDbEntity
8
0
100
AcDbBlockEnd
0
BLOCK
5
20
100
AcDbEntity
8
0
100
AcDbBlockBegin
2
*PAPER_SPACE
70
0
10
0.0
20
0.0
30
0.0
3
*PAPER_SPACE
1

0
ENDBLK
5
21
100
AcDbEntity
8
0
100
AcDbBlockEnd
0
ENDSEC
0
SECTION
2
ENTITIES
0
TEXT
5
201
100
AcDbEntity
8
0
100
AcDbText
62
2
6
CONTINUOUS
10
140.4761904762
20
89.0148809524
7
TEXTSTYLE_0
40
6.5000000000
1
RUD
50
90.0000000000
72
5
11
140.4761904762
21
105.1101191421
100
AcDbText
0
TEXT
5
202
100
AcDbEntity
8
0
100
AcDbText
62
2
6
CONTINUOUS
10
149.5238095238
20
129.4910714286
7
TEXTSTYLE_0
40
6.5000000000
1
VMVK 13
50
90.0000000000
72
5
11
149.5238095238
21
164.4672621100
100
AcDbText
0
TEXT
5
203
100
AcDbEntity
8
0
100
AcDbText
62
2
6
CONTINUOUS
10
268.5714285714
20
192.3482142857
7
TEXTSTYLE_0
40
6.5000000000
1
RUD
50
90.0000000000
72
5
11
268.5714285714
21
208.4434524754
100
AcDbText
0
TEXT
5
204
100
AcDbEntity
8
0
100
AcDbText
62
2
6
CONTINUOUS
10
329.0476190476
20
174.2529761905
7
TEXTSTYLE_0
40
6.5000000000
1
VMVK 13
50
90.0000000000
72
5
11
329.0476190476
21
209.2291668719
100
AcDbText
0
LINE
5
205
100
AcDbEntity
8
0
100
AcDbLine
62
7
6
CONTINUOUS
10
0.0000000000
20
0.0000000000
11
0.0000000000
21
297.0000000000
0
LINE
5
206
100
AcDbEntity
8
0
100
AcDbLine
62
7
6
CONTINUOUS
10
0.0000000000
20
0.0000000000
11
420.0000000000
21
0.0000000000
0
LINE
5
207
100
AcDbEntity
8
0
100
AcDbLine
62
7
6
CONTINUOUS
10
0.0000000000
20
297.0000000000
11
420.0000000000
21
297.0000000000
0
LINE
5
208
100
AcDbEntity
8
0
100
AcDbLine
62
7
6
CONTINUOUS
10
420.0000000000
20
0.0000000000
11
420.0000000000
21
297.0000000000
0
LINE
5
209
100
AcDbEntity
8
0
100
AcDbLine
62
7
6
CONTINUOUS
10
94.0478399334
20
107.3325663596
11
104.2682374913
21
79.2522548515
0
LINE
5
20A
100
AcDbEntity
8
DEFAULT_2
100
AcDbLine
62
8
6
HIDDEN
10
112.0547565014
20
88.2665354567
11
100.2635223041
21
120.6626851612
0
LINE
5
20B
100
AcDbEntity
8
DEFAULT_2
100
AcDbLine
62
8
6
HIDDEN
10
97.3206431896
20
220.5247248761
11
97.3206431896
21
220.5226935498
0
LINE
5
20C
100
AcDbEntity
8
0
100
AcDbLine
62
7
6
CONTINUOUS
10
154.6036572665
20
133.7928382386
11
155.1405427095
21
133.7928382386
0
LINE
5
20D
100
AcDbEntity
8
DEFAULT_2
100
AcDbLine
62
8
6
HIDDEN
10
154.5614593156
20
133.9587956801
11
155.0979629037
21
133.9587956801
0
LINE
5
20E
100
AcDbEntity
8
DEFAULT_2
100
AcDbLine
62
8
6
HIDDEN
10
154.4785307502
20
134.2907105778
11
155.0142854943
21
134.2907105778
0
LINE
5
20F
100
AcDbEntity
8
DEFAULT_2
100
AcDbLine
62
8
6
HIDDEN
10
154.3975518981
20
134.6226254899
11
154.9325774276
21
134.6226254899
0
LINE
5
210
100
AcDbEntity
8
DEFAULT_2
100
AcDbLine
62
8
6
HIDDEN
10
154.3577911513
20
134.7885829170
11
154.8924593647
21
134.7885829170
0
LINE
5
211
100
AcDbEntity
8
DEFAULT_2
100
AcDbLine
62
8
6
HIDDEN
10
154.3185148966
20
134.9545403440
11
154.8528306182
21
134.9545403440
0
LINE
5
212
100
AcDbEntity
8
DEFAULT_2
100
AcDbLine
62
8
6
HIDDEN
10
154.2797221850
20
135.1204977710
11
154.8136902124
21
135.1204977710
0
LINE
5
213
100
AcDbEntity
8
DEFAULT_2
100
AcDbLine
62
8
6
HIDDEN
10
154.2414120547
20
135.2864553143
11
154.7750371591
21
135.2864553143
0
LINE
5
214
100
AcDbEntity
8
DEFAULT_2
100
AcDbLine
62
8
6
HIDDEN
10
154.1662360023
20
135.6183701683
11
154.6991894723
21
135.6183701683
0
LINE
5
215
100
AcDbEntity
8
DEFAULT_2
100
AcDbLine
62
8
6
HIDDEN
10
154.0216355939
20
136.2821998764
11
154.5533019447
21
136.2821998764
0
LINE
5
216
100
AcDbEntity
8
DEFAULT_2
100
AcDbLine
62
8
6
HIDDEN
10
153.9866787284
20
136.4481573034
11
154.5180348575
21
136.4481573034
0
LINE
5
217
100
AcDbEntity
8
DEFAULT_2
100
AcDbLine
62
8
6
HIDDEN
10
153.8846585803
20
136.9460298170
11
154.4151114157
21
136.9460298170
0
LINE
5
218
100
AcDbEntity
8
DEFAULT_2
100
AcDbLine
62
8
6
HIDDEN
10
153.8190126242
20
137.2779446710
11
154.3488858548
21
137.2779446710
0
LINE
5
219
100
AcDbEntity
8
DEFAULT_2
100
AcDbLine
62
8
6
HIDDEN
10
153.7868975560
20
137.4439020980
11
154.3164876977
21
137.4439020980
0
LINE
5
21A
100
AcDbEntity
8
DEFAULT_2
100
AcDbLine
62
8
6
HIDDEN
10
153.7552534248
20
137.6098595251
11
154.2845649259
21
137.6098595251
0
LINE
5
21B
100
AcDbEntity
8
DEFAULT_2
100
AcDbLine
62
8
6
HIDDEN
10
153.7240794942
20
137.7758169521
11
154.2531167828
21
137.7758169521
0
LINE
5
21C
100
AcDbEntity
8
DEFAULT_2
100
AcDbLine
62
8
6
HIDDEN
10
153.6631393508
20
138.1077318061
11
154.1916414204
21
138.1077318061
0
LINE
5
21D
100
AcDbEntity
8
DEFAULT_2
100
AcDbLine
62
8
6
HIDDEN
10
153.6333717270
20
138.2736892332
11
154.1616127516
21
138.2736892332
0
LINE
5
21E
100
AcDbEntity
8
DEFAULT_2
100
AcDbLine
62
8
6
HIDDEN
10
153.6040714814
20
138.4396466602
11
154.1320558125
21
138.4396466602
0
LINE
5
21F
100
AcDbEntity
8
DEFAULT_2
100
AcDbLine
62
8
6
HIDDEN
10
153.5468704363
20
138.7715615142
11
154.0743543622
21
138.7715615142
0
LINE
5
220
100
AcDbEntity
8
DEFAULT_2
100
AcDbLine
62
8
6
HIDDEN
10
153.4915309585
20
139.1034763683
11
154.0185316703
21
139.1034763683
0
LINE
5
221
100
AcDbEntity
8
DEFAULT_2
100
AcDbLine
62
8
6
HIDDEN
10
153.4380479807
20
139.4353912223
11
153.9645825332
21
139.4353912223
0
LINE
5
222
100
AcDbEntity
8
DEFAULT_2
100
AcDbLine
62
8
6
HIDDEN
10
153.3864165521
20
139.7673065413
11
153.9125018684
21
139.7673065413
0
LINE
5
223
100
AcDbEntity
8
DEFAULT_2
100
AcDbLine
62
8
6
HIDDEN
10
153.3612937578
20
139.9332639683
11
153.8871607635
21
139.9332639683
0
LINE
5
224
100
AcDbEntity
8
DEFAULT_2
100
AcDbLine
62
8
6
HIDDEN
10
153.3124310877
20
140.2651788224
11
153.8378740098
21
140.2651788224
0
LINE
5
225
100
AcDbEntity
8
DEFAULT_2
100
AcDbLine
62
8
6
HIDDEN
10
153.2886901066
20
140.4311362494
11
153.8139272265
21
140.4311362494
0
LINE
5
226
100
AcDbEntity
8
DEFAULT_2
100
AcDbLine
62
8
6
HIDDEN
10
153.2654086434
20
140.5970936764
11
153.7904441016
21
140.5970936764
0
LINE
5
227
100
AcDbEntity
8
DEFAULT_2
100
AcDbLine
62
8
6
HIDDEN
10
153.2425861736
20
140.7630511035
11
153.7674240968
21
140.7630511035
0
LINE
5
228
100
AcDbEntity
8
DEFAULT_2
100
AcDbLine
62
8
6
HIDDEN
10
153.1983161714
20
141.0949659575
11
153.7227713505
21
141.0949659575
0
LINE
5
229
100
AcDbEntity
8
DEFAULT_2
100
AcDbLine
62
8
6
HIDDEN
10
153.1558761250
20
141.4268808116
11
153.6799649070
21
141.4268808116
0
LINE
5
22A
100
AcDbEntity
8
0
100
AcDbLine
62
7
6
CONTINUOUS
10
153.1353411409
20
141.5928382386
11
153.6592528231
21
141.5928382386
0
LINE
5
22B
100
AcDbEntity
8
0
100
AcDbLine
62
7
6
CONTINUOUS
10
152.7905657642
20
145.3691401782
11
153.3115218500
21
145.3691401782
0
LINE
5
22C
100
AcDbEntity
8
DEFAULT_2
100
AcDbLine
62
8
6
HIDDEN
10
152.7807642561
20
145.5350976198
11
153.3016368077
21
145.5350976198
0
LINE
5
22D
100
AcDbEntity
8
DEFAULT_2
100
AcDbLine
62
8
6
HIDDEN
10
152.7625057943
20
145.8670125174
11
153.2832228082
21
145.8670125174
0
LINE
5
22E
100
AcDbEntity
8
DEFAULT_2
100
AcDbLine
62
8
6
HIDDEN
10
152.7384765788
20
146.3648848566
11
153.2589890381
21
146.3648848566
0
LINE
5
22F
100
AcDbEntity
8
DEFAULT_2
100
AcDbLine
62
8
6
HIDDEN
10
152.7313617275
20
146.5308422836
11
153.2518136509
21
146.5308422836
0
LINE
5
230
100
AcDbEntity
8
DEFAULT_2
100
AcDbLine
62
8
6
HIDDEN
10
152.7184734070
20
146.8627572539
11
153.2388157075
21
146.8627572539
0
LINE
5
231
100
AcDbEntity
8
DEFAULT_2
100
AcDbLine
62
8
6
HIDDEN
10
152.7073726888
20
147.1946721079
11
153.2276206082
21
147.1946721079
0
LINE
5
232
100
AcDbEntity
8
DEFAULT_2
100
AcDbLine
62
8
6
HIDDEN
10
152.7024923712
20
147.3606295350
11
153.2226988078
21
147.3606295350
0
LINE
5
233
100
AcDbEntity
8
DEFAULT_2
100
AcDbLine
62
8
6
HIDDEN
10
152.6874356864
20
148.0244592431
11
153.2075141826
21
148.0244592431
0
LINE
5
234
100
AcDbEntity
8
DEFAULT_2
100
AcDbLine
62
8
6
HIDDEN
10
115.4449066174
20
132.1654146473
11
129.1571077412
21
94.4914516886
0
LINE
5
235
100
AcDbEntity
8
DEFAULT_2
100
AcDbLine
62
8
6
HIDDEN
10
152.6786547492
20
148.8542466106
11
153.1986586608
21
148.8542466106
0
LINE
5
236
100
AcDbEntity
8
DEFAULT_2
100
AcDbLine
62
8
6
HIDDEN
10
152.6782648052
20
149.1861614647
11
153.1982654052
21
149.1861614647
0
LINE
5
237
100
AcDbEntity
8
DEFAULT_2
100
AcDbLine
62
8
6
HIDDEN
10
152.6796589688
20
149.5180763187
11
153.1996714091
21
149.5180763187
0
LINE
5
238
100
AcDbEntity
8
DEFAULT_2
100
AcDbLine
62
8
6
HIDDEN
10
152.6828373608
20
149.8499911728
11
153.2028767966
21
149.8499911728
0
LINE
5
239
100
AcDbEntity
8
DEFAULT_2
100
AcDbLine
62
8
6
HIDDEN
10
152.6850957226
20
150.0159485998
11
153.2051543413
21
150.0159485998
0
LINE
5
23A
100
AcDbEntity
8
DEFAULT_2
100
AcDbLine
62
8
6
HIDDEN
10
152.6878002569
20
150.1819060268
11
153.2078818503
21
150.1819060268
0
LINE
5
23B
100
AcDbEntity
8
DEFAULT_2
100
AcDbLine
62
8
6
HIDDEN
10
152.6909510224
20
150.3478634539
11
153.2110593837
21
150.3478634539
0
LINE
5
23C
100
AcDbEntity
8
DEFAULT_2
100
AcDbLine
62
8
6
HIDDEN
10
152.6945480874
20
150.5138208809
11
153.2146870116
21
150.5138208809
0
LINE
5
23D
100
AcDbEntity
8
DEFAULT_2
100
AcDbLine
62
8
6
HIDDEN
10
152.6985915299
20
150.6797783079
11
153.2187648140
21
150.6797783079
0
LINE
5
23E
100
AcDbEntity
8
DEFAULT_2
100
AcDbLine
62
8
6
HIDDEN
10
152.7030814376
20
150.8457357349
11
153.2232928809
21
150.8457357349
0
LINE
5
23F
100
AcDbEntity
8
DEFAULT_2
100
AcDbLine
62
8
6
HIDDEN
10
138.6437401646
20
151.1270214600
11
138.6459473952
21
151.1270214600
0
LINE
5
240
100
AcDbEntity
8
DEFAULT_2
100
AcDbLine
62
8
6
HIDDEN
10
152.7134010483
20
151.1776505890
11
153.2337002180
21
151.1776505890
0
LINE
5
241
100
AcDbEntity
8
DEFAULT_2
100
AcDbLine
62
8
6
HIDDEN
10
152.7192309922
20
151.3436084809
11
153.2395797351
21
151.3436084809
0
LINE
5
242
100
AcDbEntity
8
DEFAULT_2
100
AcDbLine
62
8
6
HIDDEN
10
152.7322317252
20
151.6755233350
11
153.2526910501
21
151.6755233350
0
LINE
5
243
100
AcDbEntity
8
DEFAULT_2
100
AcDbLine
62
8
6
HIDDEN
10
152.7394028126
20
151.8414807620
11
153.2599231537
21
151.8414807620
0
LINE
5
244
100
AcDbEntity
8
DEFAULT_2
100
AcDbLine
62
8
6
HIDDEN
10
152.7470212518
20
152.0074381890
11
153.2676064313
21
152.0074381890
0
LINE
5
245
100
AcDbEntity
8
DEFAULT_2
100
AcDbLine
62
8
6
HIDDEN
10
152.7550872089
20
152.1733956161
11
153.2757410530
21
152.1733956161
0
LINE
5
246
100
AcDbEntity
8
DEFAULT_2
100
AcDbLine
62
8
6
HIDDEN
10
152.7636008592
20
152.3393530431
11
153.2843271990
21
152.3393530431
0
LINE
5
247
100
AcDbEntity
8
DEFAULT_2
100
AcDbLine
62
8
6
HIDDEN
10
152.7725623883
20
152.5053104701
11
153.2933650594
21
152.5053104701
0
LINE
5
248
100
AcDbEntity
8
DEFAULT_2
100
AcDbLine
62
8
6
HIDDEN
10
152.7819719915
20
152.6712678971
11
153.3028548347
21
152.6712678971
0
LINE
5
249
100
AcDbEntity
8
DEFAULT_2
100
AcDbLine
62
8
6
HIDDEN
10
152.8021362511
20
153.0031827512
11
153.3231909820
21
153.0031827512
0
LINE
5
24A
100
AcDbEntity
8
0
100
AcDbLine
62
7
6
CONTINUOUS
10
152.8128913476
20
153.1691401782
11
153.3340378056
21
153.1691401782
0
LINE
5
24B
100
AcDbEntity
8
0
100
AcDbLine
62
7
6
CONTINUOUS
10
121.3706431896
20
151.1003642035
11
121.3706431896
21
188.7584315341
0
LINE
5
24C
100
AcDbEntity
8
DEFAULT_1
100
AcDbLine
62
2
6
CENTER
10
121.3706431896
20
64.2770214600
11
121.3706431896
21
151.1003642035
0
LINE
5
24D
100
AcDbEntity
8
DEFAULT_1
100
AcDbLine
62
2
6
CENTER
10
121.3706431896
20
188.7584315341
11
121.3706431896
21
244.4770214600
0
LINE
5
24E
100
AcDbEntity
8
DEFAULT_2
100
AcDbLine
62
8
6
HIDDEN
10
128.5993471930
20
174.8520214600
11
128.5993471930
21
174.2020214600
0
LINE
5
24F
100
AcDbEntity
8
DEFAULT_2
100
AcDbLine
62
8
6
HIDDEN
10
137.0264216990
20
167.0520214600
11
155.3240048706
21
167.0520214600
0
LINE
5
250
100
AcDbEntity
8
DEFAULT_2
100
AcDbLine
62
8
6
HIDDEN
10
131.0505675747
20
138.7015079143
11
136.7763468043
21
122.9700587722
0
LINE
5
251
100
AcDbEntity
8
DEFAULT_2
100
AcDbLine
62
8
6
HIDDEN
10
140.4733298490
20
112.8126813367
11
147.3200684611
21
94.0014216029
0
LINE
5
252
100
AcDbEntity
8
DEFAULT_2
100
AcDbLine
62
8
6
HIDDEN
10
154.9617524750
20
182.0020214600
11
137.1571143528
21
182.0020214600
0
LINE
5
253
100
AcDbEntity
8
0
100
AcDbLine
62
7
6
CONTINUOUS
10
110.5434540249
20
208.4937913661
11
77.5781957353
21
229.4949770622
0
LINE
5
254
100
AcDbEntity
8
0
100
AcDbLine
62
7
6
CONTINUOUS
10
152.4961952718
20
102.9559051924
11
137.1275386292
21
76.3687699207
0
LINE
5
255
100
AcDbEntity
8
DEFAULT_2
100
AcDbLine
62
8
6
HIDDEN
10
104.4706431896
20
219.4270214600
11
108.3754491052
21
219.4270214600
0
LINE
5
256
100
AcDbEntity
8
DEFAULT_2
100
AcDbLine
62
8
6
HIDDEN
10
91.7000447172
20
220.5247248792
11
97.3206431896
21
220.5247248792
0
LINE
5
257
100
AcDbEntity
8
0
100
AcDbLine
62
7
6
CONTINUOUS
10
82.3604102417
20
241.3477750223
11
112.8336631328
21
235.1784267393
0
LINE
5
258
100
AcDbEntity
8
0
100
AcDbLine
62
7
6
CONTINUOUS
10
265.4723823607
20
234.3573374758
11
271.1159657635
21
238.2626558376
0
LINE
5
259
100
AcDbEntity
8
0
100
AcDbLine
62
7
6
CONTINUOUS
10
272.9927049562
20
67.2770214600
11
280.0505668318
21
67.2770214600
0
LINE
5
25A
100
AcDbEntity
8
0
100
AcDbLine
62
7
6
CONTINUOUS
10
310.7036931540
20
67.2770214600
11
317.7615550297
21
67.2770214600
0
LINE
5
25B
100
AcDbEntity
8
0
100
AcDbLine
62
7
6
CONTINUOUS
10
259.2074896684
20
226.6902483415
11
259.2073113953
21
226.6899164230
0
LINE
5
25C
100
AcDbEntity
8
0
100
AcDbLine
62
7
6
CONTINUOUS
10
295.7021299929
20
94.0014216029
11
295.0521299929
21
94.0014216029
0
LINE
5
25D
100
AcDbEntity
8
0
100
AcDbLine
62
7
6
CONTINUOUS
10
302.8521299929
20
108.6128653092
11
287.9021299929
21
108.6128653092
0
LINE
5
25E
100
AcDbEntity
8
0
100
AcDbLine
62
7
6
CONTINUOUS
10
257.0271299960
20
216.7223224721
11
257.0271299929
21
174.2300367156
0
LINE
5
25F
100
AcDbEntity
8
DEFAULT_2
100
AcDbLine
62
8
6
HIDDEN
10
295.7021299929
20
112.8126813367
11
295.0521299929
21
112.8126813367
0
LINE
5
260
100
AcDbEntity
8
0
100
AcDbLine
62
7
6
CONTINUOUS
10
287.9021299929
20
120.6626851612
11
279.7771299929
21
120.6626851612
0
LINE
5
261
100
AcDbEntity
8
0
100
AcDbLine
62
7
6
CONTINUOUS
10
302.8521299929
20
120.6626851612
11
310.9771299929
21
120.6626851612
0
LINE
5
262
100
AcDbEntity
8
DEFAULT_2
100
AcDbLine
62
8
6
HIDDEN
10
295.7021299929
20
122.9700587722
11
295.0521299929
21
122.9700587722
0
LINE
5
263
100
AcDbEntity
8
0
100
AcDbLine
62
7
6
CONTINUOUS
10
260.9421679823
20
144.5549968331
11
257.2801602056
21
170.6115360906
0
LINE
5
264
100
AcDbEntity
8
0
100
AcDbLine
62
7
6
CONTINUOUS
10
269.8151332554
20
181.0270214600
11
269.8151332554
21
170.6270214600
0
LINE
5
265
100
AcDbEntity
8
DEFAULT_2
100
AcDbLine
62
8
6
HIDDEN
10
270.6771299929
20
104.2456537518
11
270.6771299929
21
125.0783978784
0
LINE
5
266
100
AcDbEntity
8
0
100
AcDbLine
62
7
6
CONTINUOUS
10
301.2195192444
20
123.6128653092
11
289.5347407350
21
123.6128653092
0
LINE
5
267
100
AcDbEntity
8
0
100
AcDbLine
62
7
6
CONTINUOUS
10
272.3021299929
20
174.8520214600
11
272.3021299929
21
174.2020214600
0
LINE
5
268
100
AcDbEntity
8
0
100
AcDbLine
62
7
6
CONTINUOUS
10
280.0505668318
20
107.3325663596
11
280.0505668318
21
67.2770214600
0
LINE
5
269
100
AcDbEntity
8
0
100
AcDbLine
62
7
6
CONTINUOUS
10
287.9021299929
20
219.4210902129
11
287.9021299929
21
185.9020214600
0
LINE
5
26A
100
AcDbEntity
8
0
100
AcDbLine
62
7
6
CONTINUOUS
10
287.9021299929
20
163.1520214600
11
287.9021299929
21
158.2770214600
0
LINE
5
26B
100
AcDbEntity
8
0
100
AcDbLine
62
7
6
CONTINUOUS
10
287.9021299929
20
71.1771012443
11
287.9021299929
21
134.1405554899
0
LINE
5
26C
100
AcDbEntity
8
DEFAULT_2
100
AcDbLine
62
8
6
HIDDEN
10
287.9021299929
20
219.4210902129
11
287.9021299929
21
236.8715306200
0
LINE
5
26D
100
AcDbEntity
8
DEFAULT_1
100
AcDbLine
62
2
6
CENTER
10
295.3771299929
20
64.2770214600
11
295.3771299929
21
244.4770214600
0
LINE
5
26E
100
AcDbEntity
8
0
100
AcDbLine
62
7
6
CONTINUOUS
10
295.0521299929
20
151.1270214600
11
295.7021299929
21
151.1270214600
0
LINE
5
26F
100
AcDbEntity
8
0
100
AcDbLine
62
7
6
CONTINUOUS
10
302.8521299929
20
219.4210902129
11
302.8521299929
21
185.9020214600
0
LINE
5
270
100
AcDbEntity
8
0
100
AcDbLine
62
7
6
CONTINUOUS
10
302.8521299929
20
163.1520214600
11
302.8521299929
21
158.2770214600
0
LINE
5
271
100
AcDbEntity
8
0
100
AcDbLine
62
7
6
CONTINUOUS
10
302.8521299929
20
71.1771012443
11
302.8521299929
21
134.1405554899
0
LINE
5
272
100
AcDbEntity
8
DEFAULT_2
100
AcDbLine
62
8
6
HIDDEN
10
302.8521299929
20
219.4210902129
11
302.8521299929
21
236.8715306200
0
LINE
5
273
100
AcDbEntity
8
0
100
AcDbLine
62
7
6
CONTINUOUS
10
284.0021299929
20
167.0520214600
11
279.4521299929
21
167.0520214600
0
LINE
5
274
100
AcDbEntity
8
DEFAULT_2
100
AcDbLine
62
8
6
HIDDEN
10
279.4521299929
20
167.0520214600
11
279.0063319393
21
167.0520214600
0
LINE
5
275
100
AcDbEntity
8
0
100
AcDbLine
62
7
6
CONTINUOUS
10
306.7521299929
20
167.0520214600
11
311.3021299929
21
167.0520214600
0
LINE
5
276
100
AcDbEntity
8
DEFAULT_2
100
AcDbLine
62
8
6
HIDDEN
10
311.3021299929
20
167.0520214600
11
311.7479280465
21
167.0520214600
0
LINE
5
277
100
AcDbEntity
8
0
100
AcDbLine
62
7
6
CONTINUOUS
10
310.7036931540
20
107.3325663596
11
310.7036931540
21
67.2770214600
0
LINE
5
278
100
AcDbEntity
8
0
100
AcDbLine
62
7
6
CONTINUOUS
10
318.4521299929
20
174.8520214600
11
318.4521299929
21
174.2020214600
0
LINE
5
279
100
AcDbEntity
8
DEFAULT_2
100
AcDbLine
62
8
6
HIDDEN
10
320.0771299929
20
125.0783978784
11
320.0771299929
21
104.2456537518
0
LINE
5
27A
100
AcDbEntity
8
0
100
AcDbLine
62
7
6
CONTINUOUS
10
320.9391267304
20
181.0270214600
11
320.9391267304
21
170.6270214600
0
LINE
5
27B
100
AcDbEntity
8
DEFAULT_2
100
AcDbLine
62
8
6
HIDDEN
10
323.6521299929
20
88.1394590615
11
323.6521299929
21
125.3047076134
0
LINE
5
27C
100
AcDbEntity
8
0
100
AcDbLine
62
7
6
CONTINUOUS
10
311.3021299929
20
182.0020214600
11
306.7521299929
21
182.0020214600
0
LINE
5
27D
100
AcDbEntity
8
0
100
AcDbLine
62
7
6
CONTINUOUS
10
279.4521299929
20
182.0020214600
11
284.0021299929
21
182.0020214600
0
LINE
5
27E
100
AcDbEntity
8
0
100
AcDbLine
62
7
6
CONTINUOUS
10
333.7271299929
20
216.7221940785
11
333.7271299929
21
174.2300367156
0
LINE
5
27F
100
AcDbEntity
8
0
100
AcDbLine
62
7
6
CONTINUOUS
10
329.8120920035
20
144.5549968331
11
333.4740997802
21
170.6115360906
0
LINE
5
280
100
AcDbEntity
8
0
100
AcDbLine
62
7
6
CONTINUOUS
10
302.8521299929
20
187.7520214600
11
287.9021299929
21
187.7520214600
0
LINE
5
281
100
AcDbEntity
8
0
100
AcDbLine
62
7
6
CONTINUOUS
10
302.8521299929
20
195.7520214600
11
287.9021299929
21
195.7520214600
0
LINE
5
282
100
AcDbEntity
8
0
100
AcDbLine
62
7
6
CONTINUOUS
10
331.5467723580
20
226.6902445428
11
331.5469485906
21
226.6899164230
0
LINE
5
283
100
AcDbEntity
8
0
100
AcDbLine
62
7
6
CONTINUOUS
10
319.6382942223
20
238.2626558376
11
325.2811318738
21
234.3578536387
0
LINE
5
284
100
AcDbEntity
8
0
100
AcDbLine
62
7
6
CONTINUOUS
10
283.8969610224
20
241.4342311888
11
283.8968373446
21
241.4342211889
0
LINE
5
285
100
AcDbEntity
8
DEFAULT_2
100
AcDbLine
62
8
6
HIDDEN
10
295.7021299929
20
238.3190570912
11
295.0521299929
21
238.3190570912
0
LINE
5
286
100
AcDbEntity
8
0
100
AcDbLine
62
7
6
CONTINUOUS
10
284.9878013628
20
241.4770214421
11
305.7664586231
21
241.4770214421
0
LINE
5
287
100
AcDbEntity
8
0
100
AcDbLine
62
7
6
CONTINUOUS
10
306.8572989634
20
241.4342311888
11
306.8574226412
21
241.4342211889
0
ARC
5
288
100
AcDbEntity
8
DEFAULT_2
100
AcDbCircle
62
8
6
HIDDEN
10
92.7706431896
20
170.6270214600
40
49.8477034192
100
AcDbArc
50
320.1706371716
51
336.9712287216
0
ARC
5
289
100
AcDbEntity
8
DEFAULT_2
100
AcDbCircle
62
8
6
HIDDEN
10
101.8706431896
20
181.0270214600
40
39.6500000000
100
AcDbArc
50
7.0624335538
51
68.2446470313
0
ARC
5
28A
100
AcDbEntity
8
DEFAULT_2
100
AcDbCircle
62
8
6
HIDDEN
10
108.3754491052
20
197.3270214600
40
22.1000000000
100
AcDbArc
50
68.2446470313
51
90.0000000000
0
ARC
5
28B
100
AcDbEntity
8
DEFAULT_2
100
AcDbCircle
62
8
6
HIDDEN
10
92.7706431896
20
170.6270214600
40
48.7500000000
100
AcDbArc
50
345.3251502571
51
351.1798521708
0
ARC
5
28C
100
AcDbEntity
8
DEFAULT_2
100
AcDbCircle
62
8
6
HIDDEN
10
92.7706431896
20
170.6270214600
40
48.7500000000
100
AcDbArc
50
299.6264839068
51
311.5445457223
0
CIRCLE
5
28D
100
AcDbEntity
8
0
100
AcDbCircle
62
7
6
CONTINUOUS
10
144.7706431896
20
191.7520214600
40
4.0000000000
0
ARC
5
28E
100
AcDbEntity
8
0
100
AcDbCircle
62
7
6
CONTINUOUS
10
214.4281941510
20
149.0927495635
40
61.2300000000
100
AcDbArc
50
176.1827069226
51
183.4865070150
0
ARC
5
28F
100
AcDbEntity
8
0
100
AcDbCircle
62
7
6
CONTINUOUS
10
88.8706431896
20
151.1003642035
40
32.5000000000
100
AcDbArc
50
290.3946696523
51
360.0000000000
0
ARC
5
290
100
AcDbEntity
8
0
100
AcDbCircle
62
7
6
CONTINUOUS
10
97.9706431896
20
188.7584315341
40
23.4000000000
100
AcDbArc
50
0.0000000000
51
57.5000000000
0
ARC
5
291
100
AcDbEntity
8
0
100
AcDbCircle
62
7
6
CONTINUOUS
10
103.8206431896
20
110.8895758502
40
10.4000000000
100
AcDbArc
50
110.3946696523
51
200.0000000000
0
ARC
5
292
100
AcDbEntity
8
0
100
AcDbCircle
62
7
6
CONTINUOUS
10
101.8706431896
20
181.0270214600
40
55.2500000000
100
AcDbArc
50
344.1605622604
51
78.5550866460
0
ARC
5
293
100
AcDbEntity
8
0
100
AcDbCircle
62
7
6
CONTINUOUS
10
121.3706431896
20
85.4770214600
40
18.2000000000
100
AcDbArc
50
200.0000000000
51
329.9700000000
0
ARC
5
294
100
AcDbEntity
8
0
100
AcDbCircle
62
7
6
CONTINUOUS
10
214.4281941510
20
149.0927495635
40
61.2300000000
100
AcDbArc
50
187.0356867147
51
194.4701783445
0
CIRCLE
5
295
100
AcDbEntity
8
0
100
AcDbCircle
62
7
6
CONTINUOUS
10
133.7384366985
20
116.1128653092
40
7.5000000000
0
ARC
5
296
100
AcDbEntity
8
0
100
AcDbCircle
62
7
6
CONTINUOUS
10
122.6706431896
20
120.1965241775
40
34.4500000000
100
AcDbArc
50
329.9700000000
51
17.4802217829
0
ARC
5
297
100
AcDbEntity
8
0
100
AcDbCircle
62
7
6
CONTINUOUS
10
214.4281941510
20
149.0927495635
40
61.7500000000
100
AcDbArc
50
164.1605622604
51
197.4802217829
0
ARC
5
298
100
AcDbEntity
8
0
100
AcDbCircle
62
7
6
CONTINUOUS
10
81.0706431896
20
234.9770214600
40
6.5000000000
100
AcDbArc
50
78.5550866460
51
237.5000000000
0
ARC
5
299
100
AcDbEntity
8
0
100
AcDbCircle
62
7
6
CONTINUOUS
10
295.3771299929
20
46.2747248792
40
26.0000000000
100
AcDbArc
50
106.7083437157
51
126.1203429718
0
ARC
5
29A
100
AcDbEntity
8
0
100
AcDbCircle
62
7
6
CONTINUOUS
10
311.3021299929
20
174.8520214600
40
7.1500000000
100
AcDbArc
50
0.0000000000
51
90.0000000000
0
ARC
5
29B
100
AcDbEntity
8
0
100
AcDbCircle
62
7
6
CONTINUOUS
10
311.3021299929
20
174.2020214600
40
7.1500000000
100
AcDbArc
50
270.0000000000
51
360.0000000000
0
ARC
5
29C
100
AcDbEntity
8
0
100
AcDbCircle
62
7
6
CONTINUOUS
10
295.7021299929
20
158.2770214600
40
7.1500000000
100
AcDbArc
50
270.0000000000
51
360.0000000000
0
ARC
5
29D
100
AcDbEntity
8
0
100
AcDbCircle
62
7
6
CONTINUOUS
10
306.7521299929
20
185.9020214600
40
3.9000000000
100
AcDbArc
50
180.0000000000
51
270.0000000000
0
ARC
5
29E
100
AcDbEntity
8
0
100
AcDbCircle
62
7
6
CONTINUOUS
10
306.7521299929
20
163.1520214600
40
3.9000000000
100
AcDbArc
50
90.0000000000
51
180.0000000000
0
ARC
5
29F
100
AcDbEntity
8
0
100
AcDbCircle
62
7
6
CONTINUOUS
10
295.3771299929
20
46.2747248792
40
26.0000000000
100
AcDbArc
50
53.8796570282
51
73.2916562843
0
ARC
5
2A0
100
AcDbEntity
8
0
100
AcDbCircle
62
7
6
CONTINUOUS
10
295.3771299929
20
194.5247248792
40
26.0000000000
100
AcDbArc
50
36.1849560943
51
143.8150439057
0
ARC
5
2A1
100
AcDbEntity
8
0
100
AcDbCircle
62
7
6
CONTINUOUS
10
361.3521299929
20
140.1223335676
40
31.8500000000
100
AcDbArc
50
172.0000000000
51
193.2437498085
0
ARC
5
2A2
100
AcDbEntity
8
0
100
AcDbCircle
62
7
6
CONTINUOUS
10
242.4021299929
20
112.1270214600
40
90.3500000000
100
AcDbArc
50
332.2477798524
51
13.2437498085
0
ARC
5
2A3
100
AcDbEntity
8
0
100
AcDbCircle
62
7
6
CONTINUOUS
10
307.7271299929
20
174.2300367156
40
26.0000000000
100
AcDbArc
50
352.0000000000
51
360.0000000000
0
ARC
5
2A4
100
AcDbEntity
8
0
100
AcDbCircle
62
7
6
CONTINUOUS
10
348.3521299929
20
112.1270214600
40
90.3500000000
100
AcDbArc
50
166.7562501915
51
207.7522201475
0
ARC
5
2A5
100
AcDbEntity
8
0
100
AcDbCircle
62
7
6
CONTINUOUS
10
229.4021299929
20
140.1223335676
40
31.8500000000
100
AcDbArc
50
346.7562501915
51
8.0000000000
0
ARC
5
2A6
100
AcDbEntity
8
0
100
AcDbCircle
62
7
6
CONTINUOUS
10
279.4521299929
20
174.8520214600
40
7.1500000000
100
AcDbArc
50
90.0000000000
51
180.0000000000
0
ARC
5
2A7
100
AcDbEntity
8
0
100
AcDbCircle
62
7
6
CONTINUOUS
10
279.4521299929
20
174.2020214600
40
7.1500000000
100
AcDbArc
50
180.0000000000
51
270.0000000000
0
ARC
5
2A8
100
AcDbEntity
8
0
100
AcDbCircle
62
7
6
CONTINUOUS
10
295.0521299929
20
158.2770214600
40
7.1500000000
100
AcDbArc
50
180.0000000000
51
270.0000000000
0
ARC
5
2A9
100
AcDbEntity
8
0
100
AcDbCircle
62
7
6
CONTINUOUS
10
284.0021299929
20
185.9020214600
40
3.9000000000
100
AcDbArc
50
270.0000000000
51
360.0000000000
0
ARC
5
2AA
100
AcDbEntity
8
0
100
AcDbCircle
62
7
6
CONTINUOUS
10
284.0021299929
20
163.1520214600
40
3.9000000000
100
AcDbArc
50
0.0000000000
51
90.0000000000
0
ARC
5
2AB
100
AcDbEntity
8
0
100
AcDbCircle
62
7
6
CONTINUOUS
10
283.0271299929
20
174.2300367156
40
26.0000000000
100
AcDbArc
50
180.0000000000
51
188.0000000000
0
SPLINE
5
2AC
100
AcDbEntity
8
DEFAULT_2
100
AcDbSpline
62
8
6
HIDDEN
70
0
71
3
72
9
73
5
74
3
42
0.0000001000
43
0.0000001000
44
0.0000000001
40
0.0000000000
40
0.0000000000
40
0.0000000000
40
0.0000000000
40
0.5077812099
40
1.0000000000
40
1.0000000000
40
1.0000000000
40
1.0000000000
10
155.3277149594
20
167.0662199859
30
0.0000000000
10
155.2674104569
20
167.0615260370
30
0.0000000000
10
155.1484680919
20
167.0544616991
30
0.0000000000
10
155.0293376038
20
167.0520214600
30
0.0000000000
10
154.9707044905
20
167.0520214600
30
0.0000000000
11
155.3277149594
21
167.0662199859
31
0.0000000000
11
155.1465685549
21
167.0555440467
31
0.0000000000
11
154.9707044905
21
167.0520214600
31
0.0000000000
0
SPLINE
5
2AD
100
AcDbEntity
8
DEFAULT_2
100
AcDbSpline
62
8
6
HIDDEN
70
0
71
3
72
18
73
14
74
12
42
0.0000001000
43
0.0000001000
44
0.0000000001
40
0.0000000000
40
0.0000000000
40
0.0000000000
40
0.0000000000
40
0.0101278048
40
0.0402931233
40
0.0900403019
40
0.1581919203
40
0.2436231594
40
0.3443035345
40
0.4585934422
40
0.5835594338
40
0.7171817386
40
0.8567059890
40
1.0000000000
40
1.0000000000
40
1.0000000000
40
1.0000000000
10
138.6437401646
20
151.1270214600
30
0.0000000000
10
138.6191791810
20
151.1270214600
30
0.0000000000
10
138.6663407552
20
151.2839848300
30
0.0000000000
10
138.6403638158
20
151.4449728278
30
0.0000000000
10
138.7004405146
20
151.8341145853
30
0.0000000000
10
138.7483121869
20
152.3100762966
30
0.0000000000
10
138.8348871869
20
152.9263013125
30
0.0000000000
10
138.9432387367
20
153.6447635305
30
0.0000000000
10
139.0820839208
20
154.4580626310
30
0.0000000000
10
139.2502859179
20
155.3464029301
30
0.0000000000
10
139.4483679944
20
156.2914545166
30
0.0000000000
10
139.6750718822
20
157.2756399535
30
0.0000000000
10
139.8423376171
20
157.9408544243
30
0.0000000000
10
139.9303717723
20
158.2770214600
30
0.0000000000
11
138.6437401646
21
151.1270214600
31
0.0000000000
11
138.6391735801
21
151.2005627652
31
0.0000000000
11
138.6539185412
21
151.4195290089
31
0.0000000000
11
138.6893980298
21
151.7797120924
31
0.0000000000
11
138.7474209791
21
152.2721297377
31
0.0000000000
11
138.8304869344
21
152.8880930435
31
0.0000000000
11
138.9405817593
21
153.6122531898
31
0.0000000000
11
139.0800516034
21
154.4319676968
31
0.0000000000
11
139.2491870349
21
155.3252634644
31
0.0000000000
11
139.4484927421
21
156.2767577632
31
0.0000000000
11
139.6762575557
21
157.2659573868
31
0.0000000000
11
139.9303717723
21
158.2770214600
31
0.0000000000
0
SPLINE
5
2AE
100
AcDbEntity
8
DEFAULT_2
100
AcDbSpline
62
8
6
HIDDEN
70
0
71
3
72
25
73
21
74
19
42
0.0000001000
43
0.0000001000
44
0.0000000001
40
0.0000000000
40
0.0000000000
40
0.0000000000
40
0.0000000000
40
0.0632498841
40
0.1231076187
40
0.1805065327
40
0.2360844693
40
0.2903068085
40
0.3435339546
40
0.3960604100
40
0.4481393773
40
0.5000000946
40
0.5518598241
40
0.6039377769
40
0.6564632617
40
0.7096905702
40
0.7639164159
40
0.8194969606
40
0.8768955227
40
0.9367516478
40
1.0000000000
40
1.0000000000
40
1.0000000000
40
1.0000000000
10
129.1571621997
20
94.4913020652
30
0.0000000000
10
129.3721914751
20
93.9005139864
30
0.0000000000
10
129.6993274453
20
92.7143573736
30
0.0000000000
10
129.8784904603
20
90.9207131558
30
0.0000000000
10
129.7537972161
20
89.1985915617
30
0.0000000000
10
129.3467044225
20
87.5785581109
30
0.0000000000
10
128.6801202959
20
86.0923171364
30
0.0000000000
10
127.7798654141
20
84.7714483334
30
0.0000000000
10
126.6754477697
20
83.6455558665
30
0.0000000000
10
125.4000967512
20
82.7410601892
30
0.0000000000
10
123.9904219231
20
82.0802046140
30
0.0000000000
10
122.4857691520
20
81.6803289732
30
0.0000000000
10
120.9274254611
20
81.5534284602
30
0.0000000000
10
119.3576999774
20
81.7059920994
30
0.0000000000
10
117.8189967455
20
82.1391570338
30
0.0000000000
10
116.3529669182
20
82.8492354743
30
0.0000000000
10
114.9997378925
20
83.8286225756
30
0.0000000000
10
113.7972669514
20
85.0677095071
30
0.0000000000
10
112.7816112800
20
86.5568619179
30
0.0000000000
10
112.2697805688
20
87.6757616869
30
0.0000000000
10
112.0547565014
20
88.2665354567
30
0.0000000000
11
129.1571621997
21
94.4913020652
31
0.0000000000
11
129.6542428422
21
92.6718724499
31
0.0000000000
11
129.8285566841
21
90.8954475646
31
0.0000000000
11
129.7025196282
21
89.1884594902
31
0.0000000000
11
129.2968732062
21
87.5815355571
31
0.0000000000
11
128.6339500976
21
86.1067715572
31
0.0000000000
11
127.7392211942
21
84.7957536683
31
0.0000000000
11
126.6418904099
21
83.6780415801
31
0.0000000000
11
125.3749103018
21
82.7799592256
31
0.0000000000
11
123.9746036224
21
82.1236364043
31
0.0000000000
11
122.4800591761
21
81.7263150699
31
0.0000000000
11
120.9322506132
21
81.5998824878
31
0.0000000000
11
119.3732226155
21
81.7507340603
31
0.0000000000
11
117.8451059295
21
82.1798989281
31
0.0000000000
11
116.3892211904
21
82.8835562922
31
0.0000000000
11
115.0455108149
21
83.8538416925
31
0.0000000000
11
113.8517496267
21
85.0804597805
31
0.0000000000
11
112.8434548242
21
86.5532941062
31
0.0000000000
11
112.0547565014
21
88.2665354567
31
0.0000000000
0
SPLINE
5
2AF
100
AcDbEntity
8
DEFAULT_2
100
AcDbSpline
62
8
6
HIDDEN
70
0
71
3
72
18
73
14
74
12
42
0.0000001000
43
0.0000001000
44
0.0000000001
40
0.0000000000
40
0.0000000000
40
0.0000000000
40
0.0000000000
40
0.1408997886
40
0.2789015384
40
0.4113906812
40
0.5354292912
40
0.6491183708
40
0.7499073867
40
0.8362186708
40
0.9058202306
40
0.9572346862
40
0.9888995625
40
1.0000000000
40
1.0000000000
40
1.0000000000
40
1.0000000000
10
104.4706431896
20
219.4270214600
30
0.0000000000
10
104.1295272229
20
219.4270214600
30
0.0000000000
10
103.4542181584
20
219.4415389065
30
0.0000000000
10
102.4600181820
20
219.5051401608
30
0.0000000000
10
101.5097859058
20
219.6047846213
30
0.0000000000
10
100.6225246759
20
219.7321160931
30
0.0000000000
10
99.8151638493
20
219.8761950143
30
0.0000000000
10
99.1040258644
20
220.0273231971
30
0.0000000000
10
98.4952358545
20
220.1698745001
30
0.0000000000
10
98.0218530092
20
220.3048998543
30
0.0000000000
10
97.6389267886
20
220.3930637821
30
0.0000000000
10
97.4722379409
20
220.4888708165
30
0.0000000000
10
97.3206431896
20
220.4958195814
30
0.0000000000
10
97.3206431896
20
220.5226935498
30
0.0000000000
11
104.4706431896
21
219.4270214600
31
0.0000000000
11
103.4475311056
21
219.4489893486
31
0.0000000000
11
102.4472705373
21
219.5128898234
31
0.0000000000
11
101.4902483676
21
219.6131712438
31
0.0000000000
11
100.5984719624
21
219.7409620115
31
0.0000000000
11
99.7856481158
21
219.8863149751
31
0.0000000000
11
99.0693982598
21
220.0374684343
31
0.0000000000
11
98.4598273634
21
220.1837381950
31
0.0000000000
11
97.9713299908
21
220.3137891303
31
0.0000000000
11
97.6128801348
21
220.4184629124
31
0.0000000000
11
97.3942269543
21
220.4897493366
31
0.0000000000
11
97.3206431896
21
220.5226935498
31
0.0000000000
0
SPLINE
5
2B0
100
AcDbEntity
8
DEFAULT_2
100
AcDbSpline
62
8
6
HIDDEN
70
0
71
3
72
8
73
4
74
2
42
0.0000001000
43
0.0000001000
44
0.0000000001
40
0.0000000000
40
0.0000000000
40
0.0000000000
40
0.0000000000
40
1.0000000000
40
1.0000000000
40
1.0000000000
40
1.0000000000
10
155.3277149594
20
167.0662199859
30
0.0000000000
10
155.2674104569
20
167.0615260370
30
0.0000000000
10
155.2070137589
20
167.0579388990
30
0.0000000000
10
155.1465685549
20
167.0555440467
30
0.0000000000
11
155.3277149594
21
167.0662199859
31
0.0000000000
11
155.1465685549
21
167.0555440467
31
0.0000000000
0
SPLINE
5
2B1
100
AcDbEntity
8
DEFAULT_2
100
AcDbSpline
62
8
6
HIDDEN
70
0
71
3
72
8
73
4
74
2
42
0.0000001000
43
0.0000001000
44
0.0000000001
40
0.0000000000
40
0.0000000000
40
0.0000000000
40
0.0000000000
40
1.0000000000
40
1.0000000000
40
1.0000000000
40
1.0000000000
10
155.1465685549
20
167.0555440467
30
0.0000000000
10
155.0879758685
20
167.0532225916
30
0.0000000000
10
155.0293376038
20
167.0520214600
30
0.0000000000
10
154.9707044905
20
167.0520214600
30
0.0000000000
11
155.1465685549
21
167.0555440467
31
0.0000000000
11
154.9707044905
21
167.0520214600
31
0.0000000000
0
SPLINE
5
2B2
100
AcDbEntity
8
DEFAULT_2
100
AcDbSpline
62
8
6
HIDDEN
70
0
71
3
72
15
73
11
74
9
42
0.0000001000
43
0.0000001000
44
0.0000000001
40
0.0000000000
40
0.0000000000
40
0.0000000000
40
0.0000000000
40
0.1717610881
40
0.3346882377
40
0.4853977254
40
0.6207787572
40
0.7381321763
40
0.8366110767
40
0.9203043293
40
1.0000000000
40
1.0000000000
40
1.0000000000
40
1.0000000000
10
140.9441512100
20
163.1520214600
30
0.0000000000
10
140.9832038730
20
163.4037008854
30
0.0000000000
10
141.0415882251
20
163.8970848836
30
0.0000000000
10
141.0709449708
20
164.6170142311
30
0.0000000000
10
141.0386701127
20
165.2831194835
30
0.0000000000
10
140.9420642451
20
165.8752603578
30
0.0000000000
10
140.7779591302
20
166.3725640538
30
0.0000000000
10
140.5422472442
20
166.7563148075
30
0.0000000000
10
140.2273570614
20
167.0020857440
30
0.0000000000
10
139.9806959766
20
167.0520214600
30
0.0000000000
10
139.8625214126
20
167.0520214600
30
0.0000000000
11
140.9441512100
21
163.1520214600
31
0.0000000000
11
141.0330836123
21
163.9109020968
31
0.0000000000
11
141.0604814615
21
164.6351603836
31
0.0000000000
11
141.0242642406
21
165.3046078504
31
0.0000000000
11
140.9212277530
21
165.8979664445
31
0.0000000000
11
140.7487406352
21
166.3906905994
31
0.0000000000
11
140.5084907360
21
166.7570160493
31
0.0000000000
11
140.2093811696
21
166.9787046322
31
0.0000000000
11
139.8625214126
21
167.0520214600
31
0.0000000000
0
SPLINE
5
2B3
100
AcDbEntity
8
DEFAULT_2
100
AcDbSpline
62
8
6
HIDDEN
70
0
71
3
72
17
73
13
74
11
42
0.0000001000
43
0.0000001000
44
0.0000000001
40
0.0000000000
40
0.0000000000
40
0.0000000000
40
0.0000000000
40
0.1902017153
40
0.3733358306
40
0.5324982985
40
0.6617301072
40
0.7655508077
40
0.8482658906
40
0.9134416138
40
0.9614129899
40
0.9904721919
40
1.0000000000
40
1.0000000000
40
1.0000000000
40
1.0000000000
10
125.1017474239
20
134.1405554899
30
0.0000000000
10
125.4579033051
20
134.4561495798
30
0.0000000000
10
126.1639858010
20
135.0677252131
30
0.0000000000
10
127.1913978511
20
135.9162172118
30
0.0000000000
10
128.1179014541
20
136.6461319721
30
0.0000000000
10
128.9014853417
20
137.2383995412
30
0.0000000000
10
129.5390564499
20
137.7008875850
30
0.0000000000
10
130.0577402726
20
138.0692246776
30
0.0000000000
10
130.4538239901
20
138.3290282053
30
0.0000000000
10
130.7726694794
20
138.5609553677
30
0.0000000000
10
130.9188251247
20
138.6095575704
30
0.0000000000
10
131.0424146544
20
138.7239078788
30
0.0000000000
10
131.0505675747
20
138.7015079143
30
0.0000000000
11
125.1017474239
21
134.1405554899
31
0.0000000000
11
126.1810482976
21
135.0749694217
31
0.0000000000
11
127.2411251322
21
135.9499617526
31
0.0000000000
11
128.1796062335
21
136.6891332095
31
0.0000000000
11
128.9537771397
21
137.2735175471
31
0.0000000000
11
129.5840699028
21
137.7317237861
31
0.0000000000
11
130.0921072401
21
138.0885586444
31
0.0000000000
11
130.4968704007
21
138.3632794051
31
0.0000000000
11
130.7985341800
21
138.5598510633
31
0.0000000000
11
130.9849444717
21
138.6730884665
31
0.0000000000
11
131.0505675747
21
138.7015079143
31
0.0000000000
0
SPLINE
5
2B4
100
AcDbEntity
8
DEFAULT_2
100
AcDbSpline
62
8
6
HIDDEN
70
0
71
3
72
12
73
8
74
6
42
0.0000001000
43
0.0000001000
44
0.0000000001
40
0.0000000000
40
0.0000000000
40
0.0000000000
40
0.0000000000
40
0.1852953281
40
0.3812745200
40
0.5848620500
40
0.7924734390
40
1.0000000000
40
1.0000000000
40
1.0000000000
40
1.0000000000
10
145.1911722475
20
90.3185199070
30
0.0000000000
10
145.0282227180
20
90.0915515994
30
0.0000000000
10
144.6877816406
20
89.6281967512
30
0.0000000000
10
144.1488944260
20
88.9299733568
30
0.0000000000
10
143.5707396365
20
88.2199057378
30
0.0000000000
10
142.9613930099
20
87.5132487331
30
0.0000000000
10
142.5384815512
20
87.0515700268
30
0.0000000000
10
142.3234997632
20
86.8241798142
30
0.0000000000
11
145.1911722475
21
90.3185199070
31
0.0000000000
11
144.6947557935
21
89.6431125034
31
0.0000000000
11
144.1529433411
21
88.9413989752
31
0.0000000000
11
143.5712809170
21
88.2273670713
31
0.0000000000
11
142.9577914524
21
87.5162674929
31
0.0000000000
11
142.3234997632
21
86.8241798142
31
0.0000000000
0
SPLINE
5
2B5
100
AcDbEntity
8
DEFAULT_2
100
AcDbSpline
62
8
6
HIDDEN
70
0
71
3
72
9
73
5
74
3
42
0.0000001000
43
0.0000001000
44
0.0000000001
40
0.0000000000
40
0.0000000000
40
0.0000000000
40
0.0000000000
40
0.5024489874
40
1.0000000000
40
1.0000000000
40
1.0000000000
40
1.0000000000
10
115.3892399401
20
132.3116967047
30
0.0000000000
10
115.3989136163
20
132.2873324604
30
0.0000000000
10
115.4178230828
20
132.2387043147
30
0.0000000000
10
115.4360281549
20
132.1898080227
30
0.0000000000
10
115.4449066174
20
132.1654146473
30
0.0000000000
11
115.3892399401
21
132.3116967047
31
0.0000000000
11
115.4177378730
21
132.2383984404
31
0.0000000000
11
115.4449066174
21
132.1654146473
31
0.0000000000
0
SPLINE
5
2B6
100
AcDbEntity
8
DEFAULT_2
100
AcDbSpline
62
8
6
HIDDEN
70
0
71
3
72
15
73
11
74
9
42
0.0000001000
43
0.0000001000
44
0.0000000001
40
0.0000000000
40
0.0000000000
40
0.0000000000
40
0.0000000000
40
0.0803687977
40
0.1658040623
40
0.2660187093
40
0.3841407839
40
0.5190168897
40
0.6682370828
40
0.8294939637
40
1.0000000000
40
1.0000000000
40
1.0000000000
40
1.0000000000
10
139.9855568119
20
182.0020214600
30
0.0000000000
10
140.1055640358
20
182.0020214600
30
0.0000000000
10
140.3571226878
20
182.0541426882
30
0.0000000000
10
140.6812005656
20
182.3013370087
30
0.0000000000
10
140.9331562648
20
182.6854087895
30
0.0000000000
10
141.1180636786
20
183.1823877000
30
0.0000000000
10
141.2385082730
20
183.7725366490
30
0.0000000000
10
141.2964982476
20
184.4361298150
30
0.0000000000
10
141.2932583039
20
185.1551532736
30
0.0000000000
10
141.2511126275
20
185.6493524194
30
0.0000000000
10
141.2198093179
20
185.9020214600
30
0.0000000000
11
139.9855568119
21
182.0020214600
31
0.0000000000
11
140.3377896948
21
182.0765036740
31
0.0000000000
11
140.6479080098
21
182.3007787942
31
0.0000000000
11
140.9042317113
21
182.6693306898
31
0.0000000000
11
141.0969365480
21
183.1621350199
31
0.0000000000
11
141.2233759941
21
183.7529506349
31
0.0000000000
11
141.2851094068
21
184.4185436521
31
0.0000000000
11
141.2838914629
21
185.1409121707
31
0.0000000000
11
141.2198093179
21
185.9020214600
31
0.0000000000
0
SPLINE
5
2B7
100
AcDbEntity
8
DEFAULT_2
100
AcDbSpline
62
8
6
HIDDEN
70
0
71
3
72
18
73
14
74
12
42
0.0000001000
43
0.0000001000
44
0.0000000001
40
0.0000000000
40
0.0000000000
40
0.0000000000
40
0.0000000000
40
0.0101278048
40
0.0402931233
40
0.0900403019
40
0.1581919203
40
0.2436231594
40
0.3443035345
40
0.4585934422
40
0.5835594338
40
0.7171817386
40
0.8567059890
40
1.0000000000
40
1.0000000000
40
1.0000000000
40
1.0000000000
10
138.6437401646
20
151.1270214600
30
0.0000000000
10
138.6191791810
20
151.1270214600
30
0.0000000000
10
138.6663407552
20
151.2839848300
30
0.0000000000
10
138.6403638158
20
151.4449728278
30
0.0000000000
10
138.7004405146
20
151.8341145853
30
0.0000000000
10
138.7483121869
20
152.3100762966
30
0.0000000000
10
138.8348871869
20
152.9263013125
30
0.0000000000
10
138.9432387367
20
153.6447635305
30
0.0000000000
10
139.0820839208
20
154.4580626310
30
0.0000000000
10
139.2502859179
20
155.3464029301
30
0.0000000000
10
139.4483679944
20
156.2914545166
30
0.0000000000
10
139.6750718822
20
157.2756399535
30
0.0000000000
10
139.8423376171
20
157.9408544243
30
0.0000000000
10
139.9303717723
20
158.2770214600
30
0.0000000000
11
138.6437401646
21
151.1270214600
31
0.0000000000
11
138.6391735801
21
151.2005627652
31
0.0000000000
11
138.6539185412
21
151.4195290089
31
0.0000000000
11
138.6893980298
21
151.7797120924
31
0.0000000000
11
138.7474209791
21
152.2721297377
31
0.0000000000
11
138.8304869344
21
152.8880930435
31
0.0000000000
11
138.9405817593
21
153.6122531898
31
0.0000000000
11
139.0800516034
21
154.4319676968
31
0.0000000000
11
139.2491870349
21
155.3252634644
31
0.0000000000
11
139.4484927421
21
156.2767577632
31
0.0000000000
11
139.6762575557
21
157.2659573868
31
0.0000000000
11
139.9303717723
21
158.2770214600
31
0.0000000000
0
SPLINE
5
2B8
100
AcDbEntity
8
DEFAULT_2
100
AcDbSpline
62
8
6
HIDDEN
70
0
71
3
72
9
73
5
74
3
42
0.0000001000
43
0.0000001000
44
0.0000000001
40
0.0000000000
40
0.0000000000
40
0.0000000000
40
0.0000000000
40
0.0202894220
40
1.0000000000
40
1.0000000000
40
1.0000000000
40
1.0000000000
10
323.6594746741
20
123.6128669690
30
0.0000000000
10
323.6595040617
20
123.6128702686
30
0.0000000000
10
323.6609367553
20
123.6125060478
30
0.0000000000
10
323.6615599101
20
123.5854840477
30
0.0000000000
10
323.6615599101
20
123.5717795245
30
0.0000000000
11
323.6594746741
21
123.6128669690
31
0.0000000000
11
323.6595618655
21
123.6128445149
31
0.0000000000
11
323.6615599101
21
123.5717795245
31
0.0000000000
0
SPLINE
5
2B9
100
AcDbEntity
8
DEFAULT_2
100
AcDbSpline
62
8
6
HIDDEN
70
0
71
3
72
9
73
5
74
3
42
0.0000001000
43
0.0000001000
44
0.0000000001
40
0.0000000000
40
0.0000000000
40
0.0000000000
40
0.0000000000
40
0.4999815953
40
1.0000000000
40
1.0000000000
40
1.0000000000
40
1.0000000000
10
311.7479280465
20
167.0520214600
30
0.0000000000
10
311.7486913193
20
167.0543876213
30
0.0000000000
10
311.7502173856
20
167.0591202908
30
0.0000000000
10
311.7517423815
20
167.0638533054
30
0.0000000000
10
311.7525046400
20
167.0662199859
30
0.0000000000
11
311.7479280465
21
167.0520214600
31
0.0000000000
11
311.7502170618
21
167.0591202029
31
0.0000000000
11
311.7525046400
21
167.0662199859
31
0.0000000000
0
SPLINE
5
2BA
100
AcDbEntity
8
DEFAULT_2
100
AcDbSpline
62
8
6
HIDDEN
70
0
71
3
72
9
73
5
74
3
42
0.0000001000
43
0.0000001000
44
0.0000000001
40
0.0000000000
40
0.0000000000
40
0.0000000000
40
0.0000000000
40
0.7569912856
40
1.0000000000
40
1.0000000000
40
1.0000000000
40
1.0000000000
10
323.6521299929
20
123.4603909434
30
0.0000000000
10
323.6521299929
20
123.4987234702
30
0.0000000000
10
323.6504885699
20
123.5294449854
30
0.0000000000
10
323.6582005041
20
123.6127239110
30
0.0000000000
10
323.6594746741
20
123.6128669690
30
0.0000000000
11
323.6521299929
21
123.4603909434
31
0.0000000000
11
323.6550047157
21
123.5753525869
31
0.0000000000
11
323.6594746741
21
123.6128669690
31
0.0000000000
0
SPLINE
5
2BB
100
AcDbEntity
8
DEFAULT_2
100
AcDbSpline
62
8
6
HIDDEN
70
0
71
3
72
16
73
12
74
10
42
0.0000001000
43
0.0000001000
44
0.0000000001
40
0.0000000000
40
0.0000000000
40
0.0000000000
40
0.0000000000
40
0.1096143046
40
0.2235862653
40
0.3367237465
40
0.4489907024
40
0.5603967826
40
0.6710309439
40
0.7810391892
40
0.8906189140
40
1.0000000000
40
1.0000000000
40
1.0000000000
40
1.0000000000
10
287.9021303741
20
81.5996413868
30
0.0000000000
10
286.8377128598
20
81.9245082554
30
0.0000000000
10
284.7074344417
20
82.7308571773
30
0.0000000000
10
281.6941225539
20
84.3668288933
30
0.0000000000
10
278.9152396333
20
86.4225637030
30
0.0000000000
10
276.4709465458
20
88.8296117582
30
0.0000000000
10
274.4072733053
20
91.5383215657
30
0.0000000000
10
272.7624353793
20
94.4938326191
30
0.0000000000
10
271.5661106866
20
97.6380478807
30
0.0000000000
10
270.8396099325
20
100.9090939234
30
0.0000000000
10
270.6771299929
20
103.1352692627
30
0.0000000000
10
270.6771299929
20
104.2456537518
30
0.0000000000
11
287.9021303741
21
81.5996413868
31
0.0000000000
11
284.7800602829
21
82.7824262679
31
0.0000000000
11
281.7301640051
21
84.4394542017
31
0.0000000000
11
278.9609820570
21
86.4896897423
31
0.0000000000
11
276.5257926611
21
88.8896265275
31
0.0000000000
11
274.4706674068
21
91.5892030561
31
0.0000000000
11
272.8331607456
21
94.5338350719
31
0.0000000000
11
271.6425063043
21
97.6653745313
31
0.0000000000
11
270.9195861524
21
100.9233355201
31
0.0000000000
11
270.6771299929
21
104.2456537518
31
0.0000000000
0
SPLINE
5
2BC
100
AcDbEntity
8
DEFAULT_2
100
AcDbSpline
62
8
6
HIDDEN
70
0
71
3
72
16
73
12
74
10
42
0.0000001000
43
0.0000001000
44
0.0000000001
40
0.0000000000
40
0.0000000000
40
0.0000000000
40
0.0000000000
40
0.1096143046
40
0.2235862653
40
0.3367237465
40
0.4489907024
40
0.5603967826
40
0.6710309439
40
0.7810391892
40
0.8906189140
40
1.0000000000
40
1.0000000000
40
1.0000000000
40
1.0000000000
10
302.8521296118
20
81.5996413868
30
0.0000000000
10
303.9165471260
20
81.9245082554
30
0.0000000000
10
306.0468255442
20
82.7308571773
30
0.0000000000
10
309.0601374319
20
84.3668288933
30
0.0000000000
10
311.8390203526
20
86.4225637030
30
0.0000000000
10
314.2833134400
20
88.8296117582
30
0.0000000000
10
316.3469866805
20
91.5383215657
30
0.0000000000
10
317.9918246065
20
94.4938326191
30
0.0000000000
10
319.1881492992
20
97.6380478807
30
0.0000000000
10
319.9146500533
20
100.9090939234
30
0.0000000000
10
320.0771299929
20
103.1352692627
30
0.0000000000
10
320.0771299929
20
104.2456537518
30
0.0000000000
11
302.8521296118
21
81.5996413868
31
0.0000000000
11
305.9741997030
21
82.7824262679
31
0.0000000000
11
309.0240959807
21
84.4394542017
31
0.0000000000
11
311.7932779289
21
86.4896897423
31
0.0000000000
11
314.2284673247
21
88.8896265275
31
0.0000000000
11
316.2835925790
21
91.5892030561
31
0.0000000000
11
317.9210992402
21
94.5338350719
31
0.0000000000
11
319.1117536815
21
97.6653745313
31
0.0000000000
11
319.8346738334
21
100.9233355201
31
0.0000000000
11
320.0771299929
21
104.2456537518
31
0.0000000000
0
SPLINE
5
2BD
100
AcDbEntity
8
DEFAULT_2
100
AcDbSpline
62
8
6
HIDDEN
70
0
71
3
72
9
73
5
74
3
42
0.0000001000
43
0.0000001000
44
0.0000000001
40
0.0000000000
40
0.0000000000
40
0.0000000000
40
0.0000000000
40
0.4999815953
40
1.0000000000
40
1.0000000000
40
1.0000000000
40
1.0000000000
10
279.0063319393
20
167.0520214600
30
0.0000000000
10
279.0055686665
20
167.0543876213
30
0.0000000000
10
279.0040426002
20
167.0591202908
30
0.0000000000
10
279.0025176043
20
167.0638533054
30
0.0000000000
10
279.0017553458
20
167.0662199859
30
0.0000000000
11
279.0063319393
21
167.0520214600
31
0.0000000000
11
279.0040429240
21
167.0591202029
31
0.0000000000
11
279.0017553458
21
167.0662199859
31
0.0000000000
0
SPLINE
5
2BE
100
AcDbEntity
8
0
100
AcDbSpline
62
7
6
CONTINUOUS
70
0
71
3
72
8
73
4
74
2
42
0.0000001000
43
0.0000001000
44
0.0000000001
40
0.0000000000
40
0.0000000000
40
0.0000000000
40
0.0000000000
40
1.0000000000
40
1.0000000000
40
1.0000000000
40
1.0000000000
10
284.9884913206
20
241.4769938379
30
0.0000000000
10
284.6240998343
20
241.4770100806
30
0.0000000000
10
284.2597910485
20
241.4635794676
30
0.0000000000
10
283.8969614727
20
241.4342256123
30
0.0000000000
11
284.9884913206
21
241.4769938379
31
0.0000000000
11
283.8969614727
21
241.4342256123
31
0.0000000000
0
SPLINE
5
2BF
100
AcDbEntity
8
0
100
AcDbSpline
62
7
6
CONTINUOUS
70
0
71
3
72
17
73
13
74
11
42
0.0000001000
43
0.0000001000
44
0.0000000001
40
0.0000000000
40
0.0000000000
40
0.0000000000
40
0.0000000000
40
0.1437269707
40
0.2835024509
40
0.4155976098
40
0.5369709588
40
0.6459124884
40
0.7427004175
40
0.8300728862
40
0.9132002829
40
0.9987278380
40
1.0000000000
40
1.0000000000
40
1.0000000000
40
1.0000000000
10
310.9771299929
20
120.6626851612
30
0.0000000000
10
311.5101970432
20
120.6626851612
30
0.0000000000
10
312.5619868819
20
120.6946880855
30
0.0000000000
10
314.0976077456
20
120.8410687190
30
0.0000000000
10
315.5364778543
20
121.0901442751
30
0.0000000000
10
316.8349717623
20
121.4480363178
30
0.0000000000
10
317.9568991027
20
121.9216034086
30
0.0000000000
10
318.8742672980
20
122.5189629856
30
0.0000000000
10
319.5616590696
20
123.2499458882
30
0.0000000000
10
319.9872999678
20
124.1161656660
30
0.0000000000
10
320.0762631021
20
124.7499772902
30
0.0000000000
10
320.0771361557
20
125.0729262256
30
0.0000000000
10
320.0771394165
20
125.0776592633
30
0.0000000000
11
310.9771299929
21
120.6626851612
31
0.0000000000
11
312.5755528112
21
120.7125731826
31
0.0000000000
11
314.1233996367
21
120.8639792875
31
0.0000000000
11
315.5704743970
21
121.1213152857
31
0.0000000000
11
316.8697248469
21
121.4897504863
31
0.0000000000
11
317.9812762297
21
121.9732524718
31
0.0000000000
11
318.8753452377
21
122.5735949206
31
0.0000000000
11
319.5318656731
21
123.2905909445
31
0.0000000000
11
319.9366446818
21
124.1222459164
31
0.0000000000
11
320.0771009904
21
125.0634595846
31
0.0000000000
11
320.0771394165
21
125.0776592633
31
0.0000000000
0
SPLINE
5
2C0
100
AcDbEntity
8
0
100
AcDbSpline
62
7
6
CONTINUOUS
70
0
71
3
72
13
73
9
74
7
42
0.0000001000
43
0.0000001000
44
0.0000000001
40
0.0000000000
40
0.0000000000
40
0.0000000000
40
0.0000000000
40
0.2097522374
40
0.4109599426
40
0.6018942166
40
0.7574410860
40
0.8860555631
40
1.0000000000
40
1.0000000000
40
1.0000000000
40
1.0000000000
10
283.8968373446
20
241.4342211889
30
0.0000000000
10
282.9705991537
20
241.3592495047
30
0.0000000000
10
281.1582498478
20
241.1794652696
30
0.0000000000
10
278.5178700203
20
240.7993815146
30
0.0000000000
10
276.1380670313
20
240.3166033171
30
0.0000000000
10
274.1112276117
20
239.7385512786
30
0.0000000000
10
272.4700541652
20
239.0829336158
30
0.0000000000
10
271.5310771155
20
238.5499098435
30
0.0000000000
10
271.1159657635
20
238.2626558376
30
0.0000000000
11
283.8968373446
21
241.4342211889
31
0.0000000000
11
281.1230577298
21
241.1549576823
31
0.0000000000
11
278.4770985454
21
240.7670838418
31
0.0000000000
11
275.9926149995
21
240.2501384750
31
0.0000000000
11
274.0085660492
21
239.6691586509
31
0.0000000000
11
272.4267171321
21
239.0212212839
31
0.0000000000
11
271.1159657635
21
238.2626558376
31
0.0000000000
0
SPLINE
5
2C1
100
AcDbEntity
8
0
100
AcDbSpline
62
7
6
CONTINUOUS
70
0
71
3
72
10
73
6
74
4
42
0.0000001000
43
0.0000001000
44
0.0000000001
40
0.0000000000
40
0.0000000000
40
0.0000000000
40
0.0000000000
40
0.2737758556
40
0.6213396002
40
1.0000000000
40
1.0000000000
40
1.0000000000
40
1.0000000000
10
265.4723841523
20
234.3573348876
30
0.0000000000
10
264.7233750769
20
233.8388877201
30
0.0000000000
10
263.1477858484
20
232.4774510042
30
0.0000000000
10
261.0511883089
20
229.8767433946
30
0.0000000000
10
259.8037924231
20
227.8000909175
30
0.0000000000
10
259.2074817463
20
226.6902525972
30
0.0000000000
11
265.4723841523
21
234.3573348876
31
0.0000000000
11
263.3878777263
21
232.5897221146
31
0.0000000000
11
261.1794205297
21
229.9145656925
31
0.0000000000
11
259.2074817463
21
226.6902525972
31
0.0000000000
0
SPLINE
5
2C2
100
AcDbEntity
8
0
100
AcDbSpline
62
7
6
CONTINUOUS
70
0
71
3
72
11
73
7
74
5
42
0.0000001000
43
0.0000001000
44
0.0000000001
40
0.0000000000
40
0.0000000000
40
0.0000000000
40
0.0000000000
40
0.2099722770
40
0.4542004512
40
0.7206761808
40
1.0000000000
40
1.0000000000
40
1.0000000000
40
1.0000000000
10
259.2073139947
20
226.6899150266
30
0.0000000000
10
258.8660454014
20
226.0546277274
30
0.0000000000
10
258.2232829082
20
224.6271130131
30
0.0000000000
10
257.5247021330
20
222.2451942619
30
0.0000000000
10
257.1076221113
20
219.5576806807
30
0.0000000000
10
257.0271274289
20
217.6815905348
30
0.0000000000
10
257.0271303829
20
216.7223224720
30
0.0000000000
11
259.2073139947
21
226.6899150266
31
0.0000000000
11
258.3150341921
21
224.7190321759
31
0.0000000000
11
257.5978218335
21
222.3074333305
31
0.0000000000
11
257.1639021859
21
219.5967650328
31
0.0000000000
11
257.0271303829
21
216.7223224720
31
0.0000000000
0
SPLINE
5
2C3
100
AcDbEntity
8
0
100
AcDbSpline
62
7
6
CONTINUOUS
70
0
71
3
72
13
73
9
74
7
42
0.0000001000
43
0.0000001000
44
0.0000000001
40
0.0000000000
40
0.0000000000
40
0.0000000000
40
0.0000000000
40
0.1705986015
40
0.3411991157
40
0.5118008242
40
0.6824034346
40
0.8530065580
40
1.0000000000
40
1.0000000000
40
1.0000000000
40
1.0000000000
10
268.3967387186
20
70.0525896982
30
0.0000000000
10
268.5462168775
20
69.7689630389
30
0.0000000000
10
268.8986744579
20
69.2281138827
30
0.0000000000
10
269.5669868878
20
68.5291086547
30
0.0000000000
10
270.3528110949
20
67.9648677322
30
0.0000000000
10
271.2290687225
20
67.5550830897
30
0.0000000000
10
272.1225924970
20
67.3248006545
30
0.0000000000
10
272.7203437282
20
67.2770520326
30
0.0000000000
10
272.9969673384
20
67.2770328170
30
0.0000000000
11
268.3967387186
21
70.0525896982
31
0.0000000000
11
268.9219427631
21
69.2468286120
31
0.0000000000
11
269.5865695576
21
68.5515716929
31
0.0000000000
11
270.3678811710
21
67.9906117348
31
0.0000000000
11
271.2391470104
21
67.5831445199
31
0.0000000000
11
272.1705569686
21
67.3431137964
31
0.0000000000
11
272.9969673384
21
67.2770328170
31
0.0000000000
0
SPLINE
5
2C4
100
AcDbEntity
8
0
100
AcDbSpline
62
7
6
CONTINUOUS
70
0
71
3
72
8
73
4
74
2
42
0.0000001000
43
0.0000001000
44
0.0000000001
40
0.0000000000
40
0.0000000000
40
0.0000000000
40
0.0000000000
40
1.0000000000
40
1.0000000000
40
1.0000000000
40
1.0000000000
10
306.8572985131
20
241.4342256123
30
0.0000000000
10
306.4944689374
20
241.4635794676
30
0.0000000000
10
306.1301601515
20
241.4770100806
30
0.0000000000
10
305.7657686653
20
241.4769938379
30
0.0000000000
11
306.8572985131
21
241.4342256123
31
0.0000000000
11
305.7657686653
21
241.4769938379
31
0.0000000000
0
SPLINE
5
2C5
100
AcDbEntity
8
0
100
AcDbSpline
62
7
6
CONTINUOUS
70
0
71
3
72
13
73
9
74
7
42
0.0000001000
43
0.0000001000
44
0.0000000001
40
0.0000000000
40
0.0000000000
40
0.0000000000
40
0.0000000000
40
0.2097522374
40
0.4109599426
40
0.6018942166
40
0.7574410860
40
0.8860555631
40
1.0000000000
40
1.0000000000
40
1.0000000000
40
1.0000000000
10
306.8574226412
20
241.4342211889
30
0.0000000000
10
307.7836608321
20
241.3592495047
30
0.0000000000
10
309.5960101380
20
241.1794652696
30
0.0000000000
10
312.2363899655
20
240.7993815146
30
0.0000000000
10
314.6161929545
20
240.3166033171
30
0.0000000000
10
316.6430323741
20
239.7385512786
30
0.0000000000
10
318.2842058206
20
239.0829336158
30
0.0000000000
10
319.2231828703
20
238.5499098435
30
0.0000000000
10
319.6382942223
20
238.2626558376
30
0.0000000000
11
306.8574226412
21
241.4342211889
31
0.0000000000
11
309.6312022560
21
241.1549576823
31
0.0000000000
11
312.2771614404
21
240.7670838418
31
0.0000000000
11
314.7616449864
21
240.2501384750
31
0.0000000000
11
316.7456939366
21
239.6691586509
31
0.0000000000
11
318.3275428537
21
239.0212212839
31
0.0000000000
11
319.6382942223
21
238.2626558376
31
0.0000000000
0
SPLINE
5
2C6
100
AcDbEntity
8
0
100
AcDbSpline
62
7
6
CONTINUOUS
70
0
71
3
72
10
73
6
74
4
42
0.0000001000
43
0.0000001000
44
0.0000000001
40
0.0000000000
40
0.0000000000
40
0.0000000000
40
0.0000000000
40
0.3787097535
40
0.7265457883
40
1.0000000000
40
1.0000000000
40
1.0000000000
40
1.0000000000
10
331.5467802827
20
226.6902487999
30
0.0000000000
10
330.9503934383
20
227.8002292862
30
0.0000000000
10
329.7024391681
20
229.8777860021
30
0.0000000000
10
327.6056282982
20
232.4783700156
30
0.0000000000
10
326.0300247931
20
233.8394806607
30
0.0000000000
10
325.2818984386
20
234.3573192400
30
0.0000000000
11
331.5467802827
21
226.6902487999
31
0.0000000000
11
329.5745627434
21
229.9149592720
31
0.0000000000
11
327.3641325161
21
232.5920011895
31
0.0000000000
11
325.2818984386
21
234.3573192400
31
0.0000000000
0
SPLINE
5
2C7
100
AcDbEntity
8
0
100
AcDbSpline
62
7
6
CONTINUOUS
70
0
71
3
72
11
73
7
74
5
42
0.0000001000
43
0.0000001000
44
0.0000000001
40
0.0000000000
40
0.0000000000
40
0.0000000000
40
0.0000000000
40
0.2793238192
40
0.5457995488
40
0.7900277230
40
1.0000000000
40
1.0000000000
40
1.0000000000
40
1.0000000000
10
333.7271296029
20
216.7223224720
30
0.0000000000
10
333.7271325569
20
217.6815905348
30
0.0000000000
10
333.6466378745
20
219.5576806807
30
0.0000000000
10
333.2295578528
20
222.2451942619
30
0.0000000000
10
332.5309770776
20
224.6271130131
30
0.0000000000
10
331.8882145844
20
226.0546277274
30
0.0000000000
10
331.5469459911
20
226.6899150266
30
0.0000000000
11
333.7271296029
21
216.7223224720
31
0.0000000000
11
333.5903577999
21
219.5967650328
31
0.0000000000
11
333.1564381523
21
222.3074333305
31
0.0000000000
11
332.4392257938
21
224.7190321759
31
0.0000000000
11
331.5469459911
21
226.6899150266
31
0.0000000000
0
SPLINE
5
2C8
100
AcDbEntity
8
0
100
AcDbSpline
62
7
6
CONTINUOUS
70
0
71
3
72
13
73
9
74
7
42
0.0000001000
43
0.0000001000
44
0.0000000001
40
0.0000000000
40
0.0000000000
40
0.0000000000
40
0.0000000000
40
0.1450753534
40
0.3160620595
40
0.4870482613
40
0.6580335785
40
0.8290177287
40
1.0000000000
40
1.0000000000
40
1.0000000000
40
1.0000000000
10
317.7572926474
20
67.2770337776
30
0.0000000000
10
318.0303083997
20
67.2770530301
30
0.0000000000
10
318.6251732642
20
67.3239452542
30
0.0000000000
10
319.5170390724
20
67.5520194416
30
0.0000000000
10
320.3958836170
20
67.9614548203
30
0.0000000000
10
321.1840797279
20
68.5261582738
30
0.0000000000
10
321.8543453816
20
69.2263326387
30
0.0000000000
10
322.2077159981
20
69.7683402004
30
0.0000000000
10
322.3575288819
20
70.0526041467
30
0.0000000000
11
317.7572926474
21
67.2770337776
31
0.0000000000
11
318.5730124044
21
67.3414043344
31
0.0000000000
11
319.5069621627
21
67.5802245092
31
0.0000000000
11
320.3807776644
21
67.9873340938
31
0.0000000000
11
321.1644272231
21
68.5487390275
31
0.0000000000
11
321.8309797505
21
69.2451420522
31
0.0000000000
11
322.3575288819
21
70.0526041467
31
0.0000000000
0
SPLINE
5
2C9
100
AcDbEntity
8
0
100
AcDbSpline
62
7
6
CONTINUOUS
70
0
71
3
72
12
73
8
74
6
42
0.0000001000
43
0.0000001000
44
0.0000000001
40
0.0000000000
40
0.0000000000
40
0.0000000000
40
0.0000000000
40
0.2103510793
40
0.4174348222
40
0.6192282394
40
0.8138950448
40
1.0000000000
40
1.0000000000
40
1.0000000000
40
1.0000000000
10
301.7014172331
20
90.3185199070
30
0.0000000000
10
301.8452818019
20
90.1002760338
30
0.0000000000
10
302.1097819759
20
89.6528583106
30
0.0000000000
10
302.4321966825
20
88.9526778047
30
0.0000000000
10
302.6703733257
20
88.2397508592
30
0.0000000000
10
302.8173127166
20
87.5291122797
30
0.0000000000
10
302.8521299929
20
87.0554452063
30
0.0000000000
10
302.8521299929
20
86.8241798142
30
0.0000000000
11
301.7014172331
21
90.3185199070
31
0.0000000000
11
302.0998785993
21
89.6431125034
31
0.0000000000
11
302.4217317559
21
88.9413989752
31
0.0000000000
11
302.6585595469
21
88.2273670713
31
0.0000000000
11
302.8034701615
21
87.5162674929
31
0.0000000000
11
302.8521299929
21
86.8241798142
31
0.0000000000
0
SPLINE
5
2CA
100
AcDbEntity
8
0
100
AcDbSpline
62
7
6
CONTINUOUS
70
0
71
3
72
14
73
10
74
8
42
0.0000001000
43
0.0000001000
44
0.0000000001
40
0.0000000000
40
0.0000000000
40
0.0000000000
40
0.0000000000
40
0.1640348062
40
0.3193678142
40
0.4658788559
40
0.6063843312
40
0.7428850654
40
0.8744363396
40
1.0000000000
40
1.0000000000
40
1.0000000000
40
1.0000000000
10
301.7014172331
20
90.3185199070
30
0.0000000000
10
301.5008266961
20
90.6680061768
30
0.0000000000
10
301.0596689304
20
91.3209963223
30
0.0000000000
10
300.2814108254
20
92.1657074107
30
0.0000000000
10
299.4307427405
20
92.8484440504
30
0.0000000000
10
298.5276015560
20
93.3727770852
30
0.0000000000
10
297.5897509829
20
93.7411200706
30
0.0000000000
10
296.6431460458
20
93.9550359269
30
0.0000000000
10
296.0105840619
20
94.0014216029
30
0.0000000000
10
295.7021299929
20
94.0014216029
30
0.0000000000
11
301.7014172331
21
90.3185199070
31
0.0000000000
11
301.0232856186
21
91.3192858438
31
0.0000000000
11
300.2464855051
21
92.1601422654
31
0.0000000000
11
299.4035321900
21
92.8348737482
31
0.0000000000
11
298.5074420131
21
93.3537551290
31
0.0000000000
11
297.5707863703
21
93.7206902131
31
0.0000000000
11
296.6250220706
21
93.9338536603
31
0.0000000000
11
295.7021299929
21
94.0014216029
31
0.0000000000
0
SPLINE
5
2CB
100
AcDbEntity
8
0
100
AcDbSpline
62
7
6
CONTINUOUS
70
0
71
3
72
17
73
13
74
11
42
0.0000001000
43
0.0000001000
44
0.0000000001
40
0.0000000000
40
0.0000000000
40
0.0000000000
40
0.0000000000
40
0.1437269707
40
0.2835024509
40
0.4155976098
40
0.5369709588
40
0.6459124884
40
0.7427004175
40
0.8300728862
40
0.9132002829
40
0.9987278380
40
1.0000000000
40
1.0000000000
40
1.0000000000
40
1.0000000000
10
279.7771299929
20
120.6626851612
30
0.0000000000
10
279.2440629426
20
120.6626851612
30
0.0000000000
10
278.1922731039
20
120.6946880855
30
0.0000000000
10
276.6566522402
20
120.8410687190
30
0.0000000000
10
275.2177821316
20
121.0901442751
30
0.0000000000
10
273.9192882235
20
121.4480363178
30
0.0000000000
10
272.7973608831
20
121.9216034086
30
0.0000000000
10
271.8799926878
20
122.5189629856
30
0.0000000000
10
271.1926009163
20
123.2499458882
30
0.0000000000
10
270.7669600180
20
124.1161656660
30
0.0000000000
10
270.6779968837
20
124.7499772902
30
0.0000000000
10
270.6771238301
20
125.0729262256
30
0.0000000000
10
270.6771205693
20
125.0776592633
30
0.0000000000
11
279.7771299929
21
120.6626851612
31
0.0000000000
11
278.1787071746
21
120.7125731826
31
0.0000000000
11
276.6308603491
21
120.8639792875
31
0.0000000000
11
275.1837855889
21
121.1213152857
31
0.0000000000
11
273.8845351389
21
121.4897504863
31
0.0000000000
11
272.7729837561
21
121.9732524718
31
0.0000000000
11
271.8789147481
21
122.5735949206
31
0.0000000000
11
271.2223943127
21
123.2905909445
31
0.0000000000
11
270.8176153040
21
124.1222459164
31
0.0000000000
11
270.6771589954
21
125.0634595846
31
0.0000000000
11
270.6771205693
21
125.0776592633
31
0.0000000000
0
SPLINE
5
2CC
100
AcDbEntity
8
0
100
AcDbSpline
62
7
6
CONTINUOUS
70
0
71
3
72
14
73
10
74
8
42
0.0000001000
43
0.0000001000
44
0.0000000001
40
0.0000000000
40
0.0000000000
40
0.0000000000
40
0.0000000000
40
0.1640348062
40
0.3193678142
40
0.4658788559
40
0.6063843312
40
0.7428850654
40
0.8744363396
40
1.0000000000
40
1.0000000000
40
1.0000000000
40
1.0000000000
10
289.0528427527
20
90.3185199070
30
0.0000000000
10
289.2534332897
20
90.6680061768
30
0.0000000000
10
289.6945910555
20
91.3209963223
30
0.0000000000
10
290.4728491605
20
92.1657074107
30
0.0000000000
10
291.3235172454
20
92.8484440504
30
0.0000000000
10
292.2266584299
20
93.3727770852
30
0.0000000000
10
293.1645090029
20
93.7411200706
30
0.0000000000
10
294.1111139401
20
93.9550359269
30
0.0000000000
10
294.7436759239
20
94.0014216029
30
0.0000000000
10
295.0521299929
20
94.0014216029
30
0.0000000000
11
289.0528427527
21
90.3185199070
31
0.0000000000
11
289.7309743672
21
91.3192858438
31
0.0000000000
11
290.5077744807
21
92.1601422654
31
0.0000000000
11
291.3507277958
21
92.8348737482
31
0.0000000000
11
292.2468179727
21
93.3537551290
31
0.0000000000
11
293.1834736155
21
93.7206902131
31
0.0000000000
11
294.1292379152
21
93.9338536603
31
0.0000000000
11
295.0521299929
21
94.0014216029
31
0.0000000000
0
SPLINE
5
2CD
100
AcDbEntity
8
0
100
AcDbSpline
62
7
6
CONTINUOUS
70
0
71
3
72
12
73
8
74
6
42
0.0000001000
43
0.0000001000
44
0.0000000001
40
0.0000000000
40
0.0000000000
40
0.0000000000
40
0.0000000000
40
0.2103510793
40
0.4174348222
40
0.6192282394
40
0.8138950448
40
1.0000000000
40
1.0000000000
40
1.0000000000
40
1.0000000000
10
289.0528427527
20
90.3185199070
30
0.0000000000
10
288.9089781839
20
90.1002760338
30
0.0000000000
10
288.6444780099
20
89.6528583106
30
0.0000000000
10
288.3220633033
20
88.9526778047
30
0.0000000000
10
288.0838866601
20
88.2397508592
30
0.0000000000
10
287.9369472692
20
87.5291122797
30
0.0000000000
10
287.9021299929
20
87.0554452063
30
0.0000000000
10
287.9021299929
20
86.8241798142
30
0.0000000000
11
289.0528427527
21
90.3185199070
31
0.0000000000
11
288.6543813865
21
89.6431125034
31
0.0000000000
11
288.3325282299
21
88.9413989752
31
0.0000000000
11
288.0957004390
21
88.2273670713
31
0.0000000000
11
287.9507898244
21
87.5162674929
31
0.0000000000
11
287.9021299929
21
86.8241798142
31
0.0000000000
0
SPLINE
5
2CE
100
AcDbEntity
8
0
100
AcDbSpline
62
7
6
CONTINUOUS
70
0
71
3
72
14
73
10
74
8
42
0.0000001000
43
0.0000001000
44
0.0000000001
40
0.0000000000
40
0.0000000000
40
0.0000000000
40
0.0000000000
40
0.1111810167
40
0.2371949066
40
0.3751659469
40
0.5223395749
40
0.6778748068
40
0.8384243578
40
1.0000000000
40
1.0000000000
40
1.0000000000
40
1.0000000000
10
317.6157284848
20
207.2350492279
30
0.0000000000
10
317.7990638639
20
206.5651646287
30
0.0000000000
10
318.1593386835
20
205.1275270626
30
0.0000000000
10
318.6553071684
20
202.8367312267
30
0.0000000000
10
319.1294404362
20
200.3121698876
30
0.0000000000
10
319.5718951838
20
197.5949045986
30
0.0000000000
10
319.9740086887
20
194.7288985556
30
0.0000000000
10
320.3280753249
20
191.7659686842
30
0.0000000000
10
320.5285055903
20
189.7636044888
30
0.0000000000
10
320.6199266359
20
188.7584315341
30
0.0000000000
11
317.6157284848
21
207.2350492279
31
0.0000000000
11
318.1265477733
21
205.2150792301
31
0.0000000000
11
318.6293439893
21
202.9076956508
31
0.0000000000
11
319.1088721192
21
200.3669418649
31
0.0000000000
11
319.5537673728
21
197.6449924364
31
0.0000000000
11
319.9599548045
21
194.7586666590
31
0.0000000000
11
320.3177893071
21
191.7712852184
31
0.0000000000
11
320.6199266359
21
188.7584315341
31
0.0000000000
0
SPLINE
5
2CF
100
AcDbEntity
8
0
100
AcDbSpline
62
7
6
CONTINUOUS
70
0
71
3
72
10
73
6
74
4
42
0.0000001000
43
0.0000001000
44
0.0000000001
40
0.0000000000
40
0.0000000000
40
0.0000000000
40
0.0000000000
40
0.3514522584
40
0.6844674793
40
1.0000000000
40
1.0000000000
40
1.0000000000
40
1.0000000000
10
274.3921307081
20
209.8749628257
30
0.0000000000
10
274.2812190984
20
209.7233378113
30
0.0000000000
10
274.0746091337
20
209.4209873996
30
0.0000000000
10
273.8042441731
20
208.9594052312
30
0.0000000000
10
273.6511591001
20
208.6479414956
30
0.0000000000
10
273.5827195381
20
208.4937910992
30
0.0000000000
11
274.3921307081
21
209.8749628257
31
0.0000000000
11
274.0747265079
21
209.4092608339
31
0.0000000000
11
273.8053864067
21
208.9481437494
31
0.0000000000
11
273.5827195381
21
208.4937910992
31
0.0000000000
0
SPLINE
5
2D0
100
AcDbEntity
8
0
100
AcDbSpline
62
7
6
CONTINUOUS
70
0
71
3
72
16
73
12
74
10
42
0.0000001000
43
0.0000001000
44
0.0000000001
40
0.0000000000
40
0.0000000000
40
0.0000000000
40
0.0000000000
40
0.0831411393
40
0.1789155209
40
0.2871082867
40
0.4054328253
40
0.5289750671
40
0.6523344218
40
0.7720508873
40
0.8874724268
40
1.0000000000
40
1.0000000000
40
1.0000000000
40
1.0000000000
10
270.6771205693
20
125.0776592633
30
0.0000000000
10
270.6768823368
20
125.4234547897
30
0.0000000000
10
270.7858936493
20
126.1653339407
30
0.0000000000
10
271.2261487196
20
127.2805274629
30
0.0000000000
10
271.9454507520
20
128.4146941634
30
0.0000000000
10
272.9150055631
20
129.5025975928
30
0.0000000000
10
274.0841192827
20
130.4736661473
30
0.0000000000
10
275.3868231602
20
131.2674503513
30
0.0000000000
10
276.7608143752
20
131.8488274586
30
0.0000000000
10
278.1622743125
20
132.2077596428
30
0.0000000000
10
279.1070735286
20
132.3013382704
30
0.0000000000
10
279.5735194778
20
132.3116967047
30
0.0000000000
11
270.6771205693
21
125.0776592633
31
0.0000000000
11
270.8139000480
21
126.1028154790
31
0.0000000000
11
271.2385154987
21
127.2158699445
31
0.0000000000
11
271.9506326263
21
128.3577849964
31
0.0000000000
11
272.9255251776
21
129.4603941456
31
0.0000000000
11
274.1064785807
21
130.4436357977
31
0.0000000000
11
275.4172552483
21
131.2413157435
31
0.0000000000
11
276.7893691565
21
131.8198738625
31
0.0000000000
11
278.1805864666
21
132.1744024505
31
0.0000000000
11
279.5735194778
21
132.3116967047
31
0.0000000000
0
SPLINE
5
2D1
100
AcDbEntity
8
0
100
AcDbSpline
62
7
6
CONTINUOUS
70
0
71
3
72
10
73
6
74
4
42
0.0000001000
43
0.0000001000
44
0.0000000001
40
0.0000000000
40
0.0000000000
40
0.0000000000
40
0.0000000000
40
0.3258201219
40
0.6591856735
40
1.0000000000
40
1.0000000000
40
1.0000000000
40
1.0000000000
10
317.1715404465
20
208.4937910992
30
0.0000000000
10
317.2304162793
20
208.3611816478
30
0.0000000000
10
317.3420769242
20
208.0895225179
30
0.0000000000
10
317.4898823364
20
207.6692771723
30
0.0000000000
10
317.5756653732
20
207.3814348432
30
0.0000000000
10
317.6157284848
20
207.2350492279
30
0.0000000000
11
317.1715404465
21
208.4937910992
31
0.0000000000
11
317.3373224048
21
208.0913224485
31
0.0000000000
11
317.4853914360
21
207.6713019816
31
0.0000000000
11
317.6157284848
21
207.2350492279
31
0.0000000000
0
SPLINE
5
2D2
100
AcDbEntity
8
0
100
AcDbSpline
62
7
6
CONTINUOUS
70
0
71
3
72
10
73
6
74
4
42
0.0000001000
43
0.0000001000
44
0.0000000001
40
0.0000000000
40
0.0000000000
40
0.0000000000
40
0.0000000000
40
0.3514522584
40
0.6844674793
40
1.0000000000
40
1.0000000000
40
1.0000000000
40
1.0000000000
10
316.3621292777
20
209.8749628257
30
0.0000000000
10
316.4730408874
20
209.7233378113
30
0.0000000000
10
316.6796508521
20
209.4209873996
30
0.0000000000
10
316.9500158127
20
208.9594052312
30
0.0000000000
10
317.1031008857
20
208.6479414956
30
0.0000000000
10
317.1715404477
20
208.4937910992
30
0.0000000000
11
316.3621292777
21
209.8749628257
31
0.0000000000
11
316.6795334779
21
209.4092608339
31
0.0000000000
11
316.9488735792
21
208.9481437494
31
0.0000000000
11
317.1715404477
21
208.4937910992
31
0.0000000000
0
SPLINE
5
2D3
100
AcDbEntity
8
0
100
AcDbSpline
62
7
6
CONTINUOUS
70
0
71
3
72
16
73
12
74
10
42
0.0000001000
43
0.0000001000
44
0.0000000001
40
0.0000000000
40
0.0000000000
40
0.0000000000
40
0.0000000000
40
0.1477568165
40
0.2769095180
40
0.3920484772
40
0.4977392712
40
0.5985010663
40
0.6985487248
40
0.7991032151
40
0.8997476085
40
1.0000000000
40
1.0000000000
40
1.0000000000
40
1.0000000000
10
320.9391267304
20
170.6270214600
30
0.0000000000
10
320.9391267304
20
169.6582780755
30
0.0000000000
10
320.9222178354
20
167.8427109382
30
0.0000000000
10
320.8496793373
20
165.2731861056
30
0.0000000000
10
320.7396180282
20
162.9810628801
30
0.0000000000
10
320.5932551110
20
160.8775099071
30
0.0000000000
10
320.4058584232
20
158.8765332902
30
0.0000000000
10
320.1680247733
20
156.9147759015
30
0.0000000000
10
319.8685831570
20
154.9621444671
30
0.0000000000
10
319.4985568120
20
153.0202147008
30
0.0000000000
10
319.1995051670
20
151.7369683337
30
0.0000000000
10
319.0359104909
20
151.1003642035
30
0.0000000000
11
320.9391267304
21
170.6270214600
31
0.0000000000
11
320.9113084587
21
167.7209244471
31
0.0000000000
11
320.8382473501
21
165.1816696627
31
0.0000000000
11
320.7282035854
21
162.9196756155
31
0.0000000000
11
320.5825555688
21
160.8459509369
31
0.0000000000
11
320.3964330820
21
158.8728251931
31
0.0000000000
11
320.1582048820
21
156.9194601777
31
0.0000000000
11
319.8569393058
21
154.9647325044
31
0.0000000000
11
319.4849108511
21
153.0204295686
31
0.0000000000
11
319.0359104909
21
151.1003642035
31
0.0000000000
0
SPLINE
5
2D4
100
AcDbEntity
8
0
100
AcDbSpline
62
7
6
CONTINUOUS
70
0
71
3
72
17
73
13
74
11
42
0.0000001000
43
0.0000001000
44
0.0000000001
40
0.0000000000
40
0.0000000000
40
0.0000000000
40
0.0000000000
40
0.1003512397
40
0.2016962660
40
0.3010445310
40
0.3967461387
40
0.4908556440
40
0.5853401280
40
0.6833542247
40
0.7864422946
40
0.8926851431
40
1.0000000000
40
1.0000000000
40
1.0000000000
40
1.0000000000
10
302.8521299929
20
134.1405554899
30
0.0000000000
10
302.8521299929
20
134.4548239194
30
0.0000000000
10
302.7684590189
20
135.0901925246
30
0.0000000000
10
302.3888278345
20
135.9656083232
30
0.0000000000
10
301.8115517374
20
136.7032560434
30
0.0000000000
10
301.1157114249
20
137.2903341275
30
0.0000000000
10
300.3493401369
20
137.7494110912
30
0.0000000000
10
299.5242606210
20
138.1079706191
30
0.0000000000
10
298.6384278035
20
138.3821810545
30
0.0000000000
10
297.6941800821
20
138.5759745580
30
0.0000000000
10
296.7076302826
20
138.6874741253
30
0.0000000000
10
296.0381752539
20
138.7060740787
30
0.0000000000
10
295.7021299929
20
138.7015079143
30
0.0000000000
11
302.8521299929
21
134.1405554899
31
0.0000000000
11
302.7266213637
21
135.0749694217
31
0.0000000000
11
302.3511713062
21
135.9499617526
31
0.0000000000
11
301.7812344219
21
136.6891332095
31
0.0000000000
11
301.0979227356
21
137.2735175471
31
0.0000000000
11
300.3417529326
21
137.7317237861
31
0.0000000000
11
299.5289449935
21
138.0885586444
31
0.0000000000
11
298.6500314605
21
138.3632794051
31
0.0000000000
11
297.7016715014
21
138.5598510633
31
0.0000000000
11
296.7099582228
21
138.6730884665
31
0.0000000000
11
295.7021299929
21
138.7015079143
31
0.0000000000
0
SPLINE
5
2D5
100
AcDbEntity
8
0
100
AcDbSpline
62
7
6
CONTINUOUS
70
0
71
3
72
15
73
11
74
9
42
0.0000001000
43
0.0000001000
44
0.0000000001
40
0.0000000000
40
0.0000000000
40
0.0000000000
40
0.0000000000
40
0.1251208766
40
0.2502249812
40
0.3752936587
40
0.5003041484
40
0.6252507377
40
0.7501571804
40
0.8750617020
40
1.0000000000
40
1.0000000000
40
1.0000000000
40
1.0000000000
10
320.6199266359
20
188.7584315341
30
0.0000000000
10
320.6491679115
20
188.4369241694
30
0.0000000000
10
320.7027668966
20
187.7934999714
30
0.0000000000
10
320.7696873937
20
186.8274629771
30
0.0000000000
10
320.8242190209
20
185.8609349946
30
0.0000000000
10
320.8673511831
20
184.8942423492
30
0.0000000000
10
320.8999465250
20
183.9275586564
30
0.0000000000
10
320.9227101142
20
182.9608688544
30
0.0000000000
10
320.9361607062
20
181.9940281993
30
0.0000000000
10
320.9391267304
20
181.3493847554
30
0.0000000000
10
320.9391267304
20
181.0270214600
30
0.0000000000
11
320.6199266359
21
188.7584315341
31
0.0000000000
11
320.7005251602
21
187.7932879087
31
0.0000000000
11
320.7676311787
21
186.8272425334
31
0.0000000000
11
320.8223300304
21
185.8606899518
31
0.0000000000
11
320.8656042717
21
184.8940093812
31
0.0000000000
11
320.8983123039
21
183.9274085478
31
0.0000000000
11
320.9211582607
21
182.9608351943
31
0.0000000000
11
320.9346595507
21
181.9941010289
31
0.0000000000
11
320.9391267304
21
181.0270214600
31
0.0000000000
0
SPLINE
5
2D6
100
AcDbEntity
8
0
100
AcDbSpline
62
7
6
CONTINUOUS
70
0
71
3
72
10
73
6
74
4
42
0.0000001000
43
0.0000001000
44
0.0000000001
40
0.0000000000
40
0.0000000000
40
0.0000000000
40
0.0000000000
40
0.3319886405
40
0.6654479417
40
1.0000000000
40
1.0000000000
40
1.0000000000
40
1.0000000000
10
310.9771299929
20
132.1654146473
30
0.0000000000
10
310.1623849246
20
131.5813893087
30
0.0000000000
10
308.4592910342
20
130.5050383577
30
0.0000000000
10
305.7332277328
20
129.1928177467
30
0.0000000000
10
303.8233481419
20
128.5281431594
30
0.0000000000
10
302.8521299929
20
128.2502785515
30
0.0000000000
11
310.9771299929
21
132.1654146473
31
0.0000000000
11
308.4354375707
21
130.5579770177
31
0.0000000000
11
305.7140696761
21
129.2470544287
31
0.0000000000
11
302.8521299929
21
128.2502785515
31
0.0000000000
0
SPLINE
5
2D7
100
AcDbEntity
8
0
100
AcDbSpline
62
7
6
CONTINUOUS
70
0
71
3
72
16
73
12
74
10
42
0.0000001000
43
0.0000001000
44
0.0000000001
40
0.0000000000
40
0.0000000000
40
0.0000000000
40
0.0000000000
40
0.0831411393
40
0.1789155209
40
0.2871082867
40
0.4054328253
40
0.5289750671
40
0.6523344218
40
0.7720508873
40
0.8874724268
40
1.0000000000
40
1.0000000000
40
1.0000000000
40
1.0000000000
10
320.0771394165
20
125.0776592633
30
0.0000000000
10
320.0773776490
20
125.4234547897
30
0.0000000000
10
319.9683663366
20
126.1653339407
30
0.0000000000
10
319.5281112662
20
127.2805274629
30
0.0000000000
10
318.8088092338
20
128.4146941634
30
0.0000000000
10
317.8392544227
20
129.5025975928
30
0.0000000000
10
316.6701407031
20
130.4736661473
30
0.0000000000
10
315.3674368256
20
131.2674503513
30
0.0000000000
10
313.9934456106
20
131.8488274586
30
0.0000000000
10
312.5919856733
20
132.2077596428
30
0.0000000000
10
311.6471864572
20
132.3013382704
30
0.0000000000
10
311.1807405080
20
132.3116967047
30
0.0000000000
11
320.0771394165
21
125.0776592633
31
0.0000000000
11
319.9403599378
21
126.1028154790
31
0.0000000000
11
319.5157444871
21
127.2158699445
31
0.0000000000
11
318.8036273595
21
128.3577849964
31
0.0000000000
11
317.8287348082
21
129.4603941456
31
0.0000000000
11
316.6477814051
21
130.4436357977
31
0.0000000000
11
315.3370047376
21
131.2413157435
31
0.0000000000
11
313.9648908293
21
131.8198738625
31
0.0000000000
11
312.5736735192
21
132.1744024505
31
0.0000000000
11
311.1807405080
21
132.3116967047
31
0.0000000000
0
SPLINE
5
2D8
100
AcDbEntity
8
0
100
AcDbSpline
62
7
6
CONTINUOUS
70
0
71
3
72
9
73
5
74
3
42
0.0000001000
43
0.0000001000
44
0.0000000001
40
0.0000000000
40
0.0000000000
40
0.0000000000
40
0.0000000000
40
0.5006973719
40
1.0000000000
40
1.0000000000
40
1.0000000000
40
1.0000000000
10
311.1807405080
20
132.3116967047
30
0.0000000000
10
311.1467849603
20
132.2872449914
30
0.0000000000
10
311.0789408182
20
132.2384480408
30
0.0000000000
10
311.0110437812
20
132.1897247198
30
0.0000000000
10
310.9771299929
20
132.1654146473
30
0.0000000000
11
311.1807405080
21
132.3116967047
31
0.0000000000
11
311.0788329324
21
132.2383984404
31
0.0000000000
11
310.9771299929
21
132.1654146473
31
0.0000000000
0
SPLINE
5
2D9
100
AcDbEntity
8
0
100
AcDbSpline
62
7
6
CONTINUOUS
70
0
71
3
72
10
73
6
74
4
42
0.0000001000
43
0.0000001000
44
0.0000000001
40
0.0000000000
40
0.0000000000
40
0.0000000000
40
0.0000000000
40
0.3258201219
40
0.6591856735
40
1.0000000000
40
1.0000000000
40
1.0000000000
40
1.0000000000
10
273.5827195393
20
208.4937910992
30
0.0000000000
10
273.5238437066
20
208.3611816478
30
0.0000000000
10
273.4121830616
20
208.0895225179
30
0.0000000000
10
273.2643776494
20
207.6692771723
30
0.0000000000
10
273.1785946126
20
207.3814348432
30
0.0000000000
10
273.1385315010
20
207.2350492279
30
0.0000000000
11
273.5827195393
21
208.4937910992
31
0.0000000000
11
273.4169375810
21
208.0913224485
31
0.0000000000
11
273.2688685499
21
207.6713019816
31
0.0000000000
11
273.1385315010
21
207.2350492279
31
0.0000000000
0
SPLINE
5
2DA
100
AcDbEntity
8
0
100
AcDbSpline
62
7
6
CONTINUOUS
70
0
71
3
72
14
73
10
74
8
42
0.0000001000
43
0.0000001000
44
0.0000000001
40
0.0000000000
40
0.0000000000
40
0.0000000000
40
0.0000000000
40
0.1111810167
40
0.2371949066
40
0.3751659469
40
0.5223395749
40
0.6778748068
40
0.8384243578
40
1.0000000000
40
1.0000000000
40
1.0000000000
40
1.0000000000
10
273.1385315010
20
207.2350492279
30
0.0000000000
10
272.9551961219
20
206.5651646287
30
0.0000000000
10
272.5949213023
20
205.1275270626
30
0.0000000000
10
272.0989528174
20
202.8367312267
30
0.0000000000
10
271.6248195496
20
200.3121698876
30
0.0000000000
10
271.1823648021
20
197.5949045986
30
0.0000000000
10
270.7802512971
20
194.7288985556
30
0.0000000000
10
270.4261846610
20
191.7659686842
30
0.0000000000
10
270.2257543955
20
189.7636044888
30
0.0000000000
10
270.1343333499
20
188.7584315341
30
0.0000000000
11
273.1385315010
21
207.2350492279
31
0.0000000000
11
272.6277122125
21
205.2150792301
31
0.0000000000
11
272.1249159965
21
202.9076956508
31
0.0000000000
11
271.6453878666
21
200.3669418649
31
0.0000000000
11
271.2004926130
21
197.6449924364
31
0.0000000000
11
270.7943051813
21
194.7586666590
31
0.0000000000
11
270.4364706787
21
191.7712852184
31
0.0000000000
11
270.1343333499
21
188.7584315341
31
0.0000000000
0
SPLINE
5
2DB
100
AcDbEntity
8
0
100
AcDbSpline
62
7
6
CONTINUOUS
70
0
71
3
72
15
73
11
74
9
42
0.0000001000
43
0.0000001000
44
0.0000000001
40
0.0000000000
40
0.0000000000
40
0.0000000000
40
0.0000000000
40
0.1251208766
40
0.2502249812
40
0.3752936587
40
0.5003041484
40
0.6252507377
40
0.7501571804
40
0.8750617020
40
1.0000000000
40
1.0000000000
40
1.0000000000
40
1.0000000000
10
270.1343333499
20
188.7584315341
30
0.0000000000
10
270.1050920743
20
188.4369241694
30
0.0000000000
10
270.0514930893
20
187.7934999714
30
0.0000000000
10
269.9845725922
20
186.8274629771
30
0.0000000000
10
269.9300409649
20
185.8609349946
30
0.0000000000
10
269.8869088027
20
184.8942423492
30
0.0000000000
10
269.8543134608
20
183.9275586564
30
0.0000000000
10
269.8315498716
20
182.9608688544
30
0.0000000000
10
269.8180992796
20
181.9940281993
30
0.0000000000
10
269.8151332554
20
181.3493847554
30
0.0000000000
10
269.8151332554
20
181.0270214600
30
0.0000000000
11
270.1343333499
21
188.7584315341
31
0.0000000000
11
270.0537348256
21
187.7932879087
31
0.0000000000
11
269.9866288071
21
186.8272425334
31
0.0000000000
11
269.9319299554
21
185.8606899518
31
0.0000000000
11
269.8886557141
21
184.8940093812
31
0.0000000000
11
269.8559476820
21
183.9274085478
31
0.0000000000
11
269.8331017251
21
182.9608351943
31
0.0000000000
11
269.8196004351
21
181.9941010289
31
0.0000000000
11
269.8151332554
21
181.0270214600
31
0.0000000000
0
SPLINE
5
2DC
100
AcDbEntity
8
0
100
AcDbSpline
62
7
6
CONTINUOUS
70
0
71
3
72
16
73
12
74
10
42
0.0000001000
43
0.0000001000
44
0.0000000001
40
0.0000000000
40
0.0000000000
40
0.0000000000
40
0.0000000000
40
0.1477568165
40
0.2769095180
40
0.3920484772
40
0.4977392712
40
0.5985010663
40
0.6985487248
40
0.7991032151
40
0.8997476085
40
1.0000000000
40
1.0000000000
40
1.0000000000
40
1.0000000000
10
269.8151332554
20
170.6270214600
30
0.0000000000
10
269.8151332554
20
169.6582780755
30
0.0000000000
10
269.8320421504
20
167.8427109382
30
0.0000000000
10
269.9045806485
20
165.2731861056
30
0.0000000000
10
270.0146419577
20
162.9810628801
30
0.0000000000
10
270.1610048749
20
160.8775099071
30
0.0000000000
10
270.3484015626
20
158.8765332902
30
0.0000000000
10
270.5862352125
20
156.9147759015
30
0.0000000000
10
270.8856768288
20
154.9621444671
30
0.0000000000
10
271.2557031738
20
153.0202147008
30
0.0000000000
10
271.5547548188
20
151.7369683337
30
0.0000000000
10
271.7183494949
20
151.1003642035
30
0.0000000000
11
269.8151332554
21
170.6270214600
31
0.0000000000
11
269.8429515272
21
167.7209244471
31
0.0000000000
11
269.9160126357
21
165.1816696627
31
0.0000000000
11
270.0260564004
21
162.9196756155
31
0.0000000000
11
270.1717044171
21
160.8459509369
31
0.0000000000
11
270.3578269038
21
158.8728251931
31
0.0000000000
11
270.5960551038
21
156.9194601777
31
0.0000000000
11
270.8973206801
21
154.9647325044
31
0.0000000000
11
271.2693491347
21
153.0204295686
31
0.0000000000
11
271.7183494949
21
151.1003642035
31
0.0000000000
0
SPLINE
5
2DD
100
AcDbEntity
8
0
100
AcDbSpline
62
7
6
CONTINUOUS
70
0
71
3
72
13
73
9
74
7
42
0.0000001000
43
0.0000001000
44
0.0000000001
40
0.0000000000
40
0.0000000000
40
0.0000000000
40
0.0000000000
40
0.1660479932
40
0.3341111360
40
0.5028274333
40
0.6708521682
40
0.8370081772
40
1.0000000000
40
1.0000000000
40
1.0000000000
40
1.0000000000
10
271.7183494949
20
151.1003642035
30
0.0000000000
10
272.0000550760
20
150.0041492121
30
0.0000000000
10
272.6131868318
20
147.8100076074
30
0.0000000000
10
273.6777358273
20
144.5509556328
30
0.0000000000
10
274.8969504314
20
141.3318666926
30
0.0000000000
10
276.2739320615
20
138.1908160026
30
0.0000000000
10
277.8129477725
20
135.1693215868
30
0.0000000000
10
278.9651234271
20
133.2413081233
30
0.0000000000
10
279.5735194778
20
132.3116967047
30
0.0000000000
11
271.7183494949
21
151.1003642035
31
0.0000000000
11
272.6327614104
21
147.8303093223
31
0.0000000000
11
273.7013539927
21
144.5639571383
31
0.0000000000
11
274.9259138328
21
141.3385297928
31
0.0000000000
11
276.3092459325
21
138.1933841302
31
0.0000000000
11
277.8567080161
21
135.1685247887
31
0.0000000000
11
279.5735194778
21
132.3116967047
31
0.0000000000
0
SPLINE
5
2DE
100
AcDbEntity
8
0
100
AcDbSpline
62
7
6
CONTINUOUS
70
0
71
3
72
15
73
11
74
9
42
0.0000001000
43
0.0000001000
44
0.0000000001
40
0.0000000000
40
0.0000000000
40
0.0000000000
40
0.0000000000
40
0.1758438353
40
0.3319815198
40
0.4708846878
40
0.5952862046
40
0.7081263987
40
0.8109292464
40
0.9077430316
40
1.0000000000
40
1.0000000000
40
1.0000000000
40
1.0000000000
10
287.9021299929
20
116.2953370152
30
0.0000000000
10
287.1933409522
20
116.0624981387
30
0.0000000000
10
285.8799751661
20
115.5388111266
30
0.0000000000
10
284.1472926807
20
114.5287783095
30
0.0000000000
10
282.7662598963
20
113.3938499968
30
0.0000000000
10
281.7106458316
20
112.1875639353
30
0.0000000000
10
280.9442156782
20
110.9581120419
30
0.0000000000
10
280.4246273166
20
109.7327734174
30
0.0000000000
10
280.1208985565
20
108.5274136384
30
0.0000000000
10
280.0505668318
20
107.7239854581
30
0.0000000000
10
280.0505668318
20
107.3325663596
30
0.0000000000
11
287.9021299929
21
116.2953370152
31
0.0000000000
11
285.8277691445
21
115.4548670929
31
0.0000000000
11
284.1158607088
21
114.4454695538
31
0.0000000000
11
282.7541354204
21
113.3178873819
31
0.0000000000
11
281.7142402229
21
112.1238340296
31
0.0000000000
11
280.9564886260
21
110.9037494617
31
0.0000000000
11
280.4476145774
21
109.6982686371
31
0.0000000000
11
280.1493030761
21
108.5026652229
31
0.0000000000
11
280.0505668318
21
107.3325663596
31
0.0000000000
0
SPLINE
5
2DF
100
AcDbEntity
8
0
100
AcDbSpline
62
7
6
CONTINUOUS
70
0
71
3
72
10
73
6
74
4
42
0.0000001000
43
0.0000001000
44
0.0000000001
40
0.0000000000
40
0.0000000000
40
0.0000000000
40
0.0000000000
40
0.3333340927
40
0.6666659073
40
1.0000000000
40
1.0000000000
40
1.0000000000
40
1.0000000000
10
295.7021299929
20
138.7015079143
30
0.0000000000
10
295.6299122974
20
138.7005266243
30
0.0000000000
10
295.4854676225
20
138.6992181983
30
0.0000000000
10
295.2687923633
20
138.6992181983
30
0.0000000000
10
295.1243476884
20
138.7005266243
30
0.0000000000
10
295.0521299929
20
138.7015079143
30
0.0000000000
11
295.7021299929
21
138.7015079143
31
0.0000000000
11
295.4854657956
21
138.6995453026
31
0.0000000000
11
295.2687941903
21
138.6995453026
31
0.0000000000
11
295.0521299929
21
138.7015079143
31
0.0000000000
0
SPLINE
5
2E0
100
AcDbEntity
8
0
100
AcDbSpline
62
7
6
CONTINUOUS
70
0
71
3
72
13
73
9
74
7
42
0.0000001000
43
0.0000001000
44
0.0000000001
40
0.0000000000
40
0.0000000000
40
0.0000000000
40
0.0000000000
40
0.1660479932
40
0.3341111360
40
0.5028274333
40
0.6708521682
40
0.8370081772
40
1.0000000000
40
1.0000000000
40
1.0000000000
40
1.0000000000
10
319.0359104909
20
151.1003642035
30
0.0000000000
10
318.7542049098
20
150.0041492121
30
0.0000000000
10
318.1410731540
20
147.8100076074
30
0.0000000000
10
317.0765241586
20
144.5509556328
30
0.0000000000
10
315.8573095544
20
141.3318666926
30
0.0000000000
10
314.4803279243
20
138.1908160026
30
0.0000000000
10
312.9413122133
20
135.1693215868
30
0.0000000000
10
311.7891365587
20
133.2413081233
30
0.0000000000
10
311.1807405080
20
132.3116967047
30
0.0000000000
11
319.0359104909
21
151.1003642035
31
0.0000000000
11
318.1214985754
21
147.8303093223
31
0.0000000000
11
317.0529059931
21
144.5639571383
31
0.0000000000
11
315.8283461530
21
141.3385297928
31
0.0000000000
11
314.4450140533
21
138.1933841302
31
0.0000000000
11
312.8975519697
21
135.1685247887
31
0.0000000000
11
311.1807405080
21
132.3116967047
31
0.0000000000
0
SPLINE
5
2E1
100
AcDbEntity
8
0
100
AcDbSpline
62
7
6
CONTINUOUS
70
0
71
3
72
15
73
11
74
9
42
0.0000001000
43
0.0000001000
44
0.0000000001
40
0.0000000000
40
0.0000000000
40
0.0000000000
40
0.0000000000
40
0.1758438353
40
0.3319815198
40
0.4708846878
40
0.5952862046
40
0.7081263987
40
0.8109292464
40
0.9077430316
40
1.0000000000
40
1.0000000000
40
1.0000000000
40
1.0000000000
10
302.8521299929
20
116.2953370152
30
0.0000000000
10
303.5609190336
20
116.0624981387
30
0.0000000000
10
304.8742848197
20
115.5388111266
30
0.0000000000
10
306.6069673051
20
114.5287783095
30
0.0000000000
10
307.9880000895
20
113.3938499968
30
0.0000000000
10
309.0436141542
20
112.1875639353
30
0.0000000000
10
309.8100443077
20
110.9581120419
30
0.0000000000
10
310.3296326692
20
109.7327734174
30
0.0000000000
10
310.6333614293
20
108.5274136384
30
0.0000000000
10
310.7036931540
20
107.7239854581
30
0.0000000000
10
310.7036931540
20
107.3325663596
30
0.0000000000
11
302.8521299929
21
116.2953370152
31
0.0000000000
11
304.9264908414
21
115.4548670929
31
0.0000000000
11
306.6383992770
21
114.4454695538
31
0.0000000000
11
308.0001245655
21
113.3178873819
31
0.0000000000
11
309.0400197630
21
112.1238340296
31
0.0000000000
11
309.7977713599
21
110.9037494617
31
0.0000000000
11
310.3066454084
21
109.6982686371
31
0.0000000000
11
310.6049569097
21
108.5026652229
31
0.0000000000
11
310.7036931540
21
107.3325663596
31
0.0000000000
0
SPLINE
5
2E2
100
AcDbEntity
8
0
100
AcDbSpline
62
7
6
CONTINUOUS
70
0
71
3
72
17
73
13
74
11
42
0.0000001000
43
0.0000001000
44
0.0000000001
40
0.0000000000
40
0.0000000000
40
0.0000000000
40
0.0000000000
40
0.1003512397
40
0.2016962660
40
0.3010445310
40
0.3967461387
40
0.4908556440
40
0.5853401280
40
0.6833542247
40
0.7864422946
40
0.8926851431
40
1.0000000000
40
1.0000000000
40
1.0000000000
40
1.0000000000
10
287.9021299929
20
134.1405554899
30
0.0000000000
10
287.9021299929
20
134.4548239194
30
0.0000000000
10
287.9858009669
20
135.0901925246
30
0.0000000000
10
288.3654321513
20
135.9656083232
30
0.0000000000
10
288.9427082485
20
136.7032560434
30
0.0000000000
10
289.6385485609
20
137.2903341275
30
0.0000000000
10
290.4049198489
20
137.7494110912
30
0.0000000000
10
291.2299993649
20
138.1079706191
30
0.0000000000
10
292.1158321823
20
138.3821810545
30
0.0000000000
10
293.0600799038
20
138.5759745580
30
0.0000000000
10
294.0466297032
20
138.6874741253
30
0.0000000000
10
294.7160847319
20
138.7060740787
30
0.0000000000
10
295.0521299929
20
138.7015079143
30
0.0000000000
11
287.9021299929
21
134.1405554899
31
0.0000000000
11
288.0276386222
21
135.0749694217
31
0.0000000000
11
288.4030886797
21
135.9499617526
31
0.0000000000
11
288.9730255640
21
136.6891332095
31
0.0000000000
11
289.6563372502
21
137.2735175471
31
0.0000000000
11
290.4125070532
21
137.7317237861
31
0.0000000000
11
291.2253149923
21
138.0885586444
31
0.0000000000
11
292.1042285253
21
138.3632794051
31
0.0000000000
11
293.0525884844
21
138.5598510633
31
0.0000000000
11
294.0443017630
21
138.6730884665
31
0.0000000000
11
295.0521299929
21
138.7015079143
31
0.0000000000
0
SPLINE
5
2E3
100
AcDbEntity
8
0
100
AcDbSpline
62
7
6
CONTINUOUS
70
0
71
3
72
10
73
6
74
4
42
0.0000001000
43
0.0000001000
44
0.0000000001
40
0.0000000000
40
0.0000000000
40
0.0000000000
40
0.0000000000
40
0.3319886405
40
0.6654479417
40
1.0000000000
40
1.0000000000
40
1.0000000000
40
1.0000000000
10
279.7771299929
20
132.1654146473
30
0.0000000000
10
280.5918750612
20
131.5813893087
30
0.0000000000
10
282.2949689516
20
130.5050383577
30
0.0000000000
10
285.0210322530
20
129.1928177467
30
0.0000000000
10
286.9309118439
20
128.5281431594
30
0.0000000000
10
287.9021299929
20
128.2502785515
30
0.0000000000
11
279.7771299929
21
132.1654146473
31
0.0000000000
11
282.3188224152
21
130.5579770177
31
0.0000000000
11
285.0401903097
21
129.2470544287
31
0.0000000000
11
287.9021299929
21
128.2502785515
31
0.0000000000
0
SPLINE
5
2E4
100
AcDbEntity
8
0
100
AcDbSpline
62
7
6
CONTINUOUS
70
0
71
3
72
9
73
5
74
3
42
0.0000001000
43
0.0000001000
44
0.0000000001
40
0.0000000000
40
0.0000000000
40
0.0000000000
40
0.0000000000
40
0.5006973719
40
1.0000000000
40
1.0000000000
40
1.0000000000
40
1.0000000000
10
279.5735194778
20
132.3116967047
30
0.0000000000
10
279.6074750255
20
132.2872449914
30
0.0000000000
10
279.6753191676
20
132.2384480408
30
0.0000000000
10
279.7432162046
20
132.1897247198
30
0.0000000000
10
279.7771299929
20
132.1654146473
30
0.0000000000
11
279.5735194778
21
132.3116967047
31
0.0000000000
11
279.6754270535
21
132.2383984404
31
0.0000000000
11
279.7771299929
21
132.1654146473
31
0.0000000000
0
ENDSEC
0
SECTION
2
OBJECTS
0
DICTIONARY
5
2E5
100
AcDbDictionary
3
ACAD_GROUP
350
2E6
3
ACAD_MLINESTYLE
350
2E7
0
DICTIONARY
5
2E6
102
{ACAD_REACTORS
330
2E5
102
}
100
AcDbDictionary
0
DICTIONARY
5
2E7
102
{ACAD_REACTORS
330
2E5
102
}
100
AcDbDictionary
3
STANDARD
350
2E8
0
MLINESTYLE
5
2E8
102
{ACAD_REACTORS
330
2E7
102
}
100
AcDbMlineStyle
2
STANDARD
70
0
3

62
256
51
90.0
52
90.0
71
2
49
0.5
62
256
6
BYLAYER
49
-0.5
62
256
6
BYLAYER
0
ENDSEC
0
EOF
