999
DXF file: C:\Aktuell-Internet\CAD-Daten\2vmvk8.dxf
999
Pro/ENGINEER 2001400 by Parametric Technology Corporation
0
SECTION
2
HEADER
9
$ACADVER
1
AC1014
9
$EXTMAX
10
420.0000000000
20
297.0000000000
9
$EXTMIN
10
0.0000000000
20
0.0000000000
9
$LIMMIN
10
0.0000000000
20
0.0000000000
9
$LIMMAX
10
420.0000000000
20
297.0000000000
9
$VIEWCTR
10
210.0000000000
20
148.5000000000
9
$VIEWSIZE
40
297.0000000000
9
$CLAYER
8
0
9
$LTSCALE
40
23.1000000000
9
$CELTYPE
6
BYLAYER
9
$DIMSCALE
40
1
9
$DIMASZ
40
3.5000000000
9
$DIMEXO
40
2.6250000000
9
$DIMDLI
40
15.9600000000
9
$DIMEXE
40
7.5600000000
9
$DIMCEN
40
3.7800000000
9
$DIMLFAC
40
1.0000000000
9
$DIMTXT
40
3.5000000000
9
$DIMTOL
70
1
9
$DIMTFAC
40
0.6000000000
9
$DIMTP
40
0.0050000000
9
$DIMTM
40
0.0050000000
9
$HANDSEED
5
2E5
0
ENDSEC
0
SECTION
2
CLASSES
0
ENDSEC
0
SECTION
2
TABLES
0
TABLE
2
VPORT
5
8
100
AcDbSymbolTable
70
2
0
VPORT
5
1F4
100
AcDbSymbolTableRecord
100
AcDbViewportTableRecord
2
*ACTIVE
70
0
10
0.0
20
0.0
11
1.0
21
1.0
12
210.0000000000
22
148.5000000000
13
0.0
23
0.0
14
1.0
24
1.0
15
0.0
25
0.0
16
0.0
26
0.0
36
1.0
17
0.0
27
0.0
37
0.0
40
297.0000000000
41
1.4141414141
42
50.0
43
0.0
44
0.0
50
0.0
51
0.0
71
0
72
100
73
1
74
1
75
0
76
0
77
0
78
0
0
ENDTAB
0
TABLE
2
LTYPE
5
5
100
AcDbSymbolTable
70
6
0
LTYPE
5
14
100
AcDbSymbolTableRecord
100
AcDbLinetypeTableRecord
2
BYBLOCK
70
0
3

72
65
73
0
40
0.0
0
LTYPE
5
15
100
AcDbSymbolTableRecord
100
AcDbLinetypeTableRecord
2
BYLAYER
70
0
3

72
65
73
0
40
0.0
0
LTYPE
5
16
100
AcDbSymbolTableRecord
100
AcDbLinetypeTableRecord
2
CONTINUOUS
70
64
3
Solid line
72
65
73
0
40
0
0
LTYPE
5
1F5
100
AcDbSymbolTableRecord
100
AcDbLinetypeTableRecord
2
CENTER
70
64
3
____ _ ____ _ ____ _ ____ _ ____ _ ____ _ ____
72
65
73
4
40
0.6
49
0.375
74
0
49
-0.075
74
0
49
0.075
74
0
49
-0.075
74
0
0
LTYPE
5
1F6
100
AcDbSymbolTableRecord
100
AcDbLinetypeTableRecord
2
HIDDEN
70
64
3
- - - - - - - - - - - - - - - - - - - -
72
65
73
2
40
0.2
49
0.1
74
0
49
-0.1
74
0
0
LTYPE
5
1F7
100
AcDbSymbolTableRecord
100
AcDbLinetypeTableRecord
2
PHANTOM
70
64
3
_____ _ _ _____ _ _ _____ _ _ _____
72
65
73
6
40
0.8
49
0.45
74
0
49
-0.05
74
0
49
0.1
74
0
49
-0.05
74
0
49
0.1
74
0
49
-0.05
74
0
0
LTYPE
5
1F8
100
AcDbSymbolTableRecord
100
AcDbLinetypeTableRecord
2
DOT
70
64
3
. . . . . . . . . . . . . . . . . . . .
72
65
73
2
40
0.2
49
0.1
74
0
49
-0.1
74
0
0
LTYPE
5
1F9
100
AcDbSymbolTableRecord
100
AcDbLinetypeTableRecord
2
DASHED
70
64
3
- - - - - - - - - - - - - - - - - - - -
72
65
73
2
40
0.2
49
0.1
74
0
49
-0.1
74
0
0
ENDTAB
0
TABLE
2
LAYER
5
2
100
AcDbSymbolTable
70
36
0
LAYER
5
10
100
AcDbSymbolTableRecord
100
AcDbLayerTableRecord
2
0
70
0
62
7
6
CONTINUOUS
0
LAYER
5
1FA
100
AcDbSymbolTableRecord
100
AcDbLayerTableRecord
2
DEFAULT_1
70
0
62
7
6
CENTER
0
LAYER
5
1FB
100
AcDbSymbolTableRecord
100
AcDbLayerTableRecord
2
DEFAULT_2
70
0
62
8
6
HIDDEN
0
LAYER
5
1FC
100
AcDbSymbolTableRecord
100
AcDbLayerTableRecord
2
DEFAULT_3
70
0
62
7
6
PHANTOM
0
LAYER
5
1FD
100
AcDbSymbolTableRecord
100
AcDbLayerTableRecord
2
ZEICHNUNGSBEMASSUNGEN
70
0
62
7
6
CONTINUOUS
0
ENDTAB
0
TABLE
2
STYLE
5
3
100
AcDbSymbolTable
70
1
0
STYLE
5
11
100
AcDbSymbolTableRecord
100
AcDbTextStyleTableRecord
2
STANDARD
70
0
40
0.0
41
1.0
50
0.0
71
0
42
0.0
3
txt
4

0
STYLE
5
1FE
100
AcDbSymbolTableRecord
100
AcDbTextStyleTableRecord
2
TEXTSTYLE_0
70
0
40
0.0
41
0.80
50
0.0
71
0
42
0.2
3
txt
4

0
ENDTAB
0
TABLE
2
VIEW
5
6
100
AcDbSymbolTable
70
0
0
ENDTAB
0
TABLE
2
UCS
5
7
100
AcDbSymbolTable
70
0
0
ENDTAB
0
TABLE
2
APPID
5
9
100
AcDbSymbolTable
70
1
0
APPID
5
1FF
100
AcDbSymbolTableRecord
100
AcDbRegAppTableRecord
2
ACAD
70
0
0
ENDTAB
0
TABLE
2
DIMSTYLE
5
A
100
AcDbSymbolTable
70
1
0
DIMSTYLE
105
200
100
AcDbSymbolTableRecord
100
AcDbDimStyleTableRecord
2
STANDARD
70
0
3

4

5

6

7

40
1.0
41
0.18
42
0.0625
43
0.38
44
0.18
45
0.0
46
0.0
47
0.0050000000
48
0.0050000000
140
3.5000000000
141
0.09
142
0.0
143
25.4
144
1.0000000000
145
0.0
146
0.6000000000
147
0.09
71
1
72
0
73
1
74
1
75
0
76
0
77
0
78
0
170
0
171
2
172
0
173
0
174
0
175
0
176
0
177
0
178
0
270
2
271
3
272
4
273
2
274
2
340
11
275
0
280
0
281
0
282
0
283
1
284
0
285
0
286
0
287
3
288
0
0
ENDTAB
0
TABLE
2
BLOCK_RECORD
5
1
100
AcDbSymbolTable
70
0
0
BLOCK_RECORD
5
1B
100
AcDbSymbolTableRecord
100
AcDbBlockTableRecord
2
*MODEL_SPACE
0
BLOCK_RECORD
5
1C
100
AcDbSymbolTableRecord
100
AcDbBlockTableRecord
2
*PAPER_SPACE
0
ENDTAB
0
ENDSEC
0
SECTION
2
BLOCKS
0
BLOCK
5
1E
100
AcDbEntity
8
0
100
AcDbBlockBegin
2
*MODEL_SPACE
70
0
10
0.0
20
0.0
30
0.0
3
*MODEL_SPACE
1

0
ENDBLK
5
1F
100
AcDbEntity
8
0
100
AcDbBlockEnd
0
BLOCK
5
20
100
AcDbEntity
8
0
100
AcDbBlockBegin
2
*PAPER_SPACE
70
0
10
0.0
20
0.0
30
0.0
3
*PAPER_SPACE
1

0
ENDBLK
5
21
100
AcDbEntity
8
0
100
AcDbBlockEnd
0
ENDSEC
0
SECTION
2
ENTITIES
0
TEXT
5
201
100
AcDbEntity
8
0
100
AcDbText
62
2
6
CONTINUOUS
10
131.3532889379
20
112.6318366820
7
TEXTSTYLE_0
40
4.5000000000
1
RUD
50
90.0000000000
72
5
11
131.3532889379
21
123.7746939666
100
AcDbText
0
TEXT
5
202
100
AcDbEntity
8
0
100
AcDbText
62
2
6
CONTINUOUS
10
136.7354947586
20
135.0104819365
7
TEXTSTYLE_0
40
4.5000000000
1
VMVK 8
50
90.0000000000
72
5
11
136.7354947586
21
156.9747679301
100
AcDbText
0
TEXT
5
203
100
AcDbEntity
8
0
100
AcDbText
62
2
6
CONTINUOUS
10
280.3285494426
20
184.3148066029
7
TEXTSTYLE_0
40
4.5000000000
1
RUD
50
90.0000000000
72
5
11
280.3285494426
21
195.4576638874
100
AcDbText
0
TEXT
5
204
100
AcDbEntity
8
0
100
AcDbText
62
2
6
CONTINUOUS
10
317.4453710010
20
173.2800758693
7
TEXTSTYLE_0
40
4.5000000000
1
VMVK 8
50
90.0000000000
72
5
11
317.4453710010
21
195.2443618629
100
AcDbText
0
LINE
5
205
100
AcDbEntity
8
0
100
AcDbLine
62
7
6
CONTINUOUS
10
0.0000000000
20
0.0000000000
11
0.0000000000
21
297.0000000000
0
LINE
5
206
100
AcDbEntity
8
0
100
AcDbLine
62
7
6
CONTINUOUS
10
0.0000000000
20
0.0000000000
11
420.0000000000
21
0.0000000000
0
LINE
5
207
100
AcDbEntity
8
0
100
AcDbLine
62
7
6
CONTINUOUS
10
0.0000000000
20
297.0000000000
11
420.0000000000
21
297.0000000000
0
LINE
5
208
100
AcDbEntity
8
0
100
AcDbLine
62
7
6
CONTINUOUS
10
420.0000000000
20
0.0000000000
11
420.0000000000
21
297.0000000000
0
LINE
5
209
100
AcDbEntity
8
0
100
AcDbLine
62
7
6
CONTINUOUS
10
102.4316053305
20
125.4266559157
11
108.7210807507
21
108.1464642184
0
LINE
5
20A
100
AcDbEntity
8
DEFAULT_2
100
AcDbLine
62
8
6
HIDDEN
10
113.5127847570
20
113.6937138216
11
106.2566406356
21
133.6298059475
0
LINE
5
20B
100
AcDbEntity
8
0
100
AcDbLine
62
7
6
CONTINUOUS
10
139.6967236893
20
141.7099001489
11
140.0271147312
21
141.7099001489
0
LINE
5
20C
100
AcDbEntity
8
DEFAULT_2
100
AcDbLine
62
8
6
HIDDEN
10
139.6707557196
20
141.8120278053
11
140.0009117738
21
141.8120278053
0
LINE
5
20D
100
AcDbEntity
8
DEFAULT_2
100
AcDbLine
62
8
6
HIDDEN
10
139.5946565190
20
142.1184107743
11
139.9241258711
21
142.1184107743
0
LINE
5
20E
100
AcDbEntity
8
DEFAULT_2
100
AcDbLine
62
8
6
HIDDEN
10
139.5698896165
20
142.2205384574
11
139.8991360962
21
142.2205384574
0
LINE
5
20F
100
AcDbEntity
8
DEFAULT_2
100
AcDbLine
62
8
6
HIDDEN
10
139.5454214646
20
142.3226661048
11
139.8744480575
21
142.3226661048
0
LINE
5
210
100
AcDbEntity
8
DEFAULT_2
100
AcDbLine
62
8
6
HIDDEN
10
139.5212514617
20
142.4247937522
11
139.8500611366
21
142.4247937522
0
LINE
5
211
100
AcDbEntity
8
DEFAULT_2
100
AcDbLine
62
8
6
HIDDEN
10
139.4973790238
20
142.5269213996
11
139.8259747330
21
142.5269213996
0
LINE
5
212
100
AcDbEntity
8
DEFAULT_2
100
AcDbLine
62
8
6
HIDDEN
10
139.4048535270
20
142.9354320608
11
139.7326225781
21
142.9354320608
0
LINE
5
213
100
AcDbEntity
8
DEFAULT_2
100
AcDbLine
62
8
6
HIDDEN
10
139.3385565062
20
143.2418150030
11
139.6657357990
21
143.2418150030
0
LINE
5
214
100
AcDbEntity
8
DEFAULT_2
100
AcDbLine
62
8
6
HIDDEN
10
139.3170445890
20
143.3439426504
11
139.6440329761
21
143.3439426504
0
LINE
5
215
100
AcDbEntity
8
DEFAULT_2
100
AcDbLine
62
8
6
HIDDEN
10
139.2542629594
20
143.6503257356
11
139.5806954735
21
143.6503257356
0
LINE
5
216
100
AcDbEntity
8
DEFAULT_2
100
AcDbLine
62
8
6
HIDDEN
10
139.2339188352
20
143.7524533830
11
139.5601716279
21
143.7524533830
0
LINE
5
217
100
AcDbEntity
8
DEFAULT_2
100
AcDbLine
62
8
6
HIDDEN
10
139.2138654479
20
143.8545810304
11
139.5399412822
21
143.8545810304
0
LINE
5
218
100
AcDbEntity
8
DEFAULT_2
100
AcDbLine
62
8
6
HIDDEN
10
139.1941023290
20
143.9567086778
11
139.5200039547
21
143.9567086778
0
LINE
5
219
100
AcDbEntity
8
DEFAULT_2
100
AcDbLine
62
8
6
HIDDEN
10
139.1746290176
20
144.0588363252
11
139.5003591721
21
144.0588363252
0
LINE
5
21A
100
AcDbEntity
8
DEFAULT_2
100
AcDbLine
62
8
6
HIDDEN
10
139.1554450602
20
144.1609639726
11
139.4810064686
21
144.1609639726
0
LINE
5
21B
100
AcDbEntity
8
DEFAULT_2
100
AcDbLine
62
8
6
HIDDEN
10
139.1365500116
20
144.2630916200
11
139.4619453867
21
144.2630916200
0
LINE
5
21C
100
AcDbEntity
8
DEFAULT_2
100
AcDbLine
62
8
6
HIDDEN
10
139.1179434336
20
144.3652192674
11
139.4431754764
21
144.3652192674
0
LINE
5
21D
100
AcDbEntity
8
DEFAULT_2
100
AcDbLine
62
8
6
HIDDEN
10
139.0996248958
20
144.4673469148
11
139.4246962956
21
144.4673469148
0
LINE
5
21E
100
AcDbEntity
8
DEFAULT_2
100
AcDbLine
62
8
6
HIDDEN
10
139.0815939754
20
144.5694745622
11
139.4065074100
21
144.5694745622
0
LINE
5
21F
100
AcDbEntity
8
DEFAULT_2
100
AcDbLine
62
8
6
HIDDEN
10
139.0463933323
20
144.7737298570
11
139.3709988252
21
144.7737298570
0
LINE
5
220
100
AcDbEntity
8
DEFAULT_2
100
AcDbLine
62
8
6
HIDDEN
10
139.0123382691
20
144.9779851518
11
139.3366463994
21
144.9779851518
0
LINE
5
221
100
AcDbEntity
8
DEFAULT_2
100
AcDbLine
62
8
6
HIDDEN
10
138.9957393509
20
145.0801127992
11
139.3199027408
21
145.0801127992
0
LINE
5
222
100
AcDbEntity
8
DEFAULT_2
100
AcDbLine
62
8
6
HIDDEN
10
138.9633968467
20
145.2843680940
11
139.2872785865
21
145.2843680940
0
LINE
5
223
100
AcDbEntity
8
DEFAULT_2
100
AcDbLine
62
8
6
HIDDEN
10
138.9321922994
20
145.4886236749
11
139.2558027644
21
145.4886236749
0
LINE
5
224
100
AcDbEntity
8
DEFAULT_2
100
AcDbLine
62
8
6
HIDDEN
10
138.9170159084
20
145.5907513223
11
139.2404946033
21
145.5907513223
0
LINE
5
225
100
AcDbEntity
8
DEFAULT_2
100
AcDbLine
62
8
6
HIDDEN
10
138.8875131294
20
145.7950066171
11
139.2107359724
21
145.7950066171
0
LINE
5
226
100
AcDbEntity
8
DEFAULT_2
100
AcDbLine
62
8
6
HIDDEN
10
138.8731860752
20
145.8971342645
11
139.1962848187
21
145.8971342645
0
LINE
5
227
100
AcDbEntity
8
DEFAULT_2
100
AcDbLine
62
8
6
HIDDEN
10
138.8591414784
20
145.9992619119
11
139.1821186619
21
145.9992619119
0
LINE
5
228
100
AcDbEntity
8
DEFAULT_2
100
AcDbLine
62
8
6
HIDDEN
10
138.8453790231
20
146.1013895593
11
139.1682371777
21
146.1013895593
0
LINE
5
229
100
AcDbEntity
8
DEFAULT_2
100
AcDbLine
62
8
6
HIDDEN
10
138.8057814485
20
146.4077725015
11
139.1282976220
21
146.4077725015
0
LINE
5
22A
100
AcDbEntity
8
0
100
AcDbLine
62
7
6
CONTINUOUS
10
138.7931445352
20
146.5099001489
11
139.1155517242
21
146.5099001489
0
LINE
5
22B
100
AcDbEntity
8
0
100
AcDbLine
62
7
6
CONTINUOUS
10
138.5809750726
20
148.8337782656
11
138.9015634331
21
148.8337782656
0
LINE
5
22C
100
AcDbEntity
8
DEFAULT_2
100
AcDbLine
62
8
6
HIDDEN
10
138.5749433753
20
148.9359059219
11
138.8954803301
21
148.9359059219
0
LINE
5
22D
100
AcDbEntity
8
DEFAULT_2
100
AcDbLine
62
8
6
HIDDEN
10
138.5637073988
20
149.1401612436
11
138.8841486381
21
149.1401612436
0
LINE
5
22E
100
AcDbEntity
8
DEFAULT_2
100
AcDbLine
62
8
6
HIDDEN
10
138.5489201892
20
149.4465442215
11
138.8692355488
21
149.4465442215
0
LINE
5
22F
100
AcDbEntity
8
DEFAULT_2
100
AcDbLine
62
8
6
HIDDEN
10
138.5445418192
20
149.5486718689
11
138.8648199259
21
149.5486718689
0
LINE
5
230
100
AcDbEntity
8
DEFAULT_2
100
AcDbLine
62
8
6
HIDDEN
10
138.5366105451
20
149.7529272353
11
138.8568211915
21
149.7529272353
0
LINE
5
231
100
AcDbEntity
8
DEFAULT_2
100
AcDbLine
62
8
6
HIDDEN
10
138.5297793338
20
149.9571825301
11
138.8499318996
21
149.9571825301
0
LINE
5
232
100
AcDbEntity
8
DEFAULT_2
100
AcDbLine
62
8
6
HIDDEN
10
138.5267760615
20
150.0593101775
11
138.8469030994
21
150.0593101775
0
LINE
5
233
100
AcDbEntity
8
DEFAULT_2
100
AcDbLine
62
8
6
HIDDEN
10
138.5175104093
20
150.4678207671
11
138.8375587147
21
150.4678207671
0
LINE
5
234
100
AcDbEntity
8
DEFAULT_2
100
AcDbLine
62
8
6
HIDDEN
10
115.5990309822
20
140.7084087082
11
124.0373085969
21
117.5244315028
0
LINE
5
235
100
AcDbEntity
8
DEFAULT_2
100
AcDbLine
62
8
6
HIDDEN
10
138.5121067556
20
150.9784591471
11
138.8321091628
21
150.9784591471
0
LINE
5
236
100
AcDbEntity
8
DEFAULT_2
100
AcDbLine
62
8
6
HIDDEN
10
138.5118667901
20
151.1827144419
11
138.8318671593
21
151.1827144419
0
LINE
5
237
100
AcDbEntity
8
DEFAULT_2
100
AcDbLine
62
8
6
HIDDEN
10
138.5127247369
20
151.3869697367
11
138.8327323925
21
151.3869697367
0
LINE
5
238
100
AcDbEntity
8
DEFAULT_2
100
AcDbLine
62
8
6
HIDDEN
10
138.5146806705
20
151.5912250315
11
138.8347049387
21
151.5912250315
0
LINE
5
239
100
AcDbEntity
8
DEFAULT_2
100
AcDbLine
62
8
6
HIDDEN
10
138.5160704316
20
151.6933526789
11
138.8361065046
21
151.6933526789
0
LINE
5
23A
100
AcDbEntity
8
DEFAULT_2
100
AcDbLine
62
8
6
HIDDEN
10
138.5177347604
20
151.7954803263
11
138.8377849717
21
151.7954803263
0
LINE
5
23B
100
AcDbEntity
8
DEFAULT_2
100
AcDbLine
62
8
6
HIDDEN
10
138.5196736930
20
151.8976079737
11
138.8397403769
21
151.8976079737
0
LINE
5
23C
100
AcDbEntity
8
DEFAULT_2
100
AcDbLine
62
8
6
HIDDEN
10
138.5218872714
20
151.9997356211
11
138.8419727632
21
151.9997356211
0
LINE
5
23D
100
AcDbEntity
8
DEFAULT_2
100
AcDbLine
62
8
6
HIDDEN
10
138.5243755437
20
152.1018632685
11
138.8444821801
21
152.1018632685
0
LINE
5
23E
100
AcDbEntity
8
DEFAULT_2
100
AcDbLine
62
8
6
HIDDEN
10
138.5271385639
20
152.2039909159
11
138.8472686828
21
152.2039909159
0
LINE
5
23F
100
AcDbEntity
8
DEFAULT_2
100
AcDbLine
62
8
6
HIDDEN
10
129.8752362421
20
152.3770898236
11
129.8765945378
21
152.3770898236
0
LINE
5
240
100
AcDbEntity
8
DEFAULT_2
100
AcDbLine
62
8
6
HIDDEN
10
138.5334890935
20
152.4082462107
11
138.8536731980
21
152.4082462107
0
LINE
5
241
100
AcDbEntity
8
DEFAULT_2
100
AcDbLine
62
8
6
HIDDEN
10
138.5370767513
20
152.5103741442
11
138.8572913624
21
152.5103741442
0
LINE
5
242
100
AcDbEntity
8
DEFAULT_2
100
AcDbLine
62
8
6
HIDDEN
10
138.5450772024
20
152.7146294390
11
138.8653598639
21
152.7146294390
0
LINE
5
243
100
AcDbEntity
8
DEFAULT_2
100
AcDbLine
62
8
6
HIDDEN
10
138.5494901792
20
152.8167570864
11
138.8698103892
21
152.8167570864
0
LINE
5
244
100
AcDbEntity
8
DEFAULT_2
100
AcDbLine
62
8
6
HIDDEN
10
138.5541784496
20
152.9188847338
11
138.8745385600
21
152.9188847338
0
LINE
5
245
100
AcDbEntity
8
DEFAULT_2
100
AcDbLine
62
8
6
HIDDEN
10
138.5591421154
20
153.0210123812
11
138.8795444811
21
153.0210123812
0
LINE
5
246
100
AcDbEntity
8
DEFAULT_2
100
AcDbLine
62
8
6
HIDDEN
10
138.5643812849
20
153.1231400286
11
138.8848282632
21
153.1231400286
0
LINE
5
247
100
AcDbEntity
8
DEFAULT_2
100
AcDbLine
62
8
6
HIDDEN
10
138.5698960720
20
153.2252676760
11
138.8903900235
21
153.2252676760
0
LINE
5
248
100
AcDbEntity
8
DEFAULT_2
100
AcDbLine
62
8
6
HIDDEN
10
138.5756865971
20
153.3273953234
11
138.8962298852
21
153.3273953234
0
LINE
5
249
100
AcDbEntity
8
DEFAULT_2
100
AcDbLine
62
8
6
HIDDEN
10
138.5880953722
20
153.5316506182
11
138.9087444374
21
153.5316506182
0
LINE
5
24A
100
AcDbEntity
8
0
100
AcDbLine
62
7
6
CONTINUOUS
10
138.5947138931
20
153.6337782656
11
138.9154194057
21
153.6337782656
0
LINE
5
24B
100
AcDbEntity
8
0
100
AcDbLine
62
7
6
CONTINUOUS
10
119.2456381036
20
152.3606853581
11
119.2456381036
21
175.5348806384
0
LINE
5
24C
100
AcDbEntity
8
DEFAULT_1
100
AcDbLine
62
2
6
CENTER
10
119.2456381036
20
97.7770898236
11
119.2456381036
21
152.3606853581
0
LINE
5
24D
100
AcDbEntity
8
DEFAULT_1
100
AcDbLine
62
2
6
CENTER
10
119.2456381036
20
175.5348806384
11
119.2456381036
21
210.9770898236
0
LINE
5
24E
100
AcDbEntity
8
DEFAULT_2
100
AcDbLine
62
8
6
HIDDEN
10
123.6940713364
20
166.9770898236
11
123.6940713364
21
166.5770898236
0
LINE
5
24F
100
AcDbEntity
8
DEFAULT_2
100
AcDbLine
62
8
6
HIDDEN
10
130.6252554716
20
162.1770898236
11
140.1400145226
21
162.1770898236
0
LINE
5
250
100
AcDbEntity
8
DEFAULT_2
100
AcDbLine
62
8
6
HIDDEN
10
125.2025146482
20
144.7306199494
11
128.5496058601
21
135.5345624239
0
LINE
5
251
100
AcDbEntity
8
DEFAULT_2
100
AcDbLine
62
8
6
HIDDEN
10
131.1776028234
20
128.3142001089
11
135.2145151938
21
117.2228745270
0
LINE
5
252
100
AcDbEntity
8
0
100
AcDbLine
62
7
6
CONTINUOUS
10
112.5827524637
20
187.6797174582
11
92.2964396702
21
200.6035240404
0
LINE
5
253
100
AcDbEntity
8
0
100
AcDbLine
62
7
6
CONTINUOUS
10
138.3998240003
20
122.7333259666
11
128.9421891433
21
106.3720119533
0
LINE
5
254
100
AcDbEntity
8
DEFAULT_2
100
AcDbLine
62
8
6
HIDDEN
10
113.3202451911
20
187.1770898236
11
117.6763619519
21
187.1770898236
0
LINE
5
255
100
AcDbEntity
8
0
100
AcDbLine
62
7
6
CONTINUOUS
10
95.2393409049
20
207.8975535543
11
113.9921119148
21
204.1010315340
0
LINE
5
256
100
AcDbEntity
8
0
100
AcDbLine
62
7
6
CONTINUOUS
10
276.9742083730
20
203.5957458333
11
280.4471827748
21
205.9990186714
0
LINE
5
257
100
AcDbEntity
8
0
100
AcDbLine
62
7
6
CONTINUOUS
10
281.6020992011
20
100.7770898236
11
285.9453988169
21
100.7770898236
0
LINE
5
258
100
AcDbEntity
8
0
100
AcDbLine
62
7
6
CONTINUOUS
10
304.8088611690
20
100.7770898236
11
309.1521607848
21
100.7770898236
0
LINE
5
259
100
AcDbEntity
8
0
100
AcDbLine
62
7
6
CONTINUOUS
10
273.1188897932
20
198.8775371353
11
273.1187800867
21
198.8773328778
0
LINE
5
25A
100
AcDbEntity
8
0
100
AcDbLine
62
7
6
CONTINUOUS
10
295.5771299929
20
117.2228745270
11
295.1771299929
21
117.2228745270
0
LINE
5
25B
100
AcDbEntity
8
0
100
AcDbLine
62
7
6
CONTINUOUS
10
299.9771299929
20
125.8299168078
11
290.7771299929
21
125.8299168078
0
LINE
5
25C
100
AcDbEntity
8
0
100
AcDbLine
62
7
6
CONTINUOUS
10
271.7771299948
20
192.7434289080
11
271.7771299929
21
166.5943299809
0
LINE
5
25D
100
AcDbEntity
8
DEFAULT_2
100
AcDbLine
62
8
6
HIDDEN
10
295.5771299929
20
128.3142001089
11
295.1771299929
21
128.3142001089
0
LINE
5
25E
100
AcDbEntity
8
0
100
AcDbLine
62
7
6
CONTINUOUS
10
290.7771299929
20
133.6298059475
11
285.7771299929
21
133.6298059475
0
LINE
5
25F
100
AcDbEntity
8
0
100
AcDbLine
62
7
6
CONTINUOUS
10
299.9771299929
20
133.6298059475
11
304.9771299929
21
133.6298059475
0
LINE
5
260
100
AcDbEntity
8
0
100
AcDbLine
62
7
6
CONTINUOUS
10
274.1863841402
20
148.3327669763
11
271.9328408930
21
164.3675603655
0
LINE
5
261
100
AcDbEntity
8
0
100
AcDbLine
62
7
6
CONTINUOUS
10
279.6466704621
20
170.7770898236
11
279.6466704621
21
164.3770898236
0
LINE
5
262
100
AcDbEntity
8
DEFAULT_2
100
AcDbLine
62
8
6
HIDDEN
10
280.1771299929
20
123.5270173878
11
280.1771299929
21
136.3471676196
0
LINE
5
263
100
AcDbEntity
8
DEFAULT_2
100
AcDbLine
62
8
6
HIDDEN
10
295.5771299929
20
135.5345624239
11
295.1771299929
21
135.5345624239
0
LINE
5
264
100
AcDbEntity
8
0
100
AcDbLine
62
7
6
CONTINUOUS
10
298.8561877381
20
135.8299168078
11
291.8980723349
21
135.8299168078
0
LINE
5
265
100
AcDbEntity
8
0
100
AcDbLine
62
7
6
CONTINUOUS
10
281.1771299929
20
166.9770898236
11
281.1771299929
21
166.5770898236
0
LINE
5
266
100
AcDbEntity
8
0
100
AcDbLine
62
7
6
CONTINUOUS
10
285.9453988169
20
125.4266559157
11
285.9453988169
21
100.7770898236
0
LINE
5
267
100
AcDbEntity
8
0
100
AcDbLine
62
7
6
CONTINUOUS
10
290.7771299929
20
159.7770898236
11
290.7771299929
21
156.7770898236
0
LINE
5
268
100
AcDbEntity
8
0
100
AcDbLine
62
7
6
CONTINUOUS
10
290.7771299929
20
103.1771389217
11
290.7771299929
21
141.9238799959
0
LINE
5
269
100
AcDbEntity
8
0
100
AcDbLine
62
7
6
CONTINUOUS
10
290.7771299929
20
173.7770898236
11
290.7771299929
21
190.0605218783
0
LINE
5
26A
100
AcDbEntity
8
DEFAULT_1
100
AcDbLine
62
2
6
CENTER
10
295.3771299929
20
97.7770898236
11
295.3771299929
21
210.9770898236
0
LINE
5
26B
100
AcDbEntity
8
0
100
AcDbLine
62
7
6
CONTINUOUS
10
295.1771299929
20
152.3770898236
11
295.5771299929
21
152.3770898236
0
LINE
5
26C
100
AcDbEntity
8
0
100
AcDbLine
62
7
6
CONTINUOUS
10
299.9771299929
20
159.7770898236
11
299.9771299929
21
156.7770898236
0
LINE
5
26D
100
AcDbEntity
8
0
100
AcDbLine
62
7
6
CONTINUOUS
10
299.9771299929
20
103.1771389217
11
299.9771299929
21
141.9238799959
0
LINE
5
26E
100
AcDbEntity
8
0
100
AcDbLine
62
7
6
CONTINUOUS
10
299.9771299929
20
173.7770898236
11
299.9771299929
21
190.0605218783
0
LINE
5
26F
100
AcDbEntity
8
DEFAULT_2
100
AcDbLine
62
8
6
HIDDEN
10
285.5771299929
20
162.1770898236
11
285.3027927291
21
162.1770898236
0
LINE
5
270
100
AcDbEntity
8
0
100
AcDbLine
62
7
6
CONTINUOUS
10
288.3771299929
20
162.1770898236
11
285.5771299929
21
162.1770898236
0
LINE
5
271
100
AcDbEntity
8
0
100
AcDbLine
62
7
6
CONTINUOUS
10
302.3771299929
20
162.1770898236
11
305.1771299929
21
162.1770898236
0
LINE
5
272
100
AcDbEntity
8
DEFAULT_2
100
AcDbLine
62
8
6
HIDDEN
10
305.1771299929
20
162.1770898236
11
305.4514672567
21
162.1770898236
0
LINE
5
273
100
AcDbEntity
8
0
100
AcDbLine
62
7
6
CONTINUOUS
10
304.8088611690
20
125.4266559157
11
304.8088611690
21
100.7770898236
0
LINE
5
274
100
AcDbEntity
8
0
100
AcDbLine
62
7
6
CONTINUOUS
10
309.5771299929
20
166.9770898236
11
309.5771299929
21
166.5770898236
0
LINE
5
275
100
AcDbEntity
8
DEFAULT_2
100
AcDbLine
62
8
6
HIDDEN
10
310.5771299929
20
136.3471676196
11
310.5771299929
21
123.5270173878
0
LINE
5
276
100
AcDbEntity
8
0
100
AcDbLine
62
7
6
CONTINUOUS
10
311.1075895237
20
170.7770898236
11
311.1075895237
21
164.3770898236
0
LINE
5
277
100
AcDbEntity
8
DEFAULT_2
100
AcDbLine
62
8
6
HIDDEN
10
312.7771299929
20
136.4864351488
11
312.7771299929
21
113.6155129630
0
LINE
5
278
100
AcDbEntity
8
0
100
AcDbLine
62
7
6
CONTINUOUS
10
305.1771299929
20
171.3770898236
11
302.3771299929
21
171.3770898236
0
LINE
5
279
100
AcDbEntity
8
0
100
AcDbLine
62
7
6
CONTINUOUS
10
285.5771299929
20
171.3770898236
11
288.3771299929
21
171.3770898236
0
LINE
5
27A
100
AcDbEntity
8
0
100
AcDbLine
62
7
6
CONTINUOUS
10
318.9771299929
20
192.7433498965
11
318.9771299929
21
166.5943299809
0
LINE
5
27B
100
AcDbEntity
8
0
100
AcDbLine
62
7
6
CONTINUOUS
10
316.5678758456
20
148.3327669763
11
318.8214190928
21
164.3675603655
0
LINE
5
27C
100
AcDbEntity
8
0
100
AcDbLine
62
7
6
CONTINUOUS
10
299.9771299929
20
174.8770898236
11
290.7771299929
21
174.8770898236
0
LINE
5
27D
100
AcDbEntity
8
0
100
AcDbLine
62
7
6
CONTINUOUS
10
299.9771299929
20
179.8770898236
11
290.7771299929
21
179.8770898236
0
LINE
5
27E
100
AcDbEntity
8
0
100
AcDbLine
62
7
6
CONTINUOUS
10
295.1771299929
20
192.8636310258
11
295.5771299929
21
192.8636310258
0
LINE
5
27F
100
AcDbEntity
8
0
100
AcDbLine
62
7
6
CONTINUOUS
10
317.6353714483
20
198.8775347977
11
317.6354798992
21
198.8773328778
0
LINE
5
280
100
AcDbEntity
8
0
100
AcDbLine
62
7
6
CONTINUOUS
10
310.3070772110
20
205.9990186714
11
313.7795926888
21
203.5960634720
0
LINE
5
281
100
AcDbEntity
8
0
100
AcDbLine
62
7
6
CONTINUOUS
10
288.3124106264
20
207.9507573491
11
288.3123345170
21
207.9507511953
0
LINE
5
282
100
AcDbEntity
8
DEFAULT_2
100
AcDbLine
62
8
6
HIDDEN
10
295.5771299929
20
206.0337271351
11
295.1771299929
21
206.0337271351
0
LINE
5
283
100
AcDbEntity
8
0
100
AcDbLine
62
7
6
CONTINUOUS
10
288.9836969897
20
207.9770898126
11
301.7705629961
21
207.9770898126
0
LINE
5
284
100
AcDbEntity
8
0
100
AcDbLine
62
7
6
CONTINUOUS
10
302.4418493594
20
207.9507573491
11
302.4419254688
21
207.9507511953
0
ARC
5
285
100
AcDbEntity
8
DEFAULT_2
100
AcDbCircle
62
8
6
HIDDEN
10
101.6456381036
20
164.3770898236
40
30.6755097964
100
AcDbArc
50
320.1706371716
51
336.9712287216
0
ARC
5
286
100
AcDbEntity
8
DEFAULT_2
100
AcDbCircle
62
8
6
HIDDEN
10
107.2456381036
20
170.7770898236
40
24.4000000000
100
AcDbArc
50
7.0624335538
51
15.0261137591
0
ARC
5
287
100
AcDbEntity
8
DEFAULT_2
100
AcDbCircle
62
8
6
HIDDEN
10
117.6763619519
20
173.5770898236
40
13.6000000000
100
AcDbArc
50
15.0261137591
51
90.0000000000
0
ARC
5
288
100
AcDbEntity
8
DEFAULT_2
100
AcDbCircle
62
8
6
HIDDEN
10
101.6456381036
20
164.3770898236
40
30.0000000000
100
AcDbArc
50
345.3251502571
51
351.1798521708
0
ARC
5
289
100
AcDbEntity
8
DEFAULT_2
100
AcDbCircle
62
8
6
HIDDEN
10
101.6456381036
20
164.3770898236
40
30.0000000000
100
AcDbArc
50
299.6264839068
51
311.5445457223
0
CIRCLE
5
28A
100
AcDbEntity
8
0
100
AcDbCircle
62
7
6
CONTINUOUS
10
133.6456381036
20
177.3770898236
40
2.5000000000
0
ARC
5
28B
100
AcDbEntity
8
0
100
AcDbCircle
62
7
6
CONTINUOUS
10
176.5118233106
20
151.1252301950
40
37.6800000000
100
AcDbArc
50
176.1827069226
51
183.4865070150
0
ARC
5
28C
100
AcDbEntity
8
0
100
AcDbCircle
62
7
6
CONTINUOUS
10
104.8456381036
20
175.5348806384
40
14.4000000000
100
AcDbArc
50
0.0000000000
51
57.5000000000
0
ARC
5
28D
100
AcDbEntity
8
0
100
AcDbCircle
62
7
6
CONTINUOUS
10
99.2456381036
20
152.3606853581
40
20.0000000000
100
AcDbArc
50
290.3946696523
51
360.0000000000
0
ARC
5
28E
100
AcDbEntity
8
0
100
AcDbCircle
62
7
6
CONTINUOUS
10
108.4456381036
20
127.6155848330
40
6.4000000000
100
AcDbArc
50
110.3946696523
51
200.0000000000
0
ARC
5
28F
100
AcDbEntity
8
0
100
AcDbCircle
62
7
6
CONTINUOUS
10
107.2456381036
20
170.7770898236
40
34.0000000000
100
AcDbArc
50
344.1605622604
51
78.5550866460
0
ARC
5
290
100
AcDbEntity
8
0
100
AcDbCircle
62
7
6
CONTINUOUS
10
119.2456381036
20
111.9770898236
40
11.2000000000
100
AcDbArc
50
200.0000000000
51
329.9700000000
0
ARC
5
291
100
AcDbEntity
8
0
100
AcDbCircle
62
7
6
CONTINUOUS
10
176.5118233106
20
151.1252301950
40
37.6800000000
100
AcDbArc
50
187.0356867147
51
194.4701783445
0
CIRCLE
5
292
100
AcDbEntity
8
0
100
AcDbCircle
62
7
6
CONTINUOUS
10
126.8565879552
20
130.8299168078
40
5.0000000000
0
ARC
5
293
100
AcDbEntity
8
0
100
AcDbCircle
62
7
6
CONTINUOUS
10
120.0456381036
20
133.3429376498
40
21.2000000000
100
AcDbArc
50
329.9700000000
51
17.4802217829
0
ARC
5
294
100
AcDbEntity
8
0
100
AcDbCircle
62
7
6
CONTINUOUS
10
176.5118233106
20
151.1252301950
40
38.0000000000
100
AcDbArc
50
164.1605622604
51
197.4802217829
0
ARC
5
295
100
AcDbEntity
8
0
100
AcDbCircle
62
7
6
CONTINUOUS
10
94.4456381036
20
203.9770898236
40
4.0000000000
100
AcDbArc
50
78.5550866460
51
237.5000000000
0
ARC
5
296
100
AcDbEntity
8
0
100
AcDbCircle
62
7
6
CONTINUOUS
10
295.3771299929
20
171.8525996200
40
16.0000000000
100
AcDbArc
50
39.6953827117
51
73.2916562843
0
ARC
5
297
100
AcDbEntity
8
0
100
AcDbCircle
62
7
6
CONTINUOUS
10
295.3771299929
20
87.8525996200
40
16.0000000000
100
AcDbArc
50
106.7083437157
51
126.1203429718
0
ARC
5
298
100
AcDbEntity
8
0
100
AcDbCircle
62
7
6
CONTINUOUS
10
305.1771299929
20
166.9770898236
40
4.4000000000
100
AcDbArc
50
0.0000000000
51
90.0000000000
0
ARC
5
299
100
AcDbEntity
8
0
100
AcDbCircle
62
7
6
CONTINUOUS
10
305.1771299929
20
166.5770898236
40
4.4000000000
100
AcDbArc
50
270.0000000000
51
360.0000000000
0
ARC
5
29A
100
AcDbEntity
8
0
100
AcDbCircle
62
7
6
CONTINUOUS
10
295.5771299929
20
156.7770898236
40
4.4000000000
100
AcDbArc
50
270.0000000000
51
360.0000000000
0
ARC
5
29B
100
AcDbEntity
8
0
100
AcDbCircle
62
7
6
CONTINUOUS
10
302.3771299929
20
173.7770898236
40
2.4000000000
100
AcDbArc
50
180.0000000000
51
270.0000000000
0
ARC
5
29C
100
AcDbEntity
8
0
100
AcDbCircle
62
7
6
CONTINUOUS
10
302.3771299929
20
159.7770898236
40
2.4000000000
100
AcDbArc
50
90.0000000000
51
180.0000000000
0
ARC
5
29D
100
AcDbEntity
8
0
100
AcDbCircle
62
7
6
CONTINUOUS
10
295.3771299929
20
87.8525996200
40
16.0000000000
100
AcDbArc
50
53.8796570282
51
73.2916562843
0
ARC
5
29E
100
AcDbEntity
8
0
100
AcDbCircle
62
7
6
CONTINUOUS
10
335.9771299929
20
145.6049741975
40
19.6000000000
100
AcDbArc
50
172.0000000000
51
193.2437498085
0
ARC
5
29F
100
AcDbEntity
8
0
100
AcDbCircle
62
7
6
CONTINUOUS
10
262.7771299929
20
128.3770898236
40
55.6000000000
100
AcDbArc
50
332.2477798524
51
13.2437498085
0
ARC
5
2A0
100
AcDbEntity
8
0
100
AcDbCircle
62
7
6
CONTINUOUS
10
302.9771299929
20
166.5943299809
40
16.0000000000
100
AcDbArc
50
352.0000000000
51
360.0000000000
0
ARC
5
2A1
100
AcDbEntity
8
0
100
AcDbCircle
62
7
6
CONTINUOUS
10
295.3771299929
20
171.8525996200
40
16.0000000000
100
AcDbArc
50
106.7083437157
51
140.3046172883
0
ARC
5
2A2
100
AcDbEntity
8
0
100
AcDbCircle
62
7
6
CONTINUOUS
10
327.9771299929
20
128.3770898236
40
55.6000000000
100
AcDbArc
50
166.7562501915
51
207.7522201475
0
ARC
5
2A3
100
AcDbEntity
8
0
100
AcDbCircle
62
7
6
CONTINUOUS
10
254.7771299929
20
145.6049741975
40
19.6000000000
100
AcDbArc
50
346.7562501915
51
8.0000000000
0
ARC
5
2A4
100
AcDbEntity
8
0
100
AcDbCircle
62
7
6
CONTINUOUS
10
285.5771299929
20
166.9770898236
40
4.4000000000
100
AcDbArc
50
90.0000000000
51
180.0000000000
0
ARC
5
2A5
100
AcDbEntity
8
0
100
AcDbCircle
62
7
6
CONTINUOUS
10
285.5771299929
20
166.5770898236
40
4.4000000000
100
AcDbArc
50
180.0000000000
51
270.0000000000
0
ARC
5
2A6
100
AcDbEntity
8
0
100
AcDbCircle
62
7
6
CONTINUOUS
10
295.1771299929
20
156.7770898236
40
4.4000000000
100
AcDbArc
50
180.0000000000
51
270.0000000000
0
ARC
5
2A7
100
AcDbEntity
8
0
100
AcDbCircle
62
7
6
CONTINUOUS
10
288.3771299929
20
173.7770898236
40
2.4000000000
100
AcDbArc
50
270.0000000000
51
360.0000000000
0
ARC
5
2A8
100
AcDbEntity
8
0
100
AcDbCircle
62
7
6
CONTINUOUS
10
288.3771299929
20
159.7770898236
40
2.4000000000
100
AcDbArc
50
0.0000000000
51
90.0000000000
0
ARC
5
2A9
100
AcDbEntity
8
0
100
AcDbCircle
62
7
6
CONTINUOUS
10
287.7771299929
20
166.5943299809
40
16.0000000000
100
AcDbArc
50
180.0000000000
51
188.0000000000
0
SPLINE
5
2AA
100
AcDbEntity
8
DEFAULT_2
100
AcDbSpline
62
8
6
HIDDEN
70
0
71
3
72
9
73
5
74
3
42
0.0000001000
43
0.0000001000
44
0.0000000001
40
0.0000000000
40
0.0000000000
40
0.0000000000
40
0.0000000000
40
0.5077812099
40
1.0000000000
40
1.0000000000
40
1.0000000000
40
1.0000000000
10
140.1422976542
20
162.1858273781
30
0.0000000000
10
140.1051871912
20
162.1829387941
30
0.0000000000
10
140.0319918896
20
162.1785915093
30
0.0000000000
10
139.9586808200
20
162.1770898236
30
0.0000000000
10
139.9225989041
20
162.1770898236
30
0.0000000000
11
140.1422976542
21
162.1858273781
31
0.0000000000
11
140.0308229438
21
162.1792575693
31
0.0000000000
11
139.9225989041
21
162.1770898236
31
0.0000000000
0
SPLINE
5
2AB
100
AcDbEntity
8
DEFAULT_2
100
AcDbSpline
62
8
6
HIDDEN
70
0
71
3
72
25
73
21
74
19
42
0.0000001000
43
0.0000001000
44
0.0000000001
40
0.0000000000
40
0.0000000000
40
0.0000000000
40
0.0000000000
40
0.0632498841
40
0.1231076187
40
0.1805065327
40
0.2360844694
40
0.2903068086
40
0.3435339546
40
0.3960604100
40
0.4481393773
40
0.5000000946
40
0.5518598241
40
0.6039377768
40
0.6564632617
40
0.7096905701
40
0.7639164159
40
0.8194969605
40
0.8768955227
40
0.9367516478
40
1.0000000000
40
1.0000000000
40
1.0000000000
40
1.0000000000
10
124.0373421098
20
117.5243394269
30
0.0000000000
10
124.1696678178
20
117.1607775320
30
0.0000000000
10
124.3709822611
20
116.4308350008
30
0.0000000000
10
124.4812364240
20
115.3270539433
30
0.0000000000
10
124.4045021197
20
114.2672868084
30
0.0000000000
10
124.1539834774
20
113.2703431464
30
0.0000000000
10
123.7437778609
20
112.3557333161
30
0.0000000000
10
123.1897748567
20
111.5428909760
30
0.0000000000
10
122.5101332295
20
110.8500340735
30
0.0000000000
10
121.7253018336
20
110.2934213492
30
0.0000000000
10
120.8578096319
20
109.8867409953
30
0.0000000000
10
119.9318694653
20
109.6406636779
30
0.0000000000
10
118.9728887326
20
109.5625710545
30
0.0000000000
10
118.0069038198
20
109.6564563709
30
0.0000000000
10
117.0600095233
20
109.9230194072
30
0.0000000000
10
116.1578373220
20
110.3599907550
30
0.0000000000
10
115.3250809984
20
110.9626905096
30
0.0000000000
10
114.5850988806
20
111.7252055443
30
0.0000000000
10
113.9600800056
20
112.6416070281
30
0.0000000000
10
113.6451072601
20
113.3301607323
30
0.0000000000
10
113.5127847570
20
113.6937138216
30
0.0000000000
11
124.0373421098
21
117.5243394269
31
0.0000000000
11
124.3432378899
21
116.4046904323
31
0.0000000000
11
124.4505079463
21
115.3115058871
31
0.0000000000
11
124.3729466810
21
114.2610516874
31
0.0000000000
11
124.1233181135
21
113.2721754210
31
0.0000000000
11
123.7153654312
21
112.3646283443
31
0.0000000000
11
123.1647630291
21
111.5578481052
31
0.0000000000
11
122.4894825465
21
110.8700252818
31
0.0000000000
11
121.7098024801
21
110.3173592177
31
0.0000000000
11
120.8480752930
21
109.9134682509
31
0.0000000000
11
119.9283556339
21
109.6689628144
31
0.0000000000
11
118.9758580570
21
109.5911581484
31
0.0000000000
11
118.0164562125
21
109.6839898852
31
0.0000000000
11
117.0760767135
21
109.9480913422
31
0.0000000000
11
116.1801476434
21
110.3811112583
31
0.0000000000
11
115.3532489506
21
110.9782099661
31
0.0000000000
11
114.6186266808
21
111.7330518664
31
0.0000000000
11
113.9981375713
21
112.6394114515
31
0.0000000000
11
113.5127847570
21
113.6937138216
31
0.0000000000
0
SPLINE
5
2AC
100
AcDbEntity
8
DEFAULT_2
100
AcDbSpline
62
8
6
HIDDEN
70
0
71
3
72
8
73
4
74
2
42
0.0000001000
43
0.0000001000
44
0.0000000001
40
0.0000000000
40
0.0000000000
40
0.0000000000
40
0.0000000000
40
1.0000000000
40
1.0000000000
40
1.0000000000
40
1.0000000000
10
140.1422976542
20
162.1858273781
30
0.0000000000
10
140.1051871912
20
162.1829387941
30
0.0000000000
10
140.0680199924
20
162.1807313245
30
0.0000000000
10
140.0308229438
20
162.1792575693
30
0.0000000000
11
140.1422976542
21
162.1858273781
31
0.0000000000
11
140.0308229438
21
162.1792575693
31
0.0000000000
0
SPLINE
5
2AD
100
AcDbEntity
8
DEFAULT_2
100
AcDbSpline
62
8
6
HIDDEN
70
0
71
3
72
8
73
4
74
2
42
0.0000001000
43
0.0000001000
44
0.0000000001
40
0.0000000000
40
0.0000000000
40
0.0000000000
40
0.0000000000
40
1.0000000000
40
1.0000000000
40
1.0000000000
40
1.0000000000
10
140.0308229438
20
162.1792575693
30
0.0000000000
10
139.9947659060
20
162.1778289815
30
0.0000000000
10
139.9586808200
20
162.1770898236
30
0.0000000000
10
139.9225989041
20
162.1770898236
30
0.0000000000
11
140.0308229438
21
162.1792575693
31
0.0000000000
11
139.9225989041
21
162.1770898236
31
0.0000000000
0
SPLINE
5
2AE
100
AcDbEntity
8
DEFAULT_2
100
AcDbSpline
62
8
6
HIDDEN
70
0
71
3
72
18
73
14
74
12
42
0.0000001000
43
0.0000001000
44
0.0000000001
40
0.0000000000
40
0.0000000000
40
0.0000000000
40
0.0000000000
40
0.0101278048
40
0.0402931233
40
0.0900403019
40
0.1581919204
40
0.2436231595
40
0.3443035347
40
0.4585934424
40
0.5835594341
40
0.7171817389
40
0.8567059894
40
1.0000000000
40
1.0000000000
40
1.0000000000
40
1.0000000000
10
129.8752362421
20
152.3770898236
30
0.0000000000
10
129.8601217906
20
152.3770898236
30
0.0000000000
10
129.8891442978
20
152.4736826668
30
0.0000000000
10
129.8731584889
20
152.5727522039
30
0.0000000000
10
129.9101287651
20
152.8122240548
30
0.0000000000
10
129.9395882558
20
153.1051235696
30
0.0000000000
10
129.9928651789
20
153.4843389642
30
0.0000000000
10
130.0595430558
20
153.9264695600
30
0.0000000000
10
130.1449862460
20
154.4269613145
30
0.0000000000
10
130.2484951674
20
154.9736322679
30
0.0000000000
10
130.3703918299
20
155.5552024753
30
0.0000000000
10
130.5099019147
20
156.1608550514
30
0.0000000000
10
130.6128346745
20
156.5702178022
30
0.0000000000
10
130.6670095391
20
156.7770898236
30
0.0000000000
11
129.8752362421
21
152.3770898236
31
0.0000000000
11
129.8724260362
21
152.4223460114
31
0.0000000000
11
129.8814998584
21
152.5570944692
31
0.0000000000
11
129.9033333899
21
152.7787455976
31
0.0000000000
11
129.9390398202
21
153.0817718410
31
0.0000000000
11
129.9901573312
21
153.4608261832
31
0.0000000000
11
130.0579079927
21
153.9064631966
31
0.0000000000
11
130.1437355892
21
154.4109028934
31
0.0000000000
11
130.2478189317
21
154.9606233660
31
0.0000000000
11
130.3704685978
21
155.5461583193
31
0.0000000000
11
130.5106315600
21
156.1548965495
31
0.0000000000
11
130.6670095391
21
156.7770898236
31
0.0000000000
0
SPLINE
5
2AF
100
AcDbEntity
8
DEFAULT_2
100
AcDbSpline
62
8
6
HIDDEN
70
0
71
3
72
15
73
11
74
9
42
0.0000001000
43
0.0000001000
44
0.0000000001
40
0.0000000000
40
0.0000000000
40
0.0000000000
40
0.0000000000
40
0.1717610870
40
0.3346882368
40
0.4853977248
40
0.6207787567
40
0.7381321760
40
0.8366110765
40
0.9203043292
40
1.0000000000
40
1.0000000000
40
1.0000000000
40
1.0000000000
10
131.2908738085
20
159.7770898236
30
0.0000000000
10
131.3149062163
20
159.9319694691
30
0.0000000000
10
131.3508350483
20
160.2355903902
30
0.0000000000
10
131.3689007382
20
160.6786238342
30
0.0000000000
10
131.3490392873
20
161.0885347593
30
0.0000000000
10
131.2895895227
20
161.4529291440
30
0.0000000000
10
131.1886017597
20
161.7589621882
30
0.0000000000
10
131.0435482914
20
161.9951164986
30
0.0000000000
10
130.8497697172
20
162.1463601522
30
0.0000000000
10
130.6979782803
20
162.1770898236
30
0.0000000000
10
130.6252554716
20
162.1770898236
30
0.0000000000
11
131.2908738085
21
159.7770898236
31
0.0000000000
11
131.3456014404
21
160.2440932894
31
0.0000000000
11
131.3624616555
21
160.6897906972
31
0.0000000000
11
131.3401741352
21
161.1017583697
31
0.0000000000
11
131.2767670660
21
161.4669021205
31
0.0000000000
11
131.1706211474
21
161.7701169856
31
0.0000000000
11
131.0227750555
21
161.9955480321
31
0.0000000000
11
130.8387076299
21
162.1319717757
31
0.0000000000
11
130.6252554716
21
162.1770898236
31
0.0000000000
0
SPLINE
5
2B0
100
AcDbEntity
8
DEFAULT_2
100
AcDbSpline
62
8
6
HIDDEN
70
0
71
3
72
17
73
13
74
11
42
0.0000001000
43
0.0000001000
44
0.0000000001
40
0.0000000000
40
0.0000000000
40
0.0000000000
40
0.0000000000
40
0.1902019125
40
0.3733359899
40
0.5324984153
40
0.6617301881
40
0.7655508616
40
0.8482659249
40
0.9134416335
40
0.9614129989
40
0.9904721941
40
1.0000000000
40
1.0000000000
40
1.0000000000
40
1.0000000000
10
121.5417022477
20
141.9238799959
30
0.0000000000
10
121.7608753117
20
142.1180919598
30
0.0000000000
10
122.1953878260
20
142.4944463296
30
0.0000000000
10
122.8276415387
20
143.0165953600
30
0.0000000000
10
123.3977974718
20
143.4657735505
30
0.0000000000
10
123.8800028165
20
143.8302457961
30
0.0000000000
10
124.2723541684
20
144.1148537444
30
0.0000000000
10
124.5915441373
20
144.3415226665
30
0.0000000000
10
124.8352879085
20
144.5014017224
30
0.0000000000
10
125.0315004742
20
144.6441260960
30
0.0000000000
10
125.1214423892
20
144.6740351378
30
0.0000000000
10
125.1974974677
20
144.7444045397
30
0.0000000000
10
125.2025146482
20
144.7306199494
30
0.0000000000
11
121.5417022477
21
141.9238799959
31
0.0000000000
11
122.2058880965
21
142.4989045420
31
0.0000000000
11
122.8582429491
21
143.0373612345
31
0.0000000000
11
123.4357696349
21
143.4922358447
31
0.0000000000
11
123.9121823736
21
143.8518568689
31
0.0000000000
11
124.3000547455
21
144.1338298615
31
0.0000000000
11
124.6126930342
21
144.3534204886
31
0.0000000000
11
124.8617780017
21
144.5224793788
31
0.0000000000
11
125.0474172096
21
144.6434465248
31
0.0000000000
11
125.1621312093
21
144.7131310635
31
0.0000000000
11
125.2025146482
21
144.7306199494
31
0.0000000000
0
SPLINE
5
2B1
100
AcDbEntity
8
DEFAULT_2
100
AcDbSpline
62
8
6
HIDDEN
70
0
71
3
72
12
73
8
74
6
42
0.0000001000
43
0.0000001000
44
0.0000000001
40
0.0000000000
40
0.0000000000
40
0.0000000000
40
0.0000000000
40
0.1852953281
40
0.3812745198
40
0.5848620498
40
0.7924734386
40
1.0000000000
40
1.0000000000
40
1.0000000000
40
1.0000000000
10
133.9044252161
20
114.9564734833
30
0.0000000000
10
133.8041485826
20
114.8168006787
30
0.0000000000
10
133.5946463813
20
114.5316592338
30
0.0000000000
10
133.2630234801
20
114.1019832989
30
0.0000000000
10
132.9072359175
20
113.6650186105
30
0.0000000000
10
132.5322533780
20
113.2301527614
30
0.0000000000
10
132.2720001725
20
112.9460427881
30
0.0000000000
10
132.1397036873
20
112.8061103493
30
0.0000000000
11
133.9044252161
21
114.9564734833
31
0.0000000000
11
133.5989381677
21
114.5408381582
31
0.0000000000
11
133.2655151201
21
114.1090144487
31
0.0000000000
11
132.9075690132
21
113.6696102004
31
0.0000000000
11
132.5300370352
21
113.2320104600
31
0.0000000000
11
132.1397036873
21
112.8061103493
31
0.0000000000
0
SPLINE
5
2B2
100
AcDbEntity
8
DEFAULT_2
100
AcDbSpline
62
8
6
HIDDEN
70
0
71
3
72
9
73
5
74
3
42
0.0000001000
43
0.0000001000
44
0.0000000001
40
0.0000000000
40
0.0000000000
40
0.0000000000
40
0.0000000000
40
0.5024489875
40
1.0000000000
40
1.0000000000
40
1.0000000000
40
1.0000000000
10
115.5647745655
20
140.7984284358
30
0.0000000000
10
115.5707275969
20
140.7834350546
30
0.0000000000
10
115.5823641917
20
140.7535100419
30
0.0000000000
10
115.5935673130
20
140.7234200161
30
0.0000000000
10
115.5990309822
20
140.7084087082
30
0.0000000000
11
115.5647745655
21
140.7984284358
31
0.0000000000
11
115.5823117549
21
140.7533218116
31
0.0000000000
11
115.5990309822
21
140.7084087082
31
0.0000000000
0
SPLINE
5
2B3
100
AcDbEntity
8
DEFAULT_2
100
AcDbSpline
62
8
6
HIDDEN
70
0
71
3
72
15
73
11
74
9
42
0.0000001000
43
0.0000001000
44
0.0000000001
40
0.0000000000
40
0.0000000000
40
0.0000000000
40
0.0000000000
40
0.0803687977
40
0.1658040623
40
0.2660187093
40
0.3841407839
40
0.5190168897
40
0.6682370827
40
0.8294939637
40
1.0000000000
40
1.0000000000
40
1.0000000000
40
1.0000000000
10
130.7009695635
20
171.3770898236
30
0.0000000000
10
130.7748201628
20
171.3770898236
30
0.0000000000
10
130.9296254871
20
171.4091644256
30
0.0000000000
10
131.1290580273
20
171.5612840075
30
0.0000000000
10
131.2841076883
20
171.7976358725
30
0.0000000000
10
131.3978968660
20
172.1034690482
30
0.0000000000
10
131.4720166164
20
172.4666376322
30
0.0000000000
10
131.5077027546
20
172.8750026574
30
0.0000000000
10
131.5057089431
20
173.3174786319
30
0.0000000000
10
131.4797731423
20
173.6216011832
30
0.0000000000
10
131.4605095672
20
173.7770898236
30
0.0000000000
11
130.7009695635
21
171.3770898236
31
0.0000000000
11
130.9177282606
21
171.4229250323
31
0.0000000000
11
131.1085703007
21
171.5609404908
31
0.0000000000
11
131.2663079631
21
171.7877416574
31
0.0000000000
11
131.3848955549
21
172.0910058605
31
0.0000000000
11
131.4627044448
21
172.4545847004
31
0.0000000000
11
131.5006942373
21
172.8641804033
31
0.0000000000
11
131.4999447333
21
173.3087148763
31
0.0000000000
11
131.4605095672
21
173.7770898236
31
0.0000000000
0
SPLINE
5
2B4
100
AcDbEntity
8
DEFAULT_2
100
AcDbSpline
62
8
6
HIDDEN
70
0
71
3
72
9
73
5
74
3
42
0.0000001000
43
0.0000001000
44
0.0000000001
40
0.0000000000
40
0.0000000000
40
0.0000000000
40
0.0000000000
40
0.0553712895
40
1.0000000000
40
1.0000000000
40
1.0000000000
40
1.0000000000
10
312.8184284400
20
135.8296333910
30
0.0000000000
10
312.8186202858
20
135.8297161729
30
0.0000000000
10
312.8219431231
20
135.8302383515
30
0.0000000000
10
312.8223860063
20
135.8116601948
30
0.0000000000
10
312.8223860063
20
135.8025262846
30
0.0000000000
11
312.8184284400
21
135.8296333910
31
0.0000000000
11
312.8189794355
21
135.8297154390
31
0.0000000000
11
312.8223860063
21
135.8025262846
31
0.0000000000
0
SPLINE
5
2B5
100
AcDbEntity
8
DEFAULT_2
100
AcDbSpline
62
8
6
HIDDEN
70
0
71
3
72
9
73
5
74
3
42
0.0000001000
43
0.0000001000
44
0.0000000001
40
0.0000000000
40
0.0000000000
40
0.0000000000
40
0.0000000000
40
0.4999815953
40
1.0000000000
40
1.0000000000
40
1.0000000000
40
1.0000000000
10
305.4514672567
20
162.1770898236
30
0.0000000000
10
305.4519369630
20
162.1785459229
30
0.0000000000
10
305.4528760807
20
162.1814583349
30
0.0000000000
10
305.4538145397
20
162.1843709593
30
0.0000000000
10
305.4542836219
20
162.1858273781
30
0.0000000000
11
305.4514672567
21
162.1770898236
31
0.0000000000
11
305.4528758815
21
162.1814582808
31
0.0000000000
11
305.4542836219
21
162.1858273781
31
0.0000000000
0
SPLINE
5
2B6
100
AcDbEntity
8
DEFAULT_2
100
AcDbSpline
62
8
6
HIDDEN
70
0
71
3
72
16
73
12
74
10
42
0.0000001000
43
0.0000001000
44
0.0000000001
40
0.0000000000
40
0.0000000000
40
0.0000000000
40
0.0000000000
40
0.1096143046
40
0.2235862653
40
0.3367237465
40
0.4489907024
40
0.5603967826
40
0.6710309439
40
0.7810391892
40
0.8906189140
40
1.0000000000
40
1.0000000000
40
1.0000000000
40
1.0000000000
10
290.7771302275
20
109.5910097786
30
0.0000000000
10
290.1221040648
20
109.7909278516
30
0.0000000000
10
288.8111634998
20
110.2871425728
30
0.0000000000
10
286.9568177227
20
111.2938943980
30
0.0000000000
10
285.2467359254
20
112.5589619732
30
0.0000000000
10
283.7425555639
20
114.0402223148
30
0.0000000000
10
282.4726028005
20
115.7071206579
30
0.0000000000
10
281.4603948461
20
117.5258966908
30
0.0000000000
10
280.7241950352
20
119.4607983902
30
0.0000000000
10
280.2771176480
20
121.4737498011
30
0.0000000000
10
280.1771299929
20
122.8437038561
30
0.0000000000
10
280.1771299929
20
123.5270173878
30
0.0000000000
11
290.7771302275
21
109.5910097786
31
0.0000000000
11
288.8558563252
21
110.3188773977
31
0.0000000000
11
286.9789970774
21
111.3385868955
31
0.0000000000
11
285.2748851092
21
112.6002703050
31
0.0000000000
11
283.7763070195
21
114.0771544806
31
0.0000000000
11
282.5116145553
21
115.7384323443
31
0.0000000000
11
281.5039181484
21
117.5505135848
31
0.0000000000
11
280.7712077230
21
119.4776147906
31
0.0000000000
11
280.3263337834
21
121.4825138606
31
0.0000000000
11
280.1771299929
21
123.5270173878
31
0.0000000000
0
SPLINE
5
2B7
100
AcDbEntity
8
DEFAULT_2
100
AcDbSpline
62
8
6
HIDDEN
70
0
71
3
72
16
73
12
74
10
42
0.0000001000
43
0.0000001000
44
0.0000000001
40
0.0000000000
40
0.0000000000
40
0.0000000000
40
0.0000000000
40
0.1096143046
40
0.2235862653
40
0.3367237465
40
0.4489907024
40
0.5603967826
40
0.6710309439
40
0.7810391892
40
0.8906189140
40
1.0000000000
40
1.0000000000
40
1.0000000000
40
1.0000000000
10
299.9771297584
20
109.5910097786
30
0.0000000000
10
300.6321559210
20
109.7909278516
30
0.0000000000
10
301.9430964860
20
110.2871425728
30
0.0000000000
10
303.7974422631
20
111.2938943980
30
0.0000000000
10
305.5075240604
20
112.5589619732
30
0.0000000000
10
307.0117044219
20
114.0402223148
30
0.0000000000
10
308.2816571853
20
115.7071206579
30
0.0000000000
10
309.2938651397
20
117.5258966908
30
0.0000000000
10
310.0300649506
20
119.4607983902
30
0.0000000000
10
310.4771423378
20
121.4737498011
30
0.0000000000
10
310.5771299929
20
122.8437038561
30
0.0000000000
10
310.5771299929
20
123.5270173878
30
0.0000000000
11
299.9771297584
21
109.5910097786
31
0.0000000000
11
301.8984036606
21
110.3188773977
31
0.0000000000
11
303.7752629085
21
111.3385868955
31
0.0000000000
11
305.4793748766
21
112.6002703050
31
0.0000000000
11
306.9779529663
21
114.0771544806
31
0.0000000000
11
308.2426454305
21
115.7384323443
31
0.0000000000
11
309.2503418374
21
117.5505135848
31
0.0000000000
11
309.9830522628
21
119.4776147906
31
0.0000000000
11
310.4279262024
21
121.4825138606
31
0.0000000000
11
310.5771299929
21
123.5270173878
31
0.0000000000
0
SPLINE
5
2B8
100
AcDbEntity
8
DEFAULT_2
100
AcDbSpline
62
8
6
HIDDEN
70
0
71
3
72
11
73
7
74
5
42
0.0000001000
43
0.0000001000
44
0.0000000001
40
0.0000000000
40
0.0000000000
40
0.0000000000
40
0.0000000000
40
0.4391344951
40
0.7572579795
40
0.9455561106
40
1.0000000000
40
1.0000000000
40
1.0000000000
40
1.0000000000
10
312.7771299929
20
135.4540544935
30
0.0000000000
10
312.7771299929
20
135.5094437926
30
0.0000000000
10
312.7785079296
20
135.6020231595
30
0.0000000000
10
312.7955972050
20
135.7298979784
30
0.0000000000
10
312.7992345803
20
135.7843262292
30
0.0000000000
10
312.8159677922
20
135.8285716164
30
0.0000000000
10
312.8184284400
20
135.8296333910
30
0.0000000000
11
312.7771299929
21
135.4540544935
31
0.0000000000
11
312.7828671809
21
135.6201233189
31
0.0000000000
11
312.7956278499
21
135.7398225530
31
0.0000000000
11
312.8092242736
21
135.8097650307
31
0.0000000000
11
312.8184284400
21
135.8296333910
31
0.0000000000
0
SPLINE
5
2B9
100
AcDbEntity
8
DEFAULT_2
100
AcDbSpline
62
8
6
HIDDEN
70
0
71
3
72
9
73
5
74
3
42
0.0000001000
43
0.0000001000
44
0.0000000001
40
0.0000000000
40
0.0000000000
40
0.0000000000
40
0.0000000000
40
0.4999815953
40
1.0000000000
40
1.0000000000
40
1.0000000000
40
1.0000000000
10
285.3027927291
20
162.1770898236
30
0.0000000000
10
285.3023230228
20
162.1785459229
30
0.0000000000
10
285.3013839051
20
162.1814583349
30
0.0000000000
10
285.3004454461
20
162.1843709593
30
0.0000000000
10
285.2999763639
20
162.1858273781
30
0.0000000000
11
285.3027927291
21
162.1770898236
31
0.0000000000
11
285.3013841043
21
162.1814582808
31
0.0000000000
11
285.2999763639
21
162.1858273781
31
0.0000000000
0
SPLINE
5
2BA
100
AcDbEntity
8
0
100
AcDbSpline
62
7
6
CONTINUOUS
70
0
71
3
72
8
73
4
74
2
42
0.0000001000
43
0.0000001000
44
0.0000000001
40
0.0000000000
40
0.0000000000
40
0.0000000000
40
0.0000000000
40
1.0000000000
40
1.0000000000
40
1.0000000000
40
1.0000000000
10
288.9841215792
20
207.9770728254
30
0.0000000000
10
288.7598806645
20
207.9770828209
30
0.0000000000
10
288.5356906425
20
207.9688178283
30
0.0000000000
10
288.3124109036
20
207.9507539174
30
0.0000000000
11
288.9841215792
21
207.9770728254
31
0.0000000000
11
288.3124109036
21
207.9507539174
31
0.0000000000
0
SPLINE
5
2BB
100
AcDbEntity
8
0
100
AcDbSpline
62
7
6
CONTINUOUS
70
0
71
3
72
17
73
13
74
11
42
0.0000001000
43
0.0000001000
44
0.0000000001
40
0.0000000000
40
0.0000000000
40
0.0000000000
40
0.0000000000
40
0.1437269707
40
0.2835024509
40
0.4155976098
40
0.5369709587
40
0.6459124884
40
0.7427004174
40
0.8300728862
40
0.9132002828
40
0.9987278379
40
1.0000000000
40
1.0000000000
40
1.0000000000
40
1.0000000000
10
304.9771299929
20
133.6298059475
30
0.0000000000
10
305.3051712546
20
133.6298059475
30
0.0000000000
10
305.9524265399
20
133.6495000547
30
0.0000000000
10
306.8974239945
20
133.7395804445
30
0.0000000000
10
307.7828825229
20
133.8928577098
30
0.0000000000
10
308.5819556970
20
134.1130989669
30
0.0000000000
10
309.2723725218
20
134.4045248688
30
0.0000000000
10
309.8369067959
20
134.7721307623
30
0.0000000000
10
310.2599171168
20
135.2219663946
30
0.0000000000
10
310.5218499774
20
135.7550247193
30
0.0000000000
10
310.5765965217
20
136.1450626420
30
0.0000000000
10
310.5771337854
20
136.3438004485
30
0.0000000000
10
310.5771357921
20
136.3467130872
30
0.0000000000
11
304.9771299929
21
133.6298059475
31
0.0000000000
11
305.9607748041
21
133.6605062683
31
0.0000000000
11
306.9132959275
21
133.7536792559
31
0.0000000000
11
307.8038034722
21
133.9120398702
31
0.0000000000
11
308.6033422106
21
134.1387692244
31
0.0000000000
11
309.2873738307
21
134.4363089077
31
0.0000000000
11
309.8375701434
21
134.8057504146
31
0.0000000000
11
310.2415827190
21
135.2469787370
31
0.0000000000
11
310.4906774937
21
135.7587664119
31
0.0000000000
11
310.5771121452
21
136.3379748231
31
0.0000000000
11
310.5771357921
21
136.3467130872
31
0.0000000000
0
SPLINE
5
2BC
100
AcDbEntity
8
0
100
AcDbSpline
62
7
6
CONTINUOUS
70
0
71
3
72
13
73
9
74
7
42
0.0000001000
43
0.0000001000
44
0.0000000001
40
0.0000000000
40
0.0000000000
40
0.0000000000
40
0.0000000000
40
0.2097522374
40
0.4109599426
40
0.6018942166
40
0.7574410860
40
0.8860555631
40
1.0000000000
40
1.0000000000
40
1.0000000000
40
1.0000000000
10
288.3123345170
20
207.9507511953
30
0.0000000000
10
287.7423417842
20
207.9046147742
30
0.0000000000
10
286.6270499036
20
207.7939783218
30
0.0000000000
10
285.0022007790
20
207.5600806265
30
0.0000000000
10
283.5377066319
20
207.2629863511
30
0.0000000000
10
282.2904208353
20
206.9072620197
30
0.0000000000
10
281.2804679451
20
206.5038049964
30
0.0000000000
10
280.7026359145
20
206.1757903673
30
0.0000000000
10
280.4471827748
20
205.9990186714
30
0.0000000000
11
288.3123345170
21
207.9507511953
31
0.0000000000
11
286.6053932156
21
207.7788967297
31
0.0000000000
11
284.9771106406
21
207.5402051355
31
0.0000000000
11
283.4481976892
21
207.2220849098
31
0.0000000000
11
282.2272444891
21
206.8645588642
31
0.0000000000
11
281.2537990016
21
206.4658281768
31
0.0000000000
11
280.4471827748
21
205.9990186714
31
0.0000000000
0
SPLINE
5
2BD
100
AcDbEntity
8
0
100
AcDbSpline
62
7
6
CONTINUOUS
70
0
71
3
72
10
73
6
74
4
42
0.0000001000
43
0.0000001000
44
0.0000000001
40
0.0000000000
40
0.0000000000
40
0.0000000000
40
0.0000000000
40
0.2737758558
40
0.6213396004
40
1.0000000000
40
1.0000000000
40
1.0000000000
40
1.0000000000
10
276.9742094756
20
203.5957442406
30
0.0000000000
10
276.5132808135
20
203.2766998296
30
0.0000000000
10
275.5436874419
20
202.4388926196
30
0.0000000000
10
274.2534735716
20
200.8384571675
30
0.0000000000
10
273.4858453344
20
199.5605171818
30
0.0000000000
10
273.1188849181
20
198.8775397542
30
0.0000000000
11
276.9742094756
21
203.5957442406
31
0.0000000000
11
275.6914362897
21
202.5079825334
31
0.0000000000
11
274.3323857073
21
200.8617324275
31
0.0000000000
11
273.1188849181
21
198.8775397542
31
0.0000000000
0
SPLINE
5
2BE
100
AcDbEntity
8
0
100
AcDbSpline
62
7
6
CONTINUOUS
70
0
71
3
72
11
73
7
74
5
42
0.0000001000
43
0.0000001000
44
0.0000000001
40
0.0000000000
40
0.0000000000
40
0.0000000000
40
0.0000000000
40
0.2099722770
40
0.4542004512
40
0.7206761808
40
1.0000000000
40
1.0000000000
40
1.0000000000
40
1.0000000000
10
273.1187816863
20
198.8773320184
30
0.0000000000
10
272.9087702443
20
198.4863859882
30
0.0000000000
10
272.5132240946
20
197.6079153948
30
0.0000000000
10
272.0833282330
20
196.1421192402
30
0.0000000000
10
271.8266636042
20
194.4882647287
30
0.0000000000
10
271.7771284151
20
193.3337477158
30
0.0000000000
10
271.7771302329
20
192.7434289079
30
0.0000000000
11
273.1187816863
21
198.8773320184
31
0.0000000000
11
272.5696864232
21
197.6644810334
31
0.0000000000
11
272.1283249717
21
196.1804202055
31
0.0000000000
11
271.8612974963
21
194.5123166377
31
0.0000000000
11
271.7771302329
21
192.7434289079
31
0.0000000000
0
SPLINE
5
2BF
100
AcDbEntity
8
0
100
AcDbSpline
62
7
6
CONTINUOUS
70
0
71
3
72
13
73
9
74
7
42
0.0000001000
43
0.0000001000
44
0.0000000001
40
0.0000000000
40
0.0000000000
40
0.0000000000
40
0.0000000000
40
0.1705986015
40
0.3411991157
40
0.5118008242
40
0.6824034346
40
0.8530065580
40
1.0000000000
40
1.0000000000
40
1.0000000000
40
1.0000000000
10
278.7738122857
20
102.4851318164
30
0.0000000000
10
278.8657988449
20
102.3105923337
30
0.0000000000
10
279.0826958175
20
101.9777620837
30
0.0000000000
10
279.4939650052
20
101.5476050204
30
0.0000000000
10
279.9775491326
20
101.2003798373
30
0.0000000000
10
280.5167845957
20
100.9482046727
30
0.0000000000
10
281.0666453800
20
100.8064924049
30
0.0000000000
10
281.4344922916
20
100.7771086375
30
0.0000000000
10
281.6047222055
20
100.7770968126
30
0.0000000000
11
278.7738122857
21
102.4851318164
31
0.0000000000
11
279.0970147746
21
101.9892788402
31
0.0000000000
11
279.5060158789
21
101.5614284285
31
0.0000000000
11
279.9868230256
21
101.2162223004
31
0.0000000000
11
280.5229866191
21
100.9654732451
31
0.0000000000
11
281.0961619779
21
100.8177620307
31
0.0000000000
11
281.6047222055
21
100.7770968126
31
0.0000000000
0
SPLINE
5
2C0
100
AcDbEntity
8
0
100
AcDbSpline
62
7
6
CONTINUOUS
70
0
71
3
72
16
73
12
74
10
42
0.0000001000
43
0.0000001000
44
0.0000000001
40
0.0000000000
40
0.0000000000
40
0.0000000000
40
0.0000000000
40
0.1213846200
40
0.2450144468
40
0.3667308538
40
0.4843646770
40
0.5986569789
40
0.7069634136
40
0.8086747689
40
0.9060101513
40
1.0000000000
40
1.0000000000
40
1.0000000000
40
1.0000000000
10
295.5771299929
20
192.8636310258
30
0.0000000000
10
295.8085406181
20
192.8636310258
30
0.0000000000
10
296.2759850112
20
192.8402023881
30
0.0000000000
10
296.9681810755
20
192.7331315541
30
0.0000000000
10
297.6376493266
20
192.5519326272
30
0.0000000000
10
298.2639638927
20
192.2974543058
30
0.0000000000
10
298.8274422023
20
191.9712441296
30
0.0000000000
10
299.3070970088
20
191.5758725909
30
0.0000000000
10
299.6797017956
20
191.1175592537
30
0.0000000000
10
299.9206176394
20
190.6065328899
30
0.0000000000
10
299.9771299929
20
190.2397064376
30
0.0000000000
10
299.9771299929
20
190.0605218783
30
0.0000000000
11
295.5771299929
21
192.8636310258
31
0.0000000000
11
296.2704779762
21
192.8286100180
31
0.0000000000
11
296.9691069532
21
192.7196626206
31
0.0000000000
11
297.6406403844
21
192.5362530495
31
0.0000000000
11
298.2630274841
21
192.2807784290
31
0.0000000000
11
298.8269597265
21
191.9502280644
31
0.0000000000
11
299.3019550027
21
191.5526376248
31
0.0000000000
11
299.6647284146
21
191.0978982540
31
0.0000000000
11
299.8972835292
21
190.5921124151
31
0.0000000000
11
299.9771299929
21
190.0605218783
31
0.0000000000
0
SPLINE
5
2C1
100
AcDbEntity
8
0
100
AcDbSpline
62
7
6
CONTINUOUS
70
0
71
3
72
8
73
4
74
2
42
0.0000001000
43
0.0000001000
44
0.0000000001
40
0.0000000000
40
0.0000000000
40
0.0000000000
40
0.0000000000
40
1.0000000000
40
1.0000000000
40
1.0000000000
40
1.0000000000
10
302.4418490822
20
207.9507539174
30
0.0000000000
10
302.2185693433
20
207.9688178283
30
0.0000000000
10
301.9943793213
20
207.9770828209
30
0.0000000000
10
301.7701384067
20
207.9770728254
30
0.0000000000
11
302.4418490822
21
207.9507539174
31
0.0000000000
11
301.7701384067
21
207.9770728254
31
0.0000000000
0
SPLINE
5
2C2
100
AcDbEntity
8
0
100
AcDbSpline
62
7
6
CONTINUOUS
70
0
71
3
72
13
73
9
74
7
42
0.0000001000
43
0.0000001000
44
0.0000000001
40
0.0000000000
40
0.0000000000
40
0.0000000000
40
0.0000000000
40
0.2097522374
40
0.4109599426
40
0.6018942166
40
0.7574410860
40
0.8860555631
40
1.0000000000
40
1.0000000000
40
1.0000000000
40
1.0000000000
10
302.4419254688
20
207.9507511953
30
0.0000000000
10
303.0119182016
20
207.9046147742
30
0.0000000000
10
304.1272100822
20
207.7939783218
30
0.0000000000
10
305.7520592068
20
207.5600806265
30
0.0000000000
10
307.2165533539
20
207.2629863511
30
0.0000000000
10
308.4638391506
20
206.9072620197
30
0.0000000000
10
309.4737920407
20
206.5038049964
30
0.0000000000
10
310.0516240713
20
206.1757903673
30
0.0000000000
10
310.3070772110
20
205.9990186714
30
0.0000000000
11
302.4419254688
21
207.9507511953
31
0.0000000000
11
304.1488667702
21
207.7788967297
31
0.0000000000
11
305.7771493452
21
207.5402051355
31
0.0000000000
11
307.3060622966
21
207.2220849098
31
0.0000000000
11
308.5270154967
21
206.8645588642
31
0.0000000000
11
309.5004609842
21
206.4658281768
31
0.0000000000
11
310.3070772110
21
205.9990186714
31
0.0000000000
0
SPLINE
5
2C3
100
AcDbEntity
8
0
100
AcDbSpline
62
7
6
CONTINUOUS
70
0
71
3
72
10
73
6
74
4
42
0.0000001000
43
0.0000001000
44
0.0000000001
40
0.0000000000
40
0.0000000000
40
0.0000000000
40
0.0000000000
40
0.3787097534
40
0.7265457881
40
1.0000000000
40
1.0000000000
40
1.0000000000
40
1.0000000000
10
317.6353763251
20
198.8775374174
30
0.0000000000
10
317.2683690364
20
199.5606023318
30
0.0000000000
10
316.5003971780
20
200.8390987721
30
0.0000000000
10
315.2100520275
20
202.4394581651
30
0.0000000000
10
314.2404498703
20
203.2770647161
30
0.0000000000
10
313.7800644211
20
203.5957346113
30
0.0000000000
11
317.6353763251
21
198.8775374174
31
0.0000000000
11
316.4217039937
21
200.8619746303
31
0.0000000000
11
315.0614392387
21
202.5093850411
31
0.0000000000
11
313.7800644211
21
203.5957346113
31
0.0000000000
0
SPLINE
5
2C4
100
AcDbEntity
8
0
100
AcDbSpline
62
7
6
CONTINUOUS
70
0
71
3
72
11
73
7
74
5
42
0.0000001000
43
0.0000001000
44
0.0000000001
40
0.0000000000
40
0.0000000000
40
0.0000000000
40
0.0000000000
40
0.2793238192
40
0.5457995488
40
0.7900277230
40
1.0000000000
40
1.0000000000
40
1.0000000000
40
1.0000000000
10
318.9771297529
20
192.7434289079
30
0.0000000000
10
318.9771315708
20
193.3337477158
30
0.0000000000
10
318.9275963816
20
194.4882647287
30
0.0000000000
10
318.6709317529
20
196.1421192402
30
0.0000000000
10
318.2410358912
20
197.6079153948
30
0.0000000000
10
317.8454897415
20
198.4863859882
30
0.0000000000
10
317.6354782995
20
198.8773320184
30
0.0000000000
11
318.9771297529
21
192.7434289079
31
0.0000000000
11
318.8929624895
21
194.5123166377
31
0.0000000000
11
318.6259350141
21
196.1804202055
31
0.0000000000
11
318.1845735627
21
197.6644810334
31
0.0000000000
11
317.6354782995
21
198.8773320184
31
0.0000000000
0
SPLINE
5
2C5
100
AcDbEntity
8
0
100
AcDbSpline
62
7
6
CONTINUOUS
70
0
71
3
72
13
73
9
74
7
42
0.0000001000
43
0.0000001000
44
0.0000000001
40
0.0000000000
40
0.0000000000
40
0.0000000000
40
0.0000000000
40
0.1450753534
40
0.3160620595
40
0.4870482613
40
0.6580335785
40
0.8290177287
40
1.0000000000
40
1.0000000000
40
1.0000000000
40
1.0000000000
10
309.1495377803
20
100.7770974037
30
0.0000000000
10
309.3175474740
20
100.7771092514
30
0.0000000000
10
309.6836181599
20
100.8059660047
30
0.0000000000
10
310.2324586572
20
100.9463193508
30
0.0000000000
10
310.7732860693
20
101.1982795838
30
0.0000000000
10
311.2583298298
20
101.5457894013
30
0.0000000000
10
311.6708010013
20
101.9766659336
30
0.0000000000
10
311.8882598422
20
102.3102090485
30
0.0000000000
10
311.9804523861
20
102.4851407078
30
0.0000000000
11
309.1495377803
21
100.7770974037
31
0.0000000000
11
309.6515191692
21
100.8167100540
31
0.0000000000
11
310.2262574820
21
100.9636763155
31
0.0000000000
11
310.7639900985
21
101.2142052906
31
0.0000000000
11
311.2462359807
21
101.5596852498
31
0.0000000000
11
311.6564221514
21
101.9882409573
31
0.0000000000
11
311.9804523861
21
102.4851407078
31
0.0000000000
0
SPLINE
5
2C6
100
AcDbEntity
8
0
100
AcDbSpline
62
7
6
CONTINUOUS
70
0
71
3
72
12
73
8
74
6
42
0.0000001000
43
0.0000001000
44
0.0000000001
40
0.0000000000
40
0.0000000000
40
0.0000000000
40
0.0000000000
40
0.2103510792
40
0.4174348220
40
0.6192282392
40
0.8138950444
40
1.0000000000
40
1.0000000000
40
1.0000000000
40
1.0000000000
10
299.2689990638
20
114.9564734833
30
0.0000000000
10
299.3575311061
20
114.8221695614
30
0.0000000000
10
299.5203004439
20
114.5468355780
30
0.0000000000
10
299.7187094940
20
114.1159552669
30
0.0000000000
10
299.8652797360
20
113.6772309929
30
0.0000000000
10
299.9557039767
20
113.2399149439
30
0.0000000000
10
299.9771299929
20
112.9484275139
30
0.0000000000
10
299.9771299929
20
112.8061103493
30
0.0000000000
11
299.2689990638
21
114.9564734833
31
0.0000000000
11
299.5142060583
21
114.5408381582
31
0.0000000000
11
299.7122695393
21
114.1090144487
31
0.0000000000
11
299.8580097183
21
113.6696102004
31
0.0000000000
11
299.9471854811
21
113.2320104600
31
0.0000000000
11
299.9771299929
21
112.8061103493
31
0.0000000000
0
SPLINE
5
2C7
100
AcDbEntity
8
0
100
AcDbSpline
62
7
6
CONTINUOUS
70
0
71
3
72
14
73
10
74
8
42
0.0000001000
43
0.0000001000
44
0.0000000001
40
0.0000000000
40
0.0000000000
40
0.0000000000
40
0.0000000000
40
0.1640348063
40
0.3193678143
40
0.4658788560
40
0.6063843313
40
0.7428850655
40
0.8744363397
40
1.0000000000
40
1.0000000000
40
1.0000000000
40
1.0000000000
10
299.2689990638
20
114.9564734833
30
0.0000000000
10
299.1455587333
20
115.1715419572
30
0.0000000000
10
298.8740770311
20
115.5733820469
30
0.0000000000
10
298.3951489663
20
116.0932042552
30
0.0000000000
10
297.8716609140
20
116.5133498797
30
0.0000000000
10
297.3158817235
20
116.8360163625
30
0.0000000000
10
296.7387429094
20
117.0626889688
30
0.0000000000
10
296.1562167944
20
117.1943294956
30
0.0000000000
10
295.7669478814
20
117.2228745270
30
0.0000000000
10
295.5771299929
20
117.2228745270
30
0.0000000000
11
299.2689990638
21
114.9564734833
31
0.0000000000
11
298.8516873008
21
115.5723294448
31
0.0000000000
11
298.3736564615
21
116.0897795505
31
0.0000000000
11
297.8549159598
21
116.5049989245
31
0.0000000000
11
297.3034758509
21
116.8243105433
31
0.0000000000
11
296.7270723785
21
117.0501167488
31
0.0000000000
11
296.1450635789
21
117.1812942546
31
0.0000000000
11
295.5771299929
21
117.2228745270
31
0.0000000000
0
SPLINE
5
2C8
100
AcDbEntity
8
0
100
AcDbSpline
62
7
6
CONTINUOUS
70
0
71
3
72
17
73
13
74
11
42
0.0000001000
43
0.0000001000
44
0.0000000001
40
0.0000000000
40
0.0000000000
40
0.0000000000
40
0.0000000000
40
0.1437269707
40
0.2835024509
40
0.4155976098
40
0.5369709587
40
0.6459124884
40
0.7427004174
40
0.8300728862
40
0.9132002828
40
0.9987278379
40
1.0000000000
40
1.0000000000
40
1.0000000000
40
1.0000000000
10
285.7771299929
20
133.6298059475
30
0.0000000000
10
285.4490887312
20
133.6298059475
30
0.0000000000
10
284.8018334459
20
133.6495000547
30
0.0000000000
10
283.8568359913
20
133.7395804445
30
0.0000000000
10
282.9713774630
20
133.8928577098
30
0.0000000000
10
282.1723042888
20
134.1130989669
30
0.0000000000
10
281.4818874640
20
134.4045248688
30
0.0000000000
10
280.9173531900
20
134.7721307623
30
0.0000000000
10
280.4943428690
20
135.2219663946
30
0.0000000000
10
280.2324100084
20
135.7550247193
30
0.0000000000
10
280.1776634642
20
136.1450626420
30
0.0000000000
10
280.1771262004
20
136.3438004485
30
0.0000000000
10
280.1771241938
20
136.3467130872
30
0.0000000000
11
285.7771299929
21
133.6298059475
31
0.0000000000
11
284.7934851817
21
133.6605062683
31
0.0000000000
11
283.8409640583
21
133.7536792559
31
0.0000000000
11
282.9504565136
21
133.9120398702
31
0.0000000000
11
282.1509177752
21
134.1387692244
31
0.0000000000
11
281.4668861551
21
134.4363089077
31
0.0000000000
11
280.9166898424
21
134.8057504146
31
0.0000000000
11
280.5126772668
21
135.2469787370
31
0.0000000000
11
280.2635824921
21
135.7587664119
31
0.0000000000
11
280.1771478406
21
136.3379748231
31
0.0000000000
11
280.1771241938
21
136.3467130872
31
0.0000000000
0
SPLINE
5
2C9
100
AcDbEntity
8
0
100
AcDbSpline
62
7
6
CONTINUOUS
70
0
71
3
72
16
73
12
74
10
42
0.0000001000
43
0.0000001000
44
0.0000000001
40
0.0000000000
40
0.0000000000
40
0.0000000000
40
0.0000000000
40
0.1213846200
40
0.2450144468
40
0.3667308538
40
0.4843646770
40
0.5986569789
40
0.7069634136
40
0.8086747689
40
0.9060101513
40
1.0000000000
40
1.0000000000
40
1.0000000000
40
1.0000000000
10
295.1771299929
20
192.8636310258
30
0.0000000000
10
294.9457193678
20
192.8636310258
30
0.0000000000
10
294.4782749746
20
192.8402023881
30
0.0000000000
10
293.7860789103
20
192.7331315541
30
0.0000000000
10
293.1166106592
20
192.5519326272
30
0.0000000000
10
292.4902960931
20
192.2974543058
30
0.0000000000
10
291.9268177835
20
191.9712441296
30
0.0000000000
10
291.4471629770
20
191.5758725909
30
0.0000000000
10
291.0745581902
20
191.1175592537
30
0.0000000000
10
290.8336423465
20
190.6065328899
30
0.0000000000
10
290.7771299929
20
190.2397064376
30
0.0000000000
10
290.7771299929
20
190.0605218783
30
0.0000000000
11
295.1771299929
21
192.8636310258
31
0.0000000000
11
294.4837820097
21
192.8286100180
31
0.0000000000
11
293.7851530326
21
192.7196626206
31
0.0000000000
11
293.1136196015
21
192.5362530495
31
0.0000000000
11
292.4912325017
21
192.2807784290
31
0.0000000000
11
291.9273002593
21
191.9502280644
31
0.0000000000
11
291.4523049831
21
191.5526376248
31
0.0000000000
11
291.0895315712
21
191.0978982540
31
0.0000000000
11
290.8569764566
21
190.5921124151
31
0.0000000000
11
290.7771299929
21
190.0605218783
31
0.0000000000
0
SPLINE
5
2CA
100
AcDbEntity
8
0
100
AcDbSpline
62
7
6
CONTINUOUS
70
0
71
3
72
14
73
10
74
8
42
0.0000001000
43
0.0000001000
44
0.0000000001
40
0.0000000000
40
0.0000000000
40
0.0000000000
40
0.0000000000
40
0.1640348063
40
0.3193678143
40
0.4658788560
40
0.6063843313
40
0.7428850655
40
0.8744363397
40
1.0000000000
40
1.0000000000
40
1.0000000000
40
1.0000000000
10
291.4852609220
20
114.9564734833
30
0.0000000000
10
291.6087012525
20
115.1715419572
30
0.0000000000
10
291.8801829547
20
115.5733820469
30
0.0000000000
10
292.3591110195
20
116.0932042552
30
0.0000000000
10
292.8825990719
20
116.5133498797
30
0.0000000000
10
293.4383782623
20
116.8360163625
30
0.0000000000
10
294.0155170764
20
117.0626889688
30
0.0000000000
10
294.5980431914
20
117.1943294956
30
0.0000000000
10
294.9873121044
20
117.2228745270
30
0.0000000000
10
295.1771299929
20
117.2228745270
30
0.0000000000
11
291.4852609220
21
114.9564734833
31
0.0000000000
11
291.9025726851
21
115.5723294448
31
0.0000000000
11
292.3806035243
21
116.0897795505
31
0.0000000000
11
292.8993440260
21
116.5049989245
31
0.0000000000
11
293.4507841349
21
116.8243105433
31
0.0000000000
11
294.0271876073
21
117.0501167488
31
0.0000000000
11
294.6091964069
21
117.1812942546
31
0.0000000000
11
295.1771299929
21
117.2228745270
31
0.0000000000
0
SPLINE
5
2CB
100
AcDbEntity
8
0
100
AcDbSpline
62
7
6
CONTINUOUS
70
0
71
3
72
12
73
8
74
6
42
0.0000001000
43
0.0000001000
44
0.0000000001
40
0.0000000000
40
0.0000000000
40
0.0000000000
40
0.0000000000
40
0.2103510792
40
0.4174348220
40
0.6192282392
40
0.8138950444
40
1.0000000000
40
1.0000000000
40
1.0000000000
40
1.0000000000
10
291.4852609220
20
114.9564734833
30
0.0000000000
10
291.3967288797
20
114.8221695614
30
0.0000000000
10
291.2339595419
20
114.5468355780
30
0.0000000000
10
291.0355504918
20
114.1159552669
30
0.0000000000
10
290.8889802498
20
113.6772309929
30
0.0000000000
10
290.7985560091
20
113.2399149439
30
0.0000000000
10
290.7771299929
20
112.9484275139
30
0.0000000000
10
290.7771299929
20
112.8061103493
30
0.0000000000
11
291.4852609220
21
114.9564734833
31
0.0000000000
11
291.2400539275
21
114.5408381582
31
0.0000000000
11
291.0419904466
21
114.1090144487
31
0.0000000000
11
290.8962502676
21
113.6696102004
31
0.0000000000
11
290.8070745047
21
113.2320104600
31
0.0000000000
11
290.7771299929
21
112.8061103493
31
0.0000000000
0
SPLINE
5
2CC
100
AcDbEntity
8
0
100
AcDbSpline
62
7
6
CONTINUOUS
70
0
71
3
72
16
73
12
74
10
42
0.0000001000
43
0.0000001000
44
0.0000000001
40
0.0000000000
40
0.0000000000
40
0.0000000000
40
0.0000000000
40
0.1477568165
40
0.2769095180
40
0.3920484772
40
0.4977392712
40
0.5985010663
40
0.6985487248
40
0.7991032151
40
0.8997476085
40
1.0000000000
40
1.0000000000
40
1.0000000000
40
1.0000000000
10
311.1075895237
20
164.3770898236
30
0.0000000000
10
311.1075895237
20
163.7809400486
30
0.0000000000
10
311.0971840498
20
162.6636679640
30
0.0000000000
10
311.0525449741
20
161.0824219132
30
0.0000000000
10
310.9848149377
20
159.6718845437
30
0.0000000000
10
310.8947454502
20
158.3773904065
30
0.0000000000
10
310.7794244116
20
157.1460201807
30
0.0000000000
10
310.6330652424
20
155.9387848645
30
0.0000000000
10
310.4487934785
20
154.7371655203
30
0.0000000000
10
310.2210849585
20
153.5421318180
30
0.0000000000
10
310.0370531769
20
152.7524417459
30
0.0000000000
10
309.9363795301
20
152.3606853581
30
0.0000000000
11
311.1075895237
21
164.3770898236
31
0.0000000000
11
311.0904705872
21
162.5887224311
31
0.0000000000
11
311.0455099051
21
161.0261041022
31
0.0000000000
11
310.9777906652
21
159.6341077655
31
0.0000000000
11
310.8881611165
21
158.3579695017
31
0.0000000000
11
310.7736242016
21
157.1437382748
31
0.0000000000
11
310.6270222324
21
155.9416674961
31
0.0000000000
11
310.4416280316
21
154.7387581587
31
0.0000000000
11
310.2126874441
21
153.5422640443
31
0.0000000000
11
309.9363795301
21
152.3606853581
31
0.0000000000
0
SPLINE
5
2CD
100
AcDbEntity
8
0
100
AcDbSpline
62
7
6
CONTINUOUS
70
0
71
3
72
21
73
17
74
15
42
0.0000001000
43
0.0000001000
44
0.0000000001
40
0.0000000000
40
0.0000000000
40
0.0000000000
40
0.0000000000
40
0.1037142689
40
0.2105896112
40
0.3143116292
40
0.4091382865
40
0.4920203853
40
0.5646339178
40
0.6289982756
40
0.6871890349
40
0.7411583917
40
0.7928728138
40
0.8442929088
40
0.8961282362
40
0.9481504393
40
1.0000000000
40
1.0000000000
40
1.0000000000
40
1.0000000000
10
283.0659135312
20
182.0718926109
30
0.0000000000
10
282.9044800987
20
181.8774132145
30
0.0000000000
10
282.5877205177
20
181.4732334367
30
0.0000000000
10
282.1491717224
20
180.8447686026
30
0.0000000000
10
281.7564311886
20
180.2120996050
30
0.0000000000
10
281.4235694748
20
179.6121680420
30
0.0000000000
10
281.1505188324
20
179.0664809446
30
0.0000000000
10
280.9283144479
20
178.5788214600
30
0.0000000000
10
280.7448052658
20
178.1399502756
30
0.0000000000
10
280.5899407808
20
177.7385503606
30
0.0000000000
10
280.4556376721
20
177.3624080681
30
0.0000000000
10
280.3354785317
20
176.9988554089
30
0.0000000000
10
280.2253046169
20
176.6375875625
30
0.0000000000
10
280.1234215971
20
176.2731133486
30
0.0000000000
10
280.0300506501
20
175.9052869537
30
0.0000000000
10
279.9738471750
20
175.6584377053
30
0.0000000000
10
279.9473946951
20
175.5348806384
30
0.0000000000
11
283.0659135312
21
182.0718926109
31
0.0000000000
11
282.5980371404
21
181.4752029246
31
0.0000000000
11
282.1507045915
21
180.8345611956
31
0.0000000000
11
281.7505812521
21
180.1904073856
31
0.0000000000
11
281.4140948452
21
179.5842657361
31
0.0000000000
11
281.1428580212
21
179.0424126031
31
0.0000000000
11
280.9226873751
21
178.5593453260
31
0.0000000000
11
280.7411288058
21
178.1252150405
31
0.0000000000
11
280.5879808284
21
177.7283051762
31
0.0000000000
11
280.4552974631
21
177.3567145928
31
0.0000000000
11
280.3366511272
21
176.9977302968
31
0.0000000000
11
280.2270031476
21
176.6381451220
31
0.0000000000
11
280.1250053293
21
176.2731625111
31
0.0000000000
11
280.0314731894
21
175.9045095725
31
0.0000000000
11
279.9473946951
21
175.5348806384
31
0.0000000000
0
SPLINE
5
2CE
100
AcDbEntity
8
0
100
AcDbSpline
62
7
6
CONTINUOUS
70
0
71
3
72
16
73
12
74
10
42
0.0000001000
43
0.0000001000
44
0.0000000001
40
0.0000000000
40
0.0000000000
40
0.0000000000
40
0.0000000000
40
0.0831411393
40
0.1789155209
40
0.2871082867
40
0.4054328254
40
0.5289750673
40
0.6523344220
40
0.7720508874
40
0.8874724268
40
1.0000000000
40
1.0000000000
40
1.0000000000
40
1.0000000000
10
280.1771241938
20
136.3467130872
30
0.0000000000
10
280.1769775891
20
136.5595103341
30
0.0000000000
10
280.2440614737
20
137.0160513501
30
0.0000000000
10
280.5149876709
20
137.7023242869
30
0.0000000000
10
280.9576350756
20
138.4002730259
30
0.0000000000
10
281.5542841903
20
139.0697520596
30
0.0000000000
10
282.2737387873
20
139.6673327086
30
0.0000000000
10
283.0754027120
20
140.1558152956
30
0.0000000000
10
283.9209357673
20
140.5135858230
30
0.0000000000
10
284.7833726515
20
140.7344671670
30
0.0000000000
10
285.3647875535
20
140.7920540146
30
0.0000000000
10
285.6518312144
20
140.7984284358
30
0.0000000000
11
280.1771241938
21
136.3467130872
31
0.0000000000
11
280.2612961806
21
136.9775784505
31
0.0000000000
11
280.5225979964
21
137.6625350448
31
0.0000000000
11
280.9608239213
21
138.3652520000
31
0.0000000000
11
281.5607577993
21
139.0437807075
31
0.0000000000
11
282.2874983553
21
139.6488524935
31
0.0000000000
11
283.0941301509
21
140.1397324601
31
0.0000000000
11
283.9385079405
21
140.4957682254
31
0.0000000000
11
284.7946416694
21
140.7139396640
31
0.0000000000
11
285.6518312144
21
140.7984284358
31
0.0000000000
0
SPLINE
5
2CF
100
AcDbEntity
8
0
100
AcDbSpline
62
7
6
CONTINUOUS
70
0
71
3
72
10
73
6
74
4
42
0.0000001000
43
0.0000001000
44
0.0000000001
40
0.0000000000
40
0.0000000000
40
0.0000000000
40
0.0000000000
40
0.3311406133
40
0.6644717384
40
1.0000000000
40
1.0000000000
40
1.0000000000
40
1.0000000000
10
311.0226416588
20
173.9983427768
30
0.0000000000
10
311.0423544972
20
173.6431634982
30
0.0000000000
10
311.0741506406
20
172.9300074166
30
0.0000000000
10
311.1016100744
20
171.8560636388
30
0.0000000000
10
311.1075895237
20
171.1375291296
30
0.0000000000
10
311.1075895237
20
170.7770898236
30
0.0000000000
11
311.0226416588
21
173.9983427768
31
0.0000000000
11
311.0706805873
21
172.9322468595
31
0.0000000000
11
311.0984732913
21
171.8583693129
31
0.0000000000
11
311.1075895237
21
170.7770898236
31
0.0000000000
0
SPLINE
5
2D0
100
AcDbEntity
8
0
100
AcDbSpline
62
7
6
CONTINUOUS
70
0
71
3
72
15
73
11
74
9
42
0.0000001000
43
0.0000001000
44
0.0000000001
40
0.0000000000
40
0.0000000000
40
0.0000000000
40
0.0000000000
40
0.1218215976
40
0.2435748269
40
0.3653947394
40
0.4875149415
40
0.6106148502
40
0.7360430259
40
0.8653602616
40
1.0000000000
40
1.0000000000
40
1.0000000000
40
1.0000000000
10
310.8068652907
20
175.5348806384
30
0.0000000000
10
310.8200685126
20
175.4732096202
30
0.0000000000
10
310.8455392755
20
175.3497011547
30
0.0000000000
10
310.8808389484
20
175.1638466515
30
0.0000000000
10
310.9131064380
20
174.9772835681
30
0.0000000000
10
310.9422359992
20
174.7894982083
30
0.0000000000
10
310.9681302084
20
174.5993523790
30
0.0000000000
10
310.9906302962
20
174.4050208512
30
0.0000000000
10
311.0093944644
20
174.2042896836
30
0.0000000000
10
311.0187789199
20
174.0679403049
30
0.0000000000
10
311.0226416588
20
173.9983427768
30
0.0000000000
11
310.8068652907
21
175.5348806384
31
0.0000000000
11
310.8450612173
21
175.3495705545
31
0.0000000000
11
310.8803230791
21
175.1637879217
31
0.0000000000
11
310.9125401513
21
174.9773480496
31
0.0000000000
11
310.9415804014
21
174.7899150426
31
0.0000000000
11
310.9673387006
21
174.6004671545
31
0.0000000000
11
310.9896972035
21
174.4069473782
31
0.0000000000
11
311.0083374098
21
174.2069668850
31
0.0000000000
11
311.0226416588
21
173.9983427768
31
0.0000000000
0
SPLINE
5
2D1
100
AcDbEntity
8
0
100
AcDbSpline
62
7
6
CONTINUOUS
70
0
71
3
72
21
73
17
74
15
42
0.0000001000
43
0.0000001000
44
0.0000000001
40
0.0000000000
40
0.0000000000
40
0.0000000000
40
0.0000000000
40
0.1037142689
40
0.2105896112
40
0.3143116292
40
0.4091382865
40
0.4920203853
40
0.5646339178
40
0.6289982756
40
0.6871890349
40
0.7411583917
40
0.7928728138
40
0.8442929088
40
0.8961282362
40
0.9481504393
40
1.0000000000
40
1.0000000000
40
1.0000000000
40
1.0000000000
10
307.6883464546
20
182.0718926109
30
0.0000000000
10
307.8497798872
20
181.8774132145
30
0.0000000000
10
308.1665394681
20
181.4732334367
30
0.0000000000
10
308.6050882634
20
180.8447686026
30
0.0000000000
10
308.9978287972
20
180.2120996050
30
0.0000000000
10
309.3306905111
20
179.6121680420
30
0.0000000000
10
309.6037411534
20
179.0664809446
30
0.0000000000
10
309.8259455380
20
178.5788214600
30
0.0000000000
10
310.0094547200
20
178.1399502756
30
0.0000000000
10
310.1643192051
20
177.7385503606
30
0.0000000000
10
310.2986223138
20
177.3624080681
30
0.0000000000
10
310.4187814541
20
176.9988554089
30
0.0000000000
10
310.5289553689
20
176.6375875625
30
0.0000000000
10
310.6308383887
20
176.2731133486
30
0.0000000000
10
310.7242093357
20
175.9052869537
30
0.0000000000
10
310.7804128108
20
175.6584377053
30
0.0000000000
10
310.8068652907
20
175.5348806384
30
0.0000000000
11
307.6883464546
21
182.0718926109
31
0.0000000000
11
308.1562228454
21
181.4752029246
31
0.0000000000
11
308.6035553943
21
180.8345611956
31
0.0000000000
11
309.0036787337
21
180.1904073856
31
0.0000000000
11
309.3401651406
21
179.5842657361
31
0.0000000000
11
309.6114019646
21
179.0424126031
31
0.0000000000
11
309.8315726108
21
178.5593453260
31
0.0000000000
11
310.0131311800
21
178.1252150405
31
0.0000000000
11
310.1662791574
21
177.7283051762
31
0.0000000000
11
310.2989625227
21
177.3567145928
31
0.0000000000
11
310.4176088586
21
176.9977302968
31
0.0000000000
11
310.5272568383
21
176.6381451220
31
0.0000000000
11
310.6292546565
21
176.2731625111
31
0.0000000000
11
310.7227867964
21
175.9045095725
31
0.0000000000
11
310.8068652907
21
175.5348806384
31
0.0000000000
0
SPLINE
5
2D2
100
AcDbEntity
8
0
100
AcDbSpline
62
7
6
CONTINUOUS
70
0
71
3
72
16
73
12
74
10
42
0.0000001000
43
0.0000001000
44
0.0000000001
40
0.0000000000
40
0.0000000000
40
0.0000000000
40
0.0000000000
40
0.0831411393
40
0.1789155209
40
0.2871082867
40
0.4054328254
40
0.5289750673
40
0.6523344220
40
0.7720508874
40
0.8874724268
40
1.0000000000
40
1.0000000000
40
1.0000000000
40
1.0000000000
10
310.5771357921
20
136.3467130872
30
0.0000000000
10
310.5772823967
20
136.5595103341
30
0.0000000000
10
310.5101985121
20
137.0160513501
30
0.0000000000
10
310.2392723150
20
137.7023242869
30
0.0000000000
10
309.7966249103
20
138.4002730259
30
0.0000000000
10
309.1999757955
20
139.0697520596
30
0.0000000000
10
308.4805211985
20
139.6673327086
30
0.0000000000
10
307.6788572738
20
140.1558152956
30
0.0000000000
10
306.8333242185
20
140.5135858230
30
0.0000000000
10
305.9708873343
20
140.7344671670
30
0.0000000000
10
305.3894724323
20
140.7920540146
30
0.0000000000
10
305.1024287714
20
140.7984284358
30
0.0000000000
11
310.5771357921
21
136.3467130872
31
0.0000000000
11
310.4929638052
21
136.9775784505
31
0.0000000000
11
310.2316619894
21
137.6625350448
31
0.0000000000
11
309.7934360645
21
138.3652520000
31
0.0000000000
11
309.1935021865
21
139.0437807075
31
0.0000000000
11
308.4667616305
21
139.6488524935
31
0.0000000000
11
307.6601298350
21
140.1397324601
31
0.0000000000
11
306.8157520454
21
140.4957682254
31
0.0000000000
11
305.9596183164
21
140.7139396640
31
0.0000000000
11
305.1024287714
21
140.7984284358
31
0.0000000000
0
SPLINE
5
2D3
100
AcDbEntity
8
0
100
AcDbSpline
62
7
6
CONTINUOUS
70
0
71
3
72
13
73
9
74
7
42
0.0000001000
43
0.0000001000
44
0.0000000001
40
0.0000000000
40
0.0000000000
40
0.0000000000
40
0.0000000000
40
0.1660479931
40
0.3341111358
40
0.5028274331
40
0.6708521680
40
0.8370081771
40
1.0000000000
40
1.0000000000
40
1.0000000000
40
1.0000000000
10
309.9363795301
20
152.3606853581
30
0.0000000000
10
309.7630222496
20
151.6860915177
30
0.0000000000
10
309.3857104001
20
150.3358505310
30
0.0000000000
10
308.7306033264
20
148.3302800860
30
0.0000000000
10
307.9803174163
20
146.3493022769
30
0.0000000000
10
307.1329441055
20
144.4163480057
30
0.0000000000
10
306.1858575138
20
142.5569668259
30
0.0000000000
10
305.4768263414
20
141.3704970015
30
0.0000000000
10
305.1024287714
20
140.7984284358
30
0.0000000000
11
309.9363795301
21
152.3606853581
31
0.0000000000
11
309.3736645057
21
150.3483438942
31
0.0000000000
11
308.7160690708
21
148.3382810126
31
0.0000000000
11
307.9624937848
21
146.3534026464
31
0.0000000000
11
307.1112124927
21
144.4179283921
31
0.0000000000
11
306.1589281332
21
142.5564764888
31
0.0000000000
11
305.1024287714
21
140.7984284358
31
0.0000000000
0
SPLINE
5
2D4
100
AcDbEntity
8
0
100
AcDbSpline
62
7
6
CONTINUOUS
70
0
71
3
72
17
73
13
74
11
42
0.0000001000
43
0.0000001000
44
0.0000000001
40
0.0000000000
40
0.0000000000
40
0.0000000000
40
0.0000000000
40
0.1003513443
40
0.2016963582
40
0.3010446096
40
0.3967462045
40
0.4908556985
40
0.5853401724
40
0.6833542595
40
0.7864423188
40
0.8926851555
40
1.0000000000
40
1.0000000000
40
1.0000000000
40
1.0000000000
10
299.9771299929
20
141.9238799959
30
0.0000000000
10
299.9771299929
20
142.1172761540
30
0.0000000000
10
299.9256400819
20
142.5082724034
30
0.0000000000
10
299.6920206873
20
143.0469898912
30
0.0000000000
10
299.3367738164
20
143.5009268175
30
0.0000000000
10
298.9085644017
20
143.8622055316
30
0.0000000000
10
298.4369513335
20
144.1447143547
30
0.0000000000
10
297.9292101351
20
144.3653663166
30
0.0000000000
10
297.3840822969
20
144.5341111600
30
0.0000000000
10
296.8030068338
20
144.6533686727
30
0.0000000000
10
296.1958993310
20
144.7219837745
30
0.0000000000
10
295.7839270527
20
144.7334298964
30
0.0000000000
10
295.5771299929
20
144.7306199494
30
0.0000000000
11
299.9771299929
21
141.9238799959
31
0.0000000000
11
299.8998937510
21
142.4989045420
31
0.0000000000
11
299.6688474488
21
143.0373612345
31
0.0000000000
11
299.3181170154
21
143.4922358447
31
0.0000000000
11
298.8976175228
21
143.8518568689
31
0.0000000000
11
298.4322822895
21
144.1338298615
31
0.0000000000
11
297.9320928284
21
144.3534204886
31
0.0000000000
11
297.3912230081
21
144.5224793788
31
0.0000000000
11
296.8076169360
21
144.6434465248
31
0.0000000000
11
296.1973319089
21
144.7131310635
31
0.0000000000
11
295.5771299929
21
144.7306199494
31
0.0000000000
0
SPLINE
5
2D5
100
AcDbEntity
8
0
100
AcDbSpline
62
7
6
CONTINUOUS
70
0
71
3
72
15
73
11
74
9
42
0.0000001000
43
0.0000001000
44
0.0000000001
40
0.0000000000
40
0.0000000000
40
0.0000000000
40
0.0000000000
40
0.1758438352
40
0.3319815197
40
0.4708846878
40
0.5952862046
40
0.7081263987
40
0.8109292464
40
0.9077430317
40
1.0000000000
40
1.0000000000
40
1.0000000000
40
1.0000000000
10
299.9771299929
20
130.9422070884
30
0.0000000000
10
300.4133078639
20
130.7989216260
30
0.0000000000
10
301.2215329628
20
130.4766526955
30
0.0000000000
10
302.2877991076
20
129.8550940390
30
0.0000000000
10
303.1376654367
20
129.1566766157
30
0.0000000000
10
303.7872740922
20
128.4143467315
30
0.0000000000
10
304.2589234175
20
127.6577609508
30
0.0000000000
10
304.5786701015
20
126.9037064126
30
0.0000000000
10
304.7655801076
20
126.1619465486
30
0.0000000000
10
304.8088611690
20
125.6675292070
30
0.0000000000
10
304.8088611690
20
125.4266559157
30
0.0000000000
11
299.9771299929
21
130.9422070884
31
0.0000000000
11
301.2536597452
21
130.4249948288
31
0.0000000000
11
302.3071418595
21
129.8038271126
31
0.0000000000
11
303.1451266527
21
129.1099303912
31
0.0000000000
11
303.7850621591
21
128.3751283280
31
0.0000000000
11
304.2513708342
21
127.6243070552
31
0.0000000000
11
304.5645240948
21
126.8824727016
31
0.0000000000
11
304.7481004033
21
126.1467167545
31
0.0000000000
11
304.8088611690
21
125.4266559157
31
0.0000000000
0
SPLINE
5
2D6
100
AcDbEntity
8
0
100
AcDbSpline
62
7
6
CONTINUOUS
70
0
71
3
72
10
73
6
74
4
42
0.0000001000
43
0.0000001000
44
0.0000000001
40
0.0000000000
40
0.0000000000
40
0.0000000000
40
0.0000000000
40
0.3319886405
40
0.6654479417
40
1.0000000000
40
1.0000000000
40
1.0000000000
40
1.0000000000
10
304.9771299929
20
140.7084087082
30
0.0000000000
10
304.4757484124
20
140.3490084997
30
0.0000000000
10
303.4276906337
20
139.6866386838
30
0.0000000000
10
301.7501132175
20
138.8791183077
30
0.0000000000
10
300.5748027000
20
138.4700877925
30
0.0000000000
10
299.9771299929
20
138.2990941877
30
0.0000000000
11
304.9771299929
21
140.7084087082
31
0.0000000000
11
303.4130115792
21
139.7192163206
31
0.0000000000
11
301.7383236441
21
138.9124947274
31
0.0000000000
11
299.9771299929
21
138.2990941877
31
0.0000000000
0
SPLINE
5
2D7
100
AcDbEntity
8
0
100
AcDbSpline
62
7
6
CONTINUOUS
70
0
71
3
72
9
73
5
74
3
42
0.0000001000
43
0.0000001000
44
0.0000000001
40
0.0000000000
40
0.0000000000
40
0.0000000000
40
0.0000000000
40
0.5006973719
40
1.0000000000
40
1.0000000000
40
1.0000000000
40
1.0000000000
10
305.1024287714
20
140.7984284358
30
0.0000000000
10
305.0815330498
20
140.7833812276
30
0.0000000000
10
305.0397828085
20
140.7533523349
30
0.0000000000
10
304.9980000165
20
140.7233687528
30
0.0000000000
10
304.9771299929
20
140.7084087082
30
0.0000000000
11
305.1024287714
21
140.7984284358
31
0.0000000000
11
305.0397164172
21
140.7533218116
31
0.0000000000
11
304.9771299929
21
140.7084087082
31
0.0000000000
0
SPLINE
5
2D8
100
AcDbEntity
8
0
100
AcDbSpline
62
7
6
CONTINUOUS
70
0
71
3
72
15
73
11
74
9
42
0.0000001000
43
0.0000001000
44
0.0000000001
40
0.0000000000
40
0.0000000000
40
0.0000000000
40
0.0000000000
40
0.1218215976
40
0.2435748269
40
0.3653947394
40
0.4875149415
40
0.6106148502
40
0.7360430259
40
0.8653602616
40
1.0000000000
40
1.0000000000
40
1.0000000000
40
1.0000000000
10
279.9473946951
20
175.5348806384
30
0.0000000000
10
279.9341914733
20
175.4732096202
30
0.0000000000
10
279.9087207104
20
175.3497011547
30
0.0000000000
10
279.8734210374
20
175.1638466515
30
0.0000000000
10
279.8411535479
20
174.9772835681
30
0.0000000000
10
279.8120239866
20
174.7894982083
30
0.0000000000
10
279.7861297774
20
174.5993523790
30
0.0000000000
10
279.7636296896
20
174.4050208512
30
0.0000000000
10
279.7448655214
20
174.2042896836
30
0.0000000000
10
279.7354810659
20
174.0679403049
30
0.0000000000
10
279.7316183270
20
173.9983427768
30
0.0000000000
11
279.9473946951
21
175.5348806384
31
0.0000000000
11
279.9091987685
21
175.3495705545
31
0.0000000000
11
279.8739369068
21
175.1637879217
31
0.0000000000
11
279.8417198345
21
174.9773480496
31
0.0000000000
11
279.8126795844
21
174.7899150426
31
0.0000000000
11
279.7869212852
21
174.6004671545
31
0.0000000000
11
279.7645627823
21
174.4069473782
31
0.0000000000
11
279.7459225761
21
174.2069668850
31
0.0000000000
11
279.7316183270
21
173.9983427768
31
0.0000000000
0
SPLINE
5
2D9
100
AcDbEntity
8
0
100
AcDbSpline
62
7
6
CONTINUOUS
70
0
71
3
72
10
73
6
74
4
42
0.0000001000
43
0.0000001000
44
0.0000000001
40
0.0000000000
40
0.0000000000
40
0.0000000000
40
0.0000000000
40
0.3311406133
40
0.6644717384
40
1.0000000000
40
1.0000000000
40
1.0000000000
40
1.0000000000
10
279.7316183270
20
173.9983427768
30
0.0000000000
10
279.7119054886
20
173.6431634982
30
0.0000000000
10
279.6801093452
20
172.9300074166
30
0.0000000000
10
279.6526499114
20
171.8560636388
30
0.0000000000
10
279.6466704621
20
171.1375291296
30
0.0000000000
10
279.6466704621
20
170.7770898236
30
0.0000000000
11
279.7316183270
21
173.9983427768
31
0.0000000000
11
279.6835793985
21
172.9322468595
31
0.0000000000
11
279.6557866945
21
171.8583693129
31
0.0000000000
11
279.6466704621
21
170.7770898236
31
0.0000000000
0
SPLINE
5
2DA
100
AcDbEntity
8
0
100
AcDbSpline
62
7
6
CONTINUOUS
70
0
71
3
72
16
73
12
74
10
42
0.0000001000
43
0.0000001000
44
0.0000000001
40
0.0000000000
40
0.0000000000
40
0.0000000000
40
0.0000000000
40
0.1477568165
40
0.2769095180
40
0.3920484772
40
0.4977392712
40
0.5985010663
40
0.6985487248
40
0.7991032151
40
0.8997476085
40
1.0000000000
40
1.0000000000
40
1.0000000000
40
1.0000000000
10
279.6466704621
20
164.3770898236
30
0.0000000000
10
279.6466704621
20
163.7809400486
30
0.0000000000
10
279.6570759360
20
162.6636679640
30
0.0000000000
10
279.7017150117
20
161.0824219132
30
0.0000000000
10
279.7694450481
20
159.6718845437
30
0.0000000000
10
279.8595145357
20
158.3773904065
30
0.0000000000
10
279.9748355743
20
157.1460201807
30
0.0000000000
10
280.1211947434
20
155.9387848645
30
0.0000000000
10
280.3054665073
20
154.7371655203
30
0.0000000000
10
280.5331750273
20
153.5421318180
30
0.0000000000
10
280.7172068089
20
152.7524417459
30
0.0000000000
10
280.8178804557
20
152.3606853581
30
0.0000000000
11
279.6466704621
21
164.3770898236
31
0.0000000000
11
279.6637893986
21
162.5887224311
31
0.0000000000
11
279.7087500808
21
161.0261041022
31
0.0000000000
11
279.7764693206
21
159.6341077655
31
0.0000000000
11
279.8660988693
21
158.3579695017
31
0.0000000000
11
279.9806357842
21
157.1437382748
31
0.0000000000
11
280.1272377535
21
155.9416674961
31
0.0000000000
11
280.3126319542
21
154.7387581587
31
0.0000000000
11
280.5415725417
21
153.5422640443
31
0.0000000000
11
280.8178804557
21
152.3606853581
31
0.0000000000
0
SPLINE
5
2DB
100
AcDbEntity
8
0
100
AcDbSpline
62
7
6
CONTINUOUS
70
0
71
3
72
13
73
9
74
7
42
0.0000001000
43
0.0000001000
44
0.0000000001
40
0.0000000000
40
0.0000000000
40
0.0000000000
40
0.0000000000
40
0.1660479931
40
0.3341111358
40
0.5028274331
40
0.6708521680
40
0.8370081771
40
1.0000000000
40
1.0000000000
40
1.0000000000
40
1.0000000000
10
280.8178804557
20
152.3606853581
30
0.0000000000
10
280.9912377362
20
151.6860915177
30
0.0000000000
10
281.3685495857
20
150.3358505310
30
0.0000000000
10
282.0236566595
20
148.3302800860
30
0.0000000000
10
282.7739425695
20
146.3493022769
30
0.0000000000
10
283.6213158803
20
144.4163480057
30
0.0000000000
10
284.5684024720
20
142.5569668259
30
0.0000000000
10
285.2774336444
20
141.3704970015
30
0.0000000000
10
285.6518312144
20
140.7984284358
30
0.0000000000
11
280.8178804557
21
152.3606853581
31
0.0000000000
11
281.3805954802
21
150.3483438942
31
0.0000000000
11
282.0381909150
21
148.3382810126
31
0.0000000000
11
282.7917662010
21
146.3534026464
31
0.0000000000
11
283.6430474932
21
144.4179283921
31
0.0000000000
11
284.5953318526
21
142.5564764888
31
0.0000000000
11
285.6518312144
21
140.7984284358
31
0.0000000000
0
SPLINE
5
2DC
100
AcDbEntity
8
0
100
AcDbSpline
62
7
6
CONTINUOUS
70
0
71
3
72
15
73
11
74
9
42
0.0000001000
43
0.0000001000
44
0.0000000001
40
0.0000000000
40
0.0000000000
40
0.0000000000
40
0.0000000000
40
0.1758438352
40
0.3319815197
40
0.4708846878
40
0.5952862046
40
0.7081263987
40
0.8109292464
40
0.9077430317
40
1.0000000000
40
1.0000000000
40
1.0000000000
40
1.0000000000
10
290.7771299929
20
130.9422070884
30
0.0000000000
10
290.3409521219
20
130.7989216260
30
0.0000000000
10
289.5327270230
20
130.4766526955
30
0.0000000000
10
288.4664608782
20
129.8550940390
30
0.0000000000
10
287.6165945491
20
129.1566766157
30
0.0000000000
10
286.9669858936
20
128.4143467315
30
0.0000000000
10
286.4953365683
20
127.6577609508
30
0.0000000000
10
286.1755898843
20
126.9037064126
30
0.0000000000
10
285.9886798782
20
126.1619465486
30
0.0000000000
10
285.9453988169
20
125.6675292070
30
0.0000000000
10
285.9453988169
20
125.4266559157
30
0.0000000000
11
290.7771299929
21
130.9422070884
31
0.0000000000
11
289.5006002406
21
130.4249948288
31
0.0000000000
11
288.4471181263
21
129.8038271126
31
0.0000000000
11
287.6091333331
21
129.1099303912
31
0.0000000000
11
286.9691978267
21
128.3751283280
31
0.0000000000
11
286.5028891516
21
127.6243070552
31
0.0000000000
11
286.1897358910
21
126.8824727016
31
0.0000000000
11
286.0061595825
21
126.1467167545
31
0.0000000000
11
285.9453988169
21
125.4266559157
31
0.0000000000
0
SPLINE
5
2DD
100
AcDbEntity
8
0
100
AcDbSpline
62
7
6
CONTINUOUS
70
0
71
3
72
10
73
6
74
4
42
0.0000001000
43
0.0000001000
44
0.0000000001
40
0.0000000000
40
0.0000000000
40
0.0000000000
40
0.0000000000
40
0.3333340927
40
0.6666659073
40
1.0000000000
40
1.0000000000
40
1.0000000000
40
1.0000000000
10
295.5771299929
20
144.7306199494
30
0.0000000000
10
295.5326883341
20
144.7300160786
30
0.0000000000
10
295.4437993034
20
144.7292108934
30
0.0000000000
10
295.3104606824
20
144.7292108934
30
0.0000000000
10
295.2215716517
20
144.7300160786
30
0.0000000000
10
295.1771299929
20
144.7306199494
30
0.0000000000
11
295.5771299929
21
144.7306199494
31
0.0000000000
11
295.4437981792
21
144.7294121883
31
0.0000000000
11
295.3104618067
21
144.7294121883
31
0.0000000000
11
295.1771299929
21
144.7306199494
31
0.0000000000
0
SPLINE
5
2DE
100
AcDbEntity
8
0
100
AcDbSpline
62
7
6
CONTINUOUS
70
0
71
3
72
17
73
13
74
11
42
0.0000001000
43
0.0000001000
44
0.0000000001
40
0.0000000000
40
0.0000000000
40
0.0000000000
40
0.0000000000
40
0.1003513443
40
0.2016963582
40
0.3010446096
40
0.3967462045
40
0.4908556985
40
0.5853401724
40
0.6833542595
40
0.7864423188
40
0.8926851555
40
1.0000000000
40
1.0000000000
40
1.0000000000
40
1.0000000000
10
290.7771299929
20
141.9238799959
30
0.0000000000
10
290.7771299929
20
142.1172761540
30
0.0000000000
10
290.8286199039
20
142.5082724034
30
0.0000000000
10
291.0622392985
20
143.0469898912
30
0.0000000000
10
291.4174861694
20
143.5009268175
30
0.0000000000
10
291.8456955842
20
143.8622055316
30
0.0000000000
10
292.3173086523
20
144.1447143547
30
0.0000000000
10
292.8250498507
20
144.3653663166
30
0.0000000000
10
293.3701776890
20
144.5341111600
30
0.0000000000
10
293.9512531520
20
144.6533686727
30
0.0000000000
10
294.5583606548
20
144.7219837745
30
0.0000000000
10
294.9703329331
20
144.7334298964
30
0.0000000000
10
295.1771299929
20
144.7306199494
30
0.0000000000
11
290.7771299929
21
141.9238799959
31
0.0000000000
11
290.8543662348
21
142.4989045420
31
0.0000000000
11
291.0854125371
21
143.0373612345
31
0.0000000000
11
291.4361429704
21
143.4922358447
31
0.0000000000
11
291.8566424630
21
143.8518568689
31
0.0000000000
11
292.3219776964
21
144.1338298615
31
0.0000000000
11
292.8221671574
21
144.3534204886
31
0.0000000000
11
293.3630369777
21
144.5224793788
31
0.0000000000
11
293.9466430499
21
144.6434465248
31
0.0000000000
11
294.5569280770
21
144.7131310635
31
0.0000000000
11
295.1771299929
21
144.7306199494
31
0.0000000000
0
SPLINE
5
2DF
100
AcDbEntity
8
0
100
AcDbSpline
62
7
6
CONTINUOUS
70
0
71
3
72
10
73
6
74
4
42
0.0000001000
43
0.0000001000
44
0.0000000001
40
0.0000000000
40
0.0000000000
40
0.0000000000
40
0.0000000000
40
0.3319886405
40
0.6654479417
40
1.0000000000
40
1.0000000000
40
1.0000000000
40
1.0000000000
10
285.7771299929
20
140.7084087082
30
0.0000000000
10
286.2785115734
20
140.3490084997
30
0.0000000000
10
287.3265693521
20
139.6866386838
30
0.0000000000
10
289.0041467684
20
138.8791183077
30
0.0000000000
10
290.1794572858
20
138.4700877925
30
0.0000000000
10
290.7771299929
20
138.2990941877
30
0.0000000000
11
285.7771299929
21
140.7084087082
31
0.0000000000
11
287.3412484066
21
139.7192163206
31
0.0000000000
11
289.0159363417
21
138.9124947274
31
0.0000000000
11
290.7771299929
21
138.2990941877
31
0.0000000000
0
SPLINE
5
2E0
100
AcDbEntity
8
0
100
AcDbSpline
62
7
6
CONTINUOUS
70
0
71
3
72
9
73
5
74
3
42
0.0000001000
43
0.0000001000
44
0.0000000001
40
0.0000000000
40
0.0000000000
40
0.0000000000
40
0.0000000000
40
0.5006973719
40
1.0000000000
40
1.0000000000
40
1.0000000000
40
1.0000000000
10
285.6518312144
20
140.7984284358
30
0.0000000000
10
285.6727269361
20
140.7833812276
30
0.0000000000
10
285.7144771774
20
140.7533523349
30
0.0000000000
10
285.7562599694
20
140.7233687528
30
0.0000000000
10
285.7771299929
20
140.7084087082
30
0.0000000000
11
285.6518312144
21
140.7984284358
31
0.0000000000
11
285.7145435686
21
140.7533218116
31
0.0000000000
11
285.7771299929
21
140.7084087082
31
0.0000000000
0
ENDSEC
0
SECTION
2
OBJECTS
0
DICTIONARY
5
2E1
100
AcDbDictionary
3
ACAD_GROUP
350
2E2
3
ACAD_MLINESTYLE
350
2E3
0
DICTIONARY
5
2E2
102
{ACAD_REACTORS
330
2E1
102
}
100
AcDbDictionary
0
DICTIONARY
5
2E3
102
{ACAD_REACTORS
330
2E1
102
}
100
AcDbDictionary
3
STANDARD
350
2E4
0
MLINESTYLE
5
2E4
102
{ACAD_REACTORS
330
2E3
102
}
100
AcDbMlineStyle
2
STANDARD
70
0
3

62
256
51
90.0
52
90.0
71
2
49
0.5
62
256
6
BYLAYER
49
-0.5
62
256
6
BYLAYER
0
ENDSEC
0
EOF
