999
DXF file: C:\Aktuell-Internet\CAD-Daten\2vmvk6.dxf
999
Pro/ENGINEER 2001400 by Parametric Technology Corporation
0
SECTION
2
HEADER
9
$ACADVER
1
AC1014
9
$EXTMAX
10
420.0000000000
20
297.0000000000
9
$EXTMIN
10
0.0000000000
20
0.0000000000
9
$LIMMIN
10
0.0000000000
20
0.0000000000
9
$LIMMAX
10
420.0000000000
20
297.0000000000
9
$VIEWCTR
10
210.0000000000
20
148.5000000000
9
$VIEWSIZE
40
297.0000000000
9
$CLAYER
8
0
9
$LTSCALE
40
23.1000000000
9
$CELTYPE
6
BYLAYER
9
$DIMSCALE
40
1
9
$DIMASZ
40
3.5000000000
9
$DIMEXO
40
2.6250000000
9
$DIMDLI
40
15.9600000000
9
$DIMEXE
40
7.5600000000
9
$DIMCEN
40
3.7800000000
9
$DIMLFAC
40
1.0000000000
9
$DIMTXT
40
3.5000000000
9
$DIMTOL
70
1
9
$DIMTFAC
40
0.6000000000
9
$DIMTP
40
0.0050000000
9
$DIMTM
40
0.0050000000
9
$HANDSEED
5
2E9
0
ENDSEC
0
SECTION
2
CLASSES
0
ENDSEC
0
SECTION
2
TABLES
0
TABLE
2
VPORT
5
8
100
AcDbSymbolTable
70
2
0
VPORT
5
1F4
100
AcDbSymbolTableRecord
100
AcDbViewportTableRecord
2
*ACTIVE
70
0
10
0.0
20
0.0
11
1.0
21
1.0
12
210.0000000000
22
148.5000000000
13
0.0
23
0.0
14
1.0
24
1.0
15
0.0
25
0.0
16
0.0
26
0.0
36
1.0
17
0.0
27
0.0
37
0.0
40
297.0000000000
41
1.4141414141
42
50.0
43
0.0
44
0.0
50
0.0
51
0.0
71
0
72
100
73
1
74
1
75
0
76
0
77
0
78
0
0
ENDTAB
0
TABLE
2
LTYPE
5
5
100
AcDbSymbolTable
70
6
0
LTYPE
5
14
100
AcDbSymbolTableRecord
100
AcDbLinetypeTableRecord
2
BYBLOCK
70
0
3

72
65
73
0
40
0.0
0
LTYPE
5
15
100
AcDbSymbolTableRecord
100
AcDbLinetypeTableRecord
2
BYLAYER
70
0
3

72
65
73
0
40
0.0
0
LTYPE
5
16
100
AcDbSymbolTableRecord
100
AcDbLinetypeTableRecord
2
CONTINUOUS
70
64
3
Solid line
72
65
73
0
40
0
0
LTYPE
5
1F5
100
AcDbSymbolTableRecord
100
AcDbLinetypeTableRecord
2
CENTER
70
64
3
____ _ ____ _ ____ _ ____ _ ____ _ ____ _ ____
72
65
73
4
40
0.6
49
0.375
74
0
49
-0.075
74
0
49
0.075
74
0
49
-0.075
74
0
0
LTYPE
5
1F6
100
AcDbSymbolTableRecord
100
AcDbLinetypeTableRecord
2
HIDDEN
70
64
3
- - - - - - - - - - - - - - - - - - - -
72
65
73
2
40
0.2
49
0.1
74
0
49
-0.1
74
0
0
LTYPE
5
1F7
100
AcDbSymbolTableRecord
100
AcDbLinetypeTableRecord
2
PHANTOM
70
64
3
_____ _ _ _____ _ _ _____ _ _ _____
72
65
73
6
40
0.8
49
0.45
74
0
49
-0.05
74
0
49
0.1
74
0
49
-0.05
74
0
49
0.1
74
0
49
-0.05
74
0
0
LTYPE
5
1F8
100
AcDbSymbolTableRecord
100
AcDbLinetypeTableRecord
2
DOT
70
64
3
. . . . . . . . . . . . . . . . . . . .
72
65
73
2
40
0.2
49
0.1
74
0
49
-0.1
74
0
0
LTYPE
5
1F9
100
AcDbSymbolTableRecord
100
AcDbLinetypeTableRecord
2
DASHED
70
64
3
- - - - - - - - - - - - - - - - - - - -
72
65
73
2
40
0.2
49
0.1
74
0
49
-0.1
74
0
0
ENDTAB
0
TABLE
2
LAYER
5
2
100
AcDbSymbolTable
70
36
0
LAYER
5
10
100
AcDbSymbolTableRecord
100
AcDbLayerTableRecord
2
0
70
0
62
7
6
CONTINUOUS
0
LAYER
5
1FA
100
AcDbSymbolTableRecord
100
AcDbLayerTableRecord
2
DEFAULT_1
70
0
62
7
6
CENTER
0
LAYER
5
1FB
100
AcDbSymbolTableRecord
100
AcDbLayerTableRecord
2
DEFAULT_2
70
0
62
8
6
HIDDEN
0
LAYER
5
1FC
100
AcDbSymbolTableRecord
100
AcDbLayerTableRecord
2
DEFAULT_3
70
0
62
7
6
PHANTOM
0
LAYER
5
1FD
100
AcDbSymbolTableRecord
100
AcDbLayerTableRecord
2
ZEICHNUNGSBEMASSUNGEN
70
0
62
7
6
CONTINUOUS
0
ENDTAB
0
TABLE
2
STYLE
5
3
100
AcDbSymbolTable
70
1
0
STYLE
5
11
100
AcDbSymbolTableRecord
100
AcDbTextStyleTableRecord
2
STANDARD
70
0
40
0.0
41
1.0
50
0.0
71
0
42
0.0
3
txt
4

0
STYLE
5
1FE
100
AcDbSymbolTableRecord
100
AcDbTextStyleTableRecord
2
TEXTSTYLE_0
70
0
40
0.0
41
0.80
50
0.0
71
0
42
0.2
3
txt
4

0
ENDTAB
0
TABLE
2
VIEW
5
6
100
AcDbSymbolTable
70
0
0
ENDTAB
0
TABLE
2
UCS
5
7
100
AcDbSymbolTable
70
0
0
ENDTAB
0
TABLE
2
APPID
5
9
100
AcDbSymbolTable
70
1
0
APPID
5
1FF
100
AcDbSymbolTableRecord
100
AcDbRegAppTableRecord
2
ACAD
70
0
0
ENDTAB
0
TABLE
2
DIMSTYLE
5
A
100
AcDbSymbolTable
70
1
0
DIMSTYLE
105
200
100
AcDbSymbolTableRecord
100
AcDbDimStyleTableRecord
2
STANDARD
70
0
3

4

5

6

7

40
1.0
41
0.18
42
0.0625
43
0.38
44
0.18
45
0.0
46
0.0
47
0.0050000000
48
0.0050000000
140
3.5000000000
141
0.09
142
0.0
143
25.4
144
1.0000000000
145
0.0
146
0.6000000000
147
0.09
71
1
72
0
73
1
74
1
75
0
76
0
77
0
78
0
170
0
171
2
172
0
173
0
174
0
175
0
176
0
177
0
178
0
270
2
271
3
272
4
273
2
274
2
340
11
275
0
280
0
281
0
282
0
283
1
284
0
285
0
286
0
287
3
288
0
0
ENDTAB
0
TABLE
2
BLOCK_RECORD
5
1
100
AcDbSymbolTable
70
0
0
BLOCK_RECORD
5
1B
100
AcDbSymbolTableRecord
100
AcDbBlockTableRecord
2
*MODEL_SPACE
0
BLOCK_RECORD
5
1C
100
AcDbSymbolTableRecord
100
AcDbBlockTableRecord
2
*PAPER_SPACE
0
ENDTAB
0
ENDSEC
0
SECTION
2
BLOCKS
0
BLOCK
5
1E
100
AcDbEntity
8
0
100
AcDbBlockBegin
2
*MODEL_SPACE
70
0
10
0.0
20
0.0
30
0.0
3
*MODEL_SPACE
1

0
ENDBLK
5
1F
100
AcDbEntity
8
0
100
AcDbBlockEnd
0
BLOCK
5
20
100
AcDbEntity
8
0
100
AcDbBlockBegin
2
*PAPER_SPACE
70
0
10
0.0
20
0.0
30
0.0
3
*PAPER_SPACE
1

0
ENDBLK
5
21
100
AcDbEntity
8
0
100
AcDbBlockEnd
0
ENDSEC
0
SECTION
2
ENTITIES
0
TEXT
5
201
100
AcDbEntity
8
0
100
AcDbText
62
2
6
CONTINUOUS
10
131.6757154243
20
135.0728163386
7
TEXTSTYLE_0
40
3.5000000000
1
VMVK 6
50
90.0000000000
72
5
11
131.6757154243
21
152.1561496719
100
AcDbText
0
TEXT
5
202
100
AcDbEntity
8
0
100
AcDbText
62
2
6
CONTINUOUS
10
282.8549660948
20
173.5043054272
7
TEXTSTYLE_0
40
3.5000000000
1
RUD
50
90.0000000000
72
5
11
282.8549660948
21
182.1709720938
100
AcDbText
0
TEXT
5
203
100
AcDbEntity
8
0
100
AcDbText
62
2
6
CONTINUOUS
10
311.7593608843
20
166.3893774790
7
TEXTSTYLE_0
40
3.5000000000
1
VMVK 6
50
90.0000000000
72
5
11
311.7593608843
21
183.4727108123
100
AcDbText
0
TEXT
5
204
100
AcDbEntity
8
0
100
AcDbText
62
2
6
CONTINUOUS
10
127.1183724440
20
123.3539343894
7
TEXTSTYLE_0
40
3.5000000000
1
RUD
50
90.0000000000
72
5
11
127.1183724440
21
132.0206010560
100
AcDbText
0
LINE
5
205
100
AcDbEntity
8
0
100
AcDbLine
62
7
6
CONTINUOUS
10
0.0000000000
20
0.0000000000
11
0.0000000000
21
297.0000000000
0
LINE
5
206
100
AcDbEntity
8
0
100
AcDbLine
62
7
6
CONTINUOUS
10
0.0000000000
20
0.0000000000
11
420.0000000000
21
0.0000000000
0
LINE
5
207
100
AcDbEntity
8
0
100
AcDbLine
62
7
6
CONTINUOUS
10
0.0000000000
20
297.0000000000
11
420.0000000000
21
297.0000000000
0
LINE
5
208
100
AcDbEntity
8
0
100
AcDbLine
62
7
6
CONTINUOUS
10
420.0000000000
20
0.0000000000
11
420.0000000000
21
297.0000000000
0
LINE
5
209
100
AcDbEntity
8
0
100
AcDbLine
62
7
6
CONTINUOUS
10
105.7851114894
20
132.6642917381
11
110.5022180545
21
119.7041479651
0
LINE
5
20A
100
AcDbEntity
8
DEFAULT_2
100
AcDbLine
62
8
6
HIDDEN
10
114.0959960592
20
123.8645851676
11
108.6538879682
21
138.8166542620
0
LINE
5
20B
100
AcDbEntity
8
DEFAULT_2
100
AcDbLine
62
8
6
HIDDEN
10
107.2956360692
20
183.4837495150
11
107.2956360692
21
183.4828119798
0
LINE
5
20C
100
AcDbEntity
8
0
100
AcDbLine
62
7
6
CONTINUOUS
10
133.7339502585
20
144.8767249130
11
133.9817435399
21
144.8767249130
0
LINE
5
20D
100
AcDbEntity
8
DEFAULT_2
100
AcDbLine
62
8
6
HIDDEN
10
133.7144742812
20
144.9533206553
11
133.9620913218
21
144.9533206553
0
LINE
5
20E
100
AcDbEntity
8
DEFAULT_2
100
AcDbLine
62
8
6
HIDDEN
10
133.6573998807
20
145.1831078821
11
133.9045018948
21
145.1831078821
0
LINE
5
20F
100
AcDbEntity
8
DEFAULT_2
100
AcDbLine
62
8
6
HIDDEN
10
133.6388247039
20
145.2597036444
11
133.8857595636
21
145.2597036444
0
LINE
5
210
100
AcDbEntity
8
DEFAULT_2
100
AcDbLine
62
8
6
HIDDEN
10
133.6204735900
20
145.3362993800
11
133.8672435346
21
145.3362993800
0
LINE
5
211
100
AcDbEntity
8
DEFAULT_2
100
AcDbLine
62
8
6
HIDDEN
10
133.5844417593
20
145.4894908511
11
133.8308885412
21
145.4894908511
0
LINE
5
212
100
AcDbEntity
8
DEFAULT_2
100
AcDbLine
62
8
6
HIDDEN
10
133.5320635212
20
145.7192781114
11
133.7780420458
21
145.7192781114
0
LINE
5
213
100
AcDbEntity
8
DEFAULT_2
100
AcDbLine
62
8
6
HIDDEN
10
133.4982528324
20
145.8724695825
11
133.7439300402
21
145.8724695825
0
LINE
5
214
100
AcDbEntity
8
DEFAULT_2
100
AcDbLine
62
8
6
HIDDEN
10
133.4816787084
20
145.9490653180
11
133.7272084803
21
145.9490653180
0
LINE
5
215
100
AcDbEntity
8
DEFAULT_2
100
AcDbLine
62
8
6
HIDDEN
10
133.4491909333
20
146.1022567891
11
133.6944322236
21
146.1022567891
0
LINE
5
216
100
AcDbEntity
8
DEFAULT_2
100
AcDbLine
62
8
6
HIDDEN
10
133.4332765134
20
146.1788525247
11
133.6783767368
21
146.1788525247
0
LINE
5
217
100
AcDbEntity
8
DEFAULT_2
100
AcDbLine
62
8
6
HIDDEN
10
133.4175812144
20
146.2554483675
11
133.6625424728
21
146.2554483675
0
LINE
5
218
100
AcDbEntity
8
DEFAULT_2
100
AcDbLine
62
8
6
HIDDEN
10
133.3868466179
20
146.4086398386
11
133.6315362124
21
146.4086398386
0
LINE
5
219
100
AcDbEntity
8
DEFAULT_2
100
AcDbLine
62
8
6
HIDDEN
10
133.3569842383
20
146.5618313097
11
133.6014104575
21
146.5618313097
0
LINE
5
21A
100
AcDbEntity
8
DEFAULT_2
100
AcDbLine
62
8
6
HIDDEN
10
133.3423792547
20
146.6384270453
11
133.5866768705
21
146.6384270453
0
LINE
5
21B
100
AcDbEntity
8
DEFAULT_2
100
AcDbLine
62
8
6
HIDDEN
10
133.3279912867
20
146.7150227808
11
133.5721623430
21
146.7150227808
0
LINE
5
21C
100
AcDbEntity
8
DEFAULT_2
100
AcDbLine
62
8
6
HIDDEN
10
133.3138200002
20
146.7916185164
11
133.5578665315
21
146.7916185164
0
LINE
5
21D
100
AcDbEntity
8
DEFAULT_2
100
AcDbLine
62
8
6
HIDDEN
10
133.2998650667
20
146.8682142519
11
133.5437890988
21
146.8682142519
0
LINE
5
21E
100
AcDbEntity
8
DEFAULT_2
100
AcDbLine
62
8
6
HIDDEN
10
133.2861261633
20
146.9448099875
11
133.5299297132
21
146.9448099875
0
LINE
5
21F
100
AcDbEntity
8
DEFAULT_2
100
AcDbLine
62
8
6
HIDDEN
10
133.2726029731
20
147.0214057230
11
133.5162880490
21
147.0214057230
0
LINE
5
220
100
AcDbEntity
8
DEFAULT_2
100
AcDbLine
62
8
6
HIDDEN
10
133.2592951842
20
147.0980014586
11
133.5028637862
21
147.0980014586
0
LINE
5
221
100
AcDbEntity
8
DEFAULT_2
100
AcDbLine
62
8
6
HIDDEN
10
133.2462024907
20
147.1745971941
11
133.4896566104
21
147.1745971941
0
LINE
5
222
100
AcDbEntity
8
DEFAULT_2
100
AcDbLine
62
8
6
HIDDEN
10
133.2082120047
20
147.4043844008
11
133.4513345471
21
147.4043844008
0
LINE
5
223
100
AcDbEntity
8
DEFAULT_2
100
AcDbLine
62
8
6
HIDDEN
10
133.1959767420
20
147.4809801363
11
133.4389926893
21
147.4809801363
0
LINE
5
224
100
AcDbEntity
8
DEFAULT_2
100
AcDbLine
62
8
6
HIDDEN
10
133.1721468518
20
147.6341718220
11
133.4149554594
21
147.6341718220
0
LINE
5
225
100
AcDbEntity
8
DEFAULT_2
100
AcDbLine
62
8
6
HIDDEN
10
133.1605517160
20
147.7107675575
11
133.4032595648
21
147.7107675575
0
LINE
5
226
100
AcDbEntity
8
DEFAULT_2
100
AcDbLine
62
8
6
HIDDEN
10
133.1379997144
20
147.8639590286
11
133.3805118324
21
147.8639590286
0
LINE
5
227
100
AcDbEntity
8
DEFAULT_2
100
AcDbLine
62
8
6
HIDDEN
10
133.1162970479
20
148.0171504997
11
133.3586211055
21
148.0171504997
0
LINE
5
228
100
AcDbEntity
8
DEFAULT_2
100
AcDbLine
62
8
6
HIDDEN
10
133.1057636002
20
148.0937462353
11
133.3479964879
21
148.0937462353
0
LINE
5
229
100
AcDbEntity
8
DEFAULT_2
100
AcDbLine
62
8
6
HIDDEN
10
133.0954417588
20
148.1703419708
11
133.3375853747
21
148.1703419708
0
LINE
5
22A
100
AcDbEntity
8
DEFAULT_2
100
AcDbLine
62
8
6
HIDDEN
10
133.0657435778
20
148.4001291775
11
133.3076307080
21
148.4001291775
0
LINE
5
22B
100
AcDbEntity
8
0
100
AcDbLine
62
7
6
CONTINUOUS
10
133.0562658928
20
148.4767249130
11
133.2980712846
21
148.4767249130
0
LINE
5
22C
100
AcDbEntity
8
0
100
AcDbLine
62
7
6
CONTINUOUS
10
132.8971387959
20
150.2196335006
11
133.1375800663
21
150.2196335006
0
LINE
5
22D
100
AcDbEntity
8
DEFAULT_2
100
AcDbLine
62
8
6
HIDDEN
10
132.8926150229
20
150.2962292428
11
133.1330177391
21
150.2962292428
0
LINE
5
22E
100
AcDbEntity
8
DEFAULT_2
100
AcDbLine
62
8
6
HIDDEN
10
132.8841880406
20
150.4494207340
11
133.1245189701
21
150.4494207340
0
LINE
5
22F
100
AcDbEntity
8
DEFAULT_2
100
AcDbLine
62
8
6
HIDDEN
10
132.8730976334
20
150.6792079675
11
133.1133341531
21
150.6792079675
0
LINE
5
230
100
AcDbEntity
8
DEFAULT_2
100
AcDbLine
62
8
6
HIDDEN
10
132.8698138559
20
150.7558037031
11
133.1100224359
21
150.7558037031
0
LINE
5
231
100
AcDbEntity
8
DEFAULT_2
100
AcDbLine
62
8
6
HIDDEN
10
132.8638654003
20
150.9089952278
11
133.1040233851
21
150.9089952278
0
LINE
5
232
100
AcDbEntity
8
DEFAULT_2
100
AcDbLine
62
8
6
HIDDEN
10
132.8587419919
20
151.0621866989
11
133.0988564162
21
151.0621866989
0
LINE
5
233
100
AcDbEntity
8
DEFAULT_2
100
AcDbLine
62
8
6
HIDDEN
10
132.8564895376
20
151.1387824345
11
133.0965848160
21
151.1387824345
0
LINE
5
234
100
AcDbEntity
8
DEFAULT_2
100
AcDbLine
62
8
6
HIDDEN
10
132.8495402984
20
151.4451653767
11
133.0895765275
21
151.4451653767
0
LINE
5
235
100
AcDbEntity
8
DEFAULT_2
100
AcDbLine
62
8
6
HIDDEN
10
115.6606807282
20
144.1256063325
11
121.9893889392
21
126.7376234284
0
LINE
5
236
100
AcDbEntity
8
DEFAULT_2
100
AcDbLine
62
8
6
HIDDEN
10
132.8454875582
20
151.8281441617
11
133.0854893636
21
151.8281441617
0
LINE
5
237
100
AcDbEntity
8
DEFAULT_2
100
AcDbLine
62
8
6
HIDDEN
10
132.8453075840
20
151.9813356328
11
133.0853078610
21
151.9813356328
0
LINE
5
238
100
AcDbEntity
8
DEFAULT_2
100
AcDbLine
62
8
6
HIDDEN
10
132.8459510442
20
152.1345271039
11
133.0859567859
21
152.1345271039
0
LINE
5
239
100
AcDbEntity
8
DEFAULT_2
100
AcDbLine
62
8
6
HIDDEN
10
132.8474179944
20
152.2877185750
11
133.0874361955
21
152.2877185750
0
LINE
5
23A
100
AcDbEntity
8
DEFAULT_2
100
AcDbLine
62
8
6
HIDDEN
10
132.8484603152
20
152.3643143105
11
133.0884873700
21
152.3643143105
0
LINE
5
23B
100
AcDbEntity
8
DEFAULT_2
100
AcDbLine
62
8
6
HIDDEN
10
132.8497085618
20
152.4409100461
11
133.0897462203
21
152.4409100461
0
LINE
5
23C
100
AcDbEntity
8
DEFAULT_2
100
AcDbLine
62
8
6
HIDDEN
10
132.8511627612
20
152.5175057816
11
133.0912127741
21
152.5175057816
0
LINE
5
23D
100
AcDbEntity
8
DEFAULT_2
100
AcDbLine
62
8
6
HIDDEN
10
132.8528229451
20
152.5941015172
11
133.0928870639
21
152.5941015172
0
LINE
5
23E
100
AcDbEntity
8
DEFAULT_2
100
AcDbLine
62
8
6
HIDDEN
10
132.8546891493
20
152.6706972527
11
133.0947691266
21
152.6706972527
0
LINE
5
23F
100
AcDbEntity
8
DEFAULT_2
100
AcDbLine
62
8
6
HIDDEN
10
132.8567614144
20
152.7472929883
11
133.0968590036
21
152.7472929883
0
LINE
5
240
100
AcDbEntity
8
DEFAULT_2
100
AcDbLine
62
8
6
HIDDEN
10
126.3678346730
20
152.8771171691
11
126.3688533948
21
152.8771171691
0
LINE
5
241
100
AcDbEntity
8
DEFAULT_2
100
AcDbLine
62
8
6
HIDDEN
10
132.8615243116
20
152.9004844594
11
133.1016623900
21
152.9004844594
0
LINE
5
242
100
AcDbEntity
8
DEFAULT_2
100
AcDbLine
62
8
6
HIDDEN
10
132.8642150550
20
152.9770804095
11
133.1043760133
21
152.9770804095
0
LINE
5
243
100
AcDbEntity
8
DEFAULT_2
100
AcDbLine
62
8
6
HIDDEN
10
132.8702153933
20
153.1302718806
11
133.1104273894
21
153.1302718806
0
LINE
5
244
100
AcDbEntity
8
DEFAULT_2
100
AcDbLine
62
8
6
HIDDEN
10
132.8735251259
20
153.2068676162
11
133.1137652834
21
153.2068676162
0
LINE
5
245
100
AcDbEntity
8
DEFAULT_2
100
AcDbLine
62
8
6
HIDDEN
10
132.8770413287
20
153.2834633517
11
133.1173114115
21
153.2834633517
0
LINE
5
246
100
AcDbEntity
8
DEFAULT_2
100
AcDbLine
62
8
6
HIDDEN
10
132.8807640781
20
153.3600590873
11
133.1210658523
21
153.3600590873
0
LINE
5
247
100
AcDbEntity
8
DEFAULT_2
100
AcDbLine
62
8
6
HIDDEN
10
132.8846934551
20
153.4366548228
11
133.1250286889
21
153.4366548228
0
LINE
5
248
100
AcDbEntity
8
DEFAULT_2
100
AcDbLine
62
8
6
HIDDEN
10
132.8888295455
20
153.5132505584
11
133.1292000091
21
153.5132505584
0
LINE
5
249
100
AcDbEntity
8
DEFAULT_2
100
AcDbLine
62
8
6
HIDDEN
10
132.8931724393
20
153.5898462939
11
133.1335799054
21
153.5898462939
0
LINE
5
24A
100
AcDbEntity
8
DEFAULT_2
100
AcDbLine
62
8
6
HIDDEN
10
132.9024790206
20
153.7430377650
11
133.1429658195
21
153.7430377650
0
LINE
5
24B
100
AcDbEntity
8
0
100
AcDbLine
62
7
6
CONTINUOUS
10
132.9074429113
20
153.8196335006
11
133.1479720458
21
153.8196335006
0
LINE
5
24C
100
AcDbEntity
8
0
100
AcDbLine
62
7
6
CONTINUOUS
10
118.3956360692
20
152.8648138199
11
118.3956360692
21
170.2454602802
0
LINE
5
24D
100
AcDbEntity
8
DEFAULT_1
100
AcDbLine
62
2
6
CENTER
10
118.3956360692
20
111.1771171691
11
118.3956360692
21
152.8648138199
0
LINE
5
24E
100
AcDbEntity
8
DEFAULT_1
100
AcDbLine
62
2
6
CENTER
10
118.3956360692
20
170.2454602802
11
118.3956360692
21
197.5771171691
0
LINE
5
24F
100
AcDbEntity
8
DEFAULT_2
100
AcDbLine
62
8
6
HIDDEN
10
121.7319609938
20
163.8271171691
11
121.7319609938
21
163.5271171691
0
LINE
5
250
100
AcDbEntity
8
DEFAULT_2
100
AcDbLine
62
8
6
HIDDEN
10
126.9303490952
20
160.2271171691
11
134.0664183835
21
160.2271171691
0
LINE
5
251
100
AcDbEntity
8
DEFAULT_2
100
AcDbLine
62
8
6
HIDDEN
10
122.8636643810
20
147.1412457150
11
122.8632934777
21
147.1422647634
0
LINE
5
252
100
AcDbEntity
8
DEFAULT_2
100
AcDbLine
62
8
6
HIDDEN
10
133.8992249701
20
167.1271171691
11
125.6816996830
21
167.1271171691
0
LINE
5
253
100
AcDbEntity
8
0
100
AcDbLine
62
7
6
CONTINUOUS
10
113.3984718393
20
179.3540878950
11
98.1837372441
21
189.0469428316
0
LINE
5
254
100
AcDbEntity
8
0
100
AcDbLine
62
7
6
CONTINUOUS
10
132.7612754917
20
130.6442942763
11
125.6680493490
21
118.3733087663
0
LINE
5
255
100
AcDbEntity
8
DEFAULT_2
100
AcDbLine
62
8
6
HIDDEN
10
110.5956360692
20
182.9771171691
11
114.7248011069
21
182.9771171691
0
LINE
5
256
100
AcDbEntity
8
DEFAULT_2
100
AcDbLine
62
8
6
HIDDEN
10
106.9162015538
20
183.4837495164
11
107.2956360692
21
183.4837495164
0
LINE
5
257
100
AcDbEntity
8
0
100
AcDbLine
62
7
6
CONTINUOUS
10
100.3909131701
20
194.5174649671
11
114.4554914276
21
191.6700734518
0
LINE
5
258
100
AcDbEntity
8
0
100
AcDbLine
62
7
6
CONTINUOUS
10
281.5749387780
20
191.2911091764
11
284.1796695793
21
193.0935638049
0
LINE
5
259
100
AcDbEntity
8
0
100
AcDbLine
62
7
6
CONTINUOUS
10
285.0458568990
20
114.1771171691
11
288.3033316109
21
114.1771171691
0
LINE
5
25A
100
AcDbEntity
8
0
100
AcDbLine
62
7
6
CONTINUOUS
10
302.4509283749
20
114.1771171691
11
305.7084030868
21
114.1771171691
0
LINE
5
25B
100
AcDbEntity
8
0
100
AcDbLine
62
7
6
CONTINUOUS
10
278.6834498431
20
187.7524526529
11
278.6833675632
21
187.7522994597
0
LINE
5
25C
100
AcDbEntity
8
0
100
AcDbLine
62
7
6
CONTINUOUS
10
295.5271299929
20
126.5114556966
11
295.2271299929
21
126.5114556966
0
LINE
5
25D
100
AcDbEntity
8
0
100
AcDbLine
62
7
6
CONTINUOUS
10
298.8271299929
20
133.1167374072
11
291.9271299929
21
133.1167374072
0
LINE
5
25E
100
AcDbEntity
8
0
100
AcDbLine
62
7
6
CONTINUOUS
10
277.6771299943
20
183.1518714824
11
277.6771299929
21
163.5400472870
0
LINE
5
25F
100
AcDbEntity
8
DEFAULT_2
100
AcDbLine
62
8
6
HIDDEN
10
295.5271299929
20
135.0161258575
11
295.2271299929
21
135.0161258575
0
LINE
5
260
100
AcDbEntity
8
0
100
AcDbLine
62
7
6
CONTINUOUS
10
291.9271299929
20
138.8166542620
11
288.1771299929
21
138.8166542620
0
LINE
5
261
100
AcDbEntity
8
0
100
AcDbLine
62
7
6
CONTINUOUS
10
298.8271299929
20
138.8166542620
11
302.5771299929
21
138.8166542620
0
LINE
5
262
100
AcDbEntity
8
DEFAULT_2
100
AcDbLine
62
8
6
HIDDEN
10
295.5271299929
20
140.0590456448
11
295.2271299929
21
140.0590456448
0
LINE
5
263
100
AcDbEntity
8
0
100
AcDbLine
62
7
6
CONTINUOUS
10
279.4840706034
20
149.8438750336
11
277.7939131680
21
161.8699700755
0
LINE
5
264
100
AcDbEntity
8
0
100
AcDbLine
62
7
6
CONTINUOUS
10
283.5792853448
20
166.6771171691
11
283.5792853448
21
161.8771171691
0
LINE
5
265
100
AcDbEntity
8
DEFAULT_2
100
AcDbLine
62
8
6
HIDDEN
10
283.9771299929
20
131.2395628422
11
283.9771299929
21
140.8546755161
0
LINE
5
266
100
AcDbEntity
8
0
100
AcDbLine
62
7
6
CONTINUOUS
10
298.0358629200
20
140.3167374072
11
292.7183970008
21
140.3167374072
0
LINE
5
267
100
AcDbEntity
8
0
100
AcDbLine
62
7
6
CONTINUOUS
10
284.7271299929
20
163.8271171691
11
284.7271299929
21
163.5271171691
0
LINE
5
268
100
AcDbEntity
8
0
100
AcDbLine
62
7
6
CONTINUOUS
10
288.3033316109
20
132.6642917381
11
288.3033316109
21
114.1771171691
0
LINE
5
269
100
AcDbEntity
8
0
100
AcDbLine
62
7
6
CONTINUOUS
10
291.9271299929
20
182.9737513994
11
291.9271299929
21
168.9271171691
0
LINE
5
26A
100
AcDbEntity
8
0
100
AcDbLine
62
7
6
CONTINUOUS
10
291.9271299929
20
158.4271171691
11
291.9271299929
21
156.1771171691
0
LINE
5
26B
100
AcDbEntity
8
0
100
AcDbLine
62
7
6
CONTINUOUS
10
291.9271299929
20
115.9771539926
11
291.9271299929
21
145.0372097983
0
LINE
5
26C
100
AcDbEntity
8
DEFAULT_2
100
AcDbLine
62
8
6
HIDDEN
10
291.9271299929
20
182.9737513994
11
291.9271299929
21
192.4515060122
0
LINE
5
26D
100
AcDbEntity
8
DEFAULT_1
100
AcDbLine
62
2
6
CENTER
10
295.3771299929
20
111.1771171691
11
295.3771299929
21
197.5771171691
0
LINE
5
26E
100
AcDbEntity
8
0
100
AcDbLine
62
7
6
CONTINUOUS
10
295.2271299929
20
152.8771171691
11
295.5271299929
21
152.8771171691
0
LINE
5
26F
100
AcDbEntity
8
0
100
AcDbLine
62
7
6
CONTINUOUS
10
298.8271299929
20
182.9737513994
11
298.8271299929
21
168.9271171691
0
LINE
5
270
100
AcDbEntity
8
0
100
AcDbLine
62
7
6
CONTINUOUS
10
298.8271299929
20
158.4271171691
11
298.8271299929
21
156.1771171691
0
LINE
5
271
100
AcDbEntity
8
0
100
AcDbLine
62
7
6
CONTINUOUS
10
298.8271299929
20
115.9771539926
11
298.8271299929
21
145.0372097983
0
LINE
5
272
100
AcDbEntity
8
DEFAULT_2
100
AcDbLine
62
8
6
HIDDEN
10
298.8271299929
20
182.9737513994
11
298.8271299929
21
192.4515060122
0
LINE
5
273
100
AcDbEntity
8
DEFAULT_2
100
AcDbLine
62
8
6
HIDDEN
10
288.0271299929
20
160.2271171691
11
287.8213770451
21
160.2271171691
0
LINE
5
274
100
AcDbEntity
8
0
100
AcDbLine
62
7
6
CONTINUOUS
10
290.1271299929
20
160.2271171691
11
288.0271299929
21
160.2271171691
0
LINE
5
275
100
AcDbEntity
8
0
100
AcDbLine
62
7
6
CONTINUOUS
10
300.6271299929
20
160.2271171691
11
302.7271299929
21
160.2271171691
0
LINE
5
276
100
AcDbEntity
8
DEFAULT_2
100
AcDbLine
62
8
6
HIDDEN
10
302.7271299929
20
160.2271171691
11
302.9328829407
21
160.2271171691
0
LINE
5
277
100
AcDbEntity
8
0
100
AcDbLine
62
7
6
CONTINUOUS
10
302.4509283749
20
132.6642917381
11
302.4509283749
21
114.1771171691
0
LINE
5
278
100
AcDbEntity
8
0
100
AcDbLine
62
7
6
CONTINUOUS
10
306.0271299929
20
163.8271171691
11
306.0271299929
21
163.5271171691
0
LINE
5
279
100
AcDbEntity
8
DEFAULT_2
100
AcDbLine
62
8
6
HIDDEN
10
306.7771299929
20
140.8546755161
11
306.7771299929
21
131.2395628422
0
LINE
5
27A
100
AcDbEntity
8
0
100
AcDbLine
62
7
6
CONTINUOUS
10
307.1749746410
20
166.6771171691
11
307.1749746410
21
161.8771171691
0
LINE
5
27B
100
AcDbEntity
8
DEFAULT_2
100
AcDbLine
62
8
6
HIDDEN
10
308.4271299929
20
123.8059345236
11
308.4271299929
21
140.9591261630
0
LINE
5
27C
100
AcDbEntity
8
0
100
AcDbLine
62
7
6
CONTINUOUS
10
302.7271299929
20
167.1271171691
11
300.6271299929
21
167.1271171691
0
LINE
5
27D
100
AcDbEntity
8
0
100
AcDbLine
62
7
6
CONTINUOUS
10
288.0271299929
20
167.1271171691
11
290.1271299929
21
167.1271171691
0
LINE
5
27E
100
AcDbEntity
8
0
100
AcDbLine
62
7
6
CONTINUOUS
10
313.0771299929
20
183.1518122238
11
313.0771299929
21
163.5400472870
0
LINE
5
27F
100
AcDbEntity
8
0
100
AcDbLine
62
7
6
CONTINUOUS
10
311.2701893824
20
149.8438750336
11
312.9603468178
21
161.8699700755
0
LINE
5
280
100
AcDbEntity
8
0
100
AcDbLine
62
7
6
CONTINUOUS
10
298.8271299929
20
169.8271171691
11
291.9271299929
21
169.8271171691
0
LINE
5
281
100
AcDbEntity
8
0
100
AcDbLine
62
7
6
CONTINUOUS
10
298.8271299929
20
173.4271171691
11
291.9271299929
21
173.4271171691
0
LINE
5
282
100
AcDbEntity
8
0
100
AcDbLine
62
7
6
CONTINUOUS
10
312.0708110845
20
187.7524508996
11
312.0708924226
21
187.7522994597
0
LINE
5
283
100
AcDbEntity
8
0
100
AcDbLine
62
7
6
CONTINUOUS
10
306.5745904065
20
193.0935638049
11
309.1789770148
21
191.2913474054
0
LINE
5
284
100
AcDbEntity
8
0
100
AcDbLine
62
7
6
CONTINUOUS
10
290.0785904681
20
194.5573678131
11
290.0785333860
21
194.5573631978
0
LINE
5
285
100
AcDbEntity
8
DEFAULT_2
100
AcDbLine
62
8
6
HIDDEN
10
295.5271299929
20
193.1195951527
11
295.2271299929
21
193.1195951527
0
LINE
5
286
100
AcDbEntity
8
0
100
AcDbLine
62
7
6
CONTINUOUS
10
290.5820552405
20
194.5771171608
11
300.1722047453
21
194.5771171608
0
LINE
5
287
100
AcDbEntity
8
0
100
AcDbLine
62
7
6
CONTINUOUS
10
300.6756695178
20
194.5573678131
11
300.6757265998
21
194.5573631978
0
ARC
5
288
100
AcDbEntity
8
DEFAULT_2
100
AcDbCircle
62
8
6
HIDDEN
10
105.1956360692
20
161.8771171691
40
23.0066323473
100
AcDbArc
50
320.1706371716
51
336.9712287216
0
ARC
5
289
100
AcDbEntity
8
DEFAULT_2
100
AcDbCircle
62
8
6
HIDDEN
10
109.3956360692
20
166.6771171691
40
18.3000000000
100
AcDbArc
50
7.0624335538
51
48.8584451028
0
ARC
5
28A
100
AcDbEntity
8
DEFAULT_2
100
AcDbCircle
62
8
6
HIDDEN
10
114.7248011069
20
172.7771171691
40
10.2000000000
100
AcDbArc
50
48.8584451028
51
90.0000000000
0
ARC
5
28B
100
AcDbEntity
8
DEFAULT_2
100
AcDbCircle
62
8
6
HIDDEN
10
105.1956360692
20
161.8771171691
40
22.5000000000
100
AcDbArc
50
345.3251502571
51
351.1798521708
0
ARC
5
28C
100
AcDbEntity
8
DEFAULT_2
100
AcDbCircle
62
8
6
HIDDEN
10
105.1956360692
20
161.8771171691
40
22.5000000000
100
AcDbArc
50
299.6264839068
51
311.5445457223
0
CIRCLE
5
28D
100
AcDbEntity
8
0
100
AcDbCircle
62
7
6
CONTINUOUS
10
129.1956360692
20
171.6271171691
40
1.8000000000
0
ARC
5
28E
100
AcDbEntity
8
0
100
AcDbCircle
62
7
6
CONTINUOUS
10
161.3452749744
20
151.9382224476
40
28.2600000000
100
AcDbArc
50
176.1827069226
51
183.4865070150
0
ARC
5
28F
100
AcDbEntity
8
0
100
AcDbCircle
62
7
6
CONTINUOUS
10
103.3956360692
20
152.8648138199
40
15.0000000000
100
AcDbArc
50
290.3946696523
51
360.0000000000
0
ARC
5
290
100
AcDbEntity
8
0
100
AcDbCircle
62
7
6
CONTINUOUS
10
107.5956360692
20
170.2454602802
40
10.8000000000
100
AcDbArc
50
0.0000000000
51
57.5000000000
0
ARC
5
291
100
AcDbEntity
8
0
100
AcDbCircle
62
7
6
CONTINUOUS
10
110.2956360692
20
134.3059884261
40
4.8000000000
100
AcDbArc
50
110.3946696523
51
200.0000000000
0
ARC
5
292
100
AcDbEntity
8
0
100
AcDbCircle
62
7
6
CONTINUOUS
10
109.3956360692
20
166.6771171691
40
25.5000000000
100
AcDbArc
50
344.1605622604
51
78.5550866460
0
ARC
5
293
100
AcDbEntity
8
0
100
AcDbCircle
62
7
6
CONTINUOUS
10
118.3956360692
20
122.5771171691
40
8.4000000000
100
AcDbArc
50
200.0000000000
51
329.9700000000
0
ARC
5
294
100
AcDbEntity
8
0
100
AcDbCircle
62
7
6
CONTINUOUS
10
161.3452749744
20
151.9382224476
40
28.2600000000
100
AcDbArc
50
187.0356867147
51
194.4701783445
0
CIRCLE
5
295
100
AcDbEntity
8
0
100
AcDbCircle
62
7
6
CONTINUOUS
10
124.1038484579
20
136.7167374072
40
3.6000000000
0
ARC
5
296
100
AcDbEntity
8
0
100
AcDbCircle
62
7
6
CONTINUOUS
10
118.9956360692
20
138.6015030387
40
15.9000000000
100
AcDbArc
50
329.9700000000
51
17.4802217829
0
ARC
5
297
100
AcDbEntity
8
0
100
AcDbCircle
62
7
6
CONTINUOUS
10
161.3452749744
20
151.9382224476
40
28.5000000000
100
AcDbArc
50
164.1605622604
51
197.4802217829
0
ARC
5
298
100
AcDbEntity
8
0
100
AcDbCircle
62
7
6
CONTINUOUS
10
99.7956360692
20
191.5771171691
40
3.0000000000
100
AcDbArc
50
78.5550866460
51
237.5000000000
0
ARC
5
299
100
AcDbEntity
8
0
100
AcDbCircle
62
7
6
CONTINUOUS
10
295.3771299929
20
104.4837495164
40
12.0000000000
100
AcDbArc
50
106.7083437157
51
126.1203429718
0
ARC
5
29A
100
AcDbEntity
8
0
100
AcDbCircle
62
7
6
CONTINUOUS
10
302.7271299929
20
163.8271171691
40
3.3000000000
100
AcDbArc
50
0.0000000000
51
90.0000000000
0
ARC
5
29B
100
AcDbEntity
8
0
100
AcDbCircle
62
7
6
CONTINUOUS
10
302.7271299929
20
163.5271171691
40
3.3000000000
100
AcDbArc
50
270.0000000000
51
360.0000000000
0
ARC
5
29C
100
AcDbEntity
8
0
100
AcDbCircle
62
7
6
CONTINUOUS
10
295.5271299929
20
156.1771171691
40
3.3000000000
100
AcDbArc
50
270.0000000000
51
360.0000000000
0
ARC
5
29D
100
AcDbEntity
8
0
100
AcDbCircle
62
7
6
CONTINUOUS
10
300.6271299929
20
168.9271171691
40
1.8000000000
100
AcDbArc
50
180.0000000000
51
270.0000000000
0
ARC
5
29E
100
AcDbEntity
8
0
100
AcDbCircle
62
7
6
CONTINUOUS
10
300.6271299929
20
158.4271171691
40
1.8000000000
100
AcDbArc
50
90.0000000000
51
180.0000000000
0
ARC
5
29F
100
AcDbEntity
8
0
100
AcDbCircle
62
7
6
CONTINUOUS
10
295.3771299929
20
104.4837495164
40
12.0000000000
100
AcDbArc
50
53.8796570282
51
73.2916562843
0
ARC
5
2A0
100
AcDbEntity
8
0
100
AcDbCircle
62
7
6
CONTINUOUS
10
325.8271299929
20
147.7980304495
40
14.7000000000
100
AcDbArc
50
172.0000000000
51
193.2437498085
0
ARC
5
2A1
100
AcDbEntity
8
0
100
AcDbCircle
62
7
6
CONTINUOUS
10
270.9271299929
20
134.8771171691
40
41.7000000000
100
AcDbArc
50
332.2477798524
51
13.2437498085
0
ARC
5
2A2
100
AcDbEntity
8
0
100
AcDbCircle
62
7
6
CONTINUOUS
10
301.0771299929
20
163.5400472870
40
12.0000000000
100
AcDbArc
50
352.0000000000
51
360.0000000000
0
ARC
5
2A3
100
AcDbEntity
8
0
100
AcDbCircle
62
7
6
CONTINUOUS
10
295.3771299929
20
171.4837495164
40
12.0000000000
100
AcDbArc
50
34.9501112651
51
145.0498887349
0
ARC
5
2A4
100
AcDbEntity
8
0
100
AcDbCircle
62
7
6
CONTINUOUS
10
319.8271299929
20
134.8771171691
40
41.7000000000
100
AcDbArc
50
166.7562501915
51
207.7522201475
0
ARC
5
2A5
100
AcDbEntity
8
0
100
AcDbCircle
62
7
6
CONTINUOUS
10
264.9271299929
20
147.7980304495
40
14.7000000000
100
AcDbArc
50
346.7562501915
51
8.0000000000
0
ARC
5
2A6
100
AcDbEntity
8
0
100
AcDbCircle
62
7
6
CONTINUOUS
10
288.0271299929
20
163.8271171691
40
3.3000000000
100
AcDbArc
50
90.0000000000
51
180.0000000000
0
ARC
5
2A7
100
AcDbEntity
8
0
100
AcDbCircle
62
7
6
CONTINUOUS
10
288.0271299929
20
163.5271171691
40
3.3000000000
100
AcDbArc
50
180.0000000000
51
270.0000000000
0
ARC
5
2A8
100
AcDbEntity
8
0
100
AcDbCircle
62
7
6
CONTINUOUS
10
295.2271299929
20
156.1771171691
40
3.3000000000
100
AcDbArc
50
180.0000000000
51
270.0000000000
0
ARC
5
2A9
100
AcDbEntity
8
0
100
AcDbCircle
62
7
6
CONTINUOUS
10
290.1271299929
20
168.9271171691
40
1.8000000000
100
AcDbArc
50
270.0000000000
51
360.0000000000
0
ARC
5
2AA
100
AcDbEntity
8
0
100
AcDbCircle
62
7
6
CONTINUOUS
10
290.1271299929
20
158.4271171691
40
1.8000000000
100
AcDbArc
50
0.0000000000
51
90.0000000000
0
ARC
5
2AB
100
AcDbEntity
8
0
100
AcDbCircle
62
7
6
CONTINUOUS
10
289.6771299929
20
163.5400472870
40
12.0000000000
100
AcDbArc
50
180.0000000000
51
188.0000000000
0
SPLINE
5
2AC
100
AcDbEntity
8
DEFAULT_2
100
AcDbSpline
62
8
6
HIDDEN
70
0
71
3
72
9
73
5
74
3
42
0.0000001000
43
0.0000001000
44
0.0000000001
40
0.0000000000
40
0.0000000000
40
0.0000000000
40
0.0000000000
40
0.5077812099
40
1.0000000000
40
1.0000000000
40
1.0000000000
40
1.0000000000
10
134.0681307321
20
160.2336703349
30
0.0000000000
10
134.0402978849
20
160.2315038969
30
0.0000000000
10
133.9854014087
20
160.2282434333
30
0.0000000000
10
133.9304181065
20
160.2271171691
30
0.0000000000
10
133.9033566696
20
160.2271171691
30
0.0000000000
11
134.0681307321
21
160.2336703349
31
0.0000000000
11
133.9845246993
21
160.2287429783
31
0.0000000000
11
133.9033566696
21
160.2271171691
31
0.0000000000
0
SPLINE
5
2AD
100
AcDbEntity
8
DEFAULT_2
100
AcDbSpline
62
8
6
HIDDEN
70
0
71
3
72
18
73
14
74
12
42
0.0000001000
43
0.0000001000
44
0.0000000001
40
0.0000000000
40
0.0000000000
40
0.0000000000
40
0.0000000000
40
0.0101278048
40
0.0402931232
40
0.0900403019
40
0.1581919203
40
0.2436231594
40
0.3443035345
40
0.4585934422
40
0.5835594338
40
0.7171817386
40
0.8567059890
40
1.0000000000
40
1.0000000000
40
1.0000000000
40
1.0000000000
10
126.3678346730
20
152.8771171691
30
0.0000000000
10
126.3564988344
20
152.8771171691
30
0.0000000000
10
126.3782657149
20
152.9495618014
30
0.0000000000
10
126.3662763582
20
153.0238639542
30
0.0000000000
10
126.3940040653
20
153.2034678423
30
0.0000000000
10
126.4160986833
20
153.4231424783
30
0.0000000000
10
126.4560563756
20
153.7075540241
30
0.0000000000
10
126.5060647832
20
154.0391519708
30
0.0000000000
10
126.5701471759
20
154.4145207865
30
0.0000000000
10
126.6477788669
20
154.8245240015
30
0.0000000000
10
126.7392013637
20
155.2607016568
30
0.0000000000
10
126.8438339273
20
155.7149410892
30
0.0000000000
10
126.9210334972
20
156.0219631526
30
0.0000000000
10
126.9616646458
20
156.1771171691
30
0.0000000000
11
126.3678346730
21
152.8771171691
31
0.0000000000
11
126.3657270186
21
152.9110593099
31
0.0000000000
11
126.3725323853
21
153.0121206532
31
0.0000000000
11
126.3889075339
21
153.1783589994
31
0.0000000000
11
126.4156873566
21
153.4056286818
31
0.0000000000
11
126.4540254898
21
153.6899194384
31
0.0000000000
11
126.5048384859
21
154.0241471982
31
0.0000000000
11
126.5692091832
21
154.4024769707
31
0.0000000000
11
126.6472716901
21
154.8147673250
31
0.0000000000
11
126.7392589396
21
155.2539185398
31
0.0000000000
11
126.8443811612
21
155.7104722123
31
0.0000000000
11
126.9616646458
21
156.1771171691
31
0.0000000000
0
SPLINE
5
2AE
100
AcDbEntity
8
DEFAULT_2
100
AcDbSpline
62
8
6
HIDDEN
70
0
71
3
72
17
73
13
74
11
42
0.0000001000
43
0.0000001000
44
0.0000000001
40
0.0000000000
40
0.0000000000
40
0.0000000000
40
0.0000000000
40
0.1902017168
40
0.3733358318
40
0.5324982994
40
0.6617301078
40
0.7655508081
40
0.8482658909
40
0.9134416139
40
0.9614129900
40
0.9904721919
40
1.0000000000
40
1.0000000000
40
1.0000000000
40
1.0000000000
10
120.1176841773
20
145.0372097983
30
0.0000000000
10
120.2820638160
20
145.1828686102
30
0.0000000000
10
120.6079480460
20
145.4651342879
30
0.0000000000
10
121.0821382238
20
145.8567459802
30
0.0000000000
10
121.5097552706
20
146.1936297150
30
0.0000000000
10
121.8714093719
20
146.4669839771
30
0.0000000000
10
122.1656729598
20
146.6804399969
30
0.0000000000
10
122.4050654929
20
146.8504417316
30
0.0000000000
10
122.5878733622
20
146.9703510519
30
0.0000000000
10
122.7350328185
20
147.0773943574
30
0.0000000000
10
122.8024892701
20
147.0998261432
30
0.0000000000
10
122.8595305914
20
147.1526032085
30
0.0000000000
10
122.8632934777
20
147.1422647634
30
0.0000000000
11
120.1176841773
21
145.0372097983
31
0.0000000000
11
120.6158230460
21
145.4684777701
31
0.0000000000
11
121.1050892767
21
145.8723203836
31
0.0000000000
11
121.5382343995
21
146.2134764400
31
0.0000000000
11
121.8955440479
21
146.4831922875
31
0.0000000000
11
122.1864483995
21
146.6946720897
31
0.0000000000
11
122.4209271702
21
146.8593651009
31
0.0000000000
11
122.6077409363
21
146.9861592979
31
0.0000000000
11
122.7469703726
21
147.0768846784
31
0.0000000000
11
122.8330058917
21
147.1291480952
31
0.0000000000
11
122.8632934777
21
147.1422647634
31
0.0000000000
0
SPLINE
5
2AF
100
AcDbEntity
8
DEFAULT_2
100
AcDbSpline
62
8
6
HIDDEN
70
0
71
3
72
9
73
5
74
3
42
0.0000001000
43
0.0000001000
44
0.0000000001
40
0.0000000000
40
0.0000000000
40
0.0000000000
40
0.0000000000
40
0.5024489875
40
1.0000000000
40
1.0000000000
40
1.0000000000
40
1.0000000000
10
115.6349884156
20
144.1931211282
30
0.0000000000
10
115.6394531892
20
144.1818760923
30
0.0000000000
10
115.6481806353
20
144.1594323328
30
0.0000000000
10
115.6565829762
20
144.1368648134
30
0.0000000000
10
115.6606807282
20
144.1256063325
30
0.0000000000
11
115.6349884156
21
144.1931211282
31
0.0000000000
11
115.6481413077
21
144.1592911600
31
0.0000000000
11
115.6606807282
21
144.1256063325
31
0.0000000000
0
SPLINE
5
2B0
100
AcDbEntity
8
DEFAULT_2
100
AcDbSpline
62
8
6
HIDDEN
70
0
71
3
72
25
73
21
74
19
42
0.0000001000
43
0.0000001000
44
0.0000000001
40
0.0000000000
40
0.0000000000
40
0.0000000000
40
0.0000000000
40
0.0632498841
40
0.1231076187
40
0.1805065327
40
0.2360844694
40
0.2903068086
40
0.3435339546
40
0.3960604100
40
0.4481393773
40
0.5000000946
40
0.5518598241
40
0.6039377768
40
0.6564632617
40
0.7096905701
40
0.7639164159
40
0.8194969605
40
0.8768955226
40
0.9367516478
40
1.0000000000
40
1.0000000000
40
1.0000000000
40
1.0000000000
10
121.9894140738
20
126.7375543715
30
0.0000000000
10
122.0886583549
20
126.4648829503
30
0.0000000000
10
122.2396441873
20
125.9174260518
30
0.0000000000
10
122.3223348095
20
125.0895902586
30
0.0000000000
10
122.2647840812
20
124.2947649074
30
0.0000000000
10
122.0768950994
20
123.5470571609
30
0.0000000000
10
121.7692408870
20
122.8610997882
30
0.0000000000
10
121.3537386339
20
122.2514680332
30
0.0000000000
10
120.8440074135
20
121.7318253564
30
0.0000000000
10
120.2553838666
20
121.3143658132
30
0.0000000000
10
119.6047647154
20
121.0093555479
30
0.0000000000
10
118.9103095905
20
120.8247975598
30
0.0000000000
10
118.1910740411
20
120.7662280923
30
0.0000000000
10
117.4665853565
20
120.8366420795
30
0.0000000000
10
116.7564146342
20
121.0365643567
30
0.0000000000
10
116.0797854832
20
121.3642928675
30
0.0000000000
10
115.4552182405
20
121.8163176834
30
0.0000000000
10
114.9002316521
20
122.3882039594
30
0.0000000000
10
114.4314674958
20
123.0755050723
30
0.0000000000
10
114.1952379365
20
123.5919203506
30
0.0000000000
10
114.0959960592
20
123.8645851676
30
0.0000000000
11
121.9894140738
21
126.7375543715
31
0.0000000000
11
122.2188359089
21
125.8978176254
31
0.0000000000
11
122.2992884512
21
125.0779292165
31
0.0000000000
11
122.2411175022
21
124.2900885666
31
0.0000000000
11
122.0538960765
21
123.5484313668
31
0.0000000000
11
121.7479315648
21
122.8677710594
31
0.0000000000
11
121.3349797632
21
122.2626858801
31
0.0000000000
11
120.8285194013
21
121.7468187626
31
0.0000000000
11
120.2437593515
21
121.3323192146
31
0.0000000000
11
119.5974639612
21
121.0294009895
31
0.0000000000
11
118.9076742170
21
120.8460219121
31
0.0000000000
11
118.1933010344
21
120.7876684127
31
0.0000000000
11
117.4737496510
21
120.8572922153
31
0.0000000000
11
116.7684650269
21
121.0553683079
31
0.0000000000
11
116.0965182242
21
121.3801332450
31
0.0000000000
11
115.4763442047
21
121.8279572757
31
0.0000000000
11
114.9253775023
21
122.3940887009
31
0.0000000000
11
114.4600106701
21
123.0738583899
31
0.0000000000
11
114.0959960592
21
123.8645851676
31
0.0000000000
0
SPLINE
5
2B1
100
AcDbEntity
8
DEFAULT_2
100
AcDbSpline
62
8
6
HIDDEN
70
0
71
3
72
18
73
14
74
12
42
0.0000001000
43
0.0000001000
44
0.0000000001
40
0.0000000000
40
0.0000000000
40
0.0000000000
40
0.0000000000
40
0.1408997892
40
0.2789015390
40
0.4113906816
40
0.5354292915
40
0.6491183711
40
0.7499073869
40
0.8362186709
40
0.9058202307
40
0.9572346863
40
0.9888995625
40
1.0000000000
40
1.0000000000
40
1.0000000000
40
1.0000000000
10
110.5956360692
20
182.9771171691
30
0.0000000000
10
110.4381979300
20
182.9771171691
30
0.0000000000
10
110.1265168227
20
182.9838175291
30
0.0000000000
10
109.6676552946
20
183.0131719542
30
0.0000000000
10
109.2290865521
20
183.0591617053
30
0.0000000000
10
108.8195813693
20
183.1179300769
30
0.0000000000
10
108.4469532958
20
183.1844280405
30
0.0000000000
10
108.1187357645
20
183.2541795094
30
0.0000000000
10
107.8377557602
20
183.3199724185
30
0.0000000000
10
107.6192713703
20
183.3822918127
30
0.0000000000
10
107.4425361917
20
183.4229828563
30
0.0000000000
10
107.3656028774
20
183.4672014875
30
0.0000000000
10
107.2956360692
20
183.4704086097
30
0.0000000000
10
107.2956360692
20
183.4828119798
30
0.0000000000
11
110.5956360692
21
182.9771171691
31
0.0000000000
11
110.1234304899
21
182.9872561947
31
0.0000000000
11
109.6617717663
21
183.0167487216
31
0.0000000000
11
109.2200692267
21
183.0630324541
31
0.0000000000
11
108.8084801169
21
183.1220128085
31
0.0000000000
11
108.4333306495
21
183.1890987916
31
0.0000000000
11
108.1027537932
21
183.2588619266
31
0.0000000000
11
107.8214133797
21
183.3263710469
31
0.0000000000
11
107.5959530541
21
183.3863945555
31
0.0000000000
11
107.4305146591
21
183.4347055318
31
0.0000000000
11
107.3295978067
21
183.4676069583
31
0.0000000000
11
107.2956360692
21
183.4828119798
31
0.0000000000
0
SPLINE
5
2B2
100
AcDbEntity
8
DEFAULT_2
100
AcDbSpline
62
8
6
HIDDEN
70
0
71
3
72
8
73
4
74
2
42
0.0000001000
43
0.0000001000
44
0.0000000001
40
0.0000000000
40
0.0000000000
40
0.0000000000
40
0.0000000000
40
1.0000000000
40
1.0000000000
40
1.0000000000
40
1.0000000000
10
134.0681307321
20
160.2336703349
30
0.0000000000
10
134.0402978849
20
160.2315038969
30
0.0000000000
10
134.0124224858
20
160.2298482948
30
0.0000000000
10
133.9845246993
20
160.2287429783
30
0.0000000000
11
134.0681307321
21
160.2336703349
31
0.0000000000
11
133.9845246993
21
160.2287429783
31
0.0000000000
0
SPLINE
5
2B3
100
AcDbEntity
8
DEFAULT_2
100
AcDbSpline
62
8
6
HIDDEN
70
0
71
3
72
8
73
4
74
2
42
0.0000001000
43
0.0000001000
44
0.0000000001
40
0.0000000000
40
0.0000000000
40
0.0000000000
40
0.0000000000
40
1.0000000000
40
1.0000000000
40
1.0000000000
40
1.0000000000
10
133.9845246993
20
160.2287429783
30
0.0000000000
10
133.9574819210
20
160.2276715375
30
0.0000000000
10
133.9304181065
20
160.2271171691
30
0.0000000000
10
133.9033566696
20
160.2271171691
30
0.0000000000
11
133.9845246993
21
160.2287429783
31
0.0000000000
11
133.9033566696
21
160.2271171691
31
0.0000000000
0
SPLINE
5
2B4
100
AcDbEntity
8
DEFAULT_2
100
AcDbSpline
62
8
6
HIDDEN
70
0
71
3
72
15
73
11
74
9
42
0.0000001000
43
0.0000001000
44
0.0000000001
40
0.0000000000
40
0.0000000000
40
0.0000000000
40
0.0000000000
40
0.1717610861
40
0.3346882361
40
0.4853977242
40
0.6207787563
40
0.7381321757
40
0.8366110763
40
0.9203043291
40
1.0000000000
40
1.0000000000
40
1.0000000000
40
1.0000000000
10
127.4295628478
20
158.4271171691
30
0.0000000000
10
127.4475871537
20
158.5432769025
30
0.0000000000
10
127.4745337776
20
158.7709925929
30
0.0000000000
10
127.4880830451
20
159.1032676755
30
0.0000000000
10
127.4731869570
20
159.4107008697
30
0.0000000000
10
127.4285996337
20
159.6839966586
30
0.0000000000
10
127.3528588115
20
159.9135214420
30
0.0000000000
10
127.2440687102
20
160.0906371751
30
0.0000000000
10
127.0987347795
20
160.2040699155
30
0.0000000000
10
126.9848912017
20
160.2271171691
30
0.0000000000
10
126.9303490952
20
160.2271171691
30
0.0000000000
11
127.4295628478
21
158.4271171691
31
0.0000000000
11
127.4706085717
21
158.7773697666
31
0.0000000000
11
127.4832537331
21
159.1116428228
31
0.0000000000
11
127.4665380930
21
159.4206185775
31
0.0000000000
11
127.4189827912
21
159.6944763909
31
0.0000000000
11
127.3393733523
21
159.9218875401
31
0.0000000000
11
127.2284887833
21
160.0909608252
31
0.0000000000
11
127.0904382140
21
160.1932786331
31
0.0000000000
11
126.9303490952
21
160.2271171691
31
0.0000000000
0
SPLINE
5
2B5
100
AcDbEntity
8
DEFAULT_2
100
AcDbSpline
62
8
6
HIDDEN
70
0
71
3
72
17
73
13
74
11
42
0.0000001000
43
0.0000001000
44
0.0000000001
40
0.0000000000
40
0.0000000000
40
0.0000000000
40
0.0000000000
40
0.1902017168
40
0.3733358318
40
0.5324982994
40
0.6617301078
40
0.7655508081
40
0.8482658909
40
0.9134416139
40
0.9614129900
40
0.9904721919
40
1.0000000000
40
1.0000000000
40
1.0000000000
40
1.0000000000
10
120.1176841773
20
145.0372097983
30
0.0000000000
10
120.2820638160
20
145.1828686102
30
0.0000000000
10
120.6079480460
20
145.4651342879
30
0.0000000000
10
121.0821382238
20
145.8567459802
30
0.0000000000
10
121.5097552706
20
146.1936297150
30
0.0000000000
10
121.8714093719
20
146.4669839771
30
0.0000000000
10
122.1656729598
20
146.6804399969
30
0.0000000000
10
122.4050654929
20
146.8504417316
30
0.0000000000
10
122.5878733622
20
146.9703510519
30
0.0000000000
10
122.7350328185
20
147.0773943574
30
0.0000000000
10
122.8024892701
20
147.0998261432
30
0.0000000000
10
122.8595305914
20
147.1526032085
30
0.0000000000
10
122.8632934777
20
147.1422647634
30
0.0000000000
11
120.1176841773
21
145.0372097983
31
0.0000000000
11
120.6158230460
21
145.4684777701
31
0.0000000000
11
121.1050892767
21
145.8723203836
31
0.0000000000
11
121.5382343995
21
146.2134764400
31
0.0000000000
11
121.8955440479
21
146.4831922875
31
0.0000000000
11
122.1864483995
21
146.6946720897
31
0.0000000000
11
122.4209271702
21
146.8593651009
31
0.0000000000
11
122.6077409363
21
146.9861592979
31
0.0000000000
11
122.7469703726
21
147.0768846784
31
0.0000000000
11
122.8330058917
21
147.1291480952
31
0.0000000000
11
122.8632934777
21
147.1422647634
31
0.0000000000
0
SPLINE
5
2B6
100
AcDbEntity
8
DEFAULT_2
100
AcDbSpline
62
8
6
HIDDEN
70
0
71
3
72
12
73
8
74
6
42
0.0000001000
43
0.0000001000
44
0.0000000001
40
0.0000000000
40
0.0000000000
40
0.0000000000
40
0.0000000000
40
0.1852953281
40
0.3812745198
40
0.5848620497
40
0.7924734386
40
1.0000000000
40
1.0000000000
40
1.0000000000
40
1.0000000000
10
129.3897264036
20
124.8116549139
30
0.0000000000
10
129.3145189284
20
124.7069003104
30
0.0000000000
10
129.1573922774
20
124.4930442267
30
0.0000000000
10
128.9086751016
20
124.1707872756
30
0.0000000000
10
128.6418344296
20
123.8430637593
30
0.0000000000
10
128.3605975250
20
123.5169143724
30
0.0000000000
10
128.1654076209
20
123.3038318924
30
0.0000000000
10
128.0661852570
20
123.1988825633
30
0.0000000000
11
129.3897264036
21
124.8116549139
31
0.0000000000
11
129.1606111172
21
124.4999284200
31
0.0000000000
11
128.9105438316
21
124.1760606379
31
0.0000000000
11
128.6420842514
21
123.8465074517
31
0.0000000000
11
128.3589352679
21
123.5183076464
31
0.0000000000
11
128.0661852570
21
123.1988825633
31
0.0000000000
0
SPLINE
5
2B7
100
AcDbEntity
8
DEFAULT_2
100
AcDbSpline
62
8
6
HIDDEN
70
0
71
3
72
9
73
5
74
3
42
0.0000001000
43
0.0000001000
44
0.0000000001
40
0.0000000000
40
0.0000000000
40
0.0000000000
40
0.0000000000
40
0.5024489875
40
1.0000000000
40
1.0000000000
40
1.0000000000
40
1.0000000000
10
115.6349884156
20
144.1931211282
30
0.0000000000
10
115.6394531892
20
144.1818760923
30
0.0000000000
10
115.6481806353
20
144.1594323328
30
0.0000000000
10
115.6565829762
20
144.1368648134
30
0.0000000000
10
115.6606807282
20
144.1256063325
30
0.0000000000
11
115.6349884156
21
144.1931211282
31
0.0000000000
11
115.6481413077
21
144.1592911600
31
0.0000000000
11
115.6606807282
21
144.1256063325
31
0.0000000000
0
SPLINE
5
2B8
100
AcDbEntity
8
DEFAULT_2
100
AcDbSpline
62
8
6
HIDDEN
70
0
71
3
72
15
73
11
74
9
42
0.0000001000
43
0.0000001000
44
0.0000000001
40
0.0000000000
40
0.0000000000
40
0.0000000000
40
0.0000000000
40
0.0803687977
40
0.1658040623
40
0.2660187092
40
0.3841407839
40
0.5190168896
40
0.6682370827
40
0.8294939636
40
1.0000000000
40
1.0000000000
40
1.0000000000
40
1.0000000000
10
126.9871346641
20
167.1271171691
30
0.0000000000
10
127.0425226136
20
167.1271171691
30
0.0000000000
10
127.1586266068
20
167.1511731206
30
0.0000000000
10
127.3082010119
20
167.2652628070
30
0.0000000000
10
127.4244882577
20
167.4425267057
30
0.0000000000
10
127.5098301410
20
167.6719015875
30
0.0000000000
10
127.5654199538
20
167.9442780254
30
0.0000000000
10
127.5921845575
20
168.2505517943
30
0.0000000000
10
127.5906891988
20
168.5824087752
30
0.0000000000
10
127.5712373482
20
168.8105006887
30
0.0000000000
10
127.5567896669
20
168.9271171691
30
0.0000000000
11
126.9871346641
21
167.1271171691
31
0.0000000000
11
127.1497036870
21
167.1614935756
31
0.0000000000
11
127.2928352170
21
167.2650051695
31
0.0000000000
11
127.4111384638
21
167.4351060443
31
0.0000000000
11
127.5000791577
21
167.6625541967
31
0.0000000000
11
127.5584358251
21
167.9352383266
31
0.0000000000
11
127.5869281694
21
168.2424351037
31
0.0000000000
11
127.5863660415
21
168.5758359584
31
0.0000000000
11
127.5567896669
21
168.9271171691
31
0.0000000000
0
SPLINE
5
2B9
100
AcDbEntity
8
DEFAULT_2
100
AcDbSpline
62
8
6
HIDDEN
70
0
71
3
72
18
73
14
74
12
42
0.0000001000
43
0.0000001000
44
0.0000000001
40
0.0000000000
40
0.0000000000
40
0.0000000000
40
0.0000000000
40
0.0101278048
40
0.0402931232
40
0.0900403019
40
0.1581919203
40
0.2436231594
40
0.3443035345
40
0.4585934422
40
0.5835594338
40
0.7171817386
40
0.8567059890
40
1.0000000000
40
1.0000000000
40
1.0000000000
40
1.0000000000
10
126.3678346730
20
152.8771171691
30
0.0000000000
10
126.3564988344
20
152.8771171691
30
0.0000000000
10
126.3782657149
20
152.9495618014
30
0.0000000000
10
126.3662763582
20
153.0238639542
30
0.0000000000
10
126.3940040653
20
153.2034678423
30
0.0000000000
10
126.4160986833
20
153.4231424783
30
0.0000000000
10
126.4560563756
20
153.7075540241
30
0.0000000000
10
126.5060647832
20
154.0391519708
30
0.0000000000
10
126.5701471759
20
154.4145207865
30
0.0000000000
10
126.6477788669
20
154.8245240015
30
0.0000000000
10
126.7392013637
20
155.2607016568
30
0.0000000000
10
126.8438339273
20
155.7149410892
30
0.0000000000
10
126.9210334972
20
156.0219631526
30
0.0000000000
10
126.9616646458
20
156.1771171691
30
0.0000000000
11
126.3678346730
21
152.8771171691
31
0.0000000000
11
126.3657270186
21
152.9110593099
31
0.0000000000
11
126.3725323853
21
153.0121206532
31
0.0000000000
11
126.3889075339
21
153.1783589994
31
0.0000000000
11
126.4156873566
21
153.4056286818
31
0.0000000000
11
126.4540254898
21
153.6899194384
31
0.0000000000
11
126.5048384859
21
154.0241471982
31
0.0000000000
11
126.5692091832
21
154.4024769707
31
0.0000000000
11
126.6472716901
21
154.8147673250
31
0.0000000000
11
126.7392589396
21
155.2539185398
31
0.0000000000
11
126.8443811612
21
155.7104722123
31
0.0000000000
11
126.9616646458
21
156.1771171691
31
0.0000000000
0
SPLINE
5
2BA
100
AcDbEntity
8
DEFAULT_2
100
AcDbSpline
62
8
6
HIDDEN
70
0
71
3
72
8
73
4
74
2
42
0.0000001000
43
0.0000001000
44
0.0000000001
40
0.0000000000
40
0.0000000000
40
0.0000000000
40
0.0000000000
40
1.0000000000
40
1.0000000000
40
1.0000000000
40
1.0000000000
10
308.4410003648
20
140.3156425034
30
0.0000000000
10
308.4438111625
20
140.3176242083
30
0.0000000000
10
308.4421676816
20
140.3032614439
30
0.0000000000
10
308.4421676816
20
140.2970162305
30
0.0000000000
11
308.4410003648
21
140.3156425034
31
0.0000000000
11
308.4421676816
21
140.2970162305
31
0.0000000000
0
SPLINE
5
2BB
100
AcDbEntity
8
DEFAULT_2
100
AcDbSpline
62
8
6
HIDDEN
70
0
71
3
72
9
73
5
74
3
42
0.0000001000
43
0.0000001000
44
0.0000000001
40
0.0000000000
40
0.0000000000
40
0.0000000000
40
0.0000000000
40
0.4999815953
40
1.0000000000
40
1.0000000000
40
1.0000000000
40
1.0000000000
10
302.9328829407
20
160.2271171691
30
0.0000000000
10
302.9332352205
20
160.2282092435
30
0.0000000000
10
302.9339395588
20
160.2303935525
30
0.0000000000
10
302.9346434030
20
160.2325780208
30
0.0000000000
10
302.9349952146
20
160.2336703349
30
0.0000000000
11
302.9328829407
21
160.2271171691
31
0.0000000000
11
302.9339394093
21
160.2303935120
31
0.0000000000
11
302.9349952146
21
160.2336703349
31
0.0000000000
0
SPLINE
5
2BC
100
AcDbEntity
8
DEFAULT_2
100
AcDbSpline
62
8
6
HIDDEN
70
0
71
3
72
11
73
7
74
5
42
0.0000001000
43
0.0000001000
44
0.0000000001
40
0.0000000000
40
0.0000000000
40
0.0000000000
40
0.0000000000
40
0.4644597124
40
0.7879658324
40
0.9655184394
40
1.0000000000
40
1.0000000000
40
1.0000000000
40
1.0000000000
10
308.4271299929
20
140.1490499317
30
0.0000000000
10
308.4271299929
20
140.1750684253
30
0.0000000000
10
308.4266479670
20
140.2187576572
30
0.0000000000
10
308.4348759161
20
140.2740850217
30
0.0000000000
10
308.4322149217
20
140.3017851800
30
0.0000000000
10
308.4401309974
20
140.3150295709
30
0.0000000000
10
308.4410003648
20
140.3156425034
30
0.0000000000
11
308.4271299929
21
140.1490499317
31
0.0000000000
11
308.4290622433
21
140.2270814926
31
0.0000000000
11
308.4333019188
21
140.2812832425
31
0.0000000000
11
308.4377935429
21
140.3107821174
31
0.0000000000
11
308.4410003648
21
140.3156425034
31
0.0000000000
0
SPLINE
5
2BD
100
AcDbEntity
8
DEFAULT_2
100
AcDbSpline
62
8
6
HIDDEN
70
0
71
3
72
16
73
12
74
10
42
0.0000001000
43
0.0000001000
44
0.0000000001
40
0.0000000000
40
0.0000000000
40
0.0000000000
40
0.0000000000
40
0.1096143046
40
0.2235862653
40
0.3367237465
40
0.4489907024
40
0.5603967826
40
0.6710309439
40
0.7810391892
40
0.8906189140
40
1.0000000000
40
1.0000000000
40
1.0000000000
40
1.0000000000
10
291.9271301688
20
120.7875571353
30
0.0000000000
10
291.4358605469
20
120.9374956900
30
0.0000000000
10
290.4526551231
20
121.3096567309
30
0.0000000000
10
289.0618957903
20
122.0647205999
30
0.0000000000
10
287.7793344423
20
123.0135212813
30
0.0000000000
10
286.6511991712
20
124.1244665375
30
0.0000000000
10
285.6987345986
20
125.3746402948
30
0.0000000000
10
284.9395786328
20
126.7387223194
30
0.0000000000
10
284.3874287746
20
128.1898985940
30
0.0000000000
10
284.0521207343
20
129.6996121522
30
0.0000000000
10
283.9771299929
20
130.7270776934
30
0.0000000000
10
283.9771299929
20
131.2395628422
30
0.0000000000
11
291.9271301688
21
120.7875571353
31
0.0000000000
11
290.4861747421
21
121.3334578497
31
0.0000000000
11
289.0785303062
21
122.0982399730
31
0.0000000000
11
287.8004463302
21
123.0445025301
31
0.0000000000
11
286.6765127628
21
124.1521656618
31
0.0000000000
11
285.7279934147
21
125.3981240596
31
0.0000000000
11
284.9722211095
21
126.7571849900
31
0.0000000000
11
284.4226882905
21
128.2025108943
31
0.0000000000
11
284.0890328358
21
129.7061851968
31
0.0000000000
11
283.9771299929
21
131.2395628422
31
0.0000000000
0
SPLINE
5
2BE
100
AcDbEntity
8
DEFAULT_2
100
AcDbSpline
62
8
6
HIDDEN
70
0
71
3
72
16
73
12
74
10
42
0.0000001000
43
0.0000001000
44
0.0000000001
40
0.0000000000
40
0.0000000000
40
0.0000000000
40
0.0000000000
40
0.1096143046
40
0.2235862653
40
0.3367237465
40
0.4489907024
40
0.5603967826
40
0.6710309439
40
0.7810391892
40
0.8906189140
40
1.0000000000
40
1.0000000000
40
1.0000000000
40
1.0000000000
10
298.8271298170
20
120.7875571353
30
0.0000000000
10
299.3183994390
20
120.9374956900
30
0.0000000000
10
300.3016048627
20
121.3096567309
30
0.0000000000
10
301.6923641955
20
122.0647205999
30
0.0000000000
10
302.9749255435
20
123.0135212813
30
0.0000000000
10
304.1030608146
20
124.1244665375
30
0.0000000000
10
305.0555253872
20
125.3746402948
30
0.0000000000
10
305.8146813530
20
126.7387223194
30
0.0000000000
10
306.3668312112
20
128.1898985940
30
0.0000000000
10
306.7021392516
20
129.6996121522
30
0.0000000000
10
306.7771299929
20
130.7270776934
30
0.0000000000
10
306.7771299929
20
131.2395628422
30
0.0000000000
11
298.8271298170
21
120.7875571353
31
0.0000000000
11
300.2680852437
21
121.3334578497
31
0.0000000000
11
301.6757296796
21
122.0982399730
31
0.0000000000
11
302.9538136557
21
123.0445025301
31
0.0000000000
11
304.0777472230
21
124.1521656618
31
0.0000000000
11
305.0262665711
21
125.3981240596
31
0.0000000000
11
305.7820388763
21
126.7571849900
31
0.0000000000
11
306.3315716953
21
128.2025108943
31
0.0000000000
11
306.6652271501
21
129.7061851968
31
0.0000000000
11
306.7771299929
21
131.2395628422
31
0.0000000000
0
SPLINE
5
2BF
100
AcDbEntity
8
DEFAULT_2
100
AcDbSpline
62
8
6
HIDDEN
70
0
71
3
72
9
73
5
74
3
42
0.0000001000
43
0.0000001000
44
0.0000000001
40
0.0000000000
40
0.0000000000
40
0.0000000000
40
0.0000000000
40
0.4999815953
40
1.0000000000
40
1.0000000000
40
1.0000000000
40
1.0000000000
10
287.8213770451
20
160.2271171691
30
0.0000000000
10
287.8210247654
20
160.2282092435
30
0.0000000000
10
287.8203204271
20
160.2303935525
30
0.0000000000
10
287.8196165828
20
160.2325780208
30
0.0000000000
10
287.8192647712
20
160.2336703349
30
0.0000000000
11
287.8213770451
21
160.2271171691
31
0.0000000000
11
287.8203205765
21
160.2303935120
31
0.0000000000
11
287.8192647712
21
160.2336703349
31
0.0000000000
0
SPLINE
5
2C0
100
AcDbEntity
8
0
100
AcDbSpline
62
7
6
CONTINUOUS
70
0
71
3
72
8
73
4
74
2
42
0.0000001000
43
0.0000001000
44
0.0000000001
40
0.0000000000
40
0.0000000000
40
0.0000000000
40
0.0000000000
40
1.0000000000
40
1.0000000000
40
1.0000000000
40
1.0000000000
10
290.5823736826
20
194.5771044204
30
0.0000000000
10
290.4141929966
20
194.5771119170
30
0.0000000000
10
290.2460504801
20
194.5709131726
30
0.0000000000
10
290.0785906759
20
194.5573652394
30
0.0000000000
11
290.5823736826
21
194.5771044204
31
0.0000000000
11
290.0785906759
21
194.5573652394
31
0.0000000000
0
SPLINE
5
2C1
100
AcDbEntity
8
0
100
AcDbSpline
62
7
6
CONTINUOUS
70
0
71
3
72
17
73
13
74
11
42
0.0000001000
43
0.0000001000
44
0.0000000001
40
0.0000000000
40
0.0000000000
40
0.0000000000
40
0.0000000000
40
0.1437269707
40
0.2835024509
40
0.4155976098
40
0.5369709587
40
0.6459124884
40
0.7427004174
40
0.8300728861
40
0.9132002828
40
0.9987278379
40
1.0000000000
40
1.0000000000
40
1.0000000000
40
1.0000000000
10
302.5771299929
20
138.8166542620
30
0.0000000000
10
302.8231609392
20
138.8166542620
30
0.0000000000
10
303.3086024032
20
138.8314248424
30
0.0000000000
10
304.0173504941
20
138.8989851348
30
0.0000000000
10
304.6814443903
20
139.0139430837
30
0.0000000000
10
305.2807492709
20
139.1791240265
30
0.0000000000
10
305.7985618895
20
139.3976934530
30
0.0000000000
10
306.2219625951
20
139.6733978730
30
0.0000000000
10
306.5392203358
20
140.0107745973
30
0.0000000000
10
306.7356699812
20
140.4105683408
30
0.0000000000
10
306.7767298895
20
140.7030967828
30
0.0000000000
10
306.7771328373
20
140.8521501377
30
0.0000000000
10
306.7771343423
20
140.8543346167
30
0.0000000000
11
302.5771299929
21
138.8166542620
31
0.0000000000
11
303.3148636013
21
138.8396795026
31
0.0000000000
11
304.0292544438
21
138.9095592433
31
0.0000000000
11
304.6971351023
21
139.0283297040
31
0.0000000000
11
305.2967891561
21
139.1983767196
31
0.0000000000
11
305.8098128712
21
139.4215314821
31
0.0000000000
11
306.2224601057
21
139.6986126123
31
0.0000000000
11
306.5254695374
21
140.0295338540
31
0.0000000000
11
306.7122906185
21
140.4133746102
31
0.0000000000
11
306.7771166071
21
140.8477809186
31
0.0000000000
11
306.7771343423
21
140.8543346167
31
0.0000000000
0
SPLINE
5
2C2
100
AcDbEntity
8
0
100
AcDbSpline
62
7
6
CONTINUOUS
70
0
71
3
72
13
73
9
74
7
42
0.0000001000
43
0.0000001000
44
0.0000000001
40
0.0000000000
40
0.0000000000
40
0.0000000000
40
0.0000000000
40
0.2097522374
40
0.4109599426
40
0.6018942166
40
0.7574410860
40
0.8860555631
40
1.0000000000
40
1.0000000000
40
1.0000000000
40
1.0000000000
10
290.0785333860
20
194.5573631978
30
0.0000000000
10
289.6510388364
20
194.5227608820
30
0.0000000000
10
288.8145699259
20
194.4397835427
30
0.0000000000
10
287.5959330825
20
194.2643602712
30
0.0000000000
10
286.4975624722
20
194.0415395647
30
0.0000000000
10
285.5620981247
20
193.7747463161
30
0.0000000000
10
284.8046334571
20
193.4721535487
30
0.0000000000
10
284.3712594341
20
193.2261425769
30
0.0000000000
10
284.1796695793
20
193.0935638049
30
0.0000000000
11
290.0785333860
21
194.5573631978
31
0.0000000000
11
288.7983274099
21
194.4284723486
31
0.0000000000
11
287.5771154787
21
194.2494536530
31
0.0000000000
11
286.4304307652
21
194.0108634837
31
0.0000000000
11
285.5147158651
21
193.7427189495
31
0.0000000000
11
284.7846317494
21
193.4436709339
31
0.0000000000
11
284.1796695793
21
193.0935638049
31
0.0000000000
0
SPLINE
5
2C3
100
AcDbEntity
8
0
100
AcDbSpline
62
7
6
CONTINUOUS
70
0
71
3
72
10
73
6
74
4
42
0.0000001000
43
0.0000001000
44
0.0000000001
40
0.0000000000
40
0.0000000000
40
0.0000000000
40
0.0000000000
40
0.2737758556
40
0.6213396002
40
1.0000000000
40
1.0000000000
40
1.0000000000
40
1.0000000000
10
281.5749396050
20
191.2911079818
30
0.0000000000
10
281.2292431086
20
191.0518246738
30
0.0000000000
10
280.5020480800
20
190.4234692664
30
0.0000000000
10
279.5343876772
20
189.2231426774
30
0.0000000000
10
278.9586664991
20
188.2646876879
30
0.0000000000
10
278.6834461868
20
187.7524546170
30
0.0000000000
11
281.5749396050
21
191.2911079818
31
0.0000000000
11
280.6128597160
21
190.4752867020
31
0.0000000000
11
279.5935717791
21
189.2405991225
31
0.0000000000
11
278.6834461868
21
187.7524546170
31
0.0000000000
0
SPLINE
5
2C4
100
AcDbEntity
8
0
100
AcDbSpline
62
7
6
CONTINUOUS
70
0
71
3
72
11
73
7
74
5
42
0.0000001000
43
0.0000001000
44
0.0000000001
40
0.0000000000
40
0.0000000000
40
0.0000000000
40
0.0000000000
40
0.2099722770
40
0.4542004512
40
0.7206761808
40
1.0000000000
40
1.0000000000
40
1.0000000000
40
1.0000000000
10
278.6833687630
20
187.7522988152
30
0.0000000000
10
278.5258601814
20
187.4590892925
30
0.0000000000
10
278.2292005692
20
186.8002363475
30
0.0000000000
10
277.9067786729
20
185.7008892315
30
0.0000000000
10
277.7142802014
20
184.4604983479
30
0.0000000000
10
277.6771288095
20
183.5946105882
30
0.0000000000
10
277.6771301729
20
183.1518714823
30
0.0000000000
11
278.6833687630
21
187.7522988152
31
0.0000000000
11
278.2715473156
21
186.8426605764
31
0.0000000000
11
277.9405262270
21
185.7296149555
31
0.0000000000
11
277.7402556204
21
184.4785372796
31
0.0000000000
11
277.6771301729
21
183.1518714823
31
0.0000000000
0
SPLINE
5
2C5
100
AcDbEntity
8
0
100
AcDbSpline
62
7
6
CONTINUOUS
70
0
71
3
72
13
73
9
74
7
42
0.0000001000
43
0.0000001000
44
0.0000000001
40
0.0000000000
40
0.0000000000
40
0.0000000000
40
0.0000000000
40
0.1705986015
40
0.3411991157
40
0.5118008242
40
0.6824034346
40
0.8530065580
40
1.0000000000
40
1.0000000000
40
1.0000000000
40
1.0000000000
10
282.9246417125
20
115.4581486636
30
0.0000000000
10
282.9936316319
20
115.3272440517
30
0.0000000000
10
283.1563043614
20
115.0776213642
30
0.0000000000
10
283.4647562521
20
114.7550035666
30
0.0000000000
10
283.8274443477
20
114.4945846794
30
0.0000000000
10
284.2318709450
20
114.3054533059
30
0.0000000000
10
284.6442665333
20
114.1991691050
30
0.0000000000
10
284.9201517169
20
114.1771312795
30
0.0000000000
10
285.0478241523
20
114.1771224108
30
0.0000000000
11
282.9246417125
21
115.4581486636
31
0.0000000000
11
283.1670435791
21
115.0862589315
31
0.0000000000
11
283.4737944074
21
114.7653711227
31
0.0000000000
11
283.8343997674
21
114.5064665267
31
0.0000000000
11
284.2365224625
21
114.3184047352
31
0.0000000000
11
284.6664039817
21
114.2076213244
31
0.0000000000
11
285.0478241523
21
114.1771224108
31
0.0000000000
0
SPLINE
5
2C6
100
AcDbEntity
8
0
100
AcDbSpline
62
7
6
CONTINUOUS
70
0
71
3
72
8
73
4
74
2
42
0.0000001000
43
0.0000001000
44
0.0000000001
40
0.0000000000
40
0.0000000000
40
0.0000000000
40
0.0000000000
40
1.0000000000
40
1.0000000000
40
1.0000000000
40
1.0000000000
10
300.6756693099
20
194.5573652394
30
0.0000000000
10
300.5082095057
20
194.5709131726
30
0.0000000000
10
300.3400669892
20
194.5771119170
30
0.0000000000
10
300.1718863032
20
194.5771044204
30
0.0000000000
11
300.6756693099
21
194.5573652394
31
0.0000000000
11
300.1718863032
21
194.5771044204
31
0.0000000000
0
SPLINE
5
2C7
100
AcDbEntity
8
0
100
AcDbSpline
62
7
6
CONTINUOUS
70
0
71
3
72
13
73
9
74
7
42
0.0000001000
43
0.0000001000
44
0.0000000001
40
0.0000000000
40
0.0000000000
40
0.0000000000
40
0.0000000000
40
0.2097522374
40
0.4109599426
40
0.6018942166
40
0.7574410860
40
0.8860555631
40
1.0000000000
40
1.0000000000
40
1.0000000000
40
1.0000000000
10
300.6757265998
20
194.5573631978
30
0.0000000000
10
301.1032211495
20
194.5227608820
30
0.0000000000
10
301.9396900599
20
194.4397835427
30
0.0000000000
10
303.1583269034
20
194.2643602712
30
0.0000000000
10
304.2566975136
20
194.0415395647
30
0.0000000000
10
305.1921618611
20
193.7747463161
30
0.0000000000
10
305.9496265288
20
193.4721535487
30
0.0000000000
10
306.3830005517
20
193.2261425769
30
0.0000000000
10
306.5745904065
20
193.0935638049
30
0.0000000000
11
300.6757265998
21
194.5573631978
31
0.0000000000
11
301.9559325759
21
194.4284723486
31
0.0000000000
11
303.1771445071
21
194.2494536530
31
0.0000000000
11
304.3238292206
21
194.0108634837
31
0.0000000000
11
305.2395441208
21
193.7427189495
31
0.0000000000
11
305.9696282364
21
193.4436709339
31
0.0000000000
11
306.5745904065
21
193.0935638049
31
0.0000000000
0
SPLINE
5
2C8
100
AcDbEntity
8
0
100
AcDbSpline
62
7
6
CONTINUOUS
70
0
71
3
72
10
73
6
74
4
42
0.0000001000
43
0.0000001000
44
0.0000000001
40
0.0000000000
40
0.0000000000
40
0.0000000000
40
0.0000000000
40
0.3787097535
40
0.7265457883
40
1.0000000000
40
1.0000000000
40
1.0000000000
40
1.0000000000
10
312.0708147420
20
187.7524528644
30
0.0000000000
10
311.7955592754
20
188.2647515504
30
0.0000000000
10
311.2195803814
20
189.2236238808
30
0.0000000000
10
310.2518215184
20
190.4238934255
30
0.0000000000
10
309.5246199007
20
191.0520983386
30
0.0000000000
10
309.1793308140
20
191.2911007599
30
0.0000000000
11
312.0708147420
21
187.7524528644
31
0.0000000000
11
311.1605604931
21
189.2407807746
31
0.0000000000
11
310.1403619267
21
190.4763385827
31
0.0000000000
11
309.1793308140
21
191.2911007599
31
0.0000000000
0
SPLINE
5
2C9
100
AcDbEntity
8
0
100
AcDbSpline
62
7
6
CONTINUOUS
70
0
71
3
72
11
73
7
74
5
42
0.0000001000
43
0.0000001000
44
0.0000000001
40
0.0000000000
40
0.0000000000
40
0.0000000000
40
0.0000000000
40
0.2793238192
40
0.5457995488
40
0.7900277230
40
1.0000000000
40
1.0000000000
40
1.0000000000
40
1.0000000000
10
313.0771298129
20
183.1518714823
30
0.0000000000
10
313.0771311763
20
183.5946105882
30
0.0000000000
10
313.0399797844
20
184.4604983479
30
0.0000000000
10
312.8474813129
20
185.7008892315
30
0.0000000000
10
312.5250594166
20
186.8002363475
30
0.0000000000
10
312.2283998044
20
187.4590892925
30
0.0000000000
10
312.0708912228
20
187.7522988152
30
0.0000000000
11
313.0771298129
21
183.1518714823
31
0.0000000000
11
313.0140043654
21
184.4785372796
31
0.0000000000
11
312.8137337588
21
185.7296149555
31
0.0000000000
11
312.4827126702
21
186.8426605764
31
0.0000000000
11
312.0708912228
21
187.7522988152
31
0.0000000000
0
SPLINE
5
2CA
100
AcDbEntity
8
0
100
AcDbSpline
62
7
6
CONTINUOUS
70
0
71
3
72
13
73
9
74
7
42
0.0000001000
43
0.0000001000
44
0.0000000001
40
0.0000000000
40
0.0000000000
40
0.0000000000
40
0.0000000000
40
0.1450753534
40
0.3160620595
40
0.4870482613
40
0.6580335785
40
0.8290177287
40
1.0000000000
40
1.0000000000
40
1.0000000000
40
1.0000000000
10
305.7064358334
20
114.1771228542
30
0.0000000000
10
305.8324431037
20
114.1771317399
30
0.0000000000
10
306.1069961181
20
114.1987743049
30
0.0000000000
10
306.5186264911
20
114.3040393145
30
0.0000000000
10
306.9242470502
20
114.4930094892
30
0.0000000000
10
307.2880298706
20
114.7536418524
30
0.0000000000
10
307.5973832492
20
115.0767992515
30
0.0000000000
10
307.7604773799
20
115.3269565877
30
0.0000000000
10
307.8296217878
20
115.4581553322
30
0.0000000000
11
305.7064358334
21
114.1771228542
31
0.0000000000
11
306.0829218752
21
114.2068323419
31
0.0000000000
11
306.5139756098
21
114.3170570380
31
0.0000000000
11
306.9172750721
21
114.5049537693
31
0.0000000000
11
307.2789594838
21
114.7640637387
31
0.0000000000
11
307.5865991118
21
115.0854805193
31
0.0000000000
11
307.8296217878
21
115.4581553322
31
0.0000000000
0
SPLINE
5
2CB
100
AcDbEntity
8
0
100
AcDbSpline
62
7
6
CONTINUOUS
70
0
71
3
72
12
73
8
74
6
42
0.0000001000
43
0.0000001000
44
0.0000000001
40
0.0000000000
40
0.0000000000
40
0.0000000000
40
0.0000000000
40
0.2103510792
40
0.4174348220
40
0.6192282391
40
0.8138950444
40
1.0000000000
40
1.0000000000
40
1.0000000000
40
1.0000000000
10
298.2960317961
20
124.8116549139
30
0.0000000000
10
298.3624308278
20
124.7109269724
30
0.0000000000
10
298.4845078311
20
124.5044264849
30
0.0000000000
10
298.6333146188
20
124.1812662515
30
0.0000000000
10
298.7432423002
20
123.8522230461
30
0.0000000000
10
298.8110604807
20
123.5242360093
30
0.0000000000
10
298.8271299929
20
123.3056204368
30
0.0000000000
10
298.8271299929
20
123.1988825633
30
0.0000000000
11
298.2960317961
21
124.8116549139
31
0.0000000000
11
298.4799370419
21
124.4999284200
31
0.0000000000
11
298.6284846527
21
124.1760606379
31
0.0000000000
11
298.7377897869
21
123.8465074517
31
0.0000000000
11
298.8046716091
21
123.5183076464
31
0.0000000000
11
298.8271299929
21
123.1988825633
31
0.0000000000
0
SPLINE
5
2CC
100
AcDbEntity
8
0
100
AcDbSpline
62
7
6
CONTINUOUS
70
0
71
3
72
14
73
10
74
8
42
0.0000001000
43
0.0000001000
44
0.0000000001
40
0.0000000000
40
0.0000000000
40
0.0000000000
40
0.0000000000
40
0.1640348063
40
0.3193678144
40
0.4658788561
40
0.6063843313
40
0.7428850655
40
0.8744363397
40
1.0000000000
40
1.0000000000
40
1.0000000000
40
1.0000000000
10
298.2960317961
20
124.8116549139
30
0.0000000000
10
298.2034515482
20
124.9729562693
30
0.0000000000
10
297.9998402715
20
125.2743363366
30
0.0000000000
10
297.6406442228
20
125.6642029929
30
0.0000000000
10
297.2480281835
20
125.9793122112
30
0.0000000000
10
296.8311937907
20
126.2213120733
30
0.0000000000
10
296.3983396802
20
126.3913165280
30
0.0000000000
10
295.9614450940
20
126.4900469231
30
0.0000000000
10
295.6694934093
20
126.5114556966
30
0.0000000000
10
295.5271299929
20
126.5114556966
30
0.0000000000
11
298.2960317961
21
124.8116549139
31
0.0000000000
11
297.9830479737
21
125.2735468850
31
0.0000000000
11
297.6245248442
21
125.6616344643
31
0.0000000000
11
297.2354694679
21
125.9730489948
31
0.0000000000
11
296.8218893863
21
126.2125327089
31
0.0000000000
11
296.3895867820
21
126.3818873630
31
0.0000000000
11
295.9530801824
21
126.4802704923
31
0.0000000000
11
295.5271299929
21
126.5114556966
31
0.0000000000
0
SPLINE
5
2CD
100
AcDbEntity
8
0
100
AcDbSpline
62
7
6
CONTINUOUS
70
0
71
3
72
17
73
13
74
11
42
0.0000001000
43
0.0000001000
44
0.0000000001
40
0.0000000000
40
0.0000000000
40
0.0000000000
40
0.0000000000
40
0.1437269707
40
0.2835024509
40
0.4155976098
40
0.5369709587
40
0.6459124884
40
0.7427004174
40
0.8300728861
40
0.9132002828
40
0.9987278379
40
1.0000000000
40
1.0000000000
40
1.0000000000
40
1.0000000000
10
288.1771299929
20
138.8166542620
30
0.0000000000
10
287.9310990466
20
138.8166542620
30
0.0000000000
10
287.4456575827
20
138.8314248424
30
0.0000000000
10
286.7369094917
20
138.8989851348
30
0.0000000000
10
286.0728155955
20
139.0139430837
30
0.0000000000
10
285.4735107149
20
139.1791240265
30
0.0000000000
10
284.9556980963
20
139.3976934530
30
0.0000000000
10
284.5322973908
20
139.6733978730
30
0.0000000000
10
284.2150396500
20
140.0107745973
30
0.0000000000
10
284.0185900046
20
140.4105683408
30
0.0000000000
10
283.9775300964
20
140.7030967828
30
0.0000000000
10
283.9771271485
20
140.8521501377
30
0.0000000000
10
283.9771256435
20
140.8543346167
30
0.0000000000
11
288.1771299929
21
138.8166542620
31
0.0000000000
11
287.4393963845
21
138.8396795026
31
0.0000000000
11
286.7250055420
21
138.9095592433
31
0.0000000000
11
286.0571248835
21
139.0283297040
31
0.0000000000
11
285.4574708297
21
139.1983767196
31
0.0000000000
11
284.9444471146
21
139.4215314821
31
0.0000000000
11
284.5317998801
21
139.6986126123
31
0.0000000000
11
284.2287904484
21
140.0295338540
31
0.0000000000
11
284.0419693674
21
140.4133746102
31
0.0000000000
11
283.9771433787
21
140.8477809186
31
0.0000000000
11
283.9771256435
21
140.8543346167
31
0.0000000000
0
SPLINE
5
2CE
100
AcDbEntity
8
0
100
AcDbSpline
62
7
6
CONTINUOUS
70
0
71
3
72
14
73
10
74
8
42
0.0000001000
43
0.0000001000
44
0.0000000001
40
0.0000000000
40
0.0000000000
40
0.0000000000
40
0.0000000000
40
0.1640348063
40
0.3193678144
40
0.4658788561
40
0.6063843313
40
0.7428850655
40
0.8744363397
40
1.0000000000
40
1.0000000000
40
1.0000000000
40
1.0000000000
10
292.4582281898
20
124.8116549139
30
0.0000000000
10
292.5508084377
20
124.9729562693
30
0.0000000000
10
292.7544197143
20
125.2743363366
30
0.0000000000
10
293.1136157630
20
125.6642029929
30
0.0000000000
10
293.5062318023
20
125.9793122112
30
0.0000000000
10
293.9230661951
20
126.2213120733
30
0.0000000000
10
294.3559203057
20
126.3913165280
30
0.0000000000
10
294.7928148918
20
126.4900469231
30
0.0000000000
10
295.0847665765
20
126.5114556966
30
0.0000000000
10
295.2271299929
20
126.5114556966
30
0.0000000000
11
292.4582281898
21
124.8116549139
31
0.0000000000
11
292.7712120121
21
125.2735468850
31
0.0000000000
11
293.1297351416
21
125.6616344643
31
0.0000000000
11
293.5187905179
21
125.9730489948
31
0.0000000000
11
293.9323705996
21
126.2125327089
31
0.0000000000
11
294.3646732038
21
126.3818873630
31
0.0000000000
11
294.8011798035
21
126.4802704923
31
0.0000000000
11
295.2271299929
21
126.5114556966
31
0.0000000000
0
SPLINE
5
2CF
100
AcDbEntity
8
0
100
AcDbSpline
62
7
6
CONTINUOUS
70
0
71
3
72
12
73
8
74
6
42
0.0000001000
43
0.0000001000
44
0.0000000001
40
0.0000000000
40
0.0000000000
40
0.0000000000
40
0.0000000000
40
0.2103510792
40
0.4174348220
40
0.6192282391
40
0.8138950444
40
1.0000000000
40
1.0000000000
40
1.0000000000
40
1.0000000000
10
292.4582281898
20
124.8116549139
30
0.0000000000
10
292.3918291580
20
124.7109269724
30
0.0000000000
10
292.2697521547
20
124.5044264849
30
0.0000000000
10
292.1209453671
20
124.1812662515
30
0.0000000000
10
292.0110176856
20
123.8522230461
30
0.0000000000
10
291.9431995051
20
123.5242360093
30
0.0000000000
10
291.9271299929
20
123.3056204368
30
0.0000000000
10
291.9271299929
20
123.1988825633
30
0.0000000000
11
292.4582281898
21
124.8116549139
31
0.0000000000
11
292.2743229439
21
124.4999284200
31
0.0000000000
11
292.1257753332
21
124.1760606379
31
0.0000000000
11
292.0164701989
21
123.8465074517
31
0.0000000000
11
291.9495883767
21
123.5183076464
31
0.0000000000
11
291.9271299929
21
123.1988825633
31
0.0000000000
0
SPLINE
5
2D0
100
AcDbEntity
8
0
100
AcDbSpline
62
7
6
CONTINUOUS
70
0
71
3
72
11
73
7
74
5
42
0.0000001000
43
0.0000001000
44
0.0000000001
40
0.0000000000
40
0.0000000000
40
0.0000000000
40
0.0000000000
40
0.2731673213
40
0.5250969653
40
0.7650708680
40
1.0000000000
40
1.0000000000
40
1.0000000000
40
1.0000000000
10
285.5413160763
20
178.3581050933
30
0.0000000000
10
285.3770514753
20
178.1230756378
30
0.0000000000
10
285.0946130415
20
177.6471993061
30
0.0000000000
10
284.7741832382
20
176.9090902138
30
0.0000000000
10
284.5447277849
20
176.1802186176
30
0.0000000000
10
284.4391402424
20
175.6922738595
30
0.0000000000
10
284.3972081464
20
175.4492603161
30
0.0000000000
11
285.5413160763
21
178.3581050933
31
0.0000000000
11
285.1001083864
21
177.6196397174
31
0.0000000000
11
284.7824825675
21
176.8926468526
31
0.0000000000
11
284.5544558415
21
176.1721697910
31
0.0000000000
11
284.3972081464
21
175.4492603161
31
0.0000000000
0
SPLINE
5
2D1
100
AcDbEntity
8
0
100
AcDbSpline
62
7
6
CONTINUOUS
70
0
71
3
72
16
73
12
74
10
42
0.0000001000
43
0.0000001000
44
0.0000000001
40
0.0000000000
40
0.0000000000
40
0.0000000000
40
0.0000000000
40
0.1477568165
40
0.2769095180
40
0.3920484772
40
0.4977392712
40
0.5985010663
40
0.6985487248
40
0.7991032151
40
0.8997476085
40
1.0000000000
40
1.0000000000
40
1.0000000000
40
1.0000000000
10
307.1749746410
20
161.8771171691
30
0.0000000000
10
307.1749746410
20
161.4300048378
30
0.0000000000
10
307.1671705356
20
160.5920507744
30
0.0000000000
10
307.1336912288
20
159.4061162363
30
0.0000000000
10
307.0828937015
20
158.3482132091
30
0.0000000000
10
307.0153415859
20
157.3773426062
30
0.0000000000
10
306.9288508069
20
156.4538149369
30
0.0000000000
10
306.8190814300
20
155.5483884498
30
0.0000000000
10
306.6808776071
20
154.6471739416
30
0.0000000000
10
306.5100962171
20
153.7508986648
30
0.0000000000
10
306.3720723809
20
153.1586311108
30
0.0000000000
10
306.2965671458
20
152.8648138199
30
0.0000000000
11
307.1749746410
21
161.8771171691
31
0.0000000000
11
307.1621354386
21
160.5358416246
31
0.0000000000
11
307.1284149270
21
159.3638778780
31
0.0000000000
11
307.0776254971
21
158.3198806255
31
0.0000000000
11
307.0104033356
21
157.3627769276
31
0.0000000000
11
306.9245006494
21
156.4521035074
31
0.0000000000
11
306.8145491725
21
155.5505504234
31
0.0000000000
11
306.6755035219
21
154.6483684204
31
0.0000000000
11
306.5037980813
21
153.7509978346
31
0.0000000000
11
306.2965671458
21
152.8648138199
31
0.0000000000
0
SPLINE
5
2D2
100
AcDbEntity
8
0
100
AcDbSpline
62
7
6
CONTINUOUS
70
0
71
3
72
16
73
12
74
10
42
0.0000001000
43
0.0000001000
44
0.0000000001
40
0.0000000000
40
0.0000000000
40
0.0000000000
40
0.0000000000
40
0.0831411393
40
0.1789155209
40
0.2871082867
40
0.4054328254
40
0.5289750673
40
0.6523344220
40
0.7720508874
40
0.8874724268
40
1.0000000000
40
1.0000000000
40
1.0000000000
40
1.0000000000
10
283.9771256435
20
140.8543346167
30
0.0000000000
10
283.9770156901
20
141.0139325519
30
0.0000000000
10
284.0273286035
20
141.3563383139
30
0.0000000000
10
284.2305232514
20
141.8710430165
30
0.0000000000
10
284.5625088049
20
142.3945045709
30
0.0000000000
10
285.0099956411
20
142.8966138462
30
0.0000000000
10
285.5495865889
20
143.3447993329
30
0.0000000000
10
286.1508345324
20
143.7111612732
30
0.0000000000
10
286.7849843239
20
143.9794891687
30
0.0000000000
10
287.4318119870
20
144.1451501766
30
0.0000000000
10
287.8678731634
20
144.1883403123
30
0.0000000000
10
288.0831559090
20
144.1931211282
30
0.0000000000
11
283.9771256435
21
140.8543346167
31
0.0000000000
11
284.0402546336
21
141.3274836391
31
0.0000000000
11
284.2362309955
21
141.8412010849
31
0.0000000000
11
284.5649004392
21
142.3682388014
31
0.0000000000
11
285.0148508478
21
142.8771353321
31
0.0000000000
11
285.5599062649
21
143.3309391716
31
0.0000000000
11
286.1648801116
21
143.6990991465
31
0.0000000000
11
286.7981634538
21
143.9661259705
31
0.0000000000
11
287.4402637504
21
144.1297545494
31
0.0000000000
11
288.0831559090
21
144.1931211282
31
0.0000000000
0
SPLINE
5
2D3
100
AcDbEntity
8
0
100
AcDbSpline
62
7
6
CONTINUOUS
70
0
71
3
72
15
73
11
74
9
42
0.0000001000
43
0.0000001000
44
0.0000000001
40
0.0000000000
40
0.0000000000
40
0.0000000000
40
0.0000000000
40
0.1251208766
40
0.2502249812
40
0.3752936587
40
0.5003041484
40
0.6252507377
40
0.7501571804
40
0.8750617020
40
1.0000000000
40
1.0000000000
40
1.0000000000
40
1.0000000000
10
307.0276515204
20
170.2454602802
30
0.0000000000
10
307.0411474938
20
170.0970722657
30
0.0000000000
10
307.0658854869
20
169.8001072513
30
0.0000000000
10
307.0967718702
20
169.3542440231
30
0.0000000000
10
307.1219403135
20
168.9081541851
30
0.0000000000
10
307.1418474653
20
168.4619883487
30
0.0000000000
10
307.1568914693
20
168.0158266444
30
0.0000000000
10
307.1673977412
20
167.5696621204
30
0.0000000000
10
307.1736057067
20
167.1234279718
30
0.0000000000
10
307.1749746410
20
166.8259002285
30
0.0000000000
10
307.1749746410
20
166.6771171691
30
0.0000000000
11
307.0276515204
21
170.2454602802
31
0.0000000000
11
307.0648508394
21
169.8000093762
31
0.0000000000
11
307.0958228479
21
169.3541422799
31
0.0000000000
11
307.1210684717
21
168.9080410884
31
0.0000000000
11
307.1410411985
21
168.4618808250
31
0.0000000000
11
307.1561372133
21
168.0157573635
31
0.0000000000
11
307.1666815011
21
167.5696465849
31
0.0000000000
11
307.1729128657
21
167.1234615855
31
0.0000000000
11
307.1749746410
21
166.6771171691
31
0.0000000000
0
SPLINE
5
2D4
100
AcDbEntity
8
0
100
AcDbSpline
62
7
6
CONTINUOUS
70
0
71
3
72
17
73
13
74
11
42
0.0000001000
43
0.0000001000
44
0.0000000001
40
0.0000000000
40
0.0000000000
40
0.0000000000
40
0.0000000000
40
0.1003512405
40
0.2016962666
40
0.3010445316
40
0.3967461392
40
0.4908556444
40
0.5853401284
40
0.6833542250
40
0.7864422948
40
0.8926851432
40
1.0000000000
40
1.0000000000
40
1.0000000000
40
1.0000000000
10
298.8271299929
20
145.0372097983
30
0.0000000000
10
298.8271299929
20
145.1822567668
30
0.0000000000
10
298.7885126199
20
145.4755038165
30
0.0000000000
10
298.6132982259
20
145.8795418777
30
0.0000000000
10
298.3468631039
20
146.2199946710
30
0.0000000000
10
298.0257060366
20
146.4909537861
30
0.0000000000
10
297.6719962115
20
146.7028354612
30
0.0000000000
10
297.2911902813
20
146.8683244738
30
0.0000000000
10
296.8823443659
20
146.9948831360
30
0.0000000000
10
296.4465377255
20
147.0843262914
30
0.0000000000
10
295.9912070493
20
147.1357876300
30
0.0000000000
10
295.6822278056
20
147.1443722239
30
0.0000000000
10
295.5271299929
20
147.1422647634
30
0.0000000000
11
298.8271299929
21
145.0372097983
31
0.0000000000
11
298.7692029323
21
145.4684777701
31
0.0000000000
11
298.5959182898
21
145.8723203836
31
0.0000000000
11
298.3328704968
21
146.2134764400
31
0.0000000000
11
298.0174958724
21
146.4831922875
31
0.0000000000
11
297.6684944250
21
146.6946720897
31
0.0000000000
11
297.2933522994
21
146.8593651009
31
0.0000000000
11
296.8876998999
21
146.9861592979
31
0.0000000000
11
296.4499953037
21
147.0768846784
31
0.0000000000
11
295.9922814832
21
147.1291480952
31
0.0000000000
11
295.5271299929
21
147.1422647634
31
0.0000000000
0
SPLINE
5
2D5
100
AcDbEntity
8
0
100
AcDbSpline
62
7
6
CONTINUOUS
70
0
71
3
72
13
73
9
74
7
42
0.0000001000
43
0.0000001000
44
0.0000000001
40
0.0000000000
40
0.0000000000
40
0.0000000000
40
0.0000000000
40
0.1660479931
40
0.3341111357
40
0.5028274330
40
0.6708521679
40
0.8370081770
40
1.0000000000
40
1.0000000000
40
1.0000000000
40
1.0000000000
10
306.2965671458
20
152.8648138199
30
0.0000000000
10
306.1665491855
20
152.3588684398
30
0.0000000000
10
305.8835652984
20
151.3461877000
30
0.0000000000
10
305.3922349932
20
149.8420098665
30
0.0000000000
10
304.8295205608
20
148.3562765097
30
0.0000000000
10
304.1939905777
20
146.9065608063
30
0.0000000000
10
303.4836756338
20
145.5120249211
30
0.0000000000
10
302.9519022543
20
144.6221725526
30
0.0000000000
10
302.6711040768
20
144.1931211282
30
0.0000000000
11
306.2965671458
21
152.8648138199
31
0.0000000000
11
305.8745308776
21
151.3555577224
31
0.0000000000
11
305.3813343016
21
149.8480105615
31
0.0000000000
11
304.8161528372
21
148.3593517870
31
0.0000000000
11
304.1776918680
21
146.9077460961
31
0.0000000000
11
303.4634785984
21
145.5116571683
31
0.0000000000
11
302.6711040768
21
144.1931211282
31
0.0000000000
0
SPLINE
5
2D6
100
AcDbEntity
8
0
100
AcDbSpline
62
7
6
CONTINUOUS
70
0
71
3
72
15
73
11
74
9
42
0.0000001000
43
0.0000001000
44
0.0000000001
40
0.0000000000
40
0.0000000000
40
0.0000000000
40
0.0000000000
40
0.1758438352
40
0.3319815197
40
0.4708846878
40
0.5952862046
40
0.7081263987
40
0.8109292464
40
0.9077430317
40
1.0000000000
40
1.0000000000
40
1.0000000000
40
1.0000000000
10
298.8271299929
20
136.8009551177
30
0.0000000000
10
299.1542633961
20
136.6934910209
30
0.0000000000
10
299.7604322202
20
136.4517893231
30
0.0000000000
10
300.5601318288
20
135.9856203307
30
0.0000000000
10
301.1975315757
20
135.4618072632
30
0.0000000000
10
301.6847380674
20
134.9050598500
30
0.0000000000
10
302.0384750614
20
134.3376205144
30
0.0000000000
10
302.2782850744
20
133.7720796107
30
0.0000000000
10
302.4184675789
20
133.2157597128
30
0.0000000000
10
302.4509283749
20
132.8449467066
30
0.0000000000
10
302.4509283749
20
132.6642917381
30
0.0000000000
11
298.8271299929
21
136.8009551177
31
0.0000000000
11
299.7845273069
21
136.4130459230
31
0.0000000000
11
300.5746388927
21
135.9471701359
31
0.0000000000
11
301.2031274877
21
135.4267475948
31
0.0000000000
11
301.6830791176
21
134.8756460473
31
0.0000000000
11
302.0328106239
21
134.3125300927
31
0.0000000000
11
302.2676755694
21
133.7561543275
31
0.0000000000
11
302.4053578007
21
133.2043373672
31
0.0000000000
11
302.4509283749
21
132.6642917381
31
0.0000000000
0
SPLINE
5
2D7
100
AcDbEntity
8
0
100
AcDbSpline
62
7
6
CONTINUOUS
70
0
71
3
72
10
73
6
74
4
42
0.0000001000
43
0.0000001000
44
0.0000000001
40
0.0000000000
40
0.0000000000
40
0.0000000000
40
0.0000000000
40
0.3319886405
40
0.6654479417
40
1.0000000000
40
1.0000000000
40
1.0000000000
40
1.0000000000
10
302.5771299929
20
144.1256063325
30
0.0000000000
10
302.2010938075
20
143.8560561762
30
0.0000000000
10
301.4150504735
20
143.3592788142
30
0.0000000000
10
300.1568674113
20
142.7536385321
30
0.0000000000
10
299.2753845232
20
142.4468656457
30
0.0000000000
10
298.8271299929
20
142.3186204421
30
0.0000000000
11
302.5771299929
21
144.1256063325
31
0.0000000000
11
301.4040411826
21
143.3837120418
31
0.0000000000
11
300.1480252313
21
142.7786708469
31
0.0000000000
11
298.8271299929
21
142.3186204421
31
0.0000000000
0
SPLINE
5
2D8
100
AcDbEntity
8
0
100
AcDbSpline
62
7
6
CONTINUOUS
70
0
71
3
72
11
73
7
74
5
42
0.0000001000
43
0.0000001000
44
0.0000000001
40
0.0000000000
40
0.0000000000
40
0.0000000000
40
0.0000000000
40
0.2731673213
40
0.5250969653
40
0.7650708680
40
1.0000000000
40
1.0000000000
40
1.0000000000
40
1.0000000000
10
305.2129439095
20
178.3581050933
30
0.0000000000
10
305.3772085105
20
178.1230756378
30
0.0000000000
10
305.6596469443
20
177.6471993061
30
0.0000000000
10
305.9800767476
20
176.9090902138
30
0.0000000000
10
306.2095322009
20
176.1802186176
30
0.0000000000
10
306.3151197434
20
175.6922738595
30
0.0000000000
10
306.3570518394
20
175.4492603161
30
0.0000000000
11
305.2129439095
21
178.3581050933
31
0.0000000000
11
305.6541515994
21
177.6196397174
31
0.0000000000
11
305.9717774183
21
176.8926468526
31
0.0000000000
11
306.1998041443
21
176.1721697910
31
0.0000000000
11
306.3570518394
21
175.4492603161
31
0.0000000000
0
SPLINE
5
2D9
100
AcDbEntity
8
0
100
AcDbSpline
62
7
6
CONTINUOUS
70
0
71
3
72
9
73
5
74
3
42
0.0000001000
43
0.0000001000
44
0.0000000001
40
0.0000000000
40
0.0000000000
40
0.0000000000
40
0.0000000000
40
0.5006973719
40
1.0000000000
40
1.0000000000
40
1.0000000000
40
1.0000000000
10
302.6711040768
20
144.1931211282
30
0.0000000000
10
302.6554322856
20
144.1818357220
30
0.0000000000
10
302.6241196046
20
144.1593140525
30
0.0000000000
10
302.5927825106
20
144.1368263659
30
0.0000000000
10
302.5771299929
20
144.1256063325
30
0.0000000000
11
302.6711040768
21
144.1931211282
31
0.0000000000
11
302.6240698111
21
144.1592911600
31
0.0000000000
11
302.5771299929
21
144.1256063325
31
0.0000000000
0
SPLINE
5
2DA
100
AcDbEntity
8
0
100
AcDbSpline
62
7
6
CONTINUOUS
70
0
71
3
72
16
73
12
74
10
42
0.0000001000
43
0.0000001000
44
0.0000000001
40
0.0000000000
40
0.0000000000
40
0.0000000000
40
0.0000000000
40
0.0831411393
40
0.1789155209
40
0.2871082867
40
0.4054328254
40
0.5289750673
40
0.6523344220
40
0.7720508874
40
0.8874724268
40
1.0000000000
40
1.0000000000
40
1.0000000000
40
1.0000000000
10
306.7771343423
20
140.8543346167
30
0.0000000000
10
306.7772442957
20
141.0139325519
30
0.0000000000
10
306.7269313823
20
141.3563383139
30
0.0000000000
10
306.5237367345
20
141.8710430165
30
0.0000000000
10
306.1917511809
20
142.3945045709
30
0.0000000000
10
305.7442643447
20
142.8966138462
30
0.0000000000
10
305.2046733969
20
143.3447993329
30
0.0000000000
10
304.6034254534
20
143.7111612732
30
0.0000000000
10
303.9692756619
20
143.9794891687
30
0.0000000000
10
303.3224479988
20
144.1451501766
30
0.0000000000
10
302.8863868224
20
144.1883403123
30
0.0000000000
10
302.6711040768
20
144.1931211282
30
0.0000000000
11
306.7771343423
21
140.8543346167
31
0.0000000000
11
306.7140053522
21
141.3274836391
31
0.0000000000
11
306.5180289903
21
141.8412010849
31
0.0000000000
11
306.1893595466
21
142.3682388014
31
0.0000000000
11
305.7394091380
21
142.8771353321
31
0.0000000000
11
305.1943537209
21
143.3309391716
31
0.0000000000
11
304.5893798742
21
143.6990991465
31
0.0000000000
11
303.9560965320
21
143.9661259705
31
0.0000000000
11
303.3139962354
21
144.1297545494
31
0.0000000000
11
302.6711040768
21
144.1931211282
31
0.0000000000
0
SPLINE
5
2DB
100
AcDbEntity
8
0
100
AcDbSpline
62
7
6
CONTINUOUS
70
0
71
3
72
11
73
7
74
5
42
0.0000001000
43
0.0000001000
44
0.0000000001
40
0.0000000000
40
0.0000000000
40
0.0000000000
40
0.0000000000
40
0.2371323073
40
0.4867110773
40
0.7428826766
40
1.0000000000
40
1.0000000000
40
1.0000000000
40
1.0000000000
10
284.3972081464
20
175.4492603161
30
0.0000000000
10
284.3266709067
20
175.0404683355
30
0.0000000000
10
284.1919391820
20
174.1996716729
30
0.0000000000
10
284.0135595458
20
172.9123064013
30
0.0000000000
10
283.8565104787
20
171.5869585489
30
0.0000000000
10
283.7673493451
20
170.6934056104
30
0.0000000000
10
283.7266084654
20
170.2454602802
30
0.0000000000
11
284.3972081464
21
175.4492603161
31
0.0000000000
11
284.1996250197
21
174.2205462003
31
0.0000000000
11
284.0193611055
21
172.9231904955
31
0.0000000000
11
283.8608169709
21
171.5881522106
31
0.0000000000
11
283.7266084654
21
170.2454602802
31
0.0000000000
0
SPLINE
5
2DC
100
AcDbEntity
8
0
100
AcDbSpline
62
7
6
CONTINUOUS
70
0
71
3
72
15
73
11
74
9
42
0.0000001000
43
0.0000001000
44
0.0000000001
40
0.0000000000
40
0.0000000000
40
0.0000000000
40
0.0000000000
40
0.1251208766
40
0.2502249812
40
0.3752936587
40
0.5003041484
40
0.6252507377
40
0.7501571804
40
0.8750617020
40
1.0000000000
40
1.0000000000
40
1.0000000000
40
1.0000000000
10
283.7266084654
20
170.2454602802
30
0.0000000000
10
283.7131124920
20
170.0970722657
30
0.0000000000
10
283.6883744989
20
169.8001072513
30
0.0000000000
10
283.6574881156
20
169.3542440231
30
0.0000000000
10
283.6323196723
20
168.9081541851
30
0.0000000000
10
283.6124125205
20
168.4619883487
30
0.0000000000
10
283.5973685165
20
168.0158266444
30
0.0000000000
10
283.5868622446
20
167.5696621204
30
0.0000000000
10
283.5806542791
20
167.1234279718
30
0.0000000000
10
283.5792853448
20
166.8259002285
30
0.0000000000
10
283.5792853448
20
166.6771171691
30
0.0000000000
11
283.7266084654
21
170.2454602802
31
0.0000000000
11
283.6894091465
21
169.8000093762
31
0.0000000000
11
283.6584371379
21
169.3541422799
31
0.0000000000
11
283.6331915141
21
168.9080410884
31
0.0000000000
11
283.6132187873
21
168.4618808250
31
0.0000000000
11
283.5981227725
21
168.0157573635
31
0.0000000000
11
283.5875784847
21
167.5696465849
31
0.0000000000
11
283.5813471201
21
167.1234615855
31
0.0000000000
11
283.5792853448
21
166.6771171691
31
0.0000000000
0
SPLINE
5
2DD
100
AcDbEntity
8
0
100
AcDbSpline
62
7
6
CONTINUOUS
70
0
71
3
72
16
73
12
74
10
42
0.0000001000
43
0.0000001000
44
0.0000000001
40
0.0000000000
40
0.0000000000
40
0.0000000000
40
0.0000000000
40
0.1477568165
40
0.2769095180
40
0.3920484772
40
0.4977392712
40
0.5985010663
40
0.6985487248
40
0.7991032151
40
0.8997476085
40
1.0000000000
40
1.0000000000
40
1.0000000000
40
1.0000000000
10
283.5792853448
20
161.8771171691
30
0.0000000000
10
283.5792853448
20
161.4300048378
30
0.0000000000
10
283.5870894502
20
160.5920507744
30
0.0000000000
10
283.6205687570
20
159.4061162363
30
0.0000000000
10
283.6713662843
20
158.3482132091
30
0.0000000000
10
283.7389184000
20
157.3773426062
30
0.0000000000
10
283.8254091789
20
156.4538149369
30
0.0000000000
10
283.9351785558
20
155.5483884498
30
0.0000000000
10
284.0733823787
20
154.6471739416
30
0.0000000000
10
284.2441637687
20
153.7508986648
30
0.0000000000
10
284.3821876049
20
153.1586311108
30
0.0000000000
10
284.4576928400
20
152.8648138199
30
0.0000000000
11
283.5792853448
21
161.8771171691
31
0.0000000000
11
283.5921245472
21
160.5358416246
31
0.0000000000
11
283.6258450588
21
159.3638778780
31
0.0000000000
11
283.6766344887
21
158.3198806255
31
0.0000000000
11
283.7438566502
21
157.3627769276
31
0.0000000000
11
283.8297593364
21
156.4521035074
31
0.0000000000
11
283.9397108133
21
155.5505504234
31
0.0000000000
11
284.0787564639
21
154.6483684204
31
0.0000000000
11
284.2504619045
21
153.7509978346
31
0.0000000000
11
284.4576928400
21
152.8648138199
31
0.0000000000
0
SPLINE
5
2DE
100
AcDbEntity
8
0
100
AcDbSpline
62
7
6
CONTINUOUS
70
0
71
3
72
13
73
9
74
7
42
0.0000001000
43
0.0000001000
44
0.0000000001
40
0.0000000000
40
0.0000000000
40
0.0000000000
40
0.0000000000
40
0.1660479931
40
0.3341111357
40
0.5028274330
40
0.6708521679
40
0.8370081770
40
1.0000000000
40
1.0000000000
40
1.0000000000
40
1.0000000000
10
284.4576928400
20
152.8648138199
30
0.0000000000
10
284.5877108003
20
152.3588684398
30
0.0000000000
10
284.8706946874
20
151.3461877000
30
0.0000000000
10
285.3620249926
20
149.8420098665
30
0.0000000000
10
285.9247394250
20
148.3562765097
30
0.0000000000
10
286.5602694082
20
146.9065608063
30
0.0000000000
10
287.2705843520
20
145.5120249211
30
0.0000000000
10
287.8023577315
20
144.6221725526
30
0.0000000000
10
288.0831559090
20
144.1931211282
30
0.0000000000
11
284.4576928400
21
152.8648138199
31
0.0000000000
11
284.8797291082
21
151.3555577224
31
0.0000000000
11
285.3729256842
21
149.8480105615
31
0.0000000000
11
285.9381071487
21
148.3593517870
31
0.0000000000
11
286.5765681178
21
146.9077460961
31
0.0000000000
11
287.2907813875
21
145.5116571683
31
0.0000000000
11
288.0831559090
21
144.1931211282
31
0.0000000000
0
SPLINE
5
2DF
100
AcDbEntity
8
0
100
AcDbSpline
62
7
6
CONTINUOUS
70
0
71
3
72
15
73
11
74
9
42
0.0000001000
43
0.0000001000
44
0.0000000001
40
0.0000000000
40
0.0000000000
40
0.0000000000
40
0.0000000000
40
0.1758438352
40
0.3319815197
40
0.4708846878
40
0.5952862046
40
0.7081263987
40
0.8109292464
40
0.9077430317
40
1.0000000000
40
1.0000000000
40
1.0000000000
40
1.0000000000
10
291.9271299929
20
136.8009551177
30
0.0000000000
10
291.5999965897
20
136.6934910209
30
0.0000000000
10
290.9938277656
20
136.4517893231
30
0.0000000000
10
290.1941281570
20
135.9856203307
30
0.0000000000
10
289.5567284101
20
135.4618072632
30
0.0000000000
10
289.0695219184
20
134.9050598500
30
0.0000000000
10
288.7157849245
20
134.3376205144
30
0.0000000000
10
288.4759749114
20
133.7720796107
30
0.0000000000
10
288.3357924069
20
133.2157597128
30
0.0000000000
10
288.3033316109
20
132.8449467066
30
0.0000000000
10
288.3033316109
20
132.6642917381
30
0.0000000000
11
291.9271299929
21
136.8009551177
31
0.0000000000
11
290.9697326789
21
136.4130459230
31
0.0000000000
11
290.1796210932
21
135.9471701359
31
0.0000000000
11
289.5511324981
21
135.4267475948
31
0.0000000000
11
289.0711808682
21
134.8756460473
31
0.0000000000
11
288.7214493619
21
134.3125300927
31
0.0000000000
11
288.4865844164
21
133.7561543275
31
0.0000000000
11
288.3489021851
21
133.2043373672
31
0.0000000000
11
288.3033316109
21
132.6642917381
31
0.0000000000
0
SPLINE
5
2E0
100
AcDbEntity
8
0
100
AcDbSpline
62
7
6
CONTINUOUS
70
0
71
3
72
10
73
6
74
4
42
0.0000001000
43
0.0000001000
44
0.0000000001
40
0.0000000000
40
0.0000000000
40
0.0000000000
40
0.0000000000
40
0.3333340927
40
0.6666659073
40
1.0000000000
40
1.0000000000
40
1.0000000000
40
1.0000000000
10
295.5271299929
20
147.1422647634
30
0.0000000000
10
295.4937987488
20
147.1418118603
30
0.0000000000
10
295.4271319758
20
147.1412079714
30
0.0000000000
10
295.3271280100
20
147.1412079714
30
0.0000000000
10
295.2604612370
20
147.1418118603
30
0.0000000000
10
295.2271299929
20
147.1422647634
30
0.0000000000
11
295.5271299929
21
147.1422647634
31
0.0000000000
11
295.4271311326
21
147.1413589426
31
0.0000000000
11
295.3271288532
21
147.1413589426
31
0.0000000000
11
295.2271299929
21
147.1422647634
31
0.0000000000
0
SPLINE
5
2E1
100
AcDbEntity
8
0
100
AcDbSpline
62
7
6
CONTINUOUS
70
0
71
3
72
11
73
7
74
5
42
0.0000001000
43
0.0000001000
44
0.0000000001
40
0.0000000000
40
0.0000000000
40
0.0000000000
40
0.0000000000
40
0.2371323073
40
0.4867110773
40
0.7428826766
40
1.0000000000
40
1.0000000000
40
1.0000000000
40
1.0000000000
10
306.3570518394
20
175.4492603161
30
0.0000000000
10
306.4275890791
20
175.0404683355
30
0.0000000000
10
306.5623208038
20
174.1996716729
30
0.0000000000
10
306.7407004400
20
172.9123064013
30
0.0000000000
10
306.8977495071
20
171.5869585489
30
0.0000000000
10
306.9869106407
20
170.6934056104
30
0.0000000000
10
307.0276515204
20
170.2454602802
30
0.0000000000
11
306.3570518394
21
175.4492603161
31
0.0000000000
11
306.5546349661
21
174.2205462003
31
0.0000000000
11
306.7348988804
21
172.9231904955
31
0.0000000000
11
306.8934430149
21
171.5881522106
31
0.0000000000
11
307.0276515204
21
170.2454602802
31
0.0000000000
0
SPLINE
5
2E2
100
AcDbEntity
8
0
100
AcDbSpline
62
7
6
CONTINUOUS
70
0
71
3
72
17
73
13
74
11
42
0.0000001000
43
0.0000001000
44
0.0000000001
40
0.0000000000
40
0.0000000000
40
0.0000000000
40
0.0000000000
40
0.1003512405
40
0.2016962666
40
0.3010445316
40
0.3967461392
40
0.4908556444
40
0.5853401284
40
0.6833542250
40
0.7864422948
40
0.8926851432
40
1.0000000000
40
1.0000000000
40
1.0000000000
40
1.0000000000
10
291.9271299929
20
145.0372097983
30
0.0000000000
10
291.9271299929
20
145.1822567668
30
0.0000000000
10
291.9657473660
20
145.4755038165
30
0.0000000000
10
292.1409617599
20
145.8795418777
30
0.0000000000
10
292.4073968819
20
146.2199946710
30
0.0000000000
10
292.7285539492
20
146.4909537861
30
0.0000000000
10
293.0822637743
20
146.7028354612
30
0.0000000000
10
293.4630697045
20
146.8683244738
30
0.0000000000
10
293.8719156199
20
146.9948831360
30
0.0000000000
10
294.3077222603
20
147.0843262914
30
0.0000000000
10
294.7630529366
20
147.1357876300
30
0.0000000000
10
295.0720321803
20
147.1443722239
30
0.0000000000
10
295.2271299929
20
147.1422647634
30
0.0000000000
11
291.9271299929
21
145.0372097983
31
0.0000000000
11
291.9850570535
21
145.4684777701
31
0.0000000000
11
292.1583416960
21
145.8723203836
31
0.0000000000
11
292.4213894890
21
146.2134764400
31
0.0000000000
11
292.7367641134
21
146.4831922875
31
0.0000000000
11
293.0857655608
21
146.6946720897
31
0.0000000000
11
293.4609076864
21
146.8593651009
31
0.0000000000
11
293.8665600859
21
146.9861592979
31
0.0000000000
11
294.3042646821
21
147.0768846784
31
0.0000000000
11
294.7619785026
21
147.1291480952
31
0.0000000000
11
295.2271299929
21
147.1422647634
31
0.0000000000
0
SPLINE
5
2E3
100
AcDbEntity
8
0
100
AcDbSpline
62
7
6
CONTINUOUS
70
0
71
3
72
10
73
6
74
4
42
0.0000001000
43
0.0000001000
44
0.0000000001
40
0.0000000000
40
0.0000000000
40
0.0000000000
40
0.0000000000
40
0.3319886405
40
0.6654479417
40
1.0000000000
40
1.0000000000
40
1.0000000000
40
1.0000000000
10
288.1771299929
20
144.1256063325
30
0.0000000000
10
288.5531661783
20
143.8560561762
30
0.0000000000
10
289.3392095123
20
143.3592788142
30
0.0000000000
10
290.5973925745
20
142.7536385321
30
0.0000000000
10
291.4788754626
20
142.4468656457
30
0.0000000000
10
291.9271299929
20
142.3186204421
30
0.0000000000
11
288.1771299929
21
144.1256063325
31
0.0000000000
11
289.3502188032
21
143.3837120418
31
0.0000000000
11
290.6062347545
21
142.7786708469
31
0.0000000000
11
291.9271299929
21
142.3186204421
31
0.0000000000
0
SPLINE
5
2E4
100
AcDbEntity
8
0
100
AcDbSpline
62
7
6
CONTINUOUS
70
0
71
3
72
9
73
5
74
3
42
0.0000001000
43
0.0000001000
44
0.0000000001
40
0.0000000000
40
0.0000000000
40
0.0000000000
40
0.0000000000
40
0.5006973719
40
1.0000000000
40
1.0000000000
40
1.0000000000
40
1.0000000000
10
288.0831559090
20
144.1931211282
30
0.0000000000
10
288.0988277003
20
144.1818357220
30
0.0000000000
10
288.1301403812
20
144.1593140525
30
0.0000000000
10
288.1614774752
20
144.1368263659
30
0.0000000000
10
288.1771299929
20
144.1256063325
30
0.0000000000
11
288.0831559090
21
144.1931211282
31
0.0000000000
11
288.1301901747
21
144.1592911600
31
0.0000000000
11
288.1771299929
21
144.1256063325
31
0.0000000000
0
ENDSEC
0
SECTION
2
OBJECTS
0
DICTIONARY
5
2E5
100
AcDbDictionary
3
ACAD_GROUP
350
2E6
3
ACAD_MLINESTYLE
350
2E7
0
DICTIONARY
5
2E6
102
{ACAD_REACTORS
330
2E5
102
}
100
AcDbDictionary
0
DICTIONARY
5
2E7
102
{ACAD_REACTORS
330
2E5
102
}
100
AcDbDictionary
3
STANDARD
350
2E8
0
MLINESTYLE
5
2E8
102
{ACAD_REACTORS
330
2E7
102
}
100
AcDbMlineStyle
2
STANDARD
70
0
3

62
256
51
90.0
52
90.0
71
2
49
0.5
62
256
6
BYLAYER
49
-0.5
62
256
6
BYLAYER
0
ENDSEC
0
EOF
