999
DXF file: 001-m33737-p1.dxf
999
Pro/ENGINEER 2011490 by Parametric Technology Corporation
  0
SECTION
  2
HEADER
  9
$ACADVER
  1
AC1015
  9
$DWGCODEPAGE
  3
ANSI_1252
  9
$EXTMAX
 10
420.0
 20
297.0
 30
0.0
  9
$EXTMIN
 10
0.0
 20
0.0
 30
0.0
  9
$LIMMIN
 10
0.0
 20
0.0
  9
$LIMMAX
 10
420.0
 20
297.0
  9
$VIEWCTR
 10
210.0
 20
148.5
  9
$VIEWSIZE
 40
297.0
  9
$CLAYER
  8
0
  9
$LTSCALE
 40
23.1
  9
$CELTYPE
  6
BYLAYER
  9
$DIMSCALE
 40
1.0
  9
$DIMASZ
 40
3.5
  9
$DIMEXO
 40
2.625
  9
$DIMDLI
 40
15.96
  9
$DIMEXE
 40
7.56
  9
$DIMCEN
 40
3.78
  9
$DIMLFAC
 40
1.0
  9
$DIMBLK
  1
_FILLED
  9
$DIMTXT
 40
3.5
  9
$DIMTOL
 70
1
  9
$DIMLIM
 70
0
  9
$DIMTFAC
 40
1.0
  9
$DIMTP
 40
0.005
  9
$DIMTM
 40
0.005
  9
$PDMODE
 70
3
  9
$PDSIZE
 40
0.3125
  9
$HANDSEED
  5
480
  9
$TILEMODE
 70
1
  9
$MEASUREMENT
 70
1
  9
$INSUNITS
 70
4
  0
ENDSEC
  0
SECTION
  2
CLASSES
  0
CLASS
  1
ACDBDICTIONARYWDFLT
  2
AcDbDictionaryWithDefault
  3
AutoCAD 2000
 90
0
280
0
281
0
  0
CLASS
  1
ACDBPLACEHOLDER
  2
AcDbPlaceHolder
  3
AutoCAD 2000
 90
0
280
0
281
0
  0
CLASS
  1
LAYOUT
  2
AcDbLayout
  3
AutoCAD 2000
 90
0
280
0
281
0
  0
ENDSEC
  0
SECTION
  2
TABLES
  0
TABLE
  2
VPORT
  5
8
100
AcDbSymbolTable
 70
2
  0
VPORT
  5
1F4
100
AcDbSymbolTableRecord
100
AcDbViewportTableRecord
  2
*ACTIVE
 70
0
 10
0.0
 20
0.0
 11
1.0
 21
1.0
 12
210.0
 22
148.5
 13
0.0
 23
0.0
 14
1.0
 24
1.0
 15
0.0
 25
0.0
 16
0.0
 26
0.0
 36
1.0
 17
0.0
 27
0.0
 37
0.0
 40
297.0
 41
1.4141414141
 42
50.0
 43
0.0
 44
0.0
 50
0.0
 51
0.0
 71
0
 72
100
 73
1
 74
1
 75
0
 76
0
 77
0
 78
0
  0
ENDTAB
  0
TABLE
  2
LTYPE
  5
5
100
AcDbSymbolTable
 70
6
  0
LTYPE
  5
14
100
AcDbSymbolTableRecord
100
AcDbLinetypeTableRecord
  2
BYBLOCK
 70
0
  3

 72
65
 73
0
 40
0.0
  0
LTYPE
  5
15
100
AcDbSymbolTableRecord
100
AcDbLinetypeTableRecord
  2
BYLAYER
 70
0
  3

 72
65
 73
0
 40
0.0
  0
LTYPE
  5
16
100
AcDbSymbolTableRecord
100
AcDbLinetypeTableRecord
  2
CONTINUOUS
 70
64
  3
Solid line
 72
65
 73
0
 40
0.0
  0
LTYPE
  5
1F5
100
AcDbSymbolTableRecord
100
AcDbLinetypeTableRecord
  2
CENTER
 70
64
  3
____ _ ____ _ ____ _ ____ _ ____ _ ____ _ ____
 72
65
 73
4
 40
0.6
 49
0.375
 74
0
 49
-0.075
 74
0
 49
0.075
 74
0
 49
-0.075
 74
0
  0
LTYPE
  5
1F6
100
AcDbSymbolTableRecord
100
AcDbLinetypeTableRecord
  2
HIDDEN
 70
64
  3
- - - - - - - - - - - - - - - - - - - -
 72
65
 73
2
 40
0.2
 49
0.1
 74
0
 49
-0.1
 74
0
  0
LTYPE
  5
1F7
100
AcDbSymbolTableRecord
100
AcDbLinetypeTableRecord
  2
PHANTOM
 70
64
  3
_____ _ _ _____ _ _ _____ _ _ _____
 72
65
 73
6
 40
0.8
 49
0.45
 74
0
 49
-0.05
 74
0
 49
0.1
 74
0
 49
-0.05
 74
0
 49
0.1
 74
0
 49
-0.05
 74
0
  0
LTYPE
  5
1F8
100
AcDbSymbolTableRecord
100
AcDbLinetypeTableRecord
  2
DOT
 70
64
  3
. . . . . . . . . . . . . . . . . . . .
 72
65
 73
2
 40
0.2
 49
0.1
 74
0
 49
-0.1
 74
0
  0
LTYPE
  5
1F9
100
AcDbSymbolTableRecord
100
AcDbLinetypeTableRecord
  2
DASHED
 70
64
  3
- - - - - - - - - - - - - - - - - - - -
 72
65
 73
2
 40
0.2
 49
0.1
 74
0
 49
-0.1
 74
0
  0
ENDTAB
  0
TABLE
  2
LAYER
  5
2
100
AcDbSymbolTable
 70
36
  0
LAYER
  5
10
100
AcDbSymbolTableRecord
100
AcDbLayerTableRecord
  2
0
 70
0
 62
7
  6
CONTINUOUS
370
-3
390
F
  0
LAYER
  5
1FA
100
AcDbSymbolTableRecord
100
AcDbLayerTableRecord
  2
DEFAULT_1
 70
0
 62
7
  6
CENTER
370
-3
390
F
  0
LAYER
  5
1FB
100
AcDbSymbolTableRecord
100
AcDbLayerTableRecord
  2
DEFAULT_2
 70
0
 62
8
  6
HIDDEN
370
-3
390
F
  0
LAYER
  5
1FC
100
AcDbSymbolTableRecord
100
AcDbLayerTableRecord
  2
DEFAULT_3
 70
0
 62
7
  6
PHANTOM
370
-3
390
F
  0
LAYER
  5
1FD
100
AcDbSymbolTableRecord
100
AcDbLayerTableRecord
  2
AUSFORMSCHRAEGEN
 70
0
 62
7
  6
CONTINUOUS
370
-3
390
F
  0
LAYER
  5
1FE
100
AcDbSymbolTableRecord
100
AcDbLayerTableRecord
  2
BEZUGSACHSEN
 70
0
 62
7
  6
CONTINUOUS
370
-3
390
F
  0
LAYER
  5
1FF
100
AcDbSymbolTableRecord
100
AcDbLayerTableRecord
  2
BEZUGSEBENEN
 70
0
 62
7
  6
CONTINUOUS
370
-3
390
F
  0
LAYER
  5
200
100
AcDbSymbolTableRecord
100
AcDbLayerTableRecord
  2
BEZUGSPUNKTE
 70
0
 62
7
  6
CONTINUOUS
370
-3
390
F
  0
LAYER
  5
201
100
AcDbSymbolTableRecord
100
AcDbLayerTableRecord
  2
BG_STARTBEZUEGE
 70
0
 62
7
  6
CONTINUOUS
370
-3
390
F
  0
LAYER
  5
202
100
AcDbSymbolTableRecord
100
AcDbLayerTableRecord
  2
FASEN
 70
0
 62
7
  6
CONTINUOUS
370
-3
390
F
  0
LAYER
  5
203
100
AcDbSymbolTableRecord
100
AcDbLayerTableRecord
  2
FLAECHEN
 70
0
 62
7
  6
CONTINUOUS
370
-3
390
F
  0
LAYER
  5
204
100
AcDbSymbolTableRecord
100
AcDbLayerTableRecord
  2
FLAECHENVERBUND
 70
0
 62
7
  6
CONTINUOUS
370
-3
390
F
  0
LAYER
  5
205
100
AcDbSymbolTableRecord
100
AcDbLayerTableRecord
  2
HILFEN
 70
0
 62
7
  6
CONTINUOUS
370
-3
390
F
  0
LAYER
  5
206
100
AcDbSymbolTableRecord
100
AcDbLayerTableRecord
  2
KONSTRUKTIONSELEMENTE
 70
0
 62
7
  6
CONTINUOUS
370
-3
390
F
  0
LAYER
  5
207
100
AcDbSymbolTableRecord
100
AcDbLayerTableRecord
  2
KURVEN
 70
0
 62
7
  6
CONTINUOUS
370
-3
390
F
  0
LAYER
  5
208
100
AcDbSymbolTableRecord
100
AcDbLayerTableRecord
  2
NORM
 70
0
 62
7
  6
CONTINUOUS
370
-3
390
F
  0
LAYER
  5
209
100
AcDbSymbolTableRecord
100
AcDbLayerTableRecord
  2
PLATZIERUNG
 70
0
 62
7
  6
CONTINUOUS
370
-3
390
F
  0
LAYER
  5
20A
100
AcDbSymbolTableRecord
100
AcDbLayerTableRecord
  2
RUNDUNGEN
 70
0
 62
7
  6
CONTINUOUS
370
-3
390
F
  0
LAYER
  5
20B
100
AcDbSymbolTableRecord
100
AcDbLayerTableRecord
  2
TEIL_STARTBEZUEGE
 70
0
 62
7
  6
CONTINUOUS
370
-3
390
F
  0
LAYER
  5
20C
100
AcDbSymbolTableRecord
100
AcDbLayerTableRecord
  2
VERRIEGELUNG
 70
0
 62
7
  6
CONTINUOUS
370
-3
390
F
  0
LAYER
  5
20D
100
AcDbSymbolTableRecord
100
AcDbLayerTableRecord
  2
VERSATZ
 70
0
 62
7
  6
CONTINUOUS
370
-3
390
F
  0
LAYER
  5
20E
100
AcDbSymbolTableRecord
100
AcDbLayerTableRecord
  2
ZEICHNUNGSBEMASSUNGEN
 70
0
 62
7
  6
CONTINUOUS
370
-3
390
F
  0
ENDTAB
  0
TABLE
  2
STYLE
  5
3
100
AcDbSymbolTable
 70
1
  0
STYLE
  5
11
100
AcDbSymbolTableRecord
100
AcDbTextStyleTableRecord
  2
STANDARD
 70
0
 40
0.0
 41
0.7
 50
0.0
 71
0
 42
0.2
  3
txt
  4

  0
STYLE
  5
20F
100
AcDbSymbolTableRecord
100
AcDbTextStyleTableRecord
  2
TEXTSTYLE_1
 70
0
 40
0.0
 41
0.8
 50
0.0
 71
0
 42
0.2
  3
gdt
  4

  0
ENDTAB
  0
TABLE
  2
VIEW
  5
6
100
AcDbSymbolTable
 70
0
  0
ENDTAB
  0
TABLE
  2
UCS
  5
7
100
AcDbSymbolTable
 70
0
  0
ENDTAB
  0
TABLE
  2
APPID
  5
9
100
AcDbSymbolTable
 70
1
  0
APPID
  5
210
100
AcDbSymbolTableRecord
100
AcDbRegAppTableRecord
  2
ACAD
 70
0
  0
ENDTAB
  0
TABLE
  2
BLOCK_RECORD
  5
1
100
AcDbSymbolTable
 70
0
  0
BLOCK_RECORD
  5
211
100
AcDbSymbolTableRecord
100
AcDbBlockTableRecord
  2
*Model_Space
  0
BLOCK_RECORD
  5
212
100
AcDbSymbolTableRecord
100
AcDbBlockTableRecord
  2
*Paper_Space
  0
ENDTAB
  0
TABLE
  2
DIMSTYLE
  5
A
100
AcDbSymbolTable
 70
1
100
AcDbDimStyleTable
 71
0
  0
DIMSTYLE
105
213
100
AcDbSymbolTableRecord
100
AcDbDimStyleTableRecord
  2
STANDARD
 70
0
  3

  4

 40
1.0
 41
3.5
 42
0.0625
 43
0.38
 44
0.18
 45
0.0
 46
0.0
 47
0.005
 48
0.005
140
3.5
141
0.09
142
0.0
143
25.4
144
1.0
145
0.0
146
1.0
147
0.09
 71
1.0
 72
0.0
 73
0
 74
0
 75
0
 76
0
 77
1
 78
8
170
0
171
2
172
0
173
0
174
0
175
0
176
0
177
0
178
5
270
2
271
3
272
3
273
2
274
2
275
0
280
0
281
0
282
0
283
1
284
8
285
0
286
0
287
3
288
0
340
11
  0
ENDTAB
  0
ENDSEC
  0
SECTION
  2
BLOCKS
  0
BLOCK
  5
20
100
AcDbEntity
  8
0
100
AcDbBlockBegin
  2
*Model_Space
 70
0
 10
0.0
 20
0.0
 30
0.0
  3
*Model_Space
  1

  0
ENDBLK
  5
21
100
AcDbEntity
  8
0
100
AcDbBlockEnd
  0
BLOCK
  5
1C
100
AcDbEntity
  8
0
100
AcDbBlockBegin
  2
*Paper_Space
 70
0
 10
0.0
 20
0.0
 30
0.0
  3
*Paper_Space
  1

  0
ENDBLK
  5
1D
100
AcDbEntity
  8
0
100
AcDbBlockEnd
  0
ENDSEC
  0
SECTION
  2
ENTITIES
  0
LINE
  5
214
100
AcDbEntity
  8
0
100
AcDbLine
 62
7
  6
CONTINUOUS
 10
0.0
 20
0.0
 11
0.0
 21
297.0
  0
LINE
  5
215
100
AcDbEntity
  8
0
100
AcDbLine
 62
7
  6
CONTINUOUS
 10
0.0
 20
0.0
 11
420.0
 21
0.0
  0
LINE
  5
216
100
AcDbEntity
  8
0
100
AcDbLine
 62
7
  6
CONTINUOUS
 10
0.0
 20
297.0
 11
420.0
 21
297.0
  0
LINE
  5
217
100
AcDbEntity
  8
0
100
AcDbLine
 62
7
  6
CONTINUOUS
 10
420.0
 20
0.0
 11
420.0
 21
297.0
  0
LINE
  5
218
100
AcDbEntity
  8
0
100
AcDbLine
 62
7
  6
CONTINUOUS
 10
176.7898952367
 20
72.4205994585
 11
176.3724338772
 21
72.3756020724
  0
LINE
  5
219
100
AcDbEntity
  8
0
100
AcDbLine
 62
7
  6
CONTINUOUS
 10
182.6858219489
 20
74.3215536603
 11
182.4485764535
 21
74.3000004745
  0
LINE
  5
21A
100
AcDbEntity
  8
0
100
AcDbLine
 62
7
  6
CONTINUOUS
 10
181.8791322163
 20
77.7757438644
 11
181.404640715
 21
77.7326366783
  0
LINE
  5
21B
100
AcDbEntity
  8
0
100
AcDbLine
 62
7
  6
CONTINUOUS
 10
176.60555814
 20
72.009986268
 11
176.8436357568
 21
72.0016705007
  0
LINE
  5
21C
100
AcDbEntity
  8
0
100
AcDbLine
 62
7
  6
CONTINUOUS
 10
182.2511449599
 20
73.9233371152
 11
182.5543382268
 21
73.8910946136
  0
LINE
  5
21D
100
AcDbEntity
  8
0
100
AcDbLine
 62
7
  6
CONTINUOUS
 10
177.2057060538
 20
72.3464973803
 11
176.7898952367
 21
72.4205994585
  0
LINE
  5
21E
100
AcDbEntity
  8
0
100
AcDbLine
 62
7
  6
CONTINUOUS
 10
97.3135191297
 20
91.9882486238
 11
96.9240862461
 21
92.170649678
  0
LINE
  5
21F
100
AcDbEntity
  8
0
100
AcDbLine
 62
7
  6
CONTINUOUS
 10
93.4509597718
 20
95.1632492924
 11
93.0615264277
 21
95.3456507252
  0
LINE
  5
220
100
AcDbEntity
  8
0
100
AcDbLine
 62
7
  6
CONTINUOUS
 10
96.5187669645
 20
91.6775569365
 11
96.9886704642
 21
91.4290095296
  0
LINE
  5
221
100
AcDbEntity
  8
0
100
AcDbLine
 62
7
  6
CONTINUOUS
 10
92.6562071461
 20
94.8525579836
 11
93.1261101853
 21
94.6040109552
  0
LINE
  5
222
100
AcDbEntity
  8
0
100
AcDbLine
 62
7
  6
CONTINUOUS
 10
87.3451873958
 20
99.2181844234
 11
87.8280073731
 21
98.8213092926
  0
LINE
  5
223
100
AcDbEntity
  8
0
100
AcDbLine
 62
7
  6
CONTINUOUS
 10
89.8397572018
 20
97.1676629769
 11
90.4030473288
 21
96.7046418647
  0
LINE
  5
224
100
AcDbEntity
  8
0
100
AcDbLine
 62
7
  6
CONTINUOUS
 10
92.3343270078
 20
95.1171415304
 11
92.6562071461
 21
94.8525579836
  0
LINE
  5
225
100
AcDbEntity
  8
0
100
AcDbLine
 62
7
  6
CONTINUOUS
 10
94.5874870553
 20
93.2650574601
 11
96.5187669645
 21
91.6775569365
  0
LINE
  5
226
100
AcDbEntity
  8
0
100
AcDbLine
 62
7
  6
CONTINUOUS
 10
96.9240862461
 20
92.170649678
 11
95.4756263142
 21
93.3612750707
  0
LINE
  5
227
100
AcDbEntity
  8
0
100
AcDbLine
 62
7
  6
CONTINUOUS
 10
93.0615264277
 20
95.3456507252
 11
92.7396462894
 21
95.6102342719
  0
LINE
  5
228
100
AcDbEntity
  8
0
100
AcDbLine
 62
7
  6
CONTINUOUS
 10
89.2466248824
 20
100.5471339168
 11
90.6146147797
 21
99.4226544108
  0
LINE
  5
229
100
AcDbEntity
  8
0
100
AcDbLine
 62
7
  6
CONTINUOUS
 10
91.1808739681
 20
99.783455416
 11
89.6519441167
 21
101.0402266007
  0
LINE
  5
22A
100
AcDbEntity
  8
0
100
AcDbLine
 62
7
  6
CONTINUOUS
 10
97.8399888455
 20
96.2376494636
 11
99.2884487773
 21
95.0470240709
  0
LINE
  5
22B
100
AcDbEntity
  8
0
100
AcDbLine
 62
7
  6
CONTINUOUS
 10
90.6652423917
 20
102.272958541
 11
92.1941722431
 21
101.0161873562
  0
LINE
  5
22C
100
AcDbEntity
  8
0
100
AcDbLine
 62
7
  6
CONTINUOUS
 10
99.6937680116
 20
95.5401167549
 11
97.7624881024
 21
97.1276172784
  0
LINE
  5
22D
100
AcDbEntity
  8
0
100
AcDbLine
 62
7
  6
CONTINUOUS
 10
97.1187282862
 20
97.6567839935
 11
96.6359083089
 21
98.0536591244
  0
LINE
  5
22E
100
AcDbEntity
  8
0
100
AcDbLine
 62
7
  6
CONTINUOUS
 10
94.7046283997
 20
99.6411596479
 11
94.2218081922
 21
100.0380349681
  0
LINE
  5
22F
100
AcDbEntity
  8
0
100
AcDbLine
 62
7
  6
CONTINUOUS
 10
92.4514683522
 20
101.4932437183
 11
90.520188443
 21
103.0807442418
  0
LINE
  5
230
100
AcDbEntity
  8
0
100
AcDbLine
 62
7
  6
CONTINUOUS
 10
91.9995303918
 20
95.5300528012
 11
92.3343270078
 21
95.1171415304
  0
LINE
  5
231
100
AcDbEntity
  8
0
100
AcDbLine
 62
7
  6
CONTINUOUS
 10
92.7862652043
 20
101.0803322654
 11
92.4514683522
 21
101.4932437183
  0
LINE
  5
232
100
AcDbEntity
  8
0
100
AcDbLine
 62
7
  6
CONTINUOUS
 10
100.028565094
 20
95.1272051128
 11
99.6937680116
 21
95.5401167549
  0
LINE
  5
233
100
AcDbEntity
  8
0
100
AcDbLine
 62
7
  6
CONTINUOUS
 10
92.7396462894
 20
95.6102342719
 11
92.4853198172
 21
95.9569995542
  0
LINE
  5
234
100
AcDbEntity
  8
0
100
AcDbLine
 62
7
  6
CONTINUOUS
 10
99.2884487773
 20
95.0470240709
 11
99.5427752495
 21
94.7002587886
  0
LINE
  5
235
100
AcDbEntity
  8
0
100
AcDbLine
 62
7
  6
CONTINUOUS
 10
92.1941722431
 20
101.0161873562
 11
92.368029026
 21
100.7355676768
  0
LINE
  5
236
100
AcDbEntity
  8
0
100
AcDbLine
 62
7
  6
CONTINUOUS
 10
91.8127566826
 20
95.9590005975
 11
91.9995303918
 21
95.5300528012
  0
LINE
  5
237
100
AcDbEntity
  8
0
100
AcDbLine
 62
7
  6
CONTINUOUS
 10
92.4853198172
 20
95.9569995542
 11
92.3790162873
 21
96.3198014052
  0
LINE
  5
238
100
AcDbEntity
  8
0
100
AcDbLine
 62
7
  6
CONTINUOUS
 10
91.7610898512
 20
96.5523122505
 11
91.8127566826
 21
95.9590005975
  0
LINE
  5
239
100
AcDbEntity
  8
0
100
AcDbLine
 62
7
  6
CONTINUOUS
 10
92.368029026
 20
100.7355676768
 11
92.3938626837
 21
100.4389116754
  0
LINE
  5
23A
100
AcDbEntity
  8
0
100
AcDbLine
 62
7
  6
CONTINUOUS
 10
97.6900355771
 20
91.9541753439
 11
97.3135191297
 21
91.9882486238
  0
LINE
  5
23B
100
AcDbEntity
  8
0
100
AcDbLine
 62
7
  6
CONTINUOUS
 10
183.3166994223
 20
76.7105910428
 11
183.0135067583
 21
76.7428342834
  0
LINE
  5
23C
100
AcDbEntity
  8
0
100
AcDbLine
 62
7
  6
CONTINUOUS
 10
181.6290251667
 20
77.3345074669
 11
181.9322184336
 21
77.3022649653
  0
LINE
  5
23D
100
AcDbEntity
  8
0
100
AcDbLine
 62
7
  6
CONTINUOUS
 10
96.9886704642
 20
91.4290095296
 11
97.4456565713
 21
91.3287906109
  0
LINE
  5
23E
100
AcDbEntity
  8
0
100
AcDbLine
 62
7
  6
CONTINUOUS
 10
93.1261101853
 20
94.6040109552
 11
93.5830967529
 21
94.5037916581
  0
LINE
  5
23F
100
AcDbEntity
  8
0
100
AcDbLine
 62
7
  6
CONTINUOUS
 10
91.2325412836
 20
99.1901434132
 11
91.6895276031
 21
99.0899242837
  0
LINE
  5
240
100
AcDbEntity
  8
0
100
AcDbLine
 62
7
  6
CONTINUOUS
 10
182.4485764535
 20
74.3000004745
 11
182.2640059112
 21
74.3430195878
  0
LINE
  5
241
100
AcDbEntity
  8
0
100
AcDbLine
 62
7
  6
CONTINUOUS
 10
183.0006451579
 20
76.3231511095
 11
183.369785732
 21
76.2371120684
  0
LINE
  5
242
100
AcDbEntity
  8
0
100
AcDbLine
 62
7
  6
CONTINUOUS
 10
91.4898371624
 20
99.6671999646
 11
91.1808739681
 21
99.783455416
  0
LINE
  5
243
100
AcDbEntity
  8
0
100
AcDbLine
 62
7
  6
CONTINUOUS
 10
100.2153383604
 20
94.6982577165
 11
100.028565094
 21
95.1272051128
  0
LINE
  5
244
100
AcDbEntity
  8
0
100
AcDbLine
 62
7
  6
CONTINUOUS
 10
99.5427752495
 20
94.7002587886
 11
99.6490788267
 21
94.3374569952
  0
LINE
  5
245
100
AcDbEntity
  8
0
100
AcDbLine
 62
7
  6
CONTINUOUS
 10
92.9054854952
 20
100.5692025659
 11
92.7862652043
 21
101.0803322654
  0
LINE
  5
246
100
AcDbEntity
  8
0
100
AcDbLine
 62
7
  6
CONTINUOUS
 10
100.2670052155
 20
94.1049460923
 11
100.2153383604
 21
94.6982577165
  0
LINE
  5
247
100
AcDbEntity
  8
0
100
AcDbLine
 62
7
  6
CONTINUOUS
 10
92.876682661
 20
100.0420365445
 11
92.9054854952
 21
100.5692025659
  0
LINE
  5
248
100
AcDbEntity
  8
0
100
AcDbLine
 62
7
  6
CONTINUOUS
 10
92.3790162873
 20
96.3198014052
 11
92.420735605
 21
96.6986397098
  0
LINE
  5
249
100
AcDbEntity
  8
0
100
AcDbLine
 62
7
  6
CONTINUOUS
 10
99.6490788267
 20
94.3374569952
 11
99.6073593198
 21
93.9586184603
  0
LINE
  5
24A
100
AcDbEntity
  8
0
100
AcDbLine
 62
7
  6
CONTINUOUS
 10
91.8703626522
 20
97.0133325375
 11
91.7610898512
 21
96.5523122505
  0
LINE
  5
24B
100
AcDbEntity
  8
0
100
AcDbLine
 62
7
  6
CONTINUOUS
 10
87.5149526476
 20
153.4338265885
 11
95.5552968914
 21
163.2153385127
  0
LINE
  5
24C
100
AcDbEntity
  8
RUNDUNGEN
100
AcDbLine
 62
7
  6
CONTINUOUS
 10
87.5149526476
 20
153.4338265885
 11
136.2857031464
 21
212.7660719617
  0
LINE
  5
24D
100
AcDbEntity
  8
0
100
AcDbLine
 62
7
  6
CONTINUOUS
 10
97.4456565713
 20
91.3287906109
 11
98.0377490957
 21
91.3929359274
  0
LINE
  5
24E
100
AcDbEntity
  8
0
100
AcDbLine
 62
7
  6
CONTINUOUS
 10
93.5830967529
 20
94.5037916581
 11
94.1751897377
 21
94.5679365961
  0
LINE
  5
24F
100
AcDbEntity
  8
0
100
AcDbLine
 62
7
  6
CONTINUOUS
 10
93.8274762192
 20
95.1291760125
 11
93.4509597718
 21
95.1632492924
  0
LINE
  5
250
100
AcDbEntity
  8
0
100
AcDbLine
 62
7
  6
CONTINUOUS
 10
182.0006277594
 20
74.0201534694
 11
182.2511449599
 21
73.9233371152
  0
LINE
  5
251
100
AcDbEntity
  8
0
100
AcDbLine
 62
7
  6
CONTINUOUS
 10
183.6331644867
 20
76.5599789258
 11
183.3166994223
 21
76.7105910428
  0
LINE
  5
252
100
AcDbEntity
  8
0
100
AcDbLine
 62
7
  6
CONTINUOUS
 10
182.1955965855
 20
77.6251310837
 11
181.8791322163
 21
77.7757438644
  0
LINE
  5
253
100
AcDbEntity
  8
0
100
AcDbLine
 62
7
  6
CONTINUOUS
 10
176.8436357568
 20
72.0016705007
 11
177.0800624858
 21
71.8742549403
  0
LINE
  5
254
100
AcDbEntity
  8
0
100
AcDbLine
 62
7
  6
CONTINUOUS
 10
177.4421324375
 20
72.219081491
 11
177.2057060538
 21
72.3464973803
  0
LINE
  5
255
100
AcDbEntity
  8
0
100
AcDbLine
 62
7
  6
CONTINUOUS
 10
174.0570568403
 20
65.7933543722
 11
170.9692918147
 21
67.7939700929
  0
LINE
  5
256
100
AcDbEntity
  8
0
100
AcDbLine
 62
7
  6
CONTINUOUS
 10
170.5783833801
 20
67.48221603
 11
174.1148384067
 21
65.1862927454
  0
LINE
  5
257
100
AcDbEntity
  8
0
100
AcDbLine
 62
7
  6
CONTINUOUS
 10
100.157732692
 20
93.6439256737
 11
100.2670052155
 21
94.1049460923
  0
LINE
  5
258
100
AcDbEntity
  8
0
100
AcDbLine
 62
7
  6
CONTINUOUS
 10
90.4030473288
 20
96.7046418647
 11
91.2325412836
 21
99.1901434132
  0
LINE
  5
259
100
AcDbEntity
  8
0
100
AcDbLine
 62
7
  6
CONTINUOUS
 10
90.6146147797
 20
99.4226544108
 11
89.8397572018
 21
97.1676629769
  0
LINE
  5
25A
100
AcDbEntity
  8
0
100
AcDbLine
 62
7
  6
CONTINUOUS
 10
92.3938626837
 20
100.4389116754
 11
92.2716729861
 21
100.1262195413
  0
LINE
  5
25B
100
AcDbEntity
  8
0
100
AcDbLine
 62
7
  6
CONTINUOUS
 10
92.7544929634
 20
99.7293444104
 11
92.876682661
 21
100.0420365445
  0
LINE
  5
25C
100
AcDbEntity
  8
0
100
AcDbLine
 62
7
  6
CONTINUOUS
 10
91.785883643
 20
99.6992724192
 11
91.4898371624
 21
99.6671999646
  0
LINE
  5
25D
100
AcDbEntity
  8
0
100
AcDbLine
 62
7
  6
CONTINUOUS
 10
181.8542306154
 20
75.8602734159
 11
182.1180194748
 21
75.6450875594
  0
LINE
  5
25E
100
AcDbEntity
  8
0
100
AcDbLine
 62
7
  6
CONTINUOUS
 10
181.9322184336
 20
77.3022649653
 11
182.0641130481
 21
77.1946718863
  0
LINE
  5
25F
100
AcDbEntity
  8
0
100
AcDbLine
 62
7
  6
CONTINUOUS
 10
183.369785732
 20
76.2371120684
 11
183.6335745914
 21
76.0219262119
  0
LINE
  5
260
100
AcDbEntity
  8
0
100
AcDbLine
 62
7
  6
CONTINUOUS
 10
178.9516644744
 20
74.3227207541
 11
179.4586973115
 21
73.8683243551
  0
LINE
  5
261
100
AcDbEntity
  8
0
100
AcDbLine
 62
7
  6
CONTINUOUS
 10
179.3487408353
 20
74.6382733778
 11
181.8205254055
 21
72.4230913903
  0
LINE
  5
262
100
AcDbEntity
  8
0
100
AcDbLine
 62
7
  6
CONTINUOUS
 10
182.1542226839
 20
72.795443544
 11
179.1754054542
 21
75.4650217714
  0
LINE
  5
263
100
AcDbEntity
  8
0
100
AcDbLine
 62
7
  6
CONTINUOUS
 10
178.7958833272
 20
71.9195829079
 11
179.1045383995
 21
71.6266502959
  0
LINE
  5
264
100
AcDbEntity
  8
0
100
AcDbLine
 62
7
  6
CONTINUOUS
 10
179.9076614106
 20
72.4728790218
 11
179.5990063383
 21
72.7658116339
  0
LINE
  5
265
100
AcDbEntity
  8
0
100
AcDbLine
 62
7
  6
CONTINUOUS
 10
174.5637350065
 20
70.770569112
 11
177.3223474122
 21
67.8740094984
  0
LINE
  5
266
100
AcDbEntity
  8
0
100
AcDbLine
 62
7
  6
CONTINUOUS
 10
177.6844173639
 20
68.2188360491
 11
176.451845846
 21
69.5130435544
  0
LINE
  5
267
100
AcDbEntity
  8
0
100
AcDbLine
 62
7
  6
CONTINUOUS
 10
176.0996826021
 20
69.882817078
 11
175.2192743281
 21
70.8072510597
  0
LINE
  5
268
100
AcDbEntity
  8
0
100
AcDbLine
 62
7
  6
CONTINUOUS
 10
119.6431346229
 20
248.7888526562
 11
119.3696986818
 21
275.7995254932
  0
LINE
  5
269
100
AcDbEntity
  8
0
100
AcDbLine
 62
7
  6
CONTINUOUS
 10
92.420735605
 20
96.6986397098
 11
92.6104787386
 21
97.0935137686
  0
LINE
  5
26A
100
AcDbEntity
  8
0
100
AcDbLine
 62
7
  6
CONTINUOUS
 10
99.6073593198
 20
93.9586184603
 11
99.4176161861
 21
93.5637444015
  0
LINE
  5
26B
100
AcDbEntity
  8
0
100
AcDbLine
 62
7
  6
CONTINUOUS
 10
92.1276585311
 20
97.4903890888
 11
91.8703626522
 21
97.0133325375
  0
LINE
  5
26C
100
AcDbEntity
  8
0
100
AcDbLine
 62
7
  6
CONTINUOUS
 10
91.6895276031
 20
99.0899242837
 11
92.2011504146
 21
99.2202151743
  0
LINE
  5
26D
100
AcDbEntity
  8
0
100
AcDbLine
 62
7
  6
CONTINUOUS
 10
182.3274911999
 20
77.5175380048
 11
182.1955965855
 21
77.6251310837
  0
LINE
  5
26E
100
AcDbEntity
  8
0
100
AcDbLine
 62
7
  6
CONTINUOUS
 10
183.896953346
 20
76.3447930693
 11
183.6331644867
 21
76.5599789258
  0
LINE
  5
26F
100
AcDbEntity
  8
0
100
AcDbLine
 62
7
  6
CONTINUOUS
 10
177.0800624858
 20
71.8742549403
 11
177.2561442721
 21
71.6893680058
  0
LINE
  5
270
100
AcDbEntity
  8
0
100
AcDbLine
 62
7
  6
CONTINUOUS
 10
177.6769080978
 20
71.972565636
 11
177.4421324375
 21
72.219081491
  0
LINE
  5
271
100
AcDbEntity
  8
0
100
AcDbLine
 62
7
  6
CONTINUOUS
 10
173.6759558211
 20
70.0124916251
 11
176.3080897711
 21
67.0005369659
  0
LINE
  5
272
100
AcDbEntity
  8
0
100
AcDbLine
 62
7
  6
CONTINUOUS
 10
176.6845841035
 20
67.3295537096
 11
174.0524501535
 21
70.3415083689
  0
LINE
  5
273
100
AcDbEntity
  8
0
100
AcDbLine
 62
7
  6
CONTINUOUS
 10
125.5548488658
 20
199.7114096337
 11
124.592700923
 21
208.9275235398
  0
LINE
  5
274
100
AcDbEntity
  8
0
100
AcDbLine
 62
7
  6
CONTINUOUS
 10
99.9004361634
 20
93.1668692706
 11
100.157732692
 21
93.6439256737
  0
LINE
  5
275
100
AcDbEntity
  8
0
100
AcDbLine
 62
7
  6
CONTINUOUS
 10
90.520188443
 20
103.0807442418
 11
87.3451873958
 21
99.2181844234
  0
LINE
  5
276
100
AcDbEntity
  8
0
100
AcDbLine
 62
7
  6
CONTINUOUS
 10
87.8280073731
 20
98.8213092926
 11
89.2466248824
 21
100.5471339168
  0
LINE
  5
277
100
AcDbEntity
  8
0
100
AcDbLine
 62
7
  6
CONTINUOUS
 10
89.6519441167
 20
101.0402266007
 11
90.6652423917
 21
102.272958541
  0
LINE
  5
278
100
AcDbEntity
  8
0
100
AcDbLine
 62
7
  6
CONTINUOUS
 10
92.2716729861
 20
100.1262195413
 11
92.0690131797
 21
99.8796729691
  0
LINE
  5
279
100
AcDbEntity
  8
0
100
AcDbLine
 62
7
  6
CONTINUOUS
 10
92.4842799512
 20
99.4006157242
 11
92.7544929634
 21
99.7293444104
  0
LINE
  5
27A
100
AcDbEntity
  8
0
100
AcDbLine
 62
7
  6
CONTINUOUS
 10
94.2218081922
 20
100.0380349681
 11
92.1276585311
 21
97.4903890888
  0
LINE
  5
27B
100
AcDbEntity
  8
0
100
AcDbLine
 62
7
  6
CONTINUOUS
 10
92.6104787386
 20
97.0935137686
 11
94.7046283997
 21
99.6411596479
  0
LINE
  5
27C
100
AcDbEntity
  8
RUNDUNGEN
100
AcDbLine
 62
7
  6
CONTINUOUS
 10
168.7312056209
 20
186.0960631657
 11
139.5721882692
 21
150.6225476946
  0
LINE
  5
27D
100
AcDbEntity
  8
0
100
AcDbLine
 62
7
  6
CONTINUOUS
 10
96.6359083089
 20
98.0536591244
 11
94.5417586478
 21
95.5060132451
  0
LINE
  5
27E
100
AcDbEntity
  8
0
100
AcDbLine
 62
7
  6
CONTINUOUS
 10
95.0245786251
 20
95.1091381142
 11
97.1187282862
 21
97.6567839935
  0
LINE
  5
27F
100
AcDbEntity
  8
0
100
AcDbLine
 62
7
  6
CONTINUOUS
 10
97.7624881024
 20
97.1276172784
 11
94.5874870553
 21
93.2650574601
  0
LINE
  5
280
100
AcDbEntity
  8
0
100
AcDbLine
 62
7
  6
CONTINUOUS
 10
180.1935092717
 20
75.709397307
 11
180.4046226213
 21
75.4296383746
  0
LINE
  5
281
100
AcDbEntity
  8
0
100
AcDbLine
 62
7
  6
CONTINUOUS
 10
182.5386045494
 20
77.2377790724
 11
182.3274911999
 21
77.5175380048
  0
LINE
  5
282
100
AcDbEntity
  8
0
100
AcDbLine
 62
7
  6
CONTINUOUS
 10
120.0578545742
 20
243.7596105967
 11
120.5254994591
 21
241.3258990767
  0
LINE
  5
283
100
AcDbEntity
  8
0
100
AcDbLine
 62
7
  6
CONTINUOUS
 10
142.3647557658
 20
242.2767959492
 11
142.3576498635
 21
242.530521895
  0
LINE
  5
284
100
AcDbEntity
  8
0
100
AcDbLine
 62
7
  6
CONTINUOUS
 10
142.3576498636
 20
242.5305218943
 11
142.0396990595
 21
273.9384820685
  0
LINE
  5
285
100
AcDbEntity
  8
0
100
AcDbLine
 62
7
  6
CONTINUOUS
 10
156.5569223093
 20
242.6742647573
 11
156.4986364507
 21
241.6916875289
  0
LINE
  5
286
100
AcDbEntity
  8
0
100
AcDbLine
 62
7
  6
CONTINUOUS
 10
95.4756263142
 20
93.3612750707
 11
97.8399888455
 21
96.2376494636
  0
LINE
  5
287
100
AcDbEntity
  8
0
100
AcDbLine
 62
7
  6
CONTINUOUS
 10
99.4176161861
 20
93.5637444015
 11
98.4043180058
 21
92.3310125764
  0
LINE
  5
288
100
AcDbEntity
  8
0
100
AcDbLine
 62
7
  6
CONTINUOUS
 10
98.8871379831
 20
91.9341374455
 11
99.9004361634
 21
93.1668692706
  0
LINE
  5
289
100
AcDbEntity
  8
0
100
AcDbLine
 62
7
  6
CONTINUOUS
 10
184.6782880751
 20
170.7120019781
 11
179.2582695835
 21
167.4526463557
  0
LINE
  5
28A
100
AcDbEntity
  8
0
100
AcDbLine
 62
7
  6
CONTINUOUS
 10
184.1083598794
 20
171.1995282357
 11
179.3762165632
 21
168.3597182255
  0
LINE
  5
28B
100
AcDbEntity
  8
0
100
AcDbLine
 62
7
  6
CONTINUOUS
 10
188.1349270598
 20
164.2150825997
 11
188.4974434523
 21
164.390808501
  0
LINE
  5
28C
100
AcDbEntity
  8
0
100
AcDbLine
 62
7
  6
CONTINUOUS
 10
188.5634044408
 20
163.586429142
 11
188.9259203371
 21
163.7621555583
  0
LINE
  5
28D
100
AcDbEntity
  8
0
100
AcDbLine
 62
7
  6
CONTINUOUS
 10
184.0421189241
 20
76.1188298244
 11
183.896953346
 21
76.3447930693
  0
LINE
  5
28E
100
AcDbEntity
  8
0
100
AcDbLine
 62
7
  6
CONTINUOUS
 10
177.2561442721
 20
71.6893680058
 11
177.371880787
 21
71.4470100426
  0
LINE
  5
28F
100
AcDbEntity
  8
0
100
AcDbLine
 62
7
  6
CONTINUOUS
 10
177.792644958
 20
71.7302080016
 11
177.6769080978
 21
71.972565636
  0
LINE
  5
290
100
AcDbEntity
  8
0
100
AcDbLine
 62
7
  6
CONTINUOUS
 10
182.0641130481
 20
77.1946718863
 11
182.222550285
 21
76.850339139
  0
LINE
  5
291
100
AcDbEntity
  8
0
100
AcDbLine
 62
7
  6
CONTINUOUS
 10
183.6335745914
 20
76.0219262119
 11
183.7127935112
 21
75.8497602077
  0
LINE
  5
292
100
AcDbEntity
  8
0
100
AcDbLine
 62
7
  6
CONTINUOUS
 10
174.6360496218
 20
65.6019648045
 11
173.1844395488
 21
69.5605763998
  0
LINE
  5
293
100
AcDbEntity
  8
0
100
AcDbLine
 62
7
  6
CONTINUOUS
 10
172.7935311142
 20
69.2488223369
 11
174.0570568403
 21
65.7933543722
  0
LINE
  5
294
100
AcDbEntity
  8
RUNDUNGEN
100
AcDbLine
 62
7
  6
CONTINUOUS
 10
126.6846502025
 20
220.3869673754
 11
125.215300685
 21
225.3220938625
  0
LINE
  5
295
100
AcDbEntity
  8
0
100
AcDbLine
 62
7
  6
CONTINUOUS
 10
127.8464684294
 20
216.4847508934
 11
121.0965629761
 21
239.1557606101
  0
LINE
  5
296
100
AcDbEntity
  8
0
100
AcDbLine
 62
7
  6
CONTINUOUS
 10
156.5569223093
 20
242.6742647565
 11
156.2389714914
 21
274.0822262971
  0
LINE
  5
297
100
AcDbEntity
  8
RUNDUNGEN
100
AcDbLine
 62
7
  6
CONTINUOUS
 10
180.002866912
 20
244.2865534502
 11
179.6206669392
 21
242.3429596329
  0
LINE
  5
298
100
AcDbEntity
  8
0
100
AcDbLine
 62
7
  6
CONTINUOUS
 10
179.6054495413
 20
242.2768425857
 11
179.6206669392
 21
242.3429596329
  0
LINE
  5
299
100
AcDbEntity
  8
0
100
AcDbLine
 62
7
  6
CONTINUOUS
 10
181.487017637
 20
165.444679586
 11
185.607397777
 21
169.8061549673
  0
LINE
  5
29A
100
AcDbEntity
  8
0
100
AcDbLine
 62
7
  6
CONTINUOUS
 10
182.0322020596
 20
164.9296320685
 11
186.1525821996
 21
169.2911074498
  0
LINE
  5
29B
100
AcDbEntity
  8
0
100
AcDbLine
 62
7
  6
CONTINUOUS
 10
182.7750836037
 20
164.2580666277
 11
187.0956716166
 21
168.421300854
  0
LINE
  5
29C
100
AcDbEntity
  8
0
100
AcDbLine
 62
7
  6
CONTINUOUS
 10
183.295487882
 20
163.7179931261
 11
185.2259634045
 21
165.5781616366
  0
LINE
  5
29D
100
AcDbEntity
  8
0
100
AcDbLine
 62
7
  6
CONTINUOUS
 10
185.777527766
 20
166.109638283
 11
187.156438927
 21
167.4383301471
  0
LINE
  5
29E
100
AcDbEntity
  8
0
100
AcDbLine
 62
7
  6
CONTINUOUS
 10
188.4974434523
 20
164.390808501
 11
188.7732258906
 21
164.6565470723
  0
LINE
  5
29F
100
AcDbEntity
  8
0
100
AcDbLine
 62
7
  6
CONTINUOUS
 10
189.7141541401
 20
162.8407242363
 11
190.485236796
 21
163.5103793003
  0
LINE
  5
2A0
100
AcDbEntity
  8
0
100
AcDbLine
 62
7
  6
CONTINUOUS
 10
94.6063424469
 20
94.7643735255
 11
95.0245786251
 21
95.1091381142
  0
LINE
  5
2A1
100
AcDbEntity
  8
0
100
AcDbLine
 62
7
  6
CONTINUOUS
 10
98.4689022652
 20
91.5893724783
 11
98.8871379831
 21
91.9341374455
  0
LINE
  5
2A2
100
AcDbEntity
  8
0
100
AcDbLine
 62
7
  6
CONTINUOUS
 10
94.5417586478
 20
95.5060132451
 11
94.1910756753
 21
95.2434307704
  0
LINE
  5
2A3
100
AcDbEntity
  8
0
100
AcDbLine
 62
7
  6
CONTINUOUS
 10
98.4043180058
 20
92.3310125764
 11
98.0536354937
 21
92.0684297232
  0
LINE
  5
2A4
100
AcDbEntity
  8
0
100
AcDbLine
 62
7
  6
CONTINUOUS
 10
92.0690131797
 20
99.8796729691
 11
91.785883643
 21
99.6992724192
  0
LINE
  5
2A5
100
AcDbEntity
  8
0
100
AcDbLine
 62
7
  6
CONTINUOUS
 10
92.2011504146
 20
99.2202151743
 11
92.4842799512
 21
99.4006157242
  0
LINE
  5
2A6
100
AcDbEntity
  8
0
100
AcDbLine
 62
7
  6
CONTINUOUS
 10
191.9753248864
 20
161.0164162725
 11
192.4544660851
 21
161.2327493527
  0
LINE
  5
2A7
100
AcDbEntity
  8
0
100
AcDbLine
 62
7
  6
CONTINUOUS
 10
193.9148688692
 20
157.2961359931
 11
194.3940100679
 21
157.5124690733
  0
LINE
  5
2A8
100
AcDbEntity
  8
0
100
AcDbLine
 62
7
  6
CONTINUOUS
 10
192.1590397142
 20
155.6041643512
 11
191.78042109
 21
155.4665215008
  0
LINE
  5
2A9
100
AcDbEntity
  8
0
100
AcDbLine
 62
7
  6
CONTINUOUS
 10
191.7737857364
 20
156.0963057745
 11
191.4956889457
 21
156.0373543905
  0
LINE
  5
2AA
100
AcDbEntity
  8
0
100
AcDbLine
 62
7
  6
CONTINUOUS
 10
194.0087552083
 20
158.0046116229
 11
193.4525633904
 21
157.8867066021
  0
LINE
  5
2AB
100
AcDbEntity
  8
0
100
AcDbLine
 62
7
  6
CONTINUOUS
 10
191.78042109
 20
155.4665215008
 11
191.3247510352
 21
155.4273078913
  0
LINE
  5
2AC
100
AcDbEntity
  8
0
100
AcDbLine
 62
7
  6
CONTINUOUS
 10
193.9148688692
 20
157.2961359931
 11
193.4591988144
 21
157.2569223836
  0
LINE
  5
2AD
100
AcDbEntity
  8
0
100
AcDbLine
 62
7
  6
CONTINUOUS
 10
192.8162489191
 20
160.5634884588
 11
192.3605788643
 21
160.5242748492
  0
LINE
  5
2AE
100
AcDbEntity
  8
0
100
AcDbLine
 62
7
  6
CONTINUOUS
 10
180.6680013759
 20
75.752505232
 11
180.575510751
 21
76.0430407762
  0
LINE
  5
2AF
100
AcDbEntity
  8
0
100
AcDbLine
 62
7
  6
CONTINUOUS
 10
182.6310945715
 20
76.9472427892
 11
182.5386045494
 21
77.2377790724
  0
LINE
  5
2B0
100
AcDbEntity
  8
0
100
AcDbLine
 62
7
  6
CONTINUOUS
 10
184.134609549
 20
75.8282942802
 11
184.0421189241
 21
76.1188298244
  0
LINE
  5
2B1
100
AcDbEntity
  8
0
100
AcDbLine
 62
7
  6
CONTINUOUS
 10
181.448695057
 20
173.4746506935
 11
179.3762165632
 21
168.3597182255
  0
LINE
  5
2B2
100
AcDbEntity
  8
0
100
AcDbLine
 62
7
  6
CONTINUOUS
 10
180.8787668614
 20
173.9621769511
 11
178.4983653679
 21
168.102681327
  0
LINE
  5
2B3
100
AcDbEntity
  8
0
100
AcDbLine
 62
7
  6
CONTINUOUS
 10
188.9259203371
 20
163.7621555583
 11
189.2936301689
 21
164.1164735707
  0
LINE
  5
2B4
100
AcDbEntity
  8
0
100
AcDbLine
 62
7
  6
CONTINUOUS
 10
187.1216021507
 20
159.5958409895
 11
190.8806293217
 21
162.860408752
  0
LINE
  5
2B5
100
AcDbEntity
  8
0
100
AcDbLine
 62
7
  6
CONTINUOUS
 10
187.6133799747
 20
159.0295772949
 11
192.1434895316
 21
162.9637998868
  0
LINE
  5
2B6
100
AcDbEntity
  8
0
100
AcDbLine
 62
7
  6
CONTINUOUS
 10
191.7237712737
 20
158.438325541
 11
192.1258618532
 21
158.7530866806
  0
LINE
  5
2B7
100
AcDbEntity
  8
0
100
AcDbLine
 62
7
  6
CONTINUOUS
 10
194.0087552083
 20
158.0046116229
 11
194.2098007796
 21
158.1619924132
  0
LINE
  5
2B8
100
AcDbEntity
  8
0
100
AcDbLine
 62
7
  6
CONTINUOUS
 10
191.7737857364
 20
156.0963057745
 11
192.1758763159
 21
156.411066914
  0
LINE
  5
2B9
100
AcDbEntity
  8
0
100
AcDbLine
 62
7
  6
CONTINUOUS
 10
194.3940100679
 20
157.5124690733
 11
194.5950556392
 21
157.6698498635
  0
LINE
  5
2BA
100
AcDbEntity
  8
0
100
AcDbLine
 62
7
  6
CONTINUOUS
 10
192.1590397142
 20
155.6041643512
 11
192.5611302937
 21
155.9189254908
  0
LINE
  5
2BB
100
AcDbEntity
  8
0
100
AcDbLine
 62
7
  6
CONTINUOUS
 10
94.1751897377
 20
94.5679365961
 11
94.6063424469
 21
94.7643735255
  0
LINE
  5
2BC
100
AcDbEntity
  8
0
100
AcDbLine
 62
7
  6
CONTINUOUS
 10
188.5634044408
 20
163.586429142
 11
187.9354922311
 21
163.5021486436
  0
LINE
  5
2BD
100
AcDbEntity
  8
0
100
AcDbLine
 62
7
  6
CONTINUOUS
 10
190.8806293217
 20
162.860408752
 11
189.7141541401
 21
162.8407242363
  0
LINE
  5
2BE
100
AcDbEntity
  8
0
100
AcDbLine
 62
7
  6
CONTINUOUS
 10
191.6517117076
 20
163.5300635814
 11
190.485236796
 21
163.5103793003
  0
LINE
  5
2BF
100
AcDbEntity
  8
0
100
AcDbLine
 62
7
  6
CONTINUOUS
 10
188.1349270598
 20
164.2150825997
 11
187.7776043453
 21
164.2179480465
  0
LINE
  5
2C0
100
AcDbEntity
  8
0
100
AcDbLine
 62
7
  6
CONTINUOUS
 10
191.4956889457
 20
156.0373543905
 11
191.1405423471
 21
156.0768298843
  0
LINE
  5
2C1
100
AcDbEntity
  8
0
100
AcDbLine
 62
7
  6
CONTINUOUS
 10
193.1647600233
 20
161.1537971284
 11
192.4544660851
 21
161.2327493527
  0
LINE
  5
2C2
100
AcDbEntity
  8
0
100
AcDbLine
 62
7
  6
CONTINUOUS
 10
193.4525633904
 20
157.8867066021
 11
193.0974159804
 21
157.9261832775
  0
LINE
  5
2C3
100
AcDbEntity
  8
0
100
AcDbLine
 62
7
  6
CONTINUOUS
 10
187.9354922311
 20
163.5021486436
 11
187.3127741957
 21
163.5964589781
  0
LINE
  5
2C4
100
AcDbEntity
  8
0
100
AcDbLine
 62
7
  6
CONTINUOUS
 10
193.4591988144
 20
157.2569223836
 11
192.8494275211
 21
157.4145648928
  0
LINE
  5
2C5
100
AcDbEntity
  8
0
100
AcDbLine
 62
7
  6
CONTINUOUS
 10
191.3247510352
 20
155.4273078913
 11
190.8925529708
 21
155.5652125985
  0
LINE
  5
2C6
100
AcDbEntity
  8
0
100
AcDbLine
 62
7
  6
CONTINUOUS
 10
207.4785597498
 20
112.9146686827
 11
207.7793391189
 21
112.5634953599
  0
LINE
  5
2C7
100
AcDbEntity
  8
0
100
AcDbLine
 62
7
  6
CONTINUOUS
 10
197.4271724097
 20
124.6590940262
 11
207.6055222842
 21
112.7754167778
  0
LINE
  5
2C8
100
AcDbEntity
  8
0
100
AcDbLine
 62
7
  6
CONTINUOUS
 10
178.8417081758
 20
75.0926696177
 11
178.9516644744
 21
74.3227207541
  0
LINE
  5
2C9
100
AcDbEntity
  8
0
100
AcDbLine
 62
7
  6
CONTINUOUS
 10
179.4586973115
 20
73.8683243551
 11
179.3487408353
 21
74.6382733778
  0
LINE
  5
2CA
100
AcDbEntity
  8
0
100
AcDbLine
 62
7
  6
CONTINUOUS
 10
177.8463851327
 20
71.311278715
 11
177.792644958
 21
71.7302080016
  0
LINE
  5
2CB
100
AcDbEntity
  8
0
100
AcDbLine
 62
7
  6
CONTINUOUS
 10
180.1404236573
 20
76.182876945
 11
180.1935092717
 21
75.709397307
  0
LINE
  5
2CC
100
AcDbEntity
  8
0
100
AcDbLine
 62
7
  6
CONTINUOUS
 10
182.222550285
 20
76.850339139
 11
182.2490930922
 21
76.61359932
  0
LINE
  5
2CD
100
AcDbEntity
  8
0
100
AcDbLine
 62
7
  6
CONTINUOUS
 10
180.1165878302
 20
276.4143090516
 11
180.3900220415
 21
249.4038070868
  0
LINE
  5
2CE
100
AcDbEntity
  8
0
100
AcDbLine
 62
7
  6
CONTINUOUS
 10
177.371880787
 20
71.4470100426
 11
177.3685786661
 21
71.2088101275
  0
LINE
  5
2CF
100
AcDbEntity
  8
0
100
AcDbLine
 62
7
  6
CONTINUOUS
 10
182.618233574
 20
76.5275603543
 11
182.6310945715
 21
76.9472427892
  0
LINE
  5
2D0
100
AcDbEntity
  8
0
100
AcDbLine
 62
7
  6
CONTINUOUS
 10
189.4826786341
 20
164.4722238008
 11
189.5901855729
 21
165.0965788309
  0
LINE
  5
2D1
100
AcDbEntity
  8
0
100
AcDbLine
 62
7
  6
CONTINUOUS
 10
189.013223641
 20
158.3801609364
 11
189.1606903372
 21
158.8130879098
  0
LINE
  5
2D2
100
AcDbEntity
  8
0
100
AcDbLine
 62
7
  6
CONTINUOUS
 10
189.6464670303
 20
158.3996368266
 11
189.7704617009
 21
158.6554454557
  0
LINE
  5
2D3
100
AcDbEntity
  8
0
100
AcDbLine
 62
7
  6
CONTINUOUS
 10
192.1758763159
 20
156.411066914
 11
192.423864916
 21
156.922685409
  0
LINE
  5
2D4
100
AcDbEntity
  8
0
100
AcDbLine
 62
7
  6
CONTINUOUS
 10
188.7732258906
 20
164.6565470723
 11
188.9622738595
 21
165.0122978175
  0
LINE
  5
2D5
100
AcDbEntity
  8
0
100
AcDbLine
 62
7
  6
CONTINUOUS
 10
189.2936301689
 20
164.1164735707
 11
189.4826786341
 21
164.4722238008
  0
LINE
  5
2D6
100
AcDbEntity
  8
0
100
AcDbLine
 62
7
  6
CONTINUOUS
 10
189.1606903372
 20
158.8130879098
 11
189.3852068412
 21
159.1475880054
  0
LINE
  5
2D7
100
AcDbEntity
  8
0
100
AcDbLine
 62
7
  6
CONTINUOUS
 10
192.5611302937
 20
155.9189254908
 11
192.8861703948
 21
156.3321147999
  0
LINE
  5
2D8
100
AcDbEntity
  8
0
100
AcDbLine
 62
7
  6
CONTINUOUS
 10
194.5950556392
 20
157.6698498635
 11
194.9200955995
 21
158.0830390624
  0
LINE
  5
2D9
100
AcDbEntity
  8
0
100
AcDbLine
 62
7
  6
CONTINUOUS
 10
98.0377490957
 20
91.3929359274
 11
98.4689022652
 21
91.5893724783
  0
LINE
  5
2DA
100
AcDbEntity
  8
0
100
AcDbLine
 62
7
  6
CONTINUOUS
 10
94.1910756753
 20
95.2434307704
 11
93.8274762192
 21
95.1291760125
  0
LINE
  5
2DB
100
AcDbEntity
  8
0
100
AcDbLine
 62
7
  6
CONTINUOUS
 10
98.0536354937
 20
92.0684297232
 11
97.6900355771
 21
91.9541753439
  0
LINE
  5
2DC
100
AcDbEntity
  8
0
100
AcDbLine
 62
7
  6
CONTINUOUS
 10
193.2484469483
 20
160.425583724
 11
192.8162489191
 21
160.5634884588
  0
LINE
  5
2DD
100
AcDbEntity
  8
0
100
AcDbLine
 62
7
  6
CONTINUOUS
 10
190.8925529708
 20
155.5652125985
 11
190.3833042961
 21
155.8015453719
  0
LINE
  5
2DE
100
AcDbEntity
  8
0
100
AcDbLine
 62
7
  6
CONTINUOUS
 10
191.1405423471
 20
156.0768298843
 11
190.885917582
 21
156.1949968446
  0
LINE
  5
2DF
100
AcDbEntity
  8
0
100
AcDbLine
 62
7
  6
CONTINUOUS
 10
193.6740095534
 20
160.9174632078
 11
193.1647600233
 21
161.1537971284
  0
LINE
  5
2E0
100
AcDbEntity
  8
0
100
AcDbLine
 62
7
  6
CONTINUOUS
 10
187.7776043453
 20
164.2179480465
 11
187.4254748126
 21
164.3994053562
  0
LINE
  5
2E1
100
AcDbEntity
  8
0
100
AcDbLine
 62
7
  6
CONTINUOUS
 10
193.0974159804
 20
157.9261832775
 11
192.4340652118
 21
158.3593733167
  0
LINE
  5
2E2
100
AcDbEntity
  8
0
100
AcDbLine
 62
7
  6
CONTINUOUS
 10
190.3833042961
 20
155.8015453719
 11
189.9745782838
 21
156.116568444
  0
LINE
  5
2E3
100
AcDbEntity
  8
0
100
AcDbLine
 62
7
  6
CONTINUOUS
 10
190.885917582
 20
156.1949968446
 11
190.4001400775
 21
156.6084491094
  0
LINE
  5
2E4
100
AcDbEntity
  8
0
100
AcDbLine
 62
7
  6
CONTINUOUS
 10
178.4983653679
 20
168.102681327
 11
179.2582695835
 21
167.4526463557
  0
LINE
  5
2E5
100
AcDbEntity
  8
0
100
AcDbLine
 62
7
  6
CONTINUOUS
 10
182.0322020596
 20
164.9296320685
 11
181.487017637
 21
165.444679586
  0
LINE
  5
2E6
100
AcDbEntity
  8
0
100
AcDbLine
 62
7
  6
CONTINUOUS
 10
183.7127935112
 20
75.8497602077
 11
183.7393363647
 21
75.613020351
  0
LINE
  5
2E7
100
AcDbEntity
  8
0
100
AcDbLine
 62
7
  6
CONTINUOUS
 10
189.0433310555
 20
157.9274950346
 11
189.013223641
 21
158.3801609364
  0
LINE
  5
2E8
100
AcDbEntity
  8
0
100
AcDbLine
 62
7
  6
CONTINUOUS
 10
192.423864916
 20
156.922685409
 11
192.3937574663
 21
157.3753512832
  0
LINE
  5
2E9
100
AcDbEntity
  8
0
100
AcDbLine
 62
7
  6
CONTINUOUS
 10
194.3572674758
 20
158.5949193865
 11
194.3271600261
 21
159.0475852608
  0
LINE
  5
2EA
100
AcDbEntity
  8
0
100
AcDbLine
 62
7
  6
CONTINUOUS
 10
188.9622738595
 20
165.0122978175
 11
188.9726607193
 21
165.3694810284
  0
LINE
  5
2EB
100
AcDbEntity
  8
0
100
AcDbLine
 62
7
  6
CONTINUOUS
 10
180.575510751
 20
76.0430407762
 11
180.6016434536
 21
76.3443536711
  0
LINE
  5
2EC
100
AcDbEntity
  8
0
100
AcDbLine
 62
7
  6
CONTINUOUS
 10
184.1084768695
 20
75.5269813665
 11
184.134609549
 21
75.8282942802
  0
LINE
  5
2ED
100
AcDbEntity
  8
0
100
AcDbLine
 62
7
  6
CONTINUOUS
 10
189.5995237904
 20
158.0453989565
 11
189.6464670303
 21
158.3996368266
  0
LINE
  5
2EE
100
AcDbEntity
  8
0
100
AcDbLine
 62
7
  6
CONTINUOUS
 10
194.9200955995
 20
158.0830390624
 11
195.0139819386
 21
158.7915146923
  0
LINE
  5
2EF
100
AcDbEntity
  8
0
100
AcDbLine
 62
7
  6
CONTINUOUS
 10
177.781087017
 20
70.8965078053
 11
177.8463851327
 21
71.311278715
  0
LINE
  5
2F0
100
AcDbEntity
  8
0
100
AcDbLine
 62
7
  6
CONTINUOUS
 10
180.2192318696
 20
76.5487629158
 11
180.1404236573
 21
76.182876945
  0
LINE
  5
2F1
100
AcDbEntity
  8
0
100
AcDbLine
 62
7
  6
CONTINUOUS
 10
183.7393363647
 20
75.613020351
 11
183.6999319571
 21
75.4300769961
  0
LINE
  5
2F2
100
AcDbEntity
  8
0
100
AcDbLine
 62
7
  6
CONTINUOUS
 10
192.8861703948
 20
156.3321147999
 11
193.0336362092
 21
156.7650428998
  0
LINE
  5
2F3
100
AcDbEntity
  8
0
100
AcDbLine
 62
7
  6
CONTINUOUS
 10
194.2098007796
 20
158.1619924132
 11
194.3572674758
 21
158.5949193865
  0
LINE
  5
2F4
100
AcDbEntity
  8
0
100
AcDbLine
 62
7
  6
CONTINUOUS
 10
114.6973300722
 20
186.5026531021
 11
103.1375129149
 21
186.3856301201
  0
LINE
  5
2F5
100
AcDbEntity
  8
0
100
AcDbLine
 62
7
  6
CONTINUOUS
 10
187.3127741957
 20
163.5964589781
 11
186.7871762394
 21
163.9579411318
  0
LINE
  5
2F6
100
AcDbEntity
  8
0
100
AcDbLine
 62
7
  6
CONTINUOUS
 10
193.7342244527
 20
160.0121314593
 11
193.2484469483
 21
160.425583724
  0
LINE
  5
2F7
100
AcDbEntity
  8
0
100
AcDbLine
 62
7
  6
CONTINUOUS
 10
180.8787668614
 20
173.9621769511
 11
181.448695057
 21
173.4746506935
  0
LINE
  5
2F8
100
AcDbEntity
  8
0
100
AcDbLine
 62
7
  6
CONTINUOUS
 10
184.1083598794
 20
171.1995282357
 11
184.6782880751
 21
170.7120019781
  0
LINE
  5
2F9
100
AcDbEntity
  8
0
100
AcDbLine
 62
7
  6
CONTINUOUS
 10
185.607397777
 20
169.8061549673
 11
186.1525821996
 21
169.2911074498
  0
LINE
  5
2FA
100
AcDbEntity
  8
0
100
AcDbLine
 62
7
  6
CONTINUOUS
 10
194.3138882963
 20
160.3071548243
 11
193.6740095534
 21
160.9174632078
  0
LINE
  5
2FB
100
AcDbEntity
  8
0
100
AcDbLine
 62
7
  6
CONTINUOUS
 10
183.295487882
 20
163.7179931261
 11
182.7750836037
 21
164.2580666277
  0
LINE
  5
2FC
100
AcDbEntity
  8
0
100
AcDbLine
 62
7
  6
CONTINUOUS
 10
186.7871762394
 20
163.9579411318
 11
185.2259634045
 21
165.5781616366
  0
LINE
  5
2FD
100
AcDbEntity
  8
0
100
AcDbLine
 62
7
  6
CONTINUOUS
 10
187.4254748126
 20
164.3994053562
 11
185.777527766
 21
166.109638283
  0
LINE
  5
2FE
100
AcDbEntity
  8
0
100
AcDbLine
 62
7
  6
CONTINUOUS
 10
188.8043859737
 20
165.7280972203
 11
187.156438927
 21
167.4383301471
  0
LINE
  5
2FF
100
AcDbEntity
  8
0
100
AcDbLine
 62
7
  6
CONTINUOUS
 10
189.1772887298
 20
166.2610068476
 11
187.0956716166
 21
168.421300854
  0
LINE
  5
300
100
AcDbEntity
  8
0
100
AcDbLine
 62
7
  6
CONTINUOUS
 10
187.6133799747
 20
159.0295772949
 11
187.1216021507
 21
159.5958409895
  0
LINE
  5
301
100
AcDbEntity
  8
0
100
AcDbLine
 62
7
  6
CONTINUOUS
 10
192.1434895316
 20
162.9637998868
 11
191.6517117076
 21
163.5300635814
  0
LINE
  5
302
100
AcDbEntity
  8
0
100
AcDbLine
 62
7
  6
CONTINUOUS
 10
189.9745782838
 20
156.116568444
 11
189.3581706847
 21
156.9039962982
  0
LINE
  5
303
100
AcDbEntity
  8
0
100
AcDbLine
 62
7
  6
CONTINUOUS
 10
190.4001400775
 20
156.6084491094
 11
189.9378345987
 21
157.1990197184
  0
LINE
  5
304
100
AcDbEntity
  8
0
100
AcDbLine
 62
7
  6
CONTINUOUS
 10
189.7704617009
 20
158.6554454557
 11
189.3852068412
 21
159.1475880054
  0
LINE
  5
305
100
AcDbEntity
  8
0
100
AcDbLine
 62
7
  6
CONTINUOUS
 10
192.0319746323
 20
158.0446121772
 11
191.7237712737
 21
158.438325541
  0
LINE
  5
306
100
AcDbEntity
  8
0
100
AcDbLine
 62
7
  6
CONTINUOUS
 10
192.4340652118
 20
158.3593733167
 11
192.1258618532
 21
158.7530866806
  0
LINE
  5
307
100
AcDbEntity
  8
0
100
AcDbLine
 62
7
  6
CONTINUOUS
 10
192.3605788643
 20
160.5242748492
 11
191.9753248864
 21
161.0164162725
  0
LINE
  5
308
100
AcDbEntity
  8
0
100
AcDbLine
 62
7
  6
CONTINUOUS
 10
194.0424278114
 20
159.6184180954
 11
193.7342244527
 21
160.0121314593
  0
LINE
  5
309
100
AcDbEntity
  8
0
100
AcDbLine
 62
7
  6
CONTINUOUS
 10
194.4679904165
 20
160.1102975792
 11
194.3138882963
 21
160.3071548243
  0
LINE
  5
30A
100
AcDbEntity
  8
0
100
AcDbLine
 62
7
  6
CONTINUOUS
 10
189.519031899
 20
165.7223658118
 11
189.1772887298
 21
166.2610068476
  0
LINE
  5
30B
100
AcDbEntity
  8
0
100
AcDbLine
 62
7
  6
CONTINUOUS
 10
194.9068238697
 20
159.3426086259
 11
194.4679904165
 21
160.1102975792
  0
LINE
  5
30C
100
AcDbEntity
  8
0
100
AcDbLine
 62
7
  6
CONTINUOUS
 10
192.3937574663
 20
157.3753512832
 11
192.0319746323
 21
158.0446121772
  0
LINE
  5
30D
100
AcDbEntity
  8
0
100
AcDbLine
 62
7
  6
CONTINUOUS
 10
189.9378345987
 20
157.1990197184
 11
189.6531032657
 21
157.7698514265
  0
LINE
  5
30E
100
AcDbEntity
  8
0
100
AcDbLine
 62
7
  6
CONTINUOUS
 10
194.3271600261
 20
159.0475852608
 11
194.0424278114
 21
159.6184180954
  0
LINE
  5
30F
100
AcDbEntity
  8
0
100
AcDbLine
 62
7
  6
CONTINUOUS
 10
188.9726607193
 20
165.3694810284
 11
188.8043859737
 21
165.7280972203
  0
LINE
  5
310
100
AcDbEntity
  8
0
100
AcDbLine
 62
7
  6
CONTINUOUS
 10
189.3581706847
 20
156.9039962982
 11
189.1504899798
 21
157.3763999538
  0
LINE
  5
311
100
AcDbEntity
  8
0
100
AcDbLine
 62
7
  6
CONTINUOUS
 10
193.0336362092
 20
156.7650428998
 11
192.8494275211
 21
157.4145648928
  0
LINE
  5
312
100
AcDbEntity
  8
0
100
AcDbLine
 62
7
  6
CONTINUOUS
 10
189.1504899798
 20
157.3763999538
 11
189.0433310555
 21
157.9274950346
  0
LINE
  5
313
100
AcDbEntity
  8
0
100
AcDbLine
 62
7
  6
CONTINUOUS
 10
189.6531032657
 20
157.7698514265
 11
189.5995237904
 21
158.0453989565
  0
LINE
  5
314
100
AcDbEntity
  8
0
100
AcDbLine
 62
7
  6
CONTINUOUS
 10
195.0139819386
 20
158.7915146923
 11
194.9068238697
 21
159.3426086259
  0
LINE
  5
315
100
AcDbEntity
  8
0
100
AcDbLine
 62
7
  6
CONTINUOUS
 10
189.5901855729
 20
165.0965788309
 11
189.519031899
 21
165.7223658118
  0
LINE
  5
316
100
AcDbEntity
  8
0
100
AcDbLine
 62
7
  6
CONTINUOUS
 10
198.704854805
 20
124.0108002108
 11
198.7135874861
 21
123.1481645594
  0
LINE
  5
317
100
AcDbEntity
  8
0
100
AcDbLine
 62
7
  6
CONTINUOUS
 10
184.0296680716
 20
75.1610946425
 11
184.1084768695
 21
75.5269813665
  0
LINE
  5
318
100
AcDbEntity
  8
0
100
AcDbLine
 62
7
  6
CONTINUOUS
 10
182.2490930922
 20
76.61359932
 11
182.0649332574
 21
76.1185664584
  0
LINE
  5
319
100
AcDbEntity
  8
0
100
AcDbLine
 62
7
  6
CONTINUOUS
 10
177.3685786661
 20
71.2088101275
 11
177.2462375643
 21
70.9747679315
  0
LINE
  5
31A
100
AcDbEntity
  8
0
100
AcDbLine
 62
7
  6
CONTINUOUS
 10
180.6016434536
 20
76.3443536711
 11
180.7990749934
 21
76.7210169926
  0
LINE
  5
31B
100
AcDbEntity
  8
0
100
AcDbLine
 62
7
  6
CONTINUOUS
 10
197.4271724097
 20
124.6590940262
 11
193.1595975822
 21
118.4311228552
  0
LINE
  5
31C
100
AcDbEntity
  8
RUNDUNGEN
100
AcDbLine
 62
7
  6
CONTINUOUS
 10
189.1764284021
 20
112.6182047867
 11
193.1595975822
 21
118.4311228552
  0
LINE
  5
31D
100
AcDbEntity
  8
0
100
AcDbLine
 62
7
  6
CONTINUOUS
 10
180.1765227636
 20
224.4721897072
 11
185.4711018104
 21
206.6892068425
  0
LINE
  5
31E
100
AcDbEntity
  8
0
100
AcDbLine
 62
7
  6
CONTINUOUS
 10
208.4683297736
 20
115.4511039138
 11
207.7793391189
 21
112.5634953599
  0
LINE
  5
31F
100
AcDbEntity
  8
RUNDUNGEN
100
AcDbLine
 62
7
  6
CONTINUOUS
 10
202.0567105779
 20
91.5340049331
 11
207.6055222842
 21
112.7754167778
  0
LINE
  5
320
100
AcDbEntity
  8
0
100
AcDbLine
 62
7
  6
CONTINUOUS
 10
206.6373325751
 20
109.0690887486
 11
207.6055222842
 21
112.7754167778
  0
LINE
  5
321
100
AcDbEntity
  8
0
100
AcDbLine
 62
7
  6
CONTINUOUS
 10
183.8849126502
 20
74.8490051311
 11
184.0296680716
 21
75.1610946425
  0
LINE
  5
322
100
AcDbEntity
  8
0
100
AcDbLine
 62
7
  6
CONTINUOUS
 10
183.6999319571
 20
75.4300769961
 11
183.5025010201
 21
75.0534144136
  0
LINE
  5
323
100
AcDbEntity
  8
0
100
AcDbLine
 62
7
  6
CONTINUOUS
 10
180.522014429
 20
77.0545723892
 11
180.2192318696
 21
76.5487629158
  0
LINE
  5
324
100
AcDbEntity
  8
0
100
AcDbLine
 62
7
  6
CONTINUOUS
 10
177.5380557011
 20
70.5475232065
 11
177.781087017
 21
70.8965078053
  0
LINE
  5
325
100
AcDbEntity
  8
0
100
AcDbLine
 62
7
  6
CONTINUOUS
 10
180.6273660514
 20
77.1837192799
 11
180.522014429
 21
77.0545723892
  0
LINE
  5
326
100
AcDbEntity
  8
0
100
AcDbLine
 62
7
  6
CONTINUOUS
 10
180.7990749934
 20
76.7210169926
 11
181.0097776354
 21
76.9793100352
  0
LINE
  5
327
100
AcDbEntity
  8
0
100
AcDbLine
 62
7
  6
CONTINUOUS
 10
180.4046226213
 20
75.4296383746
 11
180.6680013759
 21
75.752505232
  0
LINE
  5
328
100
AcDbEntity
  8
0
100
AcDbLine
 62
7
  6
CONTINUOUS
 10
182.0649332574
 20
76.1185664584
 11
181.8542306154
 21
75.8602734159
  0
LINE
  5
329
100
AcDbEntity
  8
0
100
AcDbLine
 62
7
  6
CONTINUOUS
 10
182.1180194748
 20
75.6450875594
 11
182.3287221168
 21
75.9033806019
  0
LINE
  5
32A
100
AcDbEntity
  8
0
100
AcDbLine
 62
7
  6
CONTINUOUS
 10
182.2640059112
 20
74.3430195878
 11
182.0006277594
 21
74.0201534694
  0
LINE
  5
32B
100
AcDbEntity
  8
0
100
AcDbLine
 62
7
  6
CONTINUOUS
 10
183.5025010201
 20
75.0534144136
 11
183.1864467557
 21
74.6659744802
  0
LINE
  5
32C
100
AcDbEntity
  8
0
100
AcDbLine
 62
7
  6
CONTINUOUS
 10
179.1754054542
 20
75.4650217714
 11
178.8417081758
 21
75.0926696177
  0
LINE
  5
32D
100
AcDbEntity
  8
0
100
AcDbLine
 62
7
  6
CONTINUOUS
 10
183.4635067634
 20
74.332418307
 11
183.8849126502
 21
74.8490051311
  0
LINE
  5
32E
100
AcDbEntity
  8
0
100
AcDbLine
 62
7
  6
CONTINUOUS
 10
181.8205254055
 20
72.4230913903
 11
182.1542226839
 21
72.795443544
  0
LINE
  5
32F
100
AcDbEntity
  8
0
100
AcDbLine
 62
7
  6
CONTINUOUS
 10
179.5990063383
 20
72.7658116339
 11
178.7958833272
 21
71.9195829079
  0
LINE
  5
330
100
AcDbEntity
  8
0
100
AcDbLine
 62
7
  6
CONTINUOUS
 10
179.1045383995
 20
71.6266502959
 11
179.9076614106
 21
72.4728790218
  0
LINE
  5
331
100
AcDbEntity
  8
0
100
AcDbLine
 62
7
  6
CONTINUOUS
 10
176.0120148133
 20
72.1498753148
 11
174.5637350065
 21
70.770569112
  0
LINE
  5
332
100
AcDbEntity
  8
0
100
AcDbLine
 62
7
  6
CONTINUOUS
 10
175.2192743281
 20
70.8072510597
 11
176.3658292902
 21
71.8992019132
  0
LINE
  5
333
100
AcDbEntity
  8
0
100
AcDbLine
 62
7
  6
CONTINUOUS
 10
177.2462375643
 20
70.9747679315
 11
176.0996826021
 21
69.882817078
  0
LINE
  5
334
100
AcDbEntity
  8
0
100
AcDbLine
 62
7
  6
CONTINUOUS
 10
176.451845846
 20
69.5130435544
 11
177.5380557011
 21
70.5475232065
  0
LINE
  5
335
100
AcDbEntity
  8
0
100
AcDbLine
 62
7
  6
CONTINUOUS
 10
177.3223474122
 20
67.8740094984
 11
177.6844173639
 21
68.2188360491
  0
LINE
  5
336
100
AcDbEntity
  8
0
100
AcDbLine
 62
7
  6
CONTINUOUS
 10
181.0620430405
 20
77.581935825
 11
180.6273660514
 21
77.1837192799
  0
LINE
  5
337
100
AcDbEntity
  8
0
100
AcDbLine
 62
7
  6
CONTINUOUS
 10
174.0524501535
 20
70.3415083689
 11
173.6759558211
 21
70.0124916251
  0
LINE
  5
338
100
AcDbEntity
  8
0
100
AcDbLine
 62
7
  6
CONTINUOUS
 10
176.3080897711
 20
67.0005369659
 11
176.6845841035
 21
67.3295537096
  0
LINE
  5
339
100
AcDbEntity
  8
0
100
AcDbLine
 62
7
  6
CONTINUOUS
 10
182.3287221168
 20
75.9033806019
 11
182.710723596
 21
76.2370240711
  0
LINE
  5
33A
100
AcDbEntity
  8
0
100
AcDbLine
 62
7
  6
CONTINUOUS
 10
181.0097776354
 20
76.9793100352
 11
181.3391036049
 21
77.2483804285
  0
LINE
  5
33B
100
AcDbEntity
  8
0
100
AcDbLine
 62
7
  6
CONTINUOUS
 10
183.1864467557
 20
74.6659744802
 11
182.8571207862
 21
74.3969040869
  0
LINE
  5
33C
100
AcDbEntity
  8
0
100
AcDbLine
 62
7
  6
CONTINUOUS
 10
173.1844395488
 20
69.5605763998
 11
172.7935311142
 21
69.2488223369
  0
LINE
  5
33D
100
AcDbEntity
  8
0
100
AcDbLine
 62
7
  6
CONTINUOUS
 10
170.9692918147
 20
67.7939700929
 11
170.5783833801
 21
67.48221603
  0
LINE
  5
33E
100
AcDbEntity
  8
0
100
AcDbLine
 62
7
  6
CONTINUOUS
 10
174.1148384067
 20
65.1862927454
 11
174.6360496218
 21
65.6019648045
  0
LINE
  5
33F
100
AcDbEntity
  8
0
100
AcDbLine
 62
7
  6
CONTINUOUS
 10
183.1868569008
 20
74.1279217333
 11
183.4635067634
 21
74.332418307
  0
LINE
  5
340
100
AcDbEntity
  8
0
100
AcDbLine
 62
7
  6
CONTINUOUS
 10
176.3724338772
 20
72.3756020724
 11
176.0120148133
 21
72.1498753148
  0
LINE
  5
341
100
AcDbEntity
  8
0
100
AcDbLine
 62
7
  6
CONTINUOUS
 10
183.0135067583
 20
76.7428342834
 11
182.618233574
 21
76.5275603543
  0
LINE
  5
342
100
AcDbEntity
  8
0
100
AcDbLine
 62
7
  6
CONTINUOUS
 10
176.3658292902
 20
71.8992019132
 11
176.60555814
 21
72.009986268
  0
LINE
  5
343
100
AcDbEntity
  8
0
100
AcDbLine
 62
7
  6
CONTINUOUS
 10
181.404640715
 20
77.7326366783
 11
181.0620430405
 21
77.581935825
  0
LINE
  5
344
100
AcDbEntity
  8
0
100
AcDbLine
 62
7
  6
CONTINUOUS
 10
182.8571207862
 20
74.3969040869
 11
182.6858219489
 21
74.3215536603
  0
LINE
  5
345
100
AcDbEntity
  8
0
100
AcDbLine
 62
7
  6
CONTINUOUS
 10
182.8442598118
 20
73.9772216332
 11
183.1868569008
 21
74.1279217333
  0
LINE
  5
346
100
AcDbEntity
  8
0
100
AcDbLine
 62
7
  6
CONTINUOUS
 10
181.3391036049
 20
77.2483804285
 11
181.6290251667
 21
77.3345074669
  0
LINE
  5
347
100
AcDbEntity
  8
0
100
AcDbLine
 62
7
  6
CONTINUOUS
 10
182.710723596
 20
76.2370240711
 11
183.0006451579
 21
76.3231511095
  0
LINE
  5
348
100
AcDbEntity
  8
0
100
AcDbLine
 62
7
  6
CONTINUOUS
 10
182.5543382268
 20
73.8910946136
 11
182.8442598118
 21
73.9772216332
  0
LINE
  5
349
100
AcDbEntity
  8
RUNDUNGEN
100
AcDbLine
 62
7
  6
CONTINUOUS
 10
180.0044158597
 20
58.1638488372
 11
184.6989181119
 21
62.1847812217
  0
LINE
  5
34A
100
AcDbEntity
  8
BEZUGSACHSEN
100
AcDbLine
 62
7
  6
CONTINUOUS
 10
156.4394479491
 20
254.2786701602
 11
142.2401755033
 21
254.134927298
  0
LINE
  5
34B
100
AcDbEntity
  8
BEZUGSACHSEN
100
AcDbLine
 62
7
  6
CONTINUOUS
 10
156.2825455291
 20
269.7778759989
 11
142.0832730833
 21
269.6341331367
  0
LINE
  5
34C
100
AcDbEntity
  8
KONSTRUKTIONSELEMENTE
100
AcDbLine
 62
7
  6
CONTINUOUS
 10
177.0863715802
 20
279.3839598333
 11
168.1835918721
 21
279.2938347201
  0
LINE
  5
34D
100
AcDbEntity
  8
0
100
AcDbLine
 62
7
  6
CONTINUOUS
 10
129.9920205162
 20
278.9072116871
 11
122.3391767629
 21
278.8297399949
  0
LINE
  5
34E
100
AcDbEntity
  8
0
100
AcDbLine
 62
7
  6
CONTINUOUS
 10
302.5009887093
 20
44.1987069607
 11
312.5009887093
 21
44.1987069607
  0
LINE
  5
34F
100
AcDbEntity
  8
RUNDUNGEN
100
AcDbLine
 62
7
  6
CONTINUOUS
 10
289.7907194729
 20
266.8851670978
 11
289.7904278477
 21
266.8847368702
  0
LINE
  5
350
100
AcDbEntity
  8
0
100
AcDbLine
 62
7
  6
CONTINUOUS
 10
292.2470024407
 20
270.4909917019
 11
289.7912020088
 21
266.8858783911
  0
LINE
  5
351
100
AcDbEntity
  8
0
100
AcDbLine
 62
7
  6
CONTINUOUS
 10
292.6602679761
 20
271.0937513818
 11
292.2470024407
 21
270.4909917019
  0
LINE
  5
352
100
AcDbEntity
  8
RUNDUNGEN
100
AcDbLine
 62
7
  6
CONTINUOUS
 10
292.6602070543
 20
271.5702804762
 11
289.8030687954
 21
267.4076014492
  0
LWPOLYLINE
  5
353
100
AcDbEntity
  8
RUNDUNGEN
100
AcDbPolyline
 62
7
  6
CONTINUOUS
 90
6
 70
0
 10
289.6696063665
 20
266.6954441895
 10
289.4681125452
 20
266.3137735868
 10
289.3089087363
 20
265.9126140788
 10
289.1938484267
 20
265.4966348444
 10
289.124271514
 20
265.070677589
 10
289.1009887093
 20
264.6397011002
  0
LINE
  5
354
100
AcDbEntity
  8
RUNDUNGEN
100
AcDbLine
 62
7
  6
CONTINUOUS
 10
289.7905543735
 20
266.885047091
 11
289.6696063665
 21
266.6954441895
  0
LINE
  5
355
100
AcDbEntity
  8
RUNDUNGEN
100
AcDbLine
 62
7
  6
CONTINUOUS
 10
284.2231965714
 20
247.0614143655
 11
284.0992371512
 21
246.8730132789
  0
LINE
  5
356
100
AcDbEntity
  8
RUNDUNGEN
100
AcDbLine
 62
7
  6
CONTINUOUS
 10
288.377638312
 20
252.9973485941
 11
284.2231889271
 21
247.0614237673
  0
LINE
  5
357
100
AcDbEntity
  8
RUNDUNGEN
100
AcDbLine
 62
7
  6
CONTINUOUS
 10
284.2244150534
 20
246.6856053823
 11
288.377631407
 21
252.6167091364
  0
LWPOLYLINE
  5
358
100
AcDbEntity
  8
RUNDUNGEN
100
AcDbPolyline
 62
7
  6
CONTINUOUS
 90
32
 70
0
 10
317.8345737805
 20
66.7182553986
 10
317.916693575
 20
66.7409030248
 10
318.2010284663
 20
66.8558926095
 10
318.4438067937
 20
67.0062625184
 10
318.6426110408
 20
67.1751914855
 10
318.7980753022
 20
67.3450534829
 10
318.9234305844
 20
67.5135670298
 10
319.0269353415
 20
67.6796615529
 10
319.1153029901
 20
67.8450410776
 10
319.1939460532
 20
68.0136716499
 10
319.2655225727
 20
68.1870486536
 10
319.3325781917
 20
68.3683905022
 10
319.3963038317
 20
68.5589341066
 10
319.4578560357
 20
68.7607426306
 10
319.5178805359
 20
68.9750283952
 10
319.5770066559
 20
69.2034877697
 10
319.6355429839
 20
69.4470274437
 10
319.6938132366
 20
69.706862962
 10
319.7519922872
 20
69.9837796669
 10
319.8102608812
 20
70.2787443895
 10
319.868717804
 20
70.5924453288
 10
319.9274664888
 20
70.9256829554
 10
319.9865646167
 20
71.2790640458
 10
320.0460722455
 20
71.653238959
 10
320.1060261014
 20
72.0487530791
 10
320.1664621012
 20
72.466174847
 10
320.2274061286
 20
72.906027245
 10
320.2888820902
 20
73.3688184131
 10
320.3509098411
 20
73.8550298292
 10
320.4135089089
 20
74.3651528565
 10
320.4766897456
 20
74.899611206
 10
320.6048374221
 20
76.0431362221
  0
LINE
  5
359
100
AcDbEntity
  8
AUSFORMSCHRAEGEN
100
AcDbLine
 62
7
  6
CONTINUOUS
 10
317.5009887093
 20
66.635071281
 11
317.8353505004
 21
66.7184370385
  0
LINE
  5
35A
100
AcDbEntity
  8
RUNDUNGEN
100
AcDbLine
 62
7
  6
CONTINUOUS
 10
317.8345159486
 20
66.7182308912
 11
317.8353123974
 21
66.7184275384
  0
LINE
  5
35B
100
AcDbEntity
  8
0
100
AcDbLine
 62
7
  6
CONTINUOUS
 10
297.1666650213
 20
66.7184275384
 11
297.5009887093
 21
66.635071281
  0
LWPOLYLINE
  5
35C
100
AcDbEntity
  8
RUNDUNGEN
100
AcDbPolyline
 62
7
  6
CONTINUOUS
 90
6
 70
0
 10
284.0992371512
 20
246.8730132789
 10
283.9288206057
 20
246.5685318726
 10
283.785659745
 20
246.2505025875
 10
283.6707509989
 20
245.9213275588
 10
283.5849347104
 20
245.5834086217
 10
283.5369428097
 20
245.3032471765
  0
LINE
  5
35D
100
AcDbEntity
  8
RUNDUNGEN
100
AcDbLine
 62
7
  6
CONTINUOUS
 10
288.8714744579
 20
253.5748751505
 11
288.861041923
 21
253.5464382588
  0
LINE
  5
35E
100
AcDbEntity
  8
RUNDUNGEN
100
AcDbLine
 62
7
  6
CONTINUOUS
 10
288.9308185384
 20
253.7482577557
 11
288.8715350075
 21
253.5750369818
  0
LWPOLYLINE
  5
35F
100
AcDbEntity
  8
0
100
AcDbPolyline
 62
7
  6
CONTINUOUS
 90
10
 70
0
 10
330.3267770608
 20
239.1665956295
 10
330.4016832644
 20
239.2433678086
 10
330.6395935439
 20
239.5177148486
 10
330.8515997509
 20
239.8124116238
 10
331.0358815258
 20
240.125011544
 10
331.1911283187
 20
240.4531923145
 10
331.315966729
 20
240.7941823671
 10
331.4093469111
 20
241.145105079
 10
331.4704872817
 20
241.5033671209
 10
331.4917120826
 20
241.7243746292
  0
LINE
  5
360
100
AcDbEntity
  8
0
100
AcDbLine
 62
7
  6
CONTINUOUS
 10
315.1694215659
 20
224.0536996383
 11
330.3267539818
 21
239.1665485874
  0
LWPOLYLINE
  5
361
100
AcDbEntity
  8
RUNDUNGEN
100
AcDbPolyline
 62
7
  6
CONTINUOUS
 90
5
 70
0
 10
289.096408119
 20
254.6758857082
 10
289.0769963865
 20
254.4376174944
 10
289.0425213908
 20
254.2025604094
 10
288.9934869633
 20
253.9722297091
 10
288.9308185384
 20
253.7482577557
  0
LINE
  5
362
100
AcDbEntity
  8
0
100
AcDbLine
 62
7
  6
CONTINUOUS
 10
297.0277003531
 20
63.6808768749
 11
297.083700933
 21
63.4987236844
  0
LWPOLYLINE
  5
363
100
AcDbEntity
  8
0
100
AcDbPolyline
 62
7
  6
CONTINUOUS
 90
4
 70
0
 10
297.0837016262
 20
63.4986819761
 10
297.143007538
 20
63.3026685729
 10
297.2492001907
 20
62.895326625
 10
297.3368280433
 20
62.47537309
  0
LWPOLYLINE
  5
364
100
AcDbEntity
  8
0
100
AcDbPolyline
 62
7
  6
CONTINUOUS
 90
3
 70
0
 10
290.3630444211
 20
141.2602481866
 10
290.363275646
 20
141.258107614
 10
290.3639547481
 20
141.2515027792
  0
LINE
  5
365
100
AcDbEntity
  8
0
100
AcDbLine
 62
7
  6
CONTINUOUS
 10
294.2662224875
 20
77.2919143927
 11
294.3966662629
 21
76.0475095796
  0
LWPOLYLINE
  5
366
100
AcDbEntity
  8
0
100
AcDbPolyline
 62
7
  6
CONTINUOUS
 90
6
 70
0
 10
289.52263297
 20
141.2238640898
 10
289.6567312256
 20
139.8482639816
 10
289.8098819804
 20
138.2163962185
 10
289.9636864132
 20
136.5168115725
 10
290.1180310841
 20
134.7550121285
 10
290.2728671573
 20
132.9364468448
  0
LINE
  5
367
100
AcDbEntity
  8
0
100
AcDbLine
 62
7
  6
CONTINUOUS
 10
294.1333322968
 20
78.6403563395
 11
294.2662224875
 21
77.2919143927
  0
LINE
  5
368
100
AcDbEntity
  8
0
100
AcDbLine
 62
7
  6
CONTINUOUS
 10
289.5184312211
 20
141.2684381733
 11
289.5226532534
 21
141.2236600467
  0
LINE
  5
369
100
AcDbEntity
  8
0
100
AcDbLine
 62
7
  6
CONTINUOUS
 10
290.3639547481
 20
141.2515027792
 11
290.366165807
 21
141.2283212673
  0
LINE
  5
36A
100
AcDbEntity
  8
0
100
AcDbLine
 62
7
  6
CONTINUOUS
 10
294.0097521891
 20
79.9651193079
 11
294.1333322968
 21
78.6403563395
  0
LINE
  5
36B
100
AcDbEntity
  8
0
100
AcDbLine
 62
7
  6
CONTINUOUS
 10
290.366165807
 20
141.2283212673
 11
290.3690915415
 21
141.195292123
  0
LINE
  5
36C
100
AcDbEntity
  8
0
100
AcDbLine
 62
7
  6
CONTINUOUS
 10
290.2728671573
 20
132.9364468448
 11
290.5837613917
 21
129.15191997
  0
LINE
  5
36D
100
AcDbEntity
  8
0
100
AcDbLine
 62
7
  6
CONTINUOUS
 10
290.3690915415
 20
141.195292123
 11
290.3743694337
 21
141.1314279982
  0
LINE
  5
36E
100
AcDbEntity
  8
0
100
AcDbLine
 62
7
  6
CONTINUOUS
 10
290.5837613917
 20
129.15191997
 11
290.8959782844
 21
125.2108124095
  0
LINE
  5
36F
100
AcDbEntity
  8
0
100
AcDbLine
 62
7
  6
CONTINUOUS
 10
290.8959782844
 20
125.2108124095
 11
291.3660703697
 21
119.1155013926
  0
LINE
  5
370
100
AcDbEntity
  8
0
100
AcDbLine
 62
7
  6
CONTINUOUS
 10
291.3660703697
 20
119.1155013926
 11
291.4719887093
 21
117.7296633212
  0
LINE
  5
371
100
AcDbEntity
  8
0
100
AcDbLine
 62
7
  6
CONTINUOUS
 10
290.3743694337
 20
141.1314279982
 11
290.3804225691
 21
141.0535330412
  0
LWPOLYLINE
  5
372
100
AcDbEntity
  8
0
100
AcDbPolyline
 62
7
  6
CONTINUOUS
 90
3
 70
0
 10
290.8579476112
 20
132.0155132041
 10
290.8656916904
 20
131.9094056728
 10
290.8766073623
 20
131.8033076088
  0
LINE
  5
373
100
AcDbEntity
  8
0
100
AcDbLine
 62
7
  6
CONTINUOUS
 10
290.3804225691
 20
141.0535330412
 11
290.3941496132
 21
140.8647338456
  0
LINE
  5
374
100
AcDbEntity
  8
0
100
AcDbLine
 62
7
  6
CONTINUOUS
 10
289.5067041812
 20
141.4359755798
 11
289.5184312211
 21
141.2684381733
  0
LWPOLYLINE
  5
375
100
AcDbEntity
  8
0
100
AcDbPolyline
 62
7
  6
CONTINUOUS
 90
9
 70
0
 10
292.7887436934
 20
96.2462169202
 10
292.9426690167
 20
93.9260720513
 10
293.0966475557
 20
91.6698887271
 10
293.2506853776
 20
89.4842756198
 10
293.404801666
 20
87.3754195388
 10
293.5590123698
 20
85.3494510595
 10
293.7133603408
 20
83.4119342241
 10
293.8678953155
 20
81.5682576016
 10
294.0097540166
 20
79.9651003387
  0
LINE
  5
376
100
AcDbEntity
  8
0
100
AcDbLine
 62
7
  6
CONTINUOUS
 10
290.3941496132
 20
140.8647338456
 11
290.4195089703
 21
140.4876859535
  0
LINE
  5
377
100
AcDbEntity
  8
0
100
AcDbLine
 62
7
  6
CONTINUOUS
 10
292.4810203388
 20
101.0514603311
 11
292.7887436934
 21
96.2462169202
  0
LINE
  5
378
100
AcDbEntity
  8
0
100
AcDbLine
 62
7
  6
CONTINUOUS
 10
292.1734064227
 20
106.0305082673
 11
292.4810203388
 21
101.0514603311
  0
LINE
  5
379
100
AcDbEntity
  8
0
100
AcDbLine
 62
7
  6
CONTINUOUS
 10
290.4195089703
 20
140.4876859535
 11
290.4738717409
 21
139.6052182502
  0
LINE
  5
37A
100
AcDbEntity
  8
0
100
AcDbLine
 62
7
  6
CONTINUOUS
 10
291.4719887072
 20
117.7296633568
 11
292.1734064227
 21
106.0305082673
  0
LINE
  5
37B
100
AcDbEntity
  8
0
100
AcDbLine
 62
7
  6
CONTINUOUS
 10
290.4738717409
 20
139.6052182502
 11
290.5682773949
 21
137.9210011519
  0
LINE
  5
37C
100
AcDbEntity
  8
0
100
AcDbLine
 62
7
  6
CONTINUOUS
 10
290.8557356638
 20
132.058000534
 11
290.8579476112
 21
132.0155132041
  0
LINE
  5
37D
100
AcDbEntity
  8
0
100
AcDbLine
 62
7
  6
CONTINUOUS
 10
290.5682773949
 20
137.9210011519
 11
290.6754043699
 21
135.8438063014
  0
LINE
  5
37E
100
AcDbEntity
  8
0
100
AcDbLine
 62
7
  6
CONTINUOUS
 10
290.6754043699
 20
135.8438063014
 11
290.8077654247
 21
133.0918604935
  0
LINE
  5
37F
100
AcDbEntity
  8
0
100
AcDbLine
 62
7
  6
CONTINUOUS
 10
290.8077654247
 20
133.0918604935
 11
290.8557366772
 21
132.0579978431
  0
LINE
  5
380
100
AcDbEntity
  8
RUNDUNGEN
100
AcDbLine
 62
7
  6
CONTINUOUS
 10
283.510219549
 20
241.724524044
 11
283.5009887093
 21
241.9959487014
  0
LWPOLYLINE
  5
381
100
AcDbEntity
  8
RUNDUNGEN
100
AcDbPolyline
 62
7
  6
CONTINUOUS
 90
13
 70
0
 10
283.5009933237
 20
238.4865606865
 10
283.5186433017
 20
237.7636158031
 10
283.586068973
 20
236.8683467937
 10
283.7025235807
 20
235.9517664231
 10
283.8683092954
 20
235.0094683475
 10
284.0845058834
 20
234.040329568
 10
284.3528337594
 20
233.0437989735
 10
284.6759803048
 20
232.0184409907
 10
285.0574006388
 20
230.962985394
 10
285.5015379281
 20
229.8758584143
 10
286.013738697
 20
228.7557234975
 10
286.602536199
 20
227.5974269771
 10
287.1734383812
 20
226.5751936709
  0
LWPOLYLINE
  5
382
100
AcDbEntity
  8
0
100
AcDbPolyline
 62
7
  6
CONTINUOUS
 90
3
 70
0
 10
289.5010028939
 20
141.6601420851
 10
289.501363293
 20
141.6037716962
 10
289.5067041812
 20
141.4359755798
  0
LINE
  5
383
100
AcDbEntity
  8
RUNDUNGEN
100
AcDbLine
 62
7
  6
CONTINUOUS
 10
283.5009887093
 20
238.4861796968
 11
283.5009887093
 21
244.7679104119
  0
LINE
  5
384
100
AcDbEntity
  8
RUNDUNGEN
100
AcDbLine
 62
7
  6
CONTINUOUS
 10
289.1009887093
 20
254.7371696257
 11
289.1009887093
 21
265.1440659439
  0
LINE
  5
385
100
AcDbEntity
  8
0
100
AcDbLine
 62
7
  6
CONTINUOUS
 10
289.5009887093
 20
141.660391039
 11
289.5009887093
 21
215.4310118868
  0
LWPOLYLINE
  5
386
100
AcDbEntity
  8
0
100
AcDbPolyline
 62
7
  6
CONTINUOUS
 90
4
 70
0
 10
323.9018153016
 20
219.088693062
 10
324.981373722
 20
221.3242251508
 10
326.3846323209
 20
224.0090734979
 10
327.8286055524
 20
226.575305578
  0
LWPOLYLINE
  5
387
100
AcDbEntity
  8
0
100
AcDbPolyline
 62
7
  6
CONTINUOUS
 90
13
 70
0
 10
327.8285390375
 20
226.5751936709
 10
328.3994412197
 20
227.5974269771
 10
328.9882387217
 20
228.7557234975
 10
329.5004394906
 20
229.8758584143
 10
329.9445767799
 20
230.962985394
 10
330.3259971139
 20
232.0184409907
 10
330.6491436593
 20
233.0437989735
 10
330.9174715352
 20
234.040329568
 10
331.1336681233
 20
235.0094683475
 10
331.299453838
 20
235.9517664231
 10
331.4159084457
 20
236.8683467937
 10
331.483334117
 20
237.7636158031
 10
331.5009829463
 20
238.4806930032
  0
LINE
  5
388
100
AcDbEntity
  8
0
100
AcDbLine
 62
7
  6
CONTINUOUS
 10
327.8285400267
 20
226.5751930954
 11
327.8286055524
 21
226.575305578
  0
LWPOLYLINE
  5
389
100
AcDbEntity
  8
0
100
AcDbPolyline
 62
7
  6
CONTINUOUS
 90
8
 70
0
 10
295.9702072366
 20
97.6149695115
 10
296.3131072145
 20
95.6025226005
 10
296.6372802092
 20
93.4191929876
 10
296.9092081866
 20
91.2524241915
 10
297.1289732157
 20
89.1073572479
 10
297.296975844
 20
86.9889459214
 10
297.4141010605
 20
84.9018814833
 10
297.4814869025
 20
82.8510107398
  0
LINE
  5
38A
100
AcDbEntity
  8
0
100
AcDbLine
 62
7
  6
CONTINUOUS
 10
297.3368280433
 20
62.47537309
 11
297.4051444235
 21
62.0444836273
  0
LINE
  5
38B
100
AcDbEntity
  8
0
100
AcDbLine
 62
7
  6
CONTINUOUS
 10
292.5779588062
 20
120.6950428003
 11
292.94531748
 21
118.3423635931
  0
LINE
  5
38C
100
AcDbEntity
  8
0
100
AcDbLine
 62
7
  6
CONTINUOUS
 10
292.94531748
 20
118.3423635931
 11
293.4070690297
 21
115.3208641801
  0
LWPOLYLINE
  5
38D
100
AcDbEntity
  8
0
100
AcDbPolyline
 62
7
  6
CONTINUOUS
 90
5
 70
0
 10
290.8880802056
 20
131.715272456
 10
291.1727462013
 20
129.762363519
 10
291.5057325144
 20
127.5561161693
 10
291.8537338207
 20
125.3065456551
 10
292.5779588062
 20
120.6950428003
  0
LWPOLYLINE
  5
38E
100
AcDbEntity
  8
0
100
AcDbPolyline
 62
7
  6
CONTINUOUS
 90
5
 70
0
 10
293.371297611
 20
115.5701901396
 10
293.7804567759
 20
112.6862550999
 10
294.0400031304
 20
110.7936103089
 10
294.2892072783
 20
108.913660181
 10
294.6929769284
 20
105.7690351062
  0
LWPOLYLINE
  5
38F
100
AcDbEntity
  8
0
100
AcDbPolyline
 62
7
  6
CONTINUOUS
 90
6
 70
0
 10
294.6929769284
 20
105.7690351062
 10
294.9244327631
 20
104.0917959998
 10
295.1715206412
 20
102.4160356205
 10
295.4343204746
 20
100.7430209835
 10
295.7129175995
 20
99.0739722344
 10
295.9702261863
 20
97.6149638512
  0
LINE
  5
390
100
AcDbEntity
  8
0
100
AcDbLine
 62
7
  6
CONTINUOUS
 10
290.8766073623
 20
131.8033076088
 11
290.8880829292
 21
131.7152528054
  0
LWPOLYLINE
  5
391
100
AcDbEntity
  8
0
100
AcDbPolyline
 62
7
  6
CONTINUOUS
 90
30
 70
0
 10
294.587831078
 20
74.3704470626
 10
294.6503826552
 20
73.8605060127
 10
294.7123654879
 20
73.3744271883
 10
294.7737984605
 20
72.9117263992
 10
294.83470077
 20
72.4719286975
 10
294.8950957127
 20
72.05453165
 10
294.9550085608
 20
71.6590170961
 10
295.014474428
 20
71.2848217359
 10
295.0735292702
 20
70.9314042062
 10
295.1322321504
 20
70.5981185573
 10
295.1906398111
 20
70.2843613474
 10
295.248854199
 20
69.9893365387
 10
295.3069726901
 20
69.712358422
 10
295.3651736231
 20
69.4524650853
 10
295.4236296506
 20
69.208872953
 10
295.4826598266
 20
68.9803748022
 10
295.542568731
 20
68.7660654869
 10
295.6039749947
 20
68.5642653126
 10
295.6675128216
 20
68.3737706706
 10
295.734319793
 20
68.1925324082
 10
295.805566878
 20
68.0193137766
 10
295.8837474965
 20
67.8509365546
 10
295.9714645652
 20
67.6859068462
 10
296.0740086581
 20
67.5202956169
 10
296.1979135085
 20
67.3523999798
 10
296.351330412
 20
67.1830706777
 10
296.5472348885
 20
67.0143712313
 10
296.78663665
 20
66.863309895
 10
297.0677732896
 20
66.7463140009
 10
297.1673586769
 20
66.7182663802
  0
LWPOLYLINE
  5
392
100
AcDbEntity
  8
0
100
AcDbPolyline
 62
7
  6
CONTINUOUS
 90
4
 70
0
 10
297.4051444235
 20
62.0444836273
 10
297.4540808182
 20
61.6032083936
 10
297.4849744084
 20
61.1550074967
 10
297.4995155785
 20
60.7040338536
  0
LWPOLYLINE
  5
393
100
AcDbEntity
  8
0
100
AcDbPolyline
 62
7
  6
CONTINUOUS
 90
3
 70
0
 10
294.3966662629
 20
76.0475095796
 10
294.4609815961
 20
75.4635667739
 10
294.587831078
 20
74.3704470626
  0
LWPOLYLINE
  5
394
100
AcDbEntity
  8
RUNDUNGEN
100
AcDbPolyline
 62
7
  6
CONTINUOUS
 90
10
 70
0
 10
283.5102653361
 20
241.7243746292
 10
283.5314901369
 20
241.5033671209
 10
283.5926305076
 20
241.145105079
 10
283.6860106896
 20
240.7941823671
 10
283.8108491
 20
240.4531923145
 10
283.9660958928
 20
240.125011544
 10
284.1503776677
 20
239.8124116238
 10
284.3623838748
 20
239.5177148486
 10
284.6002941543
 20
239.2433678086
 10
284.6752003579
 20
239.1665956295
  0
LWPOLYLINE
  5
395
100
AcDbEntity
  8
0
100
AcDbPolyline
 62
7
  6
CONTINUOUS
 90
3
 70
0
 10
296.5369744621
 20
67.023206804
 10
296.5430373278
 20
66.9338411475
 10
296.5497876836
 20
66.8268031372
  0
LINE
  5
396
100
AcDbEntity
  8
0
100
AcDbLine
 62
7
  6
CONTINUOUS
 10
296.5497876836
 20
66.8268031372
 11
296.5626745152
 21
66.5988262262
  0
LWPOLYLINE
  5
397
100
AcDbEntity
  8
0
100
AcDbPolyline
 62
7
  6
CONTINUOUS
 90
8
 70
0
 10
296.5852113511
 20
66.2679074627
 10
296.5950389113
 20
66.0830381483
 10
296.6255869034
 20
65.7087013433
 10
296.6714883674
 20
65.32151276
 10
296.7340279225
 20
64.9219362238
 10
296.8142882439
 20
64.5134285739
 10
296.9119065162
 20
64.099640202
 10
297.0277003531
 20
63.6808768749
  0
LWPOLYLINE
  5
398
100
AcDbEntity
  8
0
100
AcDbPolyline
 62
7
  6
CONTINUOUS
 90
3
 70
0
 10
296.5626745152
 20
66.5988262262
 10
296.5746287348
 20
66.3540086765
 10
296.5783427655
 20
66.2700875431
  0
LINE
  5
399
100
AcDbEntity
  8
0
100
AcDbLine
 62
7
  6
CONTINUOUS
 10
297.4814869025
 20
82.8510107398
 11
297.5009872983
 21
81.0190875494
  0
LINE
  5
39A
100
AcDbEntity
  8
0
100
AcDbLine
 62
7
  6
CONTINUOUS
 10
297.4995155785
 20
60.7040338536
 11
297.5009724273
 21
60.5283071929
  0
LINE
  5
39B
100
AcDbEntity
  8
0
100
AcDbLine
 62
7
  6
CONTINUOUS
 10
297.5009887093
 20
49.1988589998
 11
297.5009887093
 21
81.019092903
  0
LINE
  5
39C
100
AcDbEntity
  8
RUNDUNGEN
100
AcDbLine
 62
7
  6
CONTINUOUS
 10
300.989918423
 20
221.5387059182
 11
301.0009768675
 21
221.2430140074
  0
LINE
  5
39D
100
AcDbEntity
  8
0
100
AcDbLine
 62
7
  6
CONTINUOUS
 10
300.5009887093
 20
220.4308983747
 11
300.5009887093
 21
161.5630133692
  0
LINE
  5
39E
100
AcDbEntity
  8
RUNDUNGEN
100
AcDbLine
 62
7
  6
CONTINUOUS
 10
300.6009887093
 20
165.1420487825
 11
300.6009887093
 21
217.1209398444
  0
LINE
  5
39F
100
AcDbEntity
  8
RUNDUNGEN
100
AcDbLine
 62
7
  6
CONTINUOUS
 10
301.0009887093
 20
199.4599303894
 11
301.0009887093
 21
221.2429094609
  0
LWPOLYLINE
  5
3A0
100
AcDbEntity
  8
0
100
AcDbPolyline
 62
7
  6
CONTINUOUS
 90
8
 70
0
 10
314.0120589957
 20
221.5387059182
 10
314.0683927773
 20
221.9704820741
 10
314.170183687
 20
222.388133947
 10
314.3149370441
 20
222.7883471462
 10
314.5000325901
 20
223.1677837628
 10
314.7226716996
 20
223.5230404902
 10
314.9800271346
 20
223.8512326422
 10
315.1694364875
 20
224.0536963726
  0
LINE
  5
3A1
100
AcDbEntity
  8
0
100
AcDbLine
 62
7
  6
CONTINUOUS
 10
314.0009887093
 20
199.4599303894
 11
314.0009887093
 21
221.2430288724
  0
LINE
  5
3A2
100
AcDbEntity
  8
0
100
AcDbLine
 62
7
  6
CONTINUOUS
 10
314.4009887093
 20
165.1420487825
 11
314.4009887093
 21
217.1209398444
  0
LINE
  5
3A3
100
AcDbEntity
  8
0
100
AcDbLine
 62
7
  6
CONTINUOUS
 10
314.5009887093
 20
220.4308983747
 11
314.5009887093
 21
161.5630133692
  0
LINE
  5
3A4
100
AcDbEntity
  8
RUNDUNGEN
100
AcDbLine
 62
7
  6
CONTINUOUS
 10
317.5009887093
 20
49.1988589998
 11
317.5009887093
 21
81.019092903
  0
LINE
  5
3A5
100
AcDbEntity
  8
0
100
AcDbLine
 62
7
  6
CONTINUOUS
 10
314.0010005511
 20
221.2430140074
 11
314.0120589957
 21
221.5387059182
  0
LINE
  5
3A6
100
AcDbEntity
  8
RUNDUNGEN
100
AcDbLine
 62
7
  6
CONTINUOUS
 10
325.5009887093
 20
141.660391039
 11
325.5009887093
 21
215.4310118868
  0
LINE
  5
3A7
100
AcDbEntity
  8
0
100
AcDbLine
 62
7
  6
CONTINUOUS
 10
325.9009887093
 20
254.7371696257
 11
325.9009887093
 21
265.1440659439
  0
LINE
  5
3A8
100
AcDbEntity
  8
RUNDUNGEN
100
AcDbLine
 62
7
  6
CONTINUOUS
 10
325.5004934086
 20
141.595011259
 11
325.5009745247
 21
141.6601360384
  0
LINE
  5
3A9
100
AcDbEntity
  8
RUNDUNGEN
100
AcDbLine
 62
7
  6
CONTINUOUS
 10
317.5010049914
 20
60.5283071929
 11
317.5024618401
 21
60.7040338536
  0
LWPOLYLINE
  5
3AA
100
AcDbEntity
  8
RUNDUNGEN
100
AcDbPolyline
 62
7
  6
CONTINUOUS
 90
9
 70
0
 10
317.5009901204
 20
81.0190875494
 10
317.5204905162
 20
82.8510107398
 10
317.5878763582
 20
84.9018814833
 10
317.7050015747
 20
86.9889459214
 10
317.873004203
 20
89.1073572479
 10
318.0927692321
 20
91.2524241915
 10
318.3646972095
 20
93.4191929876
 10
318.6888702042
 20
95.6025226005
 10
319.0317701821
 20
97.6149695115
  0
LWPOLYLINE
  5
3AB
100
AcDbEntity
  8
RUNDUNGEN
100
AcDbPolyline
 62
7
  6
CONTINUOUS
 90
4
 70
0
 10
317.5024618401
 20
60.7040338536
 10
317.5170030103
 20
61.1550074967
 10
317.5478966004
 20
61.6032083936
 10
317.5968329952
 20
62.0444836273
  0
LINE
  5
3AC
100
AcDbEntity
  8
RUNDUNGEN
100
AcDbLine
 62
7
  6
CONTINUOUS
 10
325.4945857583
 20
141.422852366
 11
325.5004934086
 21
141.595011259
  0
LINE
  5
3AD
100
AcDbEntity
  8
RUNDUNGEN
100
AcDbLine
 62
7
  6
CONTINUOUS
 10
318.4235977508
 20
66.2692434645
 11
318.4332752922
 21
66.4798810834
  0
LINE
  5
3AE
100
AcDbEntity
  8
RUNDUNGEN
100
AcDbLine
 62
7
  6
CONTINUOUS
 10
324.1462407415
 20
132.0579978431
 11
324.2886204468
 21
135.0735081659
  0
LINE
  5
3AF
100
AcDbEntity
  8
RUNDUNGEN
100
AcDbLine
 62
7
  6
CONTINUOUS
 10
324.2886204468
 20
135.0735081659
 11
324.3996691572
 21
137.2780116302
  0
LINE
  5
3B0
100
AcDbEntity
  8
RUNDUNGEN
100
AcDbLine
 62
7
  6
CONTINUOUS
 10
324.1440298075
 20
132.0155132041
 11
324.1462417549
 21
132.058000534
  0
LWPOLYLINE
  5
3B1
100
AcDbEntity
  8
RUNDUNGEN
100
AcDbPolyline
 62
7
  6
CONTINUOUS
 90
5
 70
0
 10
318.4332752922
 20
66.4798810834
 10
318.4457640974
 20
66.7172898062
 10
318.4523440673
 20
66.8293388579
 10
318.4591224126
 20
66.9366257757
 10
318.4650858619
 20
67.0243438776
  0
LINE
  5
3B2
100
AcDbEntity
  8
RUNDUNGEN
100
AcDbLine
 62
7
  6
CONTINUOUS
 10
324.3996691572
 20
137.2780116302
 11
324.4984135297
 21
139.093185274
  0
LINE
  5
3B3
100
AcDbEntity
  8
RUNDUNGEN
100
AcDbLine
 62
7
  6
CONTINUOUS
 10
324.4984135297
 20
139.093185274
 11
324.5563885825
 21
140.0745416213
  0
LINE
  5
3B4
100
AcDbEntity
  8
RUNDUNGEN
100
AcDbLine
 62
7
  6
CONTINUOUS
 10
322.8164823635
 20
105.8322363411
 11
323.5299887115
 21
117.7296633568
  0
LINE
  5
3B5
100
AcDbEntity
  8
RUNDUNGEN
100
AcDbLine
 62
7
  6
CONTINUOUS
 10
322.510883472
 20
100.8910650255
 11
322.8164823635
 21
105.8322363411
  0
LINE
  5
3B6
100
AcDbEntity
  8
RUNDUNGEN
100
AcDbLine
 62
7
  6
CONTINUOUS
 10
324.5563885825
 20
140.0745416213
 11
324.5991944745
 21
140.7397758231
  0
LINE
  5
3B7
100
AcDbEntity
  8
RUNDUNGEN
100
AcDbLine
 62
7
  6
CONTINUOUS
 10
324.5992625921
 20
140.7407702085
 11
324.6154630189
 21
140.9715040401
  0
LINE
  5
3B8
100
AcDbEntity
  8
RUNDUNGEN
100
AcDbLine
 62
7
  6
CONTINUOUS
 10
325.4819557046
 20
141.2509890658
 11
325.4945857583
 21
141.422852366
  0
LINE
  5
3B9
100
AcDbEntity
  8
RUNDUNGEN
100
AcDbLine
 62
7
  6
CONTINUOUS
 10
324.6154630189
 20
140.9715040401
 11
324.6245848472
 21
141.0930424711
  0
LINE
  5
3BA
100
AcDbEntity
  8
RUNDUNGEN
100
AcDbLine
 62
7
  6
CONTINUOUS
 10
323.5299887093
 20
117.7296633212
 11
323.9617519682
 21
123.3554371887
  0
LINE
  5
3BB
100
AcDbEntity
  8
RUNDUNGEN
100
AcDbLine
 62
7
  6
CONTINUOUS
 10
323.9617519682
 20
123.3554371887
 11
324.2720254661
 21
127.3212084371
  0
LWPOLYLINE
  5
3BC
100
AcDbEntity
  8
RUNDUNGEN
100
AcDbPolyline
 62
7
  6
CONTINUOUS
 90
8
 70
0
 10
324.2720254661
 20
127.3212084371
 10
324.5811520755
 20
131.1556271743
 10
324.7351747495
 20
133.008575055
 10
324.8887824418
 20
134.8110160524
 10
325.0419049637
 20
136.557408899
 10
325.1944947101
 20
138.2424395382
 10
325.346440729
 20
139.8607413924
 10
325.4819557046
 20
141.2509890658
  0
LINE
  5
3BD
100
AcDbEntity
  8
RUNDUNGEN
100
AcDbLine
 62
7
  6
CONTINUOUS
 10
324.6245848472
 20
141.0930424711
 11
324.6305572011
 21
141.1676832112
  0
LINE
  5
3BE
100
AcDbEntity
  8
RUNDUNGEN
100
AcDbLine
 62
7
  6
CONTINUOUS
 10
324.6305572011
 20
141.1676832112
 11
324.6339496239
 21
141.2075445376
  0
LWPOLYLINE
  5
3BF
100
AcDbEntity
  8
RUNDUNGEN
100
AcDbPolyline
 62
7
  6
CONTINUOUS
 90
10
 70
0
 10
320.9922234199
 20
79.9651005344
 10
321.1330657975
 20
81.5564630103
 10
321.2865878875
 20
83.3870893051
 10
321.4399267796
 20
85.310421623
 10
321.5931304629
 20
87.3211716474
 10
321.746240971
 20
89.4138904434
 10
321.89927411
 20
91.5825726432
 10
322.0522485614
 20
93.821159559
 10
322.2051698307
 20
96.1231690631
 10
322.510883472
 20
100.8910650255
  0
LINE
  5
3C0
100
AcDbEntity
  8
RUNDUNGEN
100
AcDbLine
 62
7
  6
CONTINUOUS
 10
324.6339496239
 20
141.2075445376
 11
324.6366986613
 21
141.2378562981
  0
LINE
  5
3C1
100
AcDbEntity
  8
RUNDUNGEN
100
AcDbLine
 62
7
  6
CONTINUOUS
 10
324.6366986613
 20
141.2378562981
 11
324.6383806225
 21
141.2550296651
  0
LWPOLYLINE
  5
3C2
100
AcDbEntity
  8
RUNDUNGEN
100
AcDbPolyline
 62
7
  6
CONTINUOUS
 90
3
 70
0
 10
324.1253700564
 20
131.8033076088
 10
324.1362857283
 20
131.9094056728
 10
324.1440298075
 20
132.0155132041
  0
LINE
  5
3C3
100
AcDbEntity
  8
RUNDUNGEN
100
AcDbLine
 62
7
  6
CONTINUOUS
 10
324.1138944894
 20
131.7152528054
 11
324.1253700564
 21
131.8033076088
  0
LWPOLYLINE
  5
3C4
100
AcDbEntity
  8
RUNDUNGEN
100
AcDbPolyline
 62
7
  6
CONTINUOUS
 90
3
 70
0
 10
320.7081212475
 20
108.8779008542
 10
320.952262606
 20
110.7215987851
 10
321.2064064184
 20
112.5775933643
  0
LINE
  5
3C5
100
AcDbEntity
  8
RUNDUNGEN
100
AcDbLine
 62
7
  6
CONTINUOUS
 10
321.2064064184
 20
112.5775933643
 11
321.6308434346
 21
115.5712714335
  0
LINE
  5
3C6
100
AcDbEntity
  8
RUNDUNGEN
100
AcDbLine
 62
7
  6
CONTINUOUS
 10
321.5954506101
 20
115.324441528
 11
322.0708172583
 21
118.4336484586
  0
LWPOLYLINE
  5
3C7
100
AcDbEntity
  8
RUNDUNGEN
100
AcDbPolyline
 62
7
  6
CONTINUOUS
 90
4
 70
0
 10
323.1551540496
 20
125.3508436498
 10
323.5007005477
 20
127.5852260678
 10
323.8313555012
 20
129.7766729502
 10
324.1138971771
 20
131.7152722042
  0
LINE
  5
3C8
100
AcDbEntity
  8
RUNDUNGEN
100
AcDbLine
 62
7
  6
CONTINUOUS
 10
322.0708172583
 20
118.4336484586
 11
323.1551540496
 21
125.3508436498
  0
LINE
  5
3C9
100
AcDbEntity
  8
0
100
AcDbLine
 62
7
  6
CONTINUOUS
 10
314.5009887093
 20
161.5630133692
 11
300.5009887093
 21
161.5630133692
  0
LINE
  5
3CA
100
AcDbEntity
  8
0
100
AcDbLine
 62
7
  6
CONTINUOUS
 10
311.4009887093
 20
162.1420400947
 11
303.6009887093
 21
162.1420400947
  0
LWPOLYLINE
  5
3CB
100
AcDbEntity
  8
0
100
AcDbPolyline
 62
7
  6
CONTINUOUS
 90
6
 70
0
 10
325.9009887093
 20
264.6397011002
 10
325.8774056877
 20
265.0734391112
 10
325.8069351716
 20
265.5020605894
 10
325.6904088735
 20
265.9205113941
 10
325.5292012608
 20
266.3238582541
 10
325.3252133506
 20
266.7073460006
  0
LINE
  5
3CC
100
AcDbEntity
  8
0
100
AcDbLine
 62
7
  6
CONTINUOUS
 10
331.5009887093
 20
244.7679104119
 11
331.5009877338
 21
238.4808263521
  0
LINE
  5
3CD
100
AcDbEntity
  8
0
100
AcDbLine
 62
7
  6
CONTINUOUS
 10
331.4917578697
 20
241.7245240439
 11
331.5009887093
 21
241.9959487014
  0
LINE
  5
3CE
100
AcDbEntity
  8
RUNDUNGEN
100
AcDbLine
 62
7
  6
CONTINUOUS
 10
320.8684603513
 20
78.6384261047
 11
320.9922252295
 21
79.9651193067
  0
LINE
  5
3CF
100
AcDbEntity
  8
RUNDUNGEN
100
AcDbLine
 62
7
  6
CONTINUOUS
 10
320.7354137215
 20
77.288555881
 11
320.8684603513
 21
78.6384261047
  0
LINE
  5
3D0
100
AcDbEntity
  8
RUNDUNGEN
100
AcDbLine
 62
7
  6
CONTINUOUS
 10
320.6048374221
 20
76.0431362221
 11
320.7354137215
 21
77.288555881
  0
LWPOLYLINE
  5
3D1
100
AcDbEntity
  8
RUNDUNGEN
100
AcDbPolyline
 62
7
  6
CONTINUOUS
 90
5
 70
0
 10
317.5968329952
 20
62.0444836273
 10
317.6651493754
 20
62.47537309
 10
317.752777228
 20
62.895326625
 10
317.8589698807
 20
63.3026685729
 10
317.9182757925
 20
63.4986819761
  0
LWPOLYLINE
  5
3D2
100
AcDbEntity
  8
RUNDUNGEN
100
AcDbPolyline
 62
7
  6
CONTINUOUS
 90
7
 70
0
 10
319.0317512324
 20
97.6149638512
 10
319.2890598192
 20
99.0739722344
 10
319.567656944
 20
100.7430209835
 10
319.8304567775
 20
102.4160356205
 10
320.0775446556
 20
104.0917959998
 10
320.3090004903
 20
105.7690351062
 10
320.7081212475
 20
108.8779008542
  0
LINE
  5
3D3
100
AcDbEntity
  8
RUNDUNGEN
100
AcDbLine
 62
7
  6
CONTINUOUS
 10
287.173437392
 20
226.5751930954
 11
287.1733718663
 21
226.575305578
  0
LWPOLYLINE
  5
3D4
100
AcDbEntity
  8
RUNDUNGEN
100
AcDbPolyline
 62
7
  6
CONTINUOUS
 90
4
 70
0
 10
287.1733718663
 20
226.575305578
 10
288.6173450978
 20
224.0090734979
 10
290.0206036967
 20
221.3242251508
 10
291.1001621171
 20
219.088693062
  0
LWPOLYLINE
  5
3D5
100
AcDbEntity
  8
RUNDUNGEN
100
AcDbPolyline
 62
7
  6
CONTINUOUS
 90
8
 70
0
 10
317.9742770656
 20
63.6808768749
 10
318.0900709025
 20
64.099640202
 10
318.1876891748
 20
64.5134285739
 10
318.2679494962
 20
64.9219362238
 10
318.3304890513
 20
65.32151276
 10
318.3763905153
 20
65.7087013433
 10
318.4069385074
 20
66.0830381483
 10
318.4167660676
 20
66.2679074627
  0
LINE
  5
3D6
100
AcDbEntity
  8
RUNDUNGEN
100
AcDbLine
 62
7
  6
CONTINUOUS
 10
317.9182764857
 20
63.4987236844
 11
317.9742770656
 21
63.6808768749
  0
LINE
  5
3D7
100
AcDbEntity
  8
0
100
AcDbLine
 62
7
  6
CONTINUOUS
 10
314.5009887093
 20
190.9310675637
 11
314.4009887093
 21
190.9310675637
  0
LINE
  5
3D8
100
AcDbEntity
  8
0
100
AcDbLine
 62
7
  6
CONTINUOUS
 10
300.6009887093
 20
190.9310675637
 11
300.5009887093
 21
190.9310675637
  0
LWPOLYLINE
  5
3D9
100
AcDbEntity
  8
0
100
AcDbPolyline
 62
7
  6
CONTINUOUS
 90
5
 70
0
 10
331.4650346089
 20
245.3032471765
 10
331.4170427083
 20
245.5834086217
 10
331.3312264198
 20
245.9213275588
 10
331.2163176737
 20
246.2505025875
 10
331.073156813
 20
246.5685318726
  0
LINE
  5
3DA
100
AcDbEntity
  8
RUNDUNGEN
100
AcDbLine
 62
7
  6
CONTINUOUS
 10
284.6752234369
 20
239.1665485874
 11
299.8325558528
 21
224.0536996383
  0
LWPOLYLINE
  5
3DB
100
AcDbEntity
  8
RUNDUNGEN
100
AcDbPolyline
 62
7
  6
CONTINUOUS
 90
8
 70
0
 10
299.8325409312
 20
224.0536963726
 10
300.0219502841
 20
223.8512326422
 10
300.2793057191
 20
223.5230404902
 10
300.5019448286
 20
223.1677837628
 10
300.6870403746
 20
222.7883471462
 10
300.8317937317
 20
222.388133947
 10
300.9335846414
 20
221.9704820741
 10
300.989918423
 20
221.5387059182
  0
LINE
  5
3DC
100
AcDbEntity
  8
0
100
AcDbLine
 62
7
  6
CONTINUOUS
 10
326.1409354957
 20
253.5464382588
 11
326.1305029608
 21
253.5748751505
  0
LINE
  5
3DD
100
AcDbEntity
  8
0
100
AcDbLine
 62
7
  6
CONTINUOUS
 10
326.1304424112
 20
253.5750369818
 11
326.0711588802
 21
253.7482577557
  0
LWPOLYLINE
  5
3DE
100
AcDbEntity
  8
0
100
AcDbPolyline
 62
7
  6
CONTINUOUS
 90
5
 70
0
 10
326.0711588802
 20
253.7482577557
 10
326.0084904554
 20
253.9722297091
 10
325.9594560279
 20
254.2025604094
 10
325.9249810322
 20
254.4376174944
 10
325.9055692997
 20
254.6758857082
  0
LINE
  5
3DF
100
AcDbEntity
  8
0
100
AcDbLine
 62
7
  6
CONTINUOUS
 10
314.5009887093
 20
207.9310675637
 11
314.4009887093
 21
207.9310675637
  0
LINE
  5
3E0
100
AcDbEntity
  8
0
100
AcDbLine
 62
7
  6
CONTINUOUS
 10
300.6009887093
 20
207.9310675637
 11
300.5009887093
 21
207.9310675637
  0
LINE
  5
3E1
100
AcDbEntity
  8
0
100
AcDbLine
 62
7
  6
CONTINUOUS
 10
331.073156813
 20
246.5685318726
 11
330.9027402674
 21
246.8730132789
  0
LINE
  5
3E2
100
AcDbEntity
  8
KONSTRUKTIONSELEMENTE
100
AcDbLine
 62
7
  6
CONTINUOUS
 10
294.5009887093
 20
220.4310675637
 11
300.5009887093
 21
220.4310675637
  0
LINE
  5
3E3
100
AcDbEntity
  8
KONSTRUKTIONSELEMENTE
100
AcDbLine
 62
7
  6
CONTINUOUS
 10
314.5009887093
 20
220.4310675637
 11
320.5009887093
 21
220.4310675637
  0
LINE
  5
3E4
100
AcDbEntity
  8
0
100
AcDbLine
 62
7
  6
CONTINUOUS
 10
326.6243460117
 20
252.6167091364
 11
330.7775623652
 21
246.6856053823
  0
LINE
  5
3E5
100
AcDbEntity
  8
0
100
AcDbLine
 62
7
  6
CONTINUOUS
 10
330.7787884916
 20
247.0614237673
 11
326.6243391067
 21
252.9973485941
  0
LINE
  5
3E6
100
AcDbEntity
  8
0
100
AcDbLine
 62
7
  6
CONTINUOUS
 10
325.1991394831
 20
266.9030267484
 11
325.0343343287
 21
267.1459070713
  0
LINE
  5
3E7
100
AcDbEntity
  8
0
100
AcDbLine
 62
7
  6
CONTINUOUS
 10
325.2112579458
 20
266.8851670978
 11
325.2115496111
 21
266.884736811
  0
LINE
  5
3E8
100
AcDbEntity
  8
0
100
AcDbLine
 62
7
  6
CONTINUOUS
 10
330.9027402674
 20
246.8730132789
 11
330.7787808472
 21
247.0614143655
  0
LINE
  5
3E9
100
AcDbEntity
  8
0
100
AcDbLine
 62
7
  6
CONTINUOUS
 10
325.3252133506
 20
266.7073460006
 11
325.2114230847
 21
266.8850470328
  0
LINE
  5
3EA
100
AcDbEntity
  8
0
100
AcDbLine
 62
7
  6
CONTINUOUS
 10
325.1989086233
 20
267.4076014492
 11
322.3417703644
 21
271.5702804762
  0
LINE
  5
3EB
100
AcDbEntity
  8
0
100
AcDbLine
 62
7
  6
CONTINUOUS
 10
324.5243479988
 20
267.8968207746
 11
322.3417094426
 21
271.0937513818
  0
LINE
  5
3EC
100
AcDbEntity
  8
0
100
AcDbLine
 62
7
  6
CONTINUOUS
 10
325.0343343287
 20
267.1459070713
 11
324.5243479988
 21
267.8968207746
  0
ARC
  5
3ED
100
AcDbEntity
  8
0
100
AcDbCircle
 62
7
  6
CONTINUOUS
 10
94.6123745526
 20
77.7605745432
 40
115.0
100
AcDbArc
 50
26.605978843
 51
42.4099668478
  0
ARC
  5
3EE
100
AcDbEntity
  8
0
100
AcDbCircle
 62
7
  6
CONTINUOUS
 10
127.8375684161
 20
108.109981337
 40
70.0
100
AcDbArc
 50
42.4099455357
 51
65.4271915276
  0
ARC
  5
3EF
100
AcDbEntity
  8
RUNDUNGEN
100
AcDbCircle
 62
7
  6
CONTINUOUS
 10
127.8375684161
 20
108.109981337
 40
70.0
100
AcDbArc
 50
60.697089816
 51
63.7102115313
  0
ARC
  5
3F0
100
AcDbEntity
  8
0
100
AcDbCircle
 62
7
  6
CONTINUOUS
 10
139.1264835079
 20
111.0090035368
 40
66.8102965761
100
AcDbArc
 50
304.8205549133
 51
307.7234473554
  0
ARC
  5
3F1
100
AcDbEntity
  8
0
100
AcDbCircle
 62
7
  6
CONTINUOUS
 10
139.1264835079
 20
111.0090035368
 40
66.8102965761
100
AcDbArc
 50
191.6715355981
 51
211.9279971114
  0
ARC
  5
3F2
100
AcDbEntity
  8
RUNDUNGEN
100
AcDbCircle
 62
7
  6
CONTINUOUS
 10
139.1264835079
 20
111.0090035368
 40
66.8102965761
100
AcDbArc
 50
140.5796994501
 51
307.7234473554
  0
ARC
  5
3F3
100
AcDbEntity
  8
0
100
AcDbCircle
 62
7
  6
CONTINUOUS
 10
142.0696672401
 20
107.2041878161
 40
62.0
100
AcDbArc
 50
313.4380770543
 51
340.7739154078
  0
ARC
  5
3F4
100
AcDbEntity
  8
RUNDUNGEN
100
AcDbCircle
 62
7
  6
CONTINUOUS
 10
142.0696672401
 20
107.2041878161
 40
62.0
100
AcDbArc
 50
307.7234473554
 51
345.36
  0
ARC
  5
3F5
100
AcDbEntity
  8
AUSFORMSCHRAEGEN
100
AcDbCircle
 62
7
  6
CONTINUOUS
 10
139.2625295393
 20
114.7309047707
 40
39.0412250786
100
AcDbArc
 50
170.6698755161
 51
193.5660609409
  0
ARC
  5
3F6
100
AcDbEntity
  8
RUNDUNGEN
100
AcDbCircle
 62
7
  6
CONTINUOUS
 10
135.5444990128
 20
116.569935323
 40
35.0205969205
100
AcDbArc
 50
160.4152629823
 51
165.9730821461
  0
ARC
  5
3F7
100
AcDbEntity
  8
0
100
AcDbCircle
 62
7
  6
CONTINUOUS
 10
128.4311219418
 20
134.5481827569
 40
82.2839781358
100
AcDbArc
 50
346.58
 51
31.7292537092
  0
ARC
  5
3F8
100
AcDbEntity
  8
RUNDUNGEN
100
AcDbCircle
 62
7
  6
CONTINUOUS
 10
128.4311219418
 20
134.5481827569
 40
82.2839781358
100
AcDbArc
 50
346.58
 51
28.6721289295
  0
ARC
  5
3F9
100
AcDbEntity
  8
0
100
AcDbCircle
 62
7
  6
CONTINUOUS
 10
120.2593891772
 20
166.4975529303
 40
25.0
100
AcDbArc
 50
301.9903634973
 51
320.58
  0
ARC
  5
3FA
100
AcDbEntity
  8
RUNDUNGEN
100
AcDbCircle
 62
7
  6
CONTINUOUS
 10
120.2593891772
 20
166.4975529303
 40
25.0
100
AcDbArc
 50
301.9903634974
 51
320.58
  0
ARC
  5
3FB
100
AcDbEntity
  8
0
100
AcDbCircle
 62
7
  6
CONTINUOUS
 10
123.9210576811
 20
186.5960272529
 40
24.0
100
AcDbArc
 50
188.7932107017
 51
213.4481415543
  0
ARC
  5
3FC
100
AcDbEntity
  8
0
100
AcDbCircle
 62
7
  6
CONTINUOUS
 10
103.1678811253
 20
183.3857838287
 40
3.0
100
AcDbArc
 50
90.58
 51
188.7932107017
  0
ARC
  5
3FD
100
AcDbEntity
  8
RUNDUNGEN
100
AcDbCircle
 62
7
  6
CONTINUOUS
 10
150.8600454323
 20
117.5221226104
 40
50.9715353809
100
AcDbArc
 50
207.7375230519
 51
219.964716104
  0
ARC
  5
3FE
100
AcDbEntity
  8
RUNDUNGEN
100
AcDbCircle
 62
7
  6
CONTINUOUS
 10
150.806100818
 20
117.4950125745
 40
50.9111029147
100
AcDbArc
 50
193.5427158515
 51
203.869977436
  0
ARC
  5
3FF
100
AcDbEntity
  8
AUSFORMSCHRAEGEN
100
AcDbCircle
 62
7
  6
CONTINUOUS
 10
150.8337013952
 20
112.740403218
 40
50.7820994609
100
AcDbArc
 50
165.9622722414
 51
170.5703405356
  0
ARC
  5
400
100
AcDbEntity
  8
RUNDUNGEN
100
AcDbCircle
 62
7
  6
CONTINUOUS
 10
151.6740454077
 20
118.8884312667
 40
34.0
100
AcDbArc
 50
230.58
 51
301.73
  0
ARC
  5
401
100
AcDbEntity
  8
0
100
AcDbCircle
 62
7
  6
CONTINUOUS
 10
150.7215450936
 20
117.7296633212
 40
32.5
100
AcDbArc
 50
140.2886048055
 51
230.58
  0
ARC
  5
402
100
AcDbEntity
  8
RUNDUNGEN
100
AcDbCircle
 62
7
  6
CONTINUOUS
 10
150.7215450936
 20
117.7296633212
 40
32.5
100
AcDbArc
 50
121.9903634974
 51
230.58
  0
ARC
  5
403
100
AcDbEntity
  8
0
100
AcDbCircle
 62
7
  6
CONTINUOUS
 10
186.7054696396
 20
123.8893273695
 40
12.0
100
AcDbArc
 50
0.58
 51
26.6062107654
  0
ARC
  5
404
100
AcDbEntity
  8
RUNDUNGEN
100
AcDbCircle
 62
7
  6
CONTINUOUS
 10
186.7054696396
 20
123.8893273695
 40
12.0
100
AcDbArc
 50
14.8291009739
 51
26.6062107654
  0
ARC
  5
405
100
AcDbEntity
  8
0
100
AcDbCircle
 62
7
  6
CONTINUOUS
 10
190.8262611049
 20
111.4876951438
 40
2.0
100
AcDbArc
 50
145.5800115643
 51
156.1699451185
  0
ARC
  5
406
100
AcDbEntity
  8
RUNDUNGEN
100
AcDbCircle
 62
7
  6
CONTINUOUS
 10
190.8262611049
 20
111.4876951438
 40
2.0
100
AcDbArc
 50
145.5800115643
 51
156.1699451185
  0
ARC
  5
407
100
AcDbEntity
  8
0
100
AcDbCircle
 62
7
  6
CONTINUOUS
 10
143.2593724049
 20
132.4970049707
 40
50.0
100
AcDbArc
 50
321.6154080096
 51
336.1699451185
  0
ARC
  5
408
100
AcDbEntity
  8
RUNDUNGEN
100
AcDbCircle
 62
7
  6
CONTINUOUS
 10
143.2593724049
 20
132.4970049707
 40
50.0
100
AcDbArc
 50
301.73
 51
336.1699451185
  0
ARC
  5
409
100
AcDbEntity
  8
0
100
AcDbCircle
 62
7
  6
CONTINUOUS
 10
149.4572860864
 20
242.6023933254
 40
7.1
100
AcDbArc
 50
180.58
 51
0.58
  0
ARC
  5
40A
100
AcDbEntity
  8
RUNDUNGEN
100
AcDbCircle
 62
7
  6
CONTINUOUS
 10
149.4572860864
 20
242.6023933254
 40
7.1
100
AcDbArc
 50
188.9884997169
 51
346.171067846
  0
ARC
  5
40B
100
AcDbEntity
  8
0
100
AcDbCircle
 62
7
  6
CONTINUOUS
 10
123.9261752495
 20
215.3175506388
 40
4.0903612372
100
AcDbArc
 50
300.9858935583
 51
16.58
  0
ARC
  5
40C
100
AcDbEntity
  8
0
100
AcDbCircle
 62
7
  6
CONTINUOUS
 10
127.576484806
 20
209.2390259316
 40
3.0
100
AcDbArc
 50
120.9858935583
 51
185.96
  0
ARC
  5
40D
100
AcDbEntity
  8
0
100
AcDbCircle
 62
7
  6
CONTINUOUS
 10
148.6632586139
 20
321.0383743569
 40
45.5
100
AcDbArc
 50
249.4603773848
 51
259.0430409672
  0
ARC
  5
40E
100
AcDbEntity
  8
KONSTRUKTIONSELEMENTE
100
AcDbCircle
 62
7
  6
CONTINUOUS
 10
148.6632586139
 20
321.0383743569
 40
45.5
100
AcDbArc
 50
282.1169590328
 51
291.6996226152
  0
ARC
  5
40F
100
AcDbEntity
  8
0
100
AcDbCircle
 62
7
  6
CONTINUOUS
 10
130.067941042
 20
271.4075959587
 40
7.5
100
AcDbArc
 50
69.4603773848
 51
90.58
  0
ARC
  5
410
100
AcDbEntity
  8
0
100
AcDbCircle
 62
7
  6
CONTINUOUS
 10
122.3695449732
 20
275.8298937035
 40
3.0
100
AcDbArc
 50
90.58
 51
180.58
  0
ARC
  5
411
100
AcDbEntity
  8
0
100
AcDbCircle
 62
7
  6
CONTINUOUS
 10
139.5398248475
 20
273.9134026719
 40
2.5
100
AcDbArc
 50
0.58
 51
79.0430409672
  0
ARC
  5
412
100
AcDbEntity
  8
0
100
AcDbCircle
 62
7
  6
CONTINUOUS
 10
154.6413413933
 20
249.1431446989
 40
35.0
100
AcDbArc
 50
180.5799938699
 51
196.5799999273
  0
ARC
  5
413
100
AcDbEntity
  8
RUNDUNGEN
100
AcDbCircle
 62
7
  6
CONTINUOUS
 10
154.6413413933
 20
249.1431446989
 40
35.0
100
AcDbArc
 50
187.8116261938
 51
188.8480916922
  0
ARC
  5
414
100
AcDbEntity
  8
RUNDUNGEN
100
AcDbCircle
 62
7
  6
CONTINUOUS
 10
154.6413413933
 20
249.1431446989
 40
35.0
100
AcDbArc
 50
192.9058638274
 51
194.2051361789
  0
ARC
  5
415
100
AcDbEntity
  8
0
100
AcDbCircle
 62
7
  6
CONTINUOUS
 10
150.3915591472
 20
249.1001230676
 40
30.0
100
AcDbArc
 50
346.9830802537
 51
0.5800036594
  0
ARC
  5
416
100
AcDbEntity
  8
RUNDUNGEN
100
AcDbCircle
 62
7
  6
CONTINUOUS
 10
150.3915591472
 20
249.1001230676
 40
30.0
100
AcDbArc
 50
350.7668485088
 51
351.9998889145
  0
ARC
  5
417
100
AcDbEntity
  8
RUNDUNGEN
100
AcDbCircle
 62
7
  6
CONTINUOUS
 10
152.5084543836
 20
199.4310675637
 40
21.0
100
AcDbArc
 50
320.58
 51
140.58
  0
ARC
  5
418
100
AcDbEntity
  8
0
100
AcDbCircle
 62
7
  6
CONTINUOUS
 10
168.2595123979
 20
271.7942189917
 40
7.5
100
AcDbArc
 50
90.58
 51
111.6996226152
  0
ARC
  5
419
100
AcDbEntity
  8
0
100
AcDbCircle
 62
7
  6
CONTINUOUS
 10
177.1167397905
 20
276.3841135419
 40
3.0
100
AcDbArc
 50
0.58
 51
90.58
  0
ARC
  5
41A
100
AcDbEntity
  8
0
100
AcDbCircle
 62
7
  6
CONTINUOUS
 10
158.7388411123
 20
274.1077592179
 40
2.5
100
AcDbArc
 50
102.1169590328
 51
180.58
  0
ARC
  5
41B
100
AcDbEntity
  8
0
100
AcDbCircle
 62
7
  6
CONTINUOUS
 10
300.481942176
 20
240.9310905342
 40
120.0
100
AcDbArc
 50
196.5797129574
 51
211.7295642377
  0
ARC
  5
41C
100
AcDbEntity
  8
0
100
AcDbCircle
 62
7
  6
CONTINUOUS
 10
213.7212926966
 20
234.4596022924
 40
35.0
100
AcDbArc
 50
166.9830802537
 51
196.5800486004
  0
ARC
  5
41D
100
AcDbEntity
  8
0
100
AcDbCircle
 62
7
  6
CONTINUOUS
 10
288.1731999004
 20
60.8409792568
 40
9.3128535001
100
AcDbArc
 50
7.6229883665
 51
7.7894699175
  0
ARC
  5
41E
100
AcDbEntity
  8
0
100
AcDbCircle
 62
7
  6
CONTINUOUS
 10
289.7697076526
 20
61.2304630924
 40
7.6680180965
100
AcDbArc
 50
17.231717402
 51
17.6293832094
  0
ARC
  5
41F
100
AcDbEntity
  8
0
100
AcDbCircle
 62
7
  6
CONTINUOUS
 10
302.5009887093
 20
49.1987069607
 40
5.0
100
AcDbArc
 50
180.0
 51
270.0
  0
ARC
  5
420
100
AcDbEntity
  8
RUNDUNGEN
100
AcDbCircle
 62
7
  6
CONTINUOUS
 10
-475.4104781594
 20
159.1153568365
 40
800.2617451674
100
AcDbArc
 50
358.0306185722
 51
358.6842145195
  0
ARC
  5
421
100
AcDbEntity
  8
0
100
AcDbCircle
 62
7
  6
CONTINUOUS
 10
294.5009887093
 20
215.4310675637
 40
5.0
100
AcDbArc
 50
90.0
 51
180.0
  0
ARC
  5
422
100
AcDbEntity
  8
RUNDUNGEN
100
AcDbCircle
 62
7
  6
CONTINUOUS
 10
284.7785372712
 20
255.1615238097
 40
4.3226995279
100
AcDbArc
 50
340.8106682453
 51
354.3995437173
  0
ARC
  5
423
100
AcDbEntity
  8
RUNDUNGEN
100
AcDbCircle
 62
7
  6
CONTINUOUS
 10
284.7907383378
 20
255.1587651731
 40
4.3102877254
100
AcDbArc
 50
354.5852563608
 51
356.0046140639
  0
ARC
  5
424
100
AcDbEntity
  8
RUNDUNGEN
100
AcDbCircle
 62
7
  6
CONTINUOUS
 10
285.0860937477
 20
254.9188244167
 40
4.016709465
100
AcDbArc
 50
325.0308966557
 51
340.0212135297
  0
ARC
  5
425
100
AcDbEntity
  8
RUNDUNGEN
100
AcDbCircle
 62
7
  6
CONTINUOUS
 10
293.1142690506
 20
265.1368910431
 40
4.0150389799
100
AcDbArc
 50
151.2814348984
 51
152.3784005673
  0
ARC
  5
426
100
AcDbEntity
  8
RUNDUNGEN
100
AcDbCircle
 62
7
  6
CONTINUOUS
 10
285.0888323997
 20
255.2946720952
 40
4.0124437041
100
AcDbArc
 50
337.5761855793
 51
354.1642878723
  0
ARC
  5
427
100
AcDbEntity
  8
RUNDUNGEN
100
AcDbCircle
 62
7
  6
CONTINUOUS
 10
285.0910874905
 20
255.2973299483
 40
4.0114000712
100
AcDbArc
 50
325.0150499618
 51
335.1382563088
  0
ARC
  5
428
100
AcDbEntity
  8
RUNDUNGEN
100
AcDbCircle
 62
7
  6
CONTINUOUS
 10
287.5113118775
 20
244.76739218
 40
4.0103232016
100
AcDbArc
 50
172.3193957748
 51
179.9925959837
  0
ARC
  5
429
100
AcDbEntity
  8
RUNDUNGEN
100
AcDbCircle
 62
7
  6
CONTINUOUS
 10
287.5084081151
 20
244.3873252873
 40
4.0083484967
100
AcDbArc
 50
147.0851353263
 51
150.8352443444
  0
ARC
  5
42A
100
AcDbEntity
  8
RUNDUNGEN
100
AcDbCircle
 62
7
  6
CONTINUOUS
 10
287.5067072394
 20
244.7660219524
 40
4.0062394074
100
AcDbArc
 50
145.0128220851
 51
151.9298857728
  0
ARC
  5
42B
100
AcDbEntity
  8
RUNDUNGEN
100
AcDbCircle
 62
7
  6
CONTINUOUS
 10
293.1046767924
 20
265.142333317
 40
4.0040116095
100
AcDbArc
 50
146.3067190432
 51
151.2837769324
  0
ARC
  5
42C
100
AcDbEntity
  8
RUNDUNGEN
100
AcDbCircle
 62
7
  6
CONTINUOUS
 10
287.5024788308
 20
244.7682854034
 40
4.0014500316
100
AcDbArc
 50
151.9330815281
 51
172.3151669717
  0
ARC
  5
42D
100
AcDbEntity
  8
RUNDUNGEN
100
AcDbCircle
 62
7
  6
CONTINUOUS
 10
293.099721857
 20
265.1442602801
 40
3.9987331524
100
AcDbArc
 50
152.3753176525
 51
180.0027845423
  0
ARC
  5
42E
100
AcDbEntity
  8
RUNDUNGEN
100
AcDbCircle
 62
7
  6
CONTINUOUS
 10
287.4996893276
 20
244.3915001018
 40
3.9987006236
100
AcDbArc
 50
150.826599581
 51
180.0029471535
  0
ARC
  5
42F
100
AcDbEntity
  8
RUNDUNGEN
100
AcDbCircle
 62
7
  6
CONTINUOUS
 10
285.1028244691
 20
255.2916323873
 40
3.9983553987
100
AcDbArc
 50
335.1416232513
 51
335.573467204
  0
ARC
  5
430
100
AcDbEntity
  8
RUNDUNGEN
100
AcDbCircle
 62
7
  6
CONTINUOUS
 10
287.4977959101
 20
242.1619279879
 40
3.9967890873
100
AcDbArc
 50
188.9933026931
 51
225.0178695779
  0
ARC
  5
431
100
AcDbEntity
  8
RUNDUNGEN
100
AcDbCircle
 62
7
  6
CONTINUOUS
 10
287.4970058404
 20
241.9960522563
 40
3.9959885374
100
AcDbArc
 50
183.8963317053
 51
225.0232400726
  0
ARC
  5
432
100
AcDbEntity
  8
RUNDUNGEN
100
AcDbCircle
 62
7
  6
CONTINUOUS
 10
287.4953389992
 20
244.2208579258
 40
3.9943502948
100
AcDbArc
 50
144.9860835128
 51
179.9971533765
  0
ARC
  5
433
100
AcDbEntity
  8
RUNDUNGEN
100
AcDbCircle
 62
7
  6
CONTINUOUS
 10
285.1092533372
 20
255.2887279301
 40
3.9913008952
100
AcDbArc
 50
335.5732659574
 51
336.6571989291
  0
ARC
  5
434
100
AcDbEntity
  8
RUNDUNGEN
100
AcDbCircle
 62
7
  6
CONTINUOUS
 10
285.1128053093
 20
255.2871699388
 40
3.9874223246
100
AcDbArc
 50
336.6575303903
 51
337.5444344474
  0
ARC
  5
435
100
AcDbEntity
  8
RUNDUNGEN
100
AcDbCircle
 62
7
  6
CONTINUOUS
 10
287.4872155323
 20
244.4009489163
 40
3.9831547965
100
AcDbArc
 50
144.9997764154
 51
147.0839969908
  0
ARC
  5
436
100
AcDbEntity
  8
RUNDUNGEN
100
AcDbCircle
 62
7
  6
CONTINUOUS
 10
293.0810670335
 20
265.1576953367
 40
3.9758458175
100
AcDbArc
 50
145.5356253144
 51
146.3021659766
  0
ARC
  5
437
100
AcDbEntity
  8
RUNDUNGEN
100
AcDbCircle
 62
7
  6
CONTINUOUS
 10
303.6009887093
 20
165.1420400947
 40
3.0
100
AcDbArc
 50
180.0
 51
270.0
  0
ARC
  5
438
100
AcDbEntity
  8
RUNDUNGEN
100
AcDbCircle
 62
7
  6
CONTINUOUS
 10
301.1009887093
 20
217.1209655122
 40
0.5
100
AcDbArc
 50
126.8698976458
 51
180.0
  0
ARC
  5
439
100
AcDbEntity
  8
RUNDUNGEN
100
AcDbCircle
 62
7
  6
CONTINUOUS
 10
300.5009887093
 20
217.9209655122
 40
0.5
100
AcDbArc
 50
306.8698976458
 51
360.0
  0
ARC
  5
43A
100
AcDbEntity
  8
RUNDUNGEN
100
AcDbCircle
 62
7
  6
CONTINUOUS
 10
326.8287774968
 20
60.8409792598
 40
9.3128534785
100
AcDbArc
 50
172.2105300824
 51
172.3770116338
  0
ARC
  5
43B
100
AcDbEntity
  8
RUNDUNGEN
100
AcDbCircle
 62
7
  6
CONTINUOUS
 10
325.2322697703
 20
61.230463091
 40
7.6680181009
100
AcDbArc
 50
162.3706167907
 51
162.7682825978
  0
ARC
  5
43C
100
AcDbEntity
  8
RUNDUNGEN
100
AcDbCircle
 62
7
  6
CONTINUOUS
 10
312.5009887093
 20
49.1987069607
 40
5.0
100
AcDbArc
 50
270.0
 51
360.0
  0
ARC
  5
43D
100
AcDbEntity
  8
0
100
AcDbCircle
 62
7
  6
CONTINUOUS
 10
1090.4124054991
 20
159.1153553597
 40
800.2616950672
100
AcDbArc
 50
181.3157855718
 51
181.9693814454
  0
ARC
  5
43E
100
AcDbEntity
  8
0
100
AcDbCircle
 62
7
  6
CONTINUOUS
 10
307.5009887093
 20
261.3836551797
 40
18.0004656273
100
AcDbArc
 50
34.4654750267
 51
145.5345249733
  0
ARC
  5
43F
100
AcDbEntity
  8
0
100
AcDbCircle
 62
7
  6
CONTINUOUS
 10
307.5009887093
 20
260.9072622353
 40
18.000335145
100
AcDbArc
 50
34.4652276747
 51
145.5347723253
  0
ARC
  5
440
100
AcDbEntity
  8
RUNDUNGEN
100
AcDbCircle
 62
7
  6
CONTINUOUS
 10
320.5009887093
 20
215.4310675637
 40
5.0
100
AcDbArc
 50
0.0
 51
90.0
  0
ARC
  5
441
100
AcDbEntity
  8
0
100
AcDbCircle
 62
7
  6
CONTINUOUS
 10
330.2234401474
 20
255.1615238097
 40
4.3226995279
100
AcDbArc
 50
185.6004562827
 51
199.1893317547
  0
ARC
  5
442
100
AcDbEntity
  8
0
100
AcDbCircle
 62
7
  6
CONTINUOUS
 10
330.2112305941
 20
255.1587644355
 40
4.3102792068
100
AcDbArc
 50
183.9914876004
 51
185.4147445233
  0
ARC
  5
443
100
AcDbEntity
  8
0
100
AcDbCircle
 62
7
  6
CONTINUOUS
 10
329.915883671
 20
254.9188244167
 40
4.0167094651
100
AcDbArc
 50
199.9787864703
 51
214.9691033442
  0
ARC
  5
444
100
AcDbEntity
  8
0
100
AcDbCircle
 62
7
  6
CONTINUOUS
 10
321.8877083686
 20
265.1368910433
 40
4.0150389794
100
AcDbArc
 50
27.6215984383
 51
28.7185651017
  0
ARC
  5
445
100
AcDbEntity
  8
0
100
AcDbCircle
 62
7
  6
CONTINUOUS
 10
329.913145019
 20
255.2946720952
 40
4.0124437041
100
AcDbArc
 50
185.8357120702
 51
202.4238144207
  0
ARC
  5
446
100
AcDbEntity
  8
0
100
AcDbCircle
 62
7
  6
CONTINUOUS
 10
329.9108899282
 20
255.2973299483
 40
4.0114000712
100
AcDbArc
 50
204.8617436912
 51
214.9849500382
  0
ARC
  5
447
100
AcDbEntity
  8
0
100
AcDbCircle
 62
7
  6
CONTINUOUS
 10
327.4906655412
 20
244.76739218
 40
4.0103232016
100
AcDbArc
 50
0.0074040163
 51
7.6806042257
  0
ARC
  5
448
100
AcDbEntity
  8
0
100
AcDbCircle
 62
7
  6
CONTINUOUS
 10
327.4935693035
 20
244.3873252873
 40
4.0083484967
100
AcDbArc
 50
29.1647556556
 51
32.9148646737
  0
ARC
  5
449
100
AcDbEntity
  8
0
100
AcDbCircle
 62
7
  6
CONTINUOUS
 10
327.4952701792
 20
244.7660219524
 40
4.0062394075
100
AcDbArc
 50
28.0701142273
 51
34.9871779148
  0
ARC
  5
44A
100
AcDbEntity
  8
0
100
AcDbCircle
 62
7
  6
CONTINUOUS
 10
321.8973006263
 20
265.142333317
 40
4.0040116094
100
AcDbArc
 50
28.7162230676
 51
33.6932809568
  0
ARC
  5
44B
100
AcDbEntity
  8
0
100
AcDbCircle
 62
7
  6
CONTINUOUS
 10
327.4994985879
 20
244.7682854034
 40
4.0014500316
100
AcDbArc
 50
7.6848330287
 51
28.0669184719
  0
ARC
  5
44C
100
AcDbEntity
  8
0
100
AcDbCircle
 62
7
  6
CONTINUOUS
 10
321.9022555616
 20
265.1442602801
 40
3.9987331524
100
AcDbArc
 50
359.9972154578
 51
27.6246813492
  0
ARC
  5
44D
100
AcDbEntity
  8
0
100
AcDbCircle
 62
7
  6
CONTINUOUS
 10
327.502288091
 20
244.3915001018
 40
3.9987006236
100
AcDbArc
 50
359.9970528465
 51
29.173400419
  0
ARC
  5
44E
100
AcDbEntity
  8
0
100
AcDbCircle
 62
7
  6
CONTINUOUS
 10
329.8991529459
 20
255.2916323855
 40
3.9983553946
100
AcDbArc
 50
204.4265327958
 51
204.8583767489
  0
ARC
  5
44F
100
AcDbEntity
  8
0
100
AcDbCircle
 62
7
  6
CONTINUOUS
 10
327.5035814354
 20
244.2209662883
 40
3.997407275
100
AcDbArc
 50
0.001291262
 51
35.0138965061
  0
ARC
  5
450
100
AcDbEntity
  8
0
100
AcDbCircle
 62
7
  6
CONTINUOUS
 10
327.5041815086
 20
242.1619279879
 40
3.9967890873
100
AcDbArc
 50
314.9821304222
 51
351.0066973069
  0
ARC
  5
451
100
AcDbEntity
  8
0
100
AcDbCircle
 62
7
  6
CONTINUOUS
 10
327.5049715783
 20
241.9960522563
 40
3.9959885374
100
AcDbArc
 50
314.9767599274
 51
356.1036682944
  0
ARC
  5
452
100
AcDbEntity
  8
0
100
AcDbCircle
 62
7
  6
CONTINUOUS
 10
329.8927240814
 20
255.2887279301
 40
3.9913008951
100
AcDbArc
 50
203.3428010709
 51
204.4267340427
  0
ARC
  5
453
100
AcDbEntity
  8
0
100
AcDbCircle
 62
7
  6
CONTINUOUS
 10
329.8891721088
 20
255.2871699385
 40
3.987422324
100
AcDbArc
 50
202.4555655525
 51
203.3424696098
  0
ARC
  5
454
100
AcDbEntity
  8
0
100
AcDbCircle
 62
7
  6
CONTINUOUS
 10
327.5147618863
 20
244.4009489163
 40
3.9831547965
100
AcDbArc
 50
32.9160030092
 51
35.0002235846
  0
ARC
  5
455
100
AcDbEntity
  8
0
100
AcDbCircle
 62
7
  6
CONTINUOUS
 10
321.9209103844
 20
265.1576953362
 40
3.9758458184
100
AcDbArc
 50
33.6978340235
 51
34.4643746855
  0
ARC
  5
456
100
AcDbEntity
  8
0
100
AcDbCircle
 62
7
  6
CONTINUOUS
 10
311.4009887093
 20
165.1420400947
 40
3.0
100
AcDbArc
 50
270.0
 51
360.0
  0
ARC
  5
457
100
AcDbEntity
  8
0
100
AcDbCircle
 62
7
  6
CONTINUOUS
 10
313.9009887093
 20
217.1209655122
 40
0.5
100
AcDbArc
 50
0.0
 51
53.1301023542
  0
ARC
  5
458
100
AcDbEntity
  8
0
100
AcDbCircle
 62
7
  6
CONTINUOUS
 10
314.5009887093
 20
217.9209655122
 40
0.5
100
AcDbArc
 50
180.0
 51
233.1301023542
  0
SPLINE
  5
459
100
AcDbEntity
  8
RUNDUNGEN
100
AcDbSpline
 62
7
  6
CONTINUOUS
 70
0
 71
3
 72
8
 73
4
 74
0
 42
0.0000001
 43
0.0000001
 44
0.0000000001
 40
0.0
 40
0.0
 40
0.0
 40
0.0
 40
1.0
 40
1.0
 40
1.0
 40
1.0
 10
94.0928023085
 20
140.9676288099
 30
0.0
 10
97.7367854024
 20
137.7709011662
 30
0.0
 10
101.4357697849
 20
134.6335997088
 30
0.0
 10
105.2278460784
 20
131.6140239437
 30
0.0
  0
SPLINE
  5
45A
100
AcDbEntity
  8
RUNDUNGEN
100
AcDbSpline
 62
7
  6
CONTINUOUS
 70
0
 71
3
 72
9
 73
5
 74
0
 42
0.0000001
 43
0.0000001
 44
0.0000000001
 40
0.0
 40
0.0
 40
0.0
 40
0.0
 40
0.5022620947
 40
1.0
 40
1.0
 40
1.0
 40
1.0
 10
94.0928023085
 20
140.9676288099
 30
0.0
 10
94.0466397536
 20
141.008080229
 30
0.0
 10
93.9451864262
 20
141.0789372568
 30
0.0
 10
93.8209338238
 20
141.1084862693
 30
0.0
 10
93.7601894109
 20
141.1053474936
 30
0.0
  0
SPLINE
  5
45B
100
AcDbEntity
  8
RUNDUNGEN
100
AcDbSpline
 62
7
  6
CONTINUOUS
 70
0
 71
3
 72
9
 73
5
 74
0
 42
0.0000001
 43
0.0000001
 44
0.0000000001
 40
0.0
 40
0.0
 40
0.0
 40
0.0
 40
0.5085216686
 40
1.0
 40
1.0
 40
1.0
 40
1.0
 10
111.7934147492
 20
84.78230303
 30
0.0
 10
111.9622812955
 20
84.5807980796
 30
0.0
 10
112.2833038419
 20
84.1753543751
 30
0.0
 10
112.5963395228
 20
83.7638744367
 30
0.0
 10
112.7474671756
 20
83.5596073511
 30
0.0
  0
SPLINE
  5
45C
100
AcDbEntity
  8
RUNDUNGEN
100
AcDbSpline
 62
7
  6
CONTINUOUS
 70
0
 71
3
 72
11
 73
7
 74
0
 42
0.0000001
 43
0.0000001
 44
0.0000000001
 40
0.0
 40
0.0
 40
0.0
 40
0.0
 40
0.2513088263
 40
0.4998661897
 40
0.7482286437
 40
1.0
 40
1.0
 40
1.0
 40
1.0
 10
104.8225614994
 20
95.4984399607
 30
0.0
 10
104.8951878021
 20
95.3535887676
 30
0.0
 10
105.0410944643
 20
95.066134176
 30
0.0
 10
105.2762440279
 20
94.6447955106
 30
0.0
 10
105.5180790949
 20
94.2269788195
 30
0.0
 10
105.6701467498
 20
93.94254283
 30
0.0
 10
105.7456996194
 20
93.7988593237
 30
0.0
  0
SPLINE
  5
45D
100
AcDbEntity
  8
RUNDUNGEN
100
AcDbSpline
 62
7
  6
CONTINUOUS
 70
0
 71
3
 72
23
 73
19
 74
0
 42
0.0000001
 43
0.0000001
 44
0.0000000001
 40
0.0
 40
0.0
 40
0.0
 40
0.0
 40
0.1959274297
 40
0.3837724983
 40
0.5564925311
 40
0.6351277064
 40
0.7076161299
 40
0.7732704694
 40
0.8314868986
 40
0.8817082862
 40
0.9234797381
 40
0.9564018756
 40
0.9694544176
 40
0.9801936167
 40
0.9885952799
 40
0.9946561271
 40
0.9983985852
 40
1.0
 40
1.0
 40
1.0
 40
1.0
 10
99.2752556245
 20
160.0182314951
 30
0.0
 10
99.0276739095
 20
160.2219139878
 30
0.0
 10
98.5435412683
 20
160.6218719523
 30
0.0
 10
97.8440220093
 20
161.2048480559
 30
0.0
 10
97.2941616204
 20
161.6676045581
 30
0.0
 10
96.8903140503
 20
162.0106960214
 30
0.0
 10
96.6207915515
 20
162.2413074522
 30
0.0
 10
96.3775332605
 20
162.4512205104
 30
0.0
 10
96.1628279179
 20
162.6384402344
 30
0.0
 10
95.9786556749
 20
162.8012232293
 30
0.0
 10
95.8267706868
 20
162.9379782094
 30
0.0
 10
95.7213228313
 20
163.03551809
 30
0.0
 10
95.6544371632
 20
163.09973483
 30
0.0
 10
95.6169880295
 20
163.1370363996
 30
0.0
 10
95.5887456653
 20
163.1664634975
 30
0.0
 10
95.5685646988
 20
163.1898188822
 30
0.0
 10
95.5584943293
 20
163.2031522076
 30
0.0
 10
95.5536329285
 20
163.2133142119
 30
0.0
 10
95.5552968914
 20
163.2153385127
 30
0.0
  0
SPLINE
  5
45E
100
AcDbEntity
  8
RUNDUNGEN
100
AcDbSpline
 62
7
  6
CONTINUOUS
 70
0
 71
3
 72
9
 73
5
 74
0
 42
0.0000001
 43
0.0000001
 44
0.0000000001
 40
0.0
 40
0.0
 40
0.0
 40
0.0
 40
0.2450356294
 40
1.0
 40
1.0
 40
1.0
 40
1.0
 10
104.8225614994
 20
95.4984399607
 30
0.0
 10
104.7777247997
 20
95.6131521258
 30
0.0
 10
104.5937606806
 20
96.0808927117
 30
0.0
 10
104.4031781702
 20
96.5461858162
 30
0.0
 10
104.2496220248
 20
96.8931999755
 30
0.0
  0
SPLINE
  5
45F
100
AcDbEntity
  8
RUNDUNGEN
100
AcDbSpline
 62
7
  6
CONTINUOUS
 70
0
 71
3
 72
21
 73
17
 74
0
 42
0.0000001
 43
0.0000001
 44
0.0000000001
 40
0.0
 40
0.0
 40
0.0
 40
0.0
 40
0.1234289795
 40
0.2471172115
 40
0.3711094525
 40
0.4954486556
 40
0.5577744835
 40
0.6202090339
 40
0.6827634381
 40
0.7454548847
 40
0.8083146914
 40
0.871412301
 40
0.9031635101
 40
0.9351388507
 40
0.9674317978
 40
1.0
 40
1.0
 40
1.0
 40
1.0
 10
102.5499548218
 20
128.3088607127
 30
0.0
 10
102.6124992927
 20
128.4850978719
 30
0.0
 10
102.7469516938
 20
128.8347466619
 30
0.0
 10
102.9767070067
 20
129.3482271725
 30
0.0
 10
103.2358166802
 20
129.8491340161
 30
0.0
 10
103.4778149851
 20
130.2532913731
 30
0.0
 10
103.6891773119
 20
130.5660627076
 30
0.0
 10
103.8577261385
 20
130.7945111228
 30
0.0
 10
104.0374793279
 20
131.0149971159
 30
0.0
 10
104.2305474928
 20
131.2249790462
 30
0.0
 10
104.4403399732
 20
131.4194887429
 30
0.0
 10
104.6343524029
 20
131.5611185795
 30
0.0
 10
104.8066502829
 20
131.6474633388
 30
0.0
 10
104.9469771982
 20
131.6897104201
 30
0.0
 10
105.0972546287
 20
131.689896202
 30
0.0
 10
105.1892451813
 20
131.6447612828
 30
0.0
 10
105.2278460785
 20
131.6140239441
 30
0.0
  0
LINE
  5
460
100
AcDbEntity
  8
RUNDUNGEN
100
AcDbLine
 62
7
  6
CONTINUOUS
 10
324.1162011881
 20
131.7407478241
 11
324.1126292155
 21
131.715702476
  0
SPLINE
  5
461
100
AcDbEntity
  8
RUNDUNGEN
100
AcDbSpline
 62
7
  6
CONTINUOUS
 70
0
 71
3
 72
9
 73
5
 74
0
 42
0.0000001
 43
0.0000001
 44
0.0000000001
 40
0.0
 40
0.0
 40
0.0
 40
0.0
 40
0.4895014476
 40
1.0
 40
1.0
 40
1.0
 40
1.0
 10
324.1126292155
 20
131.715702476
 30
0.0
 10
323.7362274198
 20
129.0772830878
 30
0.0
 10
322.9003371895
 20
123.6970215959
 30
0.0
 10
322.0467460129
 20
118.3197712076
 30
0.0
 10
321.6325437015
 20
115.5713535014
 30
0.0
  0
LINE
  5
462
100
AcDbEntity
  8
RUNDUNGEN
100
AcDbLine
 62
7
  6
CONTINUOUS
 10
321.6325437015
 20
115.5713535014
 11
321.6272839537
 21
115.5364448319
  0
LINE
  5
463
100
AcDbEntity
  8
RUNDUNGEN
100
AcDbLine
 62
7
  6
CONTINUOUS
 10
321.6272839537
 20
115.5364448319
 11
321.5942670343
 21
115.3169472041
  0
SPLINE
  5
464
100
AcDbEntity
  8
0
100
AcDbSpline
 62
7
  6
CONTINUOUS
 70
0
 71
3
 72
9
 73
5
 74
0
 42
0.0000001
 43
0.0000001
 44
0.0000000001
 40
0.0
 40
0.0
 40
0.0
 40
0.0
 40
0.2479429091
 40
1.0
 40
1.0
 40
1.0
 40
1.0
 10
297.5009688922
 20
60.5281052526
 30
0.0
 10
297.5007532639
 20
60.656364095
 30
0.0
 10
297.492670417
 20
61.1735600724
 30
0.0
 10
297.4553570378
 20
61.6907718393
 30
0.0
 10
297.4037500911
 20
62.0763672492
 30
0.0
  0
SPLINE
  5
465
100
AcDbEntity
  8
0
100
AcDbSpline
 62
7
  6
CONTINUOUS
 70
0
 71
3
 72
9
 73
5
 74
0
 42
0.0000001
 43
0.0000001
 44
0.0000000001
 40
0.0
 40
0.0
 40
0.0
 40
0.0
 40
0.2538268889
 40
1.0
 40
1.0
 40
1.0
 40
1.0
 10
297.4001215237
 20
62.1031827557
 30
0.0
 10
297.3836897822
 20
62.2233014298
 30
0.0
 10
297.3096832686
 20
62.6951822427
 30
0.0
 10
297.1991245952
 20
63.1616097802
 30
0.0
 10
297.0935430742
 20
63.5020123975
 30
0.0
  0
SPLINE
  5
466
100
AcDbEntity
  8
RUNDUNGEN
100
AcDbSpline
 62
7
  6
CONTINUOUS
 70
0
 71
3
 72
11
 73
7
 74
0
 42
0.0000001
 43
0.0000001
 44
0.0000000001
 40
0.0
 40
0.0
 40
0.0
 40
0.0
 40
0.2056848847
 40
0.4488991147
 40
0.7180141063
 40
1.0
 40
1.0
 40
1.0
 40
1.0
 10
320.9958090458
 20
80.0452454878
 30
0.0
 10
321.2308861658
 20
82.6231133058
 30
0.0
 10
321.676385544
 20
88.2552922031
 30
0.0
 10
322.2892029981
 20
97.2707930366
 30
0.0
 10
322.9067924092
 20
107.2482759276
 30
0.0
 10
323.3179842469
 20
114.1717284329
 30
0.0
 10
323.5290709917
 20
117.7142646204
 30
0.0
  0
SPLINE
  5
467
100
AcDbEntity
  8
0
100
AcDbSpline
 62
7
  6
CONTINUOUS
 70
0
 71
3
 72
9
 73
5
 74
0
 42
0.0000001
 43
0.0000001
 44
0.0000000001
 40
0.0
 40
0.0
 40
0.0
 40
0.0
 40
0.2510432214
 40
1.0
 40
1.0
 40
1.0
 40
1.0
 10
291.4719888644
 20
117.729663424
 30
0.0
 10
291.4371545728
 20
118.3142599043
 30
0.0
 10
291.2983204325
 20
120.6429239912
 30
0.0
 10
291.1588257659
 20
122.9715489968
 30
0.0
 10
291.0533282938
 20
124.7155266906
 30
0.0
  0
SPLINE
  5
468
100
AcDbEntity
  8
RUNDUNGEN
100
AcDbSpline
 62
7
  6
CONTINUOUS
 70
0
 71
3
 72
9
 73
5
 74
0
 42
0.0000001
 43
0.0000001
 44
0.0000000001
 40
0.0
 40
0.0
 40
0.0
 40
0.0
 40
0.2479429091
 40
1.0
 40
1.0
 40
1.0
 40
1.0
 10
317.5010085265
 20
60.5281052526
 30
0.0
 10
317.5012241548
 20
60.656364095
 30
0.0
 10
317.5093070017
 20
61.1735600724
 30
0.0
 10
317.5466203808
 20
61.6907718393
 30
0.0
 10
317.5982273276
 20
62.0763672492
 30
0.0
  0
SPLINE
  5
469
100
AcDbEntity
  8
RUNDUNGEN
100
AcDbSpline
 62
7
  6
CONTINUOUS
 70
0
 71
3
 72
9
 73
5
 74
0
 42
0.0000001
 43
0.0000001
 44
0.0000000001
 40
0.0
 40
0.0
 40
0.0
 40
0.0
 40
0.2538268889
 40
1.0
 40
1.0
 40
1.0
 40
1.0
 10
317.601855895
 20
62.1031827557
 30
0.0
 10
317.6182876365
 20
62.2233014298
 30
0.0
 10
317.6922941501
 20
62.6951822427
 30
0.0
 10
317.8028528234
 20
63.1616097802
 30
0.0
 10
317.9084343445
 20
63.5020123975
 30
0.0
  0
SPLINE
  5
46A
100
AcDbEntity
  8
RUNDUNGEN
100
AcDbSpline
 62
7
  6
CONTINUOUS
 70
0
 71
3
 72
9
 73
5
 74
0
 42
0.0000001
 43
0.0000001
 44
0.0000000001
 40
0.0
 40
0.0
 40
0.0
 40
0.0
 40
0.2510432214
 40
1.0
 40
1.0
 40
1.0
 40
1.0
 10
323.5299885543
 20
117.729663424
 30
0.0
 10
323.5648228459
 20
118.3142599043
 30
0.0
 10
323.7036569862
 20
120.6429239912
 30
0.0
 10
323.8431516528
 20
122.9715489968
 30
0.0
 10
323.9486491249
 20
124.7155266906
 30
0.0
  0
LINE
  5
46B
100
AcDbEntity
  8
0
100
AcDbLine
 62
7
  6
CONTINUOUS
 10
290.8857762306
 20
131.7407478241
 11
290.8893482032
 21
131.715702476
  0
SPLINE
  5
46C
100
AcDbEntity
  8
0
100
AcDbSpline
 62
7
  6
CONTINUOUS
 70
0
 71
3
 72
9
 73
5
 74
0
 42
0.0000001
 43
0.0000001
 44
0.0000000001
 40
0.0
 40
0.0
 40
0.0
 40
0.0
 40
0.489501293
 40
1.0
 40
1.0
 40
1.0
 40
1.0
 10
290.8893482032
 20
131.715702476
 30
0.0
 10
291.2657737061
 20
129.0771169104
 30
0.0
 10
292.1017208249
 20
123.6965154651
 30
0.0
 10
292.9553644943
 20
118.3189244263
 30
0.0
 10
293.369587797
 20
115.5703311065
 30
0.0
  0
LINE
  5
46D
100
AcDbEntity
  8
0
100
AcDbLine
 62
7
  6
CONTINUOUS
 10
293.369587797
 20
115.5703311065
 11
293.3746923189
 21
115.5364524402
  0
LINE
  5
46E
100
AcDbEntity
  8
0
100
AcDbLine
 62
7
  6
CONTINUOUS
 10
293.3746923189
 20
115.5364524402
 11
293.4084865916
 21
115.3117792329
  0
SPLINE
  5
46F
100
AcDbEntity
  8
0
100
AcDbSpline
 62
7
  6
CONTINUOUS
 70
0
 71
3
 72
11
 73
7
 74
0
 42
0.0000001
 43
0.0000001
 44
0.0000000001
 40
0.0
 40
0.0
 40
0.0
 40
0.0
 40
0.2056847283
 40
0.4488992601
 40
0.7180144957
 40
1.0
 40
1.0
 40
1.0
 40
1.0
 10
294.0061683729
 20
80.0452454878
 30
0.0
 10
293.7710857137
 20
82.6231740483
 30
0.0
 10
293.3255767539
 20
88.2554918866
 30
0.0
 10
292.7127467535
 20
97.2712170785
 30
0.0
 10
292.0951445988
 20
107.248944771
 30
0.0
 10
291.6839435085
 20
114.1725638897
 30
0.0
 10
291.4728518027
 20
117.715181345
 30
0.0
  0
SPLINE
  5
470
100
AcDbEntity
  8
RUNDUNGEN
100
AcDbSpline
 62
7
  6
CONTINUOUS
 70
0
 71
3
 72
14
 73
10
 74
0
 42
0.0000001
 43
0.0000001
 44
0.0000000001
 40
0.0
 40
0.0
 40
0.0
 40
0.0
 40
0.0964242801
 40
0.1986510443
 40
0.3099760298
 40
0.4317849163
 40
0.5637673603
 40
0.7043217053
 40
1.0
 40
1.0
 40
1.0
 40
1.0
 10
325.5000646465
 20
160.0182314951
 30
0.0
 10
325.4937843038
 20
160.2257395281
 30
0.0
 10
325.4129897532
 20
160.6534903678
 30
0.0
 10
325.1043848691
 20
161.2536722407
 30
0.0
 10
324.6251738814
 20
161.8017727111
 30
0.0
 10
323.9959756579
 20
162.2802724689
 30
0.0
 10
323.2399197277
 20
162.6745602557
 30
0.0
 10
322.0813459595
 20
163.0765187354
 30
0.0
 10
321.1375008767
 20
163.2047520166
 30
0.0
 10
320.5009887093
 20
163.2153385127
 30
0.0
  0
SPLINE
  5
471
100
AcDbEntity
  8
RUNDUNGEN
100
AcDbSpline
 62
7
  6
CONTINUOUS
 70
0
 71
3
 72
9
 73
5
 74
0
 42
0.0000001
 43
0.0000001
 44
0.0000000001
 40
0.0
 40
0.0
 40
0.0
 40
0.0
 40
0.2674806786
 40
1.0
 40
1.0
 40
1.0
 40
1.0
 10
323.9941295502
 20
130.9020515867
 30
0.0
 10
324.0143488822
 20
130.9532081777
 30
0.0
 10
324.0905293525
 20
131.1442089277
 30
0.0
 10
324.1680895422
 20
131.334804634
 30
0.0
 10
324.2307638341
 20
131.4717906016
 30
0.0
  0
SPLINE
  5
472
100
AcDbEntity
  8
RUNDUNGEN
100
AcDbSpline
 62
7
  6
CONTINUOUS
 70
0
 71
3
 72
9
 73
5
 74
0
 42
0.0000001
 43
0.0000001
 44
0.0000000001
 40
0.0
 40
0.0
 40
0.0
 40
0.0
 40
0.2700076466
 40
1.0
 40
1.0
 40
1.0
 40
1.0
 10
324.2307638341
 20
131.4717906016
 30
0.0
 10
324.2363869045
 20
131.4840808361
 30
0.0
 10
324.2574646329
 20
131.5294768596
 30
0.0
 10
324.2794910409
 20
131.5744790983
 30
0.0
 10
324.297115802
 20
131.6064880896
 30
0.0
  0
SPLINE
  5
473
100
AcDbEntity
  8
RUNDUNGEN
100
AcDbSpline
 62
7
  6
CONTINUOUS
 70
0
 71
3
 72
15
 73
11
 74
0
 42
0.0000001
 43
0.0000001
 44
0.0000000001
 40
0.0
 40
0.0
 40
0.0
 40
0.0
 40
0.1736786645
 40
0.3246729558
 40
0.4477785997
 40
0.5363273948
 40
0.5940146457
 40
0.6678461122
 40
0.8022181205
 40
1.0
 40
1.0
 40
1.0
 40
1.0
 10
324.297115802
 20
131.6064880896
 30
0.0
 10
324.3022905623
 20
131.6158861663
 30
0.0
 10
324.3122630694
 20
131.6332722549
 30
0.0
 10
324.3270992238
 20
131.656714108
 30
0.0
 10
324.3411064446
 20
131.6740988069
 30
0.0
 10
324.3526806428
 20
131.6864439027
 30
0.0
 10
324.3683913039
 20
131.6884935017
 30
0.0
 10
324.3765290145
 20
131.6710896166
 30
0.0
 10
324.3788526408
 20
131.6471556534
 30
0.0
 10
324.3790137177
 20
131.6262337157
 30
0.0
 10
324.3785799407
 20
131.6140239441
 30
0.0
  0
LINE
  5
474
100
AcDbEntity
  8
0
100
AcDbLine
 62
7
  6
CONTINUOUS
 10
290.3564326751
 20
140.9676288099
 11
290.3617228053
 21
140.7391285177
  0
SPLINE
  5
475
100
AcDbEntity
  8
0
100
AcDbSpline
 62
7
  6
CONTINUOUS
 70
0
 71
3
 72
13
 73
9
 74
0
 42
0.0000001
 43
0.0000001
 44
0.0000000001
 40
0.0
 40
0.0
 40
0.0
 40
0.0
 40
0.3896062303
 40
0.7000343364
 40
0.8176246254
 40
0.9055847865
 40
0.9616210492
 40
1.0
 40
1.0
 40
1.0
 40
1.0
 10
290.3564326751
 20
140.9676288099
 30
0.0
 10
290.3560027228
 20
140.9864136899
 30
0.0
 10
290.3557159388
 20
141.0202207021
 30
0.0
 10
290.357421512
 20
141.059530624
 30
0.0
 10
290.3607522865
 20
141.0844187304
 30
0.0
 10
290.3639367067
 20
141.0963160478
 30
0.0
 10
290.36767253
 20
141.1051072778
 30
0.0
 10
290.3730310806
 20
141.1060265825
 30
0.0
 10
290.3747529314
 20
141.1053474936
 30
0.0
  0
LINE
  5
476
100
AcDbEntity
  8
RUNDUNGEN
100
AcDbLine
 62
7
  6
CONTINUOUS
 10
324.6455447436
 20
140.9676288099
 11
324.6402546506
 21
140.7391301188
  0
SPLINE
  5
477
100
AcDbEntity
  8
RUNDUNGEN
100
AcDbSpline
 62
7
  6
CONTINUOUS
 70
0
 71
3
 72
13
 73
9
 74
0
 42
0.0000001
 43
0.0000001
 44
0.0000000001
 40
0.0
 40
0.0
 40
0.0
 40
0.0
 40
0.3896062303
 40
0.7000343364
 40
0.8176246254
 40
0.9055847865
 40
0.9616210492
 40
1.0
 40
1.0
 40
1.0
 40
1.0
 10
324.6455447436
 20
140.9676288099
 30
0.0
 10
324.6459746959
 20
140.9864136899
 30
0.0
 10
324.6462614799
 20
141.0202207021
 30
0.0
 10
324.6445559067
 20
141.059530624
 30
0.0
 10
324.6412251322
 20
141.0844187304
 30
0.0
 10
324.638040712
 20
141.0963160478
 30
0.0
 10
324.6343048886
 20
141.1051072778
 30
0.0
 10
324.628946338
 20
141.1060265825
 30
0.0
 10
324.6272244873
 20
141.1053474936
 30
0.0
  0
SPLINE
  5
478
100
AcDbEntity
  8
0
100
AcDbSpline
 62
7
  6
CONTINUOUS
 70
0
 71
3
 72
14
 73
10
 74
0
 42
0.0000001
 43
0.0000001
 44
0.0000000001
 40
0.0
 40
0.0
 40
0.0
 40
0.0
 40
0.0964242801
 40
0.1986510443
 40
0.3099760298
 40
0.4317849163
 40
0.5637673603
 40
0.7043217053
 40
1.0
 40
1.0
 40
1.0
 40
1.0
 10
289.5019127722
 20
160.0182314951
 30
0.0
 10
289.5081931149
 20
160.2257395281
 30
0.0
 10
289.5889876655
 20
160.6534903678
 30
0.0
 10
289.8975925495
 20
161.2536722407
 30
0.0
 10
290.3768035373
 20
161.8017727111
 30
0.0
 10
291.0060017608
 20
162.2802724689
 30
0.0
 10
291.762057691
 20
162.6745602557
 30
0.0
 10
292.9206314592
 20
163.0765187354
 30
0.0
 10
293.864476542
 20
163.2047520166
 30
0.0
 10
294.5009887093
 20
163.2153385127
 30
0.0
  0
SPLINE
  5
479
100
AcDbEntity
  8
0
100
AcDbSpline
 62
7
  6
CONTINUOUS
 70
0
 71
3
 72
9
 73
5
 74
0
 42
0.0000001
 43
0.0000001
 44
0.0000000001
 40
0.0
 40
0.0
 40
0.0
 40
0.0
 40
0.2674321739
 40
1.0
 40
1.0
 40
1.0
 40
1.0
 10
291.0058837285
 20
130.9070199034
 30
0.0
 10
290.9858352689
 20
130.9577212568
 30
0.0
 10
290.9102858176
 20
131.1470570117
 30
0.0
 10
290.833349319
 20
131.3359817484
 30
0.0
 10
290.7712135846
 20
131.4717906016
 30
0.0
  0
SPLINE
  5
47A
100
AcDbEntity
  8
0
100
AcDbSpline
 62
7
  6
CONTINUOUS
 70
0
 71
3
 72
9
 73
5
 74
0
 42
0.0000001
 43
0.0000001
 44
0.0000000001
 40
0.0
 40
0.0
 40
0.0
 40
0.0
 40
0.2700076466
 40
1.0
 40
1.0
 40
1.0
 40
1.0
 10
290.7712135846
 20
131.4717906016
 30
0.0
 10
290.7655905141
 20
131.4840808361
 30
0.0
 10
290.7445127858
 20
131.5294768596
 30
0.0
 10
290.7224863778
 20
131.5744790983
 30
0.0
 10
290.7048616167
 20
131.6064880896
 30
0.0
  0
SPLINE
  5
47B
100
AcDbEntity
  8
0
100
AcDbSpline
 62
7
  6
CONTINUOUS
 70
0
 71
3
 72
15
 73
11
 74
0
 42
0.0000001
 43
0.0000001
 44
0.0000000001
 40
0.0
 40
0.0
 40
0.0
 40
0.0
 40
0.1736786645
 40
0.3246729558
 40
0.4477785997
 40
0.5363273948
 40
0.5940146457
 40
0.6678461122
 40
0.8022181205
 40
1.0
 40
1.0
 40
1.0
 40
1.0
 10
290.7048616167
 20
131.6064880896
 30
0.0
 10
290.6996868564
 20
131.6158861663
 30
0.0
 10
290.6897143493
 20
131.6332722549
 30
0.0
 10
290.6748781949
 20
131.656714108
 30
0.0
 10
290.660870974
 20
131.6740988069
 30
0.0
 10
290.6492967759
 20
131.6864439027
 30
0.0
 10
290.6335861148
 20
131.6884935017
 30
0.0
 10
290.6254484042
 20
131.6710896166
 30
0.0
 10
290.6231247779
 20
131.6471556534
 30
0.0
 10
290.622963701
 20
131.6262337157
 30
0.0
 10
290.623397478
 20
131.6140239441
 30
0.0
  0
LINE
  5
47C
100
AcDbEntity
  8
RUNDUNGEN
100
AcDbLine
 62
7
  6
CONTINUOUS
 10
289.080602924
 20
254.7396679949
 11
289.0817923318
 21
254.7520270562
  0
LINE
  5
47D
100
AcDbEntity
  8
0
100
AcDbLine
 62
7
  6
CONTINUOUS
 10
325.9213744947
 20
254.7396679949
 11
325.9201850869
 21
254.7520270562
  0
ENDSEC
  0
SECTION
  2
OBJECTS
  0
DICTIONARY
  5
C
100
AcDbDictionary
280
0
281
1
  3
ACAD_GROUP
350
D
  3
ACAD_MLINESTYLE
350
17
  3
ACAD_LAYOUT
350
1A
  3
ACAD_PLOTSETTINGS
350
19
  3
ACAD_PLOTSTYLENAME
350
E
  0
DICTIONARY
  5
D
102
{ACAD_REACTORS
330
C
102
}
100
AcDbDictionary
280
0
281
1
  0
ACDBDICTIONARYWDFLT
  5
E
102
{ACAD_REACTORS
330
C
102
}
100
AcDbDictionary
281
1
  3
Normal
350
F
100
AcDbDictionaryWithDefault
340
F
  0
DICTIONARY
  5
17
102
{ACAD_REACTORS
330
C
102
}
100
AcDbDictionary
280
0
281
1
  3
Standard
350
18
  0
DICTIONARY
  5
19
102
{ACAD_REACTORS
330
C
102
}
100
AcDbDictionary
281
1
  0
DICTIONARY
  5
1A
102
{ACAD_REACTORS
330
C
102
}
100
AcDbDictionary
281
1
  3
Model
350
47E
  3
Layout1
350
47F
  0
ACDBPLACEHOLDER
  5
F
102
{ACAD_REACTORS
330
E
102
}
  0
MLINESTYLE
  5
18
102
{ACAD_REACTORS
330
17
102
}
100
AcDbMlineStyle
  2
STANDARD
 70
0
  3

 62
256
 51
90.0
 52
90.0
 71
2
 49
0.5
 62
256
  6
BYLAYER
 49
-0.5
 62
256
  6
BYLAYER
  0
LAYOUT
  5
47E
102
{ACAD_REACTORS
330
1A
102
}
100
AcDbPlotSettings
  1

  2
none_device
  4
ISO_A3_(420.00_x_297.00_MM)
  6

 40
0.0
 41
0.0
 42
0.0
 43
0.0
 44
420.0
 45
297.0
 46
0.0
 47
0.0
 48
0.0
 49
0.0
140
0.0
141
0.0
142
1.0
143
1.0
 70
1024
 72
1
 73
0
 74
0
  7

 75
0
147
1.0
148
0.0
149
0.0
100
AcDbLayout
  1
Model
 70
0
 71
0
 10
0.0
 20
0.0
 11
420.0
 21
297.0
 12
0.0
 22
0.0
 32
0.0
 14
0.0
 24
0.0
 34
0.0
 15
0.0
 25
0.0
 35
0.0
146
0.0
 13
0.0
 23
0.0
 33
0.0
 16
1.0
 26
0.0
 36
0.0
 17
0.0
 27
1.0
 37
0.0
 76
0
330
211
345
0
346
0
  0
LAYOUT
  5
47F
102
{ACAD_REACTORS
330
1A
102
}
100
AcDbPlotSettings
  1

  2
none_device
  4
ISO_A3_(420.00_x_297.00_MM)
  6

 40
0.0
 41
0.0
 42
0.0
 43
0.0
 44
420.0
 45
297.0
 46
0.0
 47
0.0
 48
0.0
 49
0.0
140
0.0
141
0.0
142
1.0
143
1.0
 70
0
 72
1
 73
0
 74
0
  7

 75
0
147
1.0
148
0.0
149
0.0
100
AcDbLayout
  1
Layout1
 70
0
 71
1
 10
0.0
 20
0.0
 11
420.0
 21
297.0
 12
0.0
 22
0.0
 32
0.0
 14
0.0
 24
0.0
 34
0.0
 15
0.0
 25
0.0
 35
0.0
146
0.0
 13
0.0
 23
0.0
 33
0.0
 16
1.0
 26
0.0
 36
0.0
 17
0.0
 27
1.0
 37
0.0
 76
0
330
212
345
0
346
0
  0
ENDSEC
  0
EOF
