999
DXF file: VWH-8_7100211_M34845-P-3.dxf
999
Pro/ENGINEER 2010140 by Parametric Technology Corporation
  0
SECTION
  2
HEADER
  9
$ACADVER
  1
AC1015
  9
$DWGCODEPAGE
  3
ANSI_1252
  9
$EXTMAX
 10
420.0
 20
297.0
 30
0.0
  9
$EXTMIN
 10
0.0
 20
0.0
 30
0.0
  9
$LIMMIN
 10
0.0
 20
0.0
  9
$LIMMAX
 10
420.0
 20
297.0
  9
$VIEWCTR
 10
210.0
 20
148.5
  9
$VIEWSIZE
 40
297.0
  9
$CLAYER
  8
0
  9
$LTSCALE
 40
23.1
  9
$CELTYPE
  6
BYLAYER
  9
$DIMSCALE
 40
1.0
  9
$DIMASZ
 40
3.5
  9
$DIMEXO
 40
2.625
  9
$DIMDLI
 40
15.96
  9
$DIMEXE
 40
7.56
  9
$DIMCEN
 40
3.78
  9
$DIMLFAC
 40
1.0
  9
$DIMBLK
  1
_FILLED
  9
$DIMTXT
 40
3.5
  9
$DIMTOL
 70
1
  9
$DIMLIM
 70
0
  9
$DIMTFAC
 40
1.0
  9
$DIMTP
 40
0.005
  9
$DIMTM
 40
0.005
  9
$PDMODE
 70
3
  9
$PDSIZE
 40
0.3125
  9
$HANDSEED
  5
3BF
  9
$TILEMODE
 70
1
  9
$MEASUREMENT
 70
1
  9
$INSUNITS
 70
4
  0
ENDSEC
  0
SECTION
  2
CLASSES
  0
CLASS
  1
ACDBDICTIONARYWDFLT
  2
AcDbDictionaryWithDefault
  3
AutoCAD 2000
 90
0
280
0
281
0
  0
CLASS
  1
ACDBPLACEHOLDER
  2
AcDbPlaceHolder
  3
AutoCAD 2000
 90
0
280
0
281
0
  0
CLASS
  1
LAYOUT
  2
AcDbLayout
  3
AutoCAD 2000
 90
0
280
0
281
0
  0
ENDSEC
  0
SECTION
  2
TABLES
  0
TABLE
  2
VPORT
  5
8
100
AcDbSymbolTable
 70
2
  0
VPORT
  5
1F4
100
AcDbSymbolTableRecord
100
AcDbViewportTableRecord
  2
*ACTIVE
 70
0
 10
0.0
 20
0.0
 11
1.0
 21
1.0
 12
210.0
 22
148.5
 13
0.0
 23
0.0
 14
1.0
 24
1.0
 15
0.0
 25
0.0
 16
0.0
 26
0.0
 36
1.0
 17
0.0
 27
0.0
 37
0.0
 40
297.0
 41
1.4141414141
 42
50.0
 43
0.0
 44
0.0
 50
0.0
 51
0.0
 71
0
 72
100
 73
1
 74
1
 75
0
 76
0
 77
0
 78
0
  0
ENDTAB
  0
TABLE
  2
LTYPE
  5
5
100
AcDbSymbolTable
 70
6
  0
LTYPE
  5
14
100
AcDbSymbolTableRecord
100
AcDbLinetypeTableRecord
  2
BYBLOCK
 70
0
  3

 72
65
 73
0
 40
0.0
  0
LTYPE
  5
15
100
AcDbSymbolTableRecord
100
AcDbLinetypeTableRecord
  2
BYLAYER
 70
0
  3

 72
65
 73
0
 40
0.0
  0
LTYPE
  5
16
100
AcDbSymbolTableRecord
100
AcDbLinetypeTableRecord
  2
CONTINUOUS
 70
64
  3
Solid line
 72
65
 73
0
 40
0.0
  0
LTYPE
  5
1F5
100
AcDbSymbolTableRecord
100
AcDbLinetypeTableRecord
  2
CENTER
 70
64
  3
____ _ ____ _ ____ _ ____ _ ____ _ ____ _ ____
 72
65
 73
4
 40
0.6
 49
0.375
 74
0
 49
-0.075
 74
0
 49
0.075
 74
0
 49
-0.075
 74
0
  0
LTYPE
  5
1F6
100
AcDbSymbolTableRecord
100
AcDbLinetypeTableRecord
  2
HIDDEN
 70
64
  3
- - - - - - - - - - - - - - - - - - - -
 72
65
 73
2
 40
0.2
 49
0.1
 74
0
 49
-0.1
 74
0
  0
LTYPE
  5
1F7
100
AcDbSymbolTableRecord
100
AcDbLinetypeTableRecord
  2
PHANTOM
 70
64
  3
_____ _ _ _____ _ _ _____ _ _ _____
 72
65
 73
6
 40
0.8
 49
0.45
 74
0
 49
-0.05
 74
0
 49
0.1
 74
0
 49
-0.05
 74
0
 49
0.1
 74
0
 49
-0.05
 74
0
  0
LTYPE
  5
1F8
100
AcDbSymbolTableRecord
100
AcDbLinetypeTableRecord
  2
DOT
 70
64
  3
. . . . . . . . . . . . . . . . . . . .
 72
65
 73
2
 40
0.2
 49
0.1
 74
0
 49
-0.1
 74
0
  0
LTYPE
  5
1F9
100
AcDbSymbolTableRecord
100
AcDbLinetypeTableRecord
  2
DASHED
 70
64
  3
- - - - - - - - - - - - - - - - - - - -
 72
65
 73
2
 40
0.2
 49
0.1
 74
0
 49
-0.1
 74
0
  0
ENDTAB
  0
TABLE
  2
LAYER
  5
2
100
AcDbSymbolTable
 70
36
  0
LAYER
  5
10
100
AcDbSymbolTableRecord
100
AcDbLayerTableRecord
  2
0
 70
0
 62
7
  6
CONTINUOUS
370
-3
390
F
  0
LAYER
  5
1FA
100
AcDbSymbolTableRecord
100
AcDbLayerTableRecord
  2
DEFAULT_1
 70
0
 62
7
  6
CENTER
370
-3
390
F
  0
LAYER
  5
1FB
100
AcDbSymbolTableRecord
100
AcDbLayerTableRecord
  2
DEFAULT_2
 70
0
 62
8
  6
HIDDEN
370
-3
390
F
  0
LAYER
  5
1FC
100
AcDbSymbolTableRecord
100
AcDbLayerTableRecord
  2
DEFAULT_3
 70
0
 62
7
  6
PHANTOM
370
-3
390
F
  0
LAYER
  5
1FD
100
AcDbSymbolTableRecord
100
AcDbLayerTableRecord
  2
BEZUGSACHSEN
 70
0
 62
7
  6
CONTINUOUS
370
-3
390
F
  0
LAYER
  5
1FE
100
AcDbSymbolTableRecord
100
AcDbLayerTableRecord
  2
BEZUGSEBENEN
 70
0
 62
7
  6
CONTINUOUS
370
-3
390
F
  0
LAYER
  5
1FF
100
AcDbSymbolTableRecord
100
AcDbLayerTableRecord
  2
FASEN
 70
0
 62
7
  6
CONTINUOUS
370
-3
390
F
  0
LAYER
  5
200
100
AcDbSymbolTableRecord
100
AcDbLayerTableRecord
  2
FLAECHEN
 70
0
 62
7
  6
CONTINUOUS
370
-3
390
F
  0
LAYER
  5
201
100
AcDbSymbolTableRecord
100
AcDbLayerTableRecord
  2
HILFEN
 70
0
 62
7
  6
CONTINUOUS
370
-3
390
F
  0
LAYER
  5
202
100
AcDbSymbolTableRecord
100
AcDbLayerTableRecord
  2
KURVEN
 70
0
 62
7
  6
CONTINUOUS
370
-3
390
F
  0
LAYER
  5
203
100
AcDbSymbolTableRecord
100
AcDbLayerTableRecord
  2
PLATZIERUNG
 70
0
 62
7
  6
CONTINUOUS
370
-3
390
F
  0
LAYER
  5
204
100
AcDbSymbolTableRecord
100
AcDbLayerTableRecord
  2
RUNDUNGEN
 70
0
 62
7
  6
CONTINUOUS
370
-3
390
F
  0
LAYER
  5
205
100
AcDbSymbolTableRecord
100
AcDbLayerTableRecord
  2
T_STARTBEZUEGE
 70
0
 62
7
  6
CONTINUOUS
370
-3
390
F
  0
LAYER
  5
206
100
AcDbSymbolTableRecord
100
AcDbLayerTableRecord
  2
ZEICHNUNGSBEMASSUNGEN
 70
0
 62
7
  6
CONTINUOUS
370
-3
390
F
  0
ENDTAB
  0
TABLE
  2
STYLE
  5
3
100
AcDbSymbolTable
 70
1
  0
STYLE
  5
11
100
AcDbSymbolTableRecord
100
AcDbTextStyleTableRecord
  2
STANDARD
 70
0
 40
0.0
 41
0.7
 50
0.0
 71
0
 42
0.2
  3
txt
  4

  0
STYLE
  5
207
100
AcDbSymbolTableRecord
100
AcDbTextStyleTableRecord
  2
TEXTSTYLE_1
 70
0
 40
0.0
 41
0.8
 50
0.0
 71
0
 42
0.2
  3
gdt
  4

  0
ENDTAB
  0
TABLE
  2
VIEW
  5
6
100
AcDbSymbolTable
 70
0
  0
ENDTAB
  0
TABLE
  2
UCS
  5
7
100
AcDbSymbolTable
 70
0
  0
ENDTAB
  0
TABLE
  2
APPID
  5
9
100
AcDbSymbolTable
 70
1
  0
APPID
  5
208
100
AcDbSymbolTableRecord
100
AcDbRegAppTableRecord
  2
ACAD
 70
0
  0
ENDTAB
  0
TABLE
  2
BLOCK_RECORD
  5
1
100
AcDbSymbolTable
 70
0
  0
BLOCK_RECORD
  5
209
100
AcDbSymbolTableRecord
100
AcDbBlockTableRecord
  2
*Model_Space
  0
BLOCK_RECORD
  5
20A
100
AcDbSymbolTableRecord
100
AcDbBlockTableRecord
  2
*Paper_Space
  0
ENDTAB
  0
TABLE
  2
DIMSTYLE
  5
A
100
AcDbSymbolTable
 70
1
100
AcDbDimStyleTable
 71
0
  0
DIMSTYLE
105
20B
100
AcDbSymbolTableRecord
100
AcDbDimStyleTableRecord
  2
STANDARD
 70
0
  3

  4

 40
1.0
 41
3.5
 42
0.0625
 43
0.38
 44
0.18
 45
0.0
 46
0.0
 47
0.005
 48
0.005
140
3.5
141
0.09
142
0.0
143
25.4
144
1.0
145
0.0
146
1.0
147
0.09
 71
1.0
 72
0.0
 73
0
 74
0
 75
0
 76
0
 77
1
 78
8
170
0
171
2
172
0
173
0
174
0
175
0
176
0
177
0
178
5
270
2
271
3
272
3
273
2
274
2
275
0
280
0
281
0
282
0
283
1
284
8
285
0
286
0
287
3
288
0
340
11
  0
ENDTAB
  0
ENDSEC
  0
SECTION
  2
BLOCKS
  0
BLOCK
  5
20
100
AcDbEntity
  8
0
100
AcDbBlockBegin
  2
*Model_Space
 70
0
 10
0.0
 20
0.0
 30
0.0
  3
*Model_Space
  1

  0
ENDBLK
  5
21
100
AcDbEntity
  8
0
100
AcDbBlockEnd
  0
BLOCK
  5
1C
100
AcDbEntity
  8
0
100
AcDbBlockBegin
  2
*Paper_Space
 70
0
 10
0.0
 20
0.0
 30
0.0
  3
*Paper_Space
  1

  0
ENDBLK
  5
1D
100
AcDbEntity
  8
0
100
AcDbBlockEnd
  0
ENDSEC
  0
SECTION
  2
ENTITIES
  0
MTEXT
  5
20C
100
AcDbEntity
  8
0
100
AcDbMText
 62
5
  6
CONTINUOUS
  7
STANDARD
 71
1
 72
1
 10
294.0634827876
 20
146.8827767631
 30
0.0
 11
0.0
 21
1.0
 31
0.0
 44
0.9
  1
RUD VWH 8
 40
4.5
 41
36.0
  0
LINE
  5
20D
100
AcDbEntity
  8
0
100
AcDbLine
 62
7
  6
CONTINUOUS
 10
0.0
 20
0.0
 11
0.0
 21
297.0
  0
LINE
  5
20E
100
AcDbEntity
  8
0
100
AcDbLine
 62
7
  6
CONTINUOUS
 10
0.0
 20
0.0
 11
420.0
 21
0.0
  0
LINE
  5
20F
100
AcDbEntity
  8
0
100
AcDbLine
 62
7
  6
CONTINUOUS
 10
0.0
 20
297.0
 11
420.0
 21
297.0
  0
LINE
  5
210
100
AcDbEntity
  8
0
100
AcDbLine
 62
7
  6
CONTINUOUS
 10
420.0
 20
0.0
 11
420.0
 21
297.0
  0
LINE
  5
211
100
AcDbEntity
  8
0
100
AcDbLine
 62
7
  6
CONTINUOUS
 10
148.8197724995
 20
79.3724678905
 11
149.4354268519
 21
79.4801466642
  0
LINE
  5
212
100
AcDbEntity
  8
0
100
AcDbLine
 62
7
  6
CONTINUOUS
 10
152.0006517548
 20
79.9288079474
 11
152.7189182974
 21
80.0544337311
  0
LINE
  5
213
100
AcDbEntity
  8
0
100
AcDbLine
 62
7
  6
CONTINUOUS
 10
159.8831571358
 20
87.5879285164
 11
159.3621734821
 21
87.4822763283
  0
LINE
  5
214
100
AcDbEntity
  8
0
100
AcDbLine
 62
7
  6
CONTINUOUS
 10
149.0505325064
 20
81.6807835297
 11
150.7948880707
 21
81.9858736624
  0
LINE
  5
215
100
AcDbEntity
  8
0
100
AcDbLine
 62
7
  6
CONTINUOUS
 10
150.8901332585
 20
82.6505193455
 11
148.9405627081
 21
82.309536836
  0
LINE
  5
216
100
AcDbEntity
  8
0
100
AcDbLine
 62
7
  6
CONTINUOUS
 10
148.6656381609
 20
83.8814203952
 11
150.6152087113
 21
84.2224029048
  0
LINE
  5
217
100
AcDbEntity
  8
0
100
AcDbLine
 62
7
  6
CONTINUOUS
 10
150.4209597197
 20
84.7284178049
 11
147.9583423098
 21
84.2977027101
  0
LINE
  5
218
100
AcDbEntity
  8
0
100
AcDbLine
 62
7
  6
CONTINUOUS
 10
159.6116572802
 20
86.8947544894
 11
160.0367576963
 21
86.9596910603
  0
LINE
  5
219
100
AcDbEntity
  8
0
100
AcDbLine
 62
7
  6
CONTINUOUS
 10
135.8531758409
 20
82.5367015865
 11
135.5265812092
 21
82.4886439956
  0
LINE
  5
21A
100
AcDbEntity
  8
0
100
AcDbLine
 62
7
  6
CONTINUOUS
 10
155.1514719924
 20
80.804575832
 11
155.6811584855
 21
80.8495043671
  0
LINE
  5
21B
100
AcDbEntity
  8
0
100
AcDbLine
 62
7
  6
CONTINUOUS
 10
155.5010215517
 20
81.4618562732
 11
155.0712659658
 21
81.4463246275
  0
LINE
  5
21C
100
AcDbEntity
  8
0
100
AcDbLine
 62
7
  6
CONTINUOUS
 10
135.3085916358
 20
81.8797470564
 11
135.8400771327
 21
81.8900928456
  0
LINE
  5
21D
100
AcDbEntity
  8
0
100
AcDbLine
 62
7
  6
CONTINUOUS
 10
118.4311809954
 20
86.0052778244
 11
119.041895598
 21
85.9930204026
  0
LINE
  5
21E
100
AcDbEntity
  8
0
100
AcDbLine
 62
7
  6
CONTINUOUS
 10
150.9523348788
 20
84.7133581725
 11
150.4209597197
 21
84.7284178049
  0
LINE
  5
21F
100
AcDbEntity
  8
0
100
AcDbLine
 62
7
  6
CONTINUOUS
 10
119.0083384014
 20
86.5199051752
 11
118.5427222121
 21
86.5655415596
  0
LINE
  5
220
100
AcDbEntity
  8
0
100
AcDbLine
 62
7
  6
CONTINUOUS
 10
119.9266059351
 20
87.9530916168
 11
120.1594130259
 21
87.9302740677
  0
LINE
  5
221
100
AcDbEntity
  8
0
100
AcDbLine
 62
7
  6
CONTINUOUS
 10
117.8854875705
 20
88.6291416704
 11
118.3511017523
 21
88.5835065722
  0
LINE
  5
222
100
AcDbEntity
  8
0
100
AcDbLine
 62
7
  6
CONTINUOUS
 10
118.1724461371
 20
89.0770123745
 11
117.9396370388
 21
89.0998312098
  0
LINE
  5
223
100
AcDbEntity
  8
0
100
AcDbLine
 62
7
  6
CONTINUOUS
 10
150.6152087113
 20
84.2224029048
 11
150.9413641873
 21
84.1714500739
  0
LINE
  5
224
100
AcDbEntity
  8
0
100
AcDbLine
 62
7
  6
CONTINUOUS
 10
132.4454914305
 20
80.1351544147
 11
133.0601663709
 21
80.0220185779
  0
LINE
  5
225
100
AcDbEntity
  8
0
100
AcDbLine
 62
7
  6
CONTINUOUS
 10
133.4645668144
 20
82.2191545666
 11
135.3085916358
 21
81.8797470564
  0
LINE
  5
226
100
AcDbEntity
  8
0
100
AcDbLine
 62
7
  6
CONTINUOUS
 10
135.5265812092
 20
82.4886439956
 11
133.5801097828
 21
82.8469076224
  0
LINE
  5
227
100
AcDbEntity
  8
0
100
AcDbLine
 62
7
  6
CONTINUOUS
 10
133.8689672578
 20
84.4162905552
 11
135.8154386842
 21
84.0580269283
  0
LINE
  5
228
100
AcDbEntity
  8
0
100
AcDbLine
 62
7
  6
CONTINUOUS
 10
135.8092778862
 20
84.6000105915
 11
133.3505781243
 21
85.0525539385
  0
LINE
  5
229
100
AcDbEntity
  8
0
100
AcDbLine
 62
7
  6
CONTINUOUS
 10
154.6916981543
 20
80.891104198
 11
155.1514719924
 21
80.804575832
  0
LINE
  5
22A
100
AcDbEntity
  8
0
100
AcDbLine
 62
7
  6
CONTINUOUS
 10
130.6783214982
 20
80.6134806963
 11
131.2829425092
 21
80.4551821395
  0
LINE
  5
22B
100
AcDbEntity
  8
0
100
AcDbLine
 62
7
  6
CONTINUOUS
 10
132.5493309641
 20
85.2921502271
 11
131.9447099532
 21
85.450448784
  0
LINE
  5
22C
100
AcDbEntity
  8
0
100
AcDbLine
 62
7
  6
CONTINUOUS
 10
118.5427222121
 20
86.5655415596
 11
118.1344997437
 21
86.7007507986
  0
LINE
  5
22D
100
AcDbEntity
  8
0
100
AcDbLine
 62
7
  6
CONTINUOUS
 10
118.3511017523
 20
88.5835065722
 11
118.7593262282
 21
88.448296047
  0
LINE
  5
22E
100
AcDbEntity
  8
0
100
AcDbLine
 62
7
  6
CONTINUOUS
 10
119.7479483125
 20
88.4465987053
 11
119.339725844
 21
88.5818079443
  0
LINE
  5
22F
100
AcDbEntity
  8
0
100
AcDbLine
 62
7
  6
CONTINUOUS
 10
119.4989361795
 20
90.3749896398
 11
119.9071606554
 21
90.2397791146
  0
LINE
  5
230
100
AcDbEntity
  8
0
100
AcDbLine
 62
7
  6
CONTINUOUS
 10
127.125893697
 20
81.7224788118
 11
127.9132106415
 21
81.4493870281
  0
LINE
  5
231
100
AcDbEntity
  8
0
100
AcDbLine
 62
7
  6
CONTINUOUS
 10
131.1263876026
 20
85.6270976807
 11
130.5359010204
 21
85.8319161278
  0
LINE
  5
232
100
AcDbEntity
  8
0
100
AcDbLine
 62
7
  6
CONTINUOUS
 10
127.780298472
 20
86.7877350268
 11
127.1898118898
 21
86.9925534739
  0
LINE
  5
233
100
AcDbEntity
  8
0
100
AcDbLine
 62
7
  6
CONTINUOUS
 10
117.935247822
 20
86.1966848299
 11
118.4311809954
 21
86.0052778244
  0
LINE
  5
234
100
AcDbEntity
  8
0
100
AcDbLine
 62
7
  6
CONTINUOUS
 10
120.194119222
 20
90.6876498188
 11
119.698188061
 21
90.8790555458
  0
LINE
  5
235
100
AcDbEntity
  8
0
100
AcDbLine
 62
7
  6
CONTINUOUS
 10
136.3022490603
 20
84.4011053622
 11
135.8092778862
 21
84.6000105915
  0
LINE
  5
236
100
AcDbEntity
  8
0
100
AcDbLine
 62
7
  6
CONTINUOUS
 10
117.4089996818
 20
86.5338611858
 11
117.935247822
 21
86.1966848299
  0
LINE
  5
237
100
AcDbEntity
  8
0
100
AcDbLine
 62
7
  6
CONTINUOUS
 10
118.1344997437
 20
86.7007507986
 11
117.7836669811
 21
86.9255354647
  0
LINE
  5
238
100
AcDbEntity
  8
0
100
AcDbLine
 62
7
  6
CONTINUOUS
 10
118.7593262282
 20
88.448296047
 11
119.1101589908
 21
88.223511381
  0
LINE
  5
239
100
AcDbEntity
  8
0
100
AcDbLine
 62
7
  6
CONTINUOUS
 10
119.339725844
 20
88.5818079443
 11
118.9888930815
 21
88.8065926103
  0
LINE
  5
23A
100
AcDbEntity
  8
0
100
AcDbLine
 62
7
  6
CONTINUOUS
 10
119.9071606554
 20
90.2397791146
 11
120.2579934179
 21
90.0149944486
  0
LINE
  5
23B
100
AcDbEntity
  8
0
100
AcDbLine
 62
7
  6
CONTINUOUS
 10
120.5449519845
 20
90.4628651527
 11
120.194119222
 21
90.6876498188
  0
LINE
  5
23C
100
AcDbEntity
  8
0
100
AcDbLine
 62
7
  6
CONTINUOUS
 10
117.0278519526
 20
86.9044152024
 11
117.4089996818
 21
86.5338611858
  0
LINE
  5
23D
100
AcDbEntity
  8
0
100
AcDbLine
 62
7
  6
CONTINUOUS
 10
107.771918877
 20
94.8169737202
 11
108.2047682929
 21
94.3661229876
  0
LINE
  5
23E
100
AcDbEntity
  8
0
100
AcDbLine
 62
7
  6
CONTINUOUS
 10
110.2247319587
 20
92.2621531885
 11
110.6575813746
 21
91.8113024559
  0
LINE
  5
23F
100
AcDbEntity
  8
0
100
AcDbLine
 62
7
  6
CONTINUOUS
 10
117.7836669811
 20
86.9255354647
 11
117.4902259319
 21
87.2398942715
  0
LINE
  5
240
100
AcDbEntity
  8
0
100
AcDbLine
 62
7
  6
CONTINUOUS
 10
104.3206885697
 20
99.2960554409
 11
104.814673595
 21
98.6249191645
  0
LINE
  5
241
100
AcDbEntity
  8
0
100
AcDbLine
 62
7
  6
CONTINUOUS
 10
105.8026429388
 20
97.2826475717
 11
106.2966279641
 21
96.6115112953
  0
LINE
  5
242
100
AcDbEntity
  8
BEZUGSACHSEN
100
AcDbLine
 62
7
  6
CONTINUOUS
 10
90.8615075454
 20
105.1834312921
 11
81.7904628617
 21
130.3792271779
  0
LINE
  5
243
100
AcDbEntity
  8
RUNDUNGEN
100
AcDbLine
 62
7
  6
CONTINUOUS
 10
90.8615075454
 20
105.1834312921
 11
81.7904628617
 21
130.3792271779
  0
LINE
  5
244
100
AcDbEntity
  8
0
100
AcDbLine
 62
7
  6
CONTINUOUS
 10
119.041895598
 20
85.9930204026
 11
119.4771948282
 21
86.0931546785
  0
LINE
  5
245
100
AcDbEntity
  8
0
100
AcDbLine
 62
7
  6
CONTINUOUS
 10
120.1594130259
 20
87.9302740677
 11
120.594712236
 21
88.0304083122
  0
LINE
  5
246
100
AcDbEntity
  8
0
100
AcDbLine
 62
7
  6
CONTINUOUS
 10
120.270956215
 20
88.4905364618
 11
119.7479483125
 21
88.4465987053
  0
LINE
  5
247
100
AcDbEntity
  8
0
100
AcDbLine
 62
7
  6
CONTINUOUS
 10
117.9396370388
 20
89.0998312098
 11
117.4166311437
 21
89.0558921672
  0
LINE
  5
248
100
AcDbEntity
  8
0
100
AcDbLine
 62
7
  6
CONTINUOUS
 10
118.9759302844
 20
90.3310505971
 11
119.4989361795
 21
90.3749896398
  0
LINE
  5
249
100
AcDbEntity
  8
0
100
AcDbLine
 62
7
  6
CONTINUOUS
 10
119.698188061
 20
90.8790555458
 11
119.087471466
 21
90.8913142774
  0
LINE
  5
24A
100
AcDbEntity
  8
0
100
AcDbLine
 62
7
  6
CONTINUOUS
 10
160.3498381849
 20
87.5549447809
 11
159.8831571358
 21
87.5879285164
  0
LINE
  5
24B
100
AcDbEntity
  8
0
100
AcDbLine
 62
7
  6
CONTINUOUS
 10
160.0367576963
 20
86.9596910603
 11
160.4075598969
 21
86.8859935714
  0
LINE
  5
24C
100
AcDbEntity
  8
0
100
AcDbLine
 62
7
  6
CONTINUOUS
 10
155.0712659658
 20
81.4463246275
 11
154.7114230191
 21
81.5622499365
  0
LINE
  5
24D
100
AcDbEntity
  8
0
100
AcDbLine
 62
7
  6
CONTINUOUS
 10
151.4177544472
 20
84.4707670946
 11
150.9523348788
 21
84.7133581725
  0
LINE
  5
24E
100
AcDbEntity
  8
0
100
AcDbLine
 62
7
  6
CONTINUOUS
 10
154.1718741015
 20
81.1817485053
 11
154.6916981543
 21
80.891104198
  0
LINE
  5
24F
100
AcDbEntity
  8
0
100
AcDbLine
 62
7
  6
CONTINUOUS
 10
135.8154386842
 20
84.0580269283
 11
136.103518993
 21
83.8968335007
  0
LINE
  5
250
100
AcDbEntity
  8
0
100
AcDbLine
 62
7
  6
CONTINUOUS
 10
120.9260997188
 20
90.092311144
 11
120.5449519845
 21
90.4628651527
  0
LINE
  5
251
100
AcDbEntity
  8
0
100
AcDbLine
 62
7
  6
CONTINUOUS
 10
109.8930604119
 20
95.98700592
 11
111.9130240777
 21
93.8830361209
  0
LINE
  5
252
100
AcDbEntity
  8
0
100
AcDbLine
 62
7
  6
CONTINUOUS
 10
112.3734673242
 20
94.3250950462
 11
110.3535036584
 21
96.4290648452
  0
LINE
  5
253
100
AcDbEntity
  8
0
100
AcDbLine
 62
7
  6
CONTINUOUS
 10
114.2643872358
 20
95.2740977833
 11
113.8315378199
 21
95.7249485159
  0
LINE
  5
254
100
AcDbEntity
  8
0
100
AcDbLine
 62
7
  6
CONTINUOUS
 10
111.8115741541
 20
97.828918315
 11
111.3787247382
 21
98.2797690476
  0
LINE
  5
255
100
AcDbEntity
  8
0
100
AcDbLine
 62
7
  6
CONTINUOUS
 10
119.1101589908
 20
88.223511381
 11
119.4035980325
 21
87.9091538603
  0
LINE
  5
256
100
AcDbEntity
  8
0
100
AcDbLine
 62
7
  6
CONTINUOUS
 10
118.9888930815
 20
88.8065926103
 11
118.6954520322
 21
89.1209514172
  0
LINE
  5
257
100
AcDbEntity
  8
0
100
AcDbLine
 62
7
  6
CONTINUOUS
 10
120.2579934179
 20
90.0149944486
 11
120.5514324597
 21
89.7006369279
  0
LINE
  5
258
100
AcDbEntity
  8
0
100
AcDbLine
 62
7
  6
CONTINUOUS
 10
110.8174283745
 20
98.904284237
 11
110.4469397822
 21
99.4076362044
  0
LINE
  5
259
100
AcDbEntity
  8
0
100
AcDbLine
 62
7
  6
CONTINUOUS
 10
109.582466518
 20
100.5821239681
 11
109.0884814928
 21
101.2532602445
  0
LINE
  5
25A
100
AcDbEntity
  8
0
100
AcDbLine
 62
7
  6
CONTINUOUS
 10
108.2240082286
 20
102.4277480082
 11
107.8535196363
 21
102.9310999755
  0
LINE
  5
25B
100
AcDbEntity
  8
0
100
AcDbLine
 62
7
  6
CONTINUOUS
 10
117.4902259319
 20
87.2398942715
 11
117.2541786034
 21
87.643825933
  0
LINE
  5
25C
100
AcDbEntity
  8
0
100
AcDbLine
 62
7
  6
CONTINUOUS
 10
101.8384329769
 20
103.4272090574
 11
102.2408663877
 21
102.6974887606
  0
LINE
  5
25D
100
AcDbEntity
  8
0
100
AcDbLine
 62
7
  6
CONTINUOUS
 10
107.424055251
 20
103.6526487755
 11
107.1222301749
 21
104.1999390308
  0
LINE
  5
25E
100
AcDbEntity
  8
0
100
AcDbLine
 62
7
  6
CONTINUOUS
 10
105.7137132012
 20
106.7539601348
 11
105.4118881252
 21
107.30125039
  0
LINE
  5
25F
100
AcDbEntity
  8
0
100
AcDbLine
 62
7
  6
CONTINUOUS
 10
119.087471466
 20
90.8913142774
 11
118.652172256
 21
90.7911800329
  0
LINE
  5
260
100
AcDbEntity
  8
0
100
AcDbLine
 62
7
  6
CONTINUOUS
 10
160.8996805001
 20
87.3261204324
 11
160.3498381849
 21
87.5549447809
  0
LINE
  5
261
100
AcDbEntity
  8
0
100
AcDbLine
 62
7
  6
CONTINUOUS
 10
150.9413641873
 20
84.1714500739
 11
151.1832404699
 21
83.9977588369
  0
LINE
  5
262
100
AcDbEntity
  8
0
100
AcDbLine
 62
7
  6
CONTINUOUS
 10
136.6542616513
 20
84.0118047992
 11
136.3022490603
 21
84.4011053622
  0
LINE
  5
263
100
AcDbEntity
  8
0
100
AcDbLine
 62
7
  6
CONTINUOUS
 10
118.0544204654
 20
89.2789794915
 11
118.1724461371
 21
89.0770123745
  0
LINE
  5
264
100
AcDbEntity
  8
0
100
AcDbLine
 62
7
  6
CONTINUOUS
 10
119.4035980325
 20
87.9091538603
 11
119.6396473685
 21
87.5052209126
  0
LINE
  5
265
100
AcDbEntity
  8
0
100
AcDbLine
 62
7
  6
CONTINUOUS
 10
120.0446295993
 20
87.751125786
 11
119.9266059351
 21
87.9530916168
  0
LINE
  5
266
100
AcDbEntity
  8
0
100
AcDbLine
 62
7
  6
CONTINUOUS
 10
116.76148766
 20
87.4541175163
 11
117.0278519526
 21
86.9044152024
  0
LINE
  5
267
100
AcDbEntity
  8
0
100
AcDbLine
 62
7
  6
CONTINUOUS
 10
121.1924640265
 20
89.5426088536
 11
120.9260997188
 21
90.092311144
  0
LINE
  5
268
100
AcDbEntity
  8
0
100
AcDbLine
 62
7
  6
CONTINUOUS
 10
118.6954520322
 20
89.1209514172
 11
118.5167964171
 21
89.6144572195
  0
LINE
  5
269
100
AcDbEntity
  8
0
100
AcDbLine
 62
7
  6
CONTINUOUS
 10
102.2408663877
 20
102.6974887606
 11
107.424055251
 21
103.6526487755
  0
LINE
  5
26A
100
AcDbEntity
  8
0
100
AcDbLine
 62
7
  6
CONTINUOUS
 10
107.1222301749
 20
104.1999390308
 11
102.5985843736
 21
103.3705958597
  0
LINE
  5
26B
100
AcDbEntity
  8
RUNDUNGEN
100
AcDbLine
 62
7
  6
CONTINUOUS
 10
190.6970586875
 20
109.3973094809
 11
180.0303325883
 21
108.4640918703
  0
LINE
  5
26C
100
AcDbEntity
  8
RUNDUNGEN
100
AcDbLine
 62
7
  6
CONTINUOUS
 10
181.8318829867
 20
114.1427162134
 11
189.0925209028
 21
114.777939721
  0
LINE
  5
26D
100
AcDbEntity
  8
0
100
AcDbLine
 62
7
  6
CONTINUOUS
 10
160.4075598969
 20
86.8859935714
 11
160.7240639985
 21
86.6736617482
  0
LINE
  5
26E
100
AcDbEntity
  8
0
100
AcDbLine
 62
7
  6
CONTINUOUS
 10
154.7114230191
 20
81.5622499365
 11
154.4214927536
 21
81.8096320571
  0
LINE
  5
26F
100
AcDbEntity
  8
0
100
AcDbLine
 62
7
  6
CONTINUOUS
 10
151.7988948223
 20
84.1054376106
 11
151.4177544472
 21
84.4707670946
  0
LINE
  5
270
100
AcDbEntity
  8
0
100
AcDbLine
 62
7
  6
CONTINUOUS
 10
153.8519209962
 20
81.5311893366
 11
154.1718741015
 21
81.1817485053
  0
LINE
  5
271
100
AcDbEntity
  8
BEZUGSACHSEN
100
AcDbLine
 62
7
  6
CONTINUOUS
 10
93.9322356438
 20
137.6171661347
 11
118.9028126449
 21
109.6890955853
  0
LINE
  5
272
100
AcDbEntity
  8
RUNDUNGEN
100
AcDbLine
 62
7
  6
CONTINUOUS
 10
93.9322356438
 20
137.6171661347
 11
118.9028126449
 21
109.6890955853
  0
LINE
  5
273
100
AcDbEntity
  8
0
100
AcDbLine
 62
7
  6
CONTINUOUS
 10
136.103518993
 20
83.8968335007
 11
136.2698955355
 21
83.6498706803
  0
LINE
  5
274
100
AcDbEntity
  8
0
100
AcDbLine
 62
7
  6
CONTINUOUS
 10
120.2232872219
 20
87.2576186975
 11
120.0446295993
 21
87.751125786
  0
LINE
  5
275
100
AcDbEntity
  8
0
100
AcDbLine
 62
7
  6
CONTINUOUS
 10
120.5514324597
 20
89.7006369279
 11
120.7300900823
 21
89.2071298394
  0
LINE
  5
276
100
AcDbEntity
  8
0
100
AcDbLine
 62
7
  6
CONTINUOUS
 10
116.67053875
 20
87.8914281481
 11
116.76148766
 21
87.4541175163
  0
LINE
  5
277
100
AcDbEntity
  8
0
100
AcDbLine
 62
7
  6
CONTINUOUS
 10
117.9634715353
 20
89.716290092
 11
118.0544204654
 21
89.2789794915
  0
LINE
  5
278
100
AcDbEntity
  8
0
100
AcDbLine
 62
7
  6
CONTINUOUS
 10
117.2541786034
 20
87.643825933
 11
117.2206214268
 21
88.1707107371
  0
LINE
  5
279
100
AcDbEntity
  8
0
100
AcDbLine
 62
7
  6
CONTINUOUS
 10
119.6396473685
 20
87.5052209126
 11
119.6732045049
 21
86.9783360458
  0
LINE
  5
27A
100
AcDbEntity
  8
0
100
AcDbLine
 62
7
  6
CONTINUOUS
 10
118.5167964171
 20
89.6144572195
 11
118.513554172
 21
89.9955726182
  0
LINE
  5
27B
100
AcDbEntity
  8
BEZUGSACHSEN
100
AcDbLine
 62
7
  6
CONTINUOUS
 10
121.7703748766
 20
233.7989237297
 11
121.7580446348
 21
233.5281202987
  0
LINE
  5
27C
100
AcDbEntity
  8
RUNDUNGEN
100
AcDbLine
 62
7
  6
CONTINUOUS
 10
198.9938212507
 20
117.5181346332
 11
198.7580446348
 21
117.5181346332
  0
LINE
  5
27D
100
AcDbEntity
  8
0
100
AcDbLine
 62
7
  6
CONTINUOUS
 10
161.2577651182
 20
87.015868577
 11
160.8996805001
 21
87.3261204324
  0
LINE
  5
27E
100
AcDbEntity
  8
0
100
AcDbLine
 62
7
  6
CONTINUOUS
 10
150.7948880707
 20
81.9858736624
 11
152.0006517548
 21
79.9288079474
  0
LINE
  5
27F
100
AcDbEntity
  8
0
100
AcDbLine
 62
7
  6
CONTINUOUS
 10
136.8845704759
 20
83.5367348436
 11
136.6542616513
 21
84.0118047992
  0
LINE
  5
280
100
AcDbEntity
  8
0
100
AcDbLine
 62
7
  6
CONTINUOUS
 10
121.2834129566
 20
89.1052982531
 11
121.1924640265
 21
89.5426088536
  0
LINE
  5
281
100
AcDbEntity
  8
0
100
AcDbLine
 62
7
  6
CONTINUOUS
 10
120.7300900823
 20
89.2071298394
 11
120.7333301591
 21
88.826015476
  0
LINE
  5
282
100
AcDbEntity
  8
BEZUGSACHSEN
100
AcDbLine
 62
7
  6
CONTINUOUS
 10
121.7580446348
 20
206.3336492363
 11
121.7580446348
 21
208.3374431198
  0
LINE
  5
283
100
AcDbEntity
  8
RUNDUNGEN
100
AcDbLine
 62
7
  6
CONTINUOUS
 10
121.7580446348
 20
206.3336492363
 11
121.7580446348
 21
225.0181346332
  0
LINE
  5
284
100
AcDbEntity
  8
BEZUGSACHSEN
100
AcDbLine
 62
7
  6
CONTINUOUS
 10
121.7580446348
 20
210.8219822105
 11
121.7580446348
 21
233.5281179091
  0
LINE
  5
285
100
AcDbEntity
  8
0
100
AcDbLine
 62
7
  6
CONTINUOUS
 10
118.0176230111
 20
90.1869783452
 11
117.9634715353
 21
89.716290092
  0
LINE
  5
286
100
AcDbEntity
  8
0
100
AcDbLine
 62
7
  6
CONTINUOUS
 10
160.7240639985
 20
86.6736617482
 11
160.986265379
 21
86.3226942757
  0
LINE
  5
287
100
AcDbEntity
  8
0
100
AcDbLine
 62
7
  6
CONTINUOUS
 10
161.5615472482
 20
86.5669805237
 11
161.2577651182
 21
87.015868577
  0
LINE
  5
288
100
AcDbEntity
  8
0
100
AcDbLine
 62
7
  6
CONTINUOUS
 10
152.7189182974
 20
80.0544337311
 11
151.3738858237
 21
82.3031368715
  0
LINE
  5
289
100
AcDbEntity
  8
0
100
AcDbLine
 62
7
  6
CONTINUOUS
 10
154.4214927536
 20
81.8096320571
 11
154.2014659994
 21
82.1884683695
  0
LINE
  5
28A
100
AcDbEntity
  8
0
100
AcDbLine
 62
7
  6
CONTINUOUS
 10
151.1832404699
 20
83.9977588369
 11
151.3408328621
 21
83.7013283722
  0
LINE
  5
28B
100
AcDbEntity
  8
0
100
AcDbLine
 62
7
  6
CONTINUOUS
 10
151.9564872146
 20
83.8090071459
 11
151.7988948223
 21
84.1054376106
  0
LINE
  5
28C
100
AcDbEntity
  8
0
100
AcDbLine
 62
7
  6
CONTINUOUS
 10
153.6018714232
 20
82.012084288
 11
153.8519209962
 21
81.5311893366
  0
LINE
  5
28D
100
AcDbEntity
  8
0
100
AcDbLine
 62
7
  6
CONTINUOUS
 10
127.7287284552
 20
82.1889830449
 11
127.780298472
 21
86.7877350268
  0
LINE
  5
28E
100
AcDbEntity
  8
0
100
AcDbLine
 62
7
  6
CONTINUOUS
 10
127.1898118898
 20
86.9925534739
 11
127.125893697
 21
81.7224788118
  0
LINE
  5
28F
100
AcDbEntity
  8
0
100
AcDbLine
 62
7
  6
CONTINUOUS
 10
116.7820799718
 20
88.4516918912
 11
116.67053875
 21
87.8914281481
  0
LINE
  5
290
100
AcDbEntity
  8
0
100
AcDbLine
 62
7
  6
CONTINUOUS
 10
120.1117439525
 20
86.6973561779
 11
120.2232872219
 21
87.2576186975
  0
LINE
  5
291
100
AcDbEntity
  8
0
100
AcDbLine
 62
7
  6
CONTINUOUS
 10
121.1718716142
 20
88.5450343219
 11
121.2834129566
 21
89.1052982531
  0
LINE
  5
292
100
AcDbEntity
  8
RUNDUNGEN
100
AcDbLine
 62
7
  6
CONTINUOUS
 10
173.8575526879
 20
99.9186265802
 11
180.9156126915
 21
92.8605665766
  0
LINE
  5
293
100
AcDbEntity
  8
0
100
AcDbLine
 62
7
  6
CONTINUOUS
 10
157.0610460054
 20
86.5051313361
 11
159.0153359897
 21
81.9028763826
  0
LINE
  5
294
100
AcDbEntity
  8
0
100
AcDbLine
 62
7
  6
CONTINUOUS
 10
159.3411340317
 20
82.7346845382
 11
157.8858116726
 21
86.1618957453
  0
LINE
  5
295
100
AcDbEntity
  8
0
100
AcDbLine
 62
7
  6
CONTINUOUS
 10
136.2698955355
 20
83.6498706803
 11
136.3145683115
 21
83.3171384673
  0
LINE
  5
296
100
AcDbEntity
  8
0
100
AcDbLine
 62
7
  6
CONTINUOUS
 10
136.9292432519
 20
83.2040026306
 11
136.8845704759
 21
83.5367348436
  0
LINE
  5
297
100
AcDbEntity
  8
BEZUGSACHSEN
100
AcDbLine
 62
7
  6
CONTINUOUS
 10
138.2080446348
 20
233.5180348922
 11
138.2080446348
 21
225.0181346332
  0
LINE
  5
298
100
AcDbEntity
  8
RUNDUNGEN
100
AcDbLine
 62
7
  6
CONTINUOUS
 10
138.2080446348
 20
225.0181346332
 11
138.2080446348
 21
209.0679620786
  0
LINE
  5
299
100
AcDbEntity
  8
RUNDUNGEN
100
AcDbLine
 62
7
  6
CONTINUOUS
 10
139.7580446348
 20
87.2761776322
 11
139.7580446348
 21
77.3173844318
  0
LINE
  5
29A
100
AcDbEntity
  8
0
100
AcDbLine
 62
7
  6
CONTINUOUS
 10
102.5985843736
 20
103.3705958597
 11
105.7137132012
 21
106.7539601348
  0
LINE
  5
29B
100
AcDbEntity
  8
0
100
AcDbLine
 62
7
  6
CONTINUOUS
 10
105.4118881252
 20
107.30125039
 11
101.8384329769
 21
103.4272090574
  0
LINE
  5
29C
100
AcDbEntity
  8
RUNDUNGEN
100
AcDbLine
 62
7
  6
CONTINUOUS
 10
198.7580446348
 20
144.5181346332
 11
198.9938212507
 21
144.5181346332
  0
LINE
  5
29D
100
AcDbEntity
  8
0
100
AcDbLine
 62
7
  6
CONTINUOUS
 10
160.986265379
 20
86.3226942757
 11
161.6099749324
 21
84.8538895412
  0
LINE
  5
29E
100
AcDbEntity
  8
0
100
AcDbLine
 62
7
  6
CONTINUOUS
 10
162.1852568016
 20
85.0981757892
 11
161.5615472482
 21
86.5669805237
  0
LINE
  5
29F
100
AcDbEntity
  8
0
100
AcDbLine
 62
7
  6
CONTINUOUS
 10
152.6711639144
 20
85.175902529
 11
153.6018714232
 21
82.012084288
  0
LINE
  5
2A0
100
AcDbEntity
  8
0
100
AcDbLine
 62
7
  6
CONTINUOUS
 10
154.2014659994
 20
82.1884683695
 11
153.2707584906
 21
85.3522866105
  0
LINE
  5
2A1
100
AcDbEntity
  8
0
100
AcDbLine
 62
7
  6
CONTINUOUS
 10
155.6691367954
 20
86.0578229363
 11
156.5998443042
 21
82.8940046953
  0
LINE
  5
2A2
100
AcDbEntity
  8
0
100
AcDbLine
 62
7
  6
CONTINUOUS
 10
157.1994388804
 20
83.0703887767
 11
156.2687313716
 21
86.2342070177
  0
LINE
  5
2A3
100
AcDbEntity
  8
0
100
AcDbLine
 62
7
  6
CONTINUOUS
 10
147.9583423098
 20
84.2977027101
 11
148.8197724995
 21
79.3724678905
  0
LINE
  5
2A4
100
AcDbEntity
  8
0
100
AcDbLine
 62
7
  6
CONTINUOUS
 10
149.4354268519
 20
79.4801466642
 11
149.0505325064
 21
81.6807835297
  0
LINE
  5
2A5
100
AcDbEntity
  8
0
100
AcDbLine
 62
7
  6
CONTINUOUS
 10
148.9405627081
 20
82.309536836
 11
148.6656381609
 21
83.8814203952
  0
LINE
  5
2A6
100
AcDbEntity
  8
0
100
AcDbLine
 62
7
  6
CONTINUOUS
 10
151.3408328621
 20
83.7013283722
 11
151.3958178126
 21
83.3869514255
  0
LINE
  5
2A7
100
AcDbEntity
  8
0
100
AcDbLine
 62
7
  6
CONTINUOUS
 10
152.0298004648
 20
83.3898379815
 11
151.9564872146
 21
83.8090071459
  0
LINE
  5
2A8
100
AcDbEntity
  8
RUNDUNGEN
100
AcDbLine
 62
7
  6
CONTINUOUS
 10
145.7580446348
 20
77.2501143982
 11
145.7580446348
 21
87.2761776322
  0
LINE
  5
2A9
100
AcDbEntity
  8
RUNDUNGEN
100
AcDbLine
 62
7
  6
CONTINUOUS
 10
147.3080446348
 20
209.0679354681
 11
147.3080446348
 21
225.0181346332
  0
LINE
  5
2AA
100
AcDbEntity
  8
BEZUGSACHSEN
100
AcDbLine
 62
7
  6
CONTINUOUS
 10
147.3080446348
 20
225.0181346332
 11
147.3080446348
 21
233.5180350015
  0
LINE
  5
2AB
100
AcDbEntity
  8
0
100
AcDbLine
 62
7
  6
CONTINUOUS
 10
133.3505781243
 20
85.0525539385
 11
132.4454914305
 21
80.1351544147
  0
LINE
  5
2AC
100
AcDbEntity
  8
0
100
AcDbLine
 62
7
  6
CONTINUOUS
 10
133.0601663709
 20
80.0220185779
 11
133.4645668144
 21
82.2191545666
  0
LINE
  5
2AD
100
AcDbEntity
  8
0
100
AcDbLine
 62
7
  6
CONTINUOUS
 10
133.5801097828
 20
82.8469076224
 11
133.8689672578
 21
84.4162905552
  0
LINE
  5
2AE
100
AcDbEntity
  8
0
100
AcDbLine
 62
7
  6
CONTINUOUS
 10
136.3145683115
 20
83.3171384673
 11
136.2567967733
 21
83.0032616463
  0
LINE
  5
2AF
100
AcDbEntity
  8
0
100
AcDbLine
 62
7
  6
CONTINUOUS
 10
136.8522145524
 20
82.7855003003
 11
136.9292432519
 21
83.2040026306
  0
LINE
  5
2B0
100
AcDbEntity
  8
0
100
AcDbLine
 62
7
  6
CONTINUOUS
 10
131.9447099532
 20
85.450448784
 11
130.6783214982
 21
80.6134806963
  0
LINE
  5
2B1
100
AcDbEntity
  8
0
100
AcDbLine
 62
7
  6
CONTINUOUS
 10
131.2829425092
 20
80.4551821395
 11
132.5493309641
 21
85.2921502271
  0
LINE
  5
2B2
100
AcDbEntity
  8
0
100
AcDbLine
 62
7
  6
CONTINUOUS
 10
116.9542551117
 20
88.7204143137
 11
116.7820799718
 21
88.4516918912
  0
LINE
  5
2B3
100
AcDbEntity
  8
0
100
AcDbLine
 62
7
  6
CONTINUOUS
 10
118.189798151
 20
90.4557007677
 11
118.0176230111
 21
90.1869783452
  0
LINE
  5
2B4
100
AcDbEntity
  8
0
100
AcDbLine
 62
7
  6
CONTINUOUS
 10
117.2206214268
 20
88.1707107371
 11
117.3927965668
 21
88.4394331596
  0
LINE
  5
2B5
100
AcDbEntity
  8
0
100
AcDbLine
 62
7
  6
CONTINUOUS
 10
106.9920816958
 20
97.6407602076
 11
109.582466518
 21
100.5821239681
  0
LINE
  5
2B6
100
AcDbEntity
  8
0
100
AcDbLine
 62
7
  6
CONTINUOUS
 10
108.5643817218
 20
100.3501351815
 11
105.8026429388
 21
97.2826475717
  0
LINE
  5
2B7
100
AcDbEntity
  8
0
100
AcDbLine
 62
7
  6
CONTINUOUS
 10
107.8535196363
 20
102.9310999755
 11
104.3206885697
 21
99.2960554409
  0
LINE
  5
2B8
100
AcDbEntity
  8
0
100
AcDbLine
 62
7
  6
CONTINUOUS
 10
105.5101273267
 20
99.6541680769
 11
108.2240082286
 21
102.4277480082
  0
LINE
  5
2B9
100
AcDbEntity
  8
RUNDUNGEN
100
AcDbLine
 62
7
  6
CONTINUOUS
 10
180.3954043931
 20
172.0730160444
 11
171.8804583126
 21
164.4597755814
  0
LINE
  5
2BA
100
AcDbEntity
  8
RUNDUNGEN
100
AcDbLine
 62
7
  6
CONTINUOUS
 10
190.1357322753
 20
118.3570357978
 11
184.8258810402
 21
122.4314279527
  0
LINE
  5
2BB
100
AcDbEntity
  8
RUNDUNGEN
100
AcDbLine
 62
7
  6
CONTINUOUS
 10
178.5663399852
 20
105.3245496014
 11
183.0622689706
 21
98.9036975824
  0
LINE
  5
2BC
100
AcDbEntity
  8
0
100
AcDbLine
 62
7
  6
CONTINUOUS
 10
162.2972811181
 20
84.5678605034
 11
162.1852568016
 21
85.0981757892
  0
LINE
  5
2BD
100
AcDbEntity
  8
0
100
AcDbLine
 62
7
  6
CONTINUOUS
 10
157.2496220699
 20
82.5306986829
 11
157.1994388804
 21
83.0703887767
  0
LINE
  5
2BE
100
AcDbEntity
  8
0
100
AcDbLine
 62
7
  6
CONTINUOUS
 10
156.5998443042
 20
82.8940046953
 11
156.6200046749
 21
82.4563732405
  0
LINE
  5
2BF
100
AcDbEntity
  8
0
100
AcDbLine
 62
7
  6
CONTINUOUS
 10
118.513554172
 20
89.9955726182
 11
118.6283375986
 21
90.1747208998
  0
LINE
  5
2C0
100
AcDbEntity
  8
0
100
AcDbLine
 62
7
  6
CONTINUOUS
 10
120.7333301591
 20
88.826015476
 11
120.6185467325
 21
88.6468671944
  0
LINE
  5
2C1
100
AcDbEntity
  8
0
100
AcDbLine
 62
7
  6
CONTINUOUS
 10
119.6732045049
 20
86.9783360458
 11
119.5010293649
 21
86.7096136233
  0
LINE
  5
2C2
100
AcDbEntity
  8
0
100
AcDbLine
 62
7
  6
CONTINUOUS
 10
120.9996964743
 20
88.2763118994
 11
121.1718716142
 21
88.5450343219
  0
LINE
  5
2C3
100
AcDbEntity
  8
0
100
AcDbLine
 62
7
  6
CONTINUOUS
 10
119.9395688125
 20
86.4286337555
 11
120.1117439525
 21
86.6973561779
  0
LINE
  5
2C4
100
AcDbEntity
  8
0
100
AcDbLine
 62
7
  6
CONTINUOUS
 10
111.3787247382
 20
98.2797690476
 11
107.771918877
 21
94.8169737202
  0
LINE
  5
2C5
100
AcDbEntity
  8
0
100
AcDbLine
 62
7
  6
CONTINUOUS
 10
108.2047682929
 20
94.3661229876
 11
109.8930604119
 21
95.98700592
  0
LINE
  5
2C6
100
AcDbEntity
  8
0
100
AcDbLine
 62
7
  6
CONTINUOUS
 10
110.3535036584
 20
96.4290648452
 11
111.8115741541
 21
97.828918315
  0
LINE
  5
2C7
100
AcDbEntity
  8
0
100
AcDbLine
 62
7
  6
CONTINUOUS
 10
113.8315378199
 20
95.7249485159
 11
112.3734673242
 21
94.3250950462
  0
LINE
  5
2C8
100
AcDbEntity
  8
0
100
AcDbLine
 62
7
  6
CONTINUOUS
 10
111.9130240777
 20
93.8830361209
 11
110.2247319587
 21
92.2621531885
  0
LINE
  5
2C9
100
AcDbEntity
  8
0
100
AcDbLine
 62
7
  6
CONTINUOUS
 10
110.6575813746
 20
91.8113024559
 11
114.2643872358
 21
95.2740977833
  0
LINE
  5
2CA
100
AcDbEntity
  8
RUNDUNGEN
100
AcDbLine
 62
7
  6
CONTINUOUS
 10
181.3378768837
 20
158.8953062943
 11
187.6124301873
 21
164.7056063605
  0
LINE
  5
2CB
100
AcDbEntity
  8
RUNDUNGEN
100
AcDbLine
 62
7
  6
CONTINUOUS
 10
97.231401919
 20
114.4477918186
 11
101.4290982789
 21
115.9756283461
  0
LINE
  5
2CC
100
AcDbEntity
  8
RUNDUNGEN
100
AcDbLine
 62
7
  6
CONTINUOUS
 10
181.6499972104
 20
150.4685102867
 11
189.7772245296
 21
148.7113415431
  0
LINE
  5
2CD
100
AcDbEntity
  8
RUNDUNGEN
100
AcDbLine
 62
7
  6
CONTINUOUS
 10
189.3147120731
 20
125.9870267566
 11
184.8258810402
 21
129.4314279527
  0
LINE
  5
2CE
100
AcDbEntity
  8
0
100
AcDbLine
 62
7
  6
CONTINUOUS
 10
161.6099749324
 20
84.8538895412
 11
161.6804186159
 21
84.4214945618
  0
LINE
  5
2CF
100
AcDbEntity
  8
BEZUGSACHSEN
100
AcDbLine
 62
7
  6
CONTINUOUS
 10
163.7580446348
 20
233.5180348922
 11
163.7580446348
 21
225.0181346332
  0
LINE
  5
2D0
100
AcDbEntity
  8
RUNDUNGEN
100
AcDbLine
 62
7
  6
CONTINUOUS
 10
163.7580446348
 20
225.0181346332
 11
163.7580446348
 21
191.6514426162
  0
LINE
  5
2D1
100
AcDbEntity
  8
0
100
AcDbLine
 62
7
  6
CONTINUOUS
 10
162.2718415931
 20
84.0947498382
 11
162.2972811181
 21
84.5678605034
  0
LINE
  5
2D2
100
AcDbEntity
  8
0
100
AcDbLine
 62
7
  6
CONTINUOUS
 10
151.3958178126
 20
83.3869514255
 11
151.3481952187
 21
83.0546285839
  0
LINE
  5
2D3
100
AcDbEntity
  8
0
100
AcDbLine
 62
7
  6
CONTINUOUS
 10
151.9821778709
 20
83.0575151399
 11
152.0298004648
 21
83.3898379815
  0
LINE
  5
2D4
100
AcDbEntity
  8
0
100
AcDbLine
 62
7
  6
CONTINUOUS
 10
157.1698469825
 20
82.0636689126
 11
157.2496220699
 21
82.5306986829
  0
LINE
  5
2D5
100
AcDbEntity
  8
0
100
AcDbLine
 62
7
  6
CONTINUOUS
 10
136.2567967733
 20
83.0032616463
 11
136.0965810289
 21
82.7082408034
  0
LINE
  5
2D6
100
AcDbEntity
  8
0
100
AcDbLine
 62
7
  6
CONTINUOUS
 10
136.691998808
 20
82.4904794574
 11
136.8522145524
 21
82.7855003003
  0
LINE
  5
2D7
100
AcDbEntity
  8
0
100
AcDbLine
 62
7
  6
CONTINUOUS
 10
110.4469397822
 20
99.4076362044
 11
106.9920816958
 21
97.6407602076
  0
LINE
  5
2D8
100
AcDbEntity
  8
0
100
AcDbLine
 62
7
  6
CONTINUOUS
 10
104.814673595
 20
98.6249191645
 11
108.5643817218
 21
100.3501351815
  0
LINE
  5
2D9
100
AcDbEntity
  8
0
100
AcDbLine
 62
7
  6
CONTINUOUS
 10
109.0884814928
 20
101.2532602445
 11
105.5101273267
 21
99.6541680769
  0
LINE
  5
2DA
100
AcDbEntity
  8
RUNDUNGEN
100
AcDbLine
 62
7
  6
CONTINUOUS
 10
192.8135083927
 20
153.194316165
 11
182.2741098993
 21
155.4730147767
  0
LINE
  5
2DB
100
AcDbEntity
  8
BEZUGSACHSEN
100
AcDbLine
 62
7
  6
CONTINUOUS
 10
136.6887499801
 20
185.8159353861
 11
124.3032861874
 21
199.6683228009
  0
LINE
  5
2DC
100
AcDbEntity
  8
RUNDUNGEN
100
AcDbLine
 62
7
  6
CONTINUOUS
 10
166.613276624
 20
152.347173682
 11
124.3032861874
 21
199.6683228009
  0
LINE
  5
2DD
100
AcDbEntity
  8
0
100
AcDbLine
 62
7
  6
CONTINUOUS
 10
161.6804186159
 20
84.4214945618
 11
161.6133984288
 21
84.0463042718
  0
LINE
  5
2DE
100
AcDbEntity
  8
0
100
AcDbLine
 62
7
  6
CONTINUOUS
 10
156.6200046749
 20
82.4563732405
 11
156.5102067477
 21
82.0914021808
  0
LINE
  5
2DF
100
AcDbEntity
  8
0
100
AcDbLine
 62
7
  6
CONTINUOUS
 10
127.9132106415
 20
81.4493870281
 11
131.1263876026
 21
85.6270976807
  0
LINE
  5
2E0
100
AcDbEntity
  8
0
100
AcDbLine
 62
7
  6
CONTINUOUS
 10
130.5359010204
 20
85.8319161278
 11
127.7287284552
 21
82.1889830449
  0
LINE
  5
2E1
100
AcDbEntity
  8
RUNDUNGEN
100
AcDbLine
 62
7
  6
CONTINUOUS
 10
190.5720977947
 20
145.1698030739
 11
184.7190822599
 21
140.678626293
  0
LINE
  5
2E2
100
AcDbEntity
  8
0
100
AcDbLine
 62
7
  6
CONTINUOUS
 10
118.652172256
 20
90.7911800329
 11
118.189798151
 21
90.4557007677
  0
LINE
  5
2E3
100
AcDbEntity
  8
0
100
AcDbLine
 62
7
  6
CONTINUOUS
 10
117.4166311437
 20
89.0558921672
 11
116.9542551117
 21
88.7204143137
  0
LINE
  5
2E4
100
AcDbEntity
  8
0
100
AcDbLine
 62
7
  6
CONTINUOUS
 10
119.4771948282
 20
86.0931546785
 11
119.9395688125
 21
86.4286337555
  0
LINE
  5
2E5
100
AcDbEntity
  8
0
100
AcDbLine
 62
7
  6
CONTINUOUS
 10
106.2966279641
 20
96.6115112953
 11
110.8174283745
 21
98.904284237
  0
LINE
  5
2E6
100
AcDbEntity
  8
0
100
AcDbLine
 62
7
  6
CONTINUOUS
 10
162.0546443566
 20
83.5402117006
 11
162.2718415931
 21
84.0947498382
  0
LINE
  5
2E7
100
AcDbEntity
  8
0
100
AcDbLine
 62
7
  6
CONTINUOUS
 10
151.7476638936
 20
82.5845068822
 11
151.9821778709
 21
83.0575151399
  0
LINE
  5
2E8
100
AcDbEntity
  8
0
100
AcDbLine
 62
7
  6
CONTINUOUS
 10
136.3076326921
 20
82.1285453385
 11
136.691998808
 21
82.4904794574
  0
LINE
  5
2E9
100
AcDbEntity
  8
RUNDUNGEN
100
AcDbLine
 62
7
  6
CONTINUOUS
 10
184.8258810402
 20
132.6048413138
 11
189.3147120731
 21
136.0492425098
  0
LINE
  5
2EA
100
AcDbEntity
  8
0
100
AcDbLine
 62
7
  6
CONTINUOUS
 10
120.594712236
 20
88.0304083122
 11
120.9996964743
 21
88.2763118994
  0
LINE
  5
2EB
100
AcDbEntity
  8
0
100
AcDbLine
 62
7
  6
CONTINUOUS
 10
118.6283375986
 20
90.1747208998
 11
118.9759302844
 21
90.3310505971
  0
LINE
  5
2EC
100
AcDbEntity
  8
0
100
AcDbLine
 62
7
  6
CONTINUOUS
 10
120.6185467325
 20
88.6468671944
 11
120.270956215
 21
88.4905364618
  0
LINE
  5
2ED
100
AcDbEntity
  8
RUNDUNGEN
100
AcDbLine
 62
7
  6
CONTINUOUS
 10
158.8637830263
 20
181.0181346332
 11
168.8903617503
 21
181.0181346332
  0
LINE
  5
2EE
100
AcDbEntity
  8
RUNDUNGEN
100
AcDbLine
 62
7
  6
CONTINUOUS
 10
169.0564413728
 20
164.6176626402
 11
157.3728310269
 21
177.6850696927
  0
LINE
  5
2EF
100
AcDbEntity
  8
RUNDUNGEN
100
AcDbLine
 62
7
  6
CONTINUOUS
 10
181.6221741603
 20
141.5812926869
 11
179.347962376
 21
147.8296382115
  0
LINE
  5
2F0
100
AcDbEntity
  8
RUNDUNGEN
100
AcDbLine
 62
7
  6
CONTINUOUS
 10
181.7605991171
 20
121.6100881368
 11
179.8098124362
 21
116.9004724743
  0
LINE
  5
2F1
100
AcDbEntity
  8
0
100
AcDbLine
 62
7
  6
CONTINUOUS
 10
156.8902100756
 20
81.5378453814
 11
157.1698469825
 21
82.0636689126
  0
LINE
  5
2F2
100
AcDbEntity
  8
0
100
AcDbLine
 62
7
  6
CONTINUOUS
 10
161.6133984288
 20
84.0463042718
 11
161.4089187894
 21
83.7283204662
  0
LINE
  5
2F3
100
AcDbEntity
  8
0
100
AcDbLine
 62
7
  6
CONTINUOUS
 10
151.3481952187
 20
83.0546285839
 11
151.179632135
 21
82.8091509501
  0
LINE
  5
2F4
100
AcDbEntity
  8
0
100
AcDbLine
 62
7
  6
CONTINUOUS
 10
136.0965810289
 20
82.7082408034
 11
135.8531758409
 21
82.5367015865
  0
LINE
  5
2F5
100
AcDbEntity
  8
0
100
AcDbLine
 62
7
  6
CONTINUOUS
 10
117.3927965668
 20
88.4394331596
 11
117.8854875705
 21
88.6291416704
  0
LINE
  5
2F6
100
AcDbEntity
  8
0
100
AcDbLine
 62
7
  6
CONTINUOUS
 10
119.5010293649
 20
86.7096136233
 11
119.0083384014
 21
86.5199051752
  0
LINE
  5
2F7
100
AcDbEntity
  8
RUNDUNGEN
100
AcDbLine
 62
7
  6
CONTINUOUS
 10
169.83546328
 20
180.7807415374
 11
180.0074409823
 21
175.3265749479
  0
LINE
  5
2F8
100
AcDbEntity
  8
RUNDUNGEN
100
AcDbLine
 62
7
  6
CONTINUOUS
 10
192.5322349311
 20
134.4625358293
 11
192.5322349311
 21
127.5737334372
  0
LINE
  5
2F9
100
AcDbEntity
  8
RUNDUNGEN
100
AcDbLine
 62
7
  6
CONTINUOUS
 10
197.7580446348
 20
118.5181346332
 11
197.7580446348
 21
143.5181346332
  0
LINE
  5
2FA
100
AcDbEntity
  8
0
100
AcDbLine
 62
7
  6
CONTINUOUS
 10
156.5102067477
 20
82.0914021808
 11
156.2704551182
 21
81.7990927904
  0
LINE
  5
2FB
100
AcDbEntity
  8
0
100
AcDbLine
 62
7
  6
CONTINUOUS
 10
161.7542858505
 20
83.1815141844
 11
162.0546443566
 21
83.5402117006
  0
LINE
  5
2FC
100
AcDbEntity
  8
0
100
AcDbLine
 62
7
  6
CONTINUOUS
 10
156.5505275284
 20
81.2161391373
 11
156.8902100756
 21
81.5378453814
  0
LINE
  5
2FD
100
AcDbEntity
  8
0
100
AcDbLine
 62
7
  6
CONTINUOUS
 10
151.3738858237
 20
82.3031368715
 11
151.7476638936
 21
82.5845068822
  0
LINE
  5
2FE
100
AcDbEntity
  8
0
100
AcDbLine
 62
7
  6
CONTINUOUS
 10
151.179632135
 20
82.8091509501
 11
150.8901332585
 21
82.6505193455
  0
LINE
  5
2FF
100
AcDbEntity
  8
0
100
AcDbLine
 62
7
  6
CONTINUOUS
 10
135.8400771327
 20
81.8900928456
 11
136.3076326921
 21
82.1285453385
  0
LINE
  5
300
100
AcDbEntity
  8
RUNDUNGEN
100
AcDbLine
 62
7
  6
CONTINUOUS
 10
190.7404747463
 20
164.1709199121
 11
195.005319936
 21
156.0819212343
  0
LINE
  5
301
100
AcDbEntity
  8
RUNDUNGEN
100
AcDbLine
 62
7
  6
CONTINUOUS
 10
186.2326619454
 20
98.7652752357
 11
192.4034590593
 21
106.1193448653
  0
LINE
  5
302
100
AcDbEntity
  8
0
100
AcDbLine
 62
7
  6
CONTINUOUS
 10
161.4089187894
 20
83.7283204662
 11
161.0669796393
 21
83.4675432823
  0
LINE
  5
303
100
AcDbEntity
  8
0
100
AcDbLine
 62
7
  6
CONTINUOUS
 10
161.3164634664
 20
82.8800213748
 11
161.7542858505
 21
83.1815141844
  0
LINE
  5
304
100
AcDbEntity
  8
0
100
AcDbLine
 62
7
  6
CONTINUOUS
 10
156.2704551182
 20
81.7990927904
 11
155.9007497443
 21
81.5794452122
  0
LINE
  5
305
100
AcDbEntity
  8
0
100
AcDbLine
 62
7
  6
CONTINUOUS
 10
156.0808866781
 20
80.9670933062
 11
156.5505275284
 21
81.2161391373
  0
LINE
  5
306
100
AcDbEntity
  8
0
100
AcDbLine
 62
7
  6
CONTINUOUS
 10
159.3621734821
 20
87.4822763283
 11
157.0610460054
 21
86.5051313361
  0
LINE
  5
307
100
AcDbEntity
  8
0
100
AcDbLine
 62
7
  6
CONTINUOUS
 10
157.8858116726
 20
86.1618957453
 11
159.6116572802
 21
86.8947544894
  0
LINE
  5
308
100
AcDbEntity
  8
0
100
AcDbLine
 62
7
  6
CONTINUOUS
 10
161.0669796393
 20
83.4675432823
 11
159.3411340317
 21
82.7346845382
  0
LINE
  5
309
100
AcDbEntity
  8
0
100
AcDbLine
 62
7
  6
CONTINUOUS
 10
159.0153359897
 20
81.9028763826
 11
161.3164634664
 21
82.8800213748
  0
LINE
  5
30A
100
AcDbEntity
  8
0
100
AcDbLine
 62
7
  6
CONTINUOUS
 10
156.2687313716
 20
86.2342070177
 11
155.6691367954
 21
86.0578229363
  0
LINE
  5
30B
100
AcDbEntity
  8
0
100
AcDbLine
 62
7
  6
CONTINUOUS
 10
153.2707584906
 20
85.3522866105
 11
152.6711639144
 21
85.175902529
  0
LINE
  5
30C
100
AcDbEntity
  8
0
100
AcDbLine
 62
7
  6
CONTINUOUS
 10
155.9007497443
 20
81.5794452122
 11
155.5010215517
 21
81.4618562732
  0
LINE
  5
30D
100
AcDbEntity
  8
0
100
AcDbLine
 62
7
  6
CONTINUOUS
 10
155.6811584855
 20
80.8495043671
 11
156.0808866781
 21
80.9670933062
  0
LINE
  5
30E
100
AcDbEntity
  8
BEZUGSACHSEN
100
AcDbLine
 62
7
  6
CONTINUOUS
 10
147.3080446348
 20
217.1181346332
 11
138.2080446348
 21
217.1181346332
  0
LINE
  5
30F
100
AcDbEntity
  8
BEZUGSACHSEN
100
AcDbLine
 62
7
  6
CONTINUOUS
 10
138.2080446348
 20
226.7181346332
 11
147.3080446348
 21
226.7181346332
  0
LWPOLYLINE
  5
310
100
AcDbEntity
  8
RUNDUNGEN
100
AcDbPolyline
 62
7
  6
CONTINUOUS
 90
19
 70
0
 10
124.7580536321
 20
236.518134629
 10
124.6650163978
 20
236.5167006414
 10
124.393394249
 20
236.496015022
 10
124.1248423855
 20
236.4509013881
 10
123.8616009797
 20
236.381737647
 10
123.6058580724
 20
236.2891156573
 10
123.3597031093
 20
236.1738185201
 10
123.1251685508
 20
236.0368331583
 10
122.9041390272
 20
235.8793001512
 10
122.6984051589
 20
235.7025350398
 10
122.5096231204
 20
235.508001302
 10
122.3393155102
 20
235.2973092089
 10
122.1888494022
 20
235.0721922957
 10
122.0594350378
 20
234.8345050073
 10
121.9521053924
 20
234.586188351
 10
121.8677203734
 20
234.3292731434
 10
121.8069549084
 20
234.0658522869
 10
121.7702965736
 20
233.7980641968
 10
121.7580446348
 20
233.5281202987
  0
LWPOLYLINE
  5
311
100
AcDbEntity
  8
BEZUGSACHSEN
100
AcDbPolyline
 62
7
  6
CONTINUOUS
 90
18
 70
0
 10
124.7580539975
 20
236.5181346287
 10
124.6797608949
 20
236.5171192773
 10
124.4071703832
 20
236.497660874
 10
124.1375552162
 20
236.453604627
 10
123.8731795637
 20
236.385321686
 10
123.6162557227
 20
236.2934004545
 10
123.3688961006
 20
236.1786233372
 10
123.1331564749
 20
236.0419795763
 10
122.9109430184
 20
235.8846143627
 10
122.704067364
 20
235.7078503882
 10
122.5142054898
 20
235.5131606023
 10
122.3428984919
 20
235.3021669927
 10
122.191530123
 20
235.0766165714
 10
122.061325636
 20
234.8383791613
 10
121.9533308916
 20
234.5894124203
 10
121.8684166921
 20
234.3317651891
 10
121.8072666892
 20
234.0675495342
 10
121.7703748766
 20
233.7989237297
  0
LINE
  5
312
100
AcDbEntity
  8
RUNDUNGEN
100
AcDbLine
 62
7
  6
CONTINUOUS
 10
124.7580445983
 20
236.5181346332
 11
135.2080446348
 21
236.5181346332
  0
LINE
  5
313
100
AcDbEntity
  8
RUNDUNGEN
100
AcDbLine
 62
7
  6
CONTINUOUS
 10
150.3080446348
 20
236.5181346332
 11
160.7580446348
 21
236.5181346332
  0
LWPOLYLINE
  5
314
100
AcDbEntity
  8
RUNDUNGEN
100
AcDbPolyline
 62
7
  6
CONTINUOUS
 90
15
 70
0
 10
297.9169292664
 20
68.0181348483
 10
298.1526809894
 20
68.0234551566
 10
298.5736335547
 20
68.0595578658
 10
298.986019551
 20
68.1286410807
 10
299.3859464309
 20
68.228802644
 10
299.7703002406
 20
68.357700653
 10
300.1365331072
 20
68.512678845
 10
300.4828389514
 20
68.6909933083
 10
300.8063326887
 20
68.8888232748
 10
301.1052470544
 20
69.1022379062
 10
301.3779675276
 20
69.3267074163
 10
301.6236134764
 20
69.5575272428
 10
301.8421795287
 20
69.7901616907
 10
302.0335653758
 20
70.0193484435
 10
302.056072923
 20
70.0481036702
  0
LINE
  5
315
100
AcDbEntity
  8
0
100
AcDbLine
 62
7
  6
CONTINUOUS
 10
293.8038543253
 20
68.0181346332
 11
297.9173282919
 21
68.0181346332
  0
LWPOLYLINE
  5
316
100
AcDbEntity
  8
BEZUGSACHSEN
100
AcDbPolyline
 62
7
  6
CONTINUOUS
 90
14
 70
0
 10
289.6871680608
 20
70.0199183367
 10
289.8780222992
 20
69.7912713062
 10
290.0959684353
 20
69.5591315336
 10
290.340901941
 20
69.3287466749
 10
290.6128262713
 20
69.1046282279
 10
290.9108328135
 20
68.8914867965
 10
291.2332772989
 20
68.6938488104
 10
291.5784034823
 20
68.5156114648
 10
291.9433361086
 20
68.3605677755
 10
292.3262683766
 20
68.2314369772
 10
292.7246602001
 20
68.1308467831
 10
293.1354065995
 20
68.0611101634
 10
293.5546239145
 20
68.0241003204
 10
293.8042532622
 20
68.0181348483
  0
LINE
  5
317
100
AcDbEntity
  8
BEZUGSACHSEN
100
AcDbLine
 62
7
  6
CONTINUOUS
 10
289.6693456217
 20
70.0426607365
 11
289.6871680608
 21
70.0199183367
  0
LINE
  5
318
100
AcDbEntity
  8
BEZUGSACHSEN
100
AcDbLine
 62
7
  6
CONTINUOUS
 10
289.6693455592
 20
70.0426606875
 11
289.6643787761
 21
70.0490443826
  0
LINE
  5
319
100
AcDbEntity
  8
BEZUGSACHSEN
100
AcDbLine
 62
7
  6
CONTINUOUS
 10
281.7625191662
 20
205.518141681
 11
283.9585490906
 21
209.3217770849
  0
LINE
  5
31A
100
AcDbEntity
  8
RUNDUNGEN
100
AcDbLine
 62
7
  6
CONTINUOUS
 10
306.0127616949
 20
190.6703050195
 11
309.4819117995
 21
194.1394551241
  0
LWPOLYLINE
  5
31B
100
AcDbEntity
  8
BEZUGSACHSEN
100
AcDbPolyline
 62
7
  6
CONTINUOUS
 90
19
 70
0
 10
288.5494790687
 20
72.6352797301
 10
288.5688066994
 20
72.5409417696
 10
288.5891392132
 20
72.4460569743
 10
288.6107870772
 20
72.3497371083
 10
288.6340592125
 20
72.2513107971
 10
288.6594364771
 20
72.1496283355
 10
288.6874461248
 20
72.0436905442
 10
288.7187549981
 20
71.9323465913
 10
288.754127117
 20
71.8145416923
 10
288.7945380724
 20
71.6890226918
 10
288.8410247788
 20
71.5549127703
 10
288.8951992937
 20
71.4103652988
 10
288.9587809968
 20
71.2541587224
 10
289.0341014005
 20
71.0845690233
 10
289.1240427079
 20
70.8999241133
 10
289.2309993682
 20
70.7007529959
 10
289.3578747107
 20
70.4875229657
 10
289.507854876
 20
70.2612236585
 10
289.6643787761
 20
70.0490443826
  0
LINE
  5
31C
100
AcDbEntity
  8
BEZUGSACHSEN
100
AcDbLine
 62
7
  6
CONTINUOUS
 10
284.6827064943
 20
92.1847557642
 11
285.266530703
 21
89.2567939772
  0
LINE
  5
31D
100
AcDbEntity
  8
BEZUGSACHSEN
100
AcDbLine
 62
7
  6
CONTINUOUS
 10
288.0176848745
 20
75.3334590972
 11
288.5494790687
 21
72.6352797301
  0
LINE
  5
31E
100
AcDbEntity
  8
BEZUGSACHSEN
100
AcDbLine
 62
7
  6
CONTINUOUS
 10
283.6789227986
 20
105.653921776
 11
283.8385729501
 21
103.4331905375
  0
LINE
  5
31F
100
AcDbEntity
  8
BEZUGSACHSEN
100
AcDbLine
 62
7
  6
CONTINUOUS
 10
283.5293240428
 20
107.87125184
 11
283.6789227986
 21
105.653921776
  0
LINE
  5
320
100
AcDbEntity
  8
BEZUGSACHSEN
100
AcDbLine
 62
7
  6
CONTINUOUS
 10
283.3763609695
 20
110.3097125947
 11
283.5293240428
 21
107.87125184
  0
LINE
  5
321
100
AcDbEntity
  8
BEZUGSACHSEN
100
AcDbLine
 62
7
  6
CONTINUOUS
 10
283.2538816952
 20
112.4229117096
 11
283.3763609695
 21
110.3097125947
  0
LINE
  5
322
100
AcDbEntity
  8
BEZUGSACHSEN
100
AcDbLine
 62
7
  6
CONTINUOUS
 10
283.1334871204
 20
114.6857992578
 11
283.2538816952
 21
112.4229117096
  0
LINE
  5
323
100
AcDbEntity
  8
BEZUGSACHSEN
100
AcDbLine
 62
7
  6
CONTINUOUS
 10
283.0177437662
 20
117.1026209278
 11
283.1334871204
 21
114.6857992578
  0
LINE
  5
324
100
AcDbEntity
  8
BEZUGSACHSEN
100
AcDbLine
 62
7
  6
CONTINUOUS
 10
282.9359242029
 20
119.01796095
 11
283.0177437662
 21
117.1026209278
  0
LINE
  5
325
100
AcDbEntity
  8
BEZUGSACHSEN
100
AcDbLine
 62
7
  6
CONTINUOUS
 10
282.8602189415
 20
121.0220741369
 11
282.9359242029
 21
119.01796095
  0
LINE
  5
326
100
AcDbEntity
  8
BEZUGSACHSEN
100
AcDbLine
 62
7
  6
CONTINUOUS
 10
282.792608308
 20
123.115201023
 11
282.8602189415
 21
121.0220741369
  0
LINE
  5
327
100
AcDbEntity
  8
BEZUGSACHSEN
100
AcDbLine
 62
7
  6
CONTINUOUS
 10
282.7354583061
 20
125.2966709132
 11
282.792608308
 21
123.115201023
  0
LINE
  5
328
100
AcDbEntity
  8
BEZUGSACHSEN
100
AcDbLine
 62
7
  6
CONTINUOUS
 10
282.7045424745
 20
126.7992077185
 11
282.7354583061
 21
125.2966709132
  0
LINE
  5
329
100
AcDbEntity
  8
BEZUGSACHSEN
100
AcDbLine
 62
7
  6
CONTINUOUS
 10
282.6804831347
 20
128.3393320463
 11
282.7045424745
 21
126.7992077185
  0
LINE
  5
32A
100
AcDbEntity
  8
BEZUGSACHSEN
100
AcDbLine
 62
7
  6
CONTINUOUS
 10
282.6643588119
 20
129.9161669605
 11
282.6804831347
 21
128.3393320463
  0
LINE
  5
32B
100
AcDbEntity
  8
BEZUGSACHSEN
100
AcDbLine
 62
7
  6
CONTINUOUS
 10
282.6573867792
 20
131.5289369182
 11
282.6643588119
 21
129.9161669605
  0
LINE
  5
32C
100
AcDbEntity
  8
BEZUGSACHSEN
100
AcDbLine
 62
7
  6
CONTINUOUS
 10
281.3605913086
 20
196.2607749651
 11
281.3605913086
 21
204.0181344898
  0
LINE
  5
32D
100
AcDbEntity
  8
BEZUGSACHSEN
100
AcDbLine
 62
7
  6
CONTINUOUS
 10
284.3605913086
 20
210.821983597
 11
284.3605913086
 21
225.0181359636
  0
LWPOLYLINE
  5
32E
100
AcDbEntity
  8
BEZUGSACHSEN
100
AcDbPolyline
 62
7
  6
CONTINUOUS
 90
21
 70
0
 10
283.8313424317
 20
105.7192816289
 10
283.829454299
 20
104.6151688778
 10
283.838401781
 20
103.443128382
 10
283.857381172
 20
102.3412106376
 10
283.8848142961
 20
101.3074414987
 10
283.9192680738
 20
100.3400004578
 10
283.9594527379
 20
99.4368076648
 10
284.0042033618
 20
98.5958153138
 10
284.0524822724
 20
97.8147762412
 10
284.1033567681
 20
97.0915227184
 10
284.1560117033
 20
96.4236709125
 10
284.2097164129
 20
95.8090022312
 10
284.2638660295
 20
95.2449196794
 10
284.3178907007
 20
94.7293846672
 10
284.3714876398
 20
94.258715908
 10
284.4244041771
 20
93.8298715871
 10
284.4764654654
 20
93.4400587456
 10
284.5274730378
 20
93.0873650963
 10
284.5780588124
 20
92.7652457475
 10
284.6280449116
 20
92.4736085885
 10
284.6827101295
 20
92.1847368406
  0
LINE
  5
32F
100
AcDbEntity
  8
BEZUGSACHSEN
100
AcDbLine
 62
7
  6
CONTINUOUS
 10
282.6606241332
 20
133.1756202915
 11
282.6573867792
 21
131.5289369182
  0
LINE
  5
330
100
AcDbEntity
  8
BEZUGSACHSEN
100
AcDbLine
 62
7
  6
CONTINUOUS
 10
283.8314752654
 20
105.7407587412
 11
283.8313429126
 21
105.7193585389
  0
LINE
  5
331
100
AcDbEntity
  8
BEZUGSACHSEN
100
AcDbLine
 62
7
  6
CONTINUOUS
 10
282.6747086308
 20
134.8543037002
 11
282.6606241332
 21
133.1756202915
  0
LINE
  5
332
100
AcDbEntity
  8
BEZUGSACHSEN
100
AcDbLine
 62
7
  6
CONTINUOUS
 10
282.7002573167
 20
136.5630930003
 11
282.6747086308
 21
134.8543037002
  0
LINE
  5
333
100
AcDbEntity
  8
BEZUGSACHSEN
100
AcDbLine
 62
7
  6
CONTINUOUS
 10
282.737911492
 20
138.2994776556
 11
282.7002573167
 21
136.5630930003
  0
LINE
  5
334
100
AcDbEntity
  8
BEZUGSACHSEN
100
AcDbLine
 62
7
  6
CONTINUOUS
 10
282.7883311358
 20
140.060316997
 11
282.737911492
 21
138.2994776556
  0
LWPOLYLINE
  5
335
100
AcDbEntity
  8
BEZUGSACHSEN
100
AcDbPolyline
 62
7
  6
CONTINUOUS
 90
6
 70
0
 10
286.8704365064
 20
187.5447257302
 10
286.4913280805
 20
182.8330570561
 10
286.0624374432
 20
177.797873061
 10
285.5876811298
 20
172.5413624956
 10
285.0619610132
 20
167.0538128032
 10
284.4791818662
 20
161.3213382402
  0
LWPOLYLINE
  5
336
100
AcDbEntity
  8
BEZUGSACHSEN
100
AcDbPolyline
 62
7
  6
CONTINUOUS
 90
16
 70
0
 10
283.7354498371
 20
154.4552647653
 10
283.6443045783
 20
153.5776827314
 10
283.5578003948
 20
152.6916834924
 10
283.4758476964
 20
151.798559798
 10
283.3983722918
 20
150.8996841839
 10
283.3253003557
 20
149.9963781885
 10
283.2565527708
 20
149.0898507806
 10
283.192049915
 20
148.1812503841
 10
283.1317087173
 20
147.2716296738
 10
283.0754448034
 20
146.3619735529
 10
283.0231712163
 20
145.4531806938
 10
282.9748000476
 20
144.5460859051
 10
282.9302417483
 20
143.641446083
 10
282.8894062282
 20
142.7399552196
 10
282.8522028077
 20
141.842237671
 10
282.7883311358
 20
140.060316997
  0
LINE
  5
337
100
AcDbEntity
  8
BEZUGSACHSEN
100
AcDbLine
 62
7
  6
CONTINUOUS
 10
284.4791818662
 20
161.3213382402
 11
283.8309064723
 21
155.3199758461
  0
LINE
  5
338
100
AcDbEntity
  8
BEZUGSACHSEN
100
AcDbLine
 62
7
  6
CONTINUOUS
 10
283.8309064723
 20
155.3199758461
 11
283.7354498371
 21
154.4552647653
  0
LWPOLYLINE
  5
339
100
AcDbEntity
  8
BEZUGSACHSEN
100
AcDbPolyline
 62
7
  6
CONTINUOUS
 90
9
 70
0
 10
288.068339854
 20
135.2679599688
 10
287.1169292898
 20
131.6293981835
 10
286.2608831451
 20
127.8802890337
 10
285.533690977
 20
124.1427526232
 10
284.9352328092
 20
120.4167737833
 10
284.4656089806
 20
116.7022129808
 10
284.1250022461
 20
112.9990001755
 10
283.9134815293
 20
109.3069917882
 10
283.8314739213
 20
105.7405418866
  0
LINE
  5
33A
100
AcDbEntity
  8
BEZUGSACHSEN
100
AcDbLine
 62
7
  6
CONTINUOUS
 10
288.068339854
 20
135.2679599688
 11
288.0683216728
 21
135.2678945128
  0
LWPOLYLINE
  5
33B
100
AcDbEntity
  8
BEZUGSACHSEN
100
AcDbPolyline
 62
7
  6
CONTINUOUS
 90
22
 70
0
 10
294.0135115683
 20
140.018134629
 10
293.5464916569
 20
139.9998163263
 10
293.0666560669
 20
139.9424881763
 10
292.5991442817
 20
139.8480327266
 10
292.1480194564
 20
139.7190280458
 10
291.7169474291
 20
139.5586604136
 10
291.3091767742
 20
139.3706891979
 10
290.9267555604
 20
139.1589653315
 10
290.5718675837
 20
138.9279889543
 10
290.2438471992
 20
138.6807752444
 10
289.9425072989
 20
138.4205695882
 10
289.6666252198
 20
138.1496440086
 10
289.4149717211
 20
137.8699559399
 10
289.1865032219
 20
137.5834317622
 10
288.9799405766
 20
137.2915151222
 10
288.7940375847
 20
136.9954548061
 10
288.627134005
 20
136.6954924276
 10
288.478662086
 20
136.3936037007
 10
288.3475053787
 20
136.0908905584
 10
288.2322226948
 20
135.7875273551
 10
288.1314288513
 20
135.4833301641
 10
288.0683216727
 20
135.2678945124
  0
LINE
  5
33C
100
AcDbEntity
  8
0
100
AcDbLine
 62
7
  6
CONTINUOUS
 10
294.013507095
 20
140.0181346332
 11
297.7076755221
 21
140.0181346332
  0
LWPOLYLINE
  5
33D
100
AcDbEntity
  8
RUNDUNGEN
100
AcDbPolyline
 62
7
  6
CONTINUOUS
 90
22
 70
0
 10
303.6528602375
 20
135.2678970579
 10
303.5895807655
 20
135.4838910604
 10
303.4885768904
 20
135.7886061199
 10
303.3730490006
 20
136.0924380583
 10
303.2415989798
 20
136.395599261
 10
303.092765391
 20
136.6979444612
 10
302.9254394658
 20
136.9983389162
 10
302.7390685434
 20
137.2947747707
 10
302.531975885
 20
137.5870300807
 10
302.30290207
 20
137.8738619014
 10
302.0505615592
 20
138.153818561
 10
301.773901926
 20
138.4249660805
 10
301.4716857994
 20
138.6853349126
 10
301.1426751618
 20
138.9326426217
 10
300.7866993214
 20
139.1636098012
 10
300.4030910649
 20
139.3752006437
 10
299.9941017314
 20
139.5628687495
 10
299.5618434784
 20
139.7227385817
 10
299.1096248718
 20
139.8510470446
 10
298.6411764122
 20
139.9446190273
 10
298.1606255008
 20
140.0009045978
 10
297.707670105
 20
140.018134629
  0
LINE
  5
33E
100
AcDbEntity
  8
RUNDUNGEN
100
AcDbLine
 62
7
  6
CONTINUOUS
 10
303.6528427631
 20
135.2679599688
 11
303.6528602373
 21
135.2678970584
  0
LWPOLYLINE
  5
33F
100
AcDbEntity
  8
RUNDUNGEN
100
AcDbPolyline
 62
7
  6
CONTINUOUS
 90
7
 70
0
 10
307.8766959959
 20
155.4414734645
 10
307.2420007509
 20
161.3213382402
 10
306.659221604
 20
167.0538128032
 10
306.1335014874
 20
172.5413624956
 10
305.6587451739
 20
177.797873061
 10
305.2298545366
 20
182.8330570561
 10
304.8507534788
 20
187.544625829
  0
LWPOLYLINE
  5
340
100
AcDbEntity
  8
RUNDUNGEN
100
AcDbPolyline
 62
7
  6
CONTINUOUS
 90
15
 70
0
 10
308.8250865684
 20
142.8931072979
 10
308.7841501625
 20
143.7841958732
 10
308.7395669871
 20
144.6782551833
 10
308.6912503018
 20
145.5746063072
 10
308.6391139169
 20
146.4725103288
 10
308.5830732376
 20
147.3711535028
 10
308.5230446406
 20
148.2696612488
 10
308.4589469986
 20
149.1670764815
 10
308.3907004174
 20
150.0623775024
 10
308.3182283374
 20
150.9544509925
 10
308.2414546292
 20
151.8421261709
 10
308.160308308
 20
152.7241246265
 10
308.0747179524
 20
153.5991194618
 10
307.9845972279
 20
154.4658627622
 10
307.876695368
 20
155.441479109
  0
LWPOLYLINE
  5
341
100
AcDbEntity
  8
RUNDUNGEN
100
AcDbPolyline
 62
7
  6
CONTINUOUS
 90
11
 70
0
 10
304.8507461107
 20
187.5447257302
 10
304.8393664282
 20
187.8355565831
 10
304.8565408643
 20
188.2010493721
 10
304.9070154889
 20
188.5599318341
 10
304.988917319
 20
188.9102250324
 10
305.1006648774
 20
189.2499611472
 10
305.2410403112
 20
189.5775047516
 10
305.4090282621
 20
189.8910383991
 10
305.6041715844
 20
190.1891566942
 10
305.8265553815
 20
190.4703788089
 10
306.0127289631
 20
190.6702722903
  0
LINE
  5
342
100
AcDbEntity
  8
RUNDUNGEN
100
AcDbLine
 62
7
  6
CONTINUOUS
 10
308.8963683386
 20
141.1222331852
 11
308.8250865684
 21
142.8931072979
  0
LINE
  5
343
100
AcDbEntity
  8
RUNDUNGEN
100
AcDbLine
 62
7
  6
CONTINUOUS
 10
308.9541076372
 20
139.3698390556
 11
308.8963683386
 21
141.1222331852
  0
LINE
  5
344
100
AcDbEntity
  8
RUNDUNGEN
100
AcDbLine
 62
7
  6
CONTINUOUS
 10
308.9989867306
 20
137.639287067
 11
308.9541076372
 21
139.3698390556
  0
LWPOLYLINE
  5
345
100
AcDbEntity
  8
RUNDUNGEN
100
AcDbPolyline
 62
7
  6
CONTINUOUS
 90
9
 70
0
 10
307.8897086959
 20
105.7405418866
 10
307.8077010879
 20
109.3069917882
 10
307.5961803711
 20
112.9990001755
 10
307.2555736366
 20
116.7022129808
 10
306.7859498079
 20
120.4167737833
 10
306.1874916402
 20
124.1427526232
 10
305.460299472
 20
127.8802890337
 10
304.6042533274
 20
131.6293981835
 10
303.6528427631
 20
135.2679599688
  0
LINE
  5
346
100
AcDbEntity
  8
RUNDUNGEN
100
AcDbLine
 62
7
  6
CONTINUOUS
 10
309.0316540903
 20
135.9338126622
 11
308.9989867306
 21
137.639287067
  0
LINE
  5
347
100
AcDbEntity
  8
RUNDUNGEN
100
AcDbLine
 62
7
  6
CONTINUOUS
 10
309.0527405371
 20
134.2562556864
 11
309.0316540903
 21
135.9338126622
  0
LINE
  5
348
100
AcDbEntity
  8
RUNDUNGEN
100
AcDbLine
 62
7
  6
CONTINUOUS
 10
307.8898397046
 20
105.7193585389
 11
307.8897073518
 21
105.7407587412
  0
LINE
  5
349
100
AcDbEntity
  8
RUNDUNGEN
100
AcDbLine
 62
7
  6
CONTINUOUS
 10
309.0628580194
 20
132.6087960002
 11
309.0527405371
 21
134.2562556864
  0
LINE
  5
34A
100
AcDbEntity
  8
RUNDUNGEN
100
AcDbLine
 62
7
  6
CONTINUOUS
 10
307.8917350894
 20
104.6176083046
 11
307.8898401847
 21
105.7192817527
  0
LINE
  5
34B
100
AcDbEntity
  8
RUNDUNGEN
100
AcDbLine
 62
7
  6
CONTINUOUS
 10
307.3605913086
 20
210.821983597
 11
307.3605913086
 21
225.0181359636
  0
LINE
  5
34C
100
AcDbEntity
  8
RUNDUNGEN
100
AcDbLine
 62
7
  6
CONTINUOUS
 10
310.3605913086
 20
196.2607749651
 11
310.3605913086
 21
204.0181344898
  0
LINE
  5
34D
100
AcDbEntity
  8
RUNDUNGEN
100
AcDbLine
 62
7
  6
CONTINUOUS
 10
309.0625852945
 20
130.9931036901
 11
309.0628580194
 21
132.6087960002
  0
LINE
  5
34E
100
AcDbEntity
  8
RUNDUNGEN
100
AcDbLine
 62
7
  6
CONTINUOUS
 10
309.0526315117
 20
129.4113021902
 11
309.0625852945
 21
130.9931036901
  0
LINE
  5
34F
100
AcDbEntity
  8
RUNDUNGEN
100
AcDbLine
 62
7
  6
CONTINUOUS
 10
309.0341389385
 20
127.864874812
 11
309.0526315117
 21
129.4113021902
  0
LINE
  5
350
100
AcDbEntity
  8
RUNDUNGEN
100
AcDbLine
 62
7
  6
CONTINUOUS
 10
309.0082358424
 20
126.354466175
 11
309.0341389385
 21
127.864874812
  0
LINE
  5
351
100
AcDbEntity
  8
RUNDUNGEN
100
AcDbLine
 62
7
  6
CONTINUOUS
 10
308.9759297358
 20
124.8810316552
 11
309.0082358424
 21
126.354466175
  0
LINE
  5
352
100
AcDbEntity
  8
RUNDUNGEN
100
AcDbLine
 62
7
  6
CONTINUOUS
 10
308.9174043416
 20
122.7418080639
 11
308.9759297358
 21
124.8810316552
  0
LINE
  5
353
100
AcDbEntity
  8
RUNDUNGEN
100
AcDbLine
 62
7
  6
CONTINUOUS
 10
308.8491068456
 20
120.6889852522
 11
308.9174043416
 21
122.7418080639
  0
LINE
  5
354
100
AcDbEntity
  8
RUNDUNGEN
100
AcDbLine
 62
7
  6
CONTINUOUS
 10
308.773250091
 20
118.7230381689
 11
308.8491068456
 21
120.6889852522
  0
LINE
  5
355
100
AcDbEntity
  8
RUNDUNGEN
100
AcDbLine
 62
7
  6
CONTINUOUS
 10
308.691691753
 20
116.8436469071
 11
308.773250091
 21
118.7230381689
  0
LINE
  5
356
100
AcDbEntity
  8
RUNDUNGEN
100
AcDbLine
 62
7
  6
CONTINUOUS
 10
308.5767711006
 20
114.4712643744
 11
308.691691753
 21
116.8436469071
  0
LINE
  5
357
100
AcDbEntity
  8
RUNDUNGEN
100
AcDbLine
 62
7
  6
CONTINUOUS
 10
308.4575696225
 20
112.24877185
 11
308.5767711006
 21
114.4712643744
  0
LINE
  5
358
100
AcDbEntity
  8
RUNDUNGEN
100
AcDbLine
 62
7
  6
CONTINUOUS
 10
308.3061870687
 20
109.674939379
 11
308.4575696225
 21
112.24877185
  0
LINE
  5
359
100
AcDbEntity
  8
RUNDUNGEN
100
AcDbLine
 62
7
  6
CONTINUOUS
 10
308.1555930106
 20
107.3200326464
 11
308.3061870687
 21
109.674939379
  0
LINE
  5
35A
100
AcDbEntity
  8
RUNDUNGEN
100
AcDbLine
 62
7
  6
CONTINUOUS
 10
307.9804369051
 20
104.7776723207
 11
308.1555930106
 21
107.3200326464
  0
LWPOLYLINE
  5
35B
100
AcDbEntity
  8
RUNDUNGEN
100
AcDbPolyline
 62
7
  6
CONTINUOUS
 90
3
 70
0
 10
307.882582505
 20
103.4328252667
 10
307.8964606013
 20
103.6202533205
 10
307.9804369051
 20
104.7776723207
  0
LWPOLYLINE
  5
35C
100
AcDbEntity
  8
RUNDUNGEN
100
AcDbPolyline
 62
7
  6
CONTINUOUS
 90
20
 70
0
 10
307.0386136427
 20
92.1854429193
 10
307.0951468421
 20
92.4848216765
 10
307.1450088882
 20
92.7767612962
 10
307.1954768754
 20
93.0991131626
 10
307.2463882861
 20
93.4520964338
 10
307.2983510411
 20
93.8421311339
 10
307.3511693585
 20
94.2711592205
 10
307.4046709686
 20
94.7420101823
 10
307.4585953521
 20
95.2576664227
 10
307.5126333684
 20
95.8217399735
 10
307.5662174663
 20
96.4362689412
 10
307.6187434495
 20
97.103827431
 10
307.6694829255
 20
97.8266203152
 10
307.7176233814
 20
98.6070131651
 10
307.7622357263
 20
99.4471575001
 10
307.8022866426
 20
100.3492822809
 10
307.8366165759
 20
101.3154174302
 10
307.8639421741
 20
102.3476235587
 10
307.8828380614
 20
103.4477032374
 10
307.8917350894
 20
104.6176083046
  0
LINE
  5
35D
100
AcDbEntity
  8
0
100
AcDbLine
 62
7
  6
CONTINUOUS
 10
303.1791934618
 20
72.6729540364
 11
303.7013414933
 21
75.3224324751
  0
LINE
  5
35E
100
AcDbEntity
  8
RUNDUNGEN
100
AcDbLine
 62
7
  6
CONTINUOUS
 10
303.7013214153
 20
75.3224324951
 11
303.7034977427
 21
75.3334590972
  0
LINE
  5
35F
100
AcDbEntity
  8
RUNDUNGEN
100
AcDbLine
 62
7
  6
CONTINUOUS
 10
306.4559297515
 20
89.2632382664
 11
306.4546466806
 21
89.2567939974
  0
LINE
  5
360
100
AcDbEntity
  8
RUNDUNGEN
100
AcDbLine
 62
7
  6
CONTINUOUS
 10
307.0386173176
 20
92.1854620274
 11
307.0384229699
 21
92.1844899966
  0
LINE
  5
361
100
AcDbEntity
  8
0
100
AcDbLine
 62
7
  6
CONTINUOUS
 10
306.4546519141
 20
89.2567939772
 11
307.038423231
 21
92.184491302
  0
LWPOLYLINE
  5
362
100
AcDbEntity
  8
BEZUGSACHSEN
100
AcDbPolyline
 62
7
  6
CONTINUOUS
 90
11
 70
0
 10
285.708453654
 20
190.6702722903
 10
285.8946272356
 20
190.4703788089
 10
286.1170110328
 20
190.1891566942
 10
286.312154355
 20
189.8910383991
 10
286.4801423059
 20
189.5775047516
 10
286.6205177397
 20
189.2499611472
 10
286.7322652981
 20
188.9102250324
 10
286.8141671282
 20
188.5599318341
 10
286.8646417528
 20
188.2010493721
 10
286.8818161889
 20
187.8355565831
 10
286.8704365064
 20
187.5447257302
  0
LINE
  5
363
100
AcDbEntity
  8
BEZUGSACHSEN
100
AcDbLine
 62
7
  6
CONTINUOUS
 10
285.7084209223
 20
190.6703050195
 11
282.2392708177
 21
194.1394551241
  0
LINE
  5
364
100
AcDbEntity
  8
RUNDUNGEN
100
AcDbLine
 62
7
  6
CONTINUOUS
 10
309.9586634509
 20
205.518141681
 11
307.7626335266
 21
209.3217770849
  0
LWPOLYLINE
  5
365
100
AcDbEntity
  8
RUNDUNGEN
100
AcDbPolyline
 62
7
  6
CONTINUOUS
 90
20
 70
0
 10
302.056072923
 20
70.0481036702
 10
302.2133079019
 20
70.2611953188
 10
302.3602196223
 20
70.4826015662
 10
302.4838055573
 20
70.6894809241
 10
302.5883119126
 20
70.8827068783
 10
302.6769735964
 20
71.0629189846
 10
302.7530586114
 20
71.2322750809
 10
302.8180339933
 20
71.3900938896
 10
302.8735154786
 20
71.5365515147
 10
302.9211177589
 20
71.6725345025
 10
302.9621303019
 20
71.7987523715
 10
302.9978536255
 20
71.9166574596
 10
303.0293744882
 20
72.0277479132
 10
303.0574572863
 20
72.1329934664
 10
303.0827926793
 20
72.2335533117
 10
303.1059120006
 20
72.330371812
 10
303.1272830033
 20
72.4244681654
 10
303.1472715796
 20
72.516708126
 10
303.1662367865
 20
72.6081783701
 10
303.1792992441
 20
72.6734906903
  0
ARC
  5
366
100
AcDbEntity
  8
BEZUGSACHSEN
100
AcDbCircle
 62
7
  6
CONTINUOUS
 10
143.7409098425
 20
124.2211785502
 40
56.2020196075
100
AcDbArc
 50
215.4810605111
 51
268.9979957192
  0
ARC
  5
367
100
AcDbEntity
  8
RUNDUNGEN
100
AcDbCircle
 62
7
  6
CONTINUOUS
 10
143.7409098425
 20
124.2211785502
 40
56.2020196075
100
AcDbArc
 50
199.7999913564
 51
268.9979957192
  0
ARC
  5
368
100
AcDbEntity
  8
RUNDUNGEN
100
AcDbCircle
 62
7
  6
CONTINUOUS
 10
142.7580446348
 20
131.0181346332
 40
56.0
100
AcDbArc
 50
275.3127747053
 51
312.8774486379
  0
ARC
  5
369
100
AcDbEntity
  8
RUNDUNGEN
100
AcDbCircle
 62
7
  6
CONTINUOUS
 10
143.7409098425
 20
124.2211785502
 40
49.2838299929
100
AcDbArc
 50
194.2671304102
 51
262.7308285125
  0
ARC
  5
36A
100
AcDbEntity
  8
RUNDUNGEN
100
AcDbCircle
 62
7
  6
CONTINUOUS
 10
142.7580446348
 20
131.0181346332
 40
42.0267964118
100
AcDbArc
 50
276.5209902475
 51
312.3963354844
  0
ARC
  5
36B
100
AcDbEntity
  8
RUNDUNGEN
100
AcDbCircle
 62
7
  6
CONTINUOUS
 10
142.7580446348
 20
131.0181346332
 40
42.0267964118
100
AcDbArc
 50
202.6036645156
 51
263.4790097525
  0
ARC
  5
36C
100
AcDbEntity
  8
BEZUGSACHSEN
100
AcDbCircle
 62
7
  6
CONTINUOUS
 10
142.7580446348
 20
131.0181346332
 40
32.0
100
AcDbArc
 50
221.8
 51
41.248119221
  0
ARC
  5
36D
100
AcDbEntity
  8
RUNDUNGEN
100
AcDbCircle
 62
7
  6
CONTINUOUS
 10
142.7580446348
 20
131.0181346332
 40
32.0
100
AcDbArc
 50
221.8
 51
41.8000000018
  0
ARC
  5
36E
100
AcDbEntity
  8
BEZUGSACHSEN
100
AcDbCircle
 62
7
  6
CONTINUOUS
 10
88.5648064036
 20
132.8181346332
 40
7.2
100
AcDbArc
 50
41.7999756152
 51
199.7999528869
  0
ARC
  5
36F
100
AcDbEntity
  8
RUNDUNGEN
100
AcDbCircle
 62
7
  6
CONTINUOUS
 10
88.5648064036
 20
132.8181346332
 40
7.2
100
AcDbArc
 50
41.7999756152
 51
199.7999528869
  0
ARC
  5
370
100
AcDbEntity
  8
RUNDUNGEN
100
AcDbCircle
 62
7
  6
CONTINUOUS
 10
102.1131385656
 20
114.0962431045
 40
2.0
100
AcDbArc
 50
22.6036645156
 51
110.0
  0
ARC
  5
371
100
AcDbEntity
  8
RUNDUNGEN
100
AcDbCircle
 62
7
  6
CONTINUOUS
 10
97.9154422056
 20
112.5684065771
 40
2.0
100
AcDbArc
 50
110.0
 51
194.2671304102
  0
ARC
  5
372
100
AcDbEntity
  8
RUNDUNGEN
100
AcDbCircle
 62
7
  6
CONTINUOUS
 10
137.7580446348
 20
87.2761776322
 40
2.0
100
AcDbArc
 50
0.0
 51
83.4790097525
  0
ARC
  5
373
100
AcDbEntity
  8
RUNDUNGEN
100
AcDbCircle
 62
7
  6
CONTINUOUS
 10
137.7580446348
 20
77.3173844318
 40
2.0
100
AcDbArc
 50
262.7308285125
 51
360.0
  0
ARC
  5
374
100
AcDbEntity
  8
RUNDUNGEN
100
AcDbCircle
 62
7
  6
CONTINUOUS
 10
131.7580446348
 20
206.3336492363
 40
10.0
100
AcDbArc
 50
180.0
 51
221.8000133189
  0
ARC
  5
375
100
AcDbEntity
  8
BEZUGSACHSEN
100
AcDbCircle
 62
7
  6
CONTINUOUS
 10
142.7580446348
 20
209.0681346332
 40
4.55
100
AcDbArc
 50
189.5003308461
 51
221.9802322322
  0
ARC
  5
376
100
AcDbEntity
  8
BEZUGSACHSEN
100
AcDbCircle
 62
7
  6
CONTINUOUS
 10
142.7580446348
 20
209.0681346332
 40
4.55
100
AcDbArc
 50
318.0197677678
 51
359.9974919991
  0
ARC
  5
377
100
AcDbEntity
  8
RUNDUNGEN
100
AcDbCircle
 62
7
  6
CONTINUOUS
 10
142.7580446348
 20
209.0681346332
 40
4.55
100
AcDbArc
 50
180.0021729048
 51
359.9974919991
  0
ARC
  5
378
100
AcDbEntity
  8
BEZUGSACHSEN
100
AcDbCircle
 62
7
  6
CONTINUOUS
 10
135.2080446348
 20
233.5181346332
 40
3.0
100
AcDbArc
 50
0.0
 51
90.0
  0
CIRCLE
  5
379
100
AcDbEntity
  8
BEZUGSACHSEN
100
AcDbCircle
 62
7
  6
CONTINUOUS
 10
128.0580446348
 20
221.9181346332
 40
1.75
  0
ARC
  5
37A
100
AcDbEntity
  8
BEZUGSACHSEN
100
AcDbCircle
 62
7
  6
CONTINUOUS
 10
143.8580446348
 20
130.9181346332
 40
62.9
100
AcDbArc
 50
268.9979914849
 51
42.3837426024
  0
ARC
  5
37B
100
AcDbEntity
  8
RUNDUNGEN
100
AcDbCircle
 62
7
  6
CONTINUOUS
 10
143.8580446348
 20
130.9181346332
 40
62.9
100
AcDbArc
 50
268.9979914849
 51
69.6657518525
  0
ARC
  5
37C
100
AcDbEntity
  8
RUNDUNGEN
100
AcDbCircle
 62
7
  6
CONTINUOUS
 10
151.6150285265
 20
131.0181346332
 40
50.0
100
AcDbArc
 50
345.2203683694
 51
14.7796316306
  0
ARC
  5
37D
100
AcDbEntity
  8
RUNDUNGEN
100
AcDbCircle
 62
7
  6
CONTINUOUS
 10
147.7580446348
 20
87.2761776322
 40
2.0
100
AcDbArc
 50
96.5209902475
 51
180.0
  0
ARC
  5
37E
100
AcDbEntity
  8
RUNDUNGEN
100
AcDbCircle
 62
7
  6
CONTINUOUS
 10
172.4433391255
 20
98.5044130178
 40
2.0
100
AcDbArc
 50
45.0
 51
132.3963354844
  0
ARC
  5
37F
100
AcDbEntity
  8
RUNDUNGEN
100
AcDbCircle
 62
7
  6
CONTINUOUS
 10
179.5013991291
 20
91.4463530142
 40
2.0
100
AcDbArc
 50
312.8774486379
 51
45.0
  0
ARC
  5
380
100
AcDbEntity
  8
RUNDUNGEN
100
AcDbCircle
 62
7
  6
CONTINUOUS
 10
147.7580446348
 20
77.2501143982
 40
2.0
100
AcDbArc
 50
180.0
 51
275.3127747053
  0
ARC
  5
381
100
AcDbEntity
  8
RUNDUNGEN
100
AcDbCircle
 62
7
  6
CONTINUOUS
 10
184.7005730592
 20
100.0508504551
 40
2.0
100
AcDbArc
 50
215.0
 51
320.0
  0
ARC
  5
382
100
AcDbEntity
  8
RUNDUNGEN
100
AcDbCircle
 62
7
  6
CONTINUOUS
 10
180.2046440737
 20
106.4717024741
 40
2.0
100
AcDbArc
 50
95.0
 51
215.0
  0
ARC
  5
383
100
AcDbEntity
  8
RUNDUNGEN
100
AcDbCircle
 62
7
  6
CONTINUOUS
 10
190.871370173
 20
107.4049200847
 40
2.0
100
AcDbArc
 50
320.0
 51
95.0
  0
ARC
  5
384
100
AcDbEntity
  8
RUNDUNGEN
100
AcDbCircle
 62
7
  6
CONTINUOUS
 10
183.6083581822
 20
120.8447212721
 40
2.0
100
AcDbArc
 50
52.5
 51
157.5
  0
ARC
  5
385
100
AcDbEntity
  8
RUNDUNGEN
100
AcDbCircle
 62
7
  6
CONTINUOUS
 10
188.9182094173
 20
116.7703291172
 40
2.0
100
AcDbArc
 50
275.0
 51
52.5
  0
ARC
  5
386
100
AcDbEntity
  8
RUNDUNGEN
100
AcDbCircle
 62
7
  6
CONTINUOUS
 10
181.6575715012
 20
116.1351056096
 40
2.0
100
AcDbArc
 50
157.5
 51
275.0
  0
ARC
  5
387
100
AcDbEntity
  8
RUNDUNGEN
100
AcDbCircle
 62
7
  6
CONTINUOUS
 10
190.5322349311
 20
134.4625358293
 40
2.0
100
AcDbArc
 50
0.0
 51
127.5
  0
ARC
  5
388
100
AcDbEntity
  8
RUNDUNGEN
100
AcDbCircle
 62
7
  6
CONTINUOUS
 10
190.5322349311
 20
127.5737334372
 40
2.0
100
AcDbArc
 50
232.5
 51
360.0
  0
ARC
  5
389
100
AcDbEntity
  8
RUNDUNGEN
100
AcDbCircle
 62
7
  6
CONTINUOUS
 10
186.0434038982
 20
131.0181346332
 40
2.0
100
AcDbArc
 50
127.5
 51
232.5
  0
ARC
  5
38A
100
AcDbEntity
  8
RUNDUNGEN
100
AcDbCircle
 62
7
  6
CONTINUOUS
 10
189.3545749367
 20
146.7565097545
 40
2.0
100
AcDbArc
 50
307.5
 51
77.8
  0
ARC
  5
38B
100
AcDbEntity
  8
RUNDUNGEN
100
AcDbCircle
 62
7
  6
CONTINUOUS
 10
183.5015594019
 20
142.2653329735
 40
2.0
100
AcDbArc
 50
200.0
 51
307.5
  0
ARC
  5
38C
100
AcDbEntity
  8
RUNDUNGEN
100
AcDbCircle
 62
7
  6
CONTINUOUS
 10
181.2273476175
 20
148.5136784981
 40
2.0
100
AcDbArc
 50
77.8
 51
200.0
  0
ARC
  5
38D
100
AcDbEntity
  8
RUNDUNGEN
100
AcDbCircle
 62
7
  6
CONTINUOUS
 10
193.2361579856
 20
155.1491479536
 40
2.0
100
AcDbArc
 50
257.8
 51
27.8
  0
ARC
  5
38E
100
AcDbEntity
  8
RUNDUNGEN
100
AcDbCircle
 62
7
  6
CONTINUOUS
 10
198.9938212507
 20
143.5181346332
 40
1.0
100
AcDbArc
 50
14.7796316306
 51
90.0
  0
ARC
  5
38F
100
AcDbEntity
  8
RUNDUNGEN
100
AcDbCircle
 62
7
  6
CONTINUOUS
 10
198.9938212507
 20
118.5181346332
 40
1.0
100
AcDbArc
 50
270.0
 51
345.2203683694
  0
ARC
  5
390
100
AcDbEntity
  8
RUNDUNGEN
100
AcDbCircle
 62
7
  6
CONTINUOUS
 10
198.7580446348
 20
118.5181346332
 40
1.0
100
AcDbArc
 50
180.0
 51
270.0
  0
ARC
  5
391
100
AcDbEntity
  8
RUNDUNGEN
100
AcDbCircle
 62
7
  6
CONTINUOUS
 10
198.7580446348
 20
143.5181346332
 40
1.0
100
AcDbArc
 50
90.0
 51
180.0
  0
ARC
  5
392
100
AcDbEntity
  8
BEZUGSACHSEN
100
AcDbCircle
 62
7
  6
CONTINUOUS
 10
150.3080446348
 20
233.5181346332
 40
3.0
100
AcDbArc
 50
90.0
 51
180.0
  0
ARC
  5
393
100
AcDbEntity
  8
BEZUGSACHSEN
100
AcDbCircle
 62
7
  6
CONTINUOUS
 10
160.7580446348
 20
233.5181346332
 40
3.0
100
AcDbArc
 50
0.0
 51
90.0
  0
ARC
  5
394
100
AcDbEntity
  8
RUNDUNGEN
100
AcDbCircle
 62
7
  6
CONTINUOUS
 10
166.7580446348
 20
192.7113183891
 40
2.9999906278
100
AcDbArc
 50
179.9996227647
 51
249.6656203127
  0
ARC
  5
395
100
AcDbEntity
  8
BEZUGSACHSEN
100
AcDbCircle
 62
7
  6
CONTINUOUS
 10
166.7580446348
 20
192.7113183891
 40
2.9999906278
100
AcDbArc
 50
197.4161750698
 51
249.6656203127
  0
ARC
  5
396
100
AcDbEntity
  8
RUNDUNGEN
100
AcDbCircle
 62
7
  6
CONTINUOUS
 10
182.6967594922
 20
157.4278465653
 40
2.0
100
AcDbArc
 50
132.8
 51
257.8
  0
ARC
  5
397
100
AcDbEntity
  8
RUNDUNGEN
100
AcDbCircle
 62
7
  6
CONTINUOUS
 10
188.9713127958
 20
163.2381466315
 40
2.0
100
AcDbArc
 50
27.8
 51
132.8
  0
ARC
  5
398
100
AcDbEntity
  8
RUNDUNGEN
100
AcDbCircle
 62
7
  6
CONTINUOUS
 10
168.8903617503
 20
179.0181346332
 40
2.0
100
AcDbArc
 50
61.8
 51
90.0
  0
ARC
  5
399
100
AcDbEntity
  8
RUNDUNGEN
100
AcDbCircle
 62
7
  6
CONTINUOUS
 10
179.0623394526
 20
173.5639680438
 40
2.0
100
AcDbArc
 50
311.8
 51
61.8
  0
ARC
  5
39A
100
AcDbEntity
  8
RUNDUNGEN
100
AcDbCircle
 62
7
  6
CONTINUOUS
 10
170.5473933721
 20
165.9507275807
 40
2.0
100
AcDbArc
 50
221.8
 51
311.8
  0
ARC
  5
39B
100
AcDbEntity
  8
RUNDUNGEN
100
AcDbCircle
 62
7
  6
CONTINUOUS
 10
158.8637830263
 20
179.0181346332
 40
2.0
100
AcDbArc
 50
90.0
 51
221.8
  0
ARC
  5
39C
100
AcDbEntity
  8
BEZUGSACHSEN
100
AcDbCircle
 62
7
  6
CONTINUOUS
 10
-660.5456106113
 20
113.3750116174
 40
945.1859676971
100
AcDbArc
 50
359.3714151877
 51
0.0903180166
  0
ARC
  5
39D
100
AcDbEntity
  8
RUNDUNGEN
100
AcDbCircle
 62
7
  6
CONTINUOUS
 10
1252.2667932236
 20
113.3750116174
 40
945.1859676923
100
AcDbArc
 50
179.9096819834
 51
180.6285848123
  0
ARC
  5
39E
100
AcDbEntity
  8
RUNDUNGEN
100
AcDbCircle
 62
7
  6
CONTINUOUS
 10
667.2332602466
 20
5.5839830731
 40
370.1609638862
100
AcDbArc
 50
168.8259670606
 51
169.1118380072
  0
ARC
  5
39F
100
AcDbEntity
  8
BEZUGSACHSEN
100
AcDbCircle
 62
7
  6
CONTINUOUS
 10
-75.5120776286
 20
5.5839830732
 40
370.1609638853
100
AcDbArc
 50
10.8881619928
 51
11.1740329394
  0
ARC
  5
3A0
100
AcDbEntity
  8
RUNDUNGEN
100
AcDbCircle
 62
7
  6
CONTINUOUS
 10
98.6488026669
 20
264.561985166
 40
255.5893039266
100
AcDbArc
 50
324.0325321197
 51
324.4545830588
  0
ARC
  5
3A1
100
AcDbEntity
  8
BEZUGSACHSEN
100
AcDbCircle
 62
7
  6
CONTINUOUS
 10
493.0723799503
 20
264.561985166
 40
255.5893039266
100
AcDbArc
 50
215.5454169412
 51
215.9674678803
  0
ARC
  5
3A2
100
AcDbEntity
  8
BEZUGSACHSEN
100
AcDbCircle
 62
7
  6
CONTINUOUS
 10
295.8605913086
 20
225.0181346332
 40
11.5
100
AcDbArc
 50
0.000006628
 51
179.999993372
  0
ARC
  5
3A3
100
AcDbEntity
  8
RUNDUNGEN
100
AcDbCircle
 62
7
  6
CONTINUOUS
 10
310.3605913086
 20
210.8219822105
 40
3.0
100
AcDbArc
 50
179.9999735201
 51
210.0045236686
  0
ARC
  5
3A4
100
AcDbEntity
  8
RUNDUNGEN
100
AcDbCircle
 62
7
  6
CONTINUOUS
 10
307.3605913086
 20
204.0181346332
 40
3.0
100
AcDbArc
 50
359.9999972596
 51
29.9999793089
  0
ARC
  5
3A5
100
AcDbEntity
  8
RUNDUNGEN
100
AcDbCircle
 62
7
  6
CONTINUOUS
 10
307.3605913086
 20
196.2607753204
 40
3.0
100
AcDbArc
 50
315.0000039795
 51
359.9999932144
  0
ARC
  5
3A6
100
AcDbEntity
  8
BEZUGSACHSEN
100
AcDbCircle
 62
7
  6
CONTINUOUS
 10
284.3605913086
 20
196.2607753204
 40
3.0
100
AcDbArc
 50
180.0000067856
 51
224.9999960205
  0
ARC
  5
3A7
100
AcDbEntity
  8
BEZUGSACHSEN
100
AcDbCircle
 62
7
  6
CONTINUOUS
 10
284.3605913086
 20
204.0181346332
 40
3.0
100
AcDbArc
 50
150.0000206911
 51
180.0000027404
  0
ARC
  5
3A8
100
AcDbEntity
  8
BEZUGSACHSEN
100
AcDbCircle
 62
7
  6
CONTINUOUS
 10
281.3605913086
 20
210.8219822105
 40
3.0
100
AcDbArc
 50
329.9954763314
 51
0.0000264799
  0
SPLINE
  5
3A9
100
AcDbEntity
  8
RUNDUNGEN
100
AcDbSpline
 62
7
  6
CONTINUOUS
 70
0
 71
3
 72
9
 73
5
 74
0
 42
0.0000001
 43
0.0000001
 44
0.0000000001
 40
0.0
 40
0.0
 40
0.0
 40
0.0
 40
0.3224404288
 40
1.0
 40
1.0
 40
1.0
 40
1.0
 10
306.6103059522
 20
115.9756283461
 30
0.0
 10
306.6233609142
 20
115.9939214611
 30
0.0
 10
306.665351553
 20
116.0475635663
 30
0.0
 10
306.7296951073
 20
116.0962749712
 30
0.0
 10
306.7769202991
 20
116.0962449435
 30
0.0
  0
SPLINE
  5
3AA
100
AcDbEntity
  8
RUNDUNGEN
100
AcDbSpline
 62
7
  6
CONTINUOUS
 70
0
 71
3
 72
9
 73
5
 74
0
 42
0.0000001
 43
0.0000001
 44
0.0000000001
 40
0.0
 40
0.0
 40
0.0
 40
0.0
 40
0.4789998102
 40
1.0
 40
1.0
 40
1.0
 40
1.0
 10
304.7608229541
 20
95.8595433812
 30
0.0
 10
304.7657166004
 20
98.4490726233
 30
0.0
 10
304.8158431918
 20
103.8551864022
 30
0.0
 10
304.9413281933
 20
109.2599934272
 30
0.0
 10
305.0188212357
 20
112.0755204477
 30
0.0
  0
SPLINE
  5
3AB
100
AcDbEntity
  8
RUNDUNGEN
100
AcDbSpline
 62
7
  6
CONTINUOUS
 70
0
 71
3
 72
15
 73
11
 74
0
 42
0.0000001
 43
0.0000001
 44
0.0000000001
 40
0.0
 40
0.0
 40
0.0
 40
0.0
 40
0.0192167286
 40
0.0447666481
 40
0.1145725518
 40
0.2086725331
 40
0.3260538014
 40
0.4654643622
 40
0.6254260838
 40
1.0
 40
1.0
 40
1.0
 40
1.0
 10
303.7034977427
 20
75.3334590972
 30
0.0
 10
303.7286789996
 20
75.4627803668
 30
0.0
 10
303.7792447397
 20
75.7655952604
 30
0.0
 10
303.8885397026
 20
76.5434964228
 30
0.0
 10
304.0316065186
 20
77.8347496763
 30
0.0
 10
304.2018145697
 20
79.7558086215
 30
0.0
 10
304.3696452972
 20
82.1558026446
 30
0.0
 10
304.5228250118
 20
85.0090764397
 30
0.0
 10
304.7000180872
 20
89.626390957
 30
0.0
 10
304.7559698459
 20
93.2914653019
 30
0.0
 10
304.7608229541
 20
95.8595433812
 30
0.0
  0
SPLINE
  5
3AC
100
AcDbEntity
  8
RUNDUNGEN
100
AcDbSpline
 62
7
  6
CONTINUOUS
 70
0
 71
3
 72
8
 73
4
 74
0
 42
0.0000001
 43
0.0000001
 44
0.0000000001
 40
0.0
 40
0.0
 40
0.0
 40
0.0
 40
1.0
 40
1.0
 40
1.0
 40
1.0
 10
306.0580077458
 20
87.2761776322
 30
0.0
 10
305.4003363728
 20
83.9568710265
 30
0.0
 10
304.7449026087
 20
80.6371213472
 30
0.0
 10
304.0894067743
 20
77.3173844318
 30
0.0
  0
LINE
  5
3AD
100
AcDbEntity
  8
BEZUGSACHSEN
100
AcDbLine
 62
7
  6
CONTINUOUS
 10
288.0208594978
 20
75.3173975921
 11
288.0198392528
 21
75.3224425977
  0
SPLINE
  5
3AE
100
AcDbEntity
  8
BEZUGSACHSEN
100
AcDbSpline
 62
7
  6
CONTINUOUS
 70
0
 71
3
 72
9
 73
5
 74
0
 42
0.0000001
 43
0.0000001
 44
0.0000000001
 40
0.0
 40
0.0
 40
0.0
 40
0.0
 40
0.3406446941
 40
1.0
 40
1.0
 40
1.0
 40
1.0
 10
285.266531295
 20
89.2567911737
 30
0.0
 10
285.3112616004
 20
89.0318344844
 30
0.0
 10
285.4456701399
 20
88.3720698475
 30
0.0
 10
285.5768895778
 20
87.7116646499
 30
0.0
 10
285.6631748714
 20
87.2761776322
 30
0.0
  0
LINE
  5
3AF
100
AcDbEntity
  8
RUNDUNGEN
100
AcDbLine
 62
7
  6
CONTINUOUS
 10
303.7003231193
 20
75.3173975921
 11
303.7013433644
 21
75.3224425977
  0
SPLINE
  5
3B0
100
AcDbEntity
  8
RUNDUNGEN
100
AcDbSpline
 62
7
  6
CONTINUOUS
 70
0
 71
3
 72
9
 73
5
 74
0
 42
0.0000001
 43
0.0000001
 44
0.0000000001
 40
0.0
 40
0.0
 40
0.0
 40
0.0
 40
0.3406446941
 40
1.0
 40
1.0
 40
1.0
 40
1.0
 10
306.4546513222
 20
89.2567911737
 30
0.0
 10
306.4099210167
 20
89.0318344844
 30
0.0
 10
306.2755124772
 20
88.3720698475
 30
0.0
 10
306.1442930393
 20
87.7116646499
 30
0.0
 10
306.0580077458
 20
87.2761776322
 30
0.0
  0
LINE
  5
3B1
100
AcDbEntity
  8
RUNDUNGEN
100
AcDbLine
 62
7
  6
CONTINUOUS
 10
303.7009654085
 20
75.3209754597
 11
303.7003228534
 21
75.3173975221
  0
SPLINE
  5
3B2
100
AcDbEntity
  8
RUNDUNGEN
100
AcDbSpline
 62
7
  6
CONTINUOUS
 70
0
 71
3
 72
13
 73
9
 74
0
 42
0.0000001
 43
0.0000001
 44
0.0000000001
 40
0.0
 40
0.0
 40
0.0
 40
0.0
 40
0.3032423053
 40
0.5931561572
 40
0.7214801064
 40
0.8336968517
 40
0.9270815787
 40
1.0
 40
1.0
 40
1.0
 40
1.0
 10
305.0188212357
 20
112.0755204477
 30
0.0
 10
305.0256190984
 20
112.3225047657
 30
0.0
 10
305.0602900079
 20
112.8051483464
 30
0.0
 10
305.1489188532
 20
113.3871719541
 30
0.0
 10
305.247259344
 20
113.808239442
 30
0.0
 10
305.3259327163
 20
114.0690084938
 30
0.0
 10
305.40971716
 20
114.2801151818
 30
0.0
 10
305.4752765872
 20
114.399697792
 30
0.0
 10
305.5101601925
 20
114.4477918186
 30
0.0
  0
SPLINE
  5
3B3
100
AcDbEntity
  8
BEZUGSACHSEN
100
AcDbSpline
 62
7
  6
CONTINUOUS
 70
0
 71
3
 72
9
 73
5
 74
0
 42
0.0000001
 43
0.0000001
 44
0.0000000001
 40
0.0
 40
0.0
 40
0.0
 40
0.0
 40
0.4789998102
 40
1.0
 40
1.0
 40
1.0
 40
1.0
 10
286.960359663
 20
95.8595433812
 30
0.0
 10
286.9554660167
 20
98.4490726233
 30
0.0
 10
286.9053394253
 20
103.8551864022
 30
0.0
 10
286.7798544239
 20
109.2599934272
 30
0.0
 10
286.7023613815
 20
112.0755204477
 30
0.0
  0
SPLINE
  5
3B4
100
AcDbEntity
  8
BEZUGSACHSEN
100
AcDbSpline
 62
7
  6
CONTINUOUS
 70
0
 71
3
 72
9
 73
5
 74
0
 42
0.0000001
 43
0.0000001
 44
0.0000000001
 40
0.0
 40
0.0
 40
0.0
 40
0.0
 40
0.3224404288
 40
1.0
 40
1.0
 40
1.0
 40
1.0
 10
285.110876665
 20
115.9756283461
 30
0.0
 10
285.097821703
 20
115.9939214611
 30
0.0
 10
285.0558310641
 20
116.0475635663
 30
0.0
 10
284.9914875098
 20
116.0962749712
 30
0.0
 10
284.944262318
 20
116.0962449435
 30
0.0
  0
SPLINE
  5
3B5
100
AcDbEntity
  8
BEZUGSACHSEN
100
AcDbSpline
 62
7
  6
CONTINUOUS
 70
0
 71
3
 72
15
 73
11
 74
0
 42
0.0000001
 43
0.0000001
 44
0.0000000001
 40
0.0
 40
0.0
 40
0.0
 40
0.0
 40
0.0192167286
 40
0.0447666481
 40
0.1145725518
 40
0.2086725331
 40
0.3260538014
 40
0.4654643622
 40
0.6254260838
 40
1.0
 40
1.0
 40
1.0
 40
1.0
 10
288.0176848745
 20
75.3334590972
 30
0.0
 10
287.9925036175
 20
75.4627803668
 30
0.0
 10
287.9419378774
 20
75.7655952604
 30
0.0
 10
287.8326429146
 20
76.5434964228
 30
0.0
 10
287.6895760986
 20
77.8347496763
 30
0.0
 10
287.5193680475
 20
79.7558086215
 30
0.0
 10
287.35153732
 20
82.1558026446
 30
0.0
 10
287.1983576053
 20
85.0090764397
 30
0.0
 10
287.02116453
 20
89.626390957
 30
0.0
 10
286.9652127713
 20
93.2914653019
 30
0.0
 10
286.960359663
 20
95.8595433812
 30
0.0
  0
SPLINE
  5
3B6
100
AcDbEntity
  8
BEZUGSACHSEN
100
AcDbSpline
 62
7
  6
CONTINUOUS
 70
0
 71
3
 72
8
 73
4
 74
0
 42
0.0000001
 43
0.0000001
 44
0.0000000001
 40
0.0
 40
0.0
 40
0.0
 40
0.0
 40
1.0
 40
1.0
 40
1.0
 40
1.0
 10
285.6631748714
 20
87.2761776322
 30
0.0
 10
286.3208462444
 20
83.9568710265
 30
0.0
 10
286.9762800084
 20
80.6371213472
 30
0.0
 10
287.6317758428
 20
77.3173844318
 30
0.0
  0
SPLINE
  5
3B7
100
AcDbEntity
  8
BEZUGSACHSEN
100
AcDbSpline
 62
7
  6
CONTINUOUS
 70
0
 71
3
 72
13
 73
9
 74
0
 42
0.0000001
 43
0.0000001
 44
0.0000000001
 40
0.0
 40
0.0
 40
0.0
 40
0.0
 40
0.3032423053
 40
0.5931561572
 40
0.7214801064
 40
0.8336968517
 40
0.9270815787
 40
1.0
 40
1.0
 40
1.0
 40
1.0
 10
286.7023613815
 20
112.0755204477
 30
0.0
 10
286.6955635187
 20
112.3225047657
 30
0.0
 10
286.6608926093
 20
112.8051483464
 30
0.0
 10
286.5722637639
 20
113.3871719541
 30
0.0
 10
286.4739232731
 20
113.808239442
 30
0.0
 10
286.3952499008
 20
114.0690084938
 30
0.0
 10
286.3114654572
 20
114.2801151818
 30
0.0
 10
286.2459060299
 20
114.399697792
 30
0.0
 10
286.2110224246
 20
114.4477918186
 30
0.0
  0
LINE
  5
3B8
100
AcDbEntity
  8
BEZUGSACHSEN
100
AcDbLine
 62
7
  6
CONTINUOUS
 10
288.0202172087
 20
75.3209754597
 11
288.0208597638
 21
75.3173975221
  0
SPLINE
  5
3B9
100
AcDbEntity
  8
RUNDUNGEN
100
AcDbSpline
 62
7
  6
CONTINUOUS
 70
0
 71
3
 72
14
 73
10
 74
0
 42
0.0000001
 43
0.0000001
 44
0.0000000001
 40
0.0
 40
0.0
 40
0.0
 40
0.0
 40
0.3779756536
 40
0.5378696441
 40
0.6765964413
 40
0.793038142
 40
0.8862432053
 40
0.9554301853
 40
1.0
 40
1.0
 40
1.0
 40
1.0
 10
307.1377062947
 20
103.0057029007
 30
0.0
 10
307.1564051532
 20
101.270575281
 30
0.0
 10
307.1408568067
 20
98.8005593983
 30
0.0
 10
307.0307586464
 20
95.6962337698
 30
0.0
 10
306.927391653
 20
93.7934169447
 30
0.0
 10
306.8092671634
 20
92.1983740833
 30
0.0
 10
306.6880350478
 20
90.9238700834
 30
0.0
 10
306.5738285798
 20
89.9806460661
 30
0.0
 10
306.4955988464
 20
89.4639692392
 30
0.0
 10
306.4559297515
 20
89.2632382664
 30
0.0
  0
SPLINE
  5
3BA
100
AcDbEntity
  8
BEZUGSACHSEN
100
AcDbSpline
 62
7
  6
CONTINUOUS
 70
0
 71
3
 72
15
 73
11
 74
0
 42
0.0000001
 43
0.0000001
 44
0.0000000001
 40
0.0
 40
0.0
 40
0.0
 40
0.0
 40
0.0508122629
 40
0.1158780512
 40
0.2037909283
 40
0.3171115982
 40
0.4556331453
 40
0.6176128146
 40
0.8003704505
 40
1.0
 40
1.0
 40
1.0
 40
1.0
 10
284.944262318
 20
116.0962449435
 30
0.0
 10
284.9217968051
 20
116.096230659
 30
0.0
 10
284.8704453284
 20
116.0768524052
 30
0.0
 10
284.8119571783
 20
116.0057110055
 30
0.0
 10
284.76117406
 20
115.898991783
 30
0.0
 10
284.7179915099
 20
115.7546444326
 30
0.0
 10
284.683062651
 20
115.5748763133
 30
0.0
 10
284.6575209784
 20
115.3625911171
 30
0.0
 10
284.6421463861
 20
115.1223102894
 30
0.0
 10
284.6390833602
 20
114.9532135724
 30
0.0
 10
284.6391827543
 20
114.8649518414
 30
0.0
  0
SPLINE
  5
3BB
100
AcDbEntity
  8
RUNDUNGEN
100
AcDbSpline
 62
7
  6
CONTINUOUS
 70
0
 71
3
 72
15
 73
11
 74
0
 42
0.0000001
 43
0.0000001
 44
0.0000000001
 40
0.0
 40
0.0
 40
0.0
 40
0.0
 40
0.0508122629
 40
0.1158780512
 40
0.2037909283
 40
0.3171115982
 40
0.4556331453
 40
0.6176128146
 40
0.8003704505
 40
1.0
 40
1.0
 40
1.0
 40
1.0
 10
306.7769202991
 20
116.0962449435
 30
0.0
 10
306.7993858121
 20
116.096230659
 30
0.0
 10
306.8507372888
 20
116.0768524052
 30
0.0
 10
306.9092254388
 20
116.0057110055
 30
0.0
 10
306.9600085571
 20
115.898991783
 30
0.0
 10
307.0031911072
 20
115.7546444326
 30
0.0
 10
307.0381199661
 20
115.5748763133
 30
0.0
 10
307.0636616387
 20
115.3625911171
 30
0.0
 10
307.079036231
 20
115.1223102894
 30
0.0
 10
307.082099257
 20
114.9532135724
 30
0.0
 10
307.0819998628
 20
114.8649518414
 30
0.0
  0
SPLINE
  5
3BC
100
AcDbEntity
  8
BEZUGSACHSEN
100
AcDbSpline
 62
7
  6
CONTINUOUS
 70
0
 71
3
 72
14
 73
10
 74
0
 42
0.0000001
 43
0.0000001
 44
0.0000000001
 40
0.0
 40
0.0
 40
0.0
 40
0.0
 40
0.3779756536
 40
0.5378696441
 40
0.6765964413
 40
0.793038142
 40
0.8862432053
 40
0.9554301853
 40
1.0
 40
1.0
 40
1.0
 40
1.0
 10
284.5834763225
 20
103.0057029007
 30
0.0
 10
284.564777464
 20
101.270575281
 30
0.0
 10
284.5803258105
 20
98.8005593983
 30
0.0
 10
284.6904239708
 20
95.6962337698
 30
0.0
 10
284.7937909641
 20
93.7934169447
 30
0.0
 10
284.9119154538
 20
92.1983740833
 30
0.0
 10
285.0331475693
 20
90.9238700834
 30
0.0
 10
285.1473540373
 20
89.9806460661
 30
0.0
 10
285.2255837707
 20
89.4639692392
 30
0.0
 10
285.2652528656
 20
89.2632382664
 30
0.0
  0
ENDSEC
  0
SECTION
  2
OBJECTS
  0
DICTIONARY
  5
C
100
AcDbDictionary
280
0
281
1
  3
ACAD_GROUP
350
D
  3
ACAD_MLINESTYLE
350
17
  3
ACAD_LAYOUT
350
1A
  3
ACAD_PLOTSETTINGS
350
19
  3
ACAD_PLOTSTYLENAME
350
E
  0
DICTIONARY
  5
D
102
{ACAD_REACTORS
330
C
102
}
100
AcDbDictionary
280
0
281
1
  0
ACDBDICTIONARYWDFLT
  5
E
102
{ACAD_REACTORS
330
C
102
}
100
AcDbDictionary
281
1
  3
Normal
350
F
100
AcDbDictionaryWithDefault
340
F
  0
DICTIONARY
  5
17
102
{ACAD_REACTORS
330
C
102
}
100
AcDbDictionary
280
0
281
1
  3
Standard
350
18
  0
DICTIONARY
  5
19
102
{ACAD_REACTORS
330
C
102
}
100
AcDbDictionary
281
1
  0
DICTIONARY
  5
1A
102
{ACAD_REACTORS
330
C
102
}
100
AcDbDictionary
281
1
  3
Model
350
3BD
  3
Layout1
350
3BE
  0
ACDBPLACEHOLDER
  5
F
102
{ACAD_REACTORS
330
E
102
}
  0
MLINESTYLE
  5
18
102
{ACAD_REACTORS
330
17
102
}
100
AcDbMlineStyle
  2
STANDARD
 70
0
  3

 62
256
 51
90.0
 52
90.0
 71
2
 49
0.5
 62
256
  6
BYLAYER
 49
-0.5
 62
256
  6
BYLAYER
  0
LAYOUT
  5
3BD
102
{ACAD_REACTORS
330
1A
102
}
100
AcDbPlotSettings
  1

  2
none_device
  4
ISO_A3_(420.00_x_297.00_MM)
  6

 40
0.0
 41
0.0
 42
0.0
 43
0.0
 44
420.0
 45
297.0
 46
0.0
 47
0.0
 48
0.0
 49
0.0
140
0.0
141
0.0
142
1.0
143
1.0
 70
1024
 72
1
 73
0
 74
0
  7

 75
0
147
1.0
148
0.0
149
0.0
100
AcDbLayout
  1
Model
 70
0
 71
0
 10
0.0
 20
0.0
 11
420.0
 21
297.0
 12
0.0
 22
0.0
 32
0.0
 14
0.0
 24
0.0
 34
0.0
 15
0.0
 25
0.0
 35
0.0
146
0.0
 13
0.0
 23
0.0
 33
0.0
 16
1.0
 26
0.0
 36
0.0
 17
0.0
 27
1.0
 37
0.0
 76
0
330
209
345
0
346
0
  0
LAYOUT
  5
3BE
102
{ACAD_REACTORS
330
1A
102
}
100
AcDbPlotSettings
  1

  2
none_device
  4
ISO_A3_(420.00_x_297.00_MM)
  6

 40
0.0
 41
0.0
 42
0.0
 43
0.0
 44
420.0
 45
297.0
 46
0.0
 47
0.0
 48
0.0
 49
0.0
140
0.0
141
0.0
142
1.0
143
1.0
 70
0
 72
1
 73
0
 74
0
  7

 75
0
147
1.0
148
0.0
149
0.0
100
AcDbLayout
  1
Layout1
 70
0
 71
1
 10
0.0
 20
0.0
 11
420.0
 21
297.0
 12
0.0
 22
0.0
 32
0.0
 14
0.0
 24
0.0
 34
0.0
 15
0.0
 25
0.0
 35
0.0
146
0.0
 13
0.0
 23
0.0
 33
0.0
 16
1.0
 26
0.0
 36
0.0
 17
0.0
 27
1.0
 37
0.0
 76
0
330
20A
345
0
346
0
  0
ENDSEC
  0
EOF
