999
DXF file: VWH-6_7100210_M31288-P-3.dxf
999
Pro/ENGINEER 2010140 by Parametric Technology Corporation
  0
SECTION
  2
HEADER
  9
$ACADVER
  1
AC1015
  9
$DWGCODEPAGE
  3
ANSI_1252
  9
$EXTMAX
 10
297.0
 20
210.0
 30
0.0
  9
$EXTMIN
 10
0.0
 20
0.0
 30
0.0
  9
$LIMMIN
 10
0.0
 20
0.0
  9
$LIMMAX
 10
297.0
 20
210.0
  9
$VIEWCTR
 10
148.5
 20
105.0
  9
$VIEWSIZE
 40
210.0
  9
$CLAYER
  8
0
  9
$LTSCALE
 40
16.335
  9
$CELTYPE
  6
BYLAYER
  9
$DIMSCALE
 40
1.0
  9
$DIMASZ
 40
3.5
  9
$DIMEXO
 40
1.85625
  9
$DIMDLI
 40
11.286
  9
$DIMEXE
 40
5.346
  9
$DIMCEN
 40
2.673
  9
$DIMLFAC
 40
1.0
  9
$DIMBLK
  1
_FILLED
  9
$DIMTXT
 40
3.5
  9
$DIMTOL
 70
1
  9
$DIMLIM
 70
0
  9
$DIMTFAC
 40
1.0
  9
$DIMTP
 40
0.005
  9
$DIMTM
 40
0.005
  9
$PDMODE
 70
3
  9
$PDSIZE
 40
0.3125
  9
$HANDSEED
  5
39F
  9
$TILEMODE
 70
1
  9
$MEASUREMENT
 70
1
  9
$INSUNITS
 70
4
  0
ENDSEC
  0
SECTION
  2
CLASSES
  0
CLASS
  1
ACDBDICTIONARYWDFLT
  2
AcDbDictionaryWithDefault
  3
AutoCAD 2000
 90
0
280
0
281
0
  0
CLASS
  1
ACDBPLACEHOLDER
  2
AcDbPlaceHolder
  3
AutoCAD 2000
 90
0
280
0
281
0
  0
CLASS
  1
LAYOUT
  2
AcDbLayout
  3
AutoCAD 2000
 90
0
280
0
281
0
  0
ENDSEC
  0
SECTION
  2
TABLES
  0
TABLE
  2
VPORT
  5
8
100
AcDbSymbolTable
 70
2
  0
VPORT
  5
1F4
100
AcDbSymbolTableRecord
100
AcDbViewportTableRecord
  2
*ACTIVE
 70
0
 10
0.0
 20
0.0
 11
1.0
 21
1.0
 12
148.5
 22
105.0
 13
0.0
 23
0.0
 14
1.0
 24
1.0
 15
0.0
 25
0.0
 16
0.0
 26
0.0
 36
1.0
 17
0.0
 27
0.0
 37
0.0
 40
210.0
 41
1.4142857143
 42
50.0
 43
0.0
 44
0.0
 50
0.0
 51
0.0
 71
0
 72
100
 73
1
 74
1
 75
0
 76
0
 77
0
 78
0
  0
ENDTAB
  0
TABLE
  2
LTYPE
  5
5
100
AcDbSymbolTable
 70
6
  0
LTYPE
  5
14
100
AcDbSymbolTableRecord
100
AcDbLinetypeTableRecord
  2
BYBLOCK
 70
0
  3

 72
65
 73
0
 40
0.0
  0
LTYPE
  5
15
100
AcDbSymbolTableRecord
100
AcDbLinetypeTableRecord
  2
BYLAYER
 70
0
  3

 72
65
 73
0
 40
0.0
  0
LTYPE
  5
16
100
AcDbSymbolTableRecord
100
AcDbLinetypeTableRecord
  2
CONTINUOUS
 70
64
  3
Solid line
 72
65
 73
0
 40
0.0
  0
LTYPE
  5
1F5
100
AcDbSymbolTableRecord
100
AcDbLinetypeTableRecord
  2
CENTER
 70
64
  3
____ _ ____ _ ____ _ ____ _ ____ _ ____ _ ____
 72
65
 73
4
 40
0.6
 49
0.375
 74
0
 49
-0.075
 74
0
 49
0.075
 74
0
 49
-0.075
 74
0
  0
LTYPE
  5
1F6
100
AcDbSymbolTableRecord
100
AcDbLinetypeTableRecord
  2
HIDDEN
 70
64
  3
- - - - - - - - - - - - - - - - - - - -
 72
65
 73
2
 40
0.2
 49
0.1
 74
0
 49
-0.1
 74
0
  0
LTYPE
  5
1F7
100
AcDbSymbolTableRecord
100
AcDbLinetypeTableRecord
  2
PHANTOM
 70
64
  3
_____ _ _ _____ _ _ _____ _ _ _____
 72
65
 73
6
 40
0.8
 49
0.45
 74
0
 49
-0.05
 74
0
 49
0.1
 74
0
 49
-0.05
 74
0
 49
0.1
 74
0
 49
-0.05
 74
0
  0
LTYPE
  5
1F8
100
AcDbSymbolTableRecord
100
AcDbLinetypeTableRecord
  2
DOT
 70
64
  3
. . . . . . . . . . . . . . . . . . . .
 72
65
 73
2
 40
0.2
 49
0.1
 74
0
 49
-0.1
 74
0
  0
LTYPE
  5
1F9
100
AcDbSymbolTableRecord
100
AcDbLinetypeTableRecord
  2
DASHED
 70
64
  3
- - - - - - - - - - - - - - - - - - - -
 72
65
 73
2
 40
0.2
 49
0.1
 74
0
 49
-0.1
 74
0
  0
ENDTAB
  0
TABLE
  2
LAYER
  5
2
100
AcDbSymbolTable
 70
36
  0
LAYER
  5
10
100
AcDbSymbolTableRecord
100
AcDbLayerTableRecord
  2
0
 70
0
 62
7
  6
CONTINUOUS
370
-3
390
F
  0
LAYER
  5
1FA
100
AcDbSymbolTableRecord
100
AcDbLayerTableRecord
  2
DEFAULT_1
 70
0
 62
7
  6
CENTER
370
-3
390
F
  0
LAYER
  5
1FB
100
AcDbSymbolTableRecord
100
AcDbLayerTableRecord
  2
DEFAULT_2
 70
0
 62
8
  6
HIDDEN
370
-3
390
F
  0
LAYER
  5
1FC
100
AcDbSymbolTableRecord
100
AcDbLayerTableRecord
  2
DEFAULT_3
 70
0
 62
7
  6
PHANTOM
370
-3
390
F
  0
LAYER
  5
1FD
100
AcDbSymbolTableRecord
100
AcDbLayerTableRecord
  2
BEZUGSACHSEN
 70
0
 62
7
  6
CONTINUOUS
370
-3
390
F
  0
LAYER
  5
1FE
100
AcDbSymbolTableRecord
100
AcDbLayerTableRecord
  2
BEZUGSEBENEN
 70
0
 62
7
  6
CONTINUOUS
370
-3
390
F
  0
LAYER
  5
1FF
100
AcDbSymbolTableRecord
100
AcDbLayerTableRecord
  2
FASEN
 70
0
 62
7
  6
CONTINUOUS
370
-3
390
F
  0
LAYER
  5
200
100
AcDbSymbolTableRecord
100
AcDbLayerTableRecord
  2
FLAECHEN
 70
0
 62
7
  6
CONTINUOUS
370
-3
390
F
  0
LAYER
  5
201
100
AcDbSymbolTableRecord
100
AcDbLayerTableRecord
  2
HILFEN
 70
0
 62
7
  6
CONTINUOUS
370
-3
390
F
  0
LAYER
  5
202
100
AcDbSymbolTableRecord
100
AcDbLayerTableRecord
  2
KURVEN
 70
0
 62
7
  6
CONTINUOUS
370
-3
390
F
  0
LAYER
  5
203
100
AcDbSymbolTableRecord
100
AcDbLayerTableRecord
  2
PLATZIERUNG
 70
0
 62
7
  6
CONTINUOUS
370
-3
390
F
  0
LAYER
  5
204
100
AcDbSymbolTableRecord
100
AcDbLayerTableRecord
  2
RUNDUNGEN
 70
0
 62
7
  6
CONTINUOUS
370
-3
390
F
  0
LAYER
  5
205
100
AcDbSymbolTableRecord
100
AcDbLayerTableRecord
  2
T_STARTBEZUEGE
 70
0
 62
7
  6
CONTINUOUS
370
-3
390
F
  0
LAYER
  5
206
100
AcDbSymbolTableRecord
100
AcDbLayerTableRecord
  2
ZEICHNUNGSBEMASSUNGEN
 70
0
 62
7
  6
CONTINUOUS
370
-3
390
F
  0
ENDTAB
  0
TABLE
  2
STYLE
  5
3
100
AcDbSymbolTable
 70
1
  0
STYLE
  5
11
100
AcDbSymbolTableRecord
100
AcDbTextStyleTableRecord
  2
STANDARD
 70
0
 40
0.0
 41
0.7
 50
0.0
 71
0
 42
0.2
  3
txt
  4

  0
STYLE
  5
207
100
AcDbSymbolTableRecord
100
AcDbTextStyleTableRecord
  2
TEXTSTYLE_1
 70
0
 40
0.0
 41
0.8
 50
0.0
 71
0
 42
0.2
  3
gdt
  4

  0
ENDTAB
  0
TABLE
  2
VIEW
  5
6
100
AcDbSymbolTable
 70
0
  0
ENDTAB
  0
TABLE
  2
UCS
  5
7
100
AcDbSymbolTable
 70
0
  0
ENDTAB
  0
TABLE
  2
APPID
  5
9
100
AcDbSymbolTable
 70
1
  0
APPID
  5
208
100
AcDbSymbolTableRecord
100
AcDbRegAppTableRecord
  2
ACAD
 70
0
  0
ENDTAB
  0
TABLE
  2
BLOCK_RECORD
  5
1
100
AcDbSymbolTable
 70
0
  0
BLOCK_RECORD
  5
209
100
AcDbSymbolTableRecord
100
AcDbBlockTableRecord
  2
*Model_Space
  0
BLOCK_RECORD
  5
20A
100
AcDbSymbolTableRecord
100
AcDbBlockTableRecord
  2
*Paper_Space
  0
ENDTAB
  0
TABLE
  2
DIMSTYLE
  5
A
100
AcDbSymbolTable
 70
1
100
AcDbDimStyleTable
 71
0
  0
DIMSTYLE
105
20B
100
AcDbSymbolTableRecord
100
AcDbDimStyleTableRecord
  2
STANDARD
 70
0
  3

  4

 40
1.0
 41
3.5
 42
0.0625
 43
0.38
 44
0.18
 45
0.0
 46
0.0
 47
0.005
 48
0.005
140
3.5
141
0.09
142
0.0
143
25.4
144
1.0
145
0.0
146
1.0
147
0.09
 71
1.0
 72
0.0
 73
0
 74
0
 75
0
 76
0
 77
1
 78
8
170
0
171
2
172
0
173
0
174
0
175
0
176
0
177
0
178
5
270
2
271
3
272
3
273
2
274
2
275
0
280
0
281
0
282
0
283
1
284
8
285
0
286
0
287
3
288
0
340
11
  0
ENDTAB
  0
ENDSEC
  0
SECTION
  2
BLOCKS
  0
BLOCK
  5
20
100
AcDbEntity
  8
0
100
AcDbBlockBegin
  2
*Model_Space
 70
0
 10
0.0
 20
0.0
 30
0.0
  3
*Model_Space
  1

  0
ENDBLK
  5
21
100
AcDbEntity
  8
0
100
AcDbBlockEnd
  0
BLOCK
  5
1C
100
AcDbEntity
  8
0
100
AcDbBlockBegin
  2
*Paper_Space
 70
0
 10
0.0
 20
0.0
 30
0.0
  3
*Paper_Space
  1

  0
ENDBLK
  5
1D
100
AcDbEntity
  8
0
100
AcDbBlockEnd
  0
ENDSEC
  0
SECTION
  2
ENTITIES
  0
MTEXT
  5
20C
100
AcDbEntity
  8
0
100
AcDbMText
 62
5
  6
CONTINUOUS
  7
STANDARD
 71
1
 72
1
 10
207.1583942018
 20
106.7066855707
 30
0.0
 11
0.0
 21
1.0
 31
0.0
 44
0.9
  1
RUD VWH 6
 40
4.0
 41
32.0
  0
LINE
  5
20D
100
AcDbEntity
  8
0
100
AcDbLine
 62
7
  6
CONTINUOUS
 10
0.0
 20
0.0
 11
0.0
 21
210.0
  0
LINE
  5
20E
100
AcDbEntity
  8
0
100
AcDbLine
 62
7
  6
CONTINUOUS
 10
0.0
 20
0.0
 11
297.0
 21
0.0
  0
LINE
  5
20F
100
AcDbEntity
  8
0
100
AcDbLine
 62
7
  6
CONTINUOUS
 10
0.0
 20
210.0
 11
297.0
 21
210.0
  0
LINE
  5
210
100
AcDbEntity
  8
0
100
AcDbLine
 62
7
  6
CONTINUOUS
 10
297.0
 20
0.0
 11
297.0
 21
210.0
  0
LINE
  5
211
100
AcDbEntity
  8
0
100
AcDbLine
 62
7
  6
CONTINUOUS
 10
99.2887507408
 20
55.0732360116
 11
99.7804789309
 21
55.1638085631
  0
LINE
  5
212
100
AcDbEntity
  8
0
100
AcDbLine
 62
7
  6
CONTINUOUS
 10
101.829345139
 20
55.5411939642
 11
102.4030305284
 21
55.6468624017
  0
LINE
  5
213
100
AcDbEntity
  8
0
100
AcDbLine
 62
7
  6
CONTINUOUS
 10
99.4567302314
 20
56.92147531
 11
100.8499613538
 21
57.1780977697
  0
LINE
  5
214
100
AcDbEntity
  8
0
100
AcDbLine
 62
7
  6
CONTINUOUS
 10
100.9213686333
 20
57.7104785917
 11
99.3642306153
 21
57.4236657421
  0
LINE
  5
215
100
AcDbEntity
  8
0
100
AcDbLine
 62
7
  6
CONTINUOUS
 10
104.3489270263
 20
56.2681857286
 11
104.7722733375
 21
56.3085981963
  0
LINE
  5
216
100
AcDbEntity
  8
0
100
AcDbLine
 62
7
  6
CONTINUOUS
 10
104.6230023078
 20
56.7969317192
 11
104.2793481009
 21
56.7808790755
  0
LINE
  5
217
100
AcDbEntity
  8
0
100
AcDbLine
 62
7
  6
CONTINUOUS
 10
88.4527804956
 20
57.0099987684
 11
88.8779311793
 21
57.020027332
  0
LINE
  5
218
100
AcDbEntity
  8
0
100
AcDbLine
 62
7
  6
CONTINUOUS
 10
86.1680706962
 20
55.6048985065
 11
86.6601794179
 21
55.5164168357
  0
LINE
  5
219
100
AcDbEntity
  8
0
100
AcDbLine
 62
7
  6
CONTINUOUS
 10
86.9764543306
 20
57.2754437807
 11
88.4527804956
 21
57.0099987684
  0
LINE
  5
21A
100
AcDbEntity
  8
0
100
AcDbLine
 62
7
  6
CONTINUOUS
 10
88.6251634903
 20
57.4978307708
 11
87.0668185793
 21
57.7780228408
  0
LINE
  5
21B
100
AcDbEntity
  8
0
100
AcDbLine
 62
7
  6
CONTINUOUS
 10
75.0922569288
 20
60.6969847671
 11
74.8359208498
 21
60.7605057028
  0
LINE
  5
21C
100
AcDbEntity
  8
0
100
AcDbLine
 62
7
  6
CONTINUOUS
 10
84.7491749526
 20
55.9842119208
 11
85.2332624069
 21
55.8590746499
  0
LINE
  5
21D
100
AcDbEntity
  8
0
100
AcDbLine
 62
7
  6
CONTINUOUS
 10
81.9009800643
 20
56.8656323615
 11
82.5312766816
 21
56.6484404783
  0
LINE
  5
21E
100
AcDbEntity
  8
0
100
AcDbLine
 62
7
  6
CONTINUOUS
 10
74.5358087081
 20
60.4475285935
 11
74.9323699782
 21
60.2939238222
  0
LINE
  5
21F
100
AcDbEntity
  8
0
100
AcDbLine
 62
7
  6
CONTINUOUS
 10
74.1852489499
 20
60.672736136
 11
74.5358087081
 21
60.4475285935
  0
LINE
  5
220
100
AcDbEntity
  8
0
100
AcDbLine
 62
7
  6
CONTINUOUS
 10
74.8359208498
 20
60.7605057028
 11
74.3451359045
 21
61.0757970871
  0
LINE
  5
221
100
AcDbEntity
  8
BEZUGSACHSEN
100
AcDbLine
 62
7
  6
CONTINUOUS
 10
54.1349993648
 20
74.6523651252
 11
46.7593488227
 21
95.1390226232
  0
LINE
  5
222
100
AcDbEntity
  8
RUNDUNGEN
100
AcDbLine
 62
7
  6
CONTINUOUS
 10
54.1349993648
 20
74.6523651252
 11
46.7593488227
 21
95.1390226232
  0
LINE
  5
223
100
AcDbEntity
  8
0
100
AcDbLine
 62
7
  6
CONTINUOUS
 10
108.0753341984
 20
61.7384842592
 11
107.6596039905
 21
61.6489093757
  0
LINE
  5
224
100
AcDbEntity
  8
0
100
AcDbLine
 62
7
  6
CONTINUOUS
 10
99.1329815319
 20
58.6791420569
 11
100.6901195499
 21
58.9659549065
  0
LINE
  5
225
100
AcDbEntity
  8
0
100
AcDbLine
 62
7
  6
CONTINUOUS
 10
100.5310830887
 20
59.3693517383
 11
98.5641703285
 21
59.0070615321
  0
LINE
  5
226
100
AcDbEntity
  8
0
100
AcDbLine
 62
7
  6
CONTINUOUS
 10
107.8648818475
 20
61.1813493149
 11
108.2043065133
 21
61.2374229662
  0
LINE
  5
227
100
AcDbEntity
  8
0
100
AcDbLine
 62
7
  6
CONTINUOUS
 10
88.8862785593
 20
57.5373531122
 11
88.6251634903
 21
57.4978307708
  0
LINE
  5
228
100
AcDbEntity
  8
0
100
AcDbLine
 62
7
  6
CONTINUOUS
 10
75.3945929111
 20
60.7050676274
 11
75.0922569288
 21
60.6969847671
  0
LINE
  5
229
100
AcDbEntity
  8
0
100
AcDbLine
 62
7
  6
CONTINUOUS
 10
74.7064620037
 20
62.5633112332
 11
75.0087979859
 21
62.5713940935
  0
LINE
  5
22A
100
AcDbEntity
  8
0
100
AcDbLine
 62
7
  6
CONTINUOUS
 10
75.1686865131
 20
62.9744539636
 11
74.5640145486
 21
62.958288243
  0
LINE
  5
22B
100
AcDbEntity
  8
0
100
AcDbLine
 62
7
  6
CONTINUOUS
 10
100.9562744337
 20
59.3611306896
 11
100.5310830887
 21
59.3693517383
  0
LINE
  5
22C
100
AcDbEntity
  8
0
100
AcDbLine
 62
7
  6
CONTINUOUS
 10
74.9323699782
 20
60.2939238222
 11
75.4209294581
 21
60.2835276865
  0
LINE
  5
22D
100
AcDbEntity
  8
0
100
AcDbLine
 62
7
  6
CONTINUOUS
 10
75.9506849962
 20
64.1917186964
 11
75.4621239237
 21
64.2021158818
  0
LINE
  5
22E
100
AcDbEntity
  8
0
100
AcDbLine
 62
7
  6
CONTINUOUS
 10
108.4489718403
 20
61.7166312337
 11
108.0753341984
 21
61.7384842592
  0
LINE
  5
22F
100
AcDbEntity
  8
0
100
AcDbLine
 62
7
  6
CONTINUOUS
 10
100.6901195499
 20
58.9659549065
 11
100.9514002477
 21
58.9275427769
  0
LINE
  5
230
100
AcDbEntity
  8
0
100
AcDbLine
 62
7
  6
CONTINUOUS
 10
103.980397959
 20
56.3335231323
 11
104.3489270263
 21
56.2681857286
  0
LINE
  5
231
100
AcDbEntity
  8
0
100
AcDbLine
 62
7
  6
CONTINUOUS
 10
87.2927292433
 20
59.0344707256
 11
88.8510741543
 21
58.7542786557
  0
LINE
  5
232
100
AcDbEntity
  8
0
100
AcDbLine
 62
7
  6
CONTINUOUS
 10
88.8443589489
 20
59.1878415968
 11
86.8759240623
 21
59.5417682798
  0
LINE
  5
233
100
AcDbEntity
  8
0
100
AcDbLine
 62
7
  6
CONTINUOUS
 10
75.0087979859
 20
62.5713940935
 11
75.265134065
 21
62.5078731578
  0
LINE
  5
234
100
AcDbEntity
  8
0
100
AcDbLine
 62
7
  6
CONTINUOUS
 10
75.790796469
 20
63.7886588263
 11
76.0471325481
 21
63.7251378906
  0
LINE
  5
235
100
AcDbEntity
  8
0
100
AcDbLine
 62
7
  6
CONTINUOUS
 10
86.2343605747
 20
59.7317742843
 11
85.7502731204
 21
59.8569115553
  0
LINE
  5
236
100
AcDbEntity
  8
0
100
AcDbLine
 62
7
  6
CONTINUOUS
 10
104.2793481009
 20
56.7808790755
 11
103.9905111249
 21
56.870576346
  0
LINE
  5
237
100
AcDbEntity
  8
0
100
AcDbLine
 62
7
  6
CONTINUOUS
 10
85.095015123
 20
59.9958304453
 11
84.6222935617
 21
60.158724047
  0
LINE
  5
238
100
AcDbEntity
  8
0
100
AcDbLine
 62
7
  6
CONTINUOUS
 10
82.4162608111
 20
60.9188937739
 11
81.9435392498
 21
61.0817873756
  0
LINE
  5
239
100
AcDbEntity
  8
0
100
AcDbLine
 62
7
  6
CONTINUOUS
 10
75.5652461744
 20
62.820850217
 11
75.1686865131
 21
62.9744539636
  0
LINE
  5
23A
100
AcDbEntity
  8
0
100
AcDbLine
 62
7
  6
CONTINUOUS
 10
76.3472446575
 20
64.0381149498
 11
75.9506849962
 21
64.1917186964
  0
LINE
  5
23B
100
AcDbEntity
  8
0
100
AcDbLine
 62
7
  6
CONTINUOUS
 10
89.2393882164
 20
59.030343807
 11
88.8443589489
 21
59.1878415968
  0
LINE
  5
23C
100
AcDbEntity
  8
0
100
AcDbLine
 62
7
  6
CONTINUOUS
 10
88.8510741543
 20
58.7542786557
 11
89.0820678071
 21
58.6262746437
  0
LINE
  5
23D
100
AcDbEntity
  8
0
100
AcDbLine
 62
7
  6
CONTINUOUS
 10
75.265134065
 20
62.5078731578
 11
75.7559190102
 21
62.1925817735
  0
LINE
  5
23E
100
AcDbEntity
  8
0
100
AcDbLine
 62
7
  6
CONTINUOUS
 10
75.9158059326
 20
62.5956426744
 11
75.5652461744
 21
62.820850217
  0
LINE
  5
23F
100
AcDbEntity
  8
0
100
AcDbLine
 62
7
  6
CONTINUOUS
 10
76.7527030194
 20
62.6649323459
 11
77.1032627776
 21
62.4397248033
  0
LINE
  5
240
100
AcDbEntity
  8
0
100
AcDbLine
 62
7
  6
CONTINUOUS
 10
76.0471325481
 20
63.7251378906
 11
76.4678048998
 21
63.4548884272
  0
LINE
  5
241
100
AcDbEntity
  8
0
100
AcDbLine
 62
7
  6
CONTINUOUS
 10
76.6276934269
 20
63.8579482972
 11
76.3472446575
 21
64.0381149498
  0
LINE
  5
242
100
AcDbEntity
  8
0
100
AcDbLine
 62
7
  6
CONTINUOUS
 10
73.8806890989
 20
60.9695474809
 11
74.1852489499
 21
60.672736136
  0
LINE
  5
243
100
AcDbEntity
  8
0
100
AcDbLine
 62
7
  6
CONTINUOUS
 10
76.2203673924
 20
62.2988303049
 11
75.9158059326
 21
62.5956426744
  0
LINE
  5
244
100
AcDbEntity
  8
0
100
AcDbLine
 62
7
  6
CONTINUOUS
 10
76.9322532819
 20
63.5611369586
 11
76.6276934269
 21
63.8579482972
  0
LINE
  5
245
100
AcDbEntity
  8
0
100
AcDbLine
 62
7
  6
CONTINUOUS
 10
66.4168850584
 20
67.3761397328
 11
66.7615561401
 21
67.0139217799
  0
LINE
  5
246
100
AcDbEntity
  8
0
100
AcDbLine
 62
7
  6
CONTINUOUS
 10
68.3700209689
 20
65.3235715631
 11
68.7146920506
 21
64.9613536101
  0
LINE
  5
247
100
AcDbEntity
  8
0
100
AcDbLine
 62
7
  6
CONTINUOUS
 10
68.1179467835
 20
68.3046049899
 11
69.7264116123
 21
66.6142547731
  0
LINE
  5
248
100
AcDbEntity
  8
0
100
AcDbLine
 62
7
  6
CONTINUOUS
 10
70.0963362861
 20
66.9662592401
 11
68.4878714573
 21
68.6566094569
  0
LINE
  5
249
100
AcDbEntity
  8
0
100
AcDbLine
 62
7
  6
CONTINUOUS
 10
71.6124356742
 20
67.7187222637
 11
71.2677645925
 21
68.0809402167
  0
LINE
  5
24A
100
AcDbEntity
  8
0
100
AcDbLine
 62
7
  6
CONTINUOUS
 10
69.6592997637
 20
69.7712904335
 11
69.314628682
 21
70.1335083864
  0
LINE
  5
24B
100
AcDbEntity
  8
0
100
AcDbLine
 62
7
  6
CONTINUOUS
 10
74.3451359045
 20
61.0757970871
 11
74.1807996318
 21
61.2825256149
  0
LINE
  5
24C
100
AcDbEntity
  8
0
100
AcDbLine
 62
7
  6
CONTINUOUS
 10
75.7559190102
 20
62.1925817735
 11
75.9202552829
 21
61.9858532457
  0
LINE
  5
24D
100
AcDbEntity
  8
0
100
AcDbLine
 62
7
  6
CONTINUOUS
 10
63.6726226107
 20
70.9812841153
 11
64.064450796
 21
70.4419182455
  0
LINE
  5
24E
100
AcDbEntity
  8
0
100
AcDbLine
 62
7
  6
CONTINUOUS
 10
64.8481066061
 20
69.3631872774
 11
65.2399347914
 21
68.8238214076
  0
LINE
  5
24F
100
AcDbEntity
  8
0
100
AcDbLine
 62
7
  6
CONTINUOUS
 10
68.8679563721
 20
70.6354239144
 11
68.5740853733
 21
71.0399481239
  0
LINE
  5
250
100
AcDbEntity
  8
0
100
AcDbLine
 62
7
  6
CONTINUOUS
 10
67.8883864694
 20
71.9838378173
 11
67.4965582841
 21
72.5232036871
  0
LINE
  5
251
100
AcDbEntity
  8
0
100
AcDbLine
 62
7
  6
CONTINUOUS
 10
66.8108593802
 20
73.4670933806
 11
66.5169883814
 21
73.8716175901
  0
LINE
  5
252
100
AcDbEntity
  8
0
100
AcDbLine
 62
7
  6
CONTINUOUS
 10
61.7079268583
 20
74.3071310759
 11
62.0251715097
 21
73.7207862775
  0
LINE
  5
253
100
AcDbEntity
  8
0
100
AcDbLine
 62
7
  6
CONTINUOUS
 10
74.474238615
 20
62.5101864521
 11
74.7064620037
 21
62.5633112332
  0
LINE
  5
254
100
AcDbEntity
  8
0
100
AcDbLine
 62
7
  6
CONTINUOUS
 10
75.4884604868
 20
63.780575966
 11
75.790796469
 21
63.7886588263
  0
LINE
  5
255
100
AcDbEntity
  8
0
100
AcDbLine
 62
7
  6
CONTINUOUS
 10
108.2043065133
 20
61.2374229662
 11
108.501642106
 21
61.182070242
  0
LINE
  5
256
100
AcDbEntity
  8
0
100
AcDbLine
 62
7
  6
CONTINUOUS
 10
108.8910354345
 20
61.5389248545
 11
108.4489718403
 21
61.7166312337
  0
LINE
  5
257
100
AcDbEntity
  8
0
100
AcDbLine
 62
7
  6
CONTINUOUS
 10
101.3303417846
 20
59.1704169442
 11
100.9562744337
 21
59.3611306896
  0
LINE
  5
258
100
AcDbEntity
  8
0
100
AcDbLine
 62
7
  6
CONTINUOUS
 10
103.5621082373
 20
56.5616372501
 11
103.980397959
 21
56.3335231323
  0
LINE
  5
259
100
AcDbEntity
  8
0
100
AcDbLine
 62
7
  6
CONTINUOUS
 10
89.5222791989
 20
58.7200663839
 11
89.2393882164
 21
59.030343807
  0
LINE
  5
25A
100
AcDbEntity
  8
0
100
AcDbLine
 62
7
  6
CONTINUOUS
 10
76.4678048998
 20
63.4548884272
 11
76.6321411724
 21
63.2481598994
  0
LINE
  5
25B
100
AcDbEntity
  8
0
100
AcDbLine
 62
7
  6
CONTINUOUS
 10
66.1777298127
 20
74.4515647021
 11
65.93979631
 21
74.8913233271
  0
LINE
  5
25C
100
AcDbEntity
  8
0
100
AcDbLine
 62
7
  6
CONTINUOUS
 10
64.8294400019
 20
76.9435301741
 11
64.5915064993
 21
77.3832887991
  0
LINE
  5
25D
100
AcDbEntity
  8
0
100
AcDbLine
 62
7
  6
CONTINUOUS
 10
73.6681274576
 20
61.4095674612
 11
73.8806890989
 21
60.9695474809
  0
LINE
  5
25E
100
AcDbEntity
  8
0
100
AcDbLine
 62
7
  6
CONTINUOUS
 10
76.432927441
 20
61.8588113743
 11
76.2203673924
 21
62.2988303049
  0
LINE
  5
25F
100
AcDbEntity
  8
0
100
AcDbLine
 62
7
  6
CONTINUOUS
 10
77.1448133305
 20
63.121118028
 11
76.9322532819
 21
63.5611369586
  0
LINE
  5
260
100
AcDbEntity
  8
0
100
AcDbLine
 62
7
  6
CONTINUOUS
 10
74.1807996318
 20
61.2825256149
 11
74.0624632624
 21
61.5608579386
  0
LINE
  5
261
100
AcDbEntity
  8
0
100
AcDbLine
 62
7
  6
CONTINUOUS
 10
75.9202552829
 20
61.9858532457
 11
76.0385916524
 21
61.707520922
  0
LINE
  5
262
100
AcDbEntity
  8
RUNDUNGEN
100
AcDbLine
 62
7
  6
CONTINUOUS
 10
132.9991287733
 20
78.8916586004
 11
123.1828895823
 21
78.0328489528
  0
LINE
  5
263
100
AcDbEntity
  8
0
100
AcDbLine
 62
7
  6
CONTINUOUS
 10
108.501642106
 20
61.182070242
 11
108.7568887216
 21
61.015290924
  0
LINE
  5
264
100
AcDbEntity
  8
0
100
AcDbLine
 62
7
  6
CONTINUOUS
 10
100.9514002477
 20
58.9275427769
 11
101.1461441002
 21
58.790337047
  0
LINE
  5
265
100
AcDbEntity
  8
0
100
AcDbLine
 62
7
  6
CONTINUOUS
 10
103.9905111249
 20
56.870576346
 11
103.7564914144
 21
57.0660234168
  0
LINE
  5
266
100
AcDbEntity
  8
0
100
AcDbLine
 62
7
  6
CONTINUOUS
 10
101.6378722903
 20
58.8809095986
 11
101.3303417846
 21
59.1704169442
  0
LINE
  5
267
100
AcDbEntity
  8
BEZUGSACHSEN
100
AcDbLine
 62
7
  6
CONTINUOUS
 10
56.0343146532
 20
100.667999763
 11
75.5519081042
 21
78.8387594204
  0
LINE
  5
268
100
AcDbEntity
  8
RUNDUNGEN
100
AcDbLine
 62
7
  6
CONTINUOUS
 10
56.0343146532
 20
100.667999763
 11
75.5519081042
 21
78.8387594204
  0
LINE
  5
269
100
AcDbEntity
  8
0
100
AcDbLine
 62
7
  6
CONTINUOUS
 10
89.0820678071
 20
58.6262746437
 11
89.2159820056
 21
58.4292545126
  0
LINE
  5
26A
100
AcDbEntity
  8
0
100
AcDbLine
 62
7
  6
CONTINUOUS
 10
76.6321411724
 20
63.2481598994
 11
76.7504775419
 21
62.9698275757
  0
LINE
  5
26B
100
AcDbEntity
  8
0
100
AcDbLine
 62
7
  6
CONTINUOUS
 10
76.0385916524
 20
61.707520922
 11
76.0868154283
 21
61.4742305191
  0
LINE
  5
26C
100
AcDbEntity
  8
0
100
AcDbLine
 62
7
  6
CONTINUOUS
 10
76.5052639073
 20
61.5088752545
 11
76.432927441
 21
61.8588113743
  0
LINE
  5
26D
100
AcDbEntity
  8
0
100
AcDbLine
 62
7
  6
CONTINUOUS
 10
73.6417909106
 20
61.8311074021
 11
73.6681274576
 21
61.4095674612
  0
LINE
  5
26E
100
AcDbEntity
  8
0
100
AcDbLine
 62
7
  6
CONTINUOUS
 10
77.1711498936
 20
62.6995781122
 11
77.1448133305
 21
63.121118028
  0
LINE
  5
26F
100
AcDbEntity
  8
0
100
AcDbLine
 62
7
  6
CONTINUOUS
 10
74.0624632624
 20
61.5608579386
 11
74.0602394218
 21
61.8657521876
  0
LINE
  5
270
100
AcDbEntity
  8
0
100
AcDbLine
 62
7
  6
CONTINUOUS
 10
62.0251715097
 20
73.7207862775
 11
66.1777298127
 21
74.4515647021
  0
LINE
  5
271
100
AcDbEntity
  8
0
100
AcDbLine
 62
7
  6
CONTINUOUS
 10
65.93979631
 20
74.8913233271
 11
62.3156643461
 21
74.2569546461
  0
LINE
  5
272
100
AcDbEntity
  8
RUNDUNGEN
100
AcDbLine
 62
7
  6
CONTINUOUS
 10
124.6517021236
 20
82.6785426679
 11
130.418486744
 21
83.1830709472
  0
LINE
  5
273
100
AcDbEntity
  8
0
100
AcDbLine
 62
7
  6
CONTINUOUS
 10
109.1804949304
 20
61.2942190781
 11
108.8910354345
 21
61.5389248545
  0
LINE
  5
274
100
AcDbEntity
  8
0
100
AcDbLine
 62
7
  6
CONTINUOUS
 10
103.3032100074
 20
56.8384732888
 11
103.5621082373
 21
56.5616372501
  0
LINE
  5
275
100
AcDbEntity
  8
0
100
AcDbLine
 62
7
  6
CONTINUOUS
 10
89.7080907273
 20
58.3407728418
 11
89.5222791989
 21
58.7200663839
  0
LINE
  5
276
100
AcDbEntity
  8
0
100
AcDbLine
 62
7
  6
CONTINUOUS
 10
76.7504775419
 20
62.9698275757
 11
76.7527030194
 21
62.6649323459
  0
LINE
  5
277
100
AcDbEntity
  8
RUNDUNGEN
100
AcDbLine
 62
7
  6
CONTINUOUS
 10
78.1888080962
 20
154.7232682258
 11
78.1888080962
 21
163.5020711766
  0
LINE
  5
278
100
AcDbEntity
  8
BEZUGSACHSEN
100
AcDbLine
 62
7
  6
CONTINUOUS
 10
78.1888080962
 20
155.0379695615
 11
78.1888080962
 21
170.5020709713
  0
LINE
  5
279
100
AcDbEntity
  8
0
100
AcDbLine
 62
7
  6
CONTINUOUS
 10
73.7315668765
 20
62.2792092431
 11
73.6417909106
 21
61.8311074021
  0
LINE
  5
27A
100
AcDbEntity
  8
RUNDUNGEN
100
AcDbLine
 62
7
  6
CONTINUOUS
 10
136.382554324
 20
84.5020711766
 11
136.1888080962
 21
84.5020711766
  0
LINE
  5
27B
100
AcDbEntity
  8
0
100
AcDbLine
 62
7
  6
CONTINUOUS
 10
108.7568887216
 20
61.015290924
 11
108.9700426754
 21
60.7370839154
  0
LINE
  5
27C
100
AcDbEntity
  8
0
100
AcDbLine
 62
7
  6
CONTINUOUS
 10
102.4030305284
 20
55.6468624017
 11
101.3108563385
 21
57.436067132
  0
LINE
  5
27D
100
AcDbEntity
  8
0
100
AcDbLine
 62
7
  6
CONTINUOUS
 10
100.8499613538
 20
57.1780977697
 11
101.829345139
 21
55.5411939642
  0
LINE
  5
27E
100
AcDbEntity
  8
0
100
AcDbLine
 62
7
  6
CONTINUOUS
 10
103.7564914144
 20
57.0660234168
 11
103.577281656
 21
57.3672181145
  0
LINE
  5
27F
100
AcDbEntity
  8
0
100
AcDbLine
 62
7
  6
CONTINUOUS
 10
101.1461441002
 20
58.790337047
 11
101.2743473561
 21
58.5543370259
  0
LINE
  5
280
100
AcDbEntity
  8
0
100
AcDbLine
 62
7
  6
CONTINUOUS
 10
101.7660755462
 20
58.6449095774
 11
101.6378722903
 21
58.8809095986
  0
LINE
  5
281
100
AcDbEntity
  8
0
100
AcDbLine
 62
7
  6
CONTINUOUS
 10
103.0991217469
 20
57.2210568976
 11
103.3032100074
 21
56.8384732888
  0
LINE
  5
282
100
AcDbEntity
  8
0
100
AcDbLine
 62
7
  6
CONTINUOUS
 10
82.3824877956
 20
57.2398158856
 11
82.4162608111
 21
60.9188937739
  0
LINE
  5
283
100
AcDbEntity
  8
0
100
AcDbLine
 62
7
  6
CONTINUOUS
 10
81.9435392498
 20
61.0817873756
 11
81.9009800643
 21
56.8656323615
  0
LINE
  5
284
100
AcDbEntity
  8
0
100
AcDbLine
 62
7
  6
CONTINUOUS
 10
76.4154879737
 20
61.0607734636
 11
76.5052639073
 21
61.5088752545
  0
LINE
  5
285
100
AcDbEntity
  8
0
100
AcDbLine
 62
7
  6
CONTINUOUS
 10
74.0602394218
 20
61.8657521876
 11
74.1281265379
 21
62.1256054966
  0
LINE
  5
286
100
AcDbEntity
  8
0
100
AcDbLine
 62
7
  6
CONTINUOUS
 10
76.0868154283
 20
61.4742305191
 11
76.0189282478
 21
61.2143771099
  0
LINE
  5
287
100
AcDbEntity
  8
0
100
AcDbLine
 62
7
  6
CONTINUOUS
 10
77.1032627776
 20
62.4397248033
 11
77.1711498936
 21
62.6995781122
  0
LINE
  5
288
100
AcDbEntity
  8
0
100
AcDbLine
 62
7
  6
CONTINUOUS
 10
109.4278619563
 20
60.9380851743
 11
109.1804949304
 21
61.2942190781
  0
LINE
  5
289
100
AcDbEntity
  8
0
100
AcDbLine
 62
7
  6
CONTINUOUS
 10
105.8283268671
 20
60.8449043401
 11
107.4363369384
 21
57.1823500933
  0
LINE
  5
28A
100
AcDbEntity
  8
0
100
AcDbLine
 62
7
  6
CONTINUOUS
 10
89.2159820056
 20
58.4292545126
 11
89.25281675
 21
58.1632182624
  0
LINE
  5
28B
100
AcDbEntity
  8
0
100
AcDbLine
 62
7
  6
CONTINUOUS
 10
89.7449254717
 20
58.0747365917
 11
89.7080907273
 21
58.3407728418
  0
LINE
  5
28C
100
AcDbEntity
  8
BEZUGSACHSEN
100
AcDbLine
 62
7
  6
CONTINUOUS
 10
90.6888080962
 20
170.5020711766
 11
90.6888080962
 21
163.5020711766
  0
LINE
  5
28D
100
AcDbEntity
  8
RUNDUNGEN
100
AcDbLine
 62
7
  6
CONTINUOUS
 10
90.6888080962
 20
163.5020711766
 11
90.6888080962
 21
155.0018136888
  0
LINE
  5
28E
100
AcDbEntity
  8
RUNDUNGEN
100
AcDbLine
 62
7
  6
CONTINUOUS
 10
92.1888080962
 20
62.1200042166
 11
92.1888080962
 21
52.1160424652
  0
LINE
  5
28F
100
AcDbEntity
  8
0
100
AcDbLine
 62
7
  6
CONTINUOUS
 10
86.8759240623
 20
59.5417682798
 11
86.1680706962
 21
55.6048985065
  0
LINE
  5
290
100
AcDbEntity
  8
0
100
AcDbLine
 62
7
  6
CONTINUOUS
 10
86.6601794179
 20
55.5164168357
 11
86.9764543306
 21
57.2754437807
  0
LINE
  5
291
100
AcDbEntity
  8
0
100
AcDbLine
 62
7
  6
CONTINUOUS
 10
87.0668185793
 20
57.7780228408
 11
87.2927292433
 21
59.0344707256
  0
LINE
  5
292
100
AcDbEntity
  8
0
100
AcDbLine
 62
7
  6
CONTINUOUS
 10
73.9834536697
 20
62.8254778364
 11
73.7315668765
 21
62.2792092431
  0
LINE
  5
293
100
AcDbEntity
  8
0
100
AcDbLine
 62
7
  6
CONTINUOUS
 10
65.8014277354
 20
69.643730898
 11
67.8883864694
 21
71.9838378173
  0
LINE
  5
294
100
AcDbEntity
  8
0
100
AcDbLine
 62
7
  6
CONTINUOUS
 10
67.0727757893
 20
71.803335446
 11
64.8481066061
 21
69.3631872774
  0
LINE
  5
295
100
AcDbEntity
  8
0
100
AcDbLine
 62
7
  6
CONTINUOUS
 10
62.3156643461
 20
74.2569546461
 11
64.8294400019
 21
76.9435301741
  0
LINE
  5
296
100
AcDbEntity
  8
0
100
AcDbLine
 62
7
  6
CONTINUOUS
 10
64.5915064993
 20
77.3832887991
 11
61.7079268583
 21
74.3071310759
  0
LINE
  5
297
100
AcDbEntity
  8
0
100
AcDbLine
 62
7
  6
CONTINUOUS
 10
66.5169883814
 20
73.8716175901
 11
63.6726226107
 21
70.9812841153
  0
LINE
  5
298
100
AcDbEntity
  8
0
100
AcDbLine
 62
7
  6
CONTINUOUS
 10
64.62594374
 20
71.2618277359
 11
66.8108593802
 21
73.4670933806
  0
LINE
  5
299
100
AcDbEntity
  8
RUNDUNGEN
100
AcDbLine
 62
7
  6
CONTINUOUS
 10
117.8780714293
 20
71.8128078436
 11
124.9398243396
 21
64.7510549332
  0
LINE
  5
29A
100
AcDbEntity
  8
0
100
AcDbLine
 62
7
  6
CONTINUOUS
 10
107.6888783383
 20
57.8509114677
 11
106.491424005
 21
60.5783455382
  0
LINE
  5
29B
100
AcDbEntity
  8
0
100
AcDbLine
 62
7
  6
CONTINUOUS
 10
108.9700426754
 20
60.7370839154
 11
109.4832373657
 21
59.5681836541
  0
LINE
  5
29C
100
AcDbEntity
  8
0
100
AcDbLine
 62
7
  6
CONTINUOUS
 10
109.9410566466
 20
59.769184913
 11
109.4278619563
 21
60.9380851743
  0
LINE
  5
29D
100
AcDbEntity
  8
0
100
AcDbLine
 62
7
  6
CONTINUOUS
 10
102.3278880789
 20
59.7441134804
 11
103.0991217469
 21
57.2210568976
  0
LINE
  5
29E
100
AcDbEntity
  8
0
100
AcDbLine
 62
7
  6
CONTINUOUS
 10
103.577281656
 20
57.3672181145
 11
102.806047988
 21
59.8902746973
  0
LINE
  5
29F
100
AcDbEntity
  8
0
100
AcDbLine
 62
7
  6
CONTINUOUS
 10
104.7186876244
 20
60.4749195651
 11
105.4899212924
 21
57.9518629823
  0
LINE
  5
2A0
100
AcDbEntity
  8
0
100
AcDbLine
 62
7
  6
CONTINUOUS
 10
105.9680812015
 20
58.0980241992
 11
105.1968475335
 21
60.6210807821
  0
LINE
  5
2A1
100
AcDbEntity
  8
0
100
AcDbLine
 62
7
  6
CONTINUOUS
 10
98.5641703285
 20
59.0070615321
 11
99.2887507408
 21
55.0732360116
  0
LINE
  5
2A2
100
AcDbEntity
  8
0
100
AcDbLine
 62
7
  6
CONTINUOUS
 10
99.7804789309
 20
55.1638085631
 11
99.4567302314
 21
56.92147531
  0
LINE
  5
2A3
100
AcDbEntity
  8
0
100
AcDbLine
 62
7
  6
CONTINUOUS
 10
99.3642306153
 20
57.4236657421
 11
99.1329815319
 21
58.6791420569
  0
LINE
  5
2A4
100
AcDbEntity
  8
0
100
AcDbLine
 62
7
  6
CONTINUOUS
 10
101.2743473561
 20
58.5543370259
 11
101.3205972073
 21
58.3032415754
  0
LINE
  5
2A5
100
AcDbEntity
  8
0
100
AcDbLine
 62
7
  6
CONTINUOUS
 10
101.8277420001
 20
58.3101157215
 11
101.7660755462
 21
58.6449095774
  0
LINE
  5
2A6
100
AcDbEntity
  8
0
100
AcDbLine
 62
7
  6
CONTINUOUS
 10
106.0127816095
 20
57.6667198132
 11
105.9680812015
 21
58.0980241992
  0
LINE
  5
2A7
100
AcDbEntity
  8
RUNDUNGEN
100
AcDbLine
 62
7
  6
CONTINUOUS
 10
96.1888080962
 20
52.1056427521
 11
96.1888080962
 21
62.1200042166
  0
LINE
  5
2A8
100
AcDbEntity
  8
RUNDUNGEN
100
AcDbLine
 62
7
  6
CONTINUOUS
 10
97.6888080962
 20
155.0017373143
 11
97.6888080962
 21
163.5020711766
  0
LINE
  5
2A9
100
AcDbEntity
  8
BEZUGSACHSEN
100
AcDbLine
 62
7
  6
CONTINUOUS
 10
97.6888080962
 20
163.5020711766
 11
97.6888080962
 21
170.5020711766
  0
LINE
  5
2AA
100
AcDbEntity
  8
0
100
AcDbLine
 62
7
  6
CONTINUOUS
 10
89.25281675
 20
58.1632182624
 11
89.2076345835
 21
57.9119284977
  0
LINE
  5
2AB
100
AcDbEntity
  8
0
100
AcDbLine
 62
7
  6
CONTINUOUS
 10
89.684682597
 20
57.7396836503
 11
89.7449254717
 21
58.0747365917
  0
LINE
  5
2AC
100
AcDbEntity
  8
0
100
AcDbLine
 62
7
  6
CONTINUOUS
 10
85.7502731204
 20
59.8569115553
 11
84.7491749526
 21
55.9842119208
  0
LINE
  5
2AD
100
AcDbEntity
  8
0
100
AcDbLine
 62
7
  6
CONTINUOUS
 10
85.2332624069
 20
55.8590746499
 11
86.2343605747
 21
59.7317742843
  0
LINE
  5
2AE
100
AcDbEntity
  8
0
100
AcDbLine
 62
7
  6
CONTINUOUS
 10
74.305452992
 20
63.3267044085
 11
73.9834536697
 21
62.8254778364
  0
LINE
  5
2AF
100
AcDbEntity
  8
0
100
AcDbLine
 62
7
  6
CONTINUOUS
 10
74.5640145486
 20
62.958288243
 11
74.656014355
 21
63.101495835
  0
LINE
  5
2B0
100
AcDbEntity
  8
0
100
AcDbLine
 62
7
  6
CONTINUOUS
 10
74.1281265379
 20
62.1256054966
 11
74.2661262474
 21
62.3404168846
  0
LINE
  5
2B1
100
AcDbEntity
  8
0
100
AcDbLine
 62
7
  6
CONTINUOUS
 10
76.0189282478
 20
61.2143771099
 11
75.8809285383
 21
60.9995657219
  0
LINE
  5
2B2
100
AcDbEntity
  8
0
100
AcDbLine
 62
7
  6
CONTINUOUS
 10
76.1854883933
 20
60.7027543833
 11
76.4154879737
 21
61.0607734636
  0
LINE
  5
2B3
100
AcDbEntity
  8
0
100
AcDbLine
 62
7
  6
CONTINUOUS
 10
69.314628682
 20
70.1335083864
 11
66.4168850584
 21
67.3761397328
  0
LINE
  5
2B4
100
AcDbEntity
  8
0
100
AcDbLine
 62
7
  6
CONTINUOUS
 10
66.7615561401
 20
67.0139217799
 11
68.1179467835
 21
68.3046049899
  0
LINE
  5
2B5
100
AcDbEntity
  8
0
100
AcDbLine
 62
7
  6
CONTINUOUS
 10
68.4878714573
 20
68.6566094569
 11
69.6592997637
 21
69.7712904335
  0
LINE
  5
2B6
100
AcDbEntity
  8
RUNDUNGEN
100
AcDbLine
 62
7
  6
CONTINUOUS
 10
125.7045869602
 20
126.8500026297
 11
117.2146061039
 21
119.2590836532
  0
LINE
  5
2B7
100
AcDbEntity
  8
RUNDUNGEN
100
AcDbLine
 62
7
  6
CONTINUOUS
 10
57.6039741367
 20
82.1862805898
 11
62.7075289766
 21
84.0438226404
  0
LINE
  5
2B8
100
AcDbEntity
  8
RUNDUNGEN
100
AcDbLine
 62
7
  6
CONTINUOUS
 10
136.1888080962
 20
106.5020711766
 11
136.382554324
 21
106.5020711766
  0
LINE
  5
2B9
100
AcDbEntity
  8
0
100
AcDbLine
 62
7
  6
CONTINUOUS
 10
110.0358194782
 20
59.3460518303
 11
109.9410566466
 21
59.769184913
  0
LINE
  5
2BA
100
AcDbEntity
  8
0
100
AcDbLine
 62
7
  6
CONTINUOUS
 10
105.4899212924
 20
57.9518629823
 11
105.5097431984
 21
57.6019475072
  0
LINE
  5
2BB
100
AcDbEntity
  8
0
100
AcDbLine
 62
7
  6
CONTINUOUS
 10
101.3205972073
 20
58.3032415754
 11
101.2848935675
 21
58.0370511644
  0
LINE
  5
2BC
100
AcDbEntity
  8
0
100
AcDbLine
 62
7
  6
CONTINUOUS
 10
101.7920383603
 20
58.0439253106
 11
101.8277420001
 21
58.3101157215
  0
LINE
  5
2BD
100
AcDbEntity
  8
0
100
AcDbLine
 62
7
  6
CONTINUOUS
 10
74.6975649079
 20
63.7828890597
 11
74.305452992
 21
63.3267044085
  0
LINE
  5
2BE
100
AcDbEntity
  8
0
100
AcDbLine
 62
7
  6
CONTINUOUS
 10
74.656014355
 20
63.101495835
 11
75.0021247629
 21
63.4860777211
  0
LINE
  5
2BF
100
AcDbEntity
  8
0
100
AcDbLine
 62
7
  6
CONTINUOUS
 10
71.2677645925
 20
68.0809402167
 11
70.0963362861
 21
66.9662592401
  0
LINE
  5
2C0
100
AcDbEntity
  8
0
100
AcDbLine
 62
7
  6
CONTINUOUS
 10
69.7264116123
 20
66.6142547731
 11
68.3700209689
 21
65.3235715631
  0
LINE
  5
2C1
100
AcDbEntity
  8
0
100
AcDbLine
 62
7
  6
CONTINUOUS
 10
68.7146920506
 20
64.9613536101
 11
71.6124356742
 21
67.7187222637
  0
LINE
  5
2C2
100
AcDbEntity
  8
RUNDUNGEN
100
AcDbLine
 62
7
  6
CONTINUOUS
 10
123.1589223929
 20
114.7421910631
 11
129.597983435
 21
120.7048269654
  0
LINE
  5
2C3
100
AcDbEntity
  8
RUNDUNGEN
100
AcDbLine
 62
7
  6
CONTINUOUS
 10
130.9400924302
 20
84.9726189856
 11
126.7227262989
 21
88.2087178363
  0
LINE
  5
2C4
100
AcDbEntity
  8
RUNDUNGEN
100
AcDbLine
 62
7
  6
CONTINUOUS
 10
122.4508932807
 20
76.4630778183
 11
126.5883496939
 21
70.5541776889
  0
LINE
  5
2C5
100
AcDbEntity
  8
0
100
AcDbLine
 62
7
  6
CONTINUOUS
 10
109.4832373657
 20
59.5681836541
 11
109.5437872212
 21
59.2229772482
  0
LINE
  5
2C6
100
AcDbEntity
  8
BEZUGSACHSEN
100
AcDbLine
 62
7
  6
CONTINUOUS
 10
110.1888080962
 20
170.5020711766
 11
110.1888080962
 21
163.5020711766
  0
LINE
  5
2C7
100
AcDbEntity
  8
RUNDUNGEN
100
AcDbLine
 62
7
  6
CONTINUOUS
 10
110.1888080962
 20
163.5020711766
 11
110.1888080962
 21
142.7195335706
  0
LINE
  5
2C8
100
AcDbEntity
  8
0
100
AcDbLine
 62
7
  6
CONTINUOUS
 10
110.0200638156
 20
58.9673441377
 11
110.0358194782
 21
59.3460518303
  0
LINE
  5
2C9
100
AcDbEntity
  8
0
100
AcDbLine
 62
7
  6
CONTINUOUS
 10
105.9529077828
 20
57.2924433348
 11
106.0127816095
 21
57.6667198132
  0
LINE
  5
2CA
100
AcDbEntity
  8
0
100
AcDbLine
 62
7
  6
CONTINUOUS
 10
89.2076345835
 20
57.9119284977
 11
89.0804355903
 21
57.6753856878
  0
LINE
  5
2CB
100
AcDbEntity
  8
0
100
AcDbLine
 62
7
  6
CONTINUOUS
 10
89.5574836039
 20
57.5031408403
 11
89.684682597
 21
57.7396836503
  0
LINE
  5
2CC
100
AcDbEntity
  8
0
100
AcDbLine
 62
7
  6
CONTINUOUS
 10
82.5312766816
 20
56.6484404783
 11
85.095015123
 21
59.9958304453
  0
LINE
  5
2CD
100
AcDbEntity
  8
0
100
AcDbLine
 62
7
  6
CONTINUOUS
 10
84.6222935617
 20
60.158724047
 11
82.3824877956
 21
57.2398158856
  0
LINE
  5
2CE
100
AcDbEntity
  8
0
100
AcDbLine
 62
7
  6
CONTINUOUS
 10
75.0021247629
 20
63.4860777211
 11
75.2102371949
 21
63.6558473888
  0
LINE
  5
2CF
100
AcDbEntity
  8
0
100
AcDbLine
 62
7
  6
CONTINUOUS
 10
74.2661262474
 20
62.3404168846
 11
74.474238615
 21
62.5101864521
  0
LINE
  5
2D0
100
AcDbEntity
  8
0
100
AcDbLine
 62
7
  6
CONTINUOUS
 10
75.8809285383
 20
60.9995657219
 11
75.6728162352
 21
60.8297962547
  0
LINE
  5
2D1
100
AcDbEntity
  8
RUNDUNGEN
100
AcDbLine
 62
7
  6
CONTINUOUS
 10
132.3695247092
 20
105.7664826624
 11
127.2424202055
 21
101.8323170065
  0
LINE
  5
2D2
100
AcDbEntity
  8
0
100
AcDbLine
 62
7
  6
CONTINUOUS
 10
75.067788135
 20
64.0508254295
 11
74.6975649079
 21
63.7828890597
  0
LINE
  5
2D3
100
AcDbEntity
  8
0
100
AcDbLine
 62
7
  6
CONTINUOUS
 10
68.5740853733
 20
71.0399481239
 11
65.8014277354
 21
69.643730898
  0
LINE
  5
2D4
100
AcDbEntity
  8
0
100
AcDbLine
 62
7
  6
CONTINUOUS
 10
65.2399347914
 20
68.8238214076
 11
68.8679563721
 21
70.6354239144
  0
LINE
  5
2D5
100
AcDbEntity
  8
0
100
AcDbLine
 62
7
  6
CONTINUOUS
 10
64.064450796
 20
70.4419182455
 11
67.0727757893
 21
71.803335446
  0
LINE
  5
2D6
100
AcDbEntity
  8
0
100
AcDbLine
 62
7
  6
CONTINUOUS
 10
67.4965582841
 20
72.5232036871
 11
64.62594374
 21
71.2618277359
  0
LINE
  5
2D7
100
AcDbEntity
  8
RUNDUNGEN
100
AcDbLine
 62
7
  6
CONTINUOUS
 10
124.8528273225
 20
109.0764905553
 11
131.9720880766
 21
107.5372518969
  0
LINE
  5
2D8
100
AcDbEntity
  8
RUNDUNGEN
100
AcDbLine
 62
7
  6
CONTINUOUS
 10
134.4427618632
 20
110.6926032277
 11
123.6270389007
 21
113.0310453043
  0
LINE
  5
2D9
100
AcDbEntity
  8
RUNDUNGEN
100
AcDbLine
 62
7
  6
CONTINUOUS
 10
130.444560845
 20
92.2365172383
 11
127.2227262989
 21
94.7087178363
  0
LINE
  5
2DA
100
AcDbEntity
  8
0
100
AcDbLine
 62
7
  6
CONTINUOUS
 10
109.5437872212
 20
59.2229772482
 11
109.4938185584
 21
58.922196287
  0
LINE
  5
2DB
100
AcDbEntity
  8
0
100
AcDbLine
 62
7
  6
CONTINUOUS
 10
105.5097431984
 20
57.6019475072
 11
105.4249908521
 21
57.3090599969
  0
LINE
  5
2DC
100
AcDbEntity
  8
0
100
AcDbLine
 62
7
  6
CONTINUOUS
 10
101.607840676
 20
57.6638454134
 11
101.7920383603
 21
58.0439253106
  0
LINE
  5
2DD
100
AcDbEntity
  8
RUNDUNGEN
100
AcDbLine
 62
7
  6
CONTINUOUS
 10
127.2227262989
 20
96.2954245169
 11
130.444560845
 21
98.7676251149
  0
LINE
  5
2DE
100
AcDbEntity
  8
0
100
AcDbLine
 62
7
  6
CONTINUOUS
 10
75.8152652628
 20
60.4348181639
 11
76.1854883933
 21
60.7027543833
  0
LINE
  5
2DF
100
AcDbEntity
  8
BEZUGSACHSEN
100
AcDbLine
 62
7
  6
CONTINUOUS
 10
112.8257080883
 20
112.1653829329
 11
85.8518569176
 21
142.3339937122
  0
LINE
  5
2E0
100
AcDbEntity
  8
RUNDUNGEN
100
AcDbLine
 62
7
  6
CONTINUOUS
 10
112.8257080883
 20
112.1653829329
 11
80.7340746805
 21
148.0579216522
  0
LINE
  5
2E1
100
AcDbEntity
  8
0
100
AcDbLine
 62
7
  6
CONTINUOUS
 10
109.8517040426
 20
58.521637075
 11
110.0200638156
 21
58.9673441377
  0
LINE
  5
2E2
100
AcDbEntity
  8
0
100
AcDbLine
 62
7
  6
CONTINUOUS
 10
105.7336497429
 20
56.8694472228
 11
105.9529077828
 21
57.2924433348
  0
LINE
  5
2E3
100
AcDbEntity
  8
0
100
AcDbLine
 62
7
  6
CONTINUOUS
 10
101.2848935675
 20
58.0370511644
 11
101.1518161257
 21
57.8394632728
  0
LINE
  5
2E4
100
AcDbEntity
  8
0
100
AcDbLine
 62
7
  6
CONTINUOUS
 10
89.2511864106
 20
57.212328969
 11
89.5574836039
 21
57.5031408403
  0
LINE
  5
2E5
100
AcDbEntity
  8
0
100
AcDbLine
 62
7
  6
CONTINUOUS
 10
89.0804355903
 20
57.6753856878
 11
88.8862785593
 21
57.5373531122
  0
LINE
  5
2E6
100
AcDbEntity
  8
0
100
AcDbLine
 62
7
  6
CONTINUOUS
 10
75.2102371949
 20
63.6558473888
 11
75.4884604868
 21
63.780575966
  0
LINE
  5
2E7
100
AcDbEntity
  8
0
100
AcDbLine
 62
7
  6
CONTINUOUS
 10
75.6728162352
 20
60.8297962547
 11
75.3945929111
 21
60.7050676274
  0
LINE
  5
2E8
100
AcDbEntity
  8
0
100
AcDbLine
 62
7
  6
CONTINUOUS
 10
75.4621239237
 20
64.2021158818
 11
75.067788135
 21
64.0508254295
  0
LINE
  5
2E9
100
AcDbEntity
  8
0
100
AcDbLine
 62
7
  6
CONTINUOUS
 10
75.4209294581
 20
60.2835276865
 11
75.8152652628
 21
60.4348181639
  0
LINE
  5
2EA
100
AcDbEntity
  8
RUNDUNGEN
100
AcDbLine
 62
7
  6
CONTINUOUS
 10
105.3740086987
 20
133.5020711766
 11
115.8872980607
 21
133.5020711766
  0
LINE
  5
2EB
100
AcDbEntity
  8
RUNDUNGEN
100
AcDbLine
 62
7
  6
CONTINUOUS
 10
115.8025976339
 20
119.3380271826
 11
104.628532699
 21
131.8355387064
  0
LINE
  5
2EC
100
AcDbEntity
  8
RUNDUNGEN
100
AcDbLine
 62
7
  6
CONTINUOUS
 10
125.6939661557
 20
102.2836502034
 11
123.7018099052
 21
107.7570545177
  0
LINE
  5
2ED
100
AcDbEntity
  8
RUNDUNGEN
100
AcDbLine
 62
7
  6
CONTINUOUS
 10
132.053322274
 20
97.9742717746
 11
132.053322274
 21
93.0298705786
  0
LINE
  5
2EE
100
AcDbEntity
  8
RUNDUNGEN
100
AcDbLine
 62
7
  6
CONTINUOUS
 10
125.1900853374
 20
87.7980479284
 11
123.6406668484
 21
84.0574207984
  0
LINE
  5
2EF
100
AcDbEntity
  8
0
100
AcDbLine
 62
7
  6
CONTINUOUS
 10
109.4938185584
 20
58.922196287
 11
109.3333348943
 21
58.6658422493
  0
LINE
  5
2F0
100
AcDbEntity
  8
0
100
AcDbLine
 62
7
  6
CONTINUOUS
 10
105.4249908521
 20
57.3090599969
 11
105.2356679191
 21
57.0732015094
  0
LINE
  5
2F1
100
AcDbEntity
  8
0
100
AcDbLine
 62
7
  6
CONTINUOUS
 10
109.6149183143
 20
58.2317833728
 11
109.8517040426
 21
58.521637075
  0
LINE
  5
2F2
100
AcDbEntity
  8
0
100
AcDbLine
 62
7
  6
CONTINUOUS
 10
101.3108563385
 20
57.436067132
 11
101.607840676
 21
57.6638454134
  0
LINE
  5
2F3
100
AcDbEntity
  8
0
100
AcDbLine
 62
7
  6
CONTINUOUS
 10
88.8779311793
 20
57.020027332
 11
89.2511864106
 21
57.212328969
  0
LINE
  5
2F4
100
AcDbEntity
  8
RUNDUNGEN
100
AcDbLine
 62
7
  6
CONTINUOUS
 10
116.3598488256
 20
133.3833746287
 11
125.5106052548
 21
128.4767820815
  0
LINE
  5
2F5
100
AcDbEntity
  8
RUNDUNGEN
100
AcDbLine
 62
7
  6
CONTINUOUS
 10
135.1888080962
 20
85.5020711766
 11
135.1888080962
 21
105.5020711766
  0
LINE
  5
2F6
100
AcDbEntity
  8
0
100
AcDbLine
 62
7
  6
CONTINUOUS
 10
105.4646346969
 20
56.6092289398
 11
105.7336497429
 21
56.8694472228
  0
LINE
  5
2F7
100
AcDbEntity
  8
0
100
AcDbLine
 62
7
  6
CONTINUOUS
 10
109.3333348943
 20
58.6658422493
 11
109.0623361809
 21
58.4539152444
  0
LINE
  5
2F8
100
AcDbEntity
  8
0
100
AcDbLine
 62
7
  6
CONTINUOUS
 10
109.2676140618
 20
57.9863551289
 11
109.6149183143
 21
58.2317833728
  0
LINE
  5
2F9
100
AcDbEntity
  8
0
100
AcDbLine
 62
7
  6
CONTINUOUS
 10
105.2356679191
 20
57.0732015094
 11
104.9417743645
 21
56.8943721588
  0
LINE
  5
2FA
100
AcDbEntity
  8
0
100
AcDbLine
 62
7
  6
CONTINUOUS
 10
101.1518161257
 20
57.8394632728
 11
100.9213686333
 21
57.7104785917
  0
LINE
  5
2FB
100
AcDbEntity
  8
0
100
AcDbLine
 62
7
  6
CONTINUOUS
 10
105.0910453942
 20
56.4060386359
 11
105.4646346969
 21
56.6092289398
  0
LINE
  5
2FC
100
AcDbEntity
  8
0
100
AcDbLine
 62
7
  6
CONTINUOUS
 10
107.6596039905
 20
61.6489093757
 11
105.8283268671
 21
60.8449043401
  0
LINE
  5
2FD
100
AcDbEntity
  8
0
100
AcDbLine
 62
7
  6
CONTINUOUS
 10
106.491424005
 20
60.5783455382
 11
107.8648818475
 21
61.1813493149
  0
LINE
  5
2FE
100
AcDbEntity
  8
0
100
AcDbLine
 62
7
  6
CONTINUOUS
 10
109.0623361809
 20
58.4539152444
 11
107.6888783383
 21
57.8509114677
  0
LINE
  5
2FF
100
AcDbEntity
  8
0
100
AcDbLine
 62
7
  6
CONTINUOUS
 10
105.1968475335
 20
60.6210807821
 11
104.7186876244
 21
60.4749195651
  0
LINE
  5
300
100
AcDbEntity
  8
0
100
AcDbLine
 62
7
  6
CONTINUOUS
 10
102.806047988
 20
59.8902746973
 11
102.3278880789
 21
59.7441134804
  0
LINE
  5
301
100
AcDbEntity
  8
RUNDUNGEN
100
AcDbLine
 62
7
  6
CONTINUOUS
 10
131.1620057145
 20
120.4374837412
 11
135.5386676349
 21
112.1364057623
  0
LINE
  5
302
100
AcDbEntity
  8
RUNDUNGEN
100
AcDbLine
 62
7
  6
CONTINUOUS
 10
128.1735461813
 20
70.4849665155
 11
133.8523289592
 21
77.2526762927
  0
LINE
  5
303
100
AcDbEntity
  8
0
100
AcDbLine
 62
7
  6
CONTINUOUS
 10
107.4363369384
 20
57.1823500933
 11
109.2676140618
 21
57.9863551289
  0
LINE
  5
304
100
AcDbEntity
  8
0
100
AcDbLine
 62
7
  6
CONTINUOUS
 10
104.9417743645
 20
56.8943721588
 11
104.6230023078
 21
56.7969317192
  0
LINE
  5
305
100
AcDbEntity
  8
0
100
AcDbLine
 62
7
  6
CONTINUOUS
 10
104.7722733375
 20
56.3085981963
 11
105.0910453942
 21
56.4060386359
  0
LINE
  5
306
100
AcDbEntity
  8
BEZUGSACHSEN
100
AcDbLine
 62
7
  6
CONTINUOUS
 10
97.6888080962
 20
160.6020711766
 11
90.6888080962
 21
160.6020711766
  0
LINE
  5
307
100
AcDbEntity
  8
BEZUGSACHSEN
100
AcDbLine
 62
7
  6
CONTINUOUS
 10
90.6888080962
 20
168.0020711766
 11
97.6888080962
 21
168.0020711766
  0
LINE
  5
308
100
AcDbEntity
  8
RUNDUNGEN
100
AcDbLine
 62
7
  6
CONTINUOUS
 10
80.1888082631
 20
172.5020711766
 11
88.6888080962
 21
172.5020711766
  0
LINE
  5
309
100
AcDbEntity
  8
RUNDUNGEN
100
AcDbLine
 62
7
  6
CONTINUOUS
 10
99.6888080962
 20
172.5020711766
 11
108.1888080962
 21
172.5020711766
  0
LWPOLYLINE
  5
30A
100
AcDbEntity
  8
RUNDUNGEN
100
AcDbPolyline
 62
7
  6
CONTINUOUS
 90
32
 70
0
 10
211.2992240565
 20
46.5020711595
 10
211.5154172213
 20
46.5076079731
 10
211.8969440024
 20
46.544576079
 10
212.2667615198
 20
46.6143642137
 10
212.6215274948
 20
46.7143294783
 10
212.9586358513
 20
46.8415466047
 10
213.2759058222
 20
46.9928426192
 10
213.5722620663
 20
47.1652726053
 10
213.8447215087
 20
47.3542813529
 10
214.0916632358
 20
47.5552110311
 10
214.3124057059
 20
47.7633730989
 10
214.5069566678
 20
47.9740681311
 10
214.6758269705
 20
48.1825460886
 10
214.8197156919
 20
48.3836727671
 10
214.9414120189
 20
48.575044182
 10
215.0429161568
 20
48.7534880126
 10
215.1276522517
 20
48.9189694712
 10
215.1981868474
 20
49.071042087
 10
215.2572040863
 20
49.2106384738
 10
215.3068268894
 20
49.3386116611
 10
215.3490377757
 20
49.4565744881
 10
215.3854573805
 20
49.5662309154
 10
215.4173492933
 20
49.6691328157
 10
215.4458623565
 20
49.7672496146
 10
215.4716611253
 20
49.8615191344
 10
215.4954266105
 20
49.9533675021
 10
215.5175318814
 20
50.0434020485
 10
215.538340108
 20
50.1324207645
 10
215.5581465061
 20
50.2211524483
 10
215.5772299447
 20
50.3104450655
 10
215.5957496314
 20
50.4007424781
 10
215.6039684484
 20
50.4419798168
  0
LINE
  5
30B
100
AcDbEntity
  8
BEZUGSACHSEN
100
AcDbLine
 62
7
  6
CONTINUOUS
 10
211.2992255518
 20
46.5020711766
 11
206.7385654188
 21
46.5020711766
  0
LINE
  5
30C
100
AcDbEntity
  8
0
100
AcDbLine
 62
7
  6
CONTINUOUS
 10
206.738565024
 20
46.5020711766
 11
211.2992259466
 21
46.5020711766
  0
LINE
  5
30D
100
AcDbEntity
  8
BEZUGSACHSEN
100
AcDbLine
 62
7
  6
CONTINUOUS
 10
199.7509644057
 20
154.0380009337
 11
198.2868494523
 21
151.5020794464
  0
LINE
  5
30E
100
AcDbEntity
  8
RUNDUNGEN
100
AcDbLine
 62
7
  6
CONTINUOUS
 10
219.4331090477
 20
144.416284739
 11
217.2380633723
 21
142.2212390637
  0
LWPOLYLINE
  5
30F
100
AcDbEntity
  8
BEZUGSACHSEN
100
AcDbPolyline
 62
7
  6
CONTINUOUS
 90
30
 70
0
 10
202.4506638794
 20
50.3582507908
 10
202.4699893843
 20
50.2658574045
 10
202.4900038036
 20
50.1742486027
 10
202.5109605829
 20
50.0826591296
 10
202.5330941311
 20
49.990570147
 10
202.5568408155
 20
49.8968279027
 10
202.5826578693
 20
49.8004996075
 10
202.6111631545
 20
49.7003962998
 10
202.6430226734
 20
49.5955715887
 10
202.6792890305
 20
49.4843225985
 10
202.7211442521
 20
49.3652522674
 10
202.7700965823
 20
49.2368196118
 10
202.8278915902
 20
49.0977721927
 10
202.8967624668
 20
48.9467149459
 10
202.9794319546
 20
48.782417557
 10
203.0785300293
 20
48.6050585904
 10
203.1975361059
 20
48.4144696074
 10
203.338733429
 20
48.2134144561
 10
203.5053725237
 20
48.0038412953
 10
203.6981687569
 20
47.7911849114
 10
203.9177762712
 20
47.5803243402
 10
204.1642643692
 20
47.3761709207
 10
204.4370137191
 20
47.1836064684
 10
204.7343519954
 20
47.0075344967
 10
205.0531916513
 20
46.8527320174
 10
205.3923884109
 20
46.7222739586
 10
205.7496271529
 20
46.61945801
 10
206.1222130878
 20
46.5472818922
 10
206.5066503254
 20
46.5084432428
 10
206.7385669155
 20
46.5020711596
  0
LINE
  5
310
100
AcDbEntity
  8
BEZUGSACHSEN
100
AcDbLine
 62
7
  6
CONTINUOUS
 10
199.4836533898
 20
65.2225796343
 11
199.8156118277
 21
63.5903809243
  0
LINE
  5
311
100
AcDbEntity
  8
BEZUGSACHSEN
100
AcDbLine
 62
7
  6
CONTINUOUS
 10
202.2310607021
 20
51.4681264331
 11
202.4506638794
 21
50.3582507908
  0
LINE
  5
312
100
AcDbEntity
  8
BEZUGSACHSEN
100
AcDbLine
 62
7
  6
CONTINUOUS
 10
198.559168282
 20
80.1679427711
 11
198.7879150227
 21
77.0416153474
  0
LINE
  5
313
100
AcDbEntity
  8
BEZUGSACHSEN
100
AcDbLine
 62
7
  6
CONTINUOUS
 10
198.3364531687
 20
83.4294444608
 11
198.559168282
 21
80.1679427711
  0
LINE
  5
314
100
AcDbEntity
  8
BEZUGSACHSEN
100
AcDbLine
 62
7
  6
CONTINUOUS
 10
198.1534984967
 20
86.3317426972
 11
198.3364531687
 21
83.4294444608
  0
LINE
  5
315
100
AcDbEntity
  8
BEZUGSACHSEN
100
AcDbLine
 62
7
  6
CONTINUOUS
 10
198.0169443795
 20
88.6830691468
 11
198.1534984967
 21
86.3317426972
  0
LINE
  5
316
100
AcDbEntity
  8
BEZUGSACHSEN
100
AcDbLine
 62
7
  6
CONTINUOUS
 10
197.8844075902
 20
91.1842581565
 11
198.0169443795
 21
88.6830691468
  0
LINE
  5
317
100
AcDbEntity
  8
BEZUGSACHSEN
100
AcDbLine
 62
7
  6
CONTINUOUS
 10
197.8003146111
 20
92.9333776473
 11
197.8844075902
 21
91.1842581565
  0
LINE
  5
318
100
AcDbEntity
  8
BEZUGSACHSEN
100
AcDbLine
 62
7
  6
CONTINUOUS
 10
197.7214262427
 20
94.7454234786
 11
197.8003146111
 21
92.9333776473
  0
LINE
  5
319
100
AcDbEntity
  8
BEZUGSACHSEN
100
AcDbLine
 62
7
  6
CONTINUOUS
 10
197.6496232421
 20
96.6178851076
 11
197.7214262427
 21
94.7454234786
  0
LWPOLYLINE
  5
31A
100
AcDbEntity
  8
BEZUGSACHSEN
100
AcDbPolyline
 62
7
  6
CONTINUOUS
 90
12
 70
0
 10
198.7435925522
 20
75.5326388817
 10
198.7446262412
 20
74.3805301024
 10
198.765076957
 20
73.1044579616
 10
198.8058661906
 20
71.8517139074
 10
198.8653794355
 20
70.6539033391
 10
198.9409535199
 20
69.5322185482
 10
199.0291702353
 20
68.5032669922
 10
199.1260657383
 20
67.5801862929
 10
199.2281164259
 20
66.7669383478
 10
199.3316386363
 20
66.0671999851
 10
199.4363212272
 20
65.4643997624
 10
199.4836516606
 20
65.2225883177
  0
LINE
  5
31B
100
AcDbEntity
  8
BEZUGSACHSEN
100
AcDbLine
 62
7
  6
CONTINUOUS
 10
198.0188954853
 20
150.5020711772
 11
198.0188954853
 21
145.8304983013
  0
LINE
  5
31C
100
AcDbEntity
  8
BEZUGSACHSEN
100
AcDbLine
 62
7
  6
CONTINUOUS
 10
198.7437055101
 20
75.5510152018
 11
198.743593109
 21
75.5327298755
  0
LWPOLYLINE
  5
31D
100
AcDbEntity
  8
BEZUGSACHSEN
100
AcDbPolyline
 62
7
  6
CONTINUOUS
 90
18
 70
0
 10
198.0136981915
 20
115.0401078551
 10
197.9115881872
 20
114.1314474662
 10
197.812298005
 20
113.0828657028
 10
197.7298554006
 20
112.0277936318
 10
197.6624339715
 20
110.968020963
 10
197.6084661151
 20
109.9056839952
 10
197.5665672044
 20
108.8430388513
 10
197.5354861925
 20
107.7820376047
 10
197.5140966755
 20
106.7245026595
 10
197.5013791216
 20
105.6720214322
 10
197.4964110512
 20
104.6260571923
 10
197.4983555349
 20
103.5878650993
 10
197.5064531628
 20
102.5585630715
 10
197.5200153346
 20
101.5390492798
 10
197.5384140611
 20
100.5302710504
 10
197.5610808798
 20
99.5328687036
 10
197.5874869
 20
98.5478429992
 10
197.6496232421
 20
96.6178851076
  0
LWPOLYLINE
  5
31E
100
AcDbEntity
  8
BEZUGSACHSEN
100
AcDbPolyline
 62
7
  6
CONTINUOUS
 90
7
 70
0
 10
201.5875141569
 20
139.8137082633
 10
200.9454369522
 20
135.9324675767
 10
200.3111841424
 20
131.9028798487
 10
199.7022300115
 20
127.8228452209
 10
199.1187727331
 20
123.6825138082
 10
198.561376834
 20
119.4714360127
 10
198.0136759423
 20
115.0399246358
  0
LINE
  5
31F
100
AcDbEntity
  8
BEZUGSACHSEN
100
AcDbLine
 62
7
  6
CONTINUOUS
 10
200.0188954853
 20
155.0379696117
 11
200.0188954853
 21
163.5020675041
  0
LWPOLYLINE
  5
320
100
AcDbEntity
  8
BEZUGSACHSEN
100
AcDbPolyline
 62
7
  6
CONTINUOUS
 90
4
 70
0
 10
199.430574158
 20
84.2317812906
 10
199.0551453241
 20
81.2790324574
 10
198.8266102087
 20
78.3464237892
 10
198.7437043042
 20
75.5508221865
  0
LWPOLYLINE
  5
321
100
AcDbEntity
  8
BEZUGSACHSEN
100
AcDbPolyline
 62
7
  6
CONTINUOUS
 90
6
 70
0
 10
203.4814326732
 20
99.1751400681
 10
202.4119908735
 20
96.2429854393
 10
201.444386177
 20
93.2099608658
 10
200.6250431231
 20
90.1972005682
 10
199.9537900708
 20
87.2045398449
 10
199.430574158
 20
84.2317812906
  0
LINE
  5
322
100
AcDbEntity
  8
BEZUGSACHSEN
100
AcDbLine
 62
7
  6
CONTINUOUS
 10
203.4815044111
 20
99.1753254072
 11
203.4814326732
 21
99.1751400681
  0
LWPOLYLINE
  5
323
100
AcDbEntity
  8
RUNDUNGEN
100
AcDbPolyline
 62
7
  6
CONTINUOUS
 90
18
 70
0
 10
214.5562852399
 20
99.1753288158
 10
214.4790475005
 20
99.3649593571
 10
214.3513361727
 20
99.642522111
 10
214.2053690978
 20
99.9184686886
 10
214.0397947436
 20
100.1917878044
 10
213.853911808
 20
100.4603455752
 10
213.646083382
 20
100.7233209504
 10
213.4153350154
 20
100.9787128345
 10
213.1603642165
 20
101.2247141265
 10
212.8802952403
 20
101.4588464952
 10
212.5740569047
 20
101.6785745643
 10
212.2405672422
 20
101.8810105214
 10
211.8803570856
 20
102.0620893255
 10
211.4938351368
 20
102.2178680433
 10
211.0832552338
 20
102.3437766074
 10
210.6512327312
 20
102.4355469405
 10
210.2011190178
 20
102.4891420521
 10
209.8445819115
 20
102.5020711748
  0
LINE
  5
324
100
AcDbEntity
  8
RUNDUNGEN
100
AcDbLine
 62
7
  6
CONTINUOUS
 10
214.5562852395
 20
99.175328817
 11
214.5563582974
 21
99.1751400681
  0
LWPOLYLINE
  5
325
100
AcDbEntity
  8
RUNDUNGEN
100
AcDbPolyline
 62
7
  6
CONTINUOUS
 90
3
 70
0
 10
219.2940866664
 20
75.5508221865
 10
219.2111807619
 20
78.3464237892
 10
218.9826456465
 20
81.2790324574
  0
LINE
  5
326
100
AcDbEntity
  8
RUNDUNGEN
100
AcDbLine
 62
7
  6
CONTINUOUS
 10
218.0188954853
 20
155.0379696117
 11
218.0188954853
 21
163.5020675041
  0
LWPOLYLINE
  5
327
100
AcDbEntity
  8
RUNDUNGEN
100
AcDbPolyline
 62
7
  6
CONTINUOUS
 90
7
 70
0
 10
218.9826456465
 20
81.2790324574
 10
218.6072168126
 20
84.2317812906
 10
218.0840008998
 20
87.2045398449
 10
217.4127478475
 20
90.1972005682
 10
216.5934047936
 20
93.2099608658
 10
215.6258000971
 20
96.2429854393
 10
214.5563582974
 20
99.1751400681
  0
LWPOLYLINE
  5
328
100
AcDbEntity
  8
RUNDUNGEN
100
AcDbPolyline
 62
7
  6
CONTINUOUS
 90
9
 70
0
 10
216.4502257385
 20
139.8140095645
 10
216.4178733506
 20
140.1171746056
 10
216.4255367718
 20
140.4735537379
 10
216.4777260526
 20
140.8170430469
 10
216.5696348401
 20
141.1454915186
 10
216.6976966301
 20
141.4563320394
 10
216.8601437125
 20
141.7485473789
 10
217.0575712951
 20
142.0217624649
 10
217.2380633694
 20
142.2212390666
  0
LINE
  5
329
100
AcDbEntity
  8
RUNDUNGEN
100
AcDbLine
 62
7
  6
CONTINUOUS
 10
219.2941985836
 20
75.5326116932
 11
219.2940875709
 21
75.5506739124
  0
LINE
  5
32A
100
AcDbEntity
  8
RUNDUNGEN
100
AcDbLine
 62
7
  6
CONTINUOUS
 10
220.0188954853
 20
150.5020711772
 11
220.0188954853
 21
145.8304983013
  0
LINE
  5
32B
100
AcDbEntity
  8
RUNDUNGEN
100
AcDbLine
 62
7
  6
CONTINUOUS
 10
219.2932220436
 20
74.3877574371
 11
219.2941984543
 21
75.5326330158
  0
LWPOLYLINE
  5
32C
100
AcDbEntity
  8
RUNDUNGEN
100
AcDbPolyline
 62
7
  6
CONTINUOUS
 90
17
 70
0
 10
220.5049593095
 20
100.8104191592
 10
220.5199239425
 20
101.6775072251
 10
220.5312717396
 20
102.5523847099
 10
220.5386048127
 20
103.434477779
 10
220.5414921293
 20
104.3232180781
 10
220.5394649957
 20
105.217925379
 10
220.5320140691
 20
106.1178434216
 10
220.5185858058
 20
107.0221064179
 10
220.4985775812
 20
107.9297846459
 10
220.4713334632
 20
108.8398270108
 10
220.4361376139
 20
109.7511010908
 10
220.3922095606
 20
110.66233794
 10
220.3386913762
 20
111.5722354757
 10
220.27464595
 20
112.4793056078
 10
220.1990238934
 20
113.382172187
 10
220.1106190847
 20
114.2797113161
 10
220.0240981855
 20
115.0400633495
  0
LINE
  5
32D
100
AcDbEntity
  8
RUNDUNGEN
100
AcDbLine
 62
7
  6
CONTINUOUS
 10
220.4656173905
 20
99.10145145
 11
220.5049593095
 21
100.8104191592
  0
LINE
  5
32E
100
AcDbEntity
  8
RUNDUNGEN
100
AcDbLine
 62
7
  6
CONTINUOUS
 10
220.4158899188
 20
97.4298181578
 11
220.4656173905
 21
99.10145145
  0
LINE
  5
32F
100
AcDbEntity
  8
RUNDUNGEN
100
AcDbLine
 62
7
  6
CONTINUOUS
 10
220.3580610086
 20
95.7991406999
 11
220.4158899188
 21
97.4298181578
  0
LINE
  5
330
100
AcDbEntity
  8
RUNDUNGEN
100
AcDbLine
 62
7
  6
CONTINUOUS
 10
220.2940542487
 20
94.2119183435
 11
220.3580610086
 21
95.7991406999
  0
LINE
  5
331
100
AcDbEntity
  8
RUNDUNGEN
100
AcDbLine
 62
7
  6
CONTINUOUS
 10
220.1894671205
 20
91.9159769055
 11
220.2940542487
 21
94.2119183435
  0
LINE
  5
332
100
AcDbEntity
  8
RUNDUNGEN
100
AcDbLine
 62
7
  6
CONTINUOUS
 10
220.0778027308
 20
89.7263658024
 11
220.1894671205
 21
91.9159769055
  0
LINE
  5
333
100
AcDbEntity
  8
RUNDUNGEN
100
AcDbLine
 62
7
  6
CONTINUOUS
 10
219.9228634164
 20
86.9771657372
 11
220.0778027308
 21
89.7263658024
  0
LINE
  5
334
100
AcDbEntity
  8
RUNDUNGEN
100
AcDbLine
 62
7
  6
CONTINUOUS
 10
219.7656899553
 20
84.4233671712
 11
219.9228634164
 21
86.9771657372
  0
LINE
  5
335
100
AcDbEntity
  8
RUNDUNGEN
100
AcDbLine
 62
7
  6
CONTINUOUS
 10
219.571865032
 20
81.5031322639
 11
219.7656899553
 21
84.4233671712
  0
LINE
  5
336
100
AcDbEntity
  8
RUNDUNGEN
100
AcDbLine
 62
7
  6
CONTINUOUS
 10
219.3500725945
 20
78.3872842269
 11
219.571865032
 21
81.5031322639
  0
LINE
  5
337
100
AcDbEntity
  8
RUNDUNGEN
100
AcDbLine
 62
7
  6
CONTINUOUS
 10
219.2498846341
 20
77.0413224488
 11
219.3500725945
 21
78.3872842269
  0
LWPOLYLINE
  5
338
100
AcDbEntity
  8
BEZUGSACHSEN
100
AcDbPolyline
 62
7
  6
CONTINUOUS
 90
18
 70
0
 10
208.1932082562
 20
102.5020711752
 10
207.8225516851
 20
102.4880963065
 10
207.3734462455
 20
102.4333519052
 10
206.9426941159
 20
102.3406858071
 10
206.5335318957
 20
102.2141557466
 10
206.1484649896
 20
102.058017437
 10
205.7896307469
 20
101.8767905556
 10
205.45741029
 20
101.6743819694
 10
205.1522813431
 20
101.4547940724
 10
204.8731883279
 20
101.2208974957
 10
204.6190693515
 20
100.9752058787
 10
204.3890592509
 20
100.7201818416
 10
204.181863848
 20
100.4576173094
 10
203.9965261898
 20
100.1895157356
 10
203.8314272862
 20
99.9167106607
 10
203.6858603172
 20
99.6413167979
 10
203.5584788286
 20
99.3643409651
 10
203.4815044106
 20
99.175325406
  0
LINE
  5
339
100
AcDbEntity
  8
0
100
AcDbLine
 62
7
  6
CONTINUOUS
 10
208.1931997351
 20
102.5020711766
 11
209.8445912355
 21
102.5020711766
  0
LWPOLYLINE
  5
33A
100
AcDbEntity
  8
RUNDUNGEN
100
AcDbPolyline
 62
7
  6
CONTINUOUS
 90
6
 70
0
 10
219.4764141366
 20
119.4714360127
 10
218.9190182375
 20
123.6825138082
 10
218.3355609591
 20
127.8228452209
 10
217.7266068282
 20
131.9028798487
 10
217.0923540184
 20
135.9324675767
 10
216.4502768137
 20
139.8137082633
  0
LINE
  5
33B
100
AcDbEntity
  8
RUNDUNGEN
100
AcDbLine
 62
7
  6
CONTINUOUS
 10
220.0241150283
 20
115.0399246358
 11
219.4764141366
 21
119.4714360127
  0
LWPOLYLINE
  5
33C
100
AcDbEntity
  8
RUNDUNGEN
100
AcDbPolyline
 62
7
  6
CONTINUOUS
 90
11
 70
0
 10
218.554758825
 20
65.2256455694
 10
218.6108928262
 20
65.51474592
 10
218.7159377128
 20
66.1286640149
 10
218.818992014
 20
66.8356547808
 10
218.9198891063
 20
67.6515844592
 10
219.0151239947
 20
68.5719513513
 10
219.1014513247
 20
69.5928907079
 10
219.1752237102
 20
70.7022557335
 10
219.2332923285
 20
71.8851809085
 10
219.2731572502
 20
73.1228562416
 10
219.2932220436
 20
74.3877574371
  0
LINE
  5
33D
100
AcDbEntity
  8
0
100
AcDbLine
 62
7
  6
CONTINUOUS
 10
215.6037336643
 20
50.440791978
 11
215.8067302685
 21
51.4681264331
  0
LINE
  5
33E
100
AcDbEntity
  8
0
100
AcDbLine
 62
7
  6
CONTINUOUS
 10
218.2221791429
 20
63.5903809243
 11
218.5511692722
 21
65.2079972386
  0
LINE
  5
33F
100
AcDbEntity
  8
RUNDUNGEN
100
AcDbLine
 62
7
  6
CONTINUOUS
 10
218.5547570282
 20
65.2256365671
 11
218.551168799
 21
65.2079949215
  0
LWPOLYLINE
  5
340
100
AcDbEntity
  8
BEZUGSACHSEN
100
AcDbPolyline
 62
7
  6
CONTINUOUS
 90
9
 70
0
 10
200.7997276012
 20
142.2212390666
 10
200.9802196755
 20
142.0217624649
 10
201.1776472581
 20
141.7485473789
 10
201.3400943405
 20
141.4563320394
 10
201.4681561305
 20
141.1454915186
 10
201.560064918
 20
140.8170430469
 10
201.6122541988
 20
140.4735537379
 10
201.61991762
 20
140.1171746056
 10
201.5875652321
 20
139.8140095645
  0
LINE
  5
341
100
AcDbEntity
  8
BEZUGSACHSEN
100
AcDbLine
 62
7
  6
CONTINUOUS
 10
198.6046819229
 20
144.416284739
 11
200.7996314
 21
142.2213352619
  0
LINE
  5
342
100
AcDbEntity
  8
RUNDUNGEN
100
AcDbLine
 62
7
  6
CONTINUOUS
 10
219.7509462929
 20
151.5020711766
 11
218.2868452354
 21
154.0379685955
  0
ARC
  5
343
100
AcDbEntity
  8
RUNDUNGEN
100
AcDbCircle
 62
7
  6
CONTINUOUS
 10
88.4138145032
 20
95.5020711766
 40
50.0
100
AcDbArc
 50
348.2242560141
 51
11.7757439859
  0
ARC
  5
344
100
AcDbEntity
  8
BEZUGSACHSEN
100
AcDbCircle
 62
7
  6
CONTINUOUS
 10
51.934196655
 20
97.0020711766
 40
5.5
100
AcDbArc
 50
41.8
 51
199.7998891921
  0
ARC
  5
345
100
AcDbEntity
  8
RUNDUNGEN
100
AcDbCircle
 62
7
  6
CONTINUOUS
 10
51.934196655
 20
97.0020711766
 40
5.5
100
AcDbArc
 50
41.8
 51
199.7998891921
  0
ARC
  5
346
100
AcDbEntity
  8
RUNDUNGEN
100
AcDbCircle
 62
7
  6
CONTINUOUS
 10
63.0495491199
 20
83.1041300197
 40
1.0
100
AcDbArc
 50
21.7097284815
 51
110.0
  0
ARC
  5
347
100
AcDbEntity
  8
RUNDUNGEN
100
AcDbCircle
 62
7
  6
CONTINUOUS
 10
57.94599428
 20
81.246587969
 40
1.0
100
AcDbArc
 50
110.0
 51
192.1849767767
  0
ARC
  5
348
100
AcDbEntity
  8
RUNDUNGEN
100
AcDbCircle
 62
7
  6
CONTINUOUS
 10
91.1888080962
 20
62.1200042166
 40
1.0
100
AcDbArc
 50
0.0
 51
84.8647030607
  0
ARC
  5
349
100
AcDbEntity
  8
RUNDUNGEN
100
AcDbCircle
 62
7
  6
CONTINUOUS
 10
91.1888080962
 20
52.1160424652
 40
1.0
100
AcDbArc
 50
265.3591132429
 51
360.0
  0
ARC
  5
34A
100
AcDbEntity
  8
RUNDUNGEN
100
AcDbCircle
 62
7
  6
CONTINUOUS
 10
88.1888080962
 20
154.723276084
 40
10.0
100
AcDbArc
 50
180.0000450242
 51
221.800228494
  0
ARC
  5
34B
100
AcDbEntity
  8
BEZUGSACHSEN
100
AcDbCircle
 62
7
  6
CONTINUOUS
 10
88.6888080962
 20
170.5020711766
 40
2.0
100
AcDbArc
 50
0.0
 51
90.0
  0
ARC
  5
34C
100
AcDbEntity
  8
BEZUGSACHSEN
100
AcDbCircle
 62
7
  6
CONTINUOUS
 10
80.1887743087
 20
170.5021048281
 40
1.9999662127
100
AcDbArc
 50
89.9990272598
 51
180.000969944
  0
CIRCLE
  5
34D
100
AcDbEntity
  8
BEZUGSACHSEN
100
AcDbCircle
 62
7
  6
CONTINUOUS
 10
83.1888080962
 20
164.3020711766
 40
1.5
  0
ARC
  5
34E
100
AcDbEntity
  8
BEZUGSACHSEN
100
AcDbCircle
 62
7
  6
CONTINUOUS
 10
94.1888080962
 20
95.5020711766
 40
49.0
100
AcDbArc
 50
270.000051401
 51
41.6333870666
  0
ARC
  5
34F
100
AcDbEntity
  8
RUNDUNGEN
100
AcDbCircle
 62
7
  6
CONTINUOUS
 10
94.1888080962
 20
95.5020711766
 40
49.0
100
AcDbArc
 50
270.000051401
 51
69.3326834786
  0
ARC
  5
350
100
AcDbEntity
  8
RUNDUNGEN
100
AcDbCircle
 62
7
  6
CONTINUOUS
 10
94.1888080962
 20
95.5020711766
 40
44.5
100
AcDbArc
 50
273.9545721221
 51
313.6827396036
  0
ARC
  5
351
100
AcDbEntity
  8
RUNDUNGEN
100
AcDbCircle
 62
7
  6
CONTINUOUS
 10
94.1888080962
 20
89.0726149809
 40
42.5705438043
100
AcDbArc
 50
199.7999891051
 51
270.0000591641
  0
ARC
  5
352
100
AcDbEntity
  8
RUNDUNGEN
100
AcDbCircle
 62
7
  6
CONTINUOUS
 10
94.1888080962
 20
89.0726149809
 40
38.0781371175
100
AcDbArc
 50
192.1849767767
 51
265.3591132429
  0
ARC
  5
353
100
AcDbEntity
  8
0
100
AcDbCircle
 62
7
  6
CONTINUOUS
 10
94.1888080962
 20
95.5020711766
 40
32.5165987911
100
AcDbArc
 50
204.8322986538
 51
221.8011645283
  0
ARC
  5
354
100
AcDbEntity
  8
RUNDUNGEN
100
AcDbCircle
 62
7
  6
CONTINUOUS
 10
94.1888080962
 20
95.5020711766
 40
32.5165987911
100
AcDbArc
 50
221.8011645283
 51
264.8647030607
  0
ARC
  5
355
100
AcDbEntity
  8
RUNDUNGEN
100
AcDbCircle
 62
7
  6
CONTINUOUS
 10
94.1888080962
 20
95.5020711766
 40
32.5165987911
100
AcDbArc
 50
275.1352969393
 51
313.2902715185
  0
ARC
  5
356
100
AcDbEntity
  8
RUNDUNGEN
100
AcDbCircle
 62
7
  6
CONTINUOUS
 10
94.1888080962
 20
95.5020711766
 40
32.5165987911
100
AcDbArc
 50
201.7097284815
 51
204.8322986538
  0
ARC
  5
357
100
AcDbEntity
  8
BEZUGSACHSEN
100
AcDbCircle
 62
7
  6
CONTINUOUS
 10
94.1888080962
 20
95.5020711766
 40
25.0
100
AcDbArc
 50
221.8
 51
41.0875672652
  0
ARC
  5
358
100
AcDbEntity
  8
RUNDUNGEN
100
AcDbCircle
 62
7
  6
CONTINUOUS
 10
94.1888080962
 20
95.5020711766
 40
25.0
100
AcDbArc
 50
221.8
 51
41.8
  0
ARC
  5
359
100
AcDbEntity
  8
RUNDUNGEN
100
AcDbCircle
 62
7
  6
CONTINUOUS
 10
136.382554324
 20
105.5020711766
 40
1.0
100
AcDbArc
 50
11.7757439859
 51
90.0
  0
ARC
  5
35A
100
AcDbEntity
  8
RUNDUNGEN
100
AcDbCircle
 62
7
  6
CONTINUOUS
 10
136.382554324
 20
85.5020711766
 40
1.0
100
AcDbArc
 50
270.0
 51
348.2242560141
  0
ARC
  5
35B
100
AcDbEntity
  8
RUNDUNGEN
100
AcDbCircle
 62
7
  6
CONTINUOUS
 10
136.1888080962
 20
85.5020711766
 40
1.0
100
AcDbArc
 50
180.0
 51
270.0
  0
ARC
  5
35C
100
AcDbEntity
  8
RUNDUNGEN
100
AcDbCircle
 62
7
  6
CONTINUOUS
 10
136.1888080962
 20
105.5020711766
 40
1.0
100
AcDbArc
 50
90.0
 51
180.0
  0
ARC
  5
35D
100
AcDbEntity
  8
RUNDUNGEN
100
AcDbCircle
 62
7
  6
CONTINUOUS
 10
131.053322274
 20
97.9742717746
 40
1.0
100
AcDbArc
 50
0.0
 51
127.5
  0
ARC
  5
35E
100
AcDbEntity
  8
RUNDUNGEN
100
AcDbCircle
 62
7
  6
CONTINUOUS
 10
131.053322274
 20
93.0298705786
 40
1.0
100
AcDbArc
 50
232.5
 51
360.0
  0
ARC
  5
35F
100
AcDbEntity
  8
RUNDUNGEN
100
AcDbCircle
 62
7
  6
CONTINUOUS
 10
127.8314877279
 20
95.5020711766
 40
1.0
100
AcDbArc
 50
127.5
 51
232.5
  0
ARC
  5
360
100
AcDbEntity
  8
RUNDUNGEN
100
AcDbCircle
 62
7
  6
CONTINUOUS
 10
131.7607632802
 20
106.5598360026
 40
1.0
100
AcDbArc
 50
307.5
 51
77.8
  0
ARC
  5
361
100
AcDbEntity
  8
RUNDUNGEN
100
AcDbCircle
 62
7
  6
CONTINUOUS
 10
126.6336587765
 20
102.6256703468
 40
1.0
100
AcDbArc
 50
200.0
 51
307.5
  0
ARC
  5
362
100
AcDbEntity
  8
RUNDUNGEN
100
AcDbCircle
 62
7
  6
CONTINUOUS
 10
124.641502526
 20
108.099074661
 40
1.0
100
AcDbArc
 50
77.8
 51
200.0
  0
ARC
  5
363
100
AcDbEntity
  8
RUNDUNGEN
100
AcDbCircle
 62
7
  6
CONTINUOUS
 10
124.5645463809
 20
83.674737366
 40
1.0
100
AcDbArc
 50
157.5
 51
275.0
  0
ARC
  5
364
100
AcDbEntity
  8
RUNDUNGEN
100
AcDbCircle
 62
7
  6
CONTINUOUS
 10
97.1888080962
 20
62.1200042166
 40
1.0
100
AcDbArc
 50
95.1352969393
 51
180.0
  0
ARC
  5
365
100
AcDbEntity
  8
RUNDUNGEN
100
AcDbCircle
 62
7
  6
CONTINUOUS
 10
117.1709646481
 20
71.1057010624
 40
1.0
100
AcDbArc
 50
45.0
 51
133.2902715185
  0
ARC
  5
366
100
AcDbEntity
  8
RUNDUNGEN
100
AcDbCircle
 62
7
  6
CONTINUOUS
 10
97.1888080962
 20
52.1056427521
 40
1.0
100
AcDbArc
 50
180.0
 51
273.9545721221
  0
ARC
  5
367
100
AcDbEntity
  8
RUNDUNGEN
100
AcDbCircle
 62
7
  6
CONTINUOUS
 10
124.2327175584
 20
64.0439481521
 40
1.0
100
AcDbArc
 50
313.6827396036
 51
45.0
  0
ARC
  5
368
100
AcDbEntity
  8
RUNDUNGEN
100
AcDbCircle
 62
7
  6
CONTINUOUS
 10
127.4075017382
 20
71.1277541252
 40
1.0
100
AcDbArc
 50
215.0
 51
320.0
  0
ARC
  5
369
100
AcDbEntity
  8
RUNDUNGEN
100
AcDbCircle
 62
7
  6
CONTINUOUS
 10
123.270045325
 20
77.0366542547
 40
1.0
100
AcDbArc
 50
95.0
 51
215.0
  0
ARC
  5
36A
100
AcDbEntity
  8
RUNDUNGEN
100
AcDbCircle
 62
7
  6
CONTINUOUS
 10
133.0862845161
 20
77.8954639023
 40
1.0
100
AcDbArc
 50
320.0
 51
95.0
  0
ARC
  5
36B
100
AcDbEntity
  8
RUNDUNGEN
100
AcDbCircle
 62
7
  6
CONTINUOUS
 10
126.1139648699
 20
87.415364496
 40
1.0
100
AcDbArc
 50
52.5
 51
157.5
  0
ARC
  5
36C
100
AcDbEntity
  8
RUNDUNGEN
100
AcDbCircle
 62
7
  6
CONTINUOUS
 10
130.3313310012
 20
84.1792656453
 40
1.0
100
AcDbArc
 50
275.0
 51
52.5
  0
ARC
  5
36D
100
AcDbEntity
  8
RUNDUNGEN
100
AcDbCircle
 62
7
  6
CONTINUOUS
 10
94.1888080962
 20
155.0020711766
 40
3.5
100
AcDbArc
 50
180.0042151478
 51
359.9945345742
  0
ARC
  5
36E
100
AcDbEntity
  8
BEZUGSACHSEN
100
AcDbCircle
 62
7
  6
CONTINUOUS
 10
99.6888080962
 20
170.5020711766
 40
2.0
100
AcDbArc
 50
90.0
 51
180.0
  0
ARC
  5
36F
100
AcDbEntity
  8
BEZUGSACHSEN
100
AcDbCircle
 62
7
  6
CONTINUOUS
 10
108.1888080962
 20
170.5020711766
 40
2.0
100
AcDbArc
 50
0.0
 51
90.0
  0
ARC
  5
370
100
AcDbEntity
  8
RUNDUNGEN
100
AcDbCircle
 62
7
  6
CONTINUOUS
 10
112.1888080962
 20
143.2199650291
 40
1.9999870836
100
AcDbArc
 50
179.9992176997
 51
249.3324080611
  0
ARC
  5
371
100
AcDbEntity
  8
RUNDUNGEN
100
AcDbCircle
 62
7
  6
CONTINUOUS
 10
123.8383636972
 20
114.0084611986
 40
1.0
100
AcDbArc
 50
132.8
 51
257.8
  0
ARC
  5
372
100
AcDbEntity
  8
RUNDUNGEN
100
AcDbCircle
 62
7
  6
CONTINUOUS
 10
130.2774247392
 20
119.9710971009
 40
1.0
100
AcDbArc
 50
27.8
 51
132.8
  0
ARC
  5
373
100
AcDbEntity
  8
RUNDUNGEN
100
AcDbCircle
 62
7
  6
CONTINUOUS
 10
134.6540866597
 20
111.670019122
 40
1.0
100
AcDbArc
 50
257.8
 51
27.8
  0
ARC
  5
374
100
AcDbEntity
  8
RUNDUNGEN
100
AcDbCircle
 62
7
  6
CONTINUOUS
 10
115.8872980607
 20
132.5020711766
 40
1.0
100
AcDbArc
 50
61.8
 51
90.0
  0
ARC
  5
375
100
AcDbEntity
  8
RUNDUNGEN
100
AcDbCircle
 62
7
  6
CONTINUOUS
 10
125.0380544899
 20
127.5954786294
 40
1.0
100
AcDbArc
 50
311.8
 51
61.8
  0
ARC
  5
376
100
AcDbEntity
  8
RUNDUNGEN
100
AcDbCircle
 62
7
  6
CONTINUOUS
 10
116.5480736336
 20
120.0045596529
 40
1.0
100
AcDbArc
 50
221.8
 51
311.8
  0
ARC
  5
377
100
AcDbEntity
  8
RUNDUNGEN
100
AcDbCircle
 62
7
  6
CONTINUOUS
 10
105.3740086987
 20
132.5020711766
 40
1.0
100
AcDbArc
 50
90.0
 51
221.8
  0
ARC
  5
378
100
AcDbEntity
  8
RUNDUNGEN
100
AcDbCircle
 62
7
  6
CONTINUOUS
 10
-4646.7477503965
 20
85.0343697881
 40
4863.5161019511
100
AcDbArc
 50
359.7930442142
 51
359.9528906109
  0
ARC
  5
379
100
AcDbEntity
  8
BEZUGSACHSEN
100
AcDbCircle
 62
7
  6
CONTINUOUS
 10
200.0188954853
 20
145.8304983014
 40
2.0
100
AcDbArc
 50
180.0000000006
 51
225.0
  0
ARC
  5
37A
100
AcDbEntity
  8
BEZUGSACHSEN
100
AcDbCircle
 62
7
  6
CONTINUOUS
 10
199.5838327091
 20
84.0646961563
 40
0.0394310208
100
AcDbArc
 50
90.0454135738
 51
101.5307735736
  0
ARC
  5
37B
100
AcDbEntity
  8
RUNDUNGEN
100
AcDbCircle
 62
7
  6
CONTINUOUS
 10
43.776472907
 20
212.9000525262
 40
216.9992189397
100
AcDbArc
 50
322.960190106
 51
323.57217893
  0
ARC
  5
37C
100
AcDbEntity
  8
BEZUGSACHSEN
100
AcDbCircle
 62
7
  6
CONTINUOUS
 10
198.0188954853
 20
155.0379695615
 40
2.0
100
AcDbArc
 50
329.9999680454
 51
0.0000014394
  0
ARC
  5
37D
100
AcDbEntity
  8
BEZUGSACHSEN
100
AcDbCircle
 62
7
  6
CONTINUOUS
 10
200.0188954853
 20
150.5020711766
 40
2.0
100
AcDbArc
 50
150.0
 51
180.0
  0
ARC
  5
37E
100
AcDbEntity
  8
BEZUGSACHSEN
100
AcDbCircle
 62
7
  6
CONTINUOUS
 10
5064.7855413838
 20
85.0343697882
 40
4863.5161019678
100
AcDbArc
 50
180.0471093891
 51
180.2069557858
  0
ARC
  5
37F
100
AcDbEntity
  8
RUNDUNGEN
100
AcDbCircle
 62
7
  6
CONTINUOUS
 10
218.0188954853
 20
145.8304983014
 40
2.0
100
AcDbArc
 50
315.0
 51
359.9999999994
  0
ARC
  5
380
100
AcDbEntity
  8
RUNDUNGEN
100
AcDbCircle
 62
7
  6
CONTINUOUS
 10
218.4539582615
 20
84.0646961563
 40
0.0394310208
100
AcDbArc
 50
78.4692264265
 51
89.9545864262
  0
ARC
  5
381
100
AcDbEntity
  8
BEZUGSACHSEN
100
AcDbCircle
 62
7
  6
CONTINUOUS
 10
374.2613180636
 20
212.9000525262
 40
216.9992189397
100
AcDbArc
 50
216.42782107
 51
217.039809894
  0
ARC
  5
382
100
AcDbEntity
  8
BEZUGSACHSEN
100
AcDbCircle
 62
7
  6
CONTINUOUS
 10
209.0188954853
 20
163.5020711766
 40
9.0
100
AcDbArc
 50
359.9999766201
 51
180.0000233799
  0
ARC
  5
383
100
AcDbEntity
  8
RUNDUNGEN
100
AcDbCircle
 62
7
  6
CONTINUOUS
 10
220.0188954853
 20
155.0379695615
 40
2.0
100
AcDbArc
 50
179.9999985606
 51
210.0000319546
  0
ARC
  5
384
100
AcDbEntity
  8
RUNDUNGEN
100
AcDbCircle
 62
7
  6
CONTINUOUS
 10
218.0188954853
 20
150.5020711766
 40
2.0
100
AcDbArc
 50
0.0
 51
30.0
  0
SPLINE
  5
385
100
AcDbEntity
  8
RUNDUNGEN
100
AcDbSpline
 62
7
  6
CONTINUOUS
 70
0
 71
3
 72
8
 73
4
 74
0
 42
0.0000001
 43
0.0000001
 44
0.0000000001
 40
0.0
 40
0.0
 40
0.0
 40
0.0
 40
1.0
 40
1.0
 40
1.0
 40
1.0
 10
217.8931992273
 20
62.1200042166
 30
0.0
 10
217.2368303662
 20
58.8220239166
 30
0.0
 10
216.5835300073
 20
55.5234333224
 30
0.0
 10
215.9304899644
 20
52.2247922623
 30
0.0
  0
SPLINE
  5
386
100
AcDbEntity
  8
BEZUGSACHSEN
100
AcDbSpline
 62
7
  6
CONTINUOUS
 70
0
 71
3
 72
15
 73
11
 74
0
 42
0.0000001
 43
0.0000001
 44
0.0000000001
 40
0.0
 40
0.0
 40
0.0
 40
0.0
 40
0.0222283561
 40
0.0503690795
 40
0.1240972522
 40
0.2204406899
 40
0.3384214311
 40
0.4768519437
 40
0.6343444717
 40
1.0
 40
1.0
 40
1.0
 40
1.0
 10
202.2310600053
 20
51.4681388682
 30
0.0
 10
202.2080013058
 20
51.5847224396
 30
0.0
 10
202.1614947981
 20
51.8500277247
 30
0.0
 10
202.0630195819
 20
52.5061886368
 30
0.0
 10
201.9360587775
 20
53.5584800044
 30
0.0
 10
201.7876057897
 20
55.0914407639
 30
0.0
 10
201.6430877897
 20
56.9719877064
 30
0.0
 10
201.5120253467
 20
59.1811112063
 30
0.0
 10
201.3604111289
 20
62.7150495279
 30
0.0
 10
201.3092444755
 20
65.5121666065
 30
0.0
 10
201.3011664716
 20
67.4670966605
 30
0.0
  0
SPLINE
  5
387
100
AcDbEntity
  8
BEZUGSACHSEN
100
AcDbSpline
 62
7
  6
CONTINUOUS
 70
0
 71
3
 72
9
 73
5
 74
0
 42
0.0000001
 43
0.0000001
 44
0.0000000001
 40
0.0
 40
0.0
 40
0.0
 40
0.0
 40
0.5873352396
 40
1.0
 40
1.0
 40
1.0
 40
1.0
 10
199.8156116679
 20
63.5903827794
 30
0.0
 10
199.8346222811
 20
63.4965446685
 30
0.0
 10
199.8694279094
 20
63.3372954503
 30
0.0
 10
199.9119270723
 20
63.1796798266
 30
0.0
 10
199.9335828194
 20
63.1159903299
 30
0.0
  0
SPLINE
  5
388
100
AcDbEntity
  8
RUNDUNGEN
100
AcDbSpline
 62
7
  6
CONTINUOUS
 70
0
 71
3
 72
9
 73
5
 74
0
 42
0.0000001
 43
0.0000001
 44
0.0000000001
 40
0.0
 40
0.0
 40
0.0
 40
0.0
 40
0.5873352396
 40
1.0
 40
1.0
 40
1.0
 40
1.0
 10
218.2221793027
 20
63.5903827794
 30
0.0
 10
218.2031686895
 20
63.4965446685
 30
0.0
 10
218.1683630612
 20
63.3372954503
 30
0.0
 10
218.1258638983
 20
63.1796798266
 30
0.0
 10
218.1042081512
 20
63.1159903299
 30
0.0
  0
SPLINE
  5
389
100
AcDbEntity
  8
RUNDUNGEN
100
AcDbSpline
 62
7
  6
CONTINUOUS
 70
0
 71
3
 72
15
 73
11
 74
0
 42
0.0000001
 43
0.0000001
 44
0.0000000001
 40
0.0
 40
0.0
 40
0.0
 40
0.0
 40
0.0222283561
 40
0.0503690795
 40
0.1240972522
 40
0.2204406899
 40
0.3384214311
 40
0.4768519437
 40
0.6343444717
 40
1.0
 40
1.0
 40
1.0
 40
1.0
 10
215.8067309653
 20
51.4681388682
 30
0.0
 10
215.8297896648
 20
51.5847224396
 30
0.0
 10
215.8762961725
 20
51.8500277247
 30
0.0
 10
215.9747713887
 20
52.5061886368
 30
0.0
 10
216.1017321931
 20
53.5584800044
 30
0.0
 10
216.2501851809
 20
55.0914407639
 30
0.0
 10
216.3947031809
 20
56.9719877064
 30
0.0
 10
216.5257656239
 20
59.1811112063
 30
0.0
 10
216.6773798417
 20
62.7150495279
 30
0.0
 10
216.7285464951
 20
65.5121666065
 30
0.0
 10
216.736624499
 20
67.4670966605
 30
0.0
  0
SPLINE
  5
38A
100
AcDbEntity
  8
RUNDUNGEN
100
AcDbSpline
 62
7
  6
CONTINUOUS
 70
0
 71
3
 72
14
 73
10
 74
0
 42
0.0000001
 43
0.0000001
 44
0.0000000001
 40
0.0
 40
0.0
 40
0.0
 40
0.0
 40
0.0345955365
 40
0.1025634467
 40
0.2012014087
 40
0.3267984769
 40
0.4748077929
 40
0.6400503
 40
1.0
 40
1.0
 40
1.0
 40
1.0
 10
218.1042081512
 20
63.1159903299
 30
0.0
 10
218.100428308
 20
63.1048738204
 30
0.0
 10
218.0924688991
 20
63.0709136285
 30
0.0
 10
218.0767097908
 20
63.0045215315
 30
0.0
 10
218.0555325496
 20
62.9076083129
 30
0.0
 10
218.0289836233
 20
62.7841019889
 30
0.0
 10
217.9984222973
 20
62.6383237418
 30
0.0
 10
217.9522631821
 20
62.4145551061
 30
0.0
 10
217.917045031
 20
62.2398194536
 30
0.0
 10
217.8931992273
 20
62.1200042166
 30
0.0
  0
SPLINE
  5
38B
100
AcDbEntity
  8
RUNDUNGEN
100
AcDbSpline
 62
7
  6
CONTINUOUS
 70
0
 71
3
 72
12
 73
8
 74
0
 42
0.0000001
 43
0.0000001
 44
0.0000000001
 40
0.0
 40
0.0
 40
0.0
 40
0.0
 40
0.3054094461
 40
0.5946753474
 40
0.8335367798
 40
0.9266205534
 40
1.0
 40
1.0
 40
1.0
 40
1.0
 10
216.7667075993
 20
81.0355194628
 30
0.0
 10
216.766713573
 20
81.1560888509
 30
0.0
 10
216.7775498727
 20
81.3910227186
 30
0.0
 10
216.8215235876
 20
81.7173895893
 30
0.0
 10
216.8794467778
 20
81.9568030241
 30
0.0
 10
216.9389099058
 20
82.1055614366
 30
0.0
 10
216.9715356686
 20
82.1631492504
 30
0.0
 10
216.9889748998
 20
82.1862805898
 30
0.0
  0
SPLINE
  5
38C
100
AcDbEntity
  8
RUNDUNGEN
100
AcDbSpline
 62
7
  6
CONTINUOUS
 70
0
 71
3
 72
9
 73
5
 74
0
 42
0.0000001
 43
0.0000001
 44
0.0000000001
 40
0.0
 40
0.0
 40
0.0
 40
0.0
 40
0.6032947513
 40
1.0
 40
1.0
 40
1.0
 40
1.0
 10
218.3752778799
 20
84.0438226404
 30
0.0
 10
218.3873749943
 20
84.0602515323
 30
0.0
 10
218.4083256731
 20
84.0865705853
 30
0.0
 10
218.4405737737
 20
84.1041381784
 30
0.0
 10
218.4539895151
 20
84.1041271647
 30
0.0
  0
SPLINE
  5
38D
100
AcDbEntity
  8
BEZUGSACHSEN
100
AcDbSpline
 62
7
  6
CONTINUOUS
 70
0
 71
3
 72
8
 73
4
 74
0
 42
0.0000001
 43
0.0000001
 44
0.0000000001
 40
0.0
 40
0.0
 40
0.0
 40
0.0
 40
1.0
 40
1.0
 40
1.0
 40
1.0
 10
200.1445917433
 20
62.1200042166
 30
0.0
 10
200.8009606044
 20
58.8220239166
 30
0.0
 10
201.4542609633
 20
55.5234333224
 30
0.0
 10
202.1073010062
 20
52.2247922623
 30
0.0
  0
SPLINE
  5
38E
100
AcDbEntity
  8
BEZUGSACHSEN
100
AcDbSpline
 62
7
  6
CONTINUOUS
 70
0
 71
3
 72
9
 73
5
 74
0
 42
0.0000001
 43
0.0000001
 44
0.0000000001
 40
0.0
 40
0.0
 40
0.0
 40
0.0
 40
0.6032947513
 40
1.0
 40
1.0
 40
1.0
 40
1.0
 10
199.6625130907
 20
84.0438226404
 30
0.0
 10
199.6504159763
 20
84.0602515323
 30
0.0
 10
199.6294652975
 20
84.0865705853
 30
0.0
 10
199.5972171969
 20
84.1041381784
 30
0.0
 10
199.5838014555
 20
84.1041271647
 30
0.0
  0
SPLINE
  5
38F
100
AcDbEntity
  8
BEZUGSACHSEN
100
AcDbSpline
 62
7
  6
CONTINUOUS
 70
0
 71
3
 72
12
 73
8
 74
0
 42
0.0000001
 43
0.0000001
 44
0.0000000001
 40
0.0
 40
0.0
 40
0.0
 40
0.0
 40
0.3054094461
 40
0.5946753474
 40
0.8335367798
 40
0.9266205534
 40
1.0
 40
1.0
 40
1.0
 40
1.0
 10
201.2710833713
 20
81.0355194628
 30
0.0
 10
201.2710773976
 20
81.1560888509
 30
0.0
 10
201.2602410979
 20
81.3910227186
 30
0.0
 10
201.216267383
 20
81.7173895893
 30
0.0
 10
201.1583441928
 20
81.9568030241
 30
0.0
 10
201.0988810648
 20
82.1055614366
 30
0.0
 10
201.066255302
 20
82.1631492504
 30
0.0
 10
201.0488160708
 20
82.1862805898
 30
0.0
  0
SPLINE
  5
390
100
AcDbEntity
  8
BEZUGSACHSEN
100
AcDbSpline
 62
7
  6
CONTINUOUS
 70
0
 71
3
 72
14
 73
10
 74
0
 42
0.0000001
 43
0.0000001
 44
0.0000000001
 40
0.0
 40
0.0
 40
0.0
 40
0.0
 40
0.0345955365
 40
0.1025634467
 40
0.2012014087
 40
0.3267984769
 40
0.4748077929
 40
0.6400503
 40
1.0
 40
1.0
 40
1.0
 40
1.0
 10
199.9335828194
 20
63.1159903299
 30
0.0
 10
199.9373626626
 20
63.1048738204
 30
0.0
 10
199.9453220715
 20
63.0709136285
 30
0.0
 10
199.9610811798
 20
63.0045215315
 30
0.0
 10
199.982258421
 20
62.9076083129
 30
0.0
 10
200.0088073473
 20
62.7841019889
 30
0.0
 10
200.0393686733
 20
62.6383237418
 30
0.0
 10
200.0855277885
 20
62.4145551061
 30
0.0
 10
200.1207459396
 20
62.2398194536
 30
0.0
 10
200.1445917433
 20
62.1200042166
 30
0.0
  0
SPLINE
  5
391
100
AcDbEntity
  8
0
100
AcDbSpline
 62
7
  6
CONTINUOUS
 70
0
 71
3
 72
9
 73
5
 74
0
 42
0.0000001
 43
0.0000001
 44
0.0000000001
 40
0.0
 40
0.0
 40
0.0
 40
0.0
 40
0.5243839565
 40
1.0
 40
1.0
 40
1.0
 40
1.0
 10
218.6962839252
 20
81.8462785364
 30
0.0
 10
218.7342762927
 20
80.4449988785
 30
0.0
 10
218.7981577109
 20
77.7725227803
 30
0.0
 10
218.8409122446
 20
75.0995838384
 30
0.0
 10
218.852510147
 20
73.8282095833
 30
0.0
  0
SPLINE
  5
392
100
AcDbEntity
  8
RUNDUNGEN
100
AcDbSpline
 62
7
  6
CONTINUOUS
 70
0
 71
3
 72
9
 73
5
 74
0
 42
0.0000001
 43
0.0000001
 44
0.0000000001
 40
0.0
 40
0.0
 40
0.0
 40
0.0
 40
0.2522069103
 40
1.0
 40
1.0
 40
1.0
 40
1.0
 10
218.6164504909
 20
83.4740345328
 30
0.0
 10
218.626456969
 20
83.3373850031
 30
0.0
 10
218.6625419691
 20
82.7953081743
 30
0.0
 10
218.685273455
 20
82.2523797869
 30
0.0
 10
218.6962839252
 20
81.8462785364
 30
0.0
  0
SPLINE
  5
393
100
AcDbEntity
  8
BEZUGSACHSEN
100
AcDbSpline
 62
7
  6
CONTINUOUS
 70
0
 71
3
 72
13
 73
9
 74
0
 42
0.0000001
 43
0.0000001
 44
0.0000000001
 40
0.0
 40
0.0
 40
0.0
 40
0.0
 40
0.1098102934
 40
0.2003491343
 40
0.3166056271
 40
0.4573052439
 40
0.6202252278
 40
1.0
 40
1.0
 40
1.0
 40
1.0
 10
199.5759506759
 20
84.1033313598
 30
0.0
 10
199.552225742
 20
84.0984779899
 30
0.0
 10
199.5237695627
 20
84.0544154276
 30
0.0
 10
199.5003242106
 20
83.9913382568
 30
0.0
 10
199.4802814774
 20
83.9163745372
 30
0.0
 10
199.4623298519
 20
83.8258130856
 30
0.0
 10
199.439367378
 20
83.676699387
 30
0.0
 10
199.4274569674
 20
83.5575619413
 30
0.0
 10
199.4213404797
 20
83.4740345328
 30
0.0
  0
SPLINE
  5
394
100
AcDbEntity
  8
RUNDUNGEN
100
AcDbSpline
 62
7
  6
CONTINUOUS
 70
0
 71
3
 72
11
 73
7
 74
0
 42
0.0000001
 43
0.0000001
 44
0.0000000001
 40
0.0
 40
0.0
 40
0.0
 40
0.0
 40
0.3112392592
 40
0.5839281643
 40
0.8145200321
 40
1.0
 40
1.0
 40
1.0
 40
1.0
 10
218.852510147
 20
73.8282095833
 30
0.0
 10
218.8606630954
 20
72.9344748107
 30
0.0
 10
218.8525413892
 20
71.2573693708
 30
0.0
 10
218.7727163578
 20
68.919373953
 30
0.0
 10
218.6459500829
 20
66.9452748755
 30
0.0
 10
218.5313364461
 20
65.7556724765
 30
0.0
 10
218.4689003945
 20
65.2267099611
 30
0.0
  0
LINE
  5
395
100
AcDbEntity
  8
RUNDUNGEN
100
AcDbLine
 62
7
  6
CONTINUOUS
 10
218.4689003945
 20
65.2267099611
 11
218.4668592777
 21
65.2094536286
  0
SPLINE
  5
396
100
AcDbEntity
  8
RUNDUNGEN
100
AcDbSpline
 62
7
  6
CONTINUOUS
 70
0
 71
3
 72
9
 73
5
 74
0
 42
0.0000001
 43
0.0000001
 44
0.0000000001
 40
0.0
 40
0.0
 40
0.0
 40
0.0
 40
0.575530067
 40
1.0
 40
1.0
 40
1.0
 40
1.0
 10
218.4668592777
 20
65.2094536286
 30
0.0
 10
218.4298768094
 20
64.8974443351
 30
0.0
 10
218.3585781848
 20
64.3561342422
 30
0.0
 10
218.268189981
 20
63.8174956603
 30
0.0
 10
218.2221793027
 20
63.5903827794
 30
0.0
  0
SPLINE
  5
397
100
AcDbEntity
  8
BEZUGSACHSEN
100
AcDbSpline
 62
7
  6
CONTINUOUS
 70
0
 71
3
 72
9
 73
5
 74
0
 42
0.0000001
 43
0.0000001
 44
0.0000000001
 40
0.0
 40
0.0
 40
0.0
 40
0.0
 40
0.5243839565
 40
1.0
 40
1.0
 40
1.0
 40
1.0
 10
199.3415070454
 20
81.8462785364
 30
0.0
 10
199.3035146779
 20
80.4449988785
 30
0.0
 10
199.2396332597
 20
77.7725227803
 30
0.0
 10
199.196878726
 20
75.0995838384
 30
0.0
 10
199.1852808236
 20
73.8282095833
 30
0.0
  0
SPLINE
  5
398
100
AcDbEntity
  8
BEZUGSACHSEN
100
AcDbSpline
 62
7
  6
CONTINUOUS
 70
0
 71
3
 72
11
 73
7
 74
0
 42
0.0000001
 43
0.0000001
 44
0.0000000001
 40
0.0
 40
0.0
 40
0.0
 40
0.0
 40
0.3112883518
 40
0.5839961454
 40
0.814572683
 40
1.0
 40
1.0
 40
1.0
 40
1.0
 10
199.1852808236
 20
73.8282095833
 30
0.0
 10
199.1771237356
 20
72.9340210282
 30
0.0
 10
199.1852609904
 20
71.2561331282
 30
0.0
 10
199.265171935
 20
68.9171697598
 30
0.0
 10
199.3920520465
 20
66.9425253603
 30
0.0
 10
199.5067592984
 20
65.7527075384
 30
0.0
 10
199.5692441676
 20
65.2237153962
 30
0.0
  0
LINE
  5
399
100
AcDbEntity
  8
BEZUGSACHSEN
100
AcDbLine
 62
7
  6
CONTINUOUS
 10
199.5692441676
 20
65.2237153962
 11
199.5709316929
 21
65.2094536286
  0
SPLINE
  5
39A
100
AcDbEntity
  8
BEZUGSACHSEN
100
AcDbSpline
 62
7
  6
CONTINUOUS
 70
0
 71
3
 72
9
 73
5
 74
0
 42
0.0000001
 43
0.0000001
 44
0.0000000001
 40
0.0
 40
0.0
 40
0.0
 40
0.0
 40
0.575530067
 40
1.0
 40
1.0
 40
1.0
 40
1.0
 10
199.5709316929
 20
65.2094536286
 30
0.0
 10
199.6079141612
 20
64.8974443351
 30
0.0
 10
199.6792127858
 20
64.3561342422
 30
0.0
 10
199.7696009896
 20
63.8174956603
 30
0.0
 10
199.8156116679
 20
63.5903827794
 30
0.0
  0
SPLINE
  5
39B
100
AcDbEntity
  8
BEZUGSACHSEN
100
AcDbSpline
 62
7
  6
CONTINUOUS
 70
0
 71
3
 72
9
 73
5
 74
0
 42
0.0000001
 43
0.0000001
 44
0.0000000001
 40
0.0
 40
0.0
 40
0.0
 40
0.0
 40
0.2522069103
 40
1.0
 40
1.0
 40
1.0
 40
1.0
 10
199.4213404797
 20
83.4740345328
 30
0.0
 10
199.4113340016
 20
83.3373850031
 30
0.0
 10
199.3752490015
 20
82.7953081743
 30
0.0
 10
199.3525175156
 20
82.2523797869
 30
0.0
 10
199.3415070454
 20
81.8462785364
 30
0.0
  0
SPLINE
  5
39C
100
AcDbEntity
  8
RUNDUNGEN
100
AcDbSpline
 62
7
  6
CONTINUOUS
 70
0
 71
3
 72
13
 73
9
 74
0
 42
0.0000001
 43
0.0000001
 44
0.0000000001
 40
0.0
 40
0.0
 40
0.0
 40
0.0
 40
0.1098102934
 40
0.2003491343
 40
0.3166056271
 40
0.4573052439
 40
0.6202252278
 40
1.0
 40
1.0
 40
1.0
 40
1.0
 10
218.4618402947
 20
84.1033313598
 30
0.0
 10
218.4855652285
 20
84.0984779899
 30
0.0
 10
218.5140214079
 20
84.0544154276
 30
0.0
 10
218.53746676
 20
83.9913382568
 30
0.0
 10
218.5575094932
 20
83.9163745372
 30
0.0
 10
218.5754611187
 20
83.8258130856
 30
0.0
 10
218.5984235926
 20
83.676699387
 30
0.0
 10
218.6103340031
 20
83.5575619413
 30
0.0
 10
218.6164504909
 20
83.4740345328
 30
0.0
  0
ENDSEC
  0
SECTION
  2
OBJECTS
  0
DICTIONARY
  5
C
100
AcDbDictionary
280
0
281
1
  3
ACAD_GROUP
350
D
  3
ACAD_MLINESTYLE
350
17
  3
ACAD_LAYOUT
350
1A
  3
ACAD_PLOTSETTINGS
350
19
  3
ACAD_PLOTSTYLENAME
350
E
  0
DICTIONARY
  5
D
102
{ACAD_REACTORS
330
C
102
}
100
AcDbDictionary
280
0
281
1
  0
ACDBDICTIONARYWDFLT
  5
E
102
{ACAD_REACTORS
330
C
102
}
100
AcDbDictionary
281
1
  3
Normal
350
F
100
AcDbDictionaryWithDefault
340
F
  0
DICTIONARY
  5
17
102
{ACAD_REACTORS
330
C
102
}
100
AcDbDictionary
280
0
281
1
  3
Standard
350
18
  0
DICTIONARY
  5
19
102
{ACAD_REACTORS
330
C
102
}
100
AcDbDictionary
281
1
  0
DICTIONARY
  5
1A
102
{ACAD_REACTORS
330
C
102
}
100
AcDbDictionary
281
1
  3
Model
350
39D
  3
Layout1
350
39E
  0
ACDBPLACEHOLDER
  5
F
102
{ACAD_REACTORS
330
E
102
}
  0
MLINESTYLE
  5
18
102
{ACAD_REACTORS
330
17
102
}
100
AcDbMlineStyle
  2
STANDARD
 70
0
  3

 62
256
 51
90.0
 52
90.0
 71
2
 49
0.5
 62
256
  6
BYLAYER
 49
-0.5
 62
256
  6
BYLAYER
  0
LAYOUT
  5
39D
102
{ACAD_REACTORS
330
1A
102
}
100
AcDbPlotSettings
  1

  2
none_device
  4
ISO_A4_(297.00_x_210.00_MM)
  6

 40
0.0
 41
0.0
 42
0.0
 43
0.0
 44
297.0
 45
210.0
 46
0.0
 47
0.0
 48
0.0
 49
0.0
140
0.0
141
0.0
142
1.0
143
1.0
 70
1024
 72
1
 73
0
 74
0
  7

 75
0
147
1.0
148
0.0
149
0.0
100
AcDbLayout
  1
Model
 70
0
 71
0
 10
0.0
 20
0.0
 11
297.0
 21
210.0
 12
0.0
 22
0.0
 32
0.0
 14
0.0
 24
0.0
 34
0.0
 15
0.0
 25
0.0
 35
0.0
146
0.0
 13
0.0
 23
0.0
 33
0.0
 16
1.0
 26
0.0
 36
0.0
 17
0.0
 27
1.0
 37
0.0
 76
0
330
209
345
0
346
0
  0
LAYOUT
  5
39E
102
{ACAD_REACTORS
330
1A
102
}
100
AcDbPlotSettings
  1

  2
none_device
  4
ISO_A4_(297.00_x_210.00_MM)
  6

 40
0.0
 41
0.0
 42
0.0
 43
0.0
 44
297.0
 45
210.0
 46
0.0
 47
0.0
 48
0.0
 49
0.0
140
0.0
141
0.0
142
1.0
143
1.0
 70
0
 72
1
 73
0
 74
0
  7

 75
0
147
1.0
148
0.0
149
0.0
100
AcDbLayout
  1
Layout1
 70
0
 71
1
 10
0.0
 20
0.0
 11
297.0
 21
210.0
 12
0.0
 22
0.0
 32
0.0
 14
0.0
 24
0.0
 34
0.0
 15
0.0
 25
0.0
 35
0.0
146
0.0
 13
0.0
 23
0.0
 33
0.0
 16
1.0
 26
0.0
 36
0.0
 17
0.0
 27
1.0
 37
0.0
 76
0
330
20A
345
0
346
0
  0
ENDSEC
  0
EOF
