999
DXF file: VWH-22_7998158_M33382-P-1.dxf
999
Pro/ENGINEER 2010140 by Parametric Technology Corporation
  0
SECTION
  2
HEADER
  9
$ACADVER
  1
AC1015
  9
$DWGCODEPAGE
  3
ANSI_1252
  9
$EXTMAX
 10
594.0
 20
420.0
 30
0.0
  9
$EXTMIN
 10
0.0
 20
0.0
 30
0.0
  9
$LIMMIN
 10
0.0
 20
0.0
  9
$LIMMAX
 10
594.0
 20
420.0
  9
$VIEWCTR
 10
297.0
 20
210.0
  9
$VIEWSIZE
 40
420.0
  9
$CLAYER
  8
0
  9
$LTSCALE
 40
32.67
  9
$CELTYPE
  6
BYLAYER
  9
$DIMSCALE
 40
1.0
  9
$DIMASZ
 40
3.5
  9
$DIMEXO
 40
3.7125
  9
$DIMDLI
 40
22.572
  9
$DIMEXE
 40
10.692
  9
$DIMCEN
 40
5.346
  9
$DIMLFAC
 40
1.0
  9
$DIMBLK
  1
_FILLED
  9
$DIMTXT
 40
3.5
  9
$DIMTOL
 70
1
  9
$DIMLIM
 70
0
  9
$DIMTFAC
 40
1.0
  9
$DIMTP
 40
0.005
  9
$DIMTM
 40
0.005
  9
$PDMODE
 70
3
  9
$PDSIZE
 40
0.3125
  9
$HANDSEED
  5
3A6
  9
$TILEMODE
 70
1
  9
$MEASUREMENT
 70
1
  9
$INSUNITS
 70
4
  0
ENDSEC
  0
SECTION
  2
CLASSES
  0
CLASS
  1
ACDBDICTIONARYWDFLT
  2
AcDbDictionaryWithDefault
  3
AutoCAD 2000
 90
0
280
0
281
0
  0
CLASS
  1
ACDBPLACEHOLDER
  2
AcDbPlaceHolder
  3
AutoCAD 2000
 90
0
280
0
281
0
  0
CLASS
  1
LAYOUT
  2
AcDbLayout
  3
AutoCAD 2000
 90
0
280
0
281
0
  0
ENDSEC
  0
SECTION
  2
TABLES
  0
TABLE
  2
VPORT
  5
8
100
AcDbSymbolTable
 70
2
  0
VPORT
  5
1F4
100
AcDbSymbolTableRecord
100
AcDbViewportTableRecord
  2
*ACTIVE
 70
0
 10
0.0
 20
0.0
 11
1.0
 21
1.0
 12
297.0
 22
210.0
 13
0.0
 23
0.0
 14
1.0
 24
1.0
 15
0.0
 25
0.0
 16
0.0
 26
0.0
 36
1.0
 17
0.0
 27
0.0
 37
0.0
 40
420.0
 41
1.4142857143
 42
50.0
 43
0.0
 44
0.0
 50
0.0
 51
0.0
 71
0
 72
100
 73
1
 74
1
 75
0
 76
0
 77
0
 78
0
  0
ENDTAB
  0
TABLE
  2
LTYPE
  5
5
100
AcDbSymbolTable
 70
6
  0
LTYPE
  5
14
100
AcDbSymbolTableRecord
100
AcDbLinetypeTableRecord
  2
BYBLOCK
 70
0
  3

 72
65
 73
0
 40
0.0
  0
LTYPE
  5
15
100
AcDbSymbolTableRecord
100
AcDbLinetypeTableRecord
  2
BYLAYER
 70
0
  3

 72
65
 73
0
 40
0.0
  0
LTYPE
  5
16
100
AcDbSymbolTableRecord
100
AcDbLinetypeTableRecord
  2
CONTINUOUS
 70
64
  3
Solid line
 72
65
 73
0
 40
0.0
  0
LTYPE
  5
1F5
100
AcDbSymbolTableRecord
100
AcDbLinetypeTableRecord
  2
CENTER
 70
64
  3
____ _ ____ _ ____ _ ____ _ ____ _ ____ _ ____
 72
65
 73
4
 40
0.6
 49
0.375
 74
0
 49
-0.075
 74
0
 49
0.075
 74
0
 49
-0.075
 74
0
  0
LTYPE
  5
1F6
100
AcDbSymbolTableRecord
100
AcDbLinetypeTableRecord
  2
HIDDEN
 70
64
  3
- - - - - - - - - - - - - - - - - - - -
 72
65
 73
2
 40
0.2
 49
0.1
 74
0
 49
-0.1
 74
0
  0
LTYPE
  5
1F7
100
AcDbSymbolTableRecord
100
AcDbLinetypeTableRecord
  2
PHANTOM
 70
64
  3
_____ _ _ _____ _ _ _____ _ _ _____
 72
65
 73
6
 40
0.8
 49
0.45
 74
0
 49
-0.05
 74
0
 49
0.1
 74
0
 49
-0.05
 74
0
 49
0.1
 74
0
 49
-0.05
 74
0
  0
LTYPE
  5
1F8
100
AcDbSymbolTableRecord
100
AcDbLinetypeTableRecord
  2
DOT
 70
64
  3
. . . . . . . . . . . . . . . . . . . .
 72
65
 73
2
 40
0.2
 49
0.1
 74
0
 49
-0.1
 74
0
  0
LTYPE
  5
1F9
100
AcDbSymbolTableRecord
100
AcDbLinetypeTableRecord
  2
DASHED
 70
64
  3
- - - - - - - - - - - - - - - - - - - -
 72
65
 73
2
 40
0.2
 49
0.1
 74
0
 49
-0.1
 74
0
  0
ENDTAB
  0
TABLE
  2
LAYER
  5
2
100
AcDbSymbolTable
 70
36
  0
LAYER
  5
10
100
AcDbSymbolTableRecord
100
AcDbLayerTableRecord
  2
0
 70
0
 62
7
  6
CONTINUOUS
370
-3
390
F
  0
LAYER
  5
1FA
100
AcDbSymbolTableRecord
100
AcDbLayerTableRecord
  2
DEFAULT_1
 70
0
 62
7
  6
CENTER
370
-3
390
F
  0
LAYER
  5
1FB
100
AcDbSymbolTableRecord
100
AcDbLayerTableRecord
  2
DEFAULT_2
 70
0
 62
8
  6
HIDDEN
370
-3
390
F
  0
LAYER
  5
1FC
100
AcDbSymbolTableRecord
100
AcDbLayerTableRecord
  2
DEFAULT_3
 70
0
 62
7
  6
PHANTOM
370
-3
390
F
  0
LAYER
  5
1FD
100
AcDbSymbolTableRecord
100
AcDbLayerTableRecord
  2
BEZUGSACHSEN
 70
0
 62
7
  6
CONTINUOUS
370
-3
390
F
  0
LAYER
  5
1FE
100
AcDbSymbolTableRecord
100
AcDbLayerTableRecord
  2
BEZUGSEBENEN
 70
0
 62
7
  6
CONTINUOUS
370
-3
390
F
  0
LAYER
  5
1FF
100
AcDbSymbolTableRecord
100
AcDbLayerTableRecord
  2
FLAECHEN
 70
0
 62
7
  6
CONTINUOUS
370
-3
390
F
  0
LAYER
  5
200
100
AcDbSymbolTableRecord
100
AcDbLayerTableRecord
  2
HILFEN
 70
0
 62
7
  6
CONTINUOUS
370
-3
390
F
  0
LAYER
  5
201
100
AcDbSymbolTableRecord
100
AcDbLayerTableRecord
  2
KURVEN
 70
0
 62
7
  6
CONTINUOUS
370
-3
390
F
  0
LAYER
  5
202
100
AcDbSymbolTableRecord
100
AcDbLayerTableRecord
  2
PLATZIERUNG
 70
0
 62
7
  6
CONTINUOUS
370
-3
390
F
  0
LAYER
  5
203
100
AcDbSymbolTableRecord
100
AcDbLayerTableRecord
  2
RUNDUNGEN
 70
0
 62
7
  6
CONTINUOUS
370
-3
390
F
  0
LAYER
  5
204
100
AcDbSymbolTableRecord
100
AcDbLayerTableRecord
  2
T_STARTBEZUEGE
 70
0
 62
7
  6
CONTINUOUS
370
-3
390
F
  0
LAYER
  5
205
100
AcDbSymbolTableRecord
100
AcDbLayerTableRecord
  2
ZEICHNUNGSBEMASSUNGEN
 70
0
 62
7
  6
CONTINUOUS
370
-3
390
F
  0
ENDTAB
  0
TABLE
  2
STYLE
  5
3
100
AcDbSymbolTable
 70
1
  0
STYLE
  5
11
100
AcDbSymbolTableRecord
100
AcDbTextStyleTableRecord
  2
STANDARD
 70
0
 40
0.0
 41
0.7
 50
0.0
 71
0
 42
0.2
  3
txt
  4

  0
STYLE
  5
206
100
AcDbSymbolTableRecord
100
AcDbTextStyleTableRecord
  2
TEXTSTYLE_1
 70
0
 40
0.0
 41
0.8
 50
0.0
 71
0
 42
0.2
  3
gdt
  4

  0
ENDTAB
  0
TABLE
  2
VIEW
  5
6
100
AcDbSymbolTable
 70
0
  0
ENDTAB
  0
TABLE
  2
UCS
  5
7
100
AcDbSymbolTable
 70
0
  0
ENDTAB
  0
TABLE
  2
APPID
  5
9
100
AcDbSymbolTable
 70
1
  0
APPID
  5
207
100
AcDbSymbolTableRecord
100
AcDbRegAppTableRecord
  2
ACAD
 70
0
  0
ENDTAB
  0
TABLE
  2
BLOCK_RECORD
  5
1
100
AcDbSymbolTable
 70
0
  0
BLOCK_RECORD
  5
208
100
AcDbSymbolTableRecord
100
AcDbBlockTableRecord
  2
*Model_Space
  0
BLOCK_RECORD
  5
209
100
AcDbSymbolTableRecord
100
AcDbBlockTableRecord
  2
*Paper_Space
  0
ENDTAB
  0
TABLE
  2
DIMSTYLE
  5
A
100
AcDbSymbolTable
 70
1
100
AcDbDimStyleTable
 71
0
  0
DIMSTYLE
105
20A
100
AcDbSymbolTableRecord
100
AcDbDimStyleTableRecord
  2
STANDARD
 70
0
  3

  4

 40
1.0
 41
3.5
 42
0.0625
 43
0.38
 44
0.18
 45
0.0
 46
0.0
 47
0.005
 48
0.005
140
3.5
141
0.09
142
0.0
143
25.4
144
1.0
145
0.0
146
1.0
147
0.09
 71
1.0
 72
0.0
 73
0
 74
0
 75
0
 76
0
 77
1
 78
8
170
0
171
2
172
0
173
0
174
0
175
0
176
0
177
0
178
5
270
2
271
3
272
3
273
2
274
2
275
0
280
0
281
0
282
0
283
1
284
8
285
0
286
0
287
3
288
0
340
11
  0
ENDTAB
  0
ENDSEC
  0
SECTION
  2
BLOCKS
  0
BLOCK
  5
20
100
AcDbEntity
  8
0
100
AcDbBlockBegin
  2
*Model_Space
 70
0
 10
0.0
 20
0.0
 30
0.0
  3
*Model_Space
  1

  0
ENDBLK
  5
21
100
AcDbEntity
  8
0
100
AcDbBlockEnd
  0
BLOCK
  5
1C
100
AcDbEntity
  8
0
100
AcDbBlockBegin
  2
*Paper_Space
 70
0
 10
0.0
 20
0.0
 30
0.0
  3
*Paper_Space
  1

  0
ENDBLK
  5
1D
100
AcDbEntity
  8
0
100
AcDbBlockEnd
  0
ENDSEC
  0
SECTION
  2
ENTITIES
  0
MTEXT
  5
20B
100
AcDbEntity
  8
0
100
AcDbMText
 62
5
  6
CONTINUOUS
  7
STANDARD
 71
2
 72
1
 10
468.9368565763
 20
239.0524711813
 30
0.0
 11
0.0
 21
1.0
 31
0.0
 44
0.9
  1
RUD VWH 22
 40
8.5
 41
74.6785714286
  0
LINE
  5
20C
100
AcDbEntity
  8
0
100
AcDbLine
 62
7
  6
CONTINUOUS
 10
0.0
 20
0.0
 11
0.0
 21
420.0
  0
LINE
  5
20D
100
AcDbEntity
  8
0
100
AcDbLine
 62
7
  6
CONTINUOUS
 10
0.0
 20
0.0
 11
594.0
 21
0.0
  0
LINE
  5
20E
100
AcDbEntity
  8
0
100
AcDbLine
 62
7
  6
CONTINUOUS
 10
0.0
 20
420.0
 11
594.0
 21
420.0
  0
LINE
  5
20F
100
AcDbEntity
  8
0
100
AcDbLine
 62
7
  6
CONTINUOUS
 10
594.0
 20
0.0
 11
594.0
 21
420.0
  0
LINE
  5
210
100
AcDbEntity
  8
0
100
AcDbLine
 62
7
  6
CONTINUOUS
 10
204.8082070231
 20
43.4194863839
 11
205.6113396642
 21
43.6418217201
  0
LINE
  5
211
100
AcDbEntity
  8
0
100
AcDbLine
 62
7
  6
CONTINUOUS
 10
205.2707434507
 20
44.8721431848
 11
204.4676108096
 21
44.6498078486
  0
LINE
  5
212
100
AcDbEntity
  8
0
100
AcDbLine
 62
7
  6
CONTINUOUS
 10
191.1268421415
 20
40.633223898
 11
192.3599195648
 21
40.8382118685
  0
LINE
  5
213
100
AcDbEntity
  8
0
100
AcDbLine
 62
7
  6
CONTINUOUS
 10
197.4977390262
 20
41.6923278907
 11
198.9363262176
 21
41.9314800016
  0
LINE
  5
214
100
AcDbEntity
  8
0
100
AcDbLine
 62
7
  6
CONTINUOUS
 10
191.6271965962
 20
45.2458078272
 11
195.1209096906
 21
45.8266060342
  0
LINE
  5
215
100
AcDbEntity
  8
0
100
AcDbLine
 62
7
  6
CONTINUOUS
 10
203.7475389744
 20
43.3466246017
 11
204.8082070231
 21
43.4194863839
  0
LINE
  5
216
100
AcDbEntity
  8
0
100
AcDbLine
 62
7
  6
CONTINUOUS
 10
164.2603192986
 20
45.5274477859
 11
165.3228361312
 21
45.5646435023
  0
LINE
  5
217
100
AcDbEntity
  8
0
100
AcDbLine
 62
7
  6
CONTINUOUS
 10
204.4676108096
 20
44.6498078486
 11
203.6077213306
 21
44.6325286104
  0
LINE
  5
218
100
AcDbEntity
  8
0
100
AcDbLine
 62
7
  6
CONTINUOUS
 10
158.5889894428
 20
41.9497665884
 11
159.8217046573
 21
41.7426115741
  0
LINE
  5
219
100
AcDbEntity
  8
0
100
AcDbLine
 62
7
  6
CONTINUOUS
 10
160.5621736551
 20
46.1489128288
 11
164.2603192986
 21
45.5274477859
  0
LINE
  5
21A
100
AcDbEntity
  8
0
100
AcDbLine
 62
7
  6
CONTINUOUS
 10
155.0847309105
 20
42.8216340217
 11
156.300214608
 21
42.5299160399
  0
LINE
  5
21B
100
AcDbEntity
  8
0
100
AcDbLine
 62
7
  6
CONTINUOUS
 10
147.9797001875
 20
44.8569255546
 11
149.5678783836
 21
44.3514925748
  0
LINE
  5
21C
100
AcDbEntity
  8
0
100
AcDbLine
 62
7
  6
CONTINUOUS
 10
125.6678641266
 20
55.3214726207
 11
132.1459224967
 21
51.5419541655
  0
LINE
  5
21D
100
AcDbEntity
  8
0
100
AcDbLine
 62
7
  6
CONTINUOUS
 10
206.1558389761
 20
54.168673596
 11
204.9511492056
 21
53.8351731361
  0
LINE
  5
21E
100
AcDbEntity
  8
0
100
AcDbLine
 62
7
  6
CONTINUOUS
 10
200.1323901234
 20
52.5011712966
 11
198.9277003529
 21
52.1676708367
  0
LINE
  5
21F
100
AcDbEntity
  8
0
100
AcDbLine
 62
7
  6
CONTINUOUS
 10
213.4436410851
 20
56.7106337802
 11
212.3969465335
 21
56.5242040173
  0
LINE
  5
220
100
AcDbEntity
  8
0
100
AcDbLine
 62
7
  6
CONTINUOUS
 10
195.3225892426
 20
47.1542488421
 11
191.4178472046
 21
46.5051207903
  0
LINE
  5
221
100
AcDbEntity
  8
0
100
AcDbLine
 62
7
  6
CONTINUOUS
 10
190.8944736276
 20
49.653403786
 11
194.7992156657
 21
50.3025318378
  0
LINE
  5
222
100
AcDbEntity
  8
0
100
AcDbLine
 62
7
  6
CONTINUOUS
 10
194.4192480713
 20
51.3177951666
 11
189.4869383779
 21
50.4978432848
  0
LINE
  5
223
100
AcDbEntity
  8
0
100
AcDbLine
 62
7
  6
CONTINUOUS
 10
165.328949273
 20
46.8581118589
 11
164.677331242
 21
46.7518655247
  0
LINE
  5
224
100
AcDbEntity
  8
0
100
AcDbLine
 62
7
  6
CONTINUOUS
 10
212.8677926727
 20
55.3376121667
 11
213.7208449582
 21
55.4472036188
  0
LINE
  5
225
100
AcDbEntity
  8
0
100
AcDbLine
 62
7
  6
CONTINUOUS
 10
131.2890262692
 20
61.6487941228
 11
132.0433052046
 21
61.7013836188
  0
LINE
  5
226
100
AcDbEntity
  8
0
100
AcDbLine
 62
7
  6
CONTINUOUS
 10
123.5939385179
 20
66.9428524987
 11
124.3496271558
 21
66.9176126505
  0
LINE
  5
227
100
AcDbEntity
  8
0
100
AcDbLine
 62
7
  6
CONTINUOUS
 10
195.4816978843
 20
51.2787319388
 11
194.4192480713
 21
51.3177951666
  0
LINE
  5
228
100
AcDbEntity
  8
0
100
AcDbLine
 62
7
  6
CONTINUOUS
 10
132.3994596105
 20
62.7252444617
 11
131.4652373551
 21
62.7776399874
  0
LINE
  5
229
100
AcDbEntity
  8
0
100
AcDbLine
 62
7
  6
CONTINUOUS
 10
214.3751765915
 20
56.6224634414
 11
213.4436410851
 21
56.7106337802
  0
LINE
  5
22A
100
AcDbEntity
  8
RUNDUNGEN
100
AcDbLine
 62
7
  6
CONTINUOUS
 10
190.3532293238
 20
63.4902808687
 11
245.6024055414
 21
55.7255155264
  0
LINE
  5
22B
100
AcDbEntity
  8
0
100
AcDbLine
 62
7
  6
CONTINUOUS
 10
124.8091616672
 20
67.8994298531
 11
123.8852734165
 21
68.0476019198
  0
LINE
  5
22C
100
AcDbEntity
  8
0
100
AcDbLine
 62
7
  6
CONTINUOUS
 10
194.7992156657
 20
50.3025318378
 11
195.4506459427
 21
50.1951403292
  0
LINE
  5
22D
100
AcDbEntity
  8
0
100
AcDbLine
 62
7
  6
CONTINUOUS
 10
164.677331242
 20
46.7518655247
 11
160.7737361977
 21
47.4078558765
  0
LINE
  5
22E
100
AcDbEntity
  8
0
100
AcDbLine
 62
7
  6
CONTINUOUS
 10
161.3026426529
 20
50.5552140836
 11
165.2062376972
 21
49.8992237318
  0
LINE
  5
22F
100
AcDbEntity
  8
0
100
AcDbLine
 62
7
  6
CONTINUOUS
 10
165.1770904152
 20
50.9828682471
 11
160.2462295573
 21
51.8114883043
  0
LINE
  5
230
100
AcDbEntity
  8
0
100
AcDbLine
 62
7
  6
CONTINUOUS
 10
202.8308742605
 20
43.5343964264
 11
203.7475389744
 21
43.3466246017
  0
LINE
  5
231
100
AcDbEntity
  8
0
100
AcDbLine
 62
7
  6
CONTINUOUS
 10
213.7208449582
 20
55.4472036188
 11
214.4587293341
 21
55.2821914518
  0
LINE
  5
232
100
AcDbEntity
  8
0
100
AcDbLine
 62
7
  6
CONTINUOUS
 10
158.6339584627
 20
52.2537856205
 11
157.4184747651
 21
52.5455036023
  0
LINE
  5
233
100
AcDbEntity
  8
0
100
AcDbLine
 62
7
  6
CONTINUOUS
 10
155.7768400907
 20
52.8697034331
 11
154.5857053077
 21
53.2487785295
  0
LINE
  5
234
100
AcDbEntity
  8
0
100
AcDbLine
 62
7
  6
CONTINUOUS
 10
149.0270748057
 20
55.017796128
 11
147.8359400227
 21
55.3968712244
  0
LINE
  5
235
100
AcDbEntity
  8
0
100
AcDbLine
 62
7
  6
CONTINUOUS
 10
132.0433052046
 20
61.7013836188
 11
133.0502545298
 21
61.3602259846
  0
LINE
  5
236
100
AcDbEntity
  8
0
100
AcDbLine
 62
7
  6
CONTINUOUS
 10
203.6077213306
 20
44.6325286104
 11
202.8918443477
 21
44.8758856311
  0
LINE
  5
237
100
AcDbEntity
  8
0
100
AcDbLine
 62
7
  6
CONTINUOUS
 10
166.1690864003
 20
50.6004162809
 11
165.1770904152
 21
50.9828682471
  0
LINE
  5
238
100
AcDbEntity
  8
0
100
AcDbLine
 62
7
  6
CONTINUOUS
 10
133.7663038132
 20
62.174111978
 11
132.3994596105
 21
62.7252444617
  0
LINE
  5
239
100
AcDbEntity
  8
0
100
AcDbLine
 62
7
  6
CONTINUOUS
 10
124.3496271558
 20
66.9176126505
 11
125.3161643446
 21
66.4747341821
  0
LINE
  5
23A
100
AcDbEntity
  8
0
100
AcDbLine
 62
7
  6
CONTINUOUS
 10
126.1120980813
 20
67.2106869478
 11
124.8091616672
 21
67.8994298531
  0
LINE
  5
23B
100
AcDbEntity
  8
0
100
AcDbLine
 62
7
  6
CONTINUOUS
 10
165.2062376972
 20
49.8992237318
 11
165.7873348807
 21
49.5858223833
  0
LINE
  5
23C
100
AcDbEntity
  8
0
100
AcDbLine
 62
7
  6
CONTINUOUS
 10
132.6820244164
 20
52.4608277123
 11
127.6435332001
 21
55.4004539785
  0
LINE
  5
23D
100
AcDbEntity
  8
0
100
AcDbLine
 62
7
  6
CONTINUOUS
 10
129.7077413287
 20
61.8323772392
 11
130.6074744037
 21
61.3074425184
  0
LINE
  5
23E
100
AcDbEntity
  8
0
100
AcDbLine
 62
7
  6
CONTINUOUS
 10
133.0502545298
 20
61.3602259846
 11
133.7700401661
 21
60.9402786886
  0
LINE
  5
23F
100
AcDbEntity
  8
0
100
AcDbLine
 62
7
  6
CONTINUOUS
 10
134.4860894494
 20
61.754164682
 11
133.7663038132
 21
62.174111978
  0
LINE
  5
240
100
AcDbEntity
  8
0
100
AcDbLine
 62
7
  6
CONTINUOUS
 10
117.3520224451
 20
61.2270007808
 11
123.4071623049
 21
56.8014746789
  0
LINE
  5
241
100
AcDbEntity
  8
0
100
AcDbLine
 62
7
  6
CONTINUOUS
 10
124.0348965169
 20
57.6603597834
 11
119.3253458591
 21
61.1024337646
  0
LINE
  5
242
100
AcDbEntity
  8
0
100
AcDbLine
 62
7
  6
CONTINUOUS
 10
122.0399084542
 20
67.2880414103
 11
122.8808988181
 21
66.6733859452
  0
LINE
  5
243
100
AcDbEntity
  8
0
100
AcDbLine
 62
7
  6
CONTINUOUS
 10
125.3161643446
 20
66.4747341821
 11
125.9889589456
 21
65.9830081218
  0
LINE
  5
244
100
AcDbEntity
  8
0
100
AcDbLine
 62
7
  6
CONTINUOUS
 10
126.7848888325
 20
66.7189637011
 11
126.1120980813
 21
67.2106869478
  0
LINE
  5
245
100
AcDbEntity
  8
0
100
AcDbLine
 62
7
  6
CONTINUOUS
 10
135.4585454755
 20
60.9404702559
 11
134.4860894494
 21
61.754164682
  0
LINE
  5
246
100
AcDbEntity
  8
0
100
AcDbLine
 62
7
  6
CONTINUOUS
 10
133.7700401661
 20
60.9402786886
 11
134.5625487534
 21
60.2315716872
  0
LINE
  5
247
100
AcDbEntity
  8
0
100
AcDbLine
 62
7
  6
CONTINUOUS
 10
127.6685319844
 20
65.8095990206
 11
126.7848888325
 21
66.7189637011
  0
LINE
  5
248
100
AcDbEntity
  8
0
100
AcDbLine
 62
7
  6
CONTINUOUS
 10
125.9889589456
 20
65.9830081218
 11
126.7044024847
 21
65.1965756599
  0
LINE
  5
249
100
AcDbEntity
  8
0
100
AcDbLine
 62
7
  6
CONTINUOUS
 10
101.5962996554
 20
76.8253834346
 11
102.4201669101
 21
75.8853075085
  0
LINE
  5
24A
100
AcDbEntity
  8
0
100
AcDbLine
 62
7
  6
CONTINUOUS
 10
106.2648802412
 20
71.4982871179
 11
107.0887474958
 21
70.5582111918
  0
LINE
  5
24B
100
AcDbEntity
  8
0
100
AcDbLine
 62
7
  6
CONTINUOUS
 10
105.9404512576
 20
78.9704274658
 11
109.7851645886
 21
74.5834070751
  0
LINE
  5
24C
100
AcDbEntity
  8
0
100
AcDbLine
 62
7
  6
CONTINUOUS
 10
110.7452420157
 20
75.42480332
 11
106.9005286846
 21
79.8118237106
  0
LINE
  5
24D
100
AcDbEntity
  8
0
100
AcDbLine
 62
7
  6
CONTINUOUS
 10
114.6093549043
 20
77.1491492288
 11
113.7854876497
 21
78.0892251548
  0
LINE
  5
24E
100
AcDbEntity
  8
0
100
AcDbLine
 62
7
  6
CONTINUOUS
 10
109.9407743186
 20
82.4762455454
 11
109.116907064
 21
83.4163214715
  0
LINE
  5
24F
100
AcDbEntity
  8
0
100
AcDbLine
 62
7
  6
CONTINUOUS
 10
95.0942291441
 20
85.9700649751
 11
96.0323963008
 21
84.5925226661
  0
LINE
  5
250
100
AcDbEntity
  8
0
100
AcDbLine
 62
7
  6
CONTINUOUS
 10
97.9087292722
 20
81.8374400188
 11
98.8468964289
 21
80.4598977099
  0
LINE
  5
251
100
AcDbEntity
  8
0
100
AcDbLine
 62
7
  6
CONTINUOUS
 10
90.4274964124
 20
94.3034557204
 11
91.1914569696
 21
92.8221921673
  0
LINE
  5
252
100
AcDbEntity
  8
RUNDUNGEN
100
AcDbLine
 62
7
  6
CONTINUOUS
 10
61.7454356118
 20
104.5501096524
 11
47.7135157076
 21
166.8146487411
  0
LINE
  5
253
100
AcDbEntity
  8
0
100
AcDbLine
 62
7
  6
CONTINUOUS
 10
131.4652373551
 20
62.7776399874
 11
130.3165702431
 21
62.4624885489
  0
LINE
  5
254
100
AcDbEntity
  8
RUNDUNGEN
100
AcDbLine
 62
7
  6
CONTINUOUS
 10
293.5501438795
 20
106.3519580734
 11
260.9272689188
 21
99.1196408145
  0
LINE
  5
255
100
AcDbEntity
  8
0
100
AcDbLine
 62
7
  6
CONTINUOUS
 10
133.9229625924
 20
57.8950897812
 11
126.2039660463
 21
56.2403461675
  0
LINE
  5
256
100
AcDbEntity
  8
0
100
AcDbLine
 62
7
  6
CONTINUOUS
 10
127.6435332001
 20
55.4004539785
 11
134.5010345606
 21
56.8188310096
  0
LINE
  5
257
100
AcDbEntity
  8
0
100
AcDbLine
 62
7
  6
CONTINUOUS
 10
123.8852734165
 20
68.0476019198
 11
122.7102953661
 21
67.8522171791
  0
LINE
  5
258
100
AcDbEntity
  8
0
100
AcDbLine
 62
7
  6
CONTINUOUS
 10
125.8279820485
 20
62.9382343718
 11
117.9797566571
 21
62.0858858852
  0
LINE
  5
259
100
AcDbEntity
  8
0
100
AcDbLine
 62
7
  6
CONTINUOUS
 10
119.3253458591
 20
61.1024337646
 11
126.292331938
 21
61.8082479162
  0
LINE
  5
25A
100
AcDbEntity
  8
RUNDUNGEN
100
AcDbLine
 62
7
  6
CONTINUOUS
 10
249.686970872
 20
68.0385531682
 11
225.6794935523
 21
71.4125840698
  0
LINE
  5
25B
100
AcDbEntity
  8
0
100
AcDbLine
 62
7
  6
CONTINUOUS
 10
215.4636519466
 20
56.1387589682
 11
214.3751765915
 21
56.6224634414
  0
LINE
  5
25C
100
AcDbEntity
  8
0
100
AcDbLine
 62
7
  6
CONTINUOUS
 10
196.4084304674
 20
50.7857351469
 11
195.4816978843
 21
51.2787319388
  0
LINE
  5
25D
100
AcDbEntity
  8
0
100
AcDbLine
 62
7
  6
CONTINUOUS
 10
201.8006866748
 20
44.1322779205
 11
202.8308742605
 21
43.5343964264
  0
LINE
  5
25E
100
AcDbEntity
  8
0
100
AcDbLine
 62
7
  6
CONTINUOUS
 10
195.4506459427
 20
50.1951403292
 11
195.9314580169
 21
49.8436991863
  0
LINE
  5
25F
100
AcDbEntity
  8
0
100
AcDbLine
 62
7
  6
CONTINUOUS
 10
166.8851215419
 20
49.8328403605
 11
166.1690864003
 21
50.6004162809
  0
LINE
  5
260
100
AcDbEntity
  8
0
100
AcDbLine
 62
7
  6
CONTINUOUS
 10
108.0503128271
 20
84.7113566425
 11
107.3466877951
 21
85.7445128815
  0
LINE
  5
261
100
AcDbEntity
  8
0
100
AcDbLine
 62
7
  6
CONTINUOUS
 10
105.7048962774
 20
88.1552104442
 11
104.7667291206
 21
89.5327527532
  0
LINE
  5
262
100
AcDbEntity
  8
0
100
AcDbLine
 62
7
  6
CONTINUOUS
 10
103.1249376029
 20
91.9434503159
 11
102.4213125709
 21
92.9766065549
  0
LINE
  5
263
100
AcDbEntity
  8
0
100
AcDbLine
 62
7
  6
CONTINUOUS
 10
135.9638862552
 20
60.1529759955
 11
135.4585454755
 21
60.9404702559
  0
LINE
  5
264
100
AcDbEntity
  8
0
100
AcDbLine
 62
7
  6
CONTINUOUS
 10
101.6069599322
 20
94.4434286776
 11
101.0339894801
 21
95.5543764086
  0
LINE
  5
265
100
AcDbEntity
  8
0
100
AcDbLine
 62
7
  6
CONTINUOUS
 10
98.3601274616
 20
100.7387989768
 11
97.7871570096
 21
101.8497467078
  0
LINE
  5
266
100
AcDbEntity
  8
0
100
AcDbLine
 62
7
  6
CONTINUOUS
 10
128.0902329357
 20
64.9743189667
 11
127.6685319844
 21
65.8095990206
  0
LINE
  5
267
100
AcDbEntity
  8
RUNDUNGEN
100
AcDbLine
 62
7
  6
CONTINUOUS
 10
268.7616048969
 20
116.2206640009
 11
287.1804033901
 21
120.3040133192
  0
LINE
  5
268
100
AcDbEntity
  8
0
100
AcDbLine
 62
7
  6
CONTINUOUS
 10
214.4587293341
 20
55.2821914518
 11
215.0814460202
 21
54.8425751114
  0
LINE
  5
269
100
AcDbEntity
  8
0
100
AcDbLine
 62
7
  6
CONTINUOUS
 10
202.8918443477
 20
44.8758856311
 11
202.3199799403
 21
45.3798786235
  0
LINE
  5
26A
100
AcDbEntity
  8
0
100
AcDbLine
 62
7
  6
CONTINUOUS
 10
197.1645354402
 20
50.0486871567
 11
196.4084304674
 21
50.7857351469
  0
LINE
  5
26B
100
AcDbEntity
  8
RUNDUNGEN
100
AcDbLine
 62
7
  6
CONTINUOUS
 10
76.9351552984
 20
180.4408911127
 11
124.7043402154
 21
117.7348726693
  0
LINE
  5
26C
100
AcDbEntity
  8
0
100
AcDbLine
 62
7
  6
CONTINUOUS
 10
165.7873348807
 20
49.5858223833
 11
166.1277222396
 21
49.0971225025
  0
LINE
  5
26D
100
AcDbEntity
  8
0
100
AcDbLine
 62
7
  6
CONTINUOUS
 10
134.5625487534
 20
60.2315716872
 11
134.8879462131
 21
59.5490624487
  0
LINE
  5
26E
100
AcDbEntity
  8
0
100
AcDbLine
 62
7
  6
CONTINUOUS
 10
126.7044024847
 20
65.1965756599
 11
126.9579038234
 21
64.4842278244
  0
LINE
  5
26F
100
AcDbEntity
  8
BEZUGSACHSEN
100
AcDbLine
 62
7
  6
CONTINUOUS
 10
127.8077810343
 20
404.2969914171
 11
127.79653692
 21
403.9632931291
  0
LINE
  5
270
100
AcDbEntity
  8
0
100
AcDbLine
 62
7
  6
CONTINUOUS
 10
91.1914569696
 20
92.8221921673
 11
101.6069599322
 21
94.4434286776
  0
LINE
  5
271
100
AcDbEntity
  8
0
100
AcDbLine
 62
7
  6
CONTINUOUS
 10
101.0339894801
 20
95.5543764086
 11
91.9440615367
 21
94.1479853876
  0
LINE
  5
272
100
AcDbEntity
  8
0
100
AcDbLine
 62
7
  6
CONTINUOUS
 10
216.1648427694
 20
55.5013778735
 11
215.4636519466
 21
56.1387589682
  0
LINE
  5
273
100
AcDbEntity
  8
0
100
AcDbLine
 62
7
  6
CONTINUOUS
 10
201.1720561987
 20
44.8413246101
 11
201.8006866748
 21
44.1322779205
  0
LINE
  5
274
100
AcDbEntity
  8
0
100
AcDbLine
 62
7
  6
CONTINUOUS
 10
167.3604374541
 20
48.8899674882
 11
166.8851215419
 21
49.8328403605
  0
LINE
  5
275
100
AcDbEntity
  8
0
100
AcDbLine
 62
7
  6
CONTINUOUS
 10
136.2547904158
 20
58.997929965
 11
135.9638862552
 21
60.1529759955
  0
LINE
  5
276
100
AcDbEntity
  8
0
100
AcDbLine
 62
7
  6
CONTINUOUS
 10
128.2608402375
 20
63.7954849191
 11
128.0902329357
 21
64.9743189667
  0
LINE
  5
277
100
AcDbEntity
  8
0
100
AcDbLine
 62
7
  6
CONTINUOUS
 10
134.8879462131
 20
59.5490624487
 11
134.9261799838
 21
58.7877635483
  0
LINE
  5
278
100
AcDbEntity
  8
BEZUGSACHSEN
100
AcDbLine
 62
7
  6
CONTINUOUS
 10
127.79653692
 20
341.4776120648
 11
127.79653692
 21
360.206027044
  0
LINE
  5
279
100
AcDbEntity
  8
RUNDUNGEN
100
AcDbLine
 62
7
  6
CONTINUOUS
 10
127.79653692
 20
341.4776120648
 11
127.79653692
 21
377.942083879
  0
LINE
  5
27A
100
AcDbEntity
  8
BEZUGSACHSEN
100
AcDbLine
 62
7
  6
CONTINUOUS
 10
127.79653692
 20
366.6215758033
 11
127.79653692
 21
403.960876219
  0
LINE
  5
27B
100
AcDbEntity
  8
0
100
AcDbLine
 62
7
  6
CONTINUOUS
 10
126.9579038234
 20
64.4842278244
 11
126.9176587246
 21
63.7230352106
  0
LINE
  5
27C
100
AcDbEntity
  8
0
100
AcDbLine
 62
7
  6
CONTINUOUS
 10
215.0814460202
 20
54.8425751114
 11
215.5889857124
 21
54.1283521885
  0
LINE
  5
27D
100
AcDbEntity
  8
0
100
AcDbLine
 62
7
  6
CONTINUOUS
 10
216.750857038
 20
54.5893890881
 11
216.1648427694
 21
55.5013778735
  0
LINE
  5
27E
100
AcDbEntity
  8
0
100
AcDbLine
 62
7
  6
CONTINUOUS
 10
198.9363262176
 20
41.9314800016
 11
196.2842039834
 21
46.4513649924
  0
LINE
  5
27F
100
AcDbEntity
  8
0
100
AcDbLine
 62
7
  6
CONTINUOUS
 10
195.1209096906
 20
45.8266060342
 11
197.4977390262
 21
41.6923278907
  0
LINE
  5
280
100
AcDbEntity
  8
0
100
AcDbLine
 62
7
  6
CONTINUOUS
 10
202.3199799403
 20
45.3798786235
 11
201.8921372597
 21
46.1445102758
  0
LINE
  5
281
100
AcDbEntity
  8
0
100
AcDbLine
 62
7
  6
CONTINUOUS
 10
195.9314580169
 20
49.8436991863
 11
196.2416424807
 21
49.2482068452
  0
LINE
  5
282
100
AcDbEntity
  8
0
100
AcDbLine
 62
7
  6
CONTINUOUS
 10
197.4747199041
 20
49.4531948156
 11
197.1645354402
 21
50.0486871567
  0
LINE
  5
283
100
AcDbEntity
  8
0
100
AcDbLine
 62
7
  6
CONTINUOUS
 10
200.6874474892
 20
45.8110098159
 11
201.1720561987
 21
44.8413246101
  0
LINE
  5
284
100
AcDbEntity
  8
0
100
AcDbLine
 62
7
  6
CONTINUOUS
 10
149.1609275366
 20
45.8206878609
 11
149.0270748057
 21
55.017796128
  0
LINE
  5
285
100
AcDbEntity
  8
0
100
AcDbLine
 62
7
  6
CONTINUOUS
 10
147.8359400227
 20
55.3968712244
 11
147.9797001875
 21
44.8569255546
  0
LINE
  5
286
100
AcDbEntity
  8
RUNDUNGEN
100
AcDbLine
 62
7
  6
CONTINUOUS
 10
79.7519597808
 20
132.4031694199
 11
83.1808203424
 21
133.3219298383
  0
LINE
  5
287
100
AcDbEntity
  8
RUNDUNGEN
100
AcDbLine
 62
7
  6
CONTINUOUS
 10
242.485509583
 20
86.3869134525
 11
253.1927726231
 21
74.7019862737
  0
LINE
  5
288
100
AcDbEntity
  8
0
100
AcDbLine
 62
7
  6
CONTINUOUS
 10
207.7494612312
 20
54.6800564188
 11
211.4377564281
 21
45.3850858142
  0
LINE
  5
289
100
AcDbEntity
  8
0
100
AcDbLine
 62
7
  6
CONTINUOUS
 10
212.1287815595
 20
47.032714703
 11
209.382178696
 21
53.9545014678
  0
LINE
  5
28A
100
AcDbEntity
  8
0
100
AcDbLine
 62
7
  6
CONTINUOUS
 10
166.1277222396
 20
49.0971225025
 11
166.2273903691
 21
48.4331256698
  0
LINE
  5
28B
100
AcDbEntity
  8
0
100
AcDbLine
 62
7
  6
CONTINUOUS
 10
167.4601055836
 20
48.2259706555
 11
167.3604374541
 21
48.8899674882
  0
LINE
  5
28C
100
AcDbEntity
  8
BEZUGSACHSEN
100
AcDbLine
 62
7
  6
CONTINUOUS
 10
166.44653692
 20
403.942083879
 11
166.44653692
 21
377.942083879
  0
LINE
  5
28D
100
AcDbEntity
  8
RUNDUNGEN
100
AcDbLine
 62
7
  6
CONTINUOUS
 10
166.44653692
 20
377.942083879
 11
166.44653692
 21
350.2920878651
  0
LINE
  5
28E
100
AcDbEntity
  8
RUNDUNGEN
100
AcDbLine
 62
7
  6
CONTINUOUS
 10
171.79653692
 20
60.4852022012
 11
171.79653692
 21
33.5093529479
  0
LINE
  5
28F
100
AcDbEntity
  8
0
100
AcDbLine
 62
7
  6
CONTINUOUS
 10
136.0058563788
 20
58.1578438058
 11
136.2547904158
 21
58.997929965
  0
LINE
  5
290
100
AcDbEntity
  8
0
100
AcDbLine
 62
7
  6
CONTINUOUS
 10
127.9268487013
 20
62.985447527
 11
128.2608402375
 21
63.7954849191
  0
LINE
  5
291
100
AcDbEntity
  8
0
100
AcDbLine
 62
7
  6
CONTINUOUS
 10
91.9440615367
 20
94.1479853876
 11
98.3601274616
 21
100.7387989768
  0
LINE
  5
292
100
AcDbEntity
  8
0
100
AcDbLine
 62
7
  6
CONTINUOUS
 10
97.7871570096
 20
101.8497467078
 11
90.4274964124
 21
94.3034557204
  0
LINE
  5
293
100
AcDbEntity
  8
RUNDUNGEN
100
AcDbLine
 62
7
  6
CONTINUOUS
 10
260.9135923976
 20
251.4373103082
 11
237.5481703244
 21
233.6376286288
  0
LINE
  5
294
100
AcDbEntity
  8
RUNDUNGEN
100
AcDbLine
 62
7
  6
CONTINUOUS
 10
258.8439180274
 20
92.5120959556
 11
275.3698244213
 21
74.47723382
  0
LINE
  5
295
100
AcDbEntity
  8
0
100
AcDbLine
 62
7
  6
CONTINUOUS
 10
215.5889857124
 20
54.1283521885
 11
216.7661011704
 21
51.1618722849
  0
LINE
  5
296
100
AcDbEntity
  8
0
100
AcDbLine
 62
7
  6
CONTINUOUS
 10
217.927972496
 20
51.6229091845
 11
216.750857038
 21
54.5893890881
  0
LINE
  5
297
100
AcDbEntity
  8
0
100
AcDbLine
 62
7
  6
CONTINUOUS
 10
198.9277003529
 20
52.1676708367
 11
200.6874474892
 21
45.8110098159
  0
LINE
  5
298
100
AcDbEntity
  8
0
100
AcDbLine
 62
7
  6
CONTINUOUS
 10
201.8921372597
 20
46.1445102758
 11
200.1323901234
 21
52.5011712966
  0
LINE
  5
299
100
AcDbEntity
  8
0
100
AcDbLine
 62
7
  6
CONTINUOUS
 10
204.9511492056
 20
53.8351731361
 11
206.7108963419
 21
47.4785121153
  0
LINE
  5
29A
100
AcDbEntity
  8
0
100
AcDbLine
 62
7
  6
CONTINUOUS
 10
207.9155861124
 20
47.8120125752
 11
206.1558389761
 21
54.168673596
  0
LINE
  5
29B
100
AcDbEntity
  8
0
100
AcDbLine
 62
7
  6
CONTINUOUS
 10
189.4869383779
 20
50.4978432848
 11
191.1268421415
 21
40.633223898
  0
LINE
  5
29C
100
AcDbEntity
  8
0
100
AcDbLine
 62
7
  6
CONTINUOUS
 10
192.3599195648
 20
40.8382118685
 11
191.6271965962
 21
45.2458078272
  0
LINE
  5
29D
100
AcDbEntity
  8
0
100
AcDbLine
 62
7
  6
CONTINUOUS
 10
191.4178472046
 20
46.5051207903
 11
190.8944736276
 21
49.653403786
  0
LINE
  5
29E
100
AcDbEntity
  8
0
100
AcDbLine
 62
7
  6
CONTINUOUS
 10
196.2416424807
 20
49.2482068452
 11
196.3463172743
 21
48.6185497756
  0
LINE
  5
29F
100
AcDbEntity
  8
0
100
AcDbLine
 62
7
  6
CONTINUOUS
 10
197.6142862629
 20
48.6136522522
 11
197.4747199041
 21
49.4531948156
  0
LINE
  5
2A0
100
AcDbEntity
  8
0
100
AcDbLine
 62
7
  6
CONTINUOUS
 10
207.9986376925
 20
46.7311622458
 11
207.9155861124
 21
47.8120125752
  0
LINE
  5
2A1
100
AcDbEntity
  8
RUNDUNGEN
100
AcDbLine
 62
7
  6
CONTINUOUS
 10
185.79653692
 20
33.4231610028
 11
185.79653692
 21
59.5292085937
  0
LINE
  5
2A2
100
AcDbEntity
  8
RUNDUNGEN
100
AcDbLine
 62
7
  6
CONTINUOUS
 10
191.14653692
 20
350.2920878121
 11
191.14653692
 21
377.942083879
  0
LINE
  5
2A3
100
AcDbEntity
  8
BEZUGSACHSEN
100
AcDbLine
 62
7
  6
CONTINUOUS
 10
191.14653692
 20
377.942083879
 11
191.14653692
 21
403.942083879
  0
LINE
  5
2A4
100
AcDbEntity
  8
0
100
AcDbLine
 62
7
  6
CONTINUOUS
 10
160.2462295573
 20
51.8114883043
 11
158.5889894428
 21
41.9497665884
  0
LINE
  5
2A5
100
AcDbEntity
  8
0
100
AcDbLine
 62
7
  6
CONTINUOUS
 10
159.8217046573
 20
41.7426115741
 11
160.5621736551
 21
46.1489128288
  0
LINE
  5
2A6
100
AcDbEntity
  8
0
100
AcDbLine
 62
7
  6
CONTINUOUS
 10
160.7737361977
 20
47.4078558765
 11
161.3026426529
 21
50.5552140836
  0
LINE
  5
2A7
100
AcDbEntity
  8
0
100
AcDbLine
 62
7
  6
CONTINUOUS
 10
166.2273903691
 20
48.4331256698
 11
166.121608999
 21
47.8036535581
  0
LINE
  5
2A8
100
AcDbEntity
  8
0
100
AcDbLine
 62
7
  6
CONTINUOUS
 10
167.3190637898
 20
47.3866747025
 11
167.4601055836
 21
48.2259706555
  0
LINE
  5
2A9
100
AcDbEntity
  8
0
100
AcDbLine
 62
7
  6
CONTINUOUS
 10
157.4184747651
 20
52.5455036023
 11
155.0847309105
 21
42.8216340217
  0
LINE
  5
2AA
100
AcDbEntity
  8
0
100
AcDbLine
 62
7
  6
CONTINUOUS
 10
156.300214608
 20
42.5299160399
 11
158.6339584627
 21
52.2537856205
  0
LINE
  5
2AB
100
AcDbEntity
  8
0
100
AcDbLine
 62
7
  6
CONTINUOUS
 10
126.2039660463
 20
56.2403461675
 11
125.6678641266
 21
55.3214726207
  0
LINE
  5
2AC
100
AcDbEntity
  8
0
100
AcDbLine
 62
7
  6
CONTINUOUS
 10
100.3122330586
 20
82.466094467
 11
105.7048962774
 21
88.1552104442
  0
LINE
  5
2AD
100
AcDbEntity
  8
0
100
AcDbLine
 62
7
  6
CONTINUOUS
 10
103.6531054576
 20
87.7660880611
 11
97.9087292722
 21
81.8374400188
  0
LINE
  5
2AE
100
AcDbEntity
  8
0
100
AcDbLine
 62
7
  6
CONTINUOUS
 10
102.4213125709
 20
92.9766065549
 11
95.0942291441
 21
85.9700649751
  0
LINE
  5
2AF
100
AcDbEntity
  8
0
100
AcDbLine
 62
7
  6
CONTINUOUS
 10
97.4977329305
 20
86.5987194232
 11
103.1249376029
 21
91.9434503159
  0
LINE
  5
2B0
100
AcDbEntity
  8
RUNDUNGEN
100
AcDbLine
 62
7
  6
CONTINUOUS
 10
259.4062684984
 20
227.477694548
 11
275.7544603286
 21
242.3534045468
  0
LINE
  5
2B1
100
AcDbEntity
  8
RUNDUNGEN
100
AcDbLine
 62
7
  6
CONTINUOUS
 10
288.3146449344
 20
127.6732989628
 11
273.3110420389
 21
136.3356331333
  0
LINE
  5
2B2
100
AcDbEntity
  8
0
100
AcDbLine
 62
7
  6
CONTINUOUS
 10
218.1267020125
 20
50.5572443315
 11
217.927972496
 21
51.6229091845
  0
LINE
  5
2B3
100
AcDbEntity
  8
0
100
AcDbLine
 62
7
  6
CONTINUOUS
 10
216.7661011704
 20
51.1618722849
 11
216.8863563304
 21
50.2939727404
  0
LINE
  5
2B4
100
AcDbEntity
  8
0
100
AcDbLine
 62
7
  6
CONTINUOUS
 10
206.7108963419
 20
47.4785121153
 11
206.737181893
 21
46.6027153394
  0
LINE
  5
2B5
100
AcDbEntity
  8
0
100
AcDbLine
 62
7
  6
CONTINUOUS
 10
196.3463172743
 20
48.6185497756
 11
196.2454822021
 21
47.9547291537
  0
LINE
  5
2B6
100
AcDbEntity
  8
0
100
AcDbLine
 62
7
  6
CONTINUOUS
 10
197.5134511908
 20
47.9498316303
 11
197.6142862629
 21
48.6136522522
  0
LINE
  5
2B7
100
AcDbEntity
  8
0
100
AcDbLine
 62
7
  6
CONTINUOUS
 10
134.9261799838
 20
58.7877635483
 11
134.7117389455
 21
58.4202136662
  0
LINE
  5
2B8
100
AcDbEntity
  8
0
100
AcDbLine
 62
7
  6
CONTINUOUS
 10
132.1459224967
 20
51.5419541655
 11
132.6820244164
 21
52.4608277123
  0
LINE
  5
2B9
100
AcDbEntity
  8
0
100
AcDbLine
 62
7
  6
CONTINUOUS
 10
135.7914153406
 20
57.7902939237
 11
136.0058563788
 21
58.1578438058
  0
LINE
  5
2BA
100
AcDbEntity
  8
0
100
AcDbLine
 62
7
  6
CONTINUOUS
 10
117.9797566571
 20
62.0858858852
 11
117.3520224451
 21
61.2270007808
  0
LINE
  5
2BB
100
AcDbEntity
  8
0
100
AcDbLine
 62
7
  6
CONTINUOUS
 10
126.9176587246
 20
63.7230352106
 11
126.6665647233
 21
63.3794807357
  0
LINE
  5
2BC
100
AcDbEntity
  8
0
100
AcDbLine
 62
7
  6
CONTINUOUS
 10
123.4071623049
 20
56.8014746789
 11
124.0348965169
 21
57.6603597834
  0
LINE
  5
2BD
100
AcDbEntity
  8
0
100
AcDbLine
 62
7
  6
CONTINUOUS
 10
127.6757546999
 20
62.6418930521
 11
127.9268487013
 21
62.985447527
  0
LINE
  5
2BE
100
AcDbEntity
  8
0
100
AcDbLine
 62
7
  6
CONTINUOUS
 10
109.116907064
 20
83.4163214715
 11
101.5962996554
 21
76.8253834346
  0
LINE
  5
2BF
100
AcDbEntity
  8
0
100
AcDbLine
 62
7
  6
CONTINUOUS
 10
102.4201669101
 20
75.8853075085
 11
105.9404512576
 21
78.9704274658
  0
LINE
  5
2C0
100
AcDbEntity
  8
0
100
AcDbLine
 62
7
  6
CONTINUOUS
 10
106.9005286846
 20
79.8118237106
 11
109.9407743186
 21
82.4762455454
  0
LINE
  5
2C1
100
AcDbEntity
  8
0
100
AcDbLine
 62
7
  6
CONTINUOUS
 10
113.7854876497
 20
78.0892251548
 11
110.7452420157
 21
75.42480332
  0
LINE
  5
2C2
100
AcDbEntity
  8
0
100
AcDbLine
 62
7
  6
CONTINUOUS
 10
109.7851645886
 20
74.5834070751
 11
106.2648802412
 21
71.4982871179
  0
LINE
  5
2C3
100
AcDbEntity
  8
0
100
AcDbLine
 62
7
  6
CONTINUOUS
 10
107.0887474958
 20
70.5582111918
 11
114.6093549043
 21
77.1491492288
  0
LINE
  5
2C4
100
AcDbEntity
  8
RUNDUNGEN
100
AcDbLine
 62
7
  6
CONTINUOUS
 10
266.4926804018
 20
200.8248371897
 11
284.7839883139
 21
196.7027129225
  0
LINE
  5
2C5
100
AcDbEntity
  8
RUNDUNGEN
100
AcDbLine
 62
7
  6
CONTINUOUS
 10
307.4375530713
 20
142.4061854941
 11
284.79653692
 21
155.4779822638
  0
LINE
  5
2C6
100
AcDbEntity
  8
BEZUGSACHSEN
100
AcDbLine
 62
7
  6
CONTINUOUS
 10
229.79653692
 20
403.942083879
 11
229.79653692
 21
377.942083879
  0
LINE
  5
2C7
100
AcDbEntity
  8
RUNDUNGEN
100
AcDbLine
 62
7
  6
CONTINUOUS
 10
229.79653692
 20
377.942083879
 11
229.79653692
 21
304.6918721157
  0
LINE
  5
2C8
100
AcDbEntity
  8
0
100
AcDbLine
 62
7
  6
CONTINUOUS
 10
218.053306097
 20
49.6125028203
 11
218.1267020125
 21
50.5572443315
  0
LINE
  5
2C9
100
AcDbEntity
  8
0
100
AcDbLine
 62
7
  6
CONTINUOUS
 10
207.8241355275
 20
45.79978022
 11
207.9986376925
 21
46.7311622458
  0
LINE
  5
2CA
100
AcDbEntity
  8
0
100
AcDbLine
 62
7
  6
CONTINUOUS
 10
166.121608999
 20
47.8036535581
 11
165.810378327
 21
47.2087073432
  0
LINE
  5
2CB
100
AcDbEntity
  8
0
100
AcDbLine
 62
7
  6
CONTINUOUS
 10
167.0078331177
 20
46.7917284876
 11
167.3190637898
 21
47.3866747025
  0
LINE
  5
2CC
100
AcDbEntity
  8
0
100
AcDbLine
 62
7
  6
CONTINUOUS
 10
149.5678783836
 20
44.3514925748
 11
155.7768400907
 21
52.8697034331
  0
LINE
  5
2CD
100
AcDbEntity
  8
0
100
AcDbLine
 62
7
  6
CONTINUOUS
 10
154.5857053077
 20
53.2487785295
 11
149.1609275366
 21
45.8206878609
  0
LINE
  5
2CE
100
AcDbEntity
  8
0
100
AcDbLine
 62
7
  6
CONTINUOUS
 10
130.3165702431
 20
62.4624885489
 11
129.7077413287
 21
61.8323772392
  0
LINE
  5
2CF
100
AcDbEntity
  8
0
100
AcDbLine
 62
7
  6
CONTINUOUS
 10
135.1825864261
 20
57.1601826139
 11
135.7914153406
 21
57.7902939237
  0
LINE
  5
2D0
100
AcDbEntity
  8
0
100
AcDbLine
 62
7
  6
CONTINUOUS
 10
122.7102953661
 20
67.8522171791
 11
122.0399084542
 21
67.2880414103
  0
LINE
  5
2D1
100
AcDbEntity
  8
0
100
AcDbLine
 62
7
  6
CONTINUOUS
 10
127.0053716378
 20
62.0777144696
 11
127.6757546999
 21
62.6418930521
  0
LINE
  5
2D2
100
AcDbEntity
  8
RUNDUNGEN
100
AcDbLine
 62
7
  6
CONTINUOUS
 10
285.9046034965
 20
189.3364731316
 11
272.0293487423
 21
181.3255910642
  0
LINE
  5
2D3
100
AcDbEntity
  8
0
100
AcDbLine
 62
7
  6
CONTINUOUS
 10
107.3466877951
 20
85.7445128815
 11
100.3122330586
 21
82.466094467
  0
LINE
  5
2D4
100
AcDbEntity
  8
0
100
AcDbLine
 62
7
  6
CONTINUOUS
 10
98.8468964289
 20
80.4598977099
 11
108.0503128271
 21
84.7113566425
  0
LINE
  5
2D5
100
AcDbEntity
  8
0
100
AcDbLine
 62
7
  6
CONTINUOUS
 10
96.0323963008
 20
84.5925226661
 11
103.6531054576
 21
87.7660880611
  0
LINE
  5
2D6
100
AcDbEntity
  8
0
100
AcDbLine
 62
7
  6
CONTINUOUS
 10
104.7667291206
 20
89.5327527532
 11
97.4977329305
 21
86.5987194232
  0
LINE
  5
2D7
100
AcDbEntity
  8
RUNDUNGEN
100
AcDbLine
 62
7
  6
CONTINUOUS
 10
288.4075451667
 20
214.4898137795
 11
261.2189337351
 21
220.6170319923
  0
LINE
  5
2D8
100
AcDbEntity
  8
BEZUGSACHSEN
100
AcDbLine
 62
7
  6
CONTINUOUS
 10
232.8887275854
 20
200.1493030161
 11
129.8418031152
 21
335.4177267413
  0
LINE
  5
2D9
100
AcDbEntity
  8
RUNDUNGEN
100
AcDbLine
 62
7
  6
CONTINUOUS
 10
232.8887275854
 20
200.1493030161
 11
129.8418031152
 21
335.4177267413
  0
LINE
  5
2DA
100
AcDbEntity
  8
0
100
AcDbLine
 62
7
  6
CONTINUOUS
 10
216.8863563304
 20
50.2939727404
 11
216.7344860034
 21
49.546996676
  0
LINE
  5
2DB
100
AcDbEntity
  8
0
100
AcDbLine
 62
7
  6
CONTINUOUS
 10
206.737181893
 20
46.6027153394
 11
206.5059136593
 21
45.8763870108
  0
LINE
  5
2DC
100
AcDbEntity
  8
0
100
AcDbLine
 62
7
  6
CONTINUOUS
 10
197.0364787402
 20
47.0077956697
 11
197.5134511908
 21
47.9498316303
  0
LINE
  5
2DD
100
AcDbEntity
  8
0
100
AcDbLine
 62
7
  6
CONTINUOUS
 10
134.7117389455
 20
58.4202136662
 11
133.9229625924
 21
57.8950897812
  0
LINE
  5
2DE
100
AcDbEntity
  8
RUNDUNGEN
100
AcDbLine
 62
7
  6
CONTINUOUS
 10
284.79653692
 20
162.4061854941
 11
307.4375530713
 21
175.4779822638
  0
LINE
  5
2DF
100
AcDbEntity
  8
0
100
AcDbLine
 62
7
  6
CONTINUOUS
 10
126.6665647233
 20
63.3794807357
 11
125.8279820485
 21
62.9382343718
  0
LINE
  5
2E0
100
AcDbEntity
  8
RUNDUNGEN
100
AcDbLine
 62
7
  6
CONTINUOUS
 10
231.9423227999
 20
234.3955689511
 11
202.9007136093
 21
272.5181302779
  0
LINE
  5
2E1
100
AcDbEntity
  8
RUNDUNGEN
100
AcDbLine
 62
7
  6
CONTINUOUS
 10
266.2705782592
 20
183.421612106
 11
261.8545251012
 21
195.5546184407
  0
LINE
  5
2E2
100
AcDbEntity
  8
RUNDUNGEN
100
AcDbLine
 62
7
  6
CONTINUOUS
 10
267.4473387338
 20
133.9068076986
 11
264.032143136
 21
121.1611242098
  0
LINE
  5
2E3
100
AcDbEntity
  8
0
100
AcDbLine
 62
7
  6
CONTINUOUS
 10
217.5926256217
 20
48.5140847567
 11
218.053306097
 21
49.6125028203
  0
LINE
  5
2E4
100
AcDbEntity
  8
0
100
AcDbLine
 62
7
  6
CONTINUOUS
 10
207.2480762132
 20
44.7572331423
 11
207.8241355275
 21
45.79978022
  0
LINE
  5
2E5
100
AcDbEntity
  8
0
100
AcDbLine
 62
7
  6
CONTINUOUS
 10
196.2454822021
 20
47.9547291537
 11
195.904236389
 21
47.4666283212
  0
LINE
  5
2E6
100
AcDbEntity
  8
0
100
AcDbLine
 62
7
  6
CONTINUOUS
 10
166.2504338154
 20
46.0560106296
 11
167.0078331177
 21
46.7917284876
  0
LINE
  5
2E7
100
AcDbEntity
  8
0
100
AcDbLine
 62
7
  6
CONTINUOUS
 10
165.810378327
 20
47.2087073432
 11
165.328949273
 21
46.8581118589
  0
LINE
  5
2E8
100
AcDbEntity
  8
0
100
AcDbLine
 62
7
  6
CONTINUOUS
 10
130.6074744037
 20
61.3074425184
 11
131.2890262692
 21
61.6487941228
  0
LINE
  5
2E9
100
AcDbEntity
  8
0
100
AcDbLine
 62
7
  6
CONTINUOUS
 10
134.5010345606
 20
56.8188310096
 11
135.1825864261
 21
57.1601826139
  0
LINE
  5
2EA
100
AcDbEntity
  8
0
100
AcDbLine
 62
7
  6
CONTINUOUS
 10
122.8808988181
 20
66.6733859452
 11
123.5939385179
 21
66.9428524987
  0
LINE
  5
2EB
100
AcDbEntity
  8
0
100
AcDbLine
 62
7
  6
CONTINUOUS
 10
126.292331938
 20
61.8082479162
 11
127.0053716378
 21
62.0777144696
  0
LINE
  5
2EC
100
AcDbEntity
  8
RUNDUNGEN
100
AcDbLine
 62
7
  6
CONTINUOUS
 10
206.0826075327
 20
278.942083879
 11
226.8335004167
 21
278.942083879
  0
LINE
  5
2ED
100
AcDbEntity
  8
0
100
AcDbLine
 62
7
  6
CONTINUOUS
 10
216.7344860034
 20
49.546996676
 11
216.3104991086
 21
48.9209474709
  0
LINE
  5
2EE
100
AcDbEntity
  8
0
100
AcDbLine
 62
7
  6
CONTINUOUS
 10
206.5059136593
 20
45.8763870108
 11
206.0171008717
 21
45.2995295302
  0
LINE
  5
2EF
100
AcDbEntity
  8
0
100
AcDbLine
 62
7
  6
CONTINUOUS
 10
216.9749875621
 20
47.8111938098
 11
217.5926256217
 21
48.5140847567
  0
LINE
  5
2F0
100
AcDbEntity
  8
0
100
AcDbLine
 62
7
  6
CONTINUOUS
 10
206.558475645
 20
44.1247906452
 11
207.2480762132
 21
44.7572331423
  0
LINE
  5
2F1
100
AcDbEntity
  8
0
100
AcDbLine
 62
7
  6
CONTINUOUS
 10
196.2842039834
 20
46.4513649924
 11
197.0364787402
 21
47.0077956697
  0
LINE
  5
2F2
100
AcDbEntity
  8
RUNDUNGEN
100
AcDbLine
 62
7
  6
CONTINUOUS
 10
224.1165088992
 20
78.7658487294
 11
237.4167231788
 21
87.0767450066
  0
LINE
  5
2F3
100
AcDbEntity
  8
0
100
AcDbLine
 62
7
  6
CONTINUOUS
 10
165.3228361312
 20
45.5646435023
 11
166.2504338154
 21
46.0560106296
  0
LINE
  5
2F4
100
AcDbEntity
  8
RUNDUNGEN
100
AcDbLine
 62
7
  6
CONTINUOUS
 10
228.9944616986
 20
278.3081270068
 11
260.6506000785
 21
257.9852473594
  0
LINE
  5
2F5
100
AcDbEntity
  8
RUNDUNGEN
100
AcDbLine
 62
7
  6
CONTINUOUS
 10
282.0009793133
 20
241.2294783848
 11
292.8413989147
 21
220.2265501733
  0
LINE
  5
2F6
100
AcDbEntity
  8
RUNDUNGEN
100
AcDbLine
 62
7
  6
CONTINUOUS
 10
313.4375530713
 20
172.0138806487
 11
313.4375530713
 21
145.8702871093
  0
LINE
  5
2F7
100
AcDbEntity
  8
0
100
AcDbLine
 62
7
  6
CONTINUOUS
 10
216.3104991086
 20
48.9209474709
 11
215.6143955362
 21
48.4158254018
  0
LINE
  5
2F8
100
AcDbEntity
  8
0
100
AcDbLine
 62
7
  6
CONTINUOUS
 10
216.0852417304
 20
47.2292334127
 11
216.9749875621
 21
47.8111938098
  0
LINE
  5
2F9
100
AcDbEntity
  8
0
100
AcDbLine
 62
7
  6
CONTINUOUS
 10
206.0171008717
 20
45.2995295302
 11
205.2707434507
 21
44.8721431848
  0
LINE
  5
2FA
100
AcDbEntity
  8
0
100
AcDbLine
 62
7
  6
CONTINUOUS
 10
195.904236389
 20
47.4666283212
 11
195.3225892426
 21
47.1542488421
  0
LINE
  5
2FB
100
AcDbEntity
  8
0
100
AcDbLine
 62
7
  6
CONTINUOUS
 10
205.6113396642
 20
43.6418217201
 11
206.558475645
 21
44.1247906452
  0
LINE
  5
2FC
100
AcDbEntity
  8
0
100
AcDbLine
 62
7
  6
CONTINUOUS
 10
212.3969465335
 20
56.5242040173
 11
207.7494612312
 21
54.6800564188
  0
LINE
  5
2FD
100
AcDbEntity
  8
0
100
AcDbLine
 62
7
  6
CONTINUOUS
 10
209.382178696
 20
53.9545014678
 11
212.8677926727
 21
55.3376121667
  0
LINE
  5
2FE
100
AcDbEntity
  8
0
100
AcDbLine
 62
7
  6
CONTINUOUS
 10
215.6143955362
 20
48.4158254018
 11
212.1287815595
 21
47.032714703
  0
LINE
  5
2FF
100
AcDbEntity
  8
0
100
AcDbLine
 62
7
  6
CONTINUOUS
 10
211.4377564281
 20
45.3850858142
 11
216.0852417304
 21
47.2292334127
  0
LINE
  5
300
100
AcDbEntity
  8
RUNDUNGEN
100
AcDbLine
 62
7
  6
CONTINUOUS
 10
281.6924995518
 20
75.0303962171
 11
297.7894681185
 21
100.2975756115
  0
LINE
  5
301
100
AcDbEntity
  8
BEZUGSACHSEN
100
AcDbLine
 62
7
  6
CONTINUOUS
 10
191.14653692
 20
367.692083879
 11
166.44653692
 21
367.692083879
  0
LINE
  5
302
100
AcDbEntity
  8
BEZUGSACHSEN
100
AcDbLine
 62
7
  6
CONTINUOUS
 10
166.44653692
 20
395.192083879
 11
191.14653692
 21
395.192083879
  0
LWPOLYLINE
  5
303
100
AcDbEntity
  8
RUNDUNGEN
100
AcDbPolyline
 62
7
  6
CONTINUOUS
 90
25
 70
0
 10
132.7965451196
 20
408.9420838762
 10
132.6572038951
 20
408.9401572777
 10
132.3216630377
 20
408.9196484707
 10
131.9882201135
 20
408.8767712798
 10
131.6584549172
 20
408.8117053368
 10
131.3339124207
 20
408.7247502054
 10
131.01606204
 20
408.6163052122
 10
130.7063735184
 20
408.486886453
 10
130.406217336
 20
408.3370871853
 10
130.1169433132
 20
408.1676032365
 10
129.8398318439
 20
407.9792089473
 10
129.5761177581
 20
407.7727687344
 10
129.3269655446
 20
407.5492197359
 10
129.09347788
 20
407.309576414
 10
128.8766905809
 20
407.054927714
 10
128.677563997
 20
406.7864290751
 10
128.496980156
 20
406.5052993678
 10
128.3357375817
 20
406.2128145769
 10
128.1945465446
 20
405.9103000219
 10
128.0740282387
 20
405.5991296719
 10
127.974706006
 20
405.2807037498
 10
127.897013016
 20
404.9564699875
 10
127.8412759944
 20
404.627852166
 10
127.8077337149
 20
404.2962892533
 10
127.79653692
 20
403.9632931278
  0
LWPOLYLINE
  5
304
100
AcDbEntity
  8
BEZUGSACHSEN
100
AcDbPolyline
 62
7
  6
CONTINUOUS
 90
24
 70
0
 10
132.7965454644
 20
408.9420838761
 10
132.6735972258
 20
408.9405840584
 10
132.3372813689
 20
408.921103475
 10
132.0029990723
 20
408.8791539946
 10
131.6723417319
 20
408.8149110276
 10
131.3468659025
 20
408.7286712984
 10
131.02805158
 20
408.6208323547
 10
130.7173797051
 20
408.4919096834
 10
130.4162309305
 20
408.3424967684
 10
130.1259654551
 20
408.1732906605
 10
129.8478735882
 20
407.9850677497
 10
129.5831999075
 20
407.7786954017
 10
129.3331181744
 20
407.5551144683
 10
129.0987399566
 20
407.3153439131
 10
128.881109533
 20
407.0604779686
 10
128.681195198
 20
406.7916781154
 10
128.4998861764
 20
406.5101697081
 10
128.3379876513
 20
406.2172359368
 10
128.1962157015
 20
405.9142095118
 10
128.0751967172
 20
405.602472313
 10
127.9754585449
 20
405.2834329265
 10
127.897437966
 20
404.9585469901
 10
127.8414651815
 20
404.6292496291
 10
127.8077810343
 20
404.2969914171
  0
LINE
  5
305
100
AcDbEntity
  8
RUNDUNGEN
100
AcDbLine
 62
7
  6
CONTINUOUS
 10
132.796536904
 20
408.942083879
 11
161.44653692
 21
408.942083879
  0
LINE
  5
306
100
AcDbEntity
  8
RUNDUNGEN
100
AcDbLine
 62
7
  6
CONTINUOUS
 10
196.14653692
 20
408.942083879
 11
224.79653692
 21
408.942083879
  0
LWPOLYLINE
  5
307
100
AcDbEntity
  8
RUNDUNGEN
100
AcDbPolyline
 62
7
  6
CONTINUOUS
 90
30
 70
0
 10
482.9878936942
 20
10.9420838802
 10
483.1513806529
 20
10.9447521325
 10
483.5123878144
 20
10.9696150499
 10
483.8714653454
 20
11.0206152735
 10
484.2252438611
 20
11.0972860414
 10
484.570322661
 20
11.1985494696
 10
484.9036452127
 20
11.3228030638
 10
485.2221275469
 20
11.4677922593
 10
485.5230811428
 20
11.6307369121
 10
485.8046149802
 20
11.8086403444
 10
486.065203985
 20
11.9981751208
 10
486.3038254324
 20
12.19582745
 10
486.5199021751
 20
12.3979401062
 10
486.713391266
 20
12.600898003
 10
486.8844193458
 20
12.800848454
 10
487.0342946296
 20
12.9950631884
 10
487.1636750433
 20
13.1798941381
 10
487.2757333277
 20
13.3554984164
 10
487.3724862149
 20
13.5211108212
 10
487.4567975823
 20
13.6781939422
 10
487.531346208
 20
13.829049484
 10
487.5967164934
 20
13.9724919548
 10
487.654100959
 20
14.1087900746
 10
487.7039530187
 20
14.2366818844
 10
487.7467217951
 20
14.354814271
 10
487.7835774791
 20
14.4640058457
 10
487.8152822098
 20
14.564354963
 10
487.8427941554
 20
14.6569990814
 10
487.8668743736
 20
14.7429297489
 10
487.8803350591
 20
14.7931519412
  0
LINE
  5
308
100
AcDbEntity
  8
BEZUGSACHSEN
100
AcDbLine
 62
7
  6
CONTINUOUS
 10
482.9878973448
 20
10.942083879
 11
463.5334449011
 21
10.942083879
  0
LINE
  5
309
100
AcDbEntity
  8
0
100
AcDbLine
 62
7
  6
CONTINUOUS
 10
463.5334445077
 20
10.942083879
 11
482.9878977382
 21
10.942083879
  0
LINE
  5
30A
100
AcDbEntity
  8
BEZUGSACHSEN
100
AcDbLine
 62
7
  6
CONTINUOUS
 10
434.6004173651
 20
350.6741351716
 11
440.9209246039
 21
361.6215748387
  0
LINE
  5
30B
100
AcDbEntity
  8
RUNDUNGEN
100
AcDbLine
 62
7
  6
CONTINUOUS
 10
510.3317991022
 20
316.0132118582
 11
499.5852836658
 21
305.2666922122
  0
LWPOLYLINE
  5
30C
100
AcDbEntity
  8
BEZUGSACHSEN
100
AcDbPolyline
 62
7
  6
CONTINUOUS
 90
4
 70
0
 10
442.3160602018
 20
73.5184775751
 10
443.1316758623
 20
70.7624989816
 10
444.4290990317
 20
66.3252283128
 10
445.2388348196
 20
63.5226709124
  0
LWPOLYLINE
  5
30D
100
AcDbEntity
  8
BEZUGSACHSEN
100
AcDbPolyline
 62
7
  6
CONTINUOUS
 90
3
 70
0
 10
451.6952433432
 20
40.5876441725
 10
453.1595613835
 20
35.2516194049
 10
454.2413187184
 20
31.271796611
  0
LWPOLYLINE
  5
30E
100
AcDbEntity
  8
BEZUGSACHSEN
100
AcDbPolyline
 62
7
  6
CONTINUOUS
 90
31
 70
0
 10
458.6455201787
 20
14.7761294896
 10
458.6658612751
 20
14.701671554
 10
458.6881659109
 20
14.6239770484
 10
458.7129243269
 20
14.5420771949
 10
458.7405964842
 20
14.4553464431
 10
458.7719375195
 20
14.3625173898
 10
458.8077027582
 20
14.2627043304
 10
458.84898871
 20
14.1545014452
 10
458.8970488759
 20
14.036661466
 10
458.9531834548
 20
13.9084100569
 10
459.019064584
 20
13.768747098
 10
459.0960517101
 20
13.6179490069
 10
459.1859532835
 20
13.4559115225
 10
459.2900997876
 20
13.2838671551
 10
459.4102287814
 20
13.1026812868
 10
459.5473366373
 20
12.9145813473
 10
459.7024341667
 20
12.7217462657
 10
459.8766662475
 20
12.526207159
 10
460.0709946915
 20
12.3302538431
 10
460.2861457213
 20
12.1364118071
 10
460.5228044001
 20
11.9472241773
 10
460.7807382089
 20
11.7658677208
 10
461.0599899083
 20
11.5951259975
 10
461.3583554972
 20
11.4388183463
 10
461.6736822598
 20
11.3000332484
 10
462.0029116704
 20
11.181590069
 10
462.3426003341
 20
11.0856710933
 10
462.6893274004
 20
11.0137095337
 10
463.0393603475
 20
10.9665079281
 10
463.3889992842
 20
10.9441667616
 10
463.5334481988
 20
10.9420838801
  0
LWPOLYLINE
  5
30F
100
AcDbEntity
  8
BEZUGSACHSEN
100
AcDbPolyline
 62
7
  6
CONTINUOUS
 90
5
 70
0
 10
454.2413187184
 20
31.271796611
 10
455.3637434783
 20
27.1102193276
 10
456.5378801769
 20
22.7244796511
 10
457.7808051117
 20
18.048313785
 10
458.6455201787
 20
14.7761294896
  0
LWPOLYLINE
  5
310
100
AcDbEntity
  8
BEZUGSACHSEN
100
AcDbPolyline
 62
7
  6
CONTINUOUS
 90
9
 70
0
 10
450.1834095366
 20
295.0206435396
 10
448.18100715
 20
283.76980848
 10
446.2685349557
 20
272.5536871137
 10
444.4669006001
 20
261.4596707803
 10
442.780779992
 20
250.4641771783
 10
441.217266994
 20
239.5439898
 10
439.784849283
 20
228.6769791295
 10
438.4925715148
 20
217.8437858897
 10
437.3610003973
 20
207.150820699
  0
LINE
  5
311
100
AcDbEntity
  8
BEZUGSACHSEN
100
AcDbLine
 62
7
  6
CONTINUOUS
 10
433.260671123
 20
323.08421939
 11
433.260671123
 21
345.6741338664
  0
LINE
  5
312
100
AcDbEntity
  8
BEZUGSACHSEN
100
AcDbLine
 62
7
  6
CONTINUOUS
 10
442.260671123
 20
366.6215769261
 11
442.260671123
 21
377.9420834332
  0
LWPOLYLINE
  5
313
100
AcDbEntity
  8
BEZUGSACHSEN
100
AcDbPolyline
 62
7
  6
CONTINUOUS
 90
63
 70
0
 10
437.2978293946
 20
206.5182000958
 10
437.0483290451
 20
203.7818633712
 10
436.8341881092
 20
200.9120222274
 10
436.6626113124
 20
198.0511482396
 10
436.5279444114
 20
195.2030193516
 10
436.4254179405
 20
192.3740728084
 10
436.3506757541
 20
189.5652836903
 10
436.3000107951
 20
186.7798557973
 10
436.2700768137
 20
184.0110347454
 10
436.2581308692
 20
181.2521878576
 10
436.2618878538
 20
178.4997006533
 10
436.2793891406
 20
175.748288188
 10
436.3089558002
 20
172.9923903203
 10
436.349150499
 20
170.2250686005
 10
436.3986534301
 20
167.4427935558
 10
436.4563503782
 20
164.6370232526
 10
436.5208555062
 20
161.8150526414
 10
436.5908597584
 20
158.9792965507
 10
436.6651570894
 20
156.134874736
 10
436.7433466783
 20
153.285728871
 10
436.8252279651
 20
150.437547313
 10
436.910575055
 20
147.5968793545
 10
436.9992708842
 20
144.7667894122
 10
437.0911461113
 20
141.9523508901
 10
437.1861985133
 20
139.1538925117
 10
437.2844070415
 20
136.3730182677
 10
437.385779679
 20
133.6110866777
 10
437.4903435688
 20
130.869506035
 10
437.5981308091
 20
128.1500885693
 10
437.7092584815
 20
125.4530879955
 10
437.8235965441
 20
122.785118581
 10
437.9411423906
 20
120.1497339138
 10
438.0616450226
 20
117.5558954769
 10
438.1849054922
 20
115.0107734554
 10
438.310709107
 20
112.5212784329
 10
438.4388340115
 20
110.0938264616
 10
438.5690478074
 20
107.7343611055
 10
438.7011203607
 20
105.4480881909
 10
438.8347703472
 20
103.2403494425
 10
438.9697210376
 20
101.1155739321
 10
439.1056707274
 20
99.0777427894
 10
439.2423104622
 20
97.1300768852
 10
439.3793317868
 20
95.2749400867
 10
439.5163917169
 20
93.5143157028
 10
439.6532445003
 20
91.8481774374
 10
439.7894874797
 20
90.2776984815
 10
439.9252451002
 20
88.7975610866
 10
440.060485176
 20
87.4044235038
 10
440.1954047456
 20
86.0927892972
 10
440.3301757597
 20
84.8578849883
 10
440.4650579086
 20
83.6945922868
 10
440.6003450995
 20
82.5980426413
 10
440.7364140482
 20
81.5632760579
 10
440.8736791278
 20
80.5856744892
 10
441.0127733253
 20
79.6597959926
 10
441.1543461591
 20
78.7809688365
 10
441.2994930844
 20
77.9427992107
 10
441.4493862984
 20
77.1398405784
 10
441.605719402
 20
76.365403444
 10
441.7703706316
 20
75.6137707223
 10
441.9461825906
 20
74.8770588204
 10
442.1361830665
 20
74.149361133
 10
442.3167337202
 20
73.5162123709
  0
LINE
  5
314
100
AcDbEntity
  8
BEZUGSACHSEN
100
AcDbLine
 62
7
  6
CONTINUOUS
 10
437.3610088849
 20
207.1509065486
 11
437.2977488299
 21
206.5174847708
  0
LWPOLYLINE
  5
315
100
AcDbEntity
  8
BEZUGSACHSEN
100
AcDbPolyline
 62
7
  6
CONTINUOUS
 90
8
 70
0
 10
455.9019259861
 20
173.9969555784
 10
455.4397281117
 20
168.3370261943
 10
454.9119956879
 20
162.4429033415
 10
454.3325695689
 20
156.4456384788
 10
453.7049414923
 20
150.338395369
 10
453.0326346468
 20
144.1109708353
 10
452.3193190327
 20
137.7499637965
 10
451.5689616941
 20
131.2380520276
  0
LWPOLYLINE
  5
316
100
AcDbEntity
  8
BEZUGSACHSEN
100
AcDbPolyline
 62
7
  6
CONTINUOUS
 90
3
 70
0
 10
451.5689616941
 20
131.2380520276
 10
449.9777639427
 20
117.6789003361
 10
449.1321359884
 20
110.4172279779
  0
LINE
  5
317
100
AcDbEntity
  8
BEZUGSACHSEN
100
AcDbLine
 62
7
  6
CONTINUOUS
 10
449.1321359884
 20
110.4172279779
 11
448.7789925716
 21
107.489474653
  0
LINE
  5
318
100
AcDbEntity
  8
BEZUGSACHSEN
100
AcDbLine
 62
7
  6
CONTINUOUS
 10
448.7789925716
 20
107.489474653
 11
448.5029305333
 21
105.2486953002
  0
LINE
  5
319
100
AcDbEntity
  8
BEZUGSACHSEN
100
AcDbLine
 62
7
  6
CONTINUOUS
 10
448.5029305333
 20
105.2486953002
 11
448.2358420325
 21
103.1205655987
  0
LINE
  5
31A
100
AcDbEntity
  8
BEZUGSACHSEN
100
AcDbLine
 62
7
  6
CONTINUOUS
 10
448.2358420325
 20
103.1205655987
 11
447.9778033662
 21
101.1064878319
  0
LINE
  5
31B
100
AcDbEntity
  8
BEZUGSACHSEN
100
AcDbLine
 62
7
  6
CONTINUOUS
 10
447.9778033662
 20
101.1064878319
 11
447.7288851584
 21
99.2073339175
  0
LINE
  5
31C
100
AcDbEntity
  8
BEZUGSACHSEN
100
AcDbLine
 62
7
  6
CONTINUOUS
 10
447.7288851584
 20
99.2073339175
 11
447.4891602017
 21
97.4234483551
  0
LINE
  5
31D
100
AcDbEntity
  8
BEZUGSACHSEN
100
AcDbLine
 62
7
  6
CONTINUOUS
 10
447.4891602017
 20
97.4234483551
 11
447.2587132524
 21
95.754680175
  0
LINE
  5
31E
100
AcDbEntity
  8
BEZUGSACHSEN
100
AcDbLine
 62
7
  6
CONTINUOUS
 10
447.2587132524
 20
95.754680175
 11
447.037646742
 21
94.2003932936
  0
LINE
  5
31F
100
AcDbEntity
  8
BEZUGSACHSEN
100
AcDbLine
 62
7
  6
CONTINUOUS
 10
447.037646742
 20
94.2003932936
 11
446.8260849317
 21
92.7594793904
  0
LINE
  5
320
100
AcDbEntity
  8
BEZUGSACHSEN
100
AcDbLine
 62
7
  6
CONTINUOUS
 10
446.8260849317
 20
92.7594793904
 11
446.624176763
 21
91.4303706501
  0
LINE
  5
321
100
AcDbEntity
  8
BEZUGSACHSEN
100
AcDbLine
 62
7
  6
CONTINUOUS
 10
446.624176763
 20
91.4303706501
 11
446.43210742
 21
90.2111173302
  0
LWPOLYLINE
  5
322
100
AcDbEntity
  8
BEZUGSACHSEN
100
AcDbPolyline
 62
7
  6
CONTINUOUS
 90
3
 70
0
 10
446.43210742
 20
90.2111173302
 10
446.2500971591
 20
89.0993843308
 10
446.1628915458
 20
88.5827064674
  0
LINE
  5
323
100
AcDbEntity
  8
BEZUGSACHSEN
100
AcDbLine
 62
7
  6
CONTINUOUS
 10
446.1628915458
 20
88.5827064674
 11
445.9958834357
 21
87.6238438593
  0
LWPOLYLINE
  5
324
100
AcDbEntity
  8
BEZUGSACHSEN
100
AcDbPolyline
 62
7
  6
CONTINUOUS
 90
20
 70
0
 10
445.9958834357
 20
87.6238438593
 10
445.8385499427
 20
86.7595282351
 10
445.7634701948
 20
86.3612189423
 10
445.6907766245
 20
85.9847053507
 10
445.6204934995
 20
85.6295473596
 10
445.5526353862
 20
85.2952443602
 10
445.4872860912
 20
84.9816177168
 10
445.4245063051
 20
84.6883436696
 10
445.3644508429
 20
84.4154965112
 10
445.3072587748
 20
84.1630129373
 10
445.2531215428
 20
83.930993569
 10
445.2022284078
 20
83.7194496508
 10
445.1548359857
 20
83.5285846877
 10
445.1111979588
 20
83.3584867663
 10
445.0716636955
 20
83.2095017071
 10
445.0365772387
 20
83.081817537
 10
445.0064175345
 20
82.9759591705
 10
444.9816560253
 20
82.8922394283
 10
444.9629519144
 20
82.8313976425
 10
444.9522508343
 20
82.7978621397
  0
LWPOLYLINE
  5
325
100
AcDbEntity
  8
RUNDUNGEN
100
AcDbPolyline
 62
7
  6
CONTINUOUS
 90
19
 70
0
 10
501.5746495148
 20
82.7810493649
 10
501.5701914436
 20
82.7944890108
 10
501.5571888679
 20
82.8352298186
 10
501.5366283217
 20
82.90240005
 10
501.5093406053
 20
82.9952594428
 10
501.4759486711
 20
83.1134690774
 10
501.4370717771
 20
83.2564507319
 10
501.3931714527
 20
83.4239717002
 10
501.3447089083
 20
83.6156073464
 10
501.2920296815
 20
83.8312099464
 10
501.2354791766
 20
84.0704827592
 10
501.1753202877
 20
84.3333374016
 10
501.1118164056
 20
84.6195645157
 10
501.045166647
 20
84.9291328039
 10
500.9755941362
 20
85.2618000166
 10
500.9031824269
 20
85.6179082435
 10
500.8280564311
 20
85.9975481443
 10
500.7502213382
 20
86.4013741465
 10
500.6697022922
 20
86.8299289517
  0
LWPOLYLINE
  5
326
100
AcDbEntity
  8
RUNDUNGEN
100
AcDbPolyline
 62
7
  6
CONTINUOUS
 90
38
 70
0
 10
490.5848481197
 20
174.4031689494
 10
490.5385377932
 20
174.8570867362
 10
490.4865424224
 20
175.2875067671
 10
490.4288685325
 20
175.6989697501
 10
490.3654297445
 20
176.0948275619
 10
490.2959454094
 20
176.4783320012
 10
490.219975165
 20
176.8524475354
 10
490.1368613207
 20
177.2201415463
 10
490.0457451776
 20
177.5842234202
 10
489.9457112275
 20
177.9468047586
 10
489.8358552401
 20
178.3092720614
 10
489.7143030308
 20
178.675325225
 10
489.5791405029
 20
179.0474718837
 10
489.4276771693
 20
179.4290777619
 10
489.2566034626
 20
179.8234614886
 10
489.0631749442
 20
180.2312214019
 10
488.8431001694
 20
180.6549336222
 10
488.5955799528
 20
181.0896082787
 10
488.3193718224
 20
181.5316390733
 10
488.0128917895
 20
181.978201925
 10
487.6750912696
 20
182.425834478
 10
487.3046880385
 20
182.8715763252
 10
486.9006248024
 20
183.3122684237
 10
486.4628416476
 20
183.7438766462
 10
485.9909829882
 20
184.1629780332
 10
485.4873223815
 20
184.5643029307
 10
484.95412694
 20
184.9435115653
 10
484.394773427
 20
185.296337762
 10
483.8135527753
 20
185.6189501898
 10
483.2134391431
 20
185.909116885
 10
482.5990900403
 20
186.1644716844
 10
481.9716949257
 20
186.3846227646
 10
481.3334877062
 20
186.5688366543
 10
480.6863474169
 20
186.7166311296
 10
480.0322863142
 20
186.8275898266
 10
479.3732931336
 20
186.9014077604
 10
478.7113839625
 20
186.9378780216
 10
478.3973448808
 20
186.9420838365
  0
LINE
  5
327
100
AcDbEntity
  8
RUNDUNGEN
100
AcDbLine
 62
7
  6
CONTINUOUS
 10
490.6194162287
 20
173.9969559797
 11
490.6194217905
 21
173.9968842062
  0
LWPOLYLINE
  5
328
100
AcDbEntity
  8
BEZUGSACHSEN
100
AcDbPolyline
 62
7
  6
CONTINUOUS
 90
39
 70
0
 10
468.1239973388
 20
186.9420838365
 10
467.797665661
 20
186.9375422647
 10
467.1362565995
 20
186.9004171994
 10
466.4777931923
 20
186.8259994109
 10
465.8242898274
 20
186.7144973032
 10
465.1777333595
 20
186.5662176518
 10
464.540134201
 20
186.3815790213
 10
463.9133714799
 20
186.1610669068
 10
463.299669629
 20
185.9054151333
 10
462.7002192049
 20
185.6150189982
 10
462.1196463134
 20
185.2922336117
 10
461.5609037926
 20
184.939276852
 10
461.0282669588
 20
184.5599653471
 10
460.5250940398
 20
184.1585421822
 10
460.0536572878
 20
183.73933808
 10
459.6162201458
 20
183.3075989932
 10
459.2124624349
 20
182.866768167
 10
458.8423435835
 20
182.4208944439
 10
458.504822748
 20
181.9731553618
 10
458.1986317371
 20
181.5265349052
 10
457.9227255852
 20
181.084511509
 10
457.6755269735
 20
180.6499349386
 10
457.4557836674
 20
180.2264124205
 10
457.2626987563
 20
179.818958771
 10
457.0919542515
 20
179.4249499822
 10
456.9407923067
 20
179.043756426
 10
456.8058948715
 20
178.6720279698
 10
456.6845624441
 20
178.3063563796
 10
456.5748878935
 20
177.9442344604
 10
456.4749980033
 20
177.5819435147
 10
456.3839987609
 20
177.2181146448
 10
456.3009807537
 20
176.8506451048
 10
456.2250906207
 20
176.4767367423
 10
456.15567465
 20
176.093433258
 10
456.0922956262
 20
175.6977834324
 10
456.0346750071
 20
175.2865497643
 10
455.9827272568
 20
174.856393749
 10
455.9364594413
 20
174.4027955019
 10
455.9019259861
 20
173.9969555785
  0
LINE
  5
329
100
AcDbEntity
  8
0
100
AcDbLine
 62
7
  6
CONTINUOUS
 10
468.1240356496
 20
186.942083879
 11
478.3973065963
 21
186.942083879
  0
LINE
  5
32A
100
AcDbEntity
  8
RUNDUNGEN
100
AcDbLine
 62
7
  6
CONTINUOUS
 10
500.6697022922
 20
86.8299289517
 11
500.5005540957
 21
87.7641974886
  0
LINE
  5
32B
100
AcDbEntity
  8
RUNDUNGEN
100
AcDbLine
 62
7
  6
CONTINUOUS
 10
500.5005540957
 20
87.7641974886
 11
500.320381988
 21
88.8069445
  0
LINE
  5
32C
100
AcDbEntity
  8
RUNDUNGEN
100
AcDbLine
 62
7
  6
CONTINUOUS
 10
500.320381988
 20
88.8069445
 11
500.1287893777
 21
89.9657932347
  0
LINE
  5
32D
100
AcDbEntity
  8
RUNDUNGEN
100
AcDbLine
 62
7
  6
CONTINUOUS
 10
500.1287893777
 20
89.9657932347
 11
499.9256445717
 21
91.2467281514
  0
LINE
  5
32E
100
AcDbEntity
  8
RUNDUNGEN
100
AcDbLine
 62
7
  6
CONTINUOUS
 10
499.9256445717
 20
91.2467281514
 11
499.7111848255
 21
92.6529511007
  0
LINE
  5
32F
100
AcDbEntity
  8
RUNDUNGEN
100
AcDbLine
 62
7
  6
CONTINUOUS
 10
499.7111848255
 20
92.6529511007
 11
499.485663328
 21
94.1867749543
  0
LINE
  5
330
100
AcDbEntity
  8
RUNDUNGEN
100
AcDbLine
 62
7
  6
CONTINUOUS
 10
499.485663328
 20
94.1867749543
 11
499.2492773075
 21
95.8500554821
  0
LINE
  5
331
100
AcDbEntity
  8
RUNDUNGEN
100
AcDbLine
 62
7
  6
CONTINUOUS
 10
499.2492773075
 20
95.8500554821
 11
499.0021910011
 21
97.6440425897
  0
LINE
  5
332
100
AcDbEntity
  8
RUNDUNGEN
100
AcDbLine
 62
7
  6
CONTINUOUS
 10
499.0021910011
 20
97.6440425897
 11
498.7445422829
 21
99.5693441581
  0
LINE
  5
333
100
AcDbEntity
  8
RUNDUNGEN
100
AcDbLine
 62
7
  6
CONTINUOUS
 10
498.7445422829
 20
99.5693441581
 11
498.4764477083
 21
101.6259176972
  0
LINE
  5
334
100
AcDbEntity
  8
RUNDUNGEN
100
AcDbLine
 62
7
  6
CONTINUOUS
 10
498.4764477083
 20
101.6259176972
 11
498.1980120507
 21
103.8130446018
  0
LINE
  5
335
100
AcDbEntity
  8
RUNDUNGEN
100
AcDbLine
 62
7
  6
CONTINUOUS
 10
498.1980120507
 20
103.8130446018
 11
497.9093402509
 21
106.1293070862
  0
LINE
  5
336
100
AcDbEntity
  8
RUNDUNGEN
100
AcDbLine
 62
7
  6
CONTINUOUS
 10
497.9093402509
 20
106.1293070862
 11
497.6105721821
 21
108.5723960175
  0
LINE
  5
337
100
AcDbEntity
  8
RUNDUNGEN
100
AcDbLine
 62
7
  6
CONTINUOUS
 10
497.6105721821
 20
108.5723960175
 11
497.3892062575
 21
110.4172279779
  0
LWPOLYLINE
  5
338
100
AcDbEntity
  8
RUNDUNGEN
100
AcDbPolyline
 62
7
  6
CONTINUOUS
 90
9
 70
0
 10
496.5435783032
 20
117.6789003361
 10
494.9523805519
 20
131.2380520276
 10
494.2020232132
 20
137.7499637965
 10
493.4887075991
 20
144.1109708353
 10
492.8164007536
 20
150.338395369
 10
492.188772677
 20
156.4456384788
 10
491.609346558
 20
162.4429033415
 10
491.0816141342
 20
168.3370261943
 10
490.5848481197
 20
174.4031689494
  0
LINE
  5
339
100
AcDbEntity
  8
RUNDUNGEN
100
AcDbLine
 62
7
  6
CONTINUOUS
 10
497.3892062575
 20
110.4172279779
 11
496.5435783032
 21
117.6789003361
  0
LINE
  5
33A
100
AcDbEntity
  8
RUNDUNGEN
100
AcDbLine
 62
7
  6
CONTINUOUS
 10
504.260671123
 20
366.6215769261
 11
504.260671123
 21
377.9420834332
  0
LWPOLYLINE
  5
33B
100
AcDbEntity
  8
RUNDUNGEN
100
AcDbPolyline
 62
7
  6
CONTINUOUS
 90
9
 70
0
 10
509.1603418486
 20
207.150820699
 10
508.0287707311
 20
217.8437858897
 10
506.7364929629
 20
228.6769791295
 10
505.3040752519
 20
239.5439898
 10
503.7405622539
 20
250.4641771783
 10
502.0544416458
 20
261.4596707803
 10
500.2528072902
 20
272.5536871137
 10
498.3403350959
 20
283.76980848
 10
496.3379327093
 20
295.0206435396
  0
LINE
  5
33C
100
AcDbEntity
  8
RUNDUNGEN
100
AcDbLine
 62
7
  6
CONTINUOUS
 10
509.223593416
 20
206.5174847708
 11
509.1603333611
 21
207.1509065481
  0
LINE
  5
33D
100
AcDbEntity
  8
RUNDUNGEN
100
AcDbLine
 62
7
  6
CONTINUOUS
 10
513.260671123
 20
323.08421939
 11
513.260671123
 21
345.6741338664
  0
LWPOLYLINE
  5
33E
100
AcDbEntity
  8
RUNDUNGEN
100
AcDbPolyline
 62
7
  6
CONTINUOUS
 90
17
 70
0
 10
496.3379311508
 20
295.0206521193
 10
496.2394852458
 20
295.6748070983
 10
496.1752990756
 20
296.4254720941
 10
496.1616312876
 20
297.1745222103
 10
496.1969834426
 20
297.9181780145
 10
496.2797039627
 20
298.6532715152
 10
496.4080044945
 20
299.3766128215
 10
496.5799656028
 20
300.085222035
 10
496.7934581191
 20
300.7760494534
 10
497.0461770109
 20
301.4462510073
 10
497.3355718856
 20
302.0930295165
 10
497.6588869479
 20
302.7138075696
 10
498.0130422128
 20
303.3060456803
 10
498.3947108528
 20
303.8674716425
 10
498.8002187323
 20
304.3959724558
 10
499.2251406772
 20
304.8892379957
 10
499.5851587792
 20
305.2665671265
  0
LWPOLYLINE
  5
33F
100
AcDbEntity
  8
0
100
AcDbPolyline
 62
7
  6
CONTINUOUS
 90
4
 70
0
 10
487.8802655829
 20
14.7928884994
 10
488.7405371342
 20
18.048313785
 10
489.983462069
 20
22.7244796511
 10
491.1575987676
 20
27.1102193276
  0
LWPOLYLINE
  5
340
100
AcDbEntity
  8
0
100
AcDbPolyline
 62
7
  6
CONTINUOUS
 90
3
 70
0
 10
491.1575987676
 20
27.1102193276
 10
492.2800235275
 20
31.271796611
 10
493.3617808624
 20
35.2516194049
  0
LINE
  5
341
100
AcDbEntity
  8
0
100
AcDbLine
 62
7
  6
CONTINUOUS
 10
493.3617808624
 20
35.2516194049
 11
494.8260989027
 21
40.5876441725
  0
LWPOLYLINE
  5
342
100
AcDbEntity
  8
RUNDUNGEN
100
AcDbPolyline
 62
7
  6
CONTINUOUS
 90
63
 70
0
 10
504.2046385136
 20
73.5163131892
 10
504.3908156036
 20
74.1700768521
 10
504.580599257
 20
74.8989010084
 10
504.7562806561
 20
75.6370416473
 10
504.9208709893
 20
76.3904109912
 10
505.0771962293
 20
77.1668870142
 10
505.2271270821
 20
77.9722069867
 10
505.3723502246
 20
78.8130804949
 10
505.5140291099
 20
79.694952513
 10
505.6532517686
 20
80.6242159076
 10
505.7906634383
 20
81.6055499602
 10
505.9268913866
 20
82.6443898178
 10
506.0623502912
 20
83.7453859884
 10
506.1974125228
 20
84.9134933134
 10
506.3323811517
 20
86.1536956878
 10
506.4675205107
 20
87.4712047563
 10
506.603009674
 20
88.8709265573
 10
506.7390584175
 20
90.3585773184
 10
506.8756193419
 20
91.9374171639
 10
507.0128183027
 20
93.612864177
 10
507.1502179088
 20
95.3833559231
 10
507.2875484717
 20
97.2485905268
 10
507.4244461156
 20
99.2062243638
 10
507.5605826648
 20
101.2534861378
 10
507.6956313468
 20
103.3867095344
 10
507.8292681254
 20
105.6013277854
 10
507.9612198657
 20
107.8927073739
 10
508.0911913931
 20
110.2549778129
 10
508.2189868655
 20
112.6832871746
 10
508.3443930862
 20
115.1718466186
 10
508.4672118443
 20
117.7145481681
 10
508.5872488249
 20
120.304796184
 10
508.7043248376
 20
122.9357928417
 10
508.8182095579
 20
125.5990382262
 10
508.9289084334
 20
128.2912172905
 10
509.036308196
 20
131.0062054692
 10
509.1405136687
 20
133.7435431282
 10
509.2415530489
 20
136.5013948745
 10
509.3394473038
 20
139.2782514842
 10
509.434199511
 20
142.0726678128
 10
509.5257838976
 20
144.882937013
 10
509.6141934201
 20
147.7086039596
 10
509.6992575848
 20
150.5445589418
 10
509.7808562332
 20
153.3876242225
 10
509.8587671733
 20
156.2313573346
 10
509.9327918482
 20
159.0701290813
 10
510.0025137093
 20
161.9001408417
 10
510.0667146408
 20
164.7162066072
 10
510.1240971198
 20
167.5160667016
 10
510.1732857156
 20
170.2925870019
 10
510.2131713175
 20
173.0543187608
 10
510.2424397226
 20
175.8048795531
 10
510.259656269
 20
178.5511153653
 10
510.2631462063
 20
181.2985361449
 10
510.2509561715
 20
184.0523911632
 10
510.2208077291
 20
186.8162648266
 10
510.1699665371
 20
189.5967374911
 10
510.0950976415
 20
192.400526847
 10
509.9925101368
 20
195.2243866039
 10
509.8578692377
 20
198.0672938946
 10
509.6864288057
 20
200.9228466013
 10
509.4725648717
 20
203.7872757879
 10
509.2235129078
 20
206.5181995365
  0
LWPOLYLINE
  5
343
100
AcDbEntity
  8
0
100
AcDbPolyline
 62
7
  6
CONTINUOUS
 90
4
 70
0
 10
501.2825074263
 20
63.5226709124
 10
502.0922432142
 20
66.3252283128
 10
503.3896663836
 20
70.7624989816
 10
504.2052818079
 20
73.5184767811
  0
LINE
  5
344
100
AcDbEntity
  8
RUNDUNGEN
100
AcDbLine
 62
7
  6
CONTINUOUS
 10
504.2046394556
 20
73.5163163294
 11
504.2052820441
 21
73.5184775751
  0
LWPOLYLINE
  5
345
100
AcDbEntity
  8
BEZUGSACHSEN
100
AcDbPolyline
 62
7
  6
CONTINUOUS
 90
17
 70
0
 10
446.9361834667
 20
305.2665671265
 10
447.2962015687
 20
304.8892379957
 10
447.7211235136
 20
304.3959724558
 10
448.1266313931
 20
303.8674716425
 10
448.5083000331
 20
303.3060456803
 10
448.862455298
 20
302.7138075696
 10
449.1857703603
 20
302.0930295165
 10
449.475165235
 20
301.4462510073
 10
449.7278841268
 20
300.7760494534
 10
449.9413766431
 20
300.085222035
 10
450.1133377515
 20
299.3766128215
 10
450.2416382833
 20
298.6532715152
 10
450.3243588033
 20
297.9181780145
 10
450.3597109584
 20
297.1745222103
 10
450.3460431703
 20
296.4254720941
 10
450.2818570001
 20
295.6748070983
 10
450.1834110951
 20
295.0206521193
  0
LINE
  5
346
100
AcDbEntity
  8
BEZUGSACHSEN
100
AcDbLine
 62
7
  6
CONTINUOUS
 10
436.1895431437
 20
316.0132118582
 11
446.936060685
 21
305.266694317
  0
LINE
  5
347
100
AcDbEntity
  8
RUNDUNGEN
100
AcDbLine
 62
7
  6
CONTINUOUS
 10
511.9209248808
 20
350.6741351716
 11
505.600417642
 21
361.6215748387
  0
ARC
  5
348
100
AcDbEntity
  8
BEZUGSACHSEN
100
AcDbCircle
 62
7
  6
CONTINUOUS
 10
178.79653692
 20
158.942083879
 40
148.0
100
AcDbArc
 50
270.0000166621
 51
37.3389147551
  0
ARC
  5
349
100
AcDbEntity
  8
RUNDUNGEN
100
AcDbCircle
 62
7
  6
CONTINUOUS
 10
178.79653692
 20
158.942083879
 40
148.0
100
AcDbArc
 50
270.0000166621
 51
67.2894464212
  0
ARC
  5
34A
100
AcDbEntity
  8
RUNDUNGEN
100
AcDbCircle
 62
7
  6
CONTINUOUS
 10
178.79653692
 20
158.942083879
 40
130.0
100
AcDbArc
 50
275.0083882508
 51
301.7212464294
  0
ARC
  5
34B
100
AcDbEntity
  8
RUNDUNGEN
100
AcDbCircle
 62
7
  6
CONTINUOUS
 10
178.79653692
 20
130.9287122746
 40
119.9866283956
100
AcDbArc
 50
192.6999989213
 51
270.0000205522
  0
ARC
  5
34C
100
AcDbEntity
  8
RUNDUNGEN
100
AcDbCircle
 62
7
  6
CONTINUOUS
 10
178.79653692
 20
130.9287122746
 40
102.0384188552
100
AcDbArc
 50
181.3964655601
 51
263.5577958952
  0
ARC
  5
34D
100
AcDbEntity
  8
RUNDUNGEN
100
AcDbCircle
 62
7
  6
CONTINUOUS
 10
178.79653692
 20
158.942083879
 40
95.0694582085
100
AcDbArc
 50
197.3139869432
 51
263.6251209619
  0
ARC
  5
34E
100
AcDbEntity
  8
RUNDUNGEN
100
AcDbCircle
 62
7
  6
CONTINUOUS
 10
178.79653692
 20
158.942083879
 40
68.0
100
AcDbArc
 50
217.2999999911
 51
37.300008388
  0
ARC
  5
34F
100
AcDbEntity
  8
BEZUGSACHSEN
100
AcDbCircle
 62
7
  6
CONTINUOUS
 10
63.8098418201
 20
170.442083879
 40
16.5
100
AcDbArc
 50
37.2999940168
 51
192.6999030592
  0
ARC
  5
350
100
AcDbEntity
  8
RUNDUNGEN
100
AcDbCircle
 62
7
  6
CONTINUOUS
 10
63.8098418201
 20
170.442083879
 40
16.5
100
AcDbArc
 50
37.2999940168
 51
192.6999030592
  0
ARC
  5
351
100
AcDbEntity
  8
RUNDUNGEN
100
AcDbCircle
 62
7
  6
CONTINUOUS
 10
84.2160965228
 20
129.4582265331
 40
4.0
100
AcDbArc
 50
17.3139869432
 51
105.0
  0
ARC
  5
352
100
AcDbEntity
  8
RUNDUNGEN
100
AcDbCircle
 62
7
  6
CONTINUOUS
 10
80.7872359612
 20
128.5394661147
 40
4.0
100
AcDbArc
 50
105.0
 51
181.3964655601
  0
ARC
  5
353
100
AcDbEntity
  8
RUNDUNGEN
100
AcDbCircle
 62
7
  6
CONTINUOUS
 10
167.79653692
 20
60.4852022012
 40
4.0
100
AcDbArc
 50
0.0
 51
83.6251209619
  0
ARC
  5
354
100
AcDbEntity
  8
RUNDUNGEN
100
AcDbCircle
 62
7
  6
CONTINUOUS
 10
167.79653692
 20
33.5093529479
 40
4.0
100
AcDbArc
 50
263.5577958952
 51
360.0
  0
ARC
  5
355
100
AcDbEntity
  8
RUNDUNGEN
100
AcDbCircle
 62
7
  6
CONTINUOUS
 10
178.79653692
 20
350.292083879
 40
12.35
100
AcDbArc
 50
179.9999815071
 51
0.0000182471
  0
ARC
  5
356
100
AcDbEntity
  8
RUNDUNGEN
100
AcDbCircle
 62
7
  6
CONTINUOUS
 10
137.79653692
 20
341.4776120616
 40
10.0
100
AcDbArc
 50
179.999999982
 51
217.3000094905
  0
ARC
  5
357
100
AcDbEntity
  8
BEZUGSACHSEN
100
AcDbCircle
 62
7
  6
CONTINUOUS
 10
161.44653692
 20
403.942083879
 40
5.0
100
AcDbArc
 50
0.0
 51
90.0
  0
CIRCLE
  5
358
100
AcDbEntity
  8
BEZUGSACHSEN
100
AcDbCircle
 62
7
  6
CONTINUOUS
 10
139.79653692
 20
381.442083879
 40
4.0
  0
ARC
  5
359
100
AcDbEntity
  8
RUNDUNGEN
100
AcDbCircle
 62
7
  6
CONTINUOUS
 10
267.8958464411
 20
120.1258480294
 40
4.0
100
AcDbArc
 50
165.0
 51
282.5
  0
ARC
  5
35A
100
AcDbEntity
  8
RUNDUNGEN
100
AcDbCircle
 62
7
  6
CONTINUOUS
 10
309.4375530713
 20
172.0138806487
 40
4.0
100
AcDbArc
 50
0.0
 51
120.0
  0
ARC
  5
35B
100
AcDbEntity
  8
RUNDUNGEN
100
AcDbCircle
 62
7
  6
CONTINUOUS
 10
309.4375530713
 20
145.8702871093
 40
4.0
100
AcDbArc
 50
240.0
 51
360.0
  0
ARC
  5
35C
100
AcDbEntity
  8
RUNDUNGEN
100
AcDbCircle
 62
7
  6
CONTINUOUS
 10
286.79653692
 20
158.942083879
 40
4.0
100
AcDbArc
 50
120.0
 51
240.0
  0
ARC
  5
35D
100
AcDbEntity
  8
RUNDUNGEN
100
AcDbCircle
 62
7
  6
CONTINUOUS
 10
283.9046034965
 20
192.8005747467
 40
4.0
100
AcDbArc
 50
300.0
 51
77.3
  0
ARC
  5
35E
100
AcDbEntity
  8
RUNDUNGEN
100
AcDbCircle
 62
7
  6
CONTINUOUS
 10
270.0293487423
 20
184.7896926793
 40
4.0
100
AcDbArc
 50
200.0
 51
300.0
  0
ARC
  5
35F
100
AcDbEntity
  8
RUNDUNGEN
100
AcDbCircle
 62
7
  6
CONTINUOUS
 10
265.6132955844
 20
196.922699014
 40
4.0
100
AcDbArc
 50
77.3
 51
200.0
  0
ARC
  5
360
100
AcDbEntity
  8
RUNDUNGEN
100
AcDbCircle
 62
7
  6
CONTINUOUS
 10
289.2869299841
 20
218.3919519553
 40
4.0
100
AcDbArc
 50
257.3
 51
27.3
  0
ARC
  5
361
100
AcDbEntity
  8
RUNDUNGEN
100
AcDbCircle
 62
7
  6
CONTINUOUS
 10
286.3146449344
 20
124.2091973476
 40
4.0
100
AcDbArc
 50
282.5
 51
60.0
  0
ARC
  5
362
100
AcDbEntity
  8
RUNDUNGEN
100
AcDbCircle
 62
7
  6
CONTINUOUS
 10
189.79653692
 20
33.4231610028
 40
4.0
100
AcDbArc
 50
180.0
 51
275.0083882508
  0
ARC
  5
363
100
AcDbEntity
  8
RUNDUNGEN
100
AcDbCircle
 62
7
  6
CONTINUOUS
 10
189.79653692
 20
59.5292085937
 40
4.0
100
AcDbArc
 50
82.0
 51
180.0
  0
ARC
  5
364
100
AcDbEntity
  8
RUNDUNGEN
100
AcDbCircle
 62
7
  6
CONTINUOUS
 10
245.0457131376
 20
51.7644432514
 40
4.0
100
AcDbArc
 50
301.7212464294
 51
82.0
  0
ARC
  5
365
100
AcDbEntity
  8
RUNDUNGEN
100
AcDbCircle
 62
7
  6
CONTINUOUS
 10
226.2361859561
 20
75.3736563448
 40
4.0
100
AcDbArc
 50
122.0
 51
262.0
  0
ARC
  5
366
100
AcDbEntity
  8
RUNDUNGEN
100
AcDbCircle
 62
7
  6
CONTINUOUS
 10
239.5364002358
 20
83.684552622
 40
4.0
100
AcDbArc
 50
42.5
 51
122.0
  0
ARC
  5
367
100
AcDbEntity
  8
RUNDUNGEN
100
AcDbCircle
 62
7
  6
CONTINUOUS
 10
250.2436632758
 20
71.9996254432
 40
4.0
100
AcDbArc
 50
262.0
 51
42.5
  0
ARC
  5
368
100
AcDbEntity
  8
RUNDUNGEN
100
AcDbCircle
 62
7
  6
CONTINUOUS
 10
278.3189337686
 20
77.1795946504
 40
4.0
100
AcDbArc
 50
222.5
 51
327.5
  0
ARC
  5
369
100
AcDbEntity
  8
RUNDUNGEN
100
AcDbCircle
 62
7
  6
CONTINUOUS
 10
261.7930273746
 20
95.214456786
 40
4.0
100
AcDbArc
 50
102.5
 51
222.5
  0
ARC
  5
36A
100
AcDbEntity
  8
RUNDUNGEN
100
AcDbCircle
 62
7
  6
CONTINUOUS
 10
294.4159023352
 20
102.4467740449
 40
4.0
100
AcDbArc
 50
327.5
 51
102.5
  0
ARC
  5
36B
100
AcDbEntity
  8
RUNDUNGEN
100
AcDbCircle
 62
7
  6
CONTINUOUS
 10
271.3110420389
 20
132.8715315182
 40
4.0
100
AcDbArc
 50
60.0
 51
165.0
  0
ARC
  5
36C
100
AcDbEntity
  8
RUNDUNGEN
100
AcDbCircle
 62
7
  6
CONTINUOUS
 10
239.79653692
 20
304.6918694706
 40
10.0
100
AcDbArc
 50
179.9999848447
 51
247.2894592135
  0
ARC
  5
36D
100
AcDbEntity
  8
BEZUGSACHSEN
100
AcDbCircle
 62
7
  6
CONTINUOUS
 10
196.14653692
 20
403.942083879
 40
5.0
100
AcDbArc
 50
90.0
 51
180.0
  0
ARC
  5
36E
100
AcDbEntity
  8
BEZUGSACHSEN
100
AcDbCircle
 62
7
  6
CONTINUOUS
 10
224.79653692
 20
403.942083879
 40
5.0
100
AcDbArc
 50
0.0
 51
90.0
  0
ARC
  5
36F
100
AcDbEntity
  8
RUNDUNGEN
100
AcDbCircle
 62
7
  6
CONTINUOUS
 10
262.0983185525
 20
224.5191701681
 40
4.0
100
AcDbArc
 50
132.3
 51
257.3
  0
ARC
  5
370
100
AcDbEntity
  8
RUNDUNGEN
100
AcDbCircle
 62
7
  6
CONTINUOUS
 10
278.4465103826
 20
239.3948801668
 40
4.0
100
AcDbArc
 50
27.3
 51
132.3
  0
ARC
  5
371
100
AcDbEntity
  8
RUNDUNGEN
100
AcDbCircle
 62
7
  6
CONTINUOUS
 10
226.8335004167
 20
274.942083879
 40
4.0
100
AcDbArc
 50
57.3
 51
90.0
  0
ARC
  5
372
100
AcDbEntity
  8
RUNDUNGEN
100
AcDbCircle
 62
7
  6
CONTINUOUS
 10
258.4896387965
 20
254.6192042317
 40
4.0
100
AcDbArc
 50
307.3
 51
57.3
  0
ARC
  5
373
100
AcDbEntity
  8
RUNDUNGEN
100
AcDbCircle
 62
7
  6
CONTINUOUS
 10
235.1242167233
 20
236.8195225522
 40
4.0
100
AcDbArc
 50
217.3
 51
307.3
  0
ARC
  5
374
100
AcDbEntity
  8
RUNDUNGEN
100
AcDbCircle
 62
7
  6
CONTINUOUS
 10
206.0826075327
 20
274.942083879
 40
4.0
100
AcDbArc
 50
90.0
 51
217.3
  0
ARC
  5
375
100
AcDbEntity
  8
RUNDUNGEN
100
AcDbCircle
 62
7
  6
CONTINUOUS
 10
-7394.8297632045
 20
2083.0192010221
 40
8149.518590478
100
AcDbArc
 50
345.434391162
 51
345.630258099
  0
ARC
  5
376
100
AcDbEntity
  8
BEZUGSACHSEN
100
AcDbCircle
 62
7
  6
CONTINUOUS
 10
8341.351105407
 20
2083.0192010109
 40
8149.5185904332
100
AcDbArc
 50
194.369741901
 51
194.565608838
  0
ARC
  5
377
100
AcDbEntity
  8
BEZUGSACHSEN
100
AcDbCircle
 62
7
  6
CONTINUOUS
 10
473.260671123
 20
377.942083879
 40
31.0
100
AcDbArc
 50
359.9999991761
 51
180.0000008239
  0
ARC
  5
378
100
AcDbEntity
  8
RUNDUNGEN
100
AcDbCircle
 62
7
  6
CONTINUOUS
 10
507.7173228341
 20
297.1463596658
 40
11.4921652632
100
AcDbArc
 50
135.0412705647
 51
135.917982402
  0
ARC
  5
379
100
AcDbEntity
  8
BEZUGSACHSEN
100
AcDbCircle
 62
7
  6
CONTINUOUS
 10
438.8040194122
 20
297.1463596663
 40
11.4921652626
100
AcDbArc
 50
44.082017598
 51
44.9587294354
  0
ARC
  5
37A
100
AcDbEntity
  8
RUNDUNGEN
100
AcDbCircle
 62
7
  6
CONTINUOUS
 10
514.260671123
 20
366.6215758033
 40
10.0
100
AcDbArc
 50
179.999993567
 51
210.0000063817
  0
ARC
  5
37B
100
AcDbEntity
  8
RUNDUNGEN
100
AcDbCircle
 62
7
  6
CONTINUOUS
 10
503.260671123
 20
345.6741346866
 40
10.0
100
AcDbArc
 50
359.9999953008
 51
30.0000032089
  0
ARC
  5
37C
100
AcDbEntity
  8
RUNDUNGEN
100
AcDbCircle
 62
7
  6
CONTINUOUS
 10
503.260671123
 20
323.0842195027
 40
10.0
100
AcDbArc
 50
315.0004875268
 51
359.9999993541
  0
ARC
  5
37D
100
AcDbEntity
  8
BEZUGSACHSEN
100
AcDbCircle
 62
7
  6
CONTINUOUS
 10
432.260671123
 20
366.6215758033
 40
10.0
100
AcDbArc
 50
329.9999936183
 51
0.000006433
  0
ARC
  5
37E
100
AcDbEntity
  8
BEZUGSACHSEN
100
AcDbCircle
 62
7
  6
CONTINUOUS
 10
443.260671123
 20
345.6741346866
 40
10.0
100
AcDbArc
 50
149.9999967911
 51
180.0000046992
  0
ARC
  5
37F
100
AcDbEntity
  8
BEZUGSACHSEN
100
AcDbCircle
 62
7
  6
CONTINUOUS
 10
443.260671123
 20
323.0842195027
 40
10.0
100
AcDbArc
 50
180.0000006459
 51
225.0
  0
ARC
  5
380
100
AcDbEntity
  8
RUNDUNGEN
100
AcDbCircle
 62
7
  6
CONTINUOUS
 10
495.6827881601
 20
64.6430960378
 40
5.6906695586
100
AcDbArc
 50
343.9131422364
 51
348.3121357821
  0
ARC
  5
381
100
AcDbEntity
  8
BEZUGSACHSEN
100
AcDbCircle
 62
7
  6
CONTINUOUS
 10
450.8385540859
 20
64.6430960378
 40
5.6906695587
100
AcDbArc
 50
191.6878642179
 51
196.0868577636
  0
SPLINE
  5
382
100
AcDbEntity
  8
BEZUGSACHSEN
100
AcDbSpline
 62
7
  6
CONTINUOUS
 70
0
 71
3
 72
9
 73
5
 74
0
 42
0.0000001
 43
0.0000001
 44
0.0000000001
 40
0.0
 40
0.0
 40
0.0
 40
0.0
 40
0.2828701089
 40
1.0
 40
1.0
 40
1.0
 40
1.0
 10
454.8804935406
 20
29.5093576889
 30
0.0
 10
454.8829823366
 20
29.5093764147
 30
0.0
 10
454.8860824303
 20
29.5212264355
 30
0.0
 10
454.8854314159
 20
29.5283039544
 30
0.0
 10
454.8852393001
 20
29.5346107819
 30
0.0
  0
LINE
  5
383
100
AcDbEntity
  8
RUNDUNGEN
100
AcDbLine
 62
7
  6
CONTINUOUS
 10
492.0765290858
 20
132.4031694199
 11
492.7166284327
 21
133.3219298383
  0
SPLINE
  5
384
100
AcDbEntity
  8
RUNDUNGEN
100
AcDbSpline
 62
7
  6
CONTINUOUS
 70
0
 71
3
 72
9
 73
5
 74
0
 42
0.0000001
 43
0.0000001
 44
0.0000000001
 40
0.0
 40
0.0
 40
0.0
 40
0.0
 40
0.4881977278
 40
1.0
 40
1.0
 40
1.0
 40
1.0
 10
491.6997820594
 20
88.3134139084
 30
0.0
 10
491.4558817428
 20
94.8399101911
 30
0.0
 10
491.1864126089
 20
108.2174285695
 30
0.0
 10
491.2891704939
 20
121.5968190612
 30
0.0
 10
491.4401977197
 20
128.4419840791
 30
0.0
  0
SPLINE
  5
385
100
AcDbEntity
  8
RUNDUNGEN
100
AcDbSpline
 62
7
  6
CONTINUOUS
 70
0
 71
3
 72
15
 73
11
 74
0
 42
0.0000001
 43
0.0000001
 44
0.0000000001
 40
0.0
 40
0.0
 40
0.0
 40
0.0
 40
0.0160630393
 40
0.0391772475
 40
0.1061380474
 40
0.1997594374
 40
0.3184892072
 40
0.4603739819
 40
0.6230868351
 40
1.0
 40
1.0
 40
1.0
 40
1.0
 10
491.6361029458
 20
29.5346107819
 30
0.0
 10
491.6456878104
 20
29.8492653041
 30
0.0
 10
491.6738785903
 20
30.6165438149
 30
0.0
 10
491.753491083
 20
32.6950874334
 30
0.0
 10
491.8851802029
 20
36.2927419576
 30
0.0
 10
492.0475567849
 20
41.7642987738
 30
0.0
 10
492.1907056396
 20
48.7051867453
 30
0.0
 10
492.2705821405
 20
57.0013060108
 30
0.0
 10
492.232626355
 20
70.3576444712
 30
0.0
 10
491.9756353572
 20
80.931892035
 30
0.0
 10
491.6997820594
 20
88.3134139084
 30
0.0
  0
SPLINE
  5
386
100
AcDbEntity
  8
BEZUGSACHSEN
100
AcDbSpline
 62
7
  6
CONTINUOUS
 70
0
 71
3
 72
9
 73
5
 74
0
 42
0.0000001
 43
0.0000001
 44
0.0000000001
 40
0.0
 40
0.0
 40
0.0
 40
0.0
 40
0.50000001
 40
1.0
 40
1.0
 40
1.0
 40
1.0
 10
451.6952455695
 20
40.5876447867
 30
0.0
 10
450.8239980148
 20
43.7451895598
 30
0.0
 10
449.0788963168
 20
50.0595589831
 30
0.0
 10
447.331369396
 20
56.3732599274
 30
0.0
 10
446.4543583073
 20
59.5292085937
 30
0.0
  0
SPLINE
  5
387
100
AcDbEntity
  8
BEZUGSACHSEN
100
AcDbSpline
 62
7
  6
CONTINUOUS
 70
0
 71
3
 72
9
 73
5
 74
0
 42
0.0000001
 43
0.0000001
 44
0.0000000001
 40
0.0
 40
0.0
 40
0.0
 40
0.0
 40
0.2456023213
 40
1.0
 40
1.0
 40
1.0
 40
1.0
 10
445.370715566
 20
63.0662441277
 30
0.0
 10
445.3906496811
 20
62.9969595028
 30
0.0
 10
445.4769591623
 20
62.7163518187
 30
0.0
 10
445.5834334673
 20
62.4420499658
 30
0.0
 10
445.6732147319
 20
62.2396167785
 30
0.0
  0
SPLINE
  5
388
100
AcDbEntity
  8
RUNDUNGEN
100
AcDbSpline
 62
7
  6
CONTINUOUS
 70
0
 71
3
 72
9
 73
5
 74
0
 42
0.0000001
 43
0.0000001
 44
0.0000000001
 40
0.0
 40
0.0
 40
0.0
 40
0.0
 40
0.2828701089
 40
1.0
 40
1.0
 40
1.0
 40
1.0
 10
491.6408487053
 20
29.5093576889
 30
0.0
 10
491.6383599093
 20
29.5093764147
 30
0.0
 10
491.6352598156
 20
29.5212264355
 30
0.0
 10
491.6359108301
 20
29.5283039544
 30
0.0
 10
491.6361029458
 20
29.5346107819
 30
0.0
  0
SPLINE
  5
389
100
AcDbEntity
  8
RUNDUNGEN
100
AcDbSpline
 62
7
  6
CONTINUOUS
 70
0
 71
3
 72
11
 73
7
 74
0
 42
0.0000001
 43
0.0000001
 44
0.0000000001
 40
0.0
 40
0.0
 40
0.0
 40
0.0
 40
0.2366672635
 40
0.4778889693
 40
0.7298471341
 40
1.0
 40
1.0
 40
1.0
 40
1.0
 10
496.2833169125
 20
295.2383780307
 30
0.0
 10
496.1505341131
 20
296.076133812
 30
0.0
 10
496.0800867182
 20
297.8049140882
 30
0.0
 10
496.5608738096
 20
300.3971148392
 30
0.0
 10
497.651875483
 20
302.9303769895
 30
0.0
 10
498.7884022746
 20
304.4457967713
 30
0.0
 10
499.4619871004
 20
305.1413139722
 30
0.0
  0
SPLINE
  5
38A
100
AcDbEntity
  8
RUNDUNGEN
100
AcDbSpline
 62
7
  6
CONTINUOUS
 70
0
 71
3
 72
9
 73
5
 74
0
 42
0.0000001
 43
0.0000001
 44
0.0000000001
 40
0.0
 40
0.0
 40
0.0
 40
0.0
 40
0.2456023213
 40
1.0
 40
1.0
 40
1.0
 40
1.0
 10
501.1506266799
 20
63.0662441277
 30
0.0
 10
501.1306925648
 20
62.9969595028
 30
0.0
 10
501.0443830836
 20
62.7163518187
 30
0.0
 10
500.9379087786
 20
62.4420499658
 30
0.0
 10
500.848127514
 20
62.2396167785
 30
0.0
  0
SPLINE
  5
38B
100
AcDbEntity
  8
RUNDUNGEN
100
AcDbSpline
 62
7
  6
CONTINUOUS
 70
0
 71
3
 72
9
 73
5
 74
0
 42
0.0000001
 43
0.0000001
 44
0.0000000001
 40
0.0
 40
0.0
 40
0.0
 40
0.0
 40
0.50000001
 40
1.0
 40
1.0
 40
1.0
 40
1.0
 10
494.8260966765
 20
40.5876447867
 30
0.0
 10
495.6973442312
 20
43.7451895598
 30
0.0
 10
497.4424459291
 20
50.0595589831
 30
0.0
 10
499.1899728499
 20
56.3732599274
 30
0.0
 10
500.0669839386
 20
59.5292085937
 30
0.0
  0
SPLINE
  5
38C
100
AcDbEntity
  8
RUNDUNGEN
100
AcDbSpline
 62
7
  6
CONTINUOUS
 70
0
 71
3
 72
23
 73
19
 74
0
 42
0.0000001
 43
0.0000001
 44
0.0000000001
 40
0.0
 40
0.0
 40
0.0
 40
0.0
 40
0.1909645146
 40
0.3753107042
 40
0.5465395935
 40
0.625236703
 40
0.6982881409
 40
0.7649447434
 40
0.8244888959
 40
0.8762501376
 40
0.9196174164
 40
0.9540528113
 40
0.9677785884
 40
0.9791125417
 40
0.988020002
 40
0.9944697369
 40
0.9984489693
 40
1.0
 40
1.0
 40
1.0
 40
1.0
 10
500.0669839386
 20
59.5292085937
 30
0.0
 10
500.1381459803
 20
59.7852871696
 30
0.0
 10
500.2789970345
 20
60.2882941637
 30
0.0
 10
500.4873938983
 20
61.0198613578
 30
0.0
 10
500.6559332617
 20
61.6003065508
 30
0.0
 10
500.7832465032
 20
62.0314180991
 30
0.0
 10
500.8702873675
 20
62.3226641181
 30
0.0
 10
500.9506528778
 20
62.5880827752
 30
0.0
 10
501.0234085426
 20
62.8248393321
 30
0.0
 10
501.0876403087
 20
63.030315907
 30
0.0
 10
501.1425099676
 20
63.2020650362
 30
0.0
 10
501.1822506916
 20
63.3231623106
 30
0.0
 10
501.2089522699
 20
63.4014464816
 30
0.0
 10
501.224582306
 20
63.4462733081
 30
0.0
 10
501.2374649671
 20
63.4805719552
 30
0.0
 10
501.2471091217
 20
63.5069579564
 30
0.0
 10
501.2542554542
 20
63.5197549917
 30
0.0
 10
501.257721391
 20
63.5292139347
 30
0.0
 10
501.2598800932
 20
63.5292089507
 30
0.0
  0
SPLINE
  5
38D
100
AcDbEntity
  8
RUNDUNGEN
100
AcDbSpline
 62
7
  6
CONTINUOUS
 70
0
 71
3
 72
13
 73
9
 74
0
 42
0.0000001
 43
0.0000001
 44
0.0000000001
 40
0.0
 40
0.0
 40
0.0
 40
0.0
 40
0.3277030605
 40
0.6221111315
 40
0.7470088802
 40
0.8528740318
 40
0.9375432421
 40
1.0
 40
1.0
 40
1.0
 40
1.0
 10
491.4401977197
 20
128.4419840791
 30
0.0
 10
491.4499338409
 20
128.8832644905
 30
0.0
 10
491.4928639885
 20
129.7205728617
 30
0.0
 10
491.6059877902
 20
130.7214537602
 30
0.0
 10
491.7330809458
 20
131.4175054982
 30
0.0
 10
491.8335924862
 20
131.8308258608
 30
0.0
 10
491.9412948718
 20
132.1541943656
 30
0.0
 10
492.0284165547
 20
132.3341620966
 30
0.0
 10
492.0765290858
 20
132.4031694199
 30
0.0
  0
SPLINE
  5
38E
100
AcDbEntity
  8
RUNDUNGEN
100
AcDbSpline
 62
7
  6
CONTINUOUS
 70
0
 71
3
 72
9
 73
5
 74
0
 42
0.0000001
 43
0.0000001
 44
0.0000000001
 40
0.0
 40
0.0
 40
0.0
 40
0.0
 40
0.3194255521
 40
1.0
 40
1.0
 40
1.0
 40
1.0
 10
492.7166284327
 20
133.3219298383
 30
0.0
 10
492.7311002105
 20
133.3427126395
 30
0.0
 10
492.778218473
 20
133.4044731406
 30
0.0
 10
492.8524669521
 20
133.4582325458
 30
0.0
 10
492.906424967
 20
133.4582270588
 30
0.0
  0
SPLINE
  5
38F
100
AcDbEntity
  8
BEZUGSACHSEN
100
AcDbSpline
 62
7
  6
CONTINUOUS
 70
0
 71
3
 72
9
 73
5
 74
0
 42
0.0000001
 43
0.0000001
 44
0.0000000001
 40
0.0
 40
0.0
 40
0.0
 40
0.0
 40
0.4881977278
 40
1.0
 40
1.0
 40
1.0
 40
1.0
 10
454.8215601865
 20
88.3134139084
 30
0.0
 10
455.0654605032
 20
94.8399101911
 30
0.0
 10
455.334929637
 20
108.2174285695
 30
0.0
 10
455.232171752
 20
121.5968190612
 30
0.0
 10
455.0811445262
 20
128.4419840791
 30
0.0
  0
LINE
  5
390
100
AcDbEntity
  8
BEZUGSACHSEN
100
AcDbLine
 62
7
  6
CONTINUOUS
 10
454.4448131601
 20
132.4031694199
 11
453.8047138133
 21
133.3219298383
  0
SPLINE
  5
391
100
AcDbEntity
  8
BEZUGSACHSEN
100
AcDbSpline
 62
7
  6
CONTINUOUS
 70
0
 71
3
 72
15
 73
11
 74
0
 42
0.0000001
 43
0.0000001
 44
0.0000000001
 40
0.0
 40
0.0
 40
0.0
 40
0.0
 40
0.0160630393
 40
0.0391772475
 40
0.1061380474
 40
0.1997594374
 40
0.3184892072
 40
0.4603739819
 40
0.6230868351
 40
1.0
 40
1.0
 40
1.0
 40
1.0
 10
454.8852393001
 20
29.5346107819
 30
0.0
 10
454.8756544355
 20
29.8492653041
 30
0.0
 10
454.8474636556
 20
30.6165438149
 30
0.0
 10
454.7678511629
 20
32.6950874334
 30
0.0
 10
454.636162043
 20
36.2927419576
 30
0.0
 10
454.473785461
 20
41.7642987738
 30
0.0
 10
454.3306366063
 20
48.7051867453
 30
0.0
 10
454.2507601054
 20
57.0013060108
 30
0.0
 10
454.2887158909
 20
70.3576444712
 30
0.0
 10
454.5457068888
 20
80.931892035
 30
0.0
 10
454.8215601865
 20
88.3134139084
 30
0.0
  0
SPLINE
  5
392
100
AcDbEntity
  8
BEZUGSACHSEN
100
AcDbSpline
 62
7
  6
CONTINUOUS
 70
0
 71
3
 72
9
 73
5
 74
0
 42
0.0000001
 43
0.0000001
 44
0.0000000001
 40
0.0
 40
0.0
 40
0.0
 40
0.0
 40
0.3194255521
 40
1.0
 40
1.0
 40
1.0
 40
1.0
 10
453.8047138133
 20
133.3219298383
 30
0.0
 10
453.7902420354
 20
133.3427126395
 30
0.0
 10
453.7431237729
 20
133.4044731406
 30
0.0
 10
453.6688752938
 20
133.4582325458
 30
0.0
 10
453.6149172789
 20
133.4582270588
 30
0.0
  0
SPLINE
  5
393
100
AcDbEntity
  8
BEZUGSACHSEN
100
AcDbSpline
 62
7
  6
CONTINUOUS
 70
0
 71
3
 72
13
 73
9
 74
0
 42
0.0000001
 43
0.0000001
 44
0.0000000001
 40
0.0
 40
0.0
 40
0.0
 40
0.0
 40
0.3277030605
 40
0.6221111315
 40
0.7470088802
 40
0.8528740318
 40
0.9375432421
 40
1.0
 40
1.0
 40
1.0
 40
1.0
 10
455.0811445262
 20
128.4419840791
 30
0.0
 10
455.071408405
 20
128.8832644905
 30
0.0
 10
455.0284782574
 20
129.7205728617
 30
0.0
 10
454.9153544557
 20
130.7214537602
 30
0.0
 10
454.7882613001
 20
131.4175054982
 30
0.0
 10
454.6877497597
 20
131.8308258608
 30
0.0
 10
454.5800473741
 20
132.1541943656
 30
0.0
 10
454.4929256912
 20
132.3341620966
 30
0.0
 10
454.4448131601
 20
132.4031694199
 30
0.0
  0
SPLINE
  5
394
100
AcDbEntity
  8
BEZUGSACHSEN
100
AcDbSpline
 62
7
  6
CONTINUOUS
 70
0
 71
3
 72
23
 73
19
 74
0
 42
0.0000001
 43
0.0000001
 44
0.0000000001
 40
0.0
 40
0.0
 40
0.0
 40
0.0
 40
0.1909645146
 40
0.3753107042
 40
0.5465395935
 40
0.625236703
 40
0.6982881409
 40
0.7649447434
 40
0.8244888959
 40
0.8762501376
 40
0.9196174164
 40
0.9540528113
 40
0.9677785884
 40
0.9791125417
 40
0.988020002
 40
0.9944697369
 40
0.9984489693
 40
1.0
 40
1.0
 40
1.0
 40
1.0
 10
446.4543583073
 20
59.5292085937
 30
0.0
 10
446.3831962656
 20
59.7852871696
 30
0.0
 10
446.2423452114
 20
60.2882941637
 30
0.0
 10
446.0339483477
 20
61.0198613578
 30
0.0
 10
445.8654089842
 20
61.6003065508
 30
0.0
 10
445.7380957428
 20
62.0314180991
 30
0.0
 10
445.6510548784
 20
62.3226641181
 30
0.0
 10
445.5706893681
 20
62.5880827752
 30
0.0
 10
445.4979337033
 20
62.8248393321
 30
0.0
 10
445.4337019372
 20
63.030315907
 30
0.0
 10
445.3788322784
 20
63.2020650362
 30
0.0
 10
445.3390915544
 20
63.3231623106
 30
0.0
 10
445.312389976
 20
63.4014464816
 30
0.0
 10
445.29675994
 20
63.4462733081
 30
0.0
 10
445.2838772788
 20
63.4805719552
 30
0.0
 10
445.2742331242
 20
63.5069579564
 30
0.0
 10
445.2670867917
 20
63.5197549917
 30
0.0
 10
445.263620855
 20
63.5292139347
 30
0.0
 10
445.2614621527
 20
63.5292089507
 30
0.0
  0
SPLINE
  5
395
100
AcDbEntity
  8
BEZUGSACHSEN
100
AcDbSpline
 62
7
  6
CONTINUOUS
 70
0
 71
3
 72
11
 73
7
 74
0
 42
0.0000001
 43
0.0000001
 44
0.0000000001
 40
0.0
 40
0.0
 40
0.0
 40
0.0
 40
0.2366672635
 40
0.4778889693
 40
0.7298471341
 40
1.0
 40
1.0
 40
1.0
 40
1.0
 10
450.2380253334
 20
295.2383780307
 30
0.0
 10
450.3708081328
 20
296.076133812
 30
0.0
 10
450.4412555277
 20
297.8049140882
 30
0.0
 10
449.9604684363
 20
300.3971148392
 30
0.0
 10
448.869466763
 20
302.9303769895
 30
0.0
 10
447.7329399713
 20
304.4457967713
 30
0.0
 10
447.0593551455
 20
305.1413139722
 30
0.0
  0
SPLINE
  5
396
100
AcDbEntity
  8
RUNDUNGEN
100
AcDbSpline
 62
7
  6
CONTINUOUS
 70
0
 71
3
 72
11
 73
7
 74
0
 42
0.0000001
 43
0.0000001
 44
0.0000000001
 40
0.0
 40
0.0
 40
0.0
 40
0.0
 40
0.0674715376
 40
0.2523866495
 40
0.5629700598
 40
1.0
 40
1.0
 40
1.0
 40
1.0
 10
501.2598800932
 20
63.5292089507
 30
0.0
 10
501.2607710901
 20
63.5292068936
 30
0.0
 10
501.2612304108
 20
63.5243481978
 30
0.0
 10
501.2604524938
 20
63.5183241476
 30
0.0
 10
501.2585683683
 20
63.5053518272
 30
0.0
 10
501.2566339213
 20
63.4959326609
 30
0.0
 10
501.2554659016
 20
63.4902808687
 30
0.0
  0
SPLINE
  5
397
100
AcDbEntity
  8
BEZUGSACHSEN
100
AcDbSpline
 62
7
  6
CONTINUOUS
 70
0
 71
3
 72
11
 73
7
 74
0
 42
0.0000001
 43
0.0000001
 44
0.0000000001
 40
0.0
 40
0.0
 40
0.0
 40
0.0
 40
0.0674715376
 40
0.2523866495
 40
0.5629700598
 40
1.0
 40
1.0
 40
1.0
 40
1.0
 10
445.2614621527
 20
63.5292089507
 30
0.0
 10
445.2605711558
 20
63.5292068936
 30
0.0
 10
445.2601118352
 20
63.5243481978
 30
0.0
 10
445.2608897521
 20
63.5183241476
 30
0.0
 10
445.2627738776
 20
63.5053518272
 30
0.0
 10
445.2647083246
 20
63.4959326609
 30
0.0
 10
445.2658763443
 20
63.4902808687
 30
0.0
  0
SPLINE
  5
398
100
AcDbEntity
  8
RUNDUNGEN
100
AcDbSpline
 62
7
  6
CONTINUOUS
 70
0
 71
3
 72
10
 73
6
 74
0
 42
0.0000001
 43
0.0000001
 44
0.0000000001
 40
0.0
 40
0.0
 40
0.0
 40
0.0
 40
0.5223404557
 40
0.7676545847
 40
1.0
 40
1.0
 40
1.0
 40
1.0
 10
493.5288026589
 20
130.648658292
 30
0.0
 10
493.6941973312
 20
125.5341593784
 30
0.0
 10
494.0498914648
 20
118.020192279
 30
0.0
 10
494.7861647264
 20
108.2508289475
 30
0.0
 10
495.237846121
 20
103.5926788404
 30
0.0
 10
495.4876906071
 20
101.3302319005
 30
0.0
  0
SPLINE
  5
399
100
AcDbEntity
  8
RUNDUNGEN
100
AcDbSpline
 62
7
  6
CONTINUOUS
 70
0
 71
3
 72
11
 73
7
 74
0
 42
0.0000001
 43
0.0000001
 44
0.0000000001
 40
0.0
 40
0.0
 40
0.0
 40
0.0
 40
0.322151262
 40
0.6146173534
 40
0.8489356086
 40
1.0
 40
1.0
 40
1.0
 40
1.0
 10
492.7657284009
 20
33.5093529479
 30
0.0
 10
492.6587989711
 20
33.0979645614
 30
0.0
 10
492.4522120458
 20
32.3137759729
 30
0.0
 10
492.1609252449
 20
31.2321498615
 30
0.0
 10
491.9203989891
 20
30.3708015688
 30
0.0
 10
491.7786588185
 20
29.8822943466
 30
0.0
 10
491.7162849077
 20
29.6929853861
 30
0.0
  0
SPLINE
  5
39A
100
AcDbEntity
  8
RUNDUNGEN
100
AcDbSpline
 62
7
  6
CONTINUOUS
 70
0
 71
3
 72
12
 73
8
 74
0
 42
0.0000001
 43
0.0000001
 44
0.0000000001
 40
0.0
 40
0.0
 40
0.0
 40
0.0
 40
0.4221834682
 40
0.7296919228
 40
0.9208989495
 40
0.9734326315
 40
1.0
 40
1.0
 40
1.0
 40
1.0
 10
491.7162849077
 20
29.6929853861
 30
0.0
 10
491.7074808849
 20
29.6662645923
 30
0.0
 10
491.6918876724
 20
29.6200439247
 30
0.0
 10
491.6707183092
 20
29.5629237254
 30
0.0
 10
491.6559068127
 20
29.5283981841
 30
0.0
 10
491.6469053529
 20
29.5136481165
 30
0.0
 10
491.6426190738
 20
29.5093443686
 30
0.0
 10
491.6408487053
 20
29.5093576889
 30
0.0
  0
SPLINE
  5
39B
100
AcDbEntity
  8
RUNDUNGEN
100
AcDbSpline
 62
7
  6
CONTINUOUS
 70
0
 71
3
 72
17
 73
13
 74
0
 42
0.0000001
 43
0.0000001
 44
0.0000000001
 40
0.0
 40
0.0
 40
0.0
 40
0.0
 40
0.0146937037
 40
0.0372181491
 40
0.0677536831
 40
0.1061656986
 40
0.2052990184
 40
0.3310681635
 40
0.4788154837
 40
0.643263956
 40
0.8188556274
 40
1.0
 40
1.0
 40
1.0
 40
1.0
 10
500.4726121966
 20
64.460468987
 30
0.0
 10
500.4809969172
 20
64.4424473878
 30
0.0
 10
500.4901483586
 20
64.3919550446
 30
0.0
 10
500.4939113517
 20
64.3006408836
 30
0.0
 10
500.4887837474
 20
64.1767550798
 30
0.0
 10
500.4682738445
 20
63.9503465994
 30
0.0
 10
500.4176039432
 20
63.5975276621
 30
0.0
 10
500.3287573954
 20
63.1013163105
 30
0.0
 10
500.2101337987
 20
62.5208002194
 30
0.0
 10
500.0666390116
 20
61.8767255675
 30
0.0
 10
499.9036790921
 20
61.1907728127
 30
0.0
 10
499.7866190271
 20
60.7226060104
 30
0.0
 10
499.7259228465
 20
60.4852022012
 30
0.0
  0
SPLINE
  5
39C
100
AcDbEntity
  8
BEZUGSACHSEN
100
AcDbSpline
 62
7
  6
CONTINUOUS
 70
0
 71
3
 72
10
 73
6
 74
0
 42
0.0000001
 43
0.0000001
 44
0.0000000001
 40
0.0
 40
0.0
 40
0.0
 40
0.0
 40
0.5223404557
 40
0.7676545847
 40
1.0
 40
1.0
 40
1.0
 40
1.0
 10
452.9925395871
 20
130.648658292
 30
0.0
 10
452.8271449147
 20
125.5341593784
 30
0.0
 10
452.4714507811
 20
118.020192279
 30
0.0
 10
451.7351775195
 20
108.2508289475
 30
0.0
 10
451.2834961249
 20
103.5926788404
 30
0.0
 10
451.0336516388
 20
101.3302319005
 30
0.0
  0
SPLINE
  5
39D
100
AcDbEntity
  8
BEZUGSACHSEN
100
AcDbSpline
 62
7
  6
CONTINUOUS
 70
0
 71
3
 72
17
 73
13
 74
0
 42
0.0000001
 43
0.0000001
 44
0.0000000001
 40
0.0
 40
0.0
 40
0.0
 40
0.0
 40
0.0194683241
 40
0.0419775892
 40
0.0696701896
 40
0.1036417377
 40
0.1919984601
 40
0.3079395608
 40
0.4499220028
 40
0.6151740801
 40
0.7999985626
 40
1.0
 40
1.0
 40
1.0
 40
1.0
 10
453.6149172789
 20
133.4582270588
 30
0.0
 10
453.5956755324
 20
133.4582251021
 30
0.0
 10
453.5538854226
 20
133.4482508704
 30
0.0
 10
453.4970683509
 20
133.4074682993
 30
0.0
 10
453.4431085718
 20
133.3434632755
 30
0.0
 10
453.3671388509
 20
133.2156251548
 30
0.0
 10
453.2829412643
 20
132.9943197726
 30
0.0
 10
453.1971449134
 20
132.6628017313
 30
0.0
 10
453.1228368376
 20
132.2508394879
 30
0.0
 10
453.0621260343
 20
131.7681665022
 30
0.0
 10
453.0170465027
 20
131.2262234238
 30
0.0
 10
452.998928699
 20
130.8462287796
 30
0.0
 10
452.9925395871
 20
130.648658292
 30
0.0
  0
SPLINE
  5
39E
100
AcDbEntity
  8
BEZUGSACHSEN
100
AcDbSpline
 62
7
  6
CONTINUOUS
 70
0
 71
3
 72
18
 73
14
 74
0
 42
0.0000001
 43
0.0000001
 44
0.0000000001
 40
0.0
 40
0.0
 40
0.0
 40
0.0
 40
0.1978701551
 40
0.3779889653
 40
0.5385256297
 40
0.6778604944
 40
0.7946107337
 40
0.8441568481
 40
0.8876610186
 40
0.9250342059
 40
0.9562154267
 40
0.9811858156
 40
1.0
 40
1.0
 40
1.0
 40
1.0
 10
451.0336516388
 20
101.3302319005
 30
0.0
 10
450.7639835037
 20
98.8882734777
 30
0.0
 10
450.2549864836
 20
94.2227515555
 30
0.0
 10
449.532241441
 20
87.5754697949
 30
0.0
 10
448.8713801629
 20
81.6525161436
 30
0.0
 10
448.2605618891
 20
76.5157896996
 30
0.0
 10
447.76249831
 20
72.7535487106
 30
0.0
 10
447.3714467924
 20
70.1780542705
 30
0.0
 10
447.1016289638
 20
68.5812020954
 30
0.0
 10
446.8385955422
 20
67.2148349934
 30
0.0
 10
446.5824015364
 20
66.0817739609
 30
0.0
 10
446.3330470038
 20
65.1848537206
 30
0.0
 10
446.1472718899
 20
64.6722687188
 30
0.0
 10
446.0487300493
 20
64.460468987
 30
0.0
  0
SPLINE
  5
39F
100
AcDbEntity
  8
RUNDUNGEN
100
AcDbSpline
 62
7
  6
CONTINUOUS
 70
0
 71
3
 72
18
 73
14
 74
0
 42
0.0000001
 43
0.0000001
 44
0.0000000001
 40
0.0
 40
0.0
 40
0.0
 40
0.0
 40
0.1978701551
 40
0.3779889653
 40
0.5385256297
 40
0.6778604944
 40
0.7946107337
 40
0.8441568481
 40
0.8876610186
 40
0.9250342059
 40
0.9562154267
 40
0.9811858156
 40
1.0
 40
1.0
 40
1.0
 40
1.0
 10
495.4876906071
 20
101.3302319005
 30
0.0
 10
495.7573587422
 20
98.8882734777
 30
0.0
 10
496.2663557623
 20
94.2227515555
 30
0.0
 10
496.9891008049
 20
87.5754697949
 30
0.0
 10
497.6499620831
 20
81.6525161436
 30
0.0
 10
498.2607803569
 20
76.5157896996
 30
0.0
 10
498.7588439359
 20
72.7535487106
 30
0.0
 10
499.1498954535
 20
70.1780542705
 30
0.0
 10
499.4197132821
 20
68.5812020954
 30
0.0
 10
499.6827467037
 20
67.2148349934
 30
0.0
 10
499.9389407095
 20
66.0817739609
 30
0.0
 10
500.1882952421
 20
65.1848537206
 30
0.0
 10
500.374070356
 20
64.6722687188
 30
0.0
 10
500.4726121966
 20
64.460468987
 30
0.0
  0
SPLINE
  5
3A0
100
AcDbEntity
  8
RUNDUNGEN
100
AcDbSpline
 62
7
  6
CONTINUOUS
 70
0
 71
3
 72
17
 73
13
 74
0
 42
0.0000001
 43
0.0000001
 44
0.0000000001
 40
0.0
 40
0.0
 40
0.0
 40
0.0
 40
0.0194683241
 40
0.0419775892
 40
0.0696701896
 40
0.1036417377
 40
0.1919984601
 40
0.3079395608
 40
0.4499220028
 40
0.6151740801
 40
0.7999985626
 40
1.0
 40
1.0
 40
1.0
 40
1.0
 10
492.906424967
 20
133.4582270588
 30
0.0
 10
492.9256667135
 20
133.4582251021
 30
0.0
 10
492.9674568233
 20
133.4482508704
 30
0.0
 10
493.024273895
 20
133.4074682993
 30
0.0
 10
493.0782336741
 20
133.3434632755
 30
0.0
 10
493.154203395
 20
133.2156251548
 30
0.0
 10
493.2384009816
 20
132.9943197726
 30
0.0
 10
493.3241973326
 20
132.6628017313
 30
0.0
 10
493.3985054083
 20
132.2508394879
 30
0.0
 10
493.4592162116
 20
131.7681665022
 30
0.0
 10
493.5042957432
 20
131.2262234238
 30
0.0
 10
493.5224135469
 20
130.8462287796
 30
0.0
 10
493.5288026589
 20
130.648658292
 30
0.0
  0
SPLINE
  5
3A1
100
AcDbEntity
  8
BEZUGSACHSEN
100
AcDbSpline
 62
7
  6
CONTINUOUS
 70
0
 71
3
 72
17
 73
13
 74
0
 42
0.0000001
 43
0.0000001
 44
0.0000000001
 40
0.0
 40
0.0
 40
0.0
 40
0.0
 40
0.0146937037
 40
0.0372181491
 40
0.0677536831
 40
0.1061656986
 40
0.2052990184
 40
0.3310681635
 40
0.4788154837
 40
0.643263956
 40
0.8188556274
 40
1.0
 40
1.0
 40
1.0
 40
1.0
 10
446.0487300493
 20
64.460468987
 30
0.0
 10
446.0403453288
 20
64.4424473878
 30
0.0
 10
446.0311938873
 20
64.3919550446
 30
0.0
 10
446.0274308942
 20
64.3006408836
 30
0.0
 10
446.0325584986
 20
64.1767550798
 30
0.0
 10
446.0530684014
 20
63.9503465994
 30
0.0
 10
446.1037383027
 20
63.5975276621
 30
0.0
 10
446.1925848505
 20
63.1013163105
 30
0.0
 10
446.3112084473
 20
62.5208002194
 30
0.0
 10
446.4547032343
 20
61.8767255675
 30
0.0
 10
446.6176631538
 20
61.1907728127
 30
0.0
 10
446.7347232189
 20
60.7226060104
 30
0.0
 10
446.7954193994
 20
60.4852022012
 30
0.0
  0
SPLINE
  5
3A2
100
AcDbEntity
  8
BEZUGSACHSEN
100
AcDbSpline
 62
7
  6
CONTINUOUS
 70
0
 71
3
 72
11
 73
7
 74
0
 42
0.0000001
 43
0.0000001
 44
0.0000000001
 40
0.0
 40
0.0
 40
0.0
 40
0.0
 40
0.322151262
 40
0.6146173534
 40
0.8489356086
 40
1.0
 40
1.0
 40
1.0
 40
1.0
 10
453.755613845
 20
33.5093529479
 30
0.0
 10
453.8625432749
 20
33.0979645614
 30
0.0
 10
454.0691302001
 20
32.3137759729
 30
0.0
 10
454.360417001
 20
31.2321498615
 30
0.0
 10
454.6009432569
 20
30.3708015688
 30
0.0
 10
454.7426834275
 20
29.8822943466
 30
0.0
 10
454.8050573382
 20
29.6929853861
 30
0.0
  0
SPLINE
  5
3A3
100
AcDbEntity
  8
BEZUGSACHSEN
100
AcDbSpline
 62
7
  6
CONTINUOUS
 70
0
 71
3
 72
12
 73
8
 74
0
 42
0.0000001
 43
0.0000001
 44
0.0000000001
 40
0.0
 40
0.0
 40
0.0
 40
0.0
 40
0.4221834682
 40
0.7296919228
 40
0.9208989495
 40
0.9734326315
 40
1.0
 40
1.0
 40
1.0
 40
1.0
 10
454.8050573382
 20
29.6929853861
 30
0.0
 10
454.813861361
 20
29.6662645923
 30
0.0
 10
454.8294545735
 20
29.6200439247
 30
0.0
 10
454.8506239367
 20
29.5629237254
 30
0.0
 10
454.8654354332
 20
29.5283981841
 30
0.0
 10
454.8744368931
 20
29.5136481165
 30
0.0
 10
454.8787231721
 20
29.5093443686
 30
0.0
 10
454.8804935406
 20
29.5093576889
 30
0.0
  0
ENDSEC
  0
SECTION
  2
OBJECTS
  0
DICTIONARY
  5
C
100
AcDbDictionary
280
0
281
1
  3
ACAD_GROUP
350
D
  3
ACAD_MLINESTYLE
350
17
  3
ACAD_LAYOUT
350
1A
  3
ACAD_PLOTSETTINGS
350
19
  3
ACAD_PLOTSTYLENAME
350
E
  0
DICTIONARY
  5
D
102
{ACAD_REACTORS
330
C
102
}
100
AcDbDictionary
280
0
281
1
  0
ACDBDICTIONARYWDFLT
  5
E
102
{ACAD_REACTORS
330
C
102
}
100
AcDbDictionary
281
1
  3
Normal
350
F
100
AcDbDictionaryWithDefault
340
F
  0
DICTIONARY
  5
17
102
{ACAD_REACTORS
330
C
102
}
100
AcDbDictionary
280
0
281
1
  3
Standard
350
18
  0
DICTIONARY
  5
19
102
{ACAD_REACTORS
330
C
102
}
100
AcDbDictionary
281
1
  0
DICTIONARY
  5
1A
102
{ACAD_REACTORS
330
C
102
}
100
AcDbDictionary
281
1
  3
Model
350
3A4
  3
Layout1
350
3A5
  0
ACDBPLACEHOLDER
  5
F
102
{ACAD_REACTORS
330
E
102
}
  0
MLINESTYLE
  5
18
102
{ACAD_REACTORS
330
17
102
}
100
AcDbMlineStyle
  2
STANDARD
 70
0
  3

 62
256
 51
90.0
 52
90.0
 71
2
 49
0.5
 62
256
  6
BYLAYER
 49
-0.5
 62
256
  6
BYLAYER
  0
LAYOUT
  5
3A4
102
{ACAD_REACTORS
330
1A
102
}
100
AcDbPlotSettings
  1

  2
none_device
  4
ISO_A2_(594.00_x_420.00_MM)
  6

 40
0.0
 41
0.0
 42
0.0
 43
0.0
 44
594.0
 45
420.0
 46
0.0
 47
0.0
 48
0.0
 49
0.0
140
0.0
141
0.0
142
1.0
143
1.0
 70
1024
 72
1
 73
0
 74
0
  7

 75
0
147
1.0
148
0.0
149
0.0
100
AcDbLayout
  1
Model
 70
0
 71
0
 10
0.0
 20
0.0
 11
594.0
 21
420.0
 12
0.0
 22
0.0
 32
0.0
 14
0.0
 24
0.0
 34
0.0
 15
0.0
 25
0.0
 35
0.0
146
0.0
 13
0.0
 23
0.0
 33
0.0
 16
1.0
 26
0.0
 36
0.0
 17
0.0
 27
1.0
 37
0.0
 76
0
330
208
345
0
346
0
  0
LAYOUT
  5
3A5
102
{ACAD_REACTORS
330
1A
102
}
100
AcDbPlotSettings
  1

  2
none_device
  4
ISO_A2_(594.00_x_420.00_MM)
  6

 40
0.0
 41
0.0
 42
0.0
 43
0.0
 44
594.0
 45
420.0
 46
0.0
 47
0.0
 48
0.0
 49
0.0
140
0.0
141
0.0
142
1.0
143
1.0
 70
0
 72
1
 73
0
 74
0
  7

 75
0
147
1.0
148
0.0
149
0.0
100
AcDbLayout
  1
Layout1
 70
0
 71
1
 10
0.0
 20
0.0
 11
594.0
 21
420.0
 12
0.0
 22
0.0
 32
0.0
 14
0.0
 24
0.0
 34
0.0
 15
0.0
 25
0.0
 35
0.0
146
0.0
 13
0.0
 23
0.0
 33
0.0
 16
1.0
 26
0.0
 36
0.0
 17
0.0
 27
1.0
 37
0.0
 76
0
330
209
345
0
346
0
  0
ENDSEC
  0
EOF
