999
DXF file: vwh-20_7998157_m33382-p-2.dxf
999
Pro/ENGINEER 2010140 by Parametric Technology Corporation
  0
SECTION
  2
HEADER
  9
$ACADVER
  1
AC1015
  9
$DWGCODEPAGE
  3
ANSI_1252
  9
$EXTMAX
 10
594.0
 20
420.0
 30
0.0
  9
$EXTMIN
 10
0.0
 20
0.0
 30
0.0
  9
$LIMMIN
 10
0.0
 20
0.0
  9
$LIMMAX
 10
594.0
 20
420.0
  9
$VIEWCTR
 10
297.0
 20
210.0
  9
$VIEWSIZE
 40
420.0
  9
$CLAYER
  8
0
  9
$LTSCALE
 40
32.67
  9
$CELTYPE
  6
BYLAYER
  9
$DIMSCALE
 40
1.0
  9
$DIMASZ
 40
3.5
  9
$DIMEXO
 40
3.7125
  9
$DIMDLI
 40
22.572
  9
$DIMEXE
 40
10.692
  9
$DIMCEN
 40
5.346
  9
$DIMLFAC
 40
1.0
  9
$DIMBLK
  1
_FILLED
  9
$DIMTXT
 40
3.5
  9
$DIMTOL
 70
1
  9
$DIMLIM
 70
0
  9
$DIMTFAC
 40
1.0
  9
$DIMTP
 40
0.005
  9
$DIMTM
 40
0.005
  9
$PDMODE
 70
3
  9
$PDSIZE
 40
0.3125
  9
$HANDSEED
  5
3B6
  9
$TILEMODE
 70
1
  9
$MEASUREMENT
 70
1
  9
$INSUNITS
 70
4
  0
ENDSEC
  0
SECTION
  2
CLASSES
  0
CLASS
  1
ACDBDICTIONARYWDFLT
  2
AcDbDictionaryWithDefault
  3
AutoCAD 2000
 90
0
280
0
281
0
  0
CLASS
  1
ACDBPLACEHOLDER
  2
AcDbPlaceHolder
  3
AutoCAD 2000
 90
0
280
0
281
0
  0
CLASS
  1
LAYOUT
  2
AcDbLayout
  3
AutoCAD 2000
 90
0
280
0
281
0
  0
ENDSEC
  0
SECTION
  2
TABLES
  0
TABLE
  2
VPORT
  5
8
100
AcDbSymbolTable
 70
2
  0
VPORT
  5
1F4
100
AcDbSymbolTableRecord
100
AcDbViewportTableRecord
  2
*ACTIVE
 70
0
 10
0.0
 20
0.0
 11
1.0
 21
1.0
 12
297.0
 22
210.0
 13
0.0
 23
0.0
 14
1.0
 24
1.0
 15
0.0
 25
0.0
 16
0.0
 26
0.0
 36
1.0
 17
0.0
 27
0.0
 37
0.0
 40
420.0
 41
1.4142857143
 42
50.0
 43
0.0
 44
0.0
 50
0.0
 51
0.0
 71
0
 72
100
 73
1
 74
1
 75
0
 76
0
 77
0
 78
0
  0
ENDTAB
  0
TABLE
  2
LTYPE
  5
5
100
AcDbSymbolTable
 70
6
  0
LTYPE
  5
14
100
AcDbSymbolTableRecord
100
AcDbLinetypeTableRecord
  2
BYBLOCK
 70
0
  3

 72
65
 73
0
 40
0.0
  0
LTYPE
  5
15
100
AcDbSymbolTableRecord
100
AcDbLinetypeTableRecord
  2
BYLAYER
 70
0
  3

 72
65
 73
0
 40
0.0
  0
LTYPE
  5
16
100
AcDbSymbolTableRecord
100
AcDbLinetypeTableRecord
  2
CONTINUOUS
 70
64
  3
Solid line
 72
65
 73
0
 40
0.0
  0
LTYPE
  5
1F5
100
AcDbSymbolTableRecord
100
AcDbLinetypeTableRecord
  2
CENTER
 70
64
  3
____ _ ____ _ ____ _ ____ _ ____ _ ____ _ ____
 72
65
 73
4
 40
0.6
 49
0.375
 74
0
 49
-0.075
 74
0
 49
0.075
 74
0
 49
-0.075
 74
0
  0
LTYPE
  5
1F6
100
AcDbSymbolTableRecord
100
AcDbLinetypeTableRecord
  2
HIDDEN
 70
64
  3
- - - - - - - - - - - - - - - - - - - -
 72
65
 73
2
 40
0.2
 49
0.1
 74
0
 49
-0.1
 74
0
  0
LTYPE
  5
1F7
100
AcDbSymbolTableRecord
100
AcDbLinetypeTableRecord
  2
PHANTOM
 70
64
  3
_____ _ _ _____ _ _ _____ _ _ _____
 72
65
 73
6
 40
0.8
 49
0.45
 74
0
 49
-0.05
 74
0
 49
0.1
 74
0
 49
-0.05
 74
0
 49
0.1
 74
0
 49
-0.05
 74
0
  0
LTYPE
  5
1F8
100
AcDbSymbolTableRecord
100
AcDbLinetypeTableRecord
  2
DOT
 70
64
  3
. . . . . . . . . . . . . . . . . . . .
 72
65
 73
2
 40
0.2
 49
0.1
 74
0
 49
-0.1
 74
0
  0
LTYPE
  5
1F9
100
AcDbSymbolTableRecord
100
AcDbLinetypeTableRecord
  2
DASHED
 70
64
  3
- - - - - - - - - - - - - - - - - - - -
 72
65
 73
2
 40
0.2
 49
0.1
 74
0
 49
-0.1
 74
0
  0
ENDTAB
  0
TABLE
  2
LAYER
  5
2
100
AcDbSymbolTable
 70
36
  0
LAYER
  5
10
100
AcDbSymbolTableRecord
100
AcDbLayerTableRecord
  2
0
 70
0
 62
7
  6
CONTINUOUS
370
-3
390
F
  0
LAYER
  5
1FA
100
AcDbSymbolTableRecord
100
AcDbLayerTableRecord
  2
DEFAULT_1
 70
0
 62
7
  6
CENTER
370
-3
390
F
  0
LAYER
  5
1FB
100
AcDbSymbolTableRecord
100
AcDbLayerTableRecord
  2
DEFAULT_2
 70
0
 62
8
  6
HIDDEN
370
-3
390
F
  0
LAYER
  5
1FC
100
AcDbSymbolTableRecord
100
AcDbLayerTableRecord
  2
DEFAULT_3
 70
0
 62
7
  6
PHANTOM
370
-3
390
F
  0
LAYER
  5
1FD
100
AcDbSymbolTableRecord
100
AcDbLayerTableRecord
  2
BEZUGSACHSEN
 70
0
 62
7
  6
CONTINUOUS
370
-3
390
F
  0
LAYER
  5
1FE
100
AcDbSymbolTableRecord
100
AcDbLayerTableRecord
  2
BEZUGSEBENEN
 70
0
 62
7
  6
CONTINUOUS
370
-3
390
F
  0
LAYER
  5
1FF
100
AcDbSymbolTableRecord
100
AcDbLayerTableRecord
  2
FLAECHEN
 70
0
 62
7
  6
CONTINUOUS
370
-3
390
F
  0
LAYER
  5
200
100
AcDbSymbolTableRecord
100
AcDbLayerTableRecord
  2
HILFEN
 70
0
 62
7
  6
CONTINUOUS
370
-3
390
F
  0
LAYER
  5
201
100
AcDbSymbolTableRecord
100
AcDbLayerTableRecord
  2
KURVEN
 70
0
 62
7
  6
CONTINUOUS
370
-3
390
F
  0
LAYER
  5
202
100
AcDbSymbolTableRecord
100
AcDbLayerTableRecord
  2
PLATZIERUNG
 70
0
 62
7
  6
CONTINUOUS
370
-3
390
F
  0
LAYER
  5
203
100
AcDbSymbolTableRecord
100
AcDbLayerTableRecord
  2
RUNDUNGEN
 70
0
 62
7
  6
CONTINUOUS
370
-3
390
F
  0
LAYER
  5
204
100
AcDbSymbolTableRecord
100
AcDbLayerTableRecord
  2
T_STARTBEZUEGE
 70
0
 62
7
  6
CONTINUOUS
370
-3
390
F
  0
LAYER
  5
205
100
AcDbSymbolTableRecord
100
AcDbLayerTableRecord
  2
ZEICHNUNGSBEMASSUNGEN
 70
0
 62
7
  6
CONTINUOUS
370
-3
390
F
  0
ENDTAB
  0
TABLE
  2
STYLE
  5
3
100
AcDbSymbolTable
 70
1
  0
STYLE
  5
11
100
AcDbSymbolTableRecord
100
AcDbTextStyleTableRecord
  2
STANDARD
 70
0
 40
0.0
 41
0.7
 50
0.0
 71
0
 42
0.2
  3
txt
  4

  0
STYLE
  5
206
100
AcDbSymbolTableRecord
100
AcDbTextStyleTableRecord
  2
TEXTSTYLE_1
 70
0
 40
0.0
 41
0.8
 50
0.0
 71
0
 42
0.2
  3
gdt
  4

  0
ENDTAB
  0
TABLE
  2
VIEW
  5
6
100
AcDbSymbolTable
 70
0
  0
ENDTAB
  0
TABLE
  2
UCS
  5
7
100
AcDbSymbolTable
 70
0
  0
ENDTAB
  0
TABLE
  2
APPID
  5
9
100
AcDbSymbolTable
 70
1
  0
APPID
  5
207
100
AcDbSymbolTableRecord
100
AcDbRegAppTableRecord
  2
ACAD
 70
0
  0
ENDTAB
  0
TABLE
  2
BLOCK_RECORD
  5
1
100
AcDbSymbolTable
 70
0
  0
BLOCK_RECORD
  5
208
100
AcDbSymbolTableRecord
100
AcDbBlockTableRecord
  2
*Model_Space
  0
BLOCK_RECORD
  5
209
100
AcDbSymbolTableRecord
100
AcDbBlockTableRecord
  2
*Paper_Space
  0
ENDTAB
  0
TABLE
  2
DIMSTYLE
  5
A
100
AcDbSymbolTable
 70
1
100
AcDbDimStyleTable
 71
0
  0
DIMSTYLE
105
20A
100
AcDbSymbolTableRecord
100
AcDbDimStyleTableRecord
  2
STANDARD
 70
0
  3

  4

 40
1.0
 41
3.5
 42
0.0625
 43
0.38
 44
0.18
 45
0.0
 46
0.0
 47
0.005
 48
0.005
140
3.5
141
0.09
142
0.0
143
25.4
144
1.0
145
0.0
146
1.0
147
0.09
 71
1.0
 72
0.0
 73
0
 74
0
 75
0
 76
0
 77
1
 78
8
170
0
171
2
172
0
173
0
174
0
175
0
176
0
177
0
178
5
270
2
271
3
272
3
273
2
274
2
275
0
280
0
281
0
282
0
283
1
284
8
285
0
286
0
287
3
288
0
340
11
  0
ENDTAB
  0
ENDSEC
  0
SECTION
  2
BLOCKS
  0
BLOCK
  5
20
100
AcDbEntity
  8
0
100
AcDbBlockBegin
  2
*Model_Space
 70
0
 10
0.0
 20
0.0
 30
0.0
  3
*Model_Space
  1

  0
ENDBLK
  5
21
100
AcDbEntity
  8
0
100
AcDbBlockEnd
  0
BLOCK
  5
1C
100
AcDbEntity
  8
0
100
AcDbBlockBegin
  2
*Paper_Space
 70
0
 10
0.0
 20
0.0
 30
0.0
  3
*Paper_Space
  1

  0
ENDBLK
  5
1D
100
AcDbEntity
  8
0
100
AcDbBlockEnd
  0
ENDSEC
  0
SECTION
  2
ENTITIES
  0
MTEXT
  5
20B
100
AcDbEntity
  8
0
100
AcDbMText
 62
5
  6
CONTINUOUS
  7
STANDARD
 71
2
 72
1
 10
459.3881320783
 20
244.8750619565
 30
0.0
 11
0.0
 21
1.0
 31
0.0
 44
0.9
  1
RUD VWH 20
 40
8.0
 41
70.2857142857
  0
LINE
  5
20C
100
AcDbEntity
  8
0
100
AcDbLine
 62
7
  6
CONTINUOUS
 10
0.0
 20
0.0
 11
0.0
 21
420.0
  0
LINE
  5
20D
100
AcDbEntity
  8
0
100
AcDbLine
 62
7
  6
CONTINUOUS
 10
0.0
 20
0.0
 11
594.0
 21
0.0
  0
LINE
  5
20E
100
AcDbEntity
  8
0
100
AcDbLine
 62
7
  6
CONTINUOUS
 10
0.0
 20
420.0
 11
594.0
 21
420.0
  0
LINE
  5
20F
100
AcDbEntity
  8
0
100
AcDbLine
 62
7
  6
CONTINUOUS
 10
594.0
 20
0.0
 11
594.0
 21
420.0
  0
LINE
  5
210
100
AcDbEntity
  8
0
100
AcDbLine
 62
7
  6
CONTINUOUS
 10
206.5743920875
 20
43.9719574931
 11
207.3775247286
 21
44.1942928293
  0
LINE
  5
211
100
AcDbEntity
  8
0
100
AcDbLine
 62
7
  6
CONTINUOUS
 10
207.0369285151
 20
45.424614294
 11
206.233795874
 21
45.2022789578
  0
LINE
  5
212
100
AcDbEntity
  8
0
100
AcDbLine
 62
7
  6
CONTINUOUS
 10
192.8930272059
 20
41.1856950072
 11
194.1261046292
 21
41.3906829777
  0
LINE
  5
213
100
AcDbEntity
  8
0
100
AcDbLine
 62
7
  6
CONTINUOUS
 10
199.2639240906
 20
42.2447989999
 11
200.702511282
 21
42.4839511108
  0
LINE
  5
214
100
AcDbEntity
  8
0
100
AcDbLine
 62
7
  6
CONTINUOUS
 10
193.3933816606
 20
45.7982789364
 11
196.887094755
 21
46.3790771434
  0
LINE
  5
215
100
AcDbEntity
  8
0
100
AcDbLine
 62
7
  6
CONTINUOUS
 10
205.5137240388
 20
43.8990957109
 11
206.5743920875
 21
43.9719574931
  0
LINE
  5
216
100
AcDbEntity
  8
0
100
AcDbLine
 62
7
  6
CONTINUOUS
 10
166.026504363
 20
46.0799188951
 11
167.0890211956
 21
46.1171146114
  0
LINE
  5
217
100
AcDbEntity
  8
0
100
AcDbLine
 62
7
  6
CONTINUOUS
 10
206.233795874
 20
45.2022789578
 11
205.373906395
 21
45.1849997195
  0
LINE
  5
218
100
AcDbEntity
  8
0
100
AcDbLine
 62
7
  6
CONTINUOUS
 10
160.3551745072
 20
42.5022376976
 11
161.5878897217
 21
42.2950826833
  0
LINE
  5
219
100
AcDbEntity
  8
0
100
AcDbLine
 62
7
  6
CONTINUOUS
 10
162.3283587195
 20
46.701383938
 11
166.026504363
 21
46.0799188951
  0
LINE
  5
21A
100
AcDbEntity
  8
0
100
AcDbLine
 62
7
  6
CONTINUOUS
 10
156.8509159749
 20
43.3741051309
 11
158.0663996724
 21
43.082387149
  0
LINE
  5
21B
100
AcDbEntity
  8
0
100
AcDbLine
 62
7
  6
CONTINUOUS
 10
149.7458852519
 20
45.4093966638
 11
151.334063448
 21
44.9039636839
  0
LINE
  5
21C
100
AcDbEntity
  8
0
100
AcDbLine
 62
7
  6
CONTINUOUS
 10
132.216129621
 20
54.5619004149
 11
131.2091802958
 21
54.9030580491
  0
LINE
  5
21D
100
AcDbEntity
  8
0
100
AcDbLine
 62
7
  6
CONTINUOUS
 10
130.673078376
 20
53.9841845023
 11
131.8599751494
 21
53.5380394594
  0
LINE
  5
21E
100
AcDbEntity
  8
0
100
AcDbLine
 62
7
  6
CONTINUOUS
 10
207.9220240405
 20
54.7211447052
 11
206.71733427
 21
54.3876442453
  0
LINE
  5
21F
100
AcDbEntity
  8
0
100
AcDbLine
 62
7
  6
CONTINUOUS
 10
201.8985751878
 20
53.0536424057
 11
200.6938854173
 21
52.7201419458
  0
LINE
  5
220
100
AcDbEntity
  8
0
100
AcDbLine
 62
7
  6
CONTINUOUS
 10
215.2098261495
 20
57.2631048894
 11
214.1631315979
 21
57.0766751265
  0
LINE
  5
221
100
AcDbEntity
  8
0
100
AcDbLine
 62
7
  6
CONTINUOUS
 10
197.088774307
 20
47.7067199513
 11
193.184032269
 21
47.0575918995
  0
LINE
  5
222
100
AcDbEntity
  8
0
100
AcDbLine
 62
7
  6
CONTINUOUS
 10
192.660658692
 20
50.2058748952
 11
196.5654007301
 21
50.855002947
  0
LINE
  5
223
100
AcDbEntity
  8
0
100
AcDbLine
 62
7
  6
CONTINUOUS
 10
196.1854331357
 20
51.8702662758
 11
191.2531234423
 21
51.050314394
  0
LINE
  5
224
100
AcDbEntity
  8
0
100
AcDbLine
 62
7
  6
CONTINUOUS
 10
167.0951343374
 20
47.410582968
 11
166.4435163064
 21
47.3043366339
  0
LINE
  5
225
100
AcDbEntity
  8
0
100
AcDbLine
 62
7
  6
CONTINUOUS
 10
214.6339777371
 20
55.8900832758
 11
215.4870300226
 21
55.999674728
  0
LINE
  5
226
100
AcDbEntity
  8
0
100
AcDbLine
 62
7
  6
CONTINUOUS
 10
132.9704085564
 20
54.6144899109
 11
132.216129621
 21
54.5619004149
  0
LINE
  5
227
100
AcDbEntity
  8
0
100
AcDbLine
 62
7
  6
CONTINUOUS
 10
133.4151020924
 20
61.9912927854
 11
134.1693810278
 21
62.0438822814
  0
LINE
  5
228
100
AcDbEntity
  8
0
100
AcDbLine
 62
7
  6
CONTINUOUS
 10
131.8599751494
 20
53.5380394594
 11
133.0813652406
 21
53.5644312408
  0
LINE
  5
229
100
AcDbEntity
  8
0
100
AcDbLine
 62
7
  6
CONTINUOUS
 10
134.5255395523
 20
63.0677407214
 11
133.3041453706
 21
63.0413513912
  0
LINE
  5
22A
100
AcDbEntity
  8
0
100
AcDbLine
 62
7
  6
CONTINUOUS
 10
125.3601235823
 20
67.4953236078
 11
126.1158122202
 21
67.4700837597
  0
LINE
  5
22B
100
AcDbEntity
  8
0
100
AcDbLine
 62
7
  6
CONTINUOUS
 10
197.2478829487
 20
51.831203048
 11
196.1854331357
 21
51.8702662758
  0
LINE
  5
22C
100
AcDbEntity
  8
0
100
AcDbLine
 62
7
  6
CONTINUOUS
 10
216.1413616559
 20
57.1749345506
 11
215.2098261495
 21
57.2631048894
  0
LINE
  5
22D
100
AcDbEntity
  8
RUNDUNGEN
100
AcDbLine
 62
7
  6
CONTINUOUS
 10
192.1194143882
 20
64.0427519778
 11
247.3685906058
 21
56.2779866356
  0
LINE
  5
22E
100
AcDbEntity
  8
0
100
AcDbLine
 62
7
  6
CONTINUOUS
 10
126.5753467315
 20
68.4519009623
 11
125.6514584809
 21
68.6000730289
  0
LINE
  5
22F
100
AcDbEntity
  8
0
100
AcDbLine
 62
7
  6
CONTINUOUS
 10
196.5654007301
 20
50.855002947
 11
197.216831007
 21
50.7476114384
  0
LINE
  5
230
100
AcDbEntity
  8
0
100
AcDbLine
 62
7
  6
CONTINUOUS
 10
166.4435163064
 20
47.3043366339
 11
162.5399212621
 21
47.9603269857
  0
LINE
  5
231
100
AcDbEntity
  8
0
100
AcDbLine
 62
7
  6
CONTINUOUS
 10
163.0688277173
 20
51.1076851928
 11
166.9724227616
 21
50.451694841
  0
LINE
  5
232
100
AcDbEntity
  8
0
100
AcDbLine
 62
7
  6
CONTINUOUS
 10
166.9432754796
 20
51.5353393563
 11
162.0124146216
 21
52.3639594135
  0
LINE
  5
233
100
AcDbEntity
  8
0
100
AcDbLine
 62
7
  6
CONTINUOUS
 10
204.5970593249
 20
44.0868675356
 11
205.5137240388
 21
43.8990957109
  0
LINE
  5
234
100
AcDbEntity
  8
0
100
AcDbLine
 62
7
  6
CONTINUOUS
 10
215.4870300226
 20
55.999674728
 11
216.2249143984
 21
55.8346625609
  0
LINE
  5
235
100
AcDbEntity
  8
0
100
AcDbLine
 62
7
  6
CONTINUOUS
 10
160.400143527
 20
52.8062567297
 11
159.1846598295
 21
53.0979747115
  0
LINE
  5
236
100
AcDbEntity
  8
0
100
AcDbLine
 62
7
  6
CONTINUOUS
 10
157.5430251551
 20
53.4221745423
 11
156.3518903721
 21
53.8012496387
  0
LINE
  5
237
100
AcDbEntity
  8
0
100
AcDbLine
 62
7
  6
CONTINUOUS
 10
150.7932598701
 20
55.5702672372
 11
149.6021250871
 21
55.9493423336
  0
LINE
  5
238
100
AcDbEntity
  8
0
100
AcDbLine
 62
7
  6
CONTINUOUS
 10
134.1693810278
 20
62.0438822814
 11
135.1763344716
 21
61.7027222443
  0
LINE
  5
239
100
AcDbEntity
  8
0
100
AcDbLine
 62
7
  6
CONTINUOUS
 10
205.373906395
 20
45.1849997195
 11
204.6580294121
 21
45.4283567403
  0
LINE
  5
23A
100
AcDbEntity
  8
0
100
AcDbLine
 62
7
  6
CONTINUOUS
 10
135.7124363163
 20
62.6215956625
 11
134.5255395523
 21
63.0677407214
  0
LINE
  5
23B
100
AcDbEntity
  8
0
100
AcDbLine
 62
7
  6
CONTINUOUS
 10
167.9352714647
 20
51.1528873901
 11
166.9432754796
 21
51.5353393563
  0
LINE
  5
23C
100
AcDbEntity
  8
0
100
AcDbLine
 62
7
  6
CONTINUOUS
 10
126.1158122202
 20
67.4700837597
 11
127.082349409
 21
67.0272052913
  0
LINE
  5
23D
100
AcDbEntity
  8
0
100
AcDbLine
 62
7
  6
CONTINUOUS
 10
127.8782831457
 20
67.7631580569
 11
126.5753467315
 21
68.4519009623
  0
LINE
  5
23E
100
AcDbEntity
  8
0
100
AcDbLine
 62
7
  6
CONTINUOUS
 10
166.9724227616
 20
50.451694841
 11
167.5535199451
 21
50.1382934925
  0
LINE
  5
23F
100
AcDbEntity
  8
0
100
AcDbLine
 62
7
  6
CONTINUOUS
 10
119.1182075095
 20
61.77947189
 11
125.1733473693
 21
57.3539457881
  0
LINE
  5
240
100
AcDbEntity
  8
0
100
AcDbLine
 62
7
  6
CONTINUOUS
 10
125.8010815812
 20
58.2128308925
 11
121.0915309235
 21
61.6549048738
  0
LINE
  5
241
100
AcDbEntity
  8
0
100
AcDbLine
 62
7
  6
CONTINUOUS
 10
123.8060935186
 20
67.8405125195
 11
124.6470838825
 21
67.2258570544
  0
LINE
  5
242
100
AcDbEntity
  8
0
100
AcDbLine
 62
7
  6
CONTINUOUS
 10
127.082349409
 20
67.0272052913
 11
127.75514401
 21
66.535479231
  0
LINE
  5
243
100
AcDbEntity
  8
0
100
AcDbLine
 62
7
  6
CONTINUOUS
 10
128.5510738969
 20
67.2714348103
 11
127.8782831457
 21
67.7631580569
  0
LINE
  5
244
100
AcDbEntity
  8
0
100
AcDbLine
 62
7
  6
CONTINUOUS
 10
129.7006223593
 20
54.7978789445
 11
130.673078376
 21
53.9841845023
  0
LINE
  5
245
100
AcDbEntity
  8
0
100
AcDbLine
 62
7
  6
CONTINUOUS
 10
136.6848923424
 20
61.8079012363
 11
135.7124363163
 21
62.6215956625
  0
LINE
  5
246
100
AcDbEntity
  8
0
100
AcDbLine
 62
7
  6
CONTINUOUS
 10
131.2091802958
 20
54.9030580491
 11
130.4166675897
 21
55.6117674535
  0
LINE
  5
247
100
AcDbEntity
  8
0
100
AcDbLine
 62
7
  6
CONTINUOUS
 10
135.1763344716
 20
61.7027222443
 11
135.968843059
 21
60.9940152429
  0
LINE
  5
248
100
AcDbEntity
  8
0
100
AcDbLine
 62
7
  6
CONTINUOUS
 10
129.4347170487
 20
66.3620701298
 11
128.5510738969
 21
67.2714348103
  0
LINE
  5
249
100
AcDbEntity
  8
0
100
AcDbLine
 62
7
  6
CONTINUOUS
 10
127.75514401
 20
66.535479231
 11
128.4705875491
 21
65.749046769
  0
LINE
  5
24A
100
AcDbEntity
  8
0
100
AcDbLine
 62
7
  6
CONTINUOUS
 10
103.3624847198
 20
77.3778545437
 11
104.1863519745
 21
76.4377786177
  0
LINE
  5
24B
100
AcDbEntity
  8
0
100
AcDbLine
 62
7
  6
CONTINUOUS
 10
108.0310653055
 20
72.0507582271
 11
108.8549325602
 21
71.110682301
  0
LINE
  5
24C
100
AcDbEntity
  8
0
100
AcDbLine
 62
7
  6
CONTINUOUS
 10
107.7066363219
 20
79.5228985749
 11
111.551349653
 21
75.1358781843
  0
LINE
  5
24D
100
AcDbEntity
  8
0
100
AcDbLine
 62
7
  6
CONTINUOUS
 10
112.5114270801
 20
75.9772744292
 11
108.666713749
 21
80.3642948198
  0
LINE
  5
24E
100
AcDbEntity
  8
0
100
AcDbLine
 62
7
  6
CONTINUOUS
 10
116.3755399687
 20
77.7016203379
 11
115.5516727141
 21
78.641696264
  0
LINE
  5
24F
100
AcDbEntity
  8
0
100
AcDbLine
 62
7
  6
CONTINUOUS
 10
111.706959383
 20
83.0287166546
 11
110.8830921284
 21
83.9687925807
  0
LINE
  5
250
100
AcDbEntity
  8
0
100
AcDbLine
 62
7
  6
CONTINUOUS
 10
96.8604142085
 20
86.5225360843
 11
97.7985813652
 21
85.1449937753
  0
LINE
  5
251
100
AcDbEntity
  8
0
100
AcDbLine
 62
7
  6
CONTINUOUS
 10
99.6749143366
 20
82.389911128
 11
100.6130814933
 21
81.0123688191
  0
LINE
  5
252
100
AcDbEntity
  8
0
100
AcDbLine
 62
7
  6
CONTINUOUS
 10
92.1936814768
 20
94.8559268296
 11
92.957642034
 21
93.3746632765
  0
LINE
  5
253
100
AcDbEntity
  8
RUNDUNGEN
100
AcDbLine
 62
7
  6
CONTINUOUS
 10
63.5116206762
 20
105.1025807615
 11
49.479700772
 21
167.3671198503
  0
LINE
  5
254
100
AcDbEntity
  8
0
100
AcDbLine
 62
7
  6
CONTINUOUS
 10
133.0813652406
 20
53.5644312408
 11
133.9428645825
 21
53.8007954848
  0
LINE
  5
255
100
AcDbEntity
  8
0
100
AcDbLine
 62
7
  6
CONTINUOUS
 10
133.3041453706
 20
63.0413513912
 11
132.4426460663
 21
62.8049872116
  0
LINE
  5
256
100
AcDbEntity
  8
RUNDUNGEN
100
AcDbLine
 62
7
  6
CONTINUOUS
 10
295.3163289439
 20
106.9044291825
 11
262.6934539832
 21
99.6721119237
  0
LINE
  5
257
100
AcDbEntity
  8
0
100
AcDbLine
 62
7
  6
CONTINUOUS
 10
125.6514584809
 20
68.6000730289
 11
124.4764804305
 21
68.4046882883
  0
LINE
  5
258
100
AcDbEntity
  8
0
100
AcDbLine
 62
7
  6
CONTINUOUS
 10
127.5941671129
 20
63.490705481
 11
119.7459417215
 21
62.6383569944
  0
LINE
  5
259
100
AcDbEntity
  8
0
100
AcDbLine
 62
7
  6
CONTINUOUS
 10
121.0915309235
 20
61.6549048738
 11
128.0585170024
 21
62.3607190253
  0
LINE
  5
25A
100
AcDbEntity
  8
RUNDUNGEN
100
AcDbLine
 62
7
  6
CONTINUOUS
 10
251.4531559364
 20
68.5910242774
 11
227.4456786167
 21
71.965055179
  0
LINE
  5
25B
100
AcDbEntity
  8
0
100
AcDbLine
 62
7
  6
CONTINUOUS
 10
217.2298370109
 20
56.6912300774
 11
216.1413616559
 21
57.1749345506
  0
LINE
  5
25C
100
AcDbEntity
  8
0
100
AcDbLine
 62
7
  6
CONTINUOUS
 10
198.1746155318
 20
51.3382062561
 11
197.2478829487
 21
51.831203048
  0
LINE
  5
25D
100
AcDbEntity
  8
0
100
AcDbLine
 62
7
  6
CONTINUOUS
 10
203.5668717392
 20
44.6847490297
 11
204.5970593249
 21
44.0868675356
  0
LINE
  5
25E
100
AcDbEntity
  8
0
100
AcDbLine
 62
7
  6
CONTINUOUS
 10
197.216831007
 20
50.7476114384
 11
197.6976430813
 21
50.3961702955
  0
LINE
  5
25F
100
AcDbEntity
  8
0
100
AcDbLine
 62
7
  6
CONTINUOUS
 10
168.6513066063
 20
50.3853114697
 11
167.9352714647
 21
51.1528873901
  0
LINE
  5
260
100
AcDbEntity
  8
0
100
AcDbLine
 62
7
  6
CONTINUOUS
 10
109.8164978915
 20
85.2638277516
 11
109.1128728595
 21
86.2969839907
  0
LINE
  5
261
100
AcDbEntity
  8
0
100
AcDbLine
 62
7
  6
CONTINUOUS
 10
107.4710813417
 20
88.7076815534
 11
106.532914185
 21
90.0852238623
  0
LINE
  5
262
100
AcDbEntity
  8
0
100
AcDbLine
 62
7
  6
CONTINUOUS
 10
104.8911226673
 20
92.4959214251
 11
104.1874976353
 21
93.5290776641
  0
LINE
  5
263
100
AcDbEntity
  8
0
100
AcDbLine
 62
7
  6
CONTINUOUS
 10
129.1225504193
 20
55.8741377644
 11
129.7006223593
 21
54.7978789445
  0
LINE
  5
264
100
AcDbEntity
  8
0
100
AcDbLine
 62
7
  6
CONTINUOUS
 10
103.3731449966
 20
94.9958997868
 11
102.8001745445
 21
96.1068475178
  0
LINE
  5
265
100
AcDbEntity
  8
0
100
AcDbLine
 62
7
  6
CONTINUOUS
 10
100.126312526
 20
101.291270086
 11
99.553342074
 21
102.402217817
  0
LINE
  5
266
100
AcDbEntity
  8
0
100
AcDbLine
 62
7
  6
CONTINUOUS
 10
129.8564180001
 20
65.5267900758
 11
129.4347170487
 21
66.3620701298
  0
LINE
  5
267
100
AcDbEntity
  8
0
100
AcDbLine
 62
7
  6
CONTINUOUS
 10
130.4166675897
 20
55.6117674535
 11
130.0912701301
 21
56.294276692
  0
LINE
  5
268
100
AcDbEntity
  8
RUNDUNGEN
100
AcDbLine
 62
7
  6
CONTINUOUS
 10
270.5277899613
 20
116.7731351101
 11
288.9465884545
 21
120.8564844283
  0
LINE
  5
269
100
AcDbEntity
  8
0
100
AcDbLine
 62
7
  6
CONTINUOUS
 10
216.2249143984
 20
55.8346625609
 11
216.8476310845
 21
55.3950462206
  0
LINE
  5
26A
100
AcDbEntity
  8
0
100
AcDbLine
 62
7
  6
CONTINUOUS
 10
204.6580294121
 20
45.4283567403
 11
204.0861650047
 21
45.9323497327
  0
LINE
  5
26B
100
AcDbEntity
  8
0
100
AcDbLine
 62
7
  6
CONTINUOUS
 10
198.9307205046
 20
50.6011582659
 11
198.1746155318
 21
51.3382062561
  0
LINE
  5
26C
100
AcDbEntity
  8
RUNDUNGEN
100
AcDbLine
 62
7
  6
CONTINUOUS
 10
78.7013403628
 20
180.9933622219
 11
126.4705252798
 21
118.2873437785
  0
LINE
  5
26D
100
AcDbEntity
  8
0
100
AcDbLine
 62
7
  6
CONTINUOUS
 10
167.5535199451
 20
50.1382934925
 11
167.893907304
 21
49.6495936117
  0
LINE
  5
26E
100
AcDbEntity
  8
0
100
AcDbLine
 62
7
  6
CONTINUOUS
 10
137.2629601919
 20
60.7316448676
 11
136.6848923424
 21
61.8079012363
  0
LINE
  5
26F
100
AcDbEntity
  8
0
100
AcDbLine
 62
7
  6
CONTINUOUS
 10
135.968843059
 20
60.9940152429
 11
136.2942405187
 21
60.3115060044
  0
LINE
  5
270
100
AcDbEntity
  8
0
100
AcDbLine
 62
7
  6
CONTINUOUS
 10
128.4705875491
 20
65.749046769
 11
128.7240888878
 21
65.0366989336
  0
LINE
  5
271
100
AcDbEntity
  8
0
100
AcDbLine
 62
7
  6
CONTINUOUS
 10
128.9043733661
 20
56.7404217509
 11
129.1225504193
 21
55.8741377644
  0
LINE
  5
272
100
AcDbEntity
  8
BEZUGSACHSEN
100
AcDbLine
 62
7
  6
CONTINUOUS
 10
129.573966097
 20
404.8494625012
 11
129.5627219844
 21
404.5157642382
  0
LINE
  5
273
100
AcDbEntity
  8
0
100
AcDbLine
 62
7
  6
CONTINUOUS
 10
92.957642034
 20
93.3746632765
 11
103.3731449966
 21
94.9958997868
  0
LINE
  5
274
100
AcDbEntity
  8
0
100
AcDbLine
 62
7
  6
CONTINUOUS
 10
102.8001745445
 20
96.1068475178
 11
93.710246601
 21
94.7004564967
  0
LINE
  5
275
100
AcDbEntity
  8
0
100
AcDbLine
 62
7
  6
CONTINUOUS
 10
217.9310278337
 20
56.0538489827
 11
217.2298370109
 21
56.6912300774
  0
LINE
  5
276
100
AcDbEntity
  8
0
100
AcDbLine
 62
7
  6
CONTINUOUS
 10
202.9382412631
 20
45.3937957193
 11
203.5668717392
 21
44.6847490297
  0
LINE
  5
277
100
AcDbEntity
  8
0
100
AcDbLine
 62
7
  6
CONTINUOUS
 10
169.1266225185
 20
49.4424385974
 11
168.6513066063
 21
50.3853114697
  0
LINE
  5
278
100
AcDbEntity
  8
0
100
AcDbLine
 62
7
  6
CONTINUOUS
 10
137.4811372826
 20
59.8653609455
 11
137.2629601919
 21
60.7316448676
  0
LINE
  5
279
100
AcDbEntity
  8
0
100
AcDbLine
 62
7
  6
CONTINUOUS
 10
130.0270253019
 20
64.3479560282
 11
129.8564180001
 21
65.5267900758
  0
LINE
  5
27A
100
AcDbEntity
  8
0
100
AcDbLine
 62
7
  6
CONTINUOUS
 10
130.0912701301
 20
56.294276692
 11
130.0148109011
 21
57.8168698155
  0
LINE
  5
27B
100
AcDbEntity
  8
0
100
AcDbLine
 62
7
  6
CONTINUOUS
 10
136.2942405187
 20
60.3115060044
 11
136.370703641
 21
58.7889100918
  0
LINE
  5
27C
100
AcDbEntity
  8
BEZUGSACHSEN
100
AcDbLine
 62
7
  6
CONTINUOUS
 10
129.5627219844
 20
342.0300831739
 11
129.5627219844
 21
360.7584981532
  0
LINE
  5
27D
100
AcDbEntity
  8
RUNDUNGEN
100
AcDbLine
 62
7
  6
CONTINUOUS
 10
129.5627219844
 20
342.0300831739
 11
129.5627219844
 21
378.4945549882
  0
LINE
  5
27E
100
AcDbEntity
  8
BEZUGSACHSEN
100
AcDbLine
 62
7
  6
CONTINUOUS
 10
129.5627219844
 20
367.1740469125
 11
129.5627219844
 21
404.5133473282
  0
LINE
  5
27F
100
AcDbEntity
  8
0
100
AcDbLine
 62
7
  6
CONTINUOUS
 10
128.7240888878
 20
65.0366989336
 11
128.683843789
 21
64.2755063198
  0
LINE
  5
280
100
AcDbEntity
  8
0
100
AcDbLine
 62
7
  6
CONTINUOUS
 10
128.9733641581
 20
57.6854930607
 11
128.9043733661
 21
56.7404217509
  0
LINE
  5
281
100
AcDbEntity
  8
0
100
AcDbLine
 62
7
  6
CONTINUOUS
 10
216.8476310845
 20
55.3950462206
 11
217.3551707768
 21
54.6808232977
  0
LINE
  5
282
100
AcDbEntity
  8
0
100
AcDbLine
 62
7
  6
CONTINUOUS
 10
218.5170421024
 20
55.1418601973
 11
217.9310278337
 21
56.0538489827
  0
LINE
  5
283
100
AcDbEntity
  8
0
100
AcDbLine
 62
7
  6
CONTINUOUS
 10
200.702511282
 20
42.4839511108
 11
198.0503890478
 21
47.0038361016
  0
LINE
  5
284
100
AcDbEntity
  8
0
100
AcDbLine
 62
7
  6
CONTINUOUS
 10
196.887094755
 20
46.3790771434
 11
199.2639240906
 21
42.2447989999
  0
LINE
  5
285
100
AcDbEntity
  8
0
100
AcDbLine
 62
7
  6
CONTINUOUS
 10
204.0861650047
 20
45.9323497327
 11
203.6583223241
 21
46.6969813849
  0
LINE
  5
286
100
AcDbEntity
  8
0
100
AcDbLine
 62
7
  6
CONTINUOUS
 10
197.6976430813
 20
50.3961702955
 11
198.0078275451
 21
49.8006779543
  0
LINE
  5
287
100
AcDbEntity
  8
0
100
AcDbLine
 62
7
  6
CONTINUOUS
 10
199.2409049685
 20
50.0056659248
 11
198.9307205046
 21
50.6011582659
  0
LINE
  5
288
100
AcDbEntity
  8
0
100
AcDbLine
 62
7
  6
CONTINUOUS
 10
202.4536325535
 20
46.3634809251
 11
202.9382412631
 21
45.3937957193
  0
LINE
  5
289
100
AcDbEntity
  8
0
100
AcDbLine
 62
7
  6
CONTINUOUS
 10
150.927112601
 20
46.3731589701
 11
150.7932598701
 21
55.5702672372
  0
LINE
  5
28A
100
AcDbEntity
  8
0
100
AcDbLine
 62
7
  6
CONTINUOUS
 10
149.6021250871
 20
55.9493423336
 11
149.7458852519
 21
45.4093966638
  0
LINE
  5
28B
100
AcDbEntity
  8
0
100
AcDbLine
 62
7
  6
CONTINUOUS
 10
137.4121465657
 20
58.9202897644
 11
137.4811372826
 21
59.8653609455
  0
LINE
  5
28C
100
AcDbEntity
  8
0
100
AcDbLine
 62
7
  6
CONTINUOUS
 10
129.1150778262
 20
58.3418045363
 11
128.9733641581
 21
57.6854930607
  0
LINE
  5
28D
100
AcDbEntity
  8
RUNDUNGEN
100
AcDbLine
 62
7
  6
CONTINUOUS
 10
81.5181448452
 20
132.955640529
 11
84.9470054067
 21
133.8744009475
  0
LINE
  5
28E
100
AcDbEntity
  8
RUNDUNGEN
100
AcDbLine
 62
7
  6
CONTINUOUS
 10
244.2516946474
 20
86.9393845616
 11
254.9589576874
 21
75.2544573828
  0
LINE
  5
28F
100
AcDbEntity
  8
0
100
AcDbLine
 62
7
  6
CONTINUOUS
 10
209.5156462956
 20
55.232527528
 11
213.2039414925
 21
45.9375569234
  0
LINE
  5
290
100
AcDbEntity
  8
0
100
AcDbLine
 62
7
  6
CONTINUOUS
 10
213.8949666239
 20
47.5851858122
 11
211.1483637604
 21
54.506972577
  0
LINE
  5
291
100
AcDbEntity
  8
0
100
AcDbLine
 62
7
  6
CONTINUOUS
 10
167.893907304
 20
49.6495936117
 11
167.9935754335
 21
48.985596779
  0
LINE
  5
292
100
AcDbEntity
  8
0
100
AcDbLine
 62
7
  6
CONTINUOUS
 10
169.226290648
 20
48.7784417646
 11
169.1266225185
 21
49.4424385974
  0
LINE
  5
293
100
AcDbEntity
  8
BEZUGSACHSEN
100
AcDbLine
 62
7
  6
CONTINUOUS
 10
169.3127219844
 20
404.4945549882
 11
169.3127219844
 21
378.4945549882
  0
LINE
  5
294
100
AcDbEntity
  8
RUNDUNGEN
100
AcDbLine
 62
7
  6
CONTINUOUS
 10
169.3127219844
 20
378.4945549882
 11
169.3127219844
 21
349.7445553381
  0
LINE
  5
295
100
AcDbEntity
  8
RUNDUNGEN
100
AcDbLine
 62
7
  6
CONTINUOUS
 10
173.5627219844
 20
61.0376733103
 11
173.5627219844
 21
34.061824057
  0
LINE
  5
296
100
AcDbEntity
  8
0
100
AcDbLine
 62
7
  6
CONTINUOUS
 10
137.2704325973
 20
58.263977774
 11
137.4121465657
 21
58.9202897644
  0
LINE
  5
297
100
AcDbEntity
  8
0
100
AcDbLine
 62
7
  6
CONTINUOUS
 10
129.4712365009
 20
59.3656632336
 11
129.1150778262
 21
58.3418045363
  0
LINE
  5
298
100
AcDbEntity
  8
0
100
AcDbLine
 62
7
  6
CONTINUOUS
 10
136.9142781914
 20
57.2401169311
 11
137.2704325973
 21
58.263977774
  0
LINE
  5
299
100
AcDbEntity
  8
0
100
AcDbLine
 62
7
  6
CONTINUOUS
 10
130.0148109011
 20
57.8168698155
 11
130.4781858262
 21
59.0245055995
  0
LINE
  5
29A
100
AcDbEntity
  8
0
100
AcDbLine
 62
7
  6
CONTINUOUS
 10
129.6930337656
 20
63.5379186361
 11
130.0270253019
 21
64.3479560282
  0
LINE
  5
29B
100
AcDbEntity
  8
0
100
AcDbLine
 62
7
  6
CONTINUOUS
 10
93.710246601
 20
94.7004564967
 11
100.126312526
 21
101.291270086
  0
LINE
  5
29C
100
AcDbEntity
  8
0
100
AcDbLine
 62
7
  6
CONTINUOUS
 10
99.553342074
 20
102.402217817
 11
92.1936814768
 21
94.8559268296
  0
LINE
  5
29D
100
AcDbEntity
  8
RUNDUNGEN
100
AcDbLine
 62
7
  6
CONTINUOUS
 10
262.679777462
 20
251.9897814174
 11
239.3143553888
 21
234.1900997379
  0
LINE
  5
29E
100
AcDbEntity
  8
RUNDUNGEN
100
AcDbLine
 62
7
  6
CONTINUOUS
 10
260.6101030917
 20
93.0645670648
 11
277.1360094857
 21
75.0297049292
  0
LINE
  5
29F
100
AcDbEntity
  8
0
100
AcDbLine
 62
7
  6
CONTINUOUS
 10
217.3551707768
 20
54.6808232977
 11
218.5322862348
 21
51.7143433941
  0
LINE
  5
2A0
100
AcDbEntity
  8
0
100
AcDbLine
 62
7
  6
CONTINUOUS
 10
219.6941575604
 20
52.1753802937
 11
218.5170421024
 21
55.1418601973
  0
LINE
  5
2A1
100
AcDbEntity
  8
0
100
AcDbLine
 62
7
  6
CONTINUOUS
 10
200.6938854173
 20
52.7201419458
 11
202.4536325535
 21
46.3634809251
  0
LINE
  5
2A2
100
AcDbEntity
  8
0
100
AcDbLine
 62
7
  6
CONTINUOUS
 10
203.6583223241
 20
46.6969813849
 11
201.8985751878
 21
53.0536424057
  0
LINE
  5
2A3
100
AcDbEntity
  8
0
100
AcDbLine
 62
7
  6
CONTINUOUS
 10
206.71733427
 20
54.3876442453
 11
208.4770814063
 21
48.0309832245
  0
LINE
  5
2A4
100
AcDbEntity
  8
0
100
AcDbLine
 62
7
  6
CONTINUOUS
 10
209.6817711768
 20
48.3644836844
 11
207.9220240405
 21
54.7211447052
  0
LINE
  5
2A5
100
AcDbEntity
  8
0
100
AcDbLine
 62
7
  6
CONTINUOUS
 10
191.2531234423
 20
51.050314394
 11
192.8930272059
 21
41.1856950072
  0
LINE
  5
2A6
100
AcDbEntity
  8
0
100
AcDbLine
 62
7
  6
CONTINUOUS
 10
194.1261046292
 20
41.3906829777
 11
193.3933816606
 21
45.7982789364
  0
LINE
  5
2A7
100
AcDbEntity
  8
0
100
AcDbLine
 62
7
  6
CONTINUOUS
 10
193.184032269
 20
47.0575918995
 11
192.660658692
 21
50.2058748952
  0
LINE
  5
2A8
100
AcDbEntity
  8
0
100
AcDbLine
 62
7
  6
CONTINUOUS
 10
198.0078275451
 20
49.8006779543
 11
198.1125023387
 21
49.1710208848
  0
LINE
  5
2A9
100
AcDbEntity
  8
0
100
AcDbLine
 62
7
  6
CONTINUOUS
 10
199.3804713273
 20
49.1661233614
 11
199.2409049685
 21
50.0056659248
  0
LINE
  5
2AA
100
AcDbEntity
  8
0
100
AcDbLine
 62
7
  6
CONTINUOUS
 10
209.7648227569
 20
47.283633355
 11
209.6817711768
 21
48.3644836844
  0
LINE
  5
2AB
100
AcDbEntity
  8
RUNDUNGEN
100
AcDbLine
 62
7
  6
CONTINUOUS
 10
187.5627219844
 20
33.975632112
 11
187.5627219844
 21
60.0816797029
  0
LINE
  5
2AC
100
AcDbEntity
  8
RUNDUNGEN
100
AcDbLine
 62
7
  6
CONTINUOUS
 10
191.8127219844
 20
349.7445554252
 11
191.8127219844
 21
378.4945549882
  0
LINE
  5
2AD
100
AcDbEntity
  8
BEZUGSACHSEN
100
AcDbLine
 62
7
  6
CONTINUOUS
 10
191.8127219844
 20
378.4945549882
 11
191.8127219844
 21
404.4945549882
  0
LINE
  5
2AE
100
AcDbEntity
  8
0
100
AcDbLine
 62
7
  6
CONTINUOUS
 10
162.0124146216
 20
52.3639594135
 11
160.3551745072
 21
42.5022376976
  0
LINE
  5
2AF
100
AcDbEntity
  8
0
100
AcDbLine
 62
7
  6
CONTINUOUS
 10
161.5878897217
 20
42.2950826833
 11
162.3283587195
 21
46.701383938
  0
LINE
  5
2B0
100
AcDbEntity
  8
0
100
AcDbLine
 62
7
  6
CONTINUOUS
 10
162.5399212621
 20
47.9603269857
 11
163.0688277173
 21
51.1076851928
  0
LINE
  5
2B1
100
AcDbEntity
  8
0
100
AcDbLine
 62
7
  6
CONTINUOUS
 10
167.9935754335
 20
48.985596779
 11
167.8877940634
 21
48.3561246673
  0
LINE
  5
2B2
100
AcDbEntity
  8
0
100
AcDbLine
 62
7
  6
CONTINUOUS
 10
169.0852488542
 20
47.9391458117
 11
169.226290648
 21
48.7784417646
  0
LINE
  5
2B3
100
AcDbEntity
  8
0
100
AcDbLine
 62
7
  6
CONTINUOUS
 10
159.1846598295
 20
53.0979747115
 11
156.8509159749
 21
43.3741051309
  0
LINE
  5
2B4
100
AcDbEntity
  8
0
100
AcDbLine
 62
7
  6
CONTINUOUS
 10
158.0663996724
 20
43.082387149
 11
160.400143527
 21
52.8062567297
  0
LINE
  5
2B5
100
AcDbEntity
  8
0
100
AcDbLine
 62
7
  6
CONTINUOUS
 10
136.370703641
 20
58.7889100918
 11
135.9073247475
 21
57.5812769682
  0
LINE
  5
2B6
100
AcDbEntity
  8
0
100
AcDbLine
 62
7
  6
CONTINUOUS
 10
130.4362198213
 20
61.0196353863
 11
129.4712365009
 21
59.3656632336
  0
LINE
  5
2B7
100
AcDbEntity
  8
0
100
AcDbLine
 62
7
  6
CONTINUOUS
 10
130.4781858262
 20
59.0245055995
 11
131.2287284086
 21
60.3109283849
  0
LINE
  5
2B8
100
AcDbEntity
  8
0
100
AcDbLine
 62
7
  6
CONTINUOUS
 10
102.078418123
 20
83.0185655761
 11
107.4710813417
 21
88.7076815534
  0
LINE
  5
2B9
100
AcDbEntity
  8
0
100
AcDbLine
 62
7
  6
CONTINUOUS
 10
105.419290522
 20
88.3185591703
 11
99.6749143366
 21
82.389911128
  0
LINE
  5
2BA
100
AcDbEntity
  8
0
100
AcDbLine
 62
7
  6
CONTINUOUS
 10
104.1874976353
 20
93.5290776641
 11
96.8604142085
 21
86.5225360843
  0
LINE
  5
2BB
100
AcDbEntity
  8
0
100
AcDbLine
 62
7
  6
CONTINUOUS
 10
99.2639179949
 20
87.1511905324
 11
104.8911226673
 21
92.4959214251
  0
LINE
  5
2BC
100
AcDbEntity
  8
RUNDUNGEN
100
AcDbLine
 62
7
  6
CONTINUOUS
 10
261.1724535628
 20
228.0301656572
 11
277.520645393
 21
242.9058756559
  0
LINE
  5
2BD
100
AcDbEntity
  8
RUNDUNGEN
100
AcDbLine
 62
7
  6
CONTINUOUS
 10
290.0808299988
 20
128.225770072
 11
275.0772271033
 21
136.8881042425
  0
LINE
  5
2BE
100
AcDbEntity
  8
0
100
AcDbLine
 62
7
  6
CONTINUOUS
 10
219.8928870769
 20
51.1097154407
 11
219.6941575604
 21
52.1753802937
  0
LINE
  5
2BF
100
AcDbEntity
  8
0
100
AcDbLine
 62
7
  6
CONTINUOUS
 10
218.5322862348
 20
51.7143433941
 11
218.6525413948
 21
50.8464438495
  0
LINE
  5
2C0
100
AcDbEntity
  8
0
100
AcDbLine
 62
7
  6
CONTINUOUS
 10
208.4770814063
 20
48.0309832245
 11
208.5033669574
 21
47.1551864486
  0
LINE
  5
2C1
100
AcDbEntity
  8
0
100
AcDbLine
 62
7
  6
CONTINUOUS
 10
198.1125023387
 20
49.1710208848
 11
198.0116672665
 21
48.5072002628
  0
LINE
  5
2C2
100
AcDbEntity
  8
0
100
AcDbLine
 62
7
  6
CONTINUOUS
 10
199.2796362551
 20
48.5023027395
 11
199.3804713273
 21
49.1661233614
  0
LINE
  5
2C3
100
AcDbEntity
  8
0
100
AcDbLine
 62
7
  6
CONTINUOUS
 10
135.9073247475
 20
57.5812769682
 11
135.156782165
 21
56.2948541828
  0
LINE
  5
2C4
100
AcDbEntity
  8
0
100
AcDbLine
 62
7
  6
CONTINUOUS
 10
135.9492948711
 20
55.5861447784
 11
136.9142781914
 21
57.2401169311
  0
LINE
  5
2C5
100
AcDbEntity
  8
0
100
AcDbLine
 62
7
  6
CONTINUOUS
 10
119.7459417215
 20
62.6383569944
 11
119.1182075095
 21
61.77947189
  0
LINE
  5
2C6
100
AcDbEntity
  8
0
100
AcDbLine
 62
7
  6
CONTINUOUS
 10
128.683843789
 20
64.2755063198
 11
128.4327497877
 21
63.9319518449
  0
LINE
  5
2C7
100
AcDbEntity
  8
0
100
AcDbLine
 62
7
  6
CONTINUOUS
 10
125.1733473693
 20
57.3539457881
 11
125.8010815812
 21
58.2128308925
  0
LINE
  5
2C8
100
AcDbEntity
  8
0
100
AcDbLine
 62
7
  6
CONTINUOUS
 10
129.4419397643
 20
63.1943641613
 11
129.6930337656
 21
63.5379186361
  0
LINE
  5
2C9
100
AcDbEntity
  8
0
100
AcDbLine
 62
7
  6
CONTINUOUS
 10
131.2287284086
 20
60.3109283849
 11
132.0519980609
 21
61.3085890619
  0
LINE
  5
2CA
100
AcDbEntity
  8
0
100
AcDbLine
 62
7
  6
CONTINUOUS
 10
110.8830921284
 20
83.9687925807
 11
103.3624847198
 21
77.3778545437
  0
LINE
  5
2CB
100
AcDbEntity
  8
0
100
AcDbLine
 62
7
  6
CONTINUOUS
 10
104.1863519745
 20
76.4377786177
 11
107.7066363219
 21
79.5228985749
  0
LINE
  5
2CC
100
AcDbEntity
  8
0
100
AcDbLine
 62
7
  6
CONTINUOUS
 10
108.666713749
 20
80.3642948198
 11
111.706959383
 21
83.0287166546
  0
LINE
  5
2CD
100
AcDbEntity
  8
0
100
AcDbLine
 62
7
  6
CONTINUOUS
 10
115.5516727141
 20
78.641696264
 11
112.5114270801
 21
75.9772744292
  0
LINE
  5
2CE
100
AcDbEntity
  8
0
100
AcDbLine
 62
7
  6
CONTINUOUS
 10
111.551349653
 20
75.1358781843
 11
108.0310653055
 21
72.0507582271
  0
LINE
  5
2CF
100
AcDbEntity
  8
0
100
AcDbLine
 62
7
  6
CONTINUOUS
 10
108.8549325602
 20
71.110682301
 11
116.3755399687
 21
77.7016203379
  0
LINE
  5
2D0
100
AcDbEntity
  8
RUNDUNGEN
100
AcDbLine
 62
7
  6
CONTINUOUS
 10
268.2588654662
 20
201.3773082989
 11
286.5501733783
 21
197.2551840317
  0
LINE
  5
2D1
100
AcDbEntity
  8
RUNDUNGEN
100
AcDbLine
 62
7
  6
CONTINUOUS
 10
309.2037381357
 20
142.9586566033
 11
286.5627219844
 21
156.030453373
  0
LINE
  5
2D2
100
AcDbEntity
  8
BEZUGSACHSEN
100
AcDbLine
 62
7
  6
CONTINUOUS
 10
231.5627219844
 20
404.4945549882
 11
231.5627219844
 21
378.4945549882
  0
LINE
  5
2D3
100
AcDbEntity
  8
RUNDUNGEN
100
AcDbLine
 62
7
  6
CONTINUOUS
 10
231.5627219844
 20
378.4945549882
 11
231.5627219844
 21
305.2443432249
  0
LINE
  5
2D4
100
AcDbEntity
  8
0
100
AcDbLine
 62
7
  6
CONTINUOUS
 10
219.8194911614
 20
50.1649739294
 11
219.8928870769
 21
51.1097154407
  0
LINE
  5
2D5
100
AcDbEntity
  8
0
100
AcDbLine
 62
7
  6
CONTINUOUS
 10
209.5903205919
 20
46.3522513292
 11
209.7648227569
 21
47.283633355
  0
LINE
  5
2D6
100
AcDbEntity
  8
0
100
AcDbLine
 62
7
  6
CONTINUOUS
 10
167.8877940634
 20
48.3561246673
 11
167.5765633913
 21
47.7611784523
  0
LINE
  5
2D7
100
AcDbEntity
  8
0
100
AcDbLine
 62
7
  6
CONTINUOUS
 10
168.7740181821
 20
47.3441995967
 11
169.0852488542
 21
47.9391458117
  0
LINE
  5
2D8
100
AcDbEntity
  8
0
100
AcDbLine
 62
7
  6
CONTINUOUS
 10
151.334063448
 20
44.9039636839
 11
157.5430251551
 21
53.4221745423
  0
LINE
  5
2D9
100
AcDbEntity
  8
0
100
AcDbLine
 62
7
  6
CONTINUOUS
 10
156.3518903721
 20
53.8012496387
 11
150.927112601
 21
46.3731589701
  0
LINE
  5
2DA
100
AcDbEntity
  8
0
100
AcDbLine
 62
7
  6
CONTINUOUS
 10
135.156782165
 20
56.2948541828
 11
134.3335164812
 21
55.2971908454
  0
LINE
  5
2DB
100
AcDbEntity
  8
0
100
AcDbLine
 62
7
  6
CONTINUOUS
 10
131.152264986
 20
61.8335237826
 11
130.4362198213
 21
61.0196353863
  0
LINE
  5
2DC
100
AcDbEntity
  8
0
100
AcDbLine
 62
7
  6
CONTINUOUS
 10
135.2332454375
 20
54.7722585276
 11
135.9492948711
 21
55.5861447784
  0
LINE
  5
2DD
100
AcDbEntity
  8
0
100
AcDbLine
 62
7
  6
CONTINUOUS
 10
131.6538738318
 20
62.2798609236
 11
131.152264986
 21
61.8335237826
  0
LINE
  5
2DE
100
AcDbEntity
  8
0
100
AcDbLine
 62
7
  6
CONTINUOUS
 10
124.4764804305
 20
68.4046882883
 11
123.8060935186
 21
67.8405125195
  0
LINE
  5
2DF
100
AcDbEntity
  8
0
100
AcDbLine
 62
7
  6
CONTINUOUS
 10
128.7715567022
 20
62.6301855788
 11
129.4419397643
 21
63.1943641613
  0
LINE
  5
2E0
100
AcDbEntity
  8
RUNDUNGEN
100
AcDbLine
 62
7
  6
CONTINUOUS
 10
287.6707885609
 20
189.8889442407
 11
273.7955338067
 21
181.8780621733
  0
LINE
  5
2E1
100
AcDbEntity
  8
0
100
AcDbLine
 62
7
  6
CONTINUOUS
 10
109.1128728595
 20
86.2969839907
 11
102.078418123
 21
83.0185655761
  0
LINE
  5
2E2
100
AcDbEntity
  8
0
100
AcDbLine
 62
7
  6
CONTINUOUS
 10
100.6130814933
 20
81.0123688191
 11
109.8164978915
 21
85.2638277516
  0
LINE
  5
2E3
100
AcDbEntity
  8
0
100
AcDbLine
 62
7
  6
CONTINUOUS
 10
97.7985813652
 20
85.1449937753
 11
105.419290522
 21
88.3185591703
  0
LINE
  5
2E4
100
AcDbEntity
  8
0
100
AcDbLine
 62
7
  6
CONTINUOUS
 10
106.532914185
 20
90.0852238623
 11
99.2639179949
 21
87.1511905324
  0
LINE
  5
2E5
100
AcDbEntity
  8
RUNDUNGEN
100
AcDbLine
 62
7
  6
CONTINUOUS
 10
290.1737302311
 20
215.0422848887
 11
262.9851187995
 21
221.1695031015
  0
LINE
  5
2E6
100
AcDbEntity
  8
BEZUGSACHSEN
100
AcDbLine
 62
7
  6
CONTINUOUS
 10
234.6549126498
 20
200.7017741253
 11
131.6079881796
 21
335.9701978505
  0
LINE
  5
2E7
100
AcDbEntity
  8
RUNDUNGEN
100
AcDbLine
 62
7
  6
CONTINUOUS
 10
234.6549126498
 20
200.7017741253
 11
131.6079881796
 21
335.9701978505
  0
LINE
  5
2E8
100
AcDbEntity
  8
0
100
AcDbLine
 62
7
  6
CONTINUOUS
 10
218.6525413948
 20
50.8464438495
 11
218.5006710678
 21
50.0994677852
  0
LINE
  5
2E9
100
AcDbEntity
  8
0
100
AcDbLine
 62
7
  6
CONTINUOUS
 10
208.5033669574
 20
47.1551864486
 11
208.2720987237
 21
46.4288581199
  0
LINE
  5
2EA
100
AcDbEntity
  8
0
100
AcDbLine
 62
7
  6
CONTINUOUS
 10
198.8026638046
 20
47.5602667788
 11
199.2796362551
 21
48.5023027395
  0
LINE
  5
2EB
100
AcDbEntity
  8
0
100
AcDbLine
 62
7
  6
CONTINUOUS
 10
134.731636892
 20
54.3259219015
 11
135.2332454375
 21
54.7722585276
  0
LINE
  5
2EC
100
AcDbEntity
  8
0
100
AcDbLine
 62
7
  6
CONTINUOUS
 10
132.4426460663
 20
62.8049872116
 11
131.6538738318
 21
62.2798609236
  0
LINE
  5
2ED
100
AcDbEntity
  8
RUNDUNGEN
100
AcDbLine
 62
7
  6
CONTINUOUS
 10
286.5627219844
 20
162.9586566033
 11
309.2037381357
 21
176.030453373
  0
LINE
  5
2EE
100
AcDbEntity
  8
0
100
AcDbLine
 62
7
  6
CONTINUOUS
 10
128.4327497877
 20
63.9319518449
 11
127.5941671129
 21
63.490705481
  0
LINE
  5
2EF
100
AcDbEntity
  8
RUNDUNGEN
100
AcDbLine
 62
7
  6
CONTINUOUS
 10
233.7085078643
 20
234.9480400603
 11
204.6668986737
 21
273.0706013871
  0
LINE
  5
2F0
100
AcDbEntity
  8
RUNDUNGEN
100
AcDbLine
 62
7
  6
CONTINUOUS
 10
268.0367633236
 20
183.9740832152
 11
263.6207101656
 21
196.1070895498
  0
LINE
  5
2F1
100
AcDbEntity
  8
RUNDUNGEN
100
AcDbLine
 62
7
  6
CONTINUOUS
 10
269.2135237981
 20
134.4592788077
 11
265.7983282003
 21
121.713595319
  0
LINE
  5
2F2
100
AcDbEntity
  8
0
100
AcDbLine
 62
7
  6
CONTINUOUS
 10
219.3588106861
 20
49.0665558658
 11
219.8194911614
 21
50.1649739294
  0
LINE
  5
2F3
100
AcDbEntity
  8
0
100
AcDbLine
 62
7
  6
CONTINUOUS
 10
209.0142612776
 20
45.3097042515
 11
209.5903205919
 21
46.3522513292
  0
LINE
  5
2F4
100
AcDbEntity
  8
0
100
AcDbLine
 62
7
  6
CONTINUOUS
 10
198.0116672665
 20
48.5072002628
 11
197.6704214534
 21
48.0190994304
  0
LINE
  5
2F5
100
AcDbEntity
  8
0
100
AcDbLine
 62
7
  6
CONTINUOUS
 10
168.0166188798
 20
46.6084817388
 11
168.7740181821
 21
47.3441995967
  0
LINE
  5
2F6
100
AcDbEntity
  8
0
100
AcDbLine
 62
7
  6
CONTINUOUS
 10
167.5765633913
 20
47.7611784523
 11
167.0951343374
 21
47.410582968
  0
LINE
  5
2F7
100
AcDbEntity
  8
0
100
AcDbLine
 62
7
  6
CONTINUOUS
 10
133.9428645825
 20
53.8007954848
 11
134.731636892
 21
54.3259219015
  0
LINE
  5
2F8
100
AcDbEntity
  8
0
100
AcDbLine
 62
7
  6
CONTINUOUS
 10
132.0519980609
 20
61.3085890619
 11
133.4151020924
 21
61.9912927854
  0
LINE
  5
2F9
100
AcDbEntity
  8
0
100
AcDbLine
 62
7
  6
CONTINUOUS
 10
134.3335164812
 20
55.2971908454
 11
132.9704085564
 21
54.6144899109
  0
LINE
  5
2FA
100
AcDbEntity
  8
0
100
AcDbLine
 62
7
  6
CONTINUOUS
 10
124.6470838825
 20
67.2258570544
 11
125.3601235823
 21
67.4953236078
  0
LINE
  5
2FB
100
AcDbEntity
  8
0
100
AcDbLine
 62
7
  6
CONTINUOUS
 10
128.0585170024
 20
62.3607190253
 11
128.7715567022
 21
62.6301855788
  0
LINE
  5
2FC
100
AcDbEntity
  8
RUNDUNGEN
100
AcDbLine
 62
7
  6
CONTINUOUS
 10
207.8487925971
 20
279.4945549882
 11
228.5996854811
 21
279.4945549882
  0
LINE
  5
2FD
100
AcDbEntity
  8
0
100
AcDbLine
 62
7
  6
CONTINUOUS
 10
218.5006710678
 20
50.0994677852
 11
218.076684173
 21
49.47341858
  0
LINE
  5
2FE
100
AcDbEntity
  8
0
100
AcDbLine
 62
7
  6
CONTINUOUS
 10
208.2720987237
 20
46.4288581199
 11
207.7832859361
 21
45.8520006393
  0
LINE
  5
2FF
100
AcDbEntity
  8
0
100
AcDbLine
 62
7
  6
CONTINUOUS
 10
218.7411726265
 20
48.363664919
 11
219.3588106861
 21
49.0665558658
  0
LINE
  5
300
100
AcDbEntity
  8
0
100
AcDbLine
 62
7
  6
CONTINUOUS
 10
208.3246607094
 20
44.6772617544
 11
209.0142612776
 21
45.3097042515
  0
LINE
  5
301
100
AcDbEntity
  8
0
100
AcDbLine
 62
7
  6
CONTINUOUS
 10
198.0503890478
 20
47.0038361016
 11
198.8026638046
 21
47.5602667788
  0
LINE
  5
302
100
AcDbEntity
  8
RUNDUNGEN
100
AcDbLine
 62
7
  6
CONTINUOUS
 10
225.8826939636
 20
79.3183198386
 11
239.1829082432
 21
87.6292161158
  0
LINE
  5
303
100
AcDbEntity
  8
0
100
AcDbLine
 62
7
  6
CONTINUOUS
 10
167.0890211956
 20
46.1171146114
 11
168.0166188798
 21
46.6084817388
  0
LINE
  5
304
100
AcDbEntity
  8
RUNDUNGEN
100
AcDbLine
 62
7
  6
CONTINUOUS
 10
230.760646763
 20
278.8605981159
 11
262.4167851428
 21
258.5377184686
  0
LINE
  5
305
100
AcDbEntity
  8
RUNDUNGEN
100
AcDbLine
 62
7
  6
CONTINUOUS
 10
283.7671643776
 20
241.781949494
 11
294.6075839791
 21
220.7790212824
  0
LINE
  5
306
100
AcDbEntity
  8
RUNDUNGEN
100
AcDbLine
 62
7
  6
CONTINUOUS
 10
315.2037381357
 20
172.5663517579
 11
315.2037381357
 21
146.4227582184
  0
LINE
  5
307
100
AcDbEntity
  8
0
100
AcDbLine
 62
7
  6
CONTINUOUS
 10
218.076684173
 20
49.47341858
 11
217.3805806006
 21
48.968296511
  0
LINE
  5
308
100
AcDbEntity
  8
0
100
AcDbLine
 62
7
  6
CONTINUOUS
 10
217.8514267948
 20
47.7817045219
 11
218.7411726265
 21
48.363664919
  0
LINE
  5
309
100
AcDbEntity
  8
0
100
AcDbLine
 62
7
  6
CONTINUOUS
 10
207.7832859361
 20
45.8520006393
 11
207.0369285151
 21
45.424614294
  0
LINE
  5
30A
100
AcDbEntity
  8
0
100
AcDbLine
 62
7
  6
CONTINUOUS
 10
197.6704214534
 20
48.0190994304
 11
197.088774307
 21
47.7067199513
  0
LINE
  5
30B
100
AcDbEntity
  8
0
100
AcDbLine
 62
7
  6
CONTINUOUS
 10
207.3775247286
 20
44.1942928293
 11
208.3246607094
 21
44.6772617544
  0
LINE
  5
30C
100
AcDbEntity
  8
0
100
AcDbLine
 62
7
  6
CONTINUOUS
 10
214.1631315979
 20
57.0766751265
 11
209.5156462956
 21
55.232527528
  0
LINE
  5
30D
100
AcDbEntity
  8
0
100
AcDbLine
 62
7
  6
CONTINUOUS
 10
211.1483637604
 20
54.506972577
 11
214.6339777371
 21
55.8900832758
  0
LINE
  5
30E
100
AcDbEntity
  8
0
100
AcDbLine
 62
7
  6
CONTINUOUS
 10
217.3805806006
 20
48.968296511
 11
213.8949666239
 21
47.5851858122
  0
LINE
  5
30F
100
AcDbEntity
  8
0
100
AcDbLine
 62
7
  6
CONTINUOUS
 10
213.2039414925
 20
45.9375569234
 11
217.8514267948
 21
47.7817045219
  0
LINE
  5
310
100
AcDbEntity
  8
RUNDUNGEN
100
AcDbLine
 62
7
  6
CONTINUOUS
 10
283.4586846162
 20
75.5828673262
 11
299.5556531829
 21
100.8500467207
  0
LINE
  5
311
100
AcDbEntity
  8
BEZUGSACHSEN
100
AcDbLine
 62
7
  6
CONTINUOUS
 10
191.8127219844
 20
368.7445549882
 11
169.3127219844
 21
368.7445549882
  0
LINE
  5
312
100
AcDbEntity
  8
BEZUGSACHSEN
100
AcDbLine
 62
7
  6
CONTINUOUS
 10
169.3127219844
 20
393.2445549882
 11
191.8127219844
 21
393.2445549882
  0
LWPOLYLINE
  5
313
100
AcDbEntity
  8
RUNDUNGEN
100
AcDbPolyline
 62
7
  6
CONTINUOUS
 90
25
 70
0
 10
134.562730184
 20
409.4945549854
 10
134.4233889595
 20
409.4926283869
 10
134.0878481021
 20
409.4721195799
 10
133.7544051779
 20
409.429242389
 10
133.4246399816
 20
409.3641764459
 10
133.1000974851
 20
409.2772213146
 10
132.7822471043
 20
409.1687763214
 10
132.4725585828
 20
409.0393575622
 10
132.1724024004
 20
408.8895582944
 10
131.8831283776
 20
408.7200743457
 10
131.6060169083
 20
408.5316800565
 10
131.3423028225
 20
408.3252398435
 10
131.0931506089
 20
408.1016908451
 10
130.8596629444
 20
407.8620475232
 10
130.6428756453
 20
407.6073988231
 10
130.4437490614
 20
407.3389001843
 10
130.2631652204
 20
407.057770477
 10
130.1019226461
 20
406.7652856861
 10
129.960731609
 20
406.4627711311
 10
129.8402133031
 20
406.151600781
 10
129.7408910704
 20
405.833174859
 10
129.6631980804
 20
405.5089410967
 10
129.6074610588
 20
405.1803232753
 10
129.5739187793
 20
404.8487603625
 10
129.5627219844
 20
404.515764237
  0
LWPOLYLINE
  5
314
100
AcDbEntity
  8
BEZUGSACHSEN
100
AcDbPolyline
 62
7
  6
CONTINUOUS
 90
24
 70
0
 10
134.5627305288
 20
409.4945549853
 10
134.4397822903
 20
409.4930551676
 10
134.1034664335
 20
409.4735745842
 10
133.769184137
 20
409.4316251038
 10
133.4385267967
 20
409.3673821368
 10
133.1130509673
 20
409.2811424077
 10
132.7942366448
 20
409.173303464
 10
132.48356477
 20
409.0443807928
 10
132.1824159954
 20
408.8949678778
 10
131.8921505201
 20
408.7257617701
 10
131.6140586532
 20
408.5375388593
 10
131.3493849725
 20
408.3311665114
 10
131.0993032394
 20
408.1075855781
 10
130.8649250218
 20
407.867815023
 10
130.6472945981
 20
407.6129490788
 10
130.4473802632
 20
407.3441492257
 10
130.2660712415
 20
407.0626408185
 10
130.1041727169
 20
406.7697070483
 10
129.9624007664
 20
406.4666806223
 10
129.8413817795
 20
406.1549434162
 10
129.7416436049
 20
405.8359040198
 10
129.6636230244
 20
405.5110180701
 10
129.6076502411
 20
405.1817207024
 10
129.573966097
 20
404.8494625012
  0
LINE
  5
315
100
AcDbEntity
  8
RUNDUNGEN
100
AcDbLine
 62
7
  6
CONTINUOUS
 10
134.5627219684
 20
409.4945549882
 11
164.3127219844
 21
409.4945549882
  0
LINE
  5
316
100
AcDbEntity
  8
RUNDUNGEN
100
AcDbLine
 62
7
  6
CONTINUOUS
 10
196.8127219844
 20
409.4945549882
 11
226.5627219844
 21
409.4945549882
  0
LWPOLYLINE
  5
317
100
AcDbEntity
  8
RUNDUNGEN
100
AcDbPolyline
 62
7
  6
CONTINUOUS
 90
30
 70
0
 10
472.5866394519
 20
11.4945549893
 10
472.7501264107
 20
11.4972232417
 10
473.1111335721
 20
11.5220861591
 10
473.4702111031
 20
11.5730863827
 10
473.8239896189
 20
11.6497571506
 10
474.1690684188
 20
11.7510205787
 10
474.5023909705
 20
11.875274173
 10
474.8208733047
 20
12.0202633685
 10
475.1218269005
 20
12.1832080213
 10
475.4033607379
 20
12.3611114536
 10
475.6639497428
 20
12.5506462299
 10
475.9025711902
 20
12.7482985591
 10
476.1186479329
 20
12.9504112154
 10
476.3121370237
 20
13.1533691122
 10
476.4831651036
 20
13.3533195632
 10
476.6330403873
 20
13.5475342976
 10
476.7624208011
 20
13.7323652473
 10
476.8744790854
 20
13.9079695256
 10
476.9712319726
 20
14.0735819303
 10
477.05554334
 20
14.2306650514
 10
477.1300919658
 20
14.3815205932
 10
477.1954622511
 20
14.5249630639
 10
477.2528467167
 20
14.6612611838
 10
477.3026987764
 20
14.7891529936
 10
477.3454675529
 20
14.9072853802
 10
477.3823232368
 20
15.0164769549
 10
477.4140279675
 20
15.1168260722
 10
477.4415399132
 20
15.2094701906
 10
477.4656201314
 20
15.2954008581
 10
477.4790808168
 20
15.3456230504
  0
LINE
  5
318
100
AcDbEntity
  8
BEZUGSACHSEN
100
AcDbLine
 62
7
  6
CONTINUOUS
 10
472.5866431025
 20
11.4945549882
 11
453.1321906589
 21
11.4945549882
  0
LINE
  5
319
100
AcDbEntity
  8
0
100
AcDbLine
 62
7
  6
CONTINUOUS
 10
453.1321902655
 20
11.4945549882
 11
472.586643496
 21
11.4945549882
  0
LINE
  5
31A
100
AcDbEntity
  8
BEZUGSACHSEN
100
AcDbLine
 62
7
  6
CONTINUOUS
 10
424.1991631229
 20
351.2266062808
 11
430.5196703617
 21
362.1740459479
  0
LINE
  5
31B
100
AcDbEntity
  8
RUNDUNGEN
100
AcDbLine
 62
7
  6
CONTINUOUS
 10
499.9305448599
 20
316.5656829674
 11
489.1840294236
 21
305.8191633214
  0
LWPOLYLINE
  5
31C
100
AcDbEntity
  8
BEZUGSACHSEN
100
AcDbPolyline
 62
7
  6
CONTINUOUS
 90
4
 70
0
 10
431.9148059596
 20
74.0709486843
 10
432.7304216201
 20
71.3149700908
 10
434.0278447894
 20
66.8776994219
 10
434.8375805774
 20
64.0751420216
  0
LWPOLYLINE
  5
31D
100
AcDbEntity
  8
BEZUGSACHSEN
100
AcDbPolyline
 62
7
  6
CONTINUOUS
 90
3
 70
0
 10
441.2939891009
 20
41.1401152816
 10
442.7583071413
 20
35.8040905141
 10
443.8400644762
 20
31.8242677202
  0
LWPOLYLINE
  5
31E
100
AcDbEntity
  8
BEZUGSACHSEN
100
AcDbPolyline
 62
7
  6
CONTINUOUS
 90
31
 70
0
 10
448.2442659365
 20
15.3286005988
 10
448.2646070329
 20
15.2541426631
 10
448.2869116687
 20
15.1764481576
 10
448.3116700847
 20
15.094548304
 10
448.3393422419
 20
15.0078175523
 10
448.3706832772
 20
14.914988499
 10
448.4064485159
 20
14.8151754396
 10
448.4477344678
 20
14.7069725544
 10
448.4957946336
 20
14.5891325752
 10
448.5519292126
 20
14.4608811661
 10
448.6178103418
 20
14.3212182072
 10
448.6947974678
 20
14.1704201161
 10
448.7846990413
 20
14.0083826317
 10
448.8888455454
 20
13.8363382643
 10
449.0089745392
 20
13.655152396
 10
449.1460823951
 20
13.4670524565
 10
449.3011799244
 20
13.2742173748
 10
449.4754120053
 20
13.0786782682
 10
449.6697404492
 20
12.8827249523
 10
449.8848914791
 20
12.6888829163
 10
450.1215501578
 20
12.4996952865
 10
450.3794839666
 20
12.31833883
 10
450.658735666
 20
12.1475971066
 10
450.957101255
 20
11.9912894555
 10
451.2724280176
 20
11.8525043575
 10
451.6016574282
 20
11.7340611781
 10
451.9413460919
 20
11.6381422024
 10
452.2880731582
 20
11.5661806428
 10
452.6381061052
 20
11.5189790372
 10
452.987745042
 20
11.4966378708
 10
453.1321939565
 20
11.4945549893
  0
LWPOLYLINE
  5
31F
100
AcDbEntity
  8
BEZUGSACHSEN
100
AcDbPolyline
 62
7
  6
CONTINUOUS
 90
5
 70
0
 10
443.8400644762
 20
31.8242677202
 10
444.9624892361
 20
27.6626904367
 10
446.1366259346
 20
23.2769507602
 10
447.3795508695
 20
18.6007848942
 10
448.2442659365
 20
15.3286005988
  0
LWPOLYLINE
  5
320
100
AcDbEntity
  8
BEZUGSACHSEN
100
AcDbPolyline
 62
7
  6
CONTINUOUS
 90
9
 70
0
 10
439.7821552944
 20
295.5731146487
 10
437.7797529078
 20
284.3222795892
 10
435.8672807135
 20
273.1061582229
 10
434.0656463578
 20
262.0121418896
 10
432.3795257498
 20
251.0166482876
 10
430.8160127518
 20
240.0964609093
 10
429.3835950408
 20
229.2294502387
 10
428.0913172726
 20
218.3962569989
 10
426.9597461551
 20
207.7032918082
  0
LINE
  5
321
100
AcDbEntity
  8
BEZUGSACHSEN
100
AcDbLine
 62
7
  6
CONTINUOUS
 10
422.8594168807
 20
323.6366904992
 11
422.8594168807
 21
346.2266049756
  0
LINE
  5
322
100
AcDbEntity
  8
BEZUGSACHSEN
100
AcDbLine
 62
7
  6
CONTINUOUS
 10
431.8594168807
 20
367.1740480352
 11
431.8594168807
 21
378.4945545424
  0
LWPOLYLINE
  5
323
100
AcDbEntity
  8
BEZUGSACHSEN
100
AcDbPolyline
 62
7
  6
CONTINUOUS
 90
63
 70
0
 10
426.8965751524
 20
207.070671205
 10
426.6470748029
 20
204.3343344804
 10
426.432933867
 20
201.4644933366
 10
426.2613570702
 20
198.6036193488
 10
426.1266901692
 20
195.7554904607
 10
426.0241636983
 20
192.9265439176
 10
425.9494215118
 20
190.1177547995
 10
425.8987565529
 20
187.3323269065
 10
425.8688225715
 20
184.5635058546
 10
425.856876627
 20
181.8046589668
 10
425.8606336115
 20
179.0521717625
 10
425.8781348984
 20
176.3007592972
 10
425.907701558
 20
173.5448614295
 10
425.9478962567
 20
170.7775397097
 10
425.9973991879
 20
167.995264665
 10
426.055096136
 20
165.1894943619
 10
426.119601264
 20
162.3675237506
 10
426.1896055161
 20
159.5317676599
 10
426.2639028472
 20
156.6873458452
 10
426.342092436
 20
153.8381999802
 10
426.4239737228
 20
150.9900184223
 10
426.5093208128
 20
148.1493504637
 10
426.598016642
 20
145.3192605215
 10
426.6898918691
 20
142.5048219994
 10
426.7849442711
 20
139.706363621
 10
426.8831527993
 20
136.9254893769
 10
426.9845254368
 20
134.1635577869
 10
427.0890893266
 20
131.4219771443
 10
427.1968765669
 20
128.7025596786
 10
427.3080042392
 20
126.0055591048
 10
427.4223423019
 20
123.3375896903
 10
427.5398881483
 20
120.7022050232
 10
427.6603907804
 20
118.1083665862
 10
427.78365125
 20
115.5632445647
 10
427.9094548647
 20
113.0737495422
 10
428.0375797693
 20
110.6462975709
 10
428.1677935651
 20
108.2868322148
 10
428.2998661185
 20
106.0005593002
 10
428.433516105
 20
103.7928205518
 10
428.5684667954
 20
101.6680450413
 10
428.7044164852
 20
99.6302138987
 10
428.84105622
 20
97.6825479944
 10
428.9780775445
 20
95.827411196
 10
429.1151374747
 20
94.0667868121
 10
429.2519902581
 20
92.4006485467
 10
429.3882332374
 20
90.8301695907
 10
429.5239908579
 20
89.3500321958
 10
429.6592309338
 20
87.956894613
 10
429.7941505034
 20
86.6452604064
 10
429.9289215175
 20
85.4103560975
 10
430.0638036664
 20
84.2470633961
 10
430.1990908572
 20
83.1505137505
 10
430.3351598059
 20
82.1157471671
 10
430.4724248855
 20
81.1381455984
 10
430.6115190831
 20
80.2122671018
 10
430.7530919169
 20
79.3334399457
 10
430.8982388421
 20
78.4952703199
 10
431.0481320561
 20
77.6923116875
 10
431.2044651598
 20
76.9178745531
 10
431.3691163894
 20
76.1662418315
 10
431.5449283483
 20
75.4295299296
 10
431.7349288243
 20
74.7018322422
 10
431.915479478
 20
74.0686834801
  0
LINE
  5
324
100
AcDbEntity
  8
BEZUGSACHSEN
100
AcDbLine
 62
7
  6
CONTINUOUS
 10
426.9597546427
 20
207.7033776577
 11
426.8964945877
 21
207.0699558799
  0
LWPOLYLINE
  5
325
100
AcDbEntity
  8
BEZUGSACHSEN
100
AcDbPolyline
 62
7
  6
CONTINUOUS
 90
8
 70
0
 10
445.5006717439
 20
174.5494266876
 10
445.0384738694
 20
168.8894973034
 10
444.5107414457
 20
162.9953744507
 10
443.9313153267
 20
156.998109588
 10
443.3036872501
 20
150.8908664781
 10
442.6313804046
 20
144.6634419445
 10
441.9180647905
 20
138.3024349057
 10
441.1677074518
 20
131.7905231368
  0
LWPOLYLINE
  5
326
100
AcDbEntity
  8
BEZUGSACHSEN
100
AcDbPolyline
 62
7
  6
CONTINUOUS
 90
3
 70
0
 10
441.1677074518
 20
131.7905231368
 10
439.5765097004
 20
118.2313714453
 10
438.7308817463
 20
110.9696990879
  0
LINE
  5
327
100
AcDbEntity
  8
BEZUGSACHSEN
100
AcDbLine
 62
7
  6
CONTINUOUS
 10
438.7308817463
 20
110.9696990879
 11
438.3777383294
 21
108.0419457622
  0
LINE
  5
328
100
AcDbEntity
  8
BEZUGSACHSEN
100
AcDbLine
 62
7
  6
CONTINUOUS
 10
438.3777383294
 20
108.0419457622
 11
438.1016762911
 21
105.8011664094
  0
LINE
  5
329
100
AcDbEntity
  8
BEZUGSACHSEN
100
AcDbLine
 62
7
  6
CONTINUOUS
 10
438.1016762911
 20
105.8011664094
 11
437.8345877902
 21
103.6730367079
  0
LINE
  5
32A
100
AcDbEntity
  8
BEZUGSACHSEN
100
AcDbLine
 62
7
  6
CONTINUOUS
 10
437.8345877902
 20
103.6730367079
 11
437.576549124
 21
101.6589589411
  0
LINE
  5
32B
100
AcDbEntity
  8
BEZUGSACHSEN
100
AcDbLine
 62
7
  6
CONTINUOUS
 10
437.576549124
 20
101.6589589411
 11
437.3276309161
 21
99.7598050267
  0
LINE
  5
32C
100
AcDbEntity
  8
BEZUGSACHSEN
100
AcDbLine
 62
7
  6
CONTINUOUS
 10
437.3276309161
 20
99.7598050267
 11
437.0879059595
 21
97.9759194643
  0
LINE
  5
32D
100
AcDbEntity
  8
BEZUGSACHSEN
100
AcDbLine
 62
7
  6
CONTINUOUS
 10
437.0879059595
 20
97.9759194643
 11
436.8574590101
 21
96.3071512842
  0
LINE
  5
32E
100
AcDbEntity
  8
BEZUGSACHSEN
100
AcDbLine
 62
7
  6
CONTINUOUS
 10
436.8574590101
 20
96.3071512842
 11
436.6363924998
 21
94.7528644028
  0
LINE
  5
32F
100
AcDbEntity
  8
BEZUGSACHSEN
100
AcDbLine
 62
7
  6
CONTINUOUS
 10
436.6363924998
 20
94.7528644028
 11
436.4248306895
 21
93.3119504996
  0
LINE
  5
330
100
AcDbEntity
  8
BEZUGSACHSEN
100
AcDbLine
 62
7
  6
CONTINUOUS
 10
436.4248306895
 20
93.3119504996
 11
436.2229225207
 21
91.9828417592
  0
LINE
  5
331
100
AcDbEntity
  8
BEZUGSACHSEN
100
AcDbLine
 62
7
  6
CONTINUOUS
 10
436.2229225207
 20
91.9828417592
 11
436.0308531778
 21
90.7635884393
  0
LWPOLYLINE
  5
332
100
AcDbEntity
  8
BEZUGSACHSEN
100
AcDbPolyline
 62
7
  6
CONTINUOUS
 90
3
 70
0
 10
436.0308531778
 20
90.7635884393
 10
435.8488429169
 20
89.65185544
 10
435.7616373035
 20
89.1351775766
  0
LINE
  5
333
100
AcDbEntity
  8
BEZUGSACHSEN
100
AcDbLine
 62
7
  6
CONTINUOUS
 10
435.7616373035
 20
89.1351775766
 11
435.5946291934
 21
88.1763149684
  0
LWPOLYLINE
  5
334
100
AcDbEntity
  8
BEZUGSACHSEN
100
AcDbPolyline
 62
7
  6
CONTINUOUS
 90
20
 70
0
 10
435.5946291934
 20
88.1763149684
 10
435.4372957005
 20
87.3119993443
 10
435.3622159526
 20
86.9136900515
 10
435.2895223822
 20
86.5371764599
 10
435.2192392573
 20
86.1820184688
 10
435.151381144
 20
85.8477154694
 10
435.086031849
 20
85.534088826
 10
435.0232520628
 20
85.2408147788
 10
434.9631966006
 20
84.9679676204
 10
434.9060045325
 20
84.7154840465
 10
434.8518673005
 20
84.4834646782
 10
434.8009741656
 20
84.27192076
 10
434.7535817435
 20
84.0810557969
 10
434.7099437166
 20
83.9109578755
 10
434.6704094532
 20
83.7619728163
 10
434.6353229965
 20
83.6342886462
 10
434.6051632923
 20
83.5284302797
 10
434.580401783
 20
83.4447105374
 10
434.5616976722
 20
83.3838687517
 10
434.550996592
 20
83.3503332488
  0
LWPOLYLINE
  5
335
100
AcDbEntity
  8
RUNDUNGEN
100
AcDbPolyline
 62
7
  6
CONTINUOUS
 90
19
 70
0
 10
491.1733952726
 20
83.3335204741
 10
491.1689372014
 20
83.34696012
 10
491.1559346257
 20
83.3877009278
 10
491.1353740794
 20
83.4548711592
 10
491.1080863631
 20
83.547730552
 10
491.0746944289
 20
83.6659401866
 10
491.0358175349
 20
83.8089218411
 10
490.9919172104
 20
83.9764428094
 10
490.9434546661
 20
84.1680784555
 10
490.8907754393
 20
84.3836810556
 10
490.8342249344
 20
84.6229538684
 10
490.7740660455
 20
84.8858085108
 10
490.7105621633
 20
85.1720356249
 10
490.6439124048
 20
85.481603913
 10
490.574339894
 20
85.8142711258
 10
490.5019281847
 20
86.1703793526
 10
490.4268021889
 20
86.5500192535
 10
490.348967096
 20
86.9538452557
 10
490.26844805
 20
87.3824000609
  0
LWPOLYLINE
  5
336
100
AcDbEntity
  8
RUNDUNGEN
100
AcDbPolyline
 62
7
  6
CONTINUOUS
 90
38
 70
0
 10
480.1835938774
 20
174.9556400586
 10
480.137283551
 20
175.4095578454
 10
480.0852881802
 20
175.8399778763
 10
480.0276142903
 20
176.2514408593
 10
479.9641755022
 20
176.6472986711
 10
479.8946911672
 20
177.0308031104
 10
479.8187209227
 20
177.4049186447
 10
479.7356070784
 20
177.7726126555
 10
479.6444909354
 20
178.1366945295
 10
479.5444569852
 20
178.4992758678
 10
479.4346009978
 20
178.8617431706
 10
479.3130487885
 20
179.2277963342
 10
479.1778862606
 20
179.5999429929
 10
479.026422927
 20
179.9815488711
 10
478.8553492204
 20
180.3759325978
 10
478.6619207019
 20
180.7836925111
 10
478.4418459272
 20
181.2074047314
 10
478.1943257106
 20
181.6420793879
 10
477.9181175801
 20
182.0841101825
 10
477.6116375473
 20
182.5306730343
 10
477.2738370273
 20
182.9783055872
 10
476.9034337963
 20
183.4240474344
 10
476.4993705602
 20
183.8647395329
 10
476.0615874054
 20
184.2963477554
 10
475.5897287459
 20
184.7154491424
 10
475.0860681393
 20
185.1167740399
 10
474.5528726977
 20
185.4959826745
 10
473.9935191848
 20
185.8488088712
 10
473.4122985331
 20
186.171421299
 10
472.8121849009
 20
186.4615879941
 10
472.1978357981
 20
186.7169427936
 10
471.5704406834
 20
186.9370938738
 10
470.9322334639
 20
187.1213077635
 10
470.2850931746
 20
187.2691022388
 10
469.631032072
 20
187.3800609358
 10
468.9720388913
 20
187.4538788696
 10
468.3101297203
 20
187.4903491307
 10
467.9960906386
 20
187.4945549457
  0
LINE
  5
337
100
AcDbEntity
  8
RUNDUNGEN
100
AcDbLine
 62
7
  6
CONTINUOUS
 10
480.2181619865
 20
174.5494270888
 11
480.2181675483
 21
174.5493553154
  0
LWPOLYLINE
  5
338
100
AcDbEntity
  8
BEZUGSACHSEN
100
AcDbPolyline
 62
7
  6
CONTINUOUS
 90
39
 70
0
 10
457.7227430965
 20
187.4945549457
 10
457.3964114188
 20
187.4900133738
 10
456.7350023573
 20
187.4528883086
 10
456.0765389501
 20
187.3784705201
 10
455.4230355851
 20
187.2669684124
 10
454.7764791173
 20
187.118688761
 10
454.1388799587
 20
186.9340501305
 10
453.5121172377
 20
186.713538016
 10
452.8984153867
 20
186.4578862425
 10
452.2989649627
 20
186.1674901074
 10
451.7183920712
 20
185.8447047209
 10
451.1596495503
 20
185.4917479612
 10
450.6270127166
 20
185.1124364563
 10
450.1238397976
 20
184.7110132914
 10
449.6524030455
 20
184.2918091892
 10
449.2149659035
 20
183.8600701024
 10
448.8112081927
 20
183.4192392762
 10
448.4410893413
 20
182.9733655532
 10
448.1035685058
 20
182.525626471
 10
447.7973774949
 20
182.0790060144
 10
447.521471343
 20
181.6369826182
 10
447.2742727312
 20
181.2024060479
 10
447.0545294252
 20
180.7788835297
 10
446.8614445141
 20
180.3714298803
 10
446.6907000093
 20
179.9774210915
 10
446.5395380645
 20
179.5962275353
 10
446.4046406293
 20
179.224499079
 10
446.2833082018
 20
178.8588274888
 10
446.1736336513
 20
178.4967055697
 10
446.0737437611
 20
178.1344146239
 10
445.9827445187
 20
177.7705857541
 10
445.8997265115
 20
177.403116214
 10
445.8238363785
 20
177.0292078515
 10
445.7544204078
 20
176.6459043672
 10
445.691041384
 20
176.2502545416
 10
445.6334207649
 20
175.8390208735
 10
445.5814730146
 20
175.4088648582
 10
445.5352051991
 20
174.9552666111
 10
445.5006717439
 20
174.5494266877
  0
LINE
  5
339
100
AcDbEntity
  8
0
100
AcDbLine
 62
7
  6
CONTINUOUS
 10
457.7227814074
 20
187.4945549882
 11
467.9960523541
 21
187.4945549882
  0
LINE
  5
33A
100
AcDbEntity
  8
RUNDUNGEN
100
AcDbLine
 62
7
  6
CONTINUOUS
 10
490.26844805
 20
87.3824000609
 11
490.0992998535
 21
88.3166685978
  0
LINE
  5
33B
100
AcDbEntity
  8
RUNDUNGEN
100
AcDbLine
 62
7
  6
CONTINUOUS
 10
490.0992998535
 20
88.3166685978
 11
489.9191277458
 21
89.3594156092
  0
LINE
  5
33C
100
AcDbEntity
  8
RUNDUNGEN
100
AcDbLine
 62
7
  6
CONTINUOUS
 10
489.9191277458
 20
89.3594156092
 11
489.7275351355
 21
90.5182643439
  0
LINE
  5
33D
100
AcDbEntity
  8
RUNDUNGEN
100
AcDbLine
 62
7
  6
CONTINUOUS
 10
489.7275351355
 20
90.5182643439
 11
489.5243903294
 21
91.7991992606
  0
LINE
  5
33E
100
AcDbEntity
  8
RUNDUNGEN
100
AcDbLine
 62
7
  6
CONTINUOUS
 10
489.5243903294
 20
91.7991992606
 11
489.3099305833
 21
93.2054222099
  0
LINE
  5
33F
100
AcDbEntity
  8
RUNDUNGEN
100
AcDbLine
 62
7
  6
CONTINUOUS
 10
489.3099305833
 20
93.2054222099
 11
489.0844090857
 21
94.7392460635
  0
LINE
  5
340
100
AcDbEntity
  8
RUNDUNGEN
100
AcDbLine
 62
7
  6
CONTINUOUS
 10
489.0844090857
 20
94.7392460635
 11
488.8480230653
 21
96.4025265913
  0
LINE
  5
341
100
AcDbEntity
  8
RUNDUNGEN
100
AcDbLine
 62
7
  6
CONTINUOUS
 10
488.8480230653
 20
96.4025265913
 11
488.6009367588
 21
98.1965136988
  0
LINE
  5
342
100
AcDbEntity
  8
RUNDUNGEN
100
AcDbLine
 62
7
  6
CONTINUOUS
 10
488.6009367588
 20
98.1965136988
 11
488.3432880407
 21
100.1218152673
  0
LINE
  5
343
100
AcDbEntity
  8
RUNDUNGEN
100
AcDbLine
 62
7
  6
CONTINUOUS
 10
488.3432880407
 20
100.1218152673
 11
488.0751934661
 21
102.1783888063
  0
LINE
  5
344
100
AcDbEntity
  8
RUNDUNGEN
100
AcDbLine
 62
7
  6
CONTINUOUS
 10
488.0751934661
 20
102.1783888063
 11
487.7967578085
 21
104.365515711
  0
LINE
  5
345
100
AcDbEntity
  8
RUNDUNGEN
100
AcDbLine
 62
7
  6
CONTINUOUS
 10
487.7967578085
 20
104.365515711
 11
487.5080860087
 21
106.6817781953
  0
LINE
  5
346
100
AcDbEntity
  8
RUNDUNGEN
100
AcDbLine
 62
7
  6
CONTINUOUS
 10
487.5080860087
 20
106.6817781953
 11
487.2093179399
 21
109.1248671267
  0
LINE
  5
347
100
AcDbEntity
  8
RUNDUNGEN
100
AcDbLine
 62
7
  6
CONTINUOUS
 10
487.2093179399
 20
109.1248671267
 11
486.9879520152
 21
110.9696990879
  0
LWPOLYLINE
  5
348
100
AcDbEntity
  8
RUNDUNGEN
100
AcDbPolyline
 62
7
  6
CONTINUOUS
 90
9
 70
0
 10
486.142324061
 20
118.2313714453
 10
484.5511263096
 20
131.7905231368
 10
483.8007689709
 20
138.3024349057
 10
483.0874533569
 20
144.6634419445
 10
482.4151465114
 20
150.8908664781
 10
481.7875184347
 20
156.998109588
 10
481.2080923158
 20
162.9953744507
 10
480.680359892
 20
168.8894973034
 10
480.1835938774
 20
174.9556400586
  0
LINE
  5
349
100
AcDbEntity
  8
RUNDUNGEN
100
AcDbLine
 62
7
  6
CONTINUOUS
 10
486.9879520152
 20
110.9696990879
 11
486.142324061
 21
118.2313714453
  0
LINE
  5
34A
100
AcDbEntity
  8
RUNDUNGEN
100
AcDbLine
 62
7
  6
CONTINUOUS
 10
493.8594168807
 20
367.1740480352
 11
493.8594168807
 21
378.4945545424
  0
LWPOLYLINE
  5
34B
100
AcDbEntity
  8
RUNDUNGEN
100
AcDbPolyline
 62
7
  6
CONTINUOUS
 90
9
 70
0
 10
498.7590876064
 20
207.7032918082
 10
497.6275164889
 20
218.3962569989
 10
496.3352387207
 20
229.2294502387
 10
494.9028210097
 20
240.0964609093
 10
493.3393080117
 20
251.0166482876
 10
491.6531874036
 20
262.0121418896
 10
489.851553048
 20
273.1061582229
 10
487.9390808537
 20
284.3222795892
 10
485.9366784671
 20
295.5731146487
  0
LINE
  5
34C
100
AcDbEntity
  8
RUNDUNGEN
100
AcDbLine
 62
7
  6
CONTINUOUS
 10
498.8223391738
 20
207.0699558799
 11
498.7590791188
 21
207.7033776573
  0
LINE
  5
34D
100
AcDbEntity
  8
RUNDUNGEN
100
AcDbLine
 62
7
  6
CONTINUOUS
 10
502.8594168807
 20
323.6366904992
 11
502.8594168807
 21
346.2266049756
  0
LWPOLYLINE
  5
34E
100
AcDbEntity
  8
RUNDUNGEN
100
AcDbPolyline
 62
7
  6
CONTINUOUS
 90
17
 70
0
 10
485.9366769086
 20
295.5731232285
 10
485.8382310036
 20
296.2272782075
 10
485.7740448334
 20
296.9779432033
 10
485.7603770453
 20
297.7269933194
 10
485.7957292004
 20
298.4706491237
 10
485.8784497204
 20
299.2057426244
 10
486.0067502522
 20
299.9290839306
 10
486.1787113606
 20
300.6376931442
 10
486.3922038769
 20
301.3285205626
 10
486.6449227687
 20
301.9987221165
 10
486.9343176434
 20
302.6455006257
 10
487.2576327057
 20
303.2662786788
 10
487.6117879706
 20
303.8585167895
 10
487.9934566106
 20
304.4199427517
 10
488.3989644901
 20
304.948443565
 10
488.823886435
 20
305.4417091049
 10
489.1839045371
 20
305.8190382357
  0
LWPOLYLINE
  5
34F
100
AcDbEntity
  8
0
100
AcDbPolyline
 62
7
  6
CONTINUOUS
 90
4
 70
0
 10
477.4790113406
 20
15.3453596086
 10
478.339282892
 20
18.6007848942
 10
479.5822078268
 20
23.2769507602
 10
480.7563445254
 20
27.6626904367
  0
LWPOLYLINE
  5
350
100
AcDbEntity
  8
0
100
AcDbPolyline
 62
7
  6
CONTINUOUS
 90
3
 70
0
 10
480.7563445254
 20
27.6626904367
 10
481.8787692853
 20
31.8242677202
 10
482.9605266202
 20
35.8040905141
  0
LINE
  5
351
100
AcDbEntity
  8
0
100
AcDbLine
 62
7
  6
CONTINUOUS
 10
482.9605266202
 20
35.8040905141
 11
484.4248446605
 21
41.1401152816
  0
LWPOLYLINE
  5
352
100
AcDbEntity
  8
RUNDUNGEN
100
AcDbPolyline
 62
7
  6
CONTINUOUS
 90
63
 70
0
 10
493.8033842714
 20
74.0687842984
 10
493.9895613614
 20
74.7225479613
 10
494.1793450147
 20
75.4513721176
 10
494.3550264138
 20
76.1895127565
 10
494.5196167471
 20
76.9428821004
 10
494.6759419871
 20
77.7193581233
 10
494.8258728399
 20
78.5246780958
 10
494.9710959824
 20
79.365551604
 10
495.1127748677
 20
80.2474236221
 10
495.2519975264
 20
81.1766870167
 10
495.389409196
 20
82.1580210693
 10
495.5256371444
 20
83.1968609268
 10
495.6610960489
 20
84.2978570975
 10
495.7961582806
 20
85.4659644225
 10
495.9311269095
 20
86.7061667968
 10
496.0662662685
 20
88.0236758654
 10
496.2017554318
 20
89.4233976663
 10
496.3378041753
 20
90.9110484274
 10
496.4743650997
 20
92.4898882729
 10
496.6115640604
 20
94.1653352859
 10
496.7489636666
 20
95.935827032
 10
496.8862942294
 20
97.8010616357
 10
497.0231918733
 20
99.7586954727
 10
497.1593284226
 20
101.8059572466
 10
497.2943771046
 20
103.9391806432
 10
497.4280138832
 20
106.1537988942
 10
497.5599656235
 20
108.4451784827
 10
497.6899371509
 20
110.8074489217
 10
497.8177326233
 20
113.2357582834
 10
497.9431388439
 20
115.7243177274
 10
498.065957602
 20
118.2670192768
 10
498.1859945826
 20
120.8572672928
 10
498.3030705953
 20
123.4882639505
 10
498.4169553156
 20
126.151509335
 10
498.5276541911
 20
128.8436883993
 10
498.6350539538
 20
131.558676578
 10
498.7392594264
 20
134.296014237
 10
498.8402988067
 20
137.0538659833
 10
498.9381930615
 20
139.8307225931
 10
499.0329452688
 20
142.6251389217
 10
499.1245296554
 20
145.4354081218
 10
499.2129391778
 20
148.2610750684
 10
499.2980033426
 20
151.0970300507
 10
499.379601991
 20
153.9400953314
 10
499.4575129311
 20
156.7838284435
 10
499.531537606
 20
159.6226001903
 10
499.6012594671
 20
162.4526119506
 10
499.6654603986
 20
165.2686777161
 10
499.7228428776
 20
168.0685378106
 10
499.7720314734
 20
170.8450581108
 10
499.8119170752
 20
173.6067898698
 10
499.8411854804
 20
176.3573506621
 10
499.8584020268
 20
179.1035864743
 10
499.8618919641
 20
181.851007254
 10
499.8497019292
 20
184.6048622723
 10
499.8195534868
 20
187.3687359357
 10
499.7687122949
 20
190.1492086002
 10
499.6938433993
 20
192.9529979561
 10
499.5912558946
 20
195.776857713
 10
499.4566149955
 20
198.6197650038
 10
499.2851745635
 20
201.4753177105
 10
499.0713106295
 20
204.3397468971
 10
498.8222586656
 20
207.0706706457
  0
LWPOLYLINE
  5
353
100
AcDbEntity
  8
0
100
AcDbPolyline
 62
7
  6
CONTINUOUS
 90
4
 70
0
 10
490.8812531841
 20
64.0751420216
 10
491.690988972
 20
66.8776994219
 10
492.9884121414
 20
71.3149700908
 10
493.8040275657
 20
74.0709478903
  0
LINE
  5
354
100
AcDbEntity
  8
RUNDUNGEN
100
AcDbLine
 62
7
  6
CONTINUOUS
 10
493.8033852134
 20
74.0687874386
 11
493.8040278018
 21
74.0709486843
  0
LWPOLYLINE
  5
355
100
AcDbEntity
  8
BEZUGSACHSEN
100
AcDbPolyline
 62
7
  6
CONTINUOUS
 90
17
 70
0
 10
436.5349292244
 20
305.8190382357
 10
436.8949473265
 20
305.4417091049
 10
437.3198692713
 20
304.948443565
 10
437.7253771509
 20
304.4199427517
 10
438.1070457909
 20
303.8585167895
 10
438.4612010558
 20
303.2662786788
 10
438.7845161181
 20
302.6455006257
 10
439.0739109928
 20
301.9987221165
 10
439.3266298845
 20
301.3285205626
 10
439.5401224009
 20
300.6376931442
 10
439.7120835092
 20
299.9290839306
 10
439.840384041
 20
299.2057426244
 10
439.9231045611
 20
298.4706491237
 10
439.9584567161
 20
297.7269933194
 10
439.9447889281
 20
296.9779432033
 10
439.8806027579
 20
296.2272782075
 10
439.7821568529
 20
295.5731232285
  0
LINE
  5
356
100
AcDbEntity
  8
BEZUGSACHSEN
100
AcDbLine
 62
7
  6
CONTINUOUS
 10
425.7882889015
 20
316.5656829674
 11
436.5348064427
 21
305.8191654262
  0
LINE
  5
357
100
AcDbEntity
  8
RUNDUNGEN
100
AcDbLine
 62
7
  6
CONTINUOUS
 10
501.5196706385
 20
351.2266062808
 11
495.1991633998
 21
362.1740459479
  0
ARC
  5
358
100
AcDbEntity
  8
BEZUGSACHSEN
100
AcDbCircle
 62
7
  6
CONTINUOUS
 10
180.5627219844
 20
159.4945549882
 40
148.0
100
AcDbArc
 50
270.0000166621
 51
37.3389147551
  0
ARC
  5
359
100
AcDbEntity
  8
RUNDUNGEN
100
AcDbCircle
 62
7
  6
CONTINUOUS
 10
180.5627219844
 20
159.4945549882
 40
148.0
100
AcDbArc
 50
270.0000166621
 51
67.2894464212
  0
ARC
  5
35A
100
AcDbEntity
  8
RUNDUNGEN
100
AcDbCircle
 62
7
  6
CONTINUOUS
 10
180.5627219844
 20
159.4945549882
 40
130.0
100
AcDbArc
 50
275.0083882508
 51
301.7212464294
  0
ARC
  5
35B
100
AcDbEntity
  8
RUNDUNGEN
100
AcDbCircle
 62
7
  6
CONTINUOUS
 10
180.5627219844
 20
131.4811833838
 40
119.9866283956
100
AcDbArc
 50
192.6999989213
 51
270.0000205522
  0
ARC
  5
35C
100
AcDbEntity
  8
RUNDUNGEN
100
AcDbCircle
 62
7
  6
CONTINUOUS
 10
180.5627219844
 20
131.4811833838
 40
102.0384188552
100
AcDbArc
 50
181.3964655601
 51
263.5577958952
  0
ARC
  5
35D
100
AcDbEntity
  8
RUNDUNGEN
100
AcDbCircle
 62
7
  6
CONTINUOUS
 10
180.5627219844
 20
159.4945549882
 40
95.0694582085
100
AcDbArc
 50
197.3139869432
 51
263.6251209619
  0
ARC
  5
35E
100
AcDbEntity
  8
RUNDUNGEN
100
AcDbCircle
 62
7
  6
CONTINUOUS
 10
180.5627219844
 20
159.4945549882
 40
68.0
100
AcDbArc
 50
217.2999999911
 51
37.300008388
  0
ARC
  5
35F
100
AcDbEntity
  8
BEZUGSACHSEN
100
AcDbCircle
 62
7
  6
CONTINUOUS
 10
65.5760268845
 20
170.9945549882
 40
16.5
100
AcDbArc
 50
37.2999940168
 51
192.6999030592
  0
ARC
  5
360
100
AcDbEntity
  8
RUNDUNGEN
100
AcDbCircle
 62
7
  6
CONTINUOUS
 10
65.5760268845
 20
170.9945549882
 40
16.5
100
AcDbArc
 50
37.2999940168
 51
192.6999030592
  0
ARC
  5
361
100
AcDbEntity
  8
RUNDUNGEN
100
AcDbCircle
 62
7
  6
CONTINUOUS
 10
85.9822815872
 20
130.0106976423
 40
4.0
100
AcDbArc
 50
17.3139869432
 51
105.0
  0
ARC
  5
362
100
AcDbEntity
  8
RUNDUNGEN
100
AcDbCircle
 62
7
  6
CONTINUOUS
 10
82.5534210256
 20
129.0919372239
 40
4.0
100
AcDbArc
 50
105.0
 51
181.3964655601
  0
ARC
  5
363
100
AcDbEntity
  8
RUNDUNGEN
100
AcDbCircle
 62
7
  6
CONTINUOUS
 10
169.5627219844
 20
61.0376733103
 40
4.0
100
AcDbArc
 50
0.0
 51
83.6251209619
  0
ARC
  5
364
100
AcDbEntity
  8
RUNDUNGEN
100
AcDbCircle
 62
7
  6
CONTINUOUS
 10
169.5627219844
 20
34.061824057
 40
4.0
100
AcDbArc
 50
263.5577958952
 51
360.0
  0
ARC
  5
365
100
AcDbEntity
  8
RUNDUNGEN
100
AcDbCircle
 62
7
  6
CONTINUOUS
 10
180.5627219844
 20
349.7445549882
 40
11.25
100
AcDbArc
 50
179.9999982177
 51
0.0000022259
  0
ARC
  5
366
100
AcDbEntity
  8
RUNDUNGEN
100
AcDbCircle
 62
7
  6
CONTINUOUS
 10
139.5627219844
 20
342.0300831708
 40
10.0
100
AcDbArc
 50
179.999999982
 51
217.3000094905
  0
ARC
  5
367
100
AcDbEntity
  8
BEZUGSACHSEN
100
AcDbCircle
 62
7
  6
CONTINUOUS
 10
164.3127219844
 20
404.4945549882
 40
5.0
100
AcDbArc
 50
0.0
 51
90.0
  0
CIRCLE
  5
368
100
AcDbEntity
  8
BEZUGSACHSEN
100
AcDbCircle
 62
7
  6
CONTINUOUS
 10
144.8627219844
 20
380.9945549882
 40
3.0
  0
ARC
  5
369
100
AcDbEntity
  8
RUNDUNGEN
100
AcDbCircle
 62
7
  6
CONTINUOUS
 10
191.5627219844
 20
33.975632112
 40
4.0
100
AcDbArc
 50
180.0
 51
275.0083882508
  0
ARC
  5
36A
100
AcDbEntity
  8
RUNDUNGEN
100
AcDbCircle
 62
7
  6
CONTINUOUS
 10
191.5627219844
 20
60.0816797029
 40
4.0
100
AcDbArc
 50
82.0
 51
180.0
  0
ARC
  5
36B
100
AcDbEntity
  8
RUNDUNGEN
100
AcDbCircle
 62
7
  6
CONTINUOUS
 10
246.811898202
 20
52.3169143606
 40
4.0
100
AcDbArc
 50
301.7212464294
 51
82.0
  0
ARC
  5
36C
100
AcDbEntity
  8
RUNDUNGEN
100
AcDbCircle
 62
7
  6
CONTINUOUS
 10
228.0023710205
 20
75.926127454
 40
4.0
100
AcDbArc
 50
122.0
 51
262.0
  0
ARC
  5
36D
100
AcDbEntity
  8
RUNDUNGEN
100
AcDbCircle
 62
7
  6
CONTINUOUS
 10
241.3025853002
 20
84.2370237312
 40
4.0
100
AcDbArc
 50
42.5
 51
122.0
  0
ARC
  5
36E
100
AcDbEntity
  8
RUNDUNGEN
100
AcDbCircle
 62
7
  6
CONTINUOUS
 10
252.0098483402
 20
72.5520965524
 40
4.0
100
AcDbArc
 50
262.0
 51
42.5
  0
ARC
  5
36F
100
AcDbEntity
  8
RUNDUNGEN
100
AcDbCircle
 62
7
  6
CONTINUOUS
 10
280.0851188329
 20
77.7320657596
 40
4.0
100
AcDbArc
 50
222.5
 51
327.5
  0
ARC
  5
370
100
AcDbEntity
  8
RUNDUNGEN
100
AcDbCircle
 62
7
  6
CONTINUOUS
 10
263.559212439
 20
95.7669278952
 40
4.0
100
AcDbArc
 50
102.5
 51
222.5
  0
ARC
  5
371
100
AcDbEntity
  8
RUNDUNGEN
100
AcDbCircle
 62
7
  6
CONTINUOUS
 10
296.1820873996
 20
102.9992451541
 40
4.0
100
AcDbArc
 50
327.5
 51
102.5
  0
ARC
  5
372
100
AcDbEntity
  8
RUNDUNGEN
100
AcDbCircle
 62
7
  6
CONTINUOUS
 10
273.0772271033
 20
133.4240026273
 40
4.0
100
AcDbArc
 50
60.0
 51
165.0
  0
ARC
  5
373
100
AcDbEntity
  8
RUNDUNGEN
100
AcDbCircle
 62
7
  6
CONTINUOUS
 10
288.0808299988
 20
124.7616684568
 40
4.0
100
AcDbArc
 50
282.5
 51
60.0
  0
ARC
  5
374
100
AcDbEntity
  8
RUNDUNGEN
100
AcDbCircle
 62
7
  6
CONTINUOUS
 10
269.6620315055
 20
120.6783191386
 40
4.0
100
AcDbArc
 50
165.0
 51
282.5
  0
ARC
  5
375
100
AcDbEntity
  8
RUNDUNGEN
100
AcDbCircle
 62
7
  6
CONTINUOUS
 10
311.2037381357
 20
172.5663517579
 40
4.0
100
AcDbArc
 50
0.0
 51
120.0
  0
ARC
  5
376
100
AcDbEntity
  8
RUNDUNGEN
100
AcDbCircle
 62
7
  6
CONTINUOUS
 10
311.2037381357
 20
146.4227582184
 40
4.0
100
AcDbArc
 50
240.0
 51
360.0
  0
ARC
  5
377
100
AcDbEntity
  8
RUNDUNGEN
100
AcDbCircle
 62
7
  6
CONTINUOUS
 10
288.5627219844
 20
159.4945549882
 40
4.0
100
AcDbArc
 50
120.0
 51
240.0
  0
ARC
  5
378
100
AcDbEntity
  8
RUNDUNGEN
100
AcDbCircle
 62
7
  6
CONTINUOUS
 10
285.6707885609
 20
193.3530458559
 40
4.0
100
AcDbArc
 50
300.0
 51
77.3
  0
ARC
  5
379
100
AcDbEntity
  8
RUNDUNGEN
100
AcDbCircle
 62
7
  6
CONTINUOUS
 10
271.7955338067
 20
185.3421637885
 40
4.0
100
AcDbArc
 50
200.0
 51
300.0
  0
ARC
  5
37A
100
AcDbEntity
  8
RUNDUNGEN
100
AcDbCircle
 62
7
  6
CONTINUOUS
 10
267.3794806488
 20
197.4751701231
 40
4.0
100
AcDbArc
 50
77.3
 51
200.0
  0
ARC
  5
37B
100
AcDbEntity
  8
RUNDUNGEN
100
AcDbCircle
 62
7
  6
CONTINUOUS
 10
291.0531150485
 20
218.9444230645
 40
4.0
100
AcDbArc
 50
257.3
 51
27.3
  0
ARC
  5
37C
100
AcDbEntity
  8
RUNDUNGEN
100
AcDbCircle
 62
7
  6
CONTINUOUS
 10
241.5627219844
 20
305.2443405798
 40
10.0
100
AcDbArc
 50
179.9999848447
 51
247.2894592135
  0
ARC
  5
37D
100
AcDbEntity
  8
BEZUGSACHSEN
100
AcDbCircle
 62
7
  6
CONTINUOUS
 10
196.8127219844
 20
404.4945549882
 40
5.0
100
AcDbArc
 50
90.0
 51
180.0
  0
ARC
  5
37E
100
AcDbEntity
  8
BEZUGSACHSEN
100
AcDbCircle
 62
7
  6
CONTINUOUS
 10
226.5627219844
 20
404.4945549882
 40
5.0
100
AcDbArc
 50
0.0
 51
90.0
  0
ARC
  5
37F
100
AcDbEntity
  8
RUNDUNGEN
100
AcDbCircle
 62
7
  6
CONTINUOUS
 10
263.8645036169
 20
225.0716412773
 40
4.0
100
AcDbArc
 50
132.3
 51
257.3
  0
ARC
  5
380
100
AcDbEntity
  8
RUNDUNGEN
100
AcDbCircle
 62
7
  6
CONTINUOUS
 10
280.212695447
 20
239.947351276
 40
4.0
100
AcDbArc
 50
27.3
 51
132.3
  0
ARC
  5
381
100
AcDbEntity
  8
RUNDUNGEN
100
AcDbCircle
 62
7
  6
CONTINUOUS
 10
228.5996854811
 20
275.4945549882
 40
4.0
100
AcDbArc
 50
57.3
 51
90.0
  0
ARC
  5
382
100
AcDbEntity
  8
RUNDUNGEN
100
AcDbCircle
 62
7
  6
CONTINUOUS
 10
260.2558238609
 20
255.1716753408
 40
4.0
100
AcDbArc
 50
307.3
 51
57.3
  0
ARC
  5
383
100
AcDbEntity
  8
RUNDUNGEN
100
AcDbCircle
 62
7
  6
CONTINUOUS
 10
236.8904017877
 20
237.3719936613
 40
4.0
100
AcDbArc
 50
217.3
 51
307.3
  0
ARC
  5
384
100
AcDbEntity
  8
RUNDUNGEN
100
AcDbCircle
 62
7
  6
CONTINUOUS
 10
207.8487925971
 20
275.4945549882
 40
4.0
100
AcDbArc
 50
90.0
 51
217.3
  0
ARC
  5
385
100
AcDbEntity
  8
BEZUGSACHSEN
100
AcDbCircle
 62
7
  6
CONTINUOUS
 10
8330.9498512529
 20
2083.5716721428
 40
8149.5185905242
100
AcDbArc
 50
194.369741901
 51
194.565608838
  0
ARC
  5
386
100
AcDbEntity
  8
RUNDUNGEN
100
AcDbCircle
 62
7
  6
CONTINUOUS
 10
-7405.2310174481
 20
2083.5716721317
 40
8149.5185904794
100
AcDbArc
 50
345.434391162
 51
345.630258099
  0
ARC
  5
387
100
AcDbEntity
  8
BEZUGSACHSEN
100
AcDbCircle
 62
7
  6
CONTINUOUS
 10
462.8594168807
 20
378.4945549882
 40
31.0
100
AcDbArc
 50
359.9999991761
 51
180.0000008239
  0
ARC
  5
388
100
AcDbEntity
  8
RUNDUNGEN
100
AcDbCircle
 62
7
  6
CONTINUOUS
 10
497.316068592
 20
297.6988307749
 40
11.4921652634
100
AcDbArc
 50
135.0412705642
 51
135.917982402
  0
ARC
  5
389
100
AcDbEntity
  8
BEZUGSACHSEN
100
AcDbCircle
 62
7
  6
CONTINUOUS
 10
428.402765172
 20
297.6988307774
 40
11.4921652598
100
AcDbArc
 50
44.0820175979
 51
44.958729436
  0
ARC
  5
38A
100
AcDbEntity
  8
RUNDUNGEN
100
AcDbCircle
 62
7
  6
CONTINUOUS
 10
503.8594168807
 20
367.1740469125
 40
10.0
100
AcDbArc
 50
179.999993567
 51
210.0000063817
  0
ARC
  5
38B
100
AcDbEntity
  8
RUNDUNGEN
100
AcDbCircle
 62
7
  6
CONTINUOUS
 10
492.8594168807
 20
346.2266057957
 40
10.0
100
AcDbArc
 50
359.9999953008
 51
30.0000032089
  0
ARC
  5
38C
100
AcDbEntity
  8
RUNDUNGEN
100
AcDbCircle
 62
7
  6
CONTINUOUS
 10
492.8594168807
 20
323.6366906119
 40
10.0
100
AcDbArc
 50
315.0004875268
 51
359.9999993541
  0
ARC
  5
38D
100
AcDbEntity
  8
BEZUGSACHSEN
100
AcDbCircle
 62
7
  6
CONTINUOUS
 10
421.8594168807
 20
367.1740469125
 40
10.0
100
AcDbArc
 50
329.9999936183
 51
0.000006433
  0
ARC
  5
38E
100
AcDbEntity
  8
BEZUGSACHSEN
100
AcDbCircle
 62
7
  6
CONTINUOUS
 10
432.8594168807
 20
346.2266057957
 40
10.0
100
AcDbArc
 50
149.9999967911
 51
180.0000046992
  0
ARC
  5
38F
100
AcDbEntity
  8
BEZUGSACHSEN
100
AcDbCircle
 62
7
  6
CONTINUOUS
 10
432.8594168807
 20
323.6366906119
 40
10.0
100
AcDbArc
 50
180.0000006459
 51
225.0
  0
ARC
  5
390
100
AcDbEntity
  8
RUNDUNGEN
100
AcDbCircle
 62
7
  6
CONTINUOUS
 10
485.2815339178
 20
65.195567147
 40
5.6906695586
100
AcDbArc
 50
343.9131422364
 51
348.3121357821
  0
ARC
  5
391
100
AcDbEntity
  8
BEZUGSACHSEN
100
AcDbCircle
 62
7
  6
CONTINUOUS
 10
440.4372998437
 20
65.195567147
 40
5.6906695587
100
AcDbArc
 50
191.6878642179
 51
196.0868577636
  0
SPLINE
  5
392
100
AcDbEntity
  8
BEZUGSACHSEN
100
AcDbSpline
 62
7
  6
CONTINUOUS
 70
0
 71
3
 72
9
 73
5
 74
0
 42
0.0000001
 43
0.0000001
 44
0.0000000001
 40
0.0
 40
0.0
 40
0.0
 40
0.0
 40
0.2828701089
 40
1.0
 40
1.0
 40
1.0
 40
1.0
 10
444.4792392984
 20
30.0618287981
 30
0.0
 10
444.4817280944
 20
30.0618475239
 30
0.0
 10
444.4848281881
 20
30.0736975447
 30
0.0
 10
444.4841771736
 20
30.0807750635
 30
0.0
 10
444.4839850579
 20
30.0870818911
 30
0.0
  0
LINE
  5
393
100
AcDbEntity
  8
RUNDUNGEN
100
AcDbLine
 62
7
  6
CONTINUOUS
 10
481.6752748435
 20
132.955640529
 11
482.3153741904
 21
133.8744009475
  0
SPLINE
  5
394
100
AcDbEntity
  8
RUNDUNGEN
100
AcDbSpline
 62
7
  6
CONTINUOUS
 70
0
 71
3
 72
9
 73
5
 74
0
 42
0.0000001
 43
0.0000001
 44
0.0000000001
 40
0.0
 40
0.0
 40
0.0
 40
0.0
 40
0.4881977278
 40
1.0
 40
1.0
 40
1.0
 40
1.0
 10
481.2985278172
 20
88.8658850176
 30
0.0
 10
481.0546275005
 20
95.3923813003
 30
0.0
 10
480.7851583666
 20
108.7698996787
 30
0.0
 10
480.8879162517
 20
122.1492901704
 30
0.0
 10
481.0389434775
 20
128.9944551883
 30
0.0
  0
SPLINE
  5
395
100
AcDbEntity
  8
RUNDUNGEN
100
AcDbSpline
 62
7
  6
CONTINUOUS
 70
0
 71
3
 72
15
 73
11
 74
0
 42
0.0000001
 43
0.0000001
 44
0.0000000001
 40
0.0
 40
0.0
 40
0.0
 40
0.0
 40
0.0160630393
 40
0.0391772475
 40
0.1061380474
 40
0.1997594374
 40
0.3184892072
 40
0.4603739819
 40
0.6230868351
 40
1.0
 40
1.0
 40
1.0
 40
1.0
 10
481.2348487036
 20
30.0870818911
 30
0.0
 10
481.2444335682
 20
30.4017364132
 30
0.0
 10
481.2726243481
 20
31.1690149241
 30
0.0
 10
481.3522368408
 20
33.2475585426
 30
0.0
 10
481.4839259607
 20
36.8452130668
 30
0.0
 10
481.6463025427
 20
42.316769883
 30
0.0
 10
481.7894513974
 20
49.2576578544
 30
0.0
 10
481.8693278983
 20
57.5537771199
 30
0.0
 10
481.8313721128
 20
70.9101155804
 30
0.0
 10
481.5743811149
 20
81.4843631442
 30
0.0
 10
481.2985278172
 20
88.8658850176
 30
0.0
  0
SPLINE
  5
396
100
AcDbEntity
  8
BEZUGSACHSEN
100
AcDbSpline
 62
7
  6
CONTINUOUS
 70
0
 71
3
 72
9
 73
5
 74
0
 42
0.0000001
 43
0.0000001
 44
0.0000000001
 40
0.0
 40
0.0
 40
0.0
 40
0.0
 40
0.50000001
 40
1.0
 40
1.0
 40
1.0
 40
1.0
 10
441.2939913272
 20
41.1401158958
 30
0.0
 10
440.4227437725
 20
44.297660669
 30
0.0
 10
438.6776420746
 20
50.6120300922
 30
0.0
 10
436.9301151538
 20
56.9257310366
 30
0.0
 10
436.0531040651
 20
60.0816797029
 30
0.0
  0
SPLINE
  5
397
100
AcDbEntity
  8
BEZUGSACHSEN
100
AcDbSpline
 62
7
  6
CONTINUOUS
 70
0
 71
3
 72
9
 73
5
 74
0
 42
0.0000001
 43
0.0000001
 44
0.0000000001
 40
0.0
 40
0.0
 40
0.0
 40
0.0
 40
0.2456023213
 40
1.0
 40
1.0
 40
1.0
 40
1.0
 10
434.9694613238
 20
63.6187152369
 30
0.0
 10
434.9893954388
 20
63.549430612
 30
0.0
 10
435.0757049201
 20
63.2688229279
 30
0.0
 10
435.1821792251
 20
62.994521075
 30
0.0
 10
435.2719604897
 20
62.7920878877
 30
0.0
  0
SPLINE
  5
398
100
AcDbEntity
  8
RUNDUNGEN
100
AcDbSpline
 62
7
  6
CONTINUOUS
 70
0
 71
3
 72
9
 73
5
 74
0
 42
0.0000001
 43
0.0000001
 44
0.0000000001
 40
0.0
 40
0.0
 40
0.0
 40
0.0
 40
0.2828701089
 40
1.0
 40
1.0
 40
1.0
 40
1.0
 10
481.2395944631
 20
30.0618287981
 30
0.0
 10
481.2371056671
 20
30.0618475239
 30
0.0
 10
481.2340055734
 20
30.0736975447
 30
0.0
 10
481.2346565878
 20
30.0807750635
 30
0.0
 10
481.2348487036
 20
30.0870818911
 30
0.0
  0
SPLINE
  5
399
100
AcDbEntity
  8
RUNDUNGEN
100
AcDbSpline
 62
7
  6
CONTINUOUS
 70
0
 71
3
 72
11
 73
7
 74
0
 42
0.0000001
 43
0.0000001
 44
0.0000000001
 40
0.0
 40
0.0
 40
0.0
 40
0.0
 40
0.2366672635
 40
0.4778889693
 40
0.7298471341
 40
1.0
 40
1.0
 40
1.0
 40
1.0
 10
485.8820626703
 20
295.7908491399
 30
0.0
 10
485.7492798708
 20
296.6286049212
 30
0.0
 10
485.678832476
 20
298.3573851974
 30
0.0
 10
486.1596195674
 20
300.9495859483
 30
0.0
 10
487.2506212407
 20
303.4828480987
 30
0.0
 10
488.3871480324
 20
304.9982678805
 30
0.0
 10
489.0607328582
 20
305.6937850814
 30
0.0
  0
SPLINE
  5
39A
100
AcDbEntity
  8
RUNDUNGEN
100
AcDbSpline
 62
7
  6
CONTINUOUS
 70
0
 71
3
 72
9
 73
5
 74
0
 42
0.0000001
 43
0.0000001
 44
0.0000000001
 40
0.0
 40
0.0
 40
0.0
 40
0.0
 40
0.2456023213
 40
1.0
 40
1.0
 40
1.0
 40
1.0
 10
490.7493724377
 20
63.6187152369
 30
0.0
 10
490.7294383226
 20
63.549430612
 30
0.0
 10
490.6431288414
 20
63.2688229279
 30
0.0
 10
490.5366545363
 20
62.994521075
 30
0.0
 10
490.4468732718
 20
62.7920878877
 30
0.0
  0
SPLINE
  5
39B
100
AcDbEntity
  8
RUNDUNGEN
100
AcDbSpline
 62
7
  6
CONTINUOUS
 70
0
 71
3
 72
9
 73
5
 74
0
 42
0.0000001
 43
0.0000001
 44
0.0000000001
 40
0.0
 40
0.0
 40
0.0
 40
0.0
 40
0.50000001
 40
1.0
 40
1.0
 40
1.0
 40
1.0
 10
484.4248424342
 20
41.1401158958
 30
0.0
 10
485.2960899889
 20
44.297660669
 30
0.0
 10
487.0411916869
 20
50.6120300922
 30
0.0
 10
488.7887186076
 20
56.9257310366
 30
0.0
 10
489.6657296963
 20
60.0816797029
 30
0.0
  0
SPLINE
  5
39C
100
AcDbEntity
  8
RUNDUNGEN
100
AcDbSpline
 62
7
  6
CONTINUOUS
 70
0
 71
3
 72
23
 73
19
 74
0
 42
0.0000001
 43
0.0000001
 44
0.0000000001
 40
0.0
 40
0.0
 40
0.0
 40
0.0
 40
0.1909645146
 40
0.3753107042
 40
0.5465395935
 40
0.625236703
 40
0.6982881409
 40
0.7649447434
 40
0.8244888959
 40
0.8762501376
 40
0.9196174164
 40
0.9540528113
 40
0.9677785884
 40
0.9791125417
 40
0.988020002
 40
0.9944697369
 40
0.9984489693
 40
1.0
 40
1.0
 40
1.0
 40
1.0
 10
489.6657296963
 20
60.0816797029
 30
0.0
 10
489.7368917381
 20
60.3377582788
 30
0.0
 10
489.8777427923
 20
60.8407652729
 30
0.0
 10
490.086139656
 20
61.572332467
 30
0.0
 10
490.2546790195
 20
62.15277766
 30
0.0
 10
490.3819922609
 20
62.5838892082
 30
0.0
 10
490.4690331253
 20
62.8751352272
 30
0.0
 10
490.5493986356
 20
63.1405538843
 30
0.0
 10
490.6221543004
 20
63.3773104413
 30
0.0
 10
490.6863860665
 20
63.5827870161
 30
0.0
 10
490.7412557253
 20
63.7545361454
 30
0.0
 10
490.7809964493
 20
63.8756334198
 30
0.0
 10
490.8076980277
 20
63.9539175907
 30
0.0
 10
490.8233280637
 20
63.9987444173
 30
0.0
 10
490.8362107249
 20
64.0330430644
 30
0.0
 10
490.8458548795
 20
64.0594290656
 30
0.0
 10
490.853001212
 20
64.0722261009
 30
0.0
 10
490.8564671487
 20
64.0816850439
 30
0.0
 10
490.858625851
 20
64.0816800599
 30
0.0
  0
SPLINE
  5
39D
100
AcDbEntity
  8
RUNDUNGEN
100
AcDbSpline
 62
7
  6
CONTINUOUS
 70
0
 71
3
 72
13
 73
9
 74
0
 42
0.0000001
 43
0.0000001
 44
0.0000000001
 40
0.0
 40
0.0
 40
0.0
 40
0.0
 40
0.3277030605
 40
0.6221111315
 40
0.7470088802
 40
0.8528740318
 40
0.9375432421
 40
1.0
 40
1.0
 40
1.0
 40
1.0
 10
481.0389434775
 20
128.9944551883
 30
0.0
 10
481.0486795987
 20
129.4357355997
 30
0.0
 10
481.0916097463
 20
130.2730439708
 30
0.0
 10
481.204733548
 20
131.2739248694
 30
0.0
 10
481.3318267036
 20
131.9699766073
 30
0.0
 10
481.432338244
 20
132.38329697
 30
0.0
 10
481.5400406296
 20
132.7066654748
 30
0.0
 10
481.6271623125
 20
132.8866332057
 30
0.0
 10
481.6752748435
 20
132.955640529
 30
0.0
  0
SPLINE
  5
39E
100
AcDbEntity
  8
RUNDUNGEN
100
AcDbSpline
 62
7
  6
CONTINUOUS
 70
0
 71
3
 72
9
 73
5
 74
0
 42
0.0000001
 43
0.0000001
 44
0.0000000001
 40
0.0
 40
0.0
 40
0.0
 40
0.0
 40
0.3194255521
 40
1.0
 40
1.0
 40
1.0
 40
1.0
 10
482.3153741904
 20
133.8744009475
 30
0.0
 10
482.3298459682
 20
133.8951837487
 30
0.0
 10
482.3769642308
 20
133.9569442497
 30
0.0
 10
482.4512127099
 20
134.010703655
 30
0.0
 10
482.5051707248
 20
134.010698168
 30
0.0
  0
SPLINE
  5
39F
100
AcDbEntity
  8
BEZUGSACHSEN
100
AcDbSpline
 62
7
  6
CONTINUOUS
 70
0
 71
3
 72
9
 73
5
 74
0
 42
0.0000001
 43
0.0000001
 44
0.0000000001
 40
0.0
 40
0.0
 40
0.0
 40
0.0
 40
0.4881977278
 40
1.0
 40
1.0
 40
1.0
 40
1.0
 10
444.4203059443
 20
88.8658850176
 30
0.0
 10
444.6642062609
 20
95.3923813003
 30
0.0
 10
444.9336753948
 20
108.7698996787
 30
0.0
 10
444.8309175098
 20
122.1492901704
 30
0.0
 10
444.679890284
 20
128.9944551883
 30
0.0
  0
LINE
  5
3A0
100
AcDbEntity
  8
BEZUGSACHSEN
100
AcDbLine
 62
7
  6
CONTINUOUS
 10
444.0435589179
 20
132.955640529
 11
443.403459571
 21
133.8744009475
  0
SPLINE
  5
3A1
100
AcDbEntity
  8
BEZUGSACHSEN
100
AcDbSpline
 62
7
  6
CONTINUOUS
 70
0
 71
3
 72
15
 73
11
 74
0
 42
0.0000001
 43
0.0000001
 44
0.0000000001
 40
0.0
 40
0.0
 40
0.0
 40
0.0
 40
0.0160630393
 40
0.0391772475
 40
0.1061380474
 40
0.1997594374
 40
0.3184892072
 40
0.4603739819
 40
0.6230868351
 40
1.0
 40
1.0
 40
1.0
 40
1.0
 10
444.4839850579
 20
30.0870818911
 30
0.0
 10
444.4744001933
 20
30.4017364132
 30
0.0
 10
444.4462094134
 20
31.1690149241
 30
0.0
 10
444.3665969206
 20
33.2475585426
 30
0.0
 10
444.2349078008
 20
36.8452130668
 30
0.0
 10
444.0725312188
 20
42.316769883
 30
0.0
 10
443.9293823641
 20
49.2576578544
 30
0.0
 10
443.8495058632
 20
57.5537771199
 30
0.0
 10
443.8874616487
 20
70.9101155804
 30
0.0
 10
444.1444526465
 20
81.4843631442
 30
0.0
 10
444.4203059443
 20
88.8658850176
 30
0.0
  0
SPLINE
  5
3A2
100
AcDbEntity
  8
BEZUGSACHSEN
100
AcDbSpline
 62
7
  6
CONTINUOUS
 70
0
 71
3
 72
11
 73
7
 74
0
 42
0.0000001
 43
0.0000001
 44
0.0000000001
 40
0.0
 40
0.0
 40
0.0
 40
0.0
 40
0.2366672635
 40
0.4778889693
 40
0.7298471341
 40
1.0
 40
1.0
 40
1.0
 40
1.0
 10
439.8367710912
 20
295.7908491399
 30
0.0
 10
439.9695538906
 20
296.6286049212
 30
0.0
 10
440.0400012855
 20
298.3573851974
 30
0.0
 10
439.5592141941
 20
300.9495859483
 30
0.0
 10
438.4682125207
 20
303.4828480987
 30
0.0
 10
437.331685729
 20
304.9982678805
 30
0.0
 10
436.6581009032
 20
305.6937850814
 30
0.0
  0
SPLINE
  5
3A3
100
AcDbEntity
  8
BEZUGSACHSEN
100
AcDbSpline
 62
7
  6
CONTINUOUS
 70
0
 71
3
 72
9
 73
5
 74
0
 42
0.0000001
 43
0.0000001
 44
0.0000000001
 40
0.0
 40
0.0
 40
0.0
 40
0.0
 40
0.3194255521
 40
1.0
 40
1.0
 40
1.0
 40
1.0
 10
443.403459571
 20
133.8744009475
 30
0.0
 10
443.3889877932
 20
133.8951837487
 30
0.0
 10
443.3418695307
 20
133.9569442497
 30
0.0
 10
443.2676210516
 20
134.010703655
 30
0.0
 10
443.2136630367
 20
134.010698168
 30
0.0
  0
SPLINE
  5
3A4
100
AcDbEntity
  8
BEZUGSACHSEN
100
AcDbSpline
 62
7
  6
CONTINUOUS
 70
0
 71
3
 72
13
 73
9
 74
0
 42
0.0000001
 43
0.0000001
 44
0.0000000001
 40
0.0
 40
0.0
 40
0.0
 40
0.0
 40
0.3277030605
 40
0.6221111315
 40
0.7470088802
 40
0.8528740318
 40
0.9375432421
 40
1.0
 40
1.0
 40
1.0
 40
1.0
 10
444.679890284
 20
128.9944551883
 30
0.0
 10
444.6701541628
 20
129.4357355997
 30
0.0
 10
444.6272240151
 20
130.2730439708
 30
0.0
 10
444.5141002135
 20
131.2739248694
 30
0.0
 10
444.3870070579
 20
131.9699766073
 30
0.0
 10
444.2864955175
 20
132.38329697
 30
0.0
 10
444.1787931318
 20
132.7066654748
 30
0.0
 10
444.091671449
 20
132.8866332057
 30
0.0
 10
444.0435589179
 20
132.955640529
 30
0.0
  0
SPLINE
  5
3A5
100
AcDbEntity
  8
BEZUGSACHSEN
100
AcDbSpline
 62
7
  6
CONTINUOUS
 70
0
 71
3
 72
23
 73
19
 74
0
 42
0.0000001
 43
0.0000001
 44
0.0000000001
 40
0.0
 40
0.0
 40
0.0
 40
0.0
 40
0.1909645146
 40
0.3753107042
 40
0.5465395935
 40
0.625236703
 40
0.6982881409
 40
0.7649447434
 40
0.8244888959
 40
0.8762501376
 40
0.9196174164
 40
0.9540528113
 40
0.9677785884
 40
0.9791125417
 40
0.988020002
 40
0.9944697369
 40
0.9984489693
 40
1.0
 40
1.0
 40
1.0
 40
1.0
 10
436.0531040651
 20
60.0816797029
 30
0.0
 10
435.9819420234
 20
60.3377582788
 30
0.0
 10
435.8410909692
 20
60.8407652729
 30
0.0
 10
435.6326941054
 20
61.572332467
 30
0.0
 10
435.464154742
 20
62.15277766
 30
0.0
 10
435.3368415005
 20
62.5838892082
 30
0.0
 10
435.2498006362
 20
62.8751352272
 30
0.0
 10
435.1694351259
 20
63.1405538843
 30
0.0
 10
435.0966794611
 20
63.3773104413
 30
0.0
 10
435.032447695
 20
63.5827870161
 30
0.0
 10
434.9775780361
 20
63.7545361454
 30
0.0
 10
434.9378373121
 20
63.8756334198
 30
0.0
 10
434.9111357338
 20
63.9539175907
 30
0.0
 10
434.8955056977
 20
63.9987444173
 30
0.0
 10
434.8826230365
 20
64.0330430644
 30
0.0
 10
434.872978882
 20
64.0594290656
 30
0.0
 10
434.8658325495
 20
64.0722261009
 30
0.0
 10
434.8623666127
 20
64.0816850439
 30
0.0
 10
434.8602079105
 20
64.0816800599
 30
0.0
  0
SPLINE
  5
3A6
100
AcDbEntity
  8
BEZUGSACHSEN
100
AcDbSpline
 62
7
  6
CONTINUOUS
 70
0
 71
3
 72
17
 73
13
 74
0
 42
0.0000001
 43
0.0000001
 44
0.0000000001
 40
0.0
 40
0.0
 40
0.0
 40
0.0
 40
0.0194683241
 40
0.0419775892
 40
0.0696701896
 40
0.1036417377
 40
0.1919984601
 40
0.3079395608
 40
0.4499220028
 40
0.6151740801
 40
0.7999985626
 40
1.0
 40
1.0
 40
1.0
 40
1.0
 10
443.2136630367
 20
134.010698168
 30
0.0
 10
443.1944212902
 20
134.0106962112
 30
0.0
 10
443.1526311803
 20
134.0007219796
 30
0.0
 10
443.0958141087
 20
133.9599394085
 30
0.0
 10
443.0418543296
 20
133.8959343847
 30
0.0
 10
442.9658846087
 20
133.768096264
 30
0.0
 10
442.8816870221
 20
133.5467908817
 30
0.0
 10
442.7958906711
 20
133.2152728405
 30
0.0
 10
442.7215825954
 20
132.803310597
 30
0.0
 10
442.6608717921
 20
132.3206376113
 30
0.0
 10
442.6157922604
 20
131.778694533
 30
0.0
 10
442.5976744568
 20
131.3986998887
 30
0.0
 10
442.5912853448
 20
131.2011294012
 30
0.0
  0
SPLINE
  5
3A7
100
AcDbEntity
  8
RUNDUNGEN
100
AcDbSpline
 62
7
  6
CONTINUOUS
 70
0
 71
3
 72
11
 73
7
 74
0
 42
0.0000001
 43
0.0000001
 44
0.0000000001
 40
0.0
 40
0.0
 40
0.0
 40
0.0
 40
0.322151262
 40
0.6146173534
 40
0.8489356086
 40
1.0
 40
1.0
 40
1.0
 40
1.0
 10
482.3644741587
 20
34.061824057
 30
0.0
 10
482.2575447288
 20
33.6504356706
 30
0.0
 10
482.0509578036
 20
32.8662470821
 30
0.0
 10
481.7596710027
 20
31.7846209707
 30
0.0
 10
481.5191447468
 20
30.923272678
 30
0.0
 10
481.3774045762
 20
30.4347654557
 30
0.0
 10
481.3150306655
 20
30.2454564953
 30
0.0
  0
SPLINE
  5
3A8
100
AcDbEntity
  8
RUNDUNGEN
100
AcDbSpline
 62
7
  6
CONTINUOUS
 70
0
 71
3
 72
12
 73
8
 74
0
 42
0.0000001
 43
0.0000001
 44
0.0000000001
 40
0.0
 40
0.0
 40
0.0
 40
0.0
 40
0.4221834682
 40
0.7296919228
 40
0.9208989495
 40
0.9734326315
 40
1.0
 40
1.0
 40
1.0
 40
1.0
 10
481.3150306655
 20
30.2454564953
 30
0.0
 10
481.3062266427
 20
30.2187357015
 30
0.0
 10
481.2906334302
 20
30.1725150339
 30
0.0
 10
481.269464067
 20
30.1153948345
 30
0.0
 10
481.2546525705
 20
30.0808692933
 30
0.0
 10
481.2456511106
 20
30.0661192257
 30
0.0
 10
481.2413648316
 20
30.0618154778
 30
0.0
 10
481.2395944631
 20
30.0618287981
 30
0.0
  0
SPLINE
  5
3A9
100
AcDbEntity
  8
RUNDUNGEN
100
AcDbSpline
 62
7
  6
CONTINUOUS
 70
0
 71
3
 72
17
 73
13
 74
0
 42
0.0000001
 43
0.0000001
 44
0.0000000001
 40
0.0
 40
0.0
 40
0.0
 40
0.0
 40
0.0146937037
 40
0.0372181491
 40
0.0677536831
 40
0.1061656986
 40
0.2052990184
 40
0.3310681635
 40
0.4788154837
 40
0.643263956
 40
0.8188556274
 40
1.0
 40
1.0
 40
1.0
 40
1.0
 10
490.0713579544
 20
65.0129400962
 30
0.0
 10
490.0797426749
 20
64.9949184969
 30
0.0
 10
490.0888941164
 20
64.9444261537
 30
0.0
 10
490.0926571095
 20
64.8531119928
 30
0.0
 10
490.0875295051
 20
64.729226189
 30
0.0
 10
490.0670196023
 20
64.5028177086
 30
0.0
 10
490.016349701
 20
64.1499987713
 30
0.0
 10
489.9275031532
 20
63.6537874197
 30
0.0
 10
489.8088795564
 20
63.0732713285
 30
0.0
 10
489.6653847694
 20
62.4291966767
 30
0.0
 10
489.5024248499
 20
61.7432439219
 30
0.0
 10
489.3853647848
 20
61.2750771196
 30
0.0
 10
489.3246686043
 20
61.0376733103
 30
0.0
  0
SPLINE
  5
3AA
100
AcDbEntity
  8
BEZUGSACHSEN
100
AcDbSpline
 62
7
  6
CONTINUOUS
 70
0
 71
3
 72
10
 73
6
 74
0
 42
0.0000001
 43
0.0000001
 44
0.0000000001
 40
0.0
 40
0.0
 40
0.0
 40
0.0
 40
0.5223404557
 40
0.7676545847
 40
1.0
 40
1.0
 40
1.0
 40
1.0
 10
442.5912853448
 20
131.2011294012
 30
0.0
 10
442.4258906725
 20
126.0866304876
 30
0.0
 10
442.0701965389
 20
118.5726633881
 30
0.0
 10
441.3339232773
 20
108.8033000567
 30
0.0
 10
440.8822418827
 20
104.1451499496
 30
0.0
 10
440.6323973966
 20
101.8827030097
 30
0.0
  0
SPLINE
  5
3AB
100
AcDbEntity
  8
RUNDUNGEN
100
AcDbSpline
 62
7
  6
CONTINUOUS
 70
0
 71
3
 72
10
 73
6
 74
0
 42
0.0000001
 43
0.0000001
 44
0.0000000001
 40
0.0
 40
0.0
 40
0.0
 40
0.0
 40
0.5223404557
 40
0.7676545847
 40
1.0
 40
1.0
 40
1.0
 40
1.0
 10
483.1275484166
 20
131.2011294012
 30
0.0
 10
483.292943089
 20
126.0866304876
 30
0.0
 10
483.6486372226
 20
118.5726633881
 30
0.0
 10
484.3849104842
 20
108.8033000567
 30
0.0
 10
484.8365918788
 20
104.1451499496
 30
0.0
 10
485.0864363649
 20
101.8827030097
 30
0.0
  0
SPLINE
  5
3AC
100
AcDbEntity
  8
BEZUGSACHSEN
100
AcDbSpline
 62
7
  6
CONTINUOUS
 70
0
 71
3
 72
18
 73
14
 74
0
 42
0.0000001
 43
0.0000001
 44
0.0000000001
 40
0.0
 40
0.0
 40
0.0
 40
0.0
 40
0.1978701551
 40
0.3779889653
 40
0.5385256297
 40
0.6778604944
 40
0.7946107337
 40
0.8441568481
 40
0.8876610186
 40
0.9250342059
 40
0.9562154267
 40
0.9811858156
 40
1.0
 40
1.0
 40
1.0
 40
1.0
 10
440.6323973966
 20
101.8827030097
 30
0.0
 10
440.3627292614
 20
99.4407445869
 30
0.0
 10
439.8537322413
 20
94.7752226647
 30
0.0
 10
439.1309871988
 20
88.1279409041
 30
0.0
 10
438.4701259206
 20
82.2049872528
 30
0.0
 10
437.8593076468
 20
77.0682608088
 30
0.0
 10
437.3612440678
 20
73.3060198198
 30
0.0
 10
436.9701925502
 20
70.7305253797
 30
0.0
 10
436.7003747216
 20
69.1336732046
 30
0.0
 10
436.4373412999
 20
67.7673061026
 30
0.0
 10
436.1811472942
 20
66.6342450701
 30
0.0
 10
435.9317927615
 20
65.7373248298
 30
0.0
 10
435.7460176477
 20
65.224739828
 30
0.0
 10
435.6474758071
 20
65.0129400962
 30
0.0
  0
SPLINE
  5
3AD
100
AcDbEntity
  8
BEZUGSACHSEN
100
AcDbSpline
 62
7
  6
CONTINUOUS
 70
0
 71
3
 72
11
 73
7
 74
0
 42
0.0000001
 43
0.0000001
 44
0.0000000001
 40
0.0
 40
0.0
 40
0.0
 40
0.0
 40
0.0674715376
 40
0.2523866495
 40
0.5629700598
 40
1.0
 40
1.0
 40
1.0
 40
1.0
 10
434.8602079105
 20
64.0816800599
 30
0.0
 10
434.8593169136
 20
64.0816780028
 30
0.0
 10
434.8588575929
 20
64.076819307
 30
0.0
 10
434.8596355099
 20
64.0707952568
 30
0.0
 10
434.8615196353
 20
64.0578229364
 30
0.0
 10
434.8634540824
 20
64.0484037701
 30
0.0
 10
434.8646221021
 20
64.0427519778
 30
0.0
  0
SPLINE
  5
3AE
100
AcDbEntity
  8
RUNDUNGEN
100
AcDbSpline
 62
7
  6
CONTINUOUS
 70
0
 71
3
 72
18
 73
14
 74
0
 42
0.0000001
 43
0.0000001
 44
0.0000000001
 40
0.0
 40
0.0
 40
0.0
 40
0.0
 40
0.1978701551
 40
0.3779889653
 40
0.5385256297
 40
0.6778604944
 40
0.7946107337
 40
0.8441568481
 40
0.8876610186
 40
0.9250342059
 40
0.9562154267
 40
0.9811858156
 40
1.0
 40
1.0
 40
1.0
 40
1.0
 10
485.0864363649
 20
101.8827030097
 30
0.0
 10
485.3561045
 20
99.4407445869
 30
0.0
 10
485.8651015201
 20
94.7752226647
 30
0.0
 10
486.5878465627
 20
88.1279409041
 30
0.0
 10
487.2487078408
 20
82.2049872528
 30
0.0
 10
487.8595261146
 20
77.0682608088
 30
0.0
 10
488.3575896936
 20
73.3060198198
 30
0.0
 10
488.7486412113
 20
70.7305253797
 30
0.0
 10
489.0184590399
 20
69.1336732046
 30
0.0
 10
489.2814924615
 20
67.7673061026
 30
0.0
 10
489.5376864673
 20
66.6342450701
 30
0.0
 10
489.7870409999
 20
65.7373248298
 30
0.0
 10
489.9728161138
 20
65.224739828
 30
0.0
 10
490.0713579544
 20
65.0129400962
 30
0.0
  0
SPLINE
  5
3AF
100
AcDbEntity
  8
RUNDUNGEN
100
AcDbSpline
 62
7
  6
CONTINUOUS
 70
0
 71
3
 72
17
 73
13
 74
0
 42
0.0000001
 43
0.0000001
 44
0.0000000001
 40
0.0
 40
0.0
 40
0.0
 40
0.0
 40
0.0194683241
 40
0.0419775892
 40
0.0696701896
 40
0.1036417377
 40
0.1919984601
 40
0.3079395608
 40
0.4499220028
 40
0.6151740801
 40
0.7999985626
 40
1.0
 40
1.0
 40
1.0
 40
1.0
 10
482.5051707248
 20
134.010698168
 30
0.0
 10
482.5244124713
 20
134.0106962112
 30
0.0
 10
482.5662025811
 20
134.0007219796
 30
0.0
 10
482.6230196527
 20
133.9599394085
 30
0.0
 10
482.6769794319
 20
133.8959343847
 30
0.0
 10
482.7529491528
 20
133.768096264
 30
0.0
 10
482.8371467393
 20
133.5467908817
 30
0.0
 10
482.9229430903
 20
133.2152728405
 30
0.0
 10
482.997251166
 20
132.803310597
 30
0.0
 10
483.0579619694
 20
132.3206376113
 30
0.0
 10
483.103041501
 20
131.778694533
 30
0.0
 10
483.1211593047
 20
131.3986998887
 30
0.0
 10
483.1275484166
 20
131.2011294012
 30
0.0
  0
SPLINE
  5
3B0
100
AcDbEntity
  8
RUNDUNGEN
100
AcDbSpline
 62
7
  6
CONTINUOUS
 70
0
 71
3
 72
11
 73
7
 74
0
 42
0.0000001
 43
0.0000001
 44
0.0000000001
 40
0.0
 40
0.0
 40
0.0
 40
0.0
 40
0.0674715376
 40
0.2523866495
 40
0.5629700598
 40
1.0
 40
1.0
 40
1.0
 40
1.0
 10
490.858625851
 20
64.0816800599
 30
0.0
 10
490.8595168478
 20
64.0816780028
 30
0.0
 10
490.8599761685
 20
64.076819307
 30
0.0
 10
490.8591982516
 20
64.0707952568
 30
0.0
 10
490.8573141261
 20
64.0578229364
 30
0.0
 10
490.855379679
 20
64.0484037701
 30
0.0
 10
490.8542116594
 20
64.0427519778
 30
0.0
  0
SPLINE
  5
3B1
100
AcDbEntity
  8
BEZUGSACHSEN
100
AcDbSpline
 62
7
  6
CONTINUOUS
 70
0
 71
3
 72
17
 73
13
 74
0
 42
0.0000001
 43
0.0000001
 44
0.0000000001
 40
0.0
 40
0.0
 40
0.0
 40
0.0
 40
0.0146937037
 40
0.0372181491
 40
0.0677536831
 40
0.1061656986
 40
0.2052990184
 40
0.3310681635
 40
0.4788154837
 40
0.643263956
 40
0.8188556274
 40
1.0
 40
1.0
 40
1.0
 40
1.0
 10
435.6474758071
 20
65.0129400962
 30
0.0
 10
435.6390910865
 20
64.9949184969
 30
0.0
 10
435.6299396451
 20
64.9444261537
 30
0.0
 10
435.626176652
 20
64.8531119928
 30
0.0
 10
435.6313042563
 20
64.729226189
 30
0.0
 10
435.6518141592
 20
64.5028177086
 30
0.0
 10
435.7024840605
 20
64.1499987713
 30
0.0
 10
435.7913306083
 20
63.6537874197
 30
0.0
 10
435.909954205
 20
63.0732713285
 30
0.0
 10
436.0534489921
 20
62.4291966767
 30
0.0
 10
436.2164089115
 20
61.7432439219
 30
0.0
 10
436.3334689766
 20
61.2750771196
 30
0.0
 10
436.3941651572
 20
61.0376733103
 30
0.0
  0
SPLINE
  5
3B2
100
AcDbEntity
  8
BEZUGSACHSEN
100
AcDbSpline
 62
7
  6
CONTINUOUS
 70
0
 71
3
 72
11
 73
7
 74
0
 42
0.0000001
 43
0.0000001
 44
0.0000000001
 40
0.0
 40
0.0
 40
0.0
 40
0.0
 40
0.322151262
 40
0.6146173534
 40
0.8489356086
 40
1.0
 40
1.0
 40
1.0
 40
1.0
 10
443.3543596028
 20
34.061824057
 30
0.0
 10
443.4612890326
 20
33.6504356706
 30
0.0
 10
443.6678759578
 20
32.8662470821
 30
0.0
 10
443.9591627588
 20
31.7846209707
 30
0.0
 10
444.1996890146
 20
30.923272678
 30
0.0
 10
444.3414291852
 20
30.4347654557
 30
0.0
 10
444.403803096
 20
30.2454564953
 30
0.0
  0
SPLINE
  5
3B3
100
AcDbEntity
  8
BEZUGSACHSEN
100
AcDbSpline
 62
7
  6
CONTINUOUS
 70
0
 71
3
 72
12
 73
8
 74
0
 42
0.0000001
 43
0.0000001
 44
0.0000000001
 40
0.0
 40
0.0
 40
0.0
 40
0.0
 40
0.4221834682
 40
0.7296919228
 40
0.9208989495
 40
0.9734326315
 40
1.0
 40
1.0
 40
1.0
 40
1.0
 10
444.403803096
 20
30.2454564953
 30
0.0
 10
444.4126071188
 20
30.2187357015
 30
0.0
 10
444.4282003313
 20
30.1725150339
 30
0.0
 10
444.4493696945
 20
30.1153948345
 30
0.0
 10
444.464181191
 20
30.0808692933
 30
0.0
 10
444.4731826508
 20
30.0661192257
 30
0.0
 10
444.4774689299
 20
30.0618154778
 30
0.0
 10
444.4792392984
 20
30.0618287981
 30
0.0
  0
ENDSEC
  0
SECTION
  2
OBJECTS
  0
DICTIONARY
  5
C
100
AcDbDictionary
280
0
281
1
  3
ACAD_GROUP
350
D
  3
ACAD_MLINESTYLE
350
17
  3
ACAD_LAYOUT
350
1A
  3
ACAD_PLOTSETTINGS
350
19
  3
ACAD_PLOTSTYLENAME
350
E
  0
DICTIONARY
  5
D
102
{ACAD_REACTORS
330
C
102
}
100
AcDbDictionary
280
0
281
1
  0
ACDBDICTIONARYWDFLT
  5
E
102
{ACAD_REACTORS
330
C
102
}
100
AcDbDictionary
281
1
  3
Normal
350
F
100
AcDbDictionaryWithDefault
340
F
  0
DICTIONARY
  5
17
102
{ACAD_REACTORS
330
C
102
}
100
AcDbDictionary
280
0
281
1
  3
Standard
350
18
  0
DICTIONARY
  5
19
102
{ACAD_REACTORS
330
C
102
}
100
AcDbDictionary
281
1
  0
DICTIONARY
  5
1A
102
{ACAD_REACTORS
330
C
102
}
100
AcDbDictionary
281
1
  3
Model
350
3B4
  3
Layout1
350
3B5
  0
ACDBPLACEHOLDER
  5
F
102
{ACAD_REACTORS
330
E
102
}
  0
MLINESTYLE
  5
18
102
{ACAD_REACTORS
330
17
102
}
100
AcDbMlineStyle
  2
STANDARD
 70
0
  3

 62
256
 51
90.0
 52
90.0
 71
2
 49
0.5
 62
256
  6
BYLAYER
 49
-0.5
 62
256
  6
BYLAYER
  0
LAYOUT
  5
3B4
102
{ACAD_REACTORS
330
1A
102
}
100
AcDbPlotSettings
  1

  2
none_device
  4
ISO_A2_(594.00_x_420.00_MM)
  6

 40
0.0
 41
0.0
 42
0.0
 43
0.0
 44
594.0
 45
420.0
 46
0.0
 47
0.0
 48
0.0
 49
0.0
140
0.0
141
0.0
142
1.0
143
1.0
 70
1024
 72
1
 73
0
 74
0
  7

 75
0
147
1.0
148
0.0
149
0.0
100
AcDbLayout
  1
Model
 70
0
 71
0
 10
0.0
 20
0.0
 11
594.0
 21
420.0
 12
0.0
 22
0.0
 32
0.0
 14
0.0
 24
0.0
 34
0.0
 15
0.0
 25
0.0
 35
0.0
146
0.0
 13
0.0
 23
0.0
 33
0.0
 16
1.0
 26
0.0
 36
0.0
 17
0.0
 27
1.0
 37
0.0
 76
0
330
208
345
0
346
0
  0
LAYOUT
  5
3B5
102
{ACAD_REACTORS
330
1A
102
}
100
AcDbPlotSettings
  1

  2
none_device
  4
ISO_A2_(594.00_x_420.00_MM)
  6

 40
0.0
 41
0.0
 42
0.0
 43
0.0
 44
594.0
 45
420.0
 46
0.0
 47
0.0
 48
0.0
 49
0.0
140
0.0
141
0.0
142
1.0
143
1.0
 70
0
 72
1
 73
0
 74
0
  7

 75
0
147
1.0
148
0.0
149
0.0
100
AcDbLayout
  1
Layout1
 70
0
 71
1
 10
0.0
 20
0.0
 11
594.0
 21
420.0
 12
0.0
 22
0.0
 32
0.0
 14
0.0
 24
0.0
 34
0.0
 15
0.0
 25
0.0
 35
0.0
146
0.0
 13
0.0
 23
0.0
 33
0.0
 16
1.0
 26
0.0
 36
0.0
 17
0.0
 27
1.0
 37
0.0
 76
0
330
209
345
0
346
0
  0
ENDSEC
  0
EOF
