999
DXF file: VWH-16_7100214_M34915-P-2.dxf
999
Pro/ENGINEER 2010140 by Parametric Technology Corporation
  0
SECTION
  2
HEADER
  9
$ACADVER
  1
AC1015
  9
$DWGCODEPAGE
  3
ANSI_1252
  9
$EXTMAX
 10
420.0
 20
297.0
 30
0.0
  9
$EXTMIN
 10
0.0
 20
0.0
 30
0.0
  9
$LIMMIN
 10
0.0
 20
0.0
  9
$LIMMAX
 10
420.0
 20
297.0
  9
$VIEWCTR
 10
210.0
 20
148.5
  9
$VIEWSIZE
 40
297.0
  9
$CLAYER
  8
0
  9
$LTSCALE
 40
23.1
  9
$CELTYPE
  6
BYLAYER
  9
$DIMSCALE
 40
1.0
  9
$DIMASZ
 40
3.5
  9
$DIMEXO
 40
2.625
  9
$DIMDLI
 40
15.96
  9
$DIMEXE
 40
7.56
  9
$DIMCEN
 40
3.78
  9
$DIMLFAC
 40
1.0
  9
$DIMBLK
  1
_FILLED
  9
$DIMTXT
 40
3.5
  9
$DIMTOL
 70
1
  9
$DIMLIM
 70
0
  9
$DIMTFAC
 40
1.0
  9
$DIMTP
 40
0.005
  9
$DIMTM
 40
0.005
  9
$PDMODE
 70
3
  9
$PDSIZE
 40
0.3125
  9
$HANDSEED
  5
3E1
  9
$TILEMODE
 70
1
  9
$MEASUREMENT
 70
1
  9
$INSUNITS
 70
4
  0
ENDSEC
  0
SECTION
  2
CLASSES
  0
CLASS
  1
ACDBDICTIONARYWDFLT
  2
AcDbDictionaryWithDefault
  3
AutoCAD 2000
 90
0
280
0
281
0
  0
CLASS
  1
ACDBPLACEHOLDER
  2
AcDbPlaceHolder
  3
AutoCAD 2000
 90
0
280
0
281
0
  0
CLASS
  1
LAYOUT
  2
AcDbLayout
  3
AutoCAD 2000
 90
0
280
0
281
0
  0
ENDSEC
  0
SECTION
  2
TABLES
  0
TABLE
  2
VPORT
  5
8
100
AcDbSymbolTable
 70
2
  0
VPORT
  5
1F4
100
AcDbSymbolTableRecord
100
AcDbViewportTableRecord
  2
*ACTIVE
 70
0
 10
0.0
 20
0.0
 11
1.0
 21
1.0
 12
210.0
 22
148.5
 13
0.0
 23
0.0
 14
1.0
 24
1.0
 15
0.0
 25
0.0
 16
0.0
 26
0.0
 36
1.0
 17
0.0
 27
0.0
 37
0.0
 40
297.0
 41
1.4141414141
 42
50.0
 43
0.0
 44
0.0
 50
0.0
 51
0.0
 71
0
 72
100
 73
1
 74
1
 75
0
 76
0
 77
0
 78
0
  0
ENDTAB
  0
TABLE
  2
LTYPE
  5
5
100
AcDbSymbolTable
 70
6
  0
LTYPE
  5
14
100
AcDbSymbolTableRecord
100
AcDbLinetypeTableRecord
  2
BYBLOCK
 70
0
  3

 72
65
 73
0
 40
0.0
  0
LTYPE
  5
15
100
AcDbSymbolTableRecord
100
AcDbLinetypeTableRecord
  2
BYLAYER
 70
0
  3

 72
65
 73
0
 40
0.0
  0
LTYPE
  5
16
100
AcDbSymbolTableRecord
100
AcDbLinetypeTableRecord
  2
CONTINUOUS
 70
64
  3
Solid line
 72
65
 73
0
 40
0.0
  0
LTYPE
  5
1F5
100
AcDbSymbolTableRecord
100
AcDbLinetypeTableRecord
  2
CENTER
 70
64
  3
____ _ ____ _ ____ _ ____ _ ____ _ ____ _ ____
 72
65
 73
4
 40
0.6
 49
0.375
 74
0
 49
-0.075
 74
0
 49
0.075
 74
0
 49
-0.075
 74
0
  0
LTYPE
  5
1F6
100
AcDbSymbolTableRecord
100
AcDbLinetypeTableRecord
  2
HIDDEN
 70
64
  3
- - - - - - - - - - - - - - - - - - - -
 72
65
 73
2
 40
0.2
 49
0.1
 74
0
 49
-0.1
 74
0
  0
LTYPE
  5
1F7
100
AcDbSymbolTableRecord
100
AcDbLinetypeTableRecord
  2
PHANTOM
 70
64
  3
_____ _ _ _____ _ _ _____ _ _ _____
 72
65
 73
6
 40
0.8
 49
0.45
 74
0
 49
-0.05
 74
0
 49
0.1
 74
0
 49
-0.05
 74
0
 49
0.1
 74
0
 49
-0.05
 74
0
  0
LTYPE
  5
1F8
100
AcDbSymbolTableRecord
100
AcDbLinetypeTableRecord
  2
DOT
 70
64
  3
. . . . . . . . . . . . . . . . . . . .
 72
65
 73
2
 40
0.2
 49
0.1
 74
0
 49
-0.1
 74
0
  0
LTYPE
  5
1F9
100
AcDbSymbolTableRecord
100
AcDbLinetypeTableRecord
  2
DASHED
 70
64
  3
- - - - - - - - - - - - - - - - - - - -
 72
65
 73
2
 40
0.2
 49
0.1
 74
0
 49
-0.1
 74
0
  0
ENDTAB
  0
TABLE
  2
LAYER
  5
2
100
AcDbSymbolTable
 70
36
  0
LAYER
  5
10
100
AcDbSymbolTableRecord
100
AcDbLayerTableRecord
  2
0
 70
0
 62
7
  6
CONTINUOUS
370
-3
390
F
  0
LAYER
  5
1FA
100
AcDbSymbolTableRecord
100
AcDbLayerTableRecord
  2
DEFAULT_1
 70
0
 62
7
  6
CENTER
370
-3
390
F
  0
LAYER
  5
1FB
100
AcDbSymbolTableRecord
100
AcDbLayerTableRecord
  2
DEFAULT_2
 70
0
 62
8
  6
HIDDEN
370
-3
390
F
  0
LAYER
  5
1FC
100
AcDbSymbolTableRecord
100
AcDbLayerTableRecord
  2
DEFAULT_3
 70
0
 62
7
  6
PHANTOM
370
-3
390
F
  0
LAYER
  5
1FD
100
AcDbSymbolTableRecord
100
AcDbLayerTableRecord
  2
BEZUGSACHSEN
 70
0
 62
7
  6
CONTINUOUS
370
-3
390
F
  0
LAYER
  5
1FE
100
AcDbSymbolTableRecord
100
AcDbLayerTableRecord
  2
BEZUGSEBENEN
 70
0
 62
7
  6
CONTINUOUS
370
-3
390
F
  0
LAYER
  5
1FF
100
AcDbSymbolTableRecord
100
AcDbLayerTableRecord
  2
FASEN
 70
0
 62
7
  6
CONTINUOUS
370
-3
390
F
  0
LAYER
  5
200
100
AcDbSymbolTableRecord
100
AcDbLayerTableRecord
  2
FLAECHEN
 70
0
 62
7
  6
CONTINUOUS
370
-3
390
F
  0
LAYER
  5
201
100
AcDbSymbolTableRecord
100
AcDbLayerTableRecord
  2
HILFEN
 70
0
 62
7
  6
CONTINUOUS
370
-3
390
F
  0
LAYER
  5
202
100
AcDbSymbolTableRecord
100
AcDbLayerTableRecord
  2
KURVEN
 70
0
 62
7
  6
CONTINUOUS
370
-3
390
F
  0
LAYER
  5
203
100
AcDbSymbolTableRecord
100
AcDbLayerTableRecord
  2
PLATZIERUNG
 70
0
 62
7
  6
CONTINUOUS
370
-3
390
F
  0
LAYER
  5
204
100
AcDbSymbolTableRecord
100
AcDbLayerTableRecord
  2
RUNDUNGEN
 70
0
 62
7
  6
CONTINUOUS
370
-3
390
F
  0
LAYER
  5
205
100
AcDbSymbolTableRecord
100
AcDbLayerTableRecord
  2
T_STARTBEZUEGE
 70
0
 62
7
  6
CONTINUOUS
370
-3
390
F
  0
LAYER
  5
206
100
AcDbSymbolTableRecord
100
AcDbLayerTableRecord
  2
ZEICHNUNGSBEMASSUNGEN
 70
0
 62
7
  6
CONTINUOUS
370
-3
390
F
  0
ENDTAB
  0
TABLE
  2
STYLE
  5
3
100
AcDbSymbolTable
 70
1
  0
STYLE
  5
11
100
AcDbSymbolTableRecord
100
AcDbTextStyleTableRecord
  2
STANDARD
 70
0
 40
0.0
 41
0.7
 50
0.0
 71
0
 42
0.2
  3
txt
  4

  0
STYLE
  5
207
100
AcDbSymbolTableRecord
100
AcDbTextStyleTableRecord
  2
TEXTSTYLE_1
 70
0
 40
0.0
 41
0.8
 50
0.0
 71
0
 42
0.2
  3
gdt
  4

  0
ENDTAB
  0
TABLE
  2
VIEW
  5
6
100
AcDbSymbolTable
 70
0
  0
ENDTAB
  0
TABLE
  2
UCS
  5
7
100
AcDbSymbolTable
 70
0
  0
ENDTAB
  0
TABLE
  2
APPID
  5
9
100
AcDbSymbolTable
 70
1
  0
APPID
  5
208
100
AcDbSymbolTableRecord
100
AcDbRegAppTableRecord
  2
ACAD
 70
0
  0
ENDTAB
  0
TABLE
  2
BLOCK_RECORD
  5
1
100
AcDbSymbolTable
 70
0
  0
BLOCK_RECORD
  5
209
100
AcDbSymbolTableRecord
100
AcDbBlockTableRecord
  2
*Model_Space
  0
BLOCK_RECORD
  5
20A
100
AcDbSymbolTableRecord
100
AcDbBlockTableRecord
  2
*Paper_Space
  0
ENDTAB
  0
TABLE
  2
DIMSTYLE
  5
A
100
AcDbSymbolTable
 70
1
100
AcDbDimStyleTable
 71
0
  0
DIMSTYLE
105
20B
100
AcDbSymbolTableRecord
100
AcDbDimStyleTableRecord
  2
STANDARD
 70
0
  3

  4

 40
1.0
 41
3.5
 42
0.0625
 43
0.38
 44
0.18
 45
0.0
 46
0.0
 47
0.005
 48
0.005
140
3.5
141
0.09
142
0.0
143
25.4
144
1.0
145
0.0
146
1.0
147
0.09
 71
1.0
 72
0.0
 73
0
 74
0
 75
0
 76
0
 77
1
 78
8
170
0
171
2
172
0
173
0
174
0
175
0
176
0
177
0
178
5
270
2
271
3
272
3
273
2
274
2
275
0
280
0
281
0
282
0
283
1
284
8
285
0
286
0
287
3
288
0
340
11
  0
ENDTAB
  0
ENDSEC
  0
SECTION
  2
BLOCKS
  0
BLOCK
  5
20
100
AcDbEntity
  8
0
100
AcDbBlockBegin
  2
*Model_Space
 70
0
 10
0.0
 20
0.0
 30
0.0
  3
*Model_Space
  1

  0
ENDBLK
  5
21
100
AcDbEntity
  8
0
100
AcDbBlockEnd
  0
BLOCK
  5
1C
100
AcDbEntity
  8
0
100
AcDbBlockBegin
  2
*Paper_Space
 70
0
 10
0.0
 20
0.0
 30
0.0
  3
*Paper_Space
  1

  0
ENDBLK
  5
1D
100
AcDbEntity
  8
0
100
AcDbBlockEnd
  0
ENDSEC
  0
SECTION
  2
ENTITIES
  0
MTEXT
  5
20C
100
AcDbEntity
  8
0
100
AcDbMText
 62
5
  6
CONTINUOUS
  7
STANDARD
 71
1
 72
1
 10
335.361299819
 20
142.2733298897
 30
0.0
 11
0.0
 21
1.0
 31
0.0
 44
0.9
  1
RUD VWH 16
 40
6.0
 41
51.4285714286
  0
LINE
  5
20D
100
AcDbEntity
  8
0
100
AcDbLine
 62
7
  6
CONTINUOUS
 10
0.0
 20
0.0
 11
0.0
 21
297.0
  0
LINE
  5
20E
100
AcDbEntity
  8
0
100
AcDbLine
 62
7
  6
CONTINUOUS
 10
0.0
 20
0.0
 11
420.0
 21
0.0
  0
LINE
  5
20F
100
AcDbEntity
  8
0
100
AcDbLine
 62
7
  6
CONTINUOUS
 10
0.0
 20
297.0
 11
420.0
 21
297.0
  0
LINE
  5
210
100
AcDbEntity
  8
0
100
AcDbLine
 62
7
  6
CONTINUOUS
 10
420.0
 20
0.0
 11
420.0
 21
297.0
  0
LINE
  5
211
100
AcDbEntity
  8
0
100
AcDbLine
 62
7
  6
CONTINUOUS
 10
150.5076498122
 20
31.6450854745
 11
151.4826733753
 21
31.8671869186
  0
LINE
  5
212
100
AcDbEntity
  8
0
100
AcDbLine
 62
7
  6
CONTINUOUS
 10
155.5452690752
 20
32.7926090373
 11
156.6827940858
 21
33.0517268239
  0
LINE
  5
213
100
AcDbEntity
  8
0
100
AcDbLine
 62
7
  6
CONTINUOUS
 10
150.6887788406
 20
35.3523775765
 11
153.4513406434
 21
35.9816638716
  0
LINE
  5
214
100
AcDbEntity
  8
0
100
AcDbLine
 62
7
  6
CONTINUOUS
 10
153.5495239977
 20
37.0514668777
 11
150.4619518609
 21
36.348146203
  0
LINE
  5
215
100
AcDbEntity
  8
0
100
AcDbLine
 62
7
  6
CONTINUOUS
 10
149.8948843059
 20
38.8375682343
 11
152.9824564427
 21
39.540888909
  0
LINE
  5
216
100
AcDbEntity
  8
0
100
AcDbLine
 62
7
  6
CONTINUOUS
 10
152.6309325121
 20
40.3336797553
 11
148.7308382598
 21
39.4452739791
  0
LINE
  5
217
100
AcDbEntity
  8
0
100
AcDbLine
 62
7
  6
CONTINUOUS
 10
160.4649970165
 20
34.4149664291
 11
161.3084786389
 21
34.5242692377
  0
LINE
  5
218
100
AcDbEntity
  8
0
100
AcDbLine
 62
7
  6
CONTINUOUS
 10
121.3238441369
 20
36.6444392231
 11
120.7985249978
 21
36.5895558846
  0
LINE
  5
219
100
AcDbEntity
  8
0
100
AcDbLine
 62
7
  6
CONTINUOUS
 10
160.9772008166
 20
35.4903235241
 11
160.2913714865
 21
35.4350825768
  0
LINE
  5
21A
100
AcDbEntity
  8
0
100
AcDbLine
 62
7
  6
CONTINUOUS
 10
120.409146605
 20
35.630823892
 11
121.2594647806
 21
35.6116576078
  0
LINE
  5
21B
100
AcDbEntity
  8
0
100
AcDbLine
 62
7
  6
CONTINUOUS
 10
159.7239474911
 20
34.5207320782
 11
160.4649970165
 21
34.4149664291
  0
LINE
  5
21C
100
AcDbEntity
  8
0
100
AcDbLine
 62
7
  6
CONTINUOUS
 10
115.7150187717
 20
33.034284492
 11
116.6900307584
 21
32.8121322342
  0
LINE
  5
21D
100
AcDbEntity
  8
0
100
AcDbLine
 62
7
  6
CONTINUOUS
 10
117.4841069253
 20
36.297281513
 11
120.409146605
 21
35.630823892
  0
LINE
  5
21E
100
AcDbEntity
  8
0
100
AcDbLine
 62
7
  6
CONTINUOUS
 10
120.7985249978
 20
36.5895558846
 11
117.7109857999
 21
37.2930383169
  0
LINE
  5
21F
100
AcDbEntity
  8
0
100
AcDbLine
 62
7
  6
CONTINUOUS
 10
118.2781830923
 20
39.7824307917
 11
121.3657222902
 21
39.0789483594
  0
LINE
  5
220
100
AcDbEntity
  8
0
100
AcDbLine
 62
7
  6
CONTINUOUS
 10
121.3922885008
 20
39.9457705074
 11
117.4922368343
 21
40.8343803862
  0
LINE
  5
221
100
AcDbEntity
  8
0
100
AcDbLine
 62
7
  6
CONTINUOUS
 10
94.0710583887
 20
43.8276842834
 11
93.5607885613
 21
43.9640554021
  0
LINE
  5
222
100
AcDbEntity
  8
0
100
AcDbLine
 62
7
  6
CONTINUOUS
 10
112.9516562004
 20
33.8953510677
 11
113.9088177545
 21
33.6057966522
  0
LINE
  5
223
100
AcDbEntity
  8
0
100
AcDbLine
 62
7
  6
CONTINUOUS
 10
116.2252530781
 20
41.2630890844
 11
115.2680915241
 21
41.5526434998
  0
LINE
  5
224
100
AcDbEntity
  8
0
100
AcDbLine
 62
7
  6
CONTINUOUS
 10
107.3674103064
 20
35.8558016709
 11
108.6119304718
 21
35.3773207989
  0
LINE
  5
225
100
AcDbEntity
  8
0
100
AcDbLine
 62
7
  6
CONTINUOUS
 10
92.9492508125
 20
43.3491503815
 11
93.7366352111
 21
43.0275286816
  0
LINE
  5
226
100
AcDbEntity
  8
0
100
AcDbLine
 62
7
  6
CONTINUOUS
 10
95.094351834
 20
48.0574553917
 11
94.3069674436
 21
48.379077104
  0
LINE
  5
227
100
AcDbEntity
  8
0
100
AcDbLine
 62
7
  6
CONTINUOUS
 10
92.2564596482
 20
43.8122800455
 11
92.9492508125
 21
43.3491503815
  0
LINE
  5
228
100
AcDbEntity
  8
0
100
AcDbLine
 62
7
  6
CONTINUOUS
 10
93.5607885613
 20
43.9640554021
 11
92.5908860054
 21
44.6124335397
  0
LINE
  5
229
100
AcDbEntity
  8
0
100
AcDbLine
 62
7
  6
CONTINUOUS
 10
94.4828141514
 20
47.4425504702
 11
95.4527167073
 21
46.7941723327
  0
LINE
  5
22A
100
AcDbEntity
  8
0
100
AcDbLine
 62
7
  6
CONTINUOUS
 10
95.7871429983
 20
47.5943257277
 11
95.094351834
 21
48.0574553917
  0
LINE
  5
22B
100
AcDbEntity
  8
0
100
AcDbLine
 62
7
  6
CONTINUOUS
 10
87.7260779122
 20
47.110898193
 11
88.5130442518
 21
46.4939022608
  0
LINE
  5
22C
100
AcDbEntity
  8
0
100
AcDbLine
 62
7
  6
CONTINUOUS
 10
91.6582680608
 20
44.4169134335
 11
92.2564596482
 21
43.8122800455
  0
LINE
  5
22D
100
AcDbEntity
  8
0
100
AcDbLine
 62
7
  6
CONTINUOUS
 10
74.5546107568
 20
60.1219351972
 11
75.2079775354
 21
59.3648936841
  0
LINE
  5
22E
100
AcDbEntity
  8
0
100
AcDbLine
 62
7
  6
CONTINUOUS
 10
78.257022087
 20
55.8320337709
 11
78.9103888657
 21
55.0749922577
  0
LINE
  5
22F
100
AcDbEntity
  8
0
100
AcDbLine
 62
7
  6
CONTINUOUS
 10
69.4101600585
 20
67.4898638898
 11
70.1509685744
 21
66.3812691866
  0
LINE
  5
230
100
AcDbEntity
  8
0
100
AcDbLine
 62
7
  6
CONTINUOUS
 10
71.6325845464
 20
64.164081366
 11
72.3733930623
 21
63.0554866628
  0
LINE
  5
231
100
AcDbEntity
  8
RUNDUNGEN
100
AcDbLine
 62
7
  6
CONTINUOUS
 10
52.068757534
 20
74.7055454619
 11
37.9246622286
 21
113.9922815246
  0
LINE
  5
232
100
AcDbEntity
  8
0
100
AcDbLine
 62
7
  6
CONTINUOUS
 10
167.5615855862
 20
45.5593607896
 11
166.734949477
 21
45.3591581693
  0
LINE
  5
233
100
AcDbEntity
  8
0
100
AcDbLine
 62
7
  6
CONTINUOUS
 10
167.1691189707
 20
44.4347651321
 11
167.8449015556
 21
44.5641147758
  0
LINE
  5
234
100
AcDbEntity
  8
0
100
AcDbLine
 62
7
  6
CONTINUOUS
 10
153.4812516853
 20
40.3528017246
 11
152.6309325121
 21
40.3336797553
  0
LINE
  5
235
100
AcDbEntity
  8
0
100
AcDbLine
 62
7
  6
CONTINUOUS
 10
94.6759246135
 20
43.8328189964
 11
94.0710583887
 21
43.8276842834
  0
LINE
  5
236
100
AcDbEntity
  8
0
100
AcDbLine
 62
7
  6
CONTINUOUS
 10
93.3676780992
 20
47.5737868759
 11
93.972544324
 21
47.5789215889
  0
LINE
  5
237
100
AcDbEntity
  8
0
100
AcDbLine
 62
7
  6
CONTINUOUS
 10
94.3069674436
 20
48.379077104
 11
93.0972349941
 21
48.3688076781
  0
LINE
  5
238
100
AcDbEntity
  8
0
100
AcDbLine
 62
7
  6
CONTINUOUS
 10
94.9758171193
 20
49.9793864106
 11
95.5806833441
 21
49.9845211235
  0
LINE
  5
239
100
AcDbEntity
  8
0
100
AcDbLine
 62
7
  6
CONTINUOUS
 10
168.309736659
 20
45.5346481705
 11
167.5615855862
 21
45.5593607896
  0
LINE
  5
23A
100
AcDbEntity
  8
0
100
AcDbLine
 62
7
  6
CONTINUOUS
 10
93.7366352111
 20
43.0275286816
 11
94.713212421
 21
42.9889186698
  0
LINE
  5
23B
100
AcDbEntity
  8
0
100
AcDbLine
 62
7
  6
CONTINUOUS
 10
95.9151064637
 20
50.7846766386
 11
94.9385292787
 21
50.8232866876
  0
LINE
  5
23C
100
AcDbEntity
  8
0
100
AcDbLine
 62
7
  6
CONTINUOUS
 10
152.9824564427
 20
39.540888909
 11
153.5077727208
 21
39.4859781933
  0
LINE
  5
23D
100
AcDbEntity
  8
0
100
AcDbLine
 62
7
  6
CONTINUOUS
 10
167.8449015556
 20
44.5641147758
 11
168.4421921985
 21
44.4685459367
  0
LINE
  5
23E
100
AcDbEntity
  8
0
100
AcDbLine
 62
7
  6
CONTINUOUS
 10
93.972544324
 20
47.5789215889
 11
94.4828141514
 21
47.4425504702
  0
LINE
  5
23F
100
AcDbEntity
  8
0
100
AcDbLine
 62
7
  6
CONTINUOUS
 10
95.5806833441
 20
49.9845211235
 11
96.0909531715
 21
49.8481500048
  0
LINE
  5
240
100
AcDbEntity
  8
0
100
AcDbLine
 62
7
  6
CONTINUOUS
 10
160.2913714865
 20
35.4350825768
 11
159.707981441
 21
35.5949126465
  0
LINE
  5
241
100
AcDbEntity
  8
0
100
AcDbLine
 62
7
  6
CONTINUOUS
 10
113.9718623328
 20
41.8874857998
 11
113.0384713186
 21
42.246346796
  0
LINE
  5
242
100
AcDbEntity
  8
0
100
AcDbLine
 62
7
  6
CONTINUOUS
 10
108.6826453987
 20
43.9210319012
 11
107.7492543845
 21
44.2798928974
  0
LINE
  5
243
100
AcDbEntity
  8
0
100
AcDbLine
 62
7
  6
CONTINUOUS
 10
96.7024908541
 20
50.4630549264
 11
95.9151064637
 21
50.7846766386
  0
LINE
  5
244
100
AcDbEntity
  8
0
100
AcDbLine
 62
7
  6
CONTINUOUS
 10
122.1669803848
 20
39.5946852885
 11
121.3922885008
 21
39.9457705074
  0
LINE
  5
245
100
AcDbEntity
  8
0
100
AcDbLine
 62
7
  6
CONTINUOUS
 10
121.3657222902
 20
39.0789483594
 11
121.8154151378
 21
38.8019127632
  0
LINE
  5
246
100
AcDbEntity
  8
0
100
AcDbLine
 62
7
  6
CONTINUOUS
 10
97.4631830705
 20
47.7023566198
 11
98.1559710635
 21
47.2392290759
  0
LINE
  5
247
100
AcDbEntity
  8
0
100
AcDbLine
 62
7
  6
CONTINUOUS
 10
96.0909531715
 20
49.8481500048
 11
96.9223000316
 21
49.2923961041
  0
LINE
  5
248
100
AcDbEntity
  8
0
100
AcDbLine
 62
7
  6
CONTINUOUS
 10
97.2567231513
 20
50.0925516192
 11
96.7024908541
 21
50.4630549264
  0
LINE
  5
249
100
AcDbEntity
  8
0
100
AcDbLine
 62
7
  6
CONTINUOUS
 10
93.4490117095
 20
52.7896329775
 11
92.6620453699
 21
53.4066289097
  0
LINE
  5
24A
100
AcDbEntity
  8
0
100
AcDbLine
 62
7
  6
CONTINUOUS
 10
96.3853345939
 20
46.9896923521
 11
95.7871429983
 21
47.5943257277
  0
LINE
  5
24B
100
AcDbEntity
  8
0
100
AcDbLine
 62
7
  6
CONTINUOUS
 10
97.8549147469
 20
49.4879182436
 11
97.2567231513
 21
50.0925516192
  0
LINE
  5
24C
100
AcDbEntity
  8
0
100
AcDbLine
 62
7
  6
CONTINUOUS
 10
78.0428564161
 20
61.8115437686
 11
81.0919009677
 21
58.2786838554
  0
LINE
  5
24D
100
AcDbEntity
  8
0
100
AcDbLine
 62
7
  6
CONTINUOUS
 10
81.8650496549
 20
58.9459519753
 11
78.8160051033
 21
62.4788118885
  0
LINE
  5
24E
100
AcDbEntity
  8
0
100
AcDbLine
 62
7
  6
CONTINUOUS
 10
84.9667209705
 20
60.3019264868
 11
84.3133541919
 21
61.0589679999
  0
LINE
  5
24F
100
AcDbEntity
  8
0
100
AcDbLine
 62
7
  6
CONTINUOUS
 10
81.2643096403
 20
64.5918279132
 11
80.6109428617
 21
65.3488694263
  0
LINE
  5
250
100
AcDbEntity
  8
0
100
AcDbLine
 62
7
  6
CONTINUOUS
 10
92.5908860054
 20
44.6124335397
 11
92.2698089727
 21
45.0318163217
  0
LINE
  5
251
100
AcDbEntity
  8
0
100
AcDbLine
 62
7
  6
CONTINUOUS
 10
95.4527167073
 20
46.7941723327
 11
95.77379374
 21
46.3747895506
  0
LINE
  5
252
100
AcDbEntity
  8
0
100
AcDbLine
 62
7
  6
CONTINUOUS
 10
96.9223000316
 20
49.2923961041
 11
97.2433770643
 21
48.873013322
  0
LINE
  5
253
100
AcDbEntity
  8
0
100
AcDbLine
 62
7
  6
CONTINUOUS
 10
79.7657660959
 20
66.3917417282
 11
79.2101599739
 21
67.2231873591
  0
LINE
  5
254
100
AcDbEntity
  8
0
100
AcDbLine
 62
7
  6
CONTINUOUS
 10
77.913745866
 20
69.1632269004
 11
77.1729373501
 21
70.2718216036
  0
LINE
  5
255
100
AcDbEntity
  8
0
100
AcDbLine
 62
7
  6
CONTINUOUS
 10
75.8765232422
 20
72.2118611449
 11
75.3209171202
 21
73.0433067758
  0
LINE
  5
256
100
AcDbEntity
  8
0
100
AcDbLine
 62
7
  6
CONTINUOUS
 10
65.7365186905
 20
74.200707796
 11
66.3357981736
 21
73.0096403474
  0
LINE
  5
257
100
AcDbEntity
  8
0
100
AcDbLine
 62
7
  6
CONTINUOUS
 10
74.680762257
 20
74.2231825635
 11
74.2313026179
 21
75.1164832031
  0
LINE
  5
258
100
AcDbEntity
  8
0
100
AcDbLine
 62
7
  6
CONTINUOUS
 10
72.1338243734
 20
79.2852193795
 11
71.6843647342
 21
80.1785200191
  0
LINE
  5
259
100
AcDbEntity
  8
0
100
AcDbLine
 62
7
  6
CONTINUOUS
 10
91.2492692848
 20
45.3045585096
 11
91.6582680608
 21
44.4169134335
  0
LINE
  5
25A
100
AcDbEntity
  8
0
100
AcDbLine
 62
7
  6
CONTINUOUS
 10
90.2997701608
 20
52.0143489455
 11
91.8218807964
 21
52.3350152984
  0
LINE
  5
25B
100
AcDbEntity
  8
0
100
AcDbLine
 62
7
  6
CONTINUOUS
 10
92.6620453699
 20
53.4066289097
 11
91.1399350285
 21
53.085962932
  0
LINE
  5
25C
100
AcDbEntity
  8
0
100
AcDbLine
 62
7
  6
CONTINUOUS
 10
92.9013675702
 20
47.4760279262
 11
93.3676780992
 21
47.5737868759
  0
LINE
  5
25D
100
AcDbEntity
  8
RUNDUNGEN
100
AcDbLine
 62
7
  6
CONTINUOUS
 10
217.3463382541
 20
77.9424015399
 11
196.9610353392
 21
75.2586254971
  0
LINE
  5
25E
100
AcDbEntity
  8
0
100
AcDbLine
 62
7
  6
CONTINUOUS
 10
169.2026039907
 20
45.2018012956
 11
168.309736659
 21
45.5346481705
  0
LINE
  5
25F
100
AcDbEntity
  8
0
100
AcDbLine
 62
7
  6
CONTINUOUS
 10
154.2446858431
 20
40.0029861704
 11
153.4812516853
 21
40.3528017246
  0
LINE
  5
260
100
AcDbEntity
  8
0
100
AcDbLine
 62
7
  6
CONTINUOUS
 10
158.8724792498
 20
34.9485182741
 11
159.7239474911
 21
34.5207320782
  0
LINE
  5
261
100
AcDbEntity
  8
0
100
AcDbLine
 62
7
  6
CONTINUOUS
 10
153.5077727208
 20
39.4859781933
 11
153.908392048
 21
39.2280896973
  0
LINE
  5
262
100
AcDbEntity
  8
BEZUGSACHSEN
100
AcDbLine
 62
7
  6
CONTINUOUS
 10
57.3177693007
 20
125.5528792583
 11
98.1409826067
 21
79.8945998677
  0
LINE
  5
263
100
AcDbEntity
  8
RUNDUNGEN
100
AcDbLine
 62
7
  6
CONTINUOUS
 10
57.3177693007
 20
125.5528792583
 11
98.1409826067
 21
79.8945998677
  0
LINE
  5
264
100
AcDbEntity
  8
0
100
AcDbLine
 62
7
  6
CONTINUOUS
 10
122.7035538979
 20
38.9487042514
 11
122.1669803848
 21
39.5946852885
  0
LINE
  5
265
100
AcDbEntity
  8
0
100
AcDbLine
 62
7
  6
CONTINUOUS
 10
121.8154151378
 20
38.8019127632
 11
122.0647953214
 21
38.395942511
  0
LINE
  5
266
100
AcDbEntity
  8
0
100
AcDbLine
 62
7
  6
CONTINUOUS
 10
96.7943333948
 20
46.1020473132
 11
96.3853345939
 21
46.9896923521
  0
LINE
  5
267
100
AcDbEntity
  8
0
100
AcDbLine
 62
7
  6
CONTINUOUS
 10
98.2639167191
 20
48.6002710846
 11
97.8549147469
 21
49.4879182436
  0
LINE
  5
268
100
AcDbEntity
  8
0
100
AcDbLine
 62
7
  6
CONTINUOUS
 10
92.2698089727
 20
45.0318163217
 11
92.0433283374
 21
45.5927049354
  0
LINE
  5
269
100
AcDbEntity
  8
0
100
AcDbLine
 62
7
  6
CONTINUOUS
 10
95.77379374
 20
46.3747895506
 11
96.0002743753
 21
45.8139009369
  0
LINE
  5
26A
100
AcDbEntity
  8
0
100
AcDbLine
 62
7
  6
CONTINUOUS
 10
97.2433770643
 20
48.873013322
 11
97.4698576996
 21
48.3121247084
  0
LINE
  5
26B
100
AcDbEntity
  8
0
100
AcDbLine
 62
7
  6
CONTINUOUS
 10
91.2119814773
 20
46.1484588361
 11
91.2492692848
 21
45.3045585096
  0
LINE
  5
26C
100
AcDbEntity
  8
0
100
AcDbLine
 62
7
  6
CONTINUOUS
 10
92.0433283374
 20
45.5927049354
 11
92.0499998615
 21
46.2024752431
  0
LINE
  5
26D
100
AcDbEntity
  8
BEZUGSACHSEN
100
AcDbLine
 62
7
  6
CONTINUOUS
 10
98.6734769362
 20
282.30567125
 11
98.6602585905
 21
281.9455408047
  0
LINE
  5
26E
100
AcDbEntity
  8
RUNDUNGEN
100
AcDbLine
 62
7
  6
CONTINUOUS
 10
199.5634275632
 20
84.6788975783
 11
213.9462549627
 21
86.5724327278
  0
LINE
  5
26F
100
AcDbEntity
  8
0
100
AcDbLine
 62
7
  6
CONTINUOUS
 10
168.4421921985
 20
44.4685459367
 11
168.9609911022
 21
44.1480581832
  0
LINE
  5
270
100
AcDbEntity
  8
0
100
AcDbLine
 62
7
  6
CONTINUOUS
 10
159.707981441
 20
35.5949126465
 11
159.2270307577
 21
35.9698135078
  0
LINE
  5
271
100
AcDbEntity
  8
0
100
AcDbLine
 62
7
  6
CONTINUOUS
 10
154.8834156111
 20
39.4501911414
 11
154.2446858431
 21
40.0029861704
  0
LINE
  5
272
100
AcDbEntity
  8
0
100
AcDbLine
 62
7
  6
CONTINUOUS
 10
158.3363155638
 20
35.4844282771
 11
158.8724792498
 21
34.9485182741
  0
LINE
  5
273
100
AcDbEntity
  8
0
100
AcDbLine
 62
7
  6
CONTINUOUS
 10
123.0398073082
 20
38.1737902532
 11
122.7035538979
 21
38.9487042514
  0
LINE
  5
274
100
AcDbEntity
  8
0
100
AcDbLine
 62
7
  6
CONTINUOUS
 10
96.0002743753
 20
45.8139009369
 11
96.0881993148
 21
45.34563656
  0
LINE
  5
275
100
AcDbEntity
  8
0
100
AcDbLine
 62
7
  6
CONTINUOUS
 10
96.9262176328
 20
45.3996528679
 11
96.7943333948
 21
46.1020473132
  0
LINE
  5
276
100
AcDbEntity
  8
0
100
AcDbLine
 62
7
  6
CONTINUOUS
 10
98.3012045597
 20
47.7563708076
 11
98.2639167191
 21
48.6002710846
  0
LINE
  5
277
100
AcDbEntity
  8
BEZUGSACHSEN
100
AcDbLine
 62
7
  6
CONTINUOUS
 10
98.6602585905
 20
244.2275018126
 11
98.6602585905
 21
281.9452941262
  0
LINE
  5
278
100
AcDbEntity
  8
RUNDUNGEN
100
AcDbLine
 62
7
  6
CONTINUOUS
 10
98.6602585905
 20
236.1632542396
 11
98.6602585905
 21
281.945541883
  0
LINE
  5
279
100
AcDbEntity
  8
0
100
AcDbLine
 62
7
  6
CONTINUOUS
 10
97.4698576996
 20
48.3121247084
 11
97.4631830705
 21
47.7023566198
  0
LINE
  5
27A
100
AcDbEntity
  8
0
100
AcDbLine
 62
7
  6
CONTINUOUS
 10
66.3357981736
 20
73.0096403474
 11
74.680762257
 21
74.2231825635
  0
LINE
  5
27B
100
AcDbEntity
  8
0
100
AcDbLine
 62
7
  6
CONTINUOUS
 10
74.2313026179
 20
75.1164832031
 11
66.9484654125
 21
74.0641967872
  0
LINE
  5
27C
100
AcDbEntity
  8
RUNDUNGEN
100
AcDbLine
 62
7
  6
CONTINUOUS
 10
226.1075964153
 20
96.3877558504
 11
225.6602585905
 21
96.3877558504
  0
LINE
  5
27D
100
AcDbEntity
  8
0
100
AcDbLine
 62
7
  6
CONTINUOUS
 10
169.793764274
 20
44.7272484675
 11
169.2026039907
 21
45.2018012956
  0
LINE
  5
27E
100
AcDbEntity
  8
0
100
AcDbLine
 62
7
  6
CONTINUOUS
 10
156.6827940858
 20
33.0517268239
 11
154.3507552133
 21
36.5356881912
  0
LINE
  5
27F
100
AcDbEntity
  8
0
100
AcDbLine
 62
7
  6
CONTINUOUS
 10
153.4513406434
 20
35.9816638716
 11
155.5452690752
 21
32.7926090373
  0
LINE
  5
280
100
AcDbEntity
  8
0
100
AcDbLine
 62
7
  6
CONTINUOUS
 10
159.2270307577
 20
35.9698135078
 11
158.8485266146
 21
36.5597877482
  0
LINE
  5
281
100
AcDbEntity
  8
0
100
AcDbLine
 62
7
  6
CONTINUOUS
 10
153.908392048
 20
39.2280896973
 11
154.1843069854
 21
38.7672217265
  0
LINE
  5
282
100
AcDbEntity
  8
0
100
AcDbLine
 62
7
  6
CONTINUOUS
 10
155.1593305485
 20
38.9893231706
 11
154.8834156111
 21
39.4501911414
  0
LINE
  5
283
100
AcDbEntity
  8
0
100
AcDbLine
 62
7
  6
CONTINUOUS
 10
122.0647953214
 20
38.395942511
 11
122.1138554024
 21
37.8610392977
  0
LINE
  5
284
100
AcDbEntity
  8
0
100
AcDbLine
 62
7
  6
CONTINUOUS
 10
123.0888673891
 20
37.6388870398
 11
123.0398073082
 21
38.1737902532
  0
LINE
  5
285
100
AcDbEntity
  8
0
100
AcDbLine
 62
7
  6
CONTINUOUS
 10
108.3561649444
 20
36.5698123145
 11
108.6826453987
 21
43.9210319012
  0
LINE
  5
286
100
AcDbEntity
  8
0
100
AcDbLine
 62
7
  6
CONTINUOUS
 10
107.7492543845
 20
44.2798928974
 11
107.3674103064
 21
35.8558016709
  0
LINE
  5
287
100
AcDbEntity
  8
0
100
AcDbLine
 62
7
  6
CONTINUOUS
 10
91.4078457961
 20
47.0412408071
 11
91.2119814773
 21
46.1484588361
  0
LINE
  5
288
100
AcDbEntity
  8
0
100
AcDbLine
 62
7
  6
CONTINUOUS
 10
96.7303533802
 20
44.506870996
 11
96.9262176328
 21
45.3996528679
  0
LINE
  5
289
100
AcDbEntity
  8
0
100
AcDbLine
 62
7
  6
CONTINUOUS
 10
92.0499998615
 20
46.2024752431
 11
92.1952333578
 21
46.7196169748
  0
LINE
  5
28A
100
AcDbEntity
  8
0
100
AcDbLine
 62
7
  6
CONTINUOUS
 10
96.0881993148
 20
45.34563656
 11
95.9429656861
 21
44.8284946301
  0
LINE
  5
28B
100
AcDbEntity
  8
0
100
AcDbLine
 62
7
  6
CONTINUOUS
 10
98.1559710635
 20
47.2392290759
 11
98.3012045597
 21
47.7563708076
  0
LINE
  5
28C
100
AcDbEntity
  8
0
100
AcDbLine
 62
7
  6
CONTINUOUS
 10
66.9484654125
 20
74.0641967872
 11
72.1338243734
 21
79.2852193795
  0
LINE
  5
28D
100
AcDbEntity
  8
0
100
AcDbLine
 62
7
  6
CONTINUOUS
 10
71.6843647342
 20
80.1785200191
 11
65.7365186905
 21
74.200707796
  0
LINE
  5
28E
100
AcDbEntity
  8
0
100
AcDbLine
 62
7
  6
CONTINUOUS
 10
168.9609911022
 20
44.1480581832
 11
169.4012909555
 21
43.602649135
  0
LINE
  5
28F
100
AcDbEntity
  8
0
100
AcDbLine
 62
7
  6
CONTINUOUS
 10
170.3064259123
 20
44.0277734816
 11
169.793764274
 21
44.7272484675
  0
LINE
  5
290
100
AcDbEntity
  8
0
100
AcDbLine
 62
7
  6
CONTINUOUS
 10
157.9025984568
 20
36.2354115465
 11
158.3363155638
 21
35.4844282771
  0
LINE
  5
291
100
AcDbEntity
  8
RUNDUNGEN
100
AcDbLine
 62
7
  6
CONTINUOUS
 10
127.0602585905
 20
241.4874048498
 11
127.0602585905
 21
281.8877558504
  0
LINE
  5
292
100
AcDbEntity
  8
RUNDUNGEN
100
AcDbLine
 62
7
  6
CONTINUOUS
 10
130.1602585905
 20
41.3870523538
 11
130.1602585905
 21
27.5412550686
  0
LINE
  5
293
100
AcDbEntity
  8
0
100
AcDbLine
 62
7
  6
CONTINUOUS
 10
117.4922368343
 20
40.8343803862
 11
115.7150187717
 21
33.034284492
  0
LINE
  5
294
100
AcDbEntity
  8
0
100
AcDbLine
 62
7
  6
CONTINUOUS
 10
116.6900307584
 20
32.8121322342
 11
117.4841069253
 21
36.297281513
  0
LINE
  5
295
100
AcDbEntity
  8
0
100
AcDbLine
 62
7
  6
CONTINUOUS
 10
117.7109857999
 20
37.2930383169
 11
118.2781830923
 21
39.7824307917
  0
LINE
  5
296
100
AcDbEntity
  8
0
100
AcDbLine
 62
7
  6
CONTINUOUS
 10
91.9314650143
 20
48.1244060637
 11
91.4078457961
 21
47.0412408071
  0
LINE
  5
297
100
AcDbEntity
  8
0
100
AcDbLine
 62
7
  6
CONTINUOUS
 10
73.5597380834
 20
64.6500678257
 11
77.913745866
 21
69.1632269004
  0
LINE
  5
298
100
AcDbEntity
  8
0
100
AcDbLine
 62
7
  6
CONTINUOUS
 10
76.2696378146
 20
68.8663830603
 11
71.6325845464
 21
64.164081366
  0
LINE
  5
299
100
AcDbEntity
  8
0
100
AcDbLine
 62
7
  6
CONTINUOUS
 10
75.3209171202
 20
73.0433067758
 11
69.4101600585
 21
67.4898638898
  0
LINE
  5
29A
100
AcDbEntity
  8
0
100
AcDbLine
 62
7
  6
CONTINUOUS
 10
71.3373135956
 20
67.9758503495
 11
75.8765232422
 21
72.2118611449
  0
LINE
  5
29B
100
AcDbEntity
  8
RUNDUNGEN
100
AcDbLine
 62
7
  6
CONTINUOUS
 10
197.6218117652
 20
178.3051612697
 11
183.640852833
 21
165.8047412729
  0
LINE
  5
29C
100
AcDbEntity
  8
RUNDUNGEN
100
AcDbLine
 62
7
  6
CONTINUOUS
 10
187.7759151663
 20
62.2720992746
 11
197.6419631862
 21
52.4060512547
  0
LINE
  5
29D
100
AcDbEntity
  8
0
100
AcDbLine
 62
7
  6
CONTINUOUS
 10
163.1144096499
 20
43.6586607831
 11
166.5154044222
 21
36.4175811289
  0
LINE
  5
29E
100
AcDbEntity
  8
0
100
AcDbLine
 62
7
  6
CONTINUOUS
 10
166.9863698347
 20
37.7670986205
 11
164.4537141003
 21
43.1593920925
  0
LINE
  5
29F
100
AcDbEntity
  8
0
100
AcDbLine
 62
7
  6
CONTINUOUS
 10
169.4012909555
 20
43.602649135
 11
170.486714791
 21
41.2916663263
  0
LINE
  5
2A0
100
AcDbEntity
  8
0
100
AcDbLine
 62
7
  6
CONTINUOUS
 10
171.3918497478
 20
41.7167906729
 11
170.3064259123
 21
44.0277734816
  0
LINE
  5
2A1
100
AcDbEntity
  8
0
100
AcDbLine
 62
7
  6
CONTINUOUS
 10
156.1909963428
 20
41.2266921202
 11
157.9025984568
 21
36.2354115465
  0
LINE
  5
2A2
100
AcDbEntity
  8
0
100
AcDbLine
 62
7
  6
CONTINUOUS
 10
158.8485266146
 20
36.5597877482
 11
157.1369245006
 21
41.551068322
  0
LINE
  5
2A3
100
AcDbEntity
  8
0
100
AcDbLine
 62
7
  6
CONTINUOUS
 10
160.9206371318
 20
42.8485731292
 11
162.6322392458
 21
37.8572925554
  0
LINE
  5
2A4
100
AcDbEntity
  8
0
100
AcDbLine
 62
7
  6
CONTINUOUS
 10
163.5781674036
 20
38.1816687572
 11
161.8665652896
 21
43.1729493309
  0
LINE
  5
2A5
100
AcDbEntity
  8
0
100
AcDbLine
 62
7
  6
CONTINUOUS
 10
148.7308382598
 20
39.4452739791
 11
150.5076498122
 21
31.6450854745
  0
LINE
  5
2A6
100
AcDbEntity
  8
0
100
AcDbLine
 62
7
  6
CONTINUOUS
 10
151.4826733753
 20
31.8671869186
 11
150.6887788406
 21
35.3523775765
  0
LINE
  5
2A7
100
AcDbEntity
  8
0
100
AcDbLine
 62
7
  6
CONTINUOUS
 10
150.4619518609
 20
36.348146203
 11
149.8948843059
 21
38.8375682343
  0
LINE
  5
2A8
100
AcDbEntity
  8
0
100
AcDbLine
 62
7
  6
CONTINUOUS
 10
154.1843069854
 20
38.7672217265
 11
154.2977205811
 21
38.2693369483
  0
LINE
  5
2A9
100
AcDbEntity
  8
0
100
AcDbLine
 62
7
  6
CONTINUOUS
 10
155.3105486408
 20
38.3254769546
 11
155.1593305485
 21
38.9893231706
  0
LINE
  5
2AA
100
AcDbEntity
  8
RUNDUNGEN
100
AcDbLine
 62
7
  6
CONTINUOUS
 10
142.1602585905
 20
27.3545252393
 11
142.1602585905
 21
41.3870523538
  0
LINE
  5
2AB
100
AcDbEntity
  8
RUNDUNGEN
100
AcDbLine
 62
7
  6
CONTINUOUS
 10
145.2602585905
 20
281.8877558504
 11
145.2602585905
 21
241.4874087871
  0
LINE
  5
2AC
100
AcDbEntity
  8
0
100
AcDbLine
 62
7
  6
CONTINUOUS
 10
122.1138554024
 20
37.8610392977
 11
122.0004158591
 21
37.3631604308
  0
LINE
  5
2AD
100
AcDbEntity
  8
0
100
AcDbLine
 62
7
  6
CONTINUOUS
 10
122.9376147001
 20
36.9750487056
 11
123.0888673891
 21
37.6388870398
  0
LINE
  5
2AE
100
AcDbEntity
  8
0
100
AcDbLine
 62
7
  6
CONTINUOUS
 10
115.2680915241
 20
41.5526434998
 11
112.9516562004
 21
33.8953510677
  0
LINE
  5
2AF
100
AcDbEntity
  8
0
100
AcDbLine
 62
7
  6
CONTINUOUS
 10
113.9088177545
 20
33.6057966522
 11
116.2252530781
 21
41.2630890844
  0
LINE
  5
2B0
100
AcDbEntity
  8
0
100
AcDbLine
 62
7
  6
CONTINUOUS
 10
92.5936397958
 20
49.1149468853
 11
91.9314650143
 21
48.1244060637
  0
LINE
  5
2B1
100
AcDbEntity
  8
0
100
AcDbLine
 62
7
  6
CONTINUOUS
 10
93.0972349941
 20
48.3688076781
 11
93.2864277888
 21
48.6518193414
  0
LINE
  5
2B2
100
AcDbEntity
  8
0
100
AcDbLine
 62
7
  6
CONTINUOUS
 10
92.1952333578
 20
46.7196169748
 11
92.4790225498
 21
47.1441344698
  0
LINE
  5
2B3
100
AcDbEntity
  8
0
100
AcDbLine
 62
7
  6
CONTINUOUS
 10
95.9429656861
 20
44.8284946301
 11
95.659176494
 21
44.4039771351
  0
LINE
  5
2B4
100
AcDbEntity
  8
0
100
AcDbLine
 62
7
  6
CONTINUOUS
 10
96.2573712609
 20
43.7993416395
 11
96.7303533802
 21
44.506870996
  0
LINE
  5
2B5
100
AcDbEntity
  8
0
100
AcDbLine
 62
7
  6
CONTINUOUS
 10
91.1399350285
 20
53.085962932
 11
90.2997701608
 21
52.0143489455
  0
LINE
  5
2B6
100
AcDbEntity
  8
0
100
AcDbLine
 62
7
  6
CONTINUOUS
 10
91.8218807964
 20
52.3350152984
 11
87.7260779122
 21
47.110898193
  0
LINE
  5
2B7
100
AcDbEntity
  8
0
100
AcDbLine
 62
7
  6
CONTINUOUS
 10
88.5130442518
 20
46.4939022608
 11
93.4490117095
 21
52.7896329775
  0
LINE
  5
2B8
100
AcDbEntity
  8
RUNDUNGEN
100
AcDbLine
 62
7
  6
CONTINUOUS
 10
198.5138527856
 20
163.0660962208
 11
208.2925476733
 21
172.1212669721
  0
LINE
  5
2B9
100
AcDbEntity
  8
0
100
AcDbLine
 62
7
  6
CONTINUOUS
 10
80.6109428617
 20
65.3488694263
 11
74.5546107568
 21
60.1219351972
  0
LINE
  5
2BA
100
AcDbEntity
  8
0
100
AcDbLine
 62
7
  6
CONTINUOUS
 10
75.2079775354
 20
59.3648936841
 11
78.0428564161
 21
61.8115437686
  0
LINE
  5
2BB
100
AcDbEntity
  8
0
100
AcDbLine
 62
7
  6
CONTINUOUS
 10
78.8160051033
 20
62.4788118885
 11
81.2643096403
 21
64.5918279132
  0
LINE
  5
2BC
100
AcDbEntity
  8
0
100
AcDbLine
 62
7
  6
CONTINUOUS
 10
84.3133541919
 20
61.0589679999
 11
81.8650496549
 21
58.9459519753
  0
LINE
  5
2BD
100
AcDbEntity
  8
0
100
AcDbLine
 62
7
  6
CONTINUOUS
 10
81.0919009677
 20
58.2786838554
 11
78.257022087
 21
55.8320337709
  0
LINE
  5
2BE
100
AcDbEntity
  8
0
100
AcDbLine
 62
7
  6
CONTINUOUS
 10
78.9103888657
 20
55.0749922577
 11
84.9667209705
 21
60.3019264868
  0
LINE
  5
2BF
100
AcDbEntity
  8
RUNDUNGEN
100
AcDbLine
 62
7
  6
CONTINUOUS
 10
62.2673258434
 20
86.9929278078
 11
67.5668680422
 21
88.9218034234
  0
LINE
  5
2C0
100
AcDbEntity
  8
RUNDUNGEN
100
AcDbLine
 62
7
  6
CONTINUOUS
 10
225.6602585905
 20
131.3877558504
 11
226.1075964153
 21
131.3877558504
  0
LINE
  5
2C1
100
AcDbEntity
  8
RUNDUNGEN
100
AcDbLine
 62
7
  6
CONTINUOUS
 10
194.972553895
 20
70.4580066259
 11
204.1355384587
 21
58.5165726515
  0
LINE
  5
2C2
100
AcDbEntity
  8
0
100
AcDbLine
 62
7
  6
CONTINUOUS
 10
171.6028041349
 20
40.8756101653
 11
171.3918497478
 21
41.7167906729
  0
LINE
  5
2C3
100
AcDbEntity
  8
0
100
AcDbLine
 62
7
  6
CONTINUOUS
 10
163.6965799359
 20
37.3225617371
 11
163.5781674036
 21
38.1816687572
  0
LINE
  5
2C4
100
AcDbEntity
  8
0
100
AcDbLine
 62
7
  6
CONTINUOUS
 10
162.6322392458
 20
37.8572925554
 11
162.6954388142
 21
37.1591945642
  0
LINE
  5
2C5
100
AcDbEntity
  8
0
100
AcDbLine
 62
7
  6
CONTINUOUS
 10
154.2977205811
 20
38.2693369483
 11
154.2486326234
 21
37.7344362925
  0
LINE
  5
2C6
100
AcDbEntity
  8
0
100
AcDbLine
 62
7
  6
CONTINUOUS
 10
155.2614606831
 20
37.7905762988
 11
155.3105486408
 21
38.3254769546
  0
LINE
  5
2C7
100
AcDbEntity
  8
0
100
AcDbLine
 62
7
  6
CONTINUOUS
 10
93.3943702731
 20
50.0128634702
 11
92.5936397958
 21
49.1149468853
  0
LINE
  5
2C8
100
AcDbEntity
  8
0
100
AcDbLine
 62
7
  6
CONTINUOUS
 10
93.2864277888
 20
48.6518193414
 11
93.9925650401
 21
49.4082279746
  0
LINE
  5
2C9
100
AcDbEntity
  8
0
100
AcDbLine
 62
7
  6
CONTINUOUS
 10
79.2101599739
 20
67.2231873591
 11
73.5597380834
 21
64.6500678257
  0
LINE
  5
2CA
100
AcDbEntity
  8
0
100
AcDbLine
 62
7
  6
CONTINUOUS
 10
72.3733930623
 20
63.0554866628
 11
79.7657660959
 21
66.3917417282
  0
LINE
  5
2CB
100
AcDbEntity
  8
0
100
AcDbLine
 62
7
  6
CONTINUOUS
 10
70.1509685744
 20
66.3812691866
 11
76.2696378146
 21
68.8663830603
  0
LINE
  5
2CC
100
AcDbEntity
  8
0
100
AcDbLine
 62
7
  6
CONTINUOUS
 10
77.1729373501
 20
70.2718216036
 11
71.3373135956
 21
67.9758503495
  0
LINE
  5
2CD
100
AcDbEntity
  8
RUNDUNGEN
100
AcDbLine
 62
7
  6
CONTINUOUS
 10
215.2754056951
 20
92.0042234448
 11
204.3628777755
 21
99.6452577551
  0
LINE
  5
2CE
100
AcDbEntity
  8
RUNDUNGEN
100
AcDbLine
 62
7
  6
CONTINUOUS
 10
211.7210093489
 20
107.1932460985
 11
205.6698696683
 21
111.4302997176
  0
LINE
  5
2CF
100
AcDbEntity
  8
0
100
AcDbLine
 62
7
  6
CONTINUOUS
 10
170.486714791
 20
41.2916663263
 11
170.6253075958
 21
40.604551325
  0
LINE
  5
2D0
100
AcDbEntity
  8
RUNDUNGEN
100
AcDbLine
 62
7
  6
CONTINUOUS
 10
173.6602585905
 20
211.1548940551
 11
173.6602585905
 21
281.8877558504
  0
LINE
  5
2D1
100
AcDbEntity
  8
0
100
AcDbLine
 62
7
  6
CONTINUOUS
 10
171.5905365605
 20
40.117638836
 11
171.6028041349
 21
40.8756101653
  0
LINE
  5
2D2
100
AcDbEntity
  8
0
100
AcDbLine
 62
7
  6
CONTINUOUS
 10
163.6021200388
 20
36.570399283
 11
163.6965799359
 21
37.3225617371
  0
LINE
  5
2D3
100
AcDbEntity
  8
0
100
AcDbLine
 62
7
  6
CONTINUOUS
 10
170.6253075958
 20
40.604551325
 11
170.5406783885
 21
40.0006456097
  0
LINE
  5
2D4
100
AcDbEntity
  8
0
100
AcDbLine
 62
7
  6
CONTINUOUS
 10
122.0004158591
 20
37.3631604308
 11
121.7244769036
 21
36.9023068401
  0
LINE
  5
2D5
100
AcDbEntity
  8
0
100
AcDbLine
 62
7
  6
CONTINUOUS
 10
122.6616757447
 20
36.514195115
 11
122.9376147001
 21
36.9750487056
  0
LINE
  5
2D6
100
AcDbEntity
  8
0
100
AcDbLine
 62
7
  6
CONTINUOUS
 10
108.6119304718
 20
35.3773207989
 11
113.9718623328
 21
41.8874857998
  0
LINE
  5
2D7
100
AcDbEntity
  8
0
100
AcDbLine
 62
7
  6
CONTINUOUS
 10
113.0384713186
 20
42.246346796
 11
108.3561649444
 21
36.5698123145
  0
LINE
  5
2D8
100
AcDbEntity
  8
0
100
AcDbLine
 62
7
  6
CONTINUOUS
 10
93.9925650401
 20
49.4082279746
 11
94.414910193
 21
49.7401216292
  0
LINE
  5
2D9
100
AcDbEntity
  8
0
100
AcDbLine
 62
7
  6
CONTINUOUS
 10
92.4790225498
 20
47.1441344698
 11
92.9013675702
 21
47.4760279262
  0
LINE
  5
2DA
100
AcDbEntity
  8
0
100
AcDbLine
 62
7
  6
CONTINUOUS
 10
95.659176494
 20
44.4039771351
 11
95.2368316061
 21
44.0720838769
  0
LINE
  5
2DB
100
AcDbEntity
  8
RUNDUNGEN
100
AcDbLine
 62
7
  6
CONTINUOUS
 10
218.7390029827
 20
137.1790027637
 11
208.6723464083
 21
130.1302539458
  0
LINE
  5
2DC
100
AcDbEntity
  8
0
100
AcDbLine
 62
7
  6
CONTINUOUS
 10
94.1444702592
 20
50.5351403113
 11
93.3943702731
 21
50.0128634702
  0
LINE
  5
2DD
100
AcDbEntity
  8
0
100
AcDbLine
 62
7
  6
CONTINUOUS
 10
95.5072714736
 20
43.2770650957
 11
96.2573712609
 21
43.7993416395
  0
LINE
  5
2DE
100
AcDbEntity
  8
RUNDUNGEN
100
AcDbLine
 62
7
  6
CONTINUOUS
 10
203.9410818709
 20
145.533165641
 11
217.652248063
 21
142.5687065795
  0
LINE
  5
2DF
100
AcDbEntity
  8
RUNDUNGEN
100
AcDbLine
 62
7
  6
CONTINUOUS
 10
216.3435249064
 20
154.3813784968
 11
199.9182023091
 21
157.9326589444
  0
LINE
  5
2E0
100
AcDbEntity
  8
BEZUGSACHSEN
100
AcDbLine
 62
7
  6
CONTINUOUS
 10
174.1795345737
 20
147.8809118338
 11
101.2054836161
 21
229.497946287
  0
LINE
  5
2E1
100
AcDbEntity
  8
RUNDUNGEN
100
AcDbLine
 62
7
  6
CONTINUOUS
 10
174.1795345737
 20
147.8809118338
 11
101.2054836161
 21
229.497946287
  0
LINE
  5
2E2
100
AcDbEntity
  8
0
100
AcDbLine
 62
7
  6
CONTINUOUS
 10
162.6954388142
 20
37.1591945642
 11
162.5457659144
 21
36.5680412519
  0
LINE
  5
2E3
100
AcDbEntity
  8
0
100
AcDbLine
 62
7
  6
CONTINUOUS
 10
154.925166888
 20
37.0156798258
 11
155.2614606831
 21
37.7905762988
  0
LINE
  5
2E4
100
AcDbEntity
  8
0
100
AcDbLine
 62
7
  6
CONTINUOUS
 10
122.0229171682
 20
35.9614333746
 11
122.6616757447
 21
36.514195115
  0
LINE
  5
2E5
100
AcDbEntity
  8
RUNDUNGEN
100
AcDbLine
 62
7
  6
CONTINUOUS
 10
205.6698696683
 20
116.3452119833
 11
211.7210093489
 21
120.5822656024
  0
LINE
  5
2E6
100
AcDbEntity
  8
0
100
AcDbLine
 62
7
  6
CONTINUOUS
 10
94.414910193
 20
49.7401216292
 11
94.9758171193
 21
49.9793864106
  0
LINE
  5
2E7
100
AcDbEntity
  8
0
100
AcDbLine
 62
7
  6
CONTINUOUS
 10
95.2368316061
 20
44.0720838769
 11
94.6759246135
 21
43.8328189964
  0
LINE
  5
2E8
100
AcDbEntity
  8
0
100
AcDbLine
 62
7
  6
CONTINUOUS
 10
94.9385292787
 20
50.8232866876
 11
94.1444702592
 21
50.5351403113
  0
LINE
  5
2E9
100
AcDbEntity
  8
RUNDUNGEN
100
AcDbLine
 62
7
  6
CONTINUOUS
 10
179.4048274232
 20
166.0415718612
 11
161.2128794342
 21
186.3881584397
  0
LINE
  5
2EA
100
AcDbEntity
  8
0
100
AcDbLine
 62
7
  6
CONTINUOUS
 10
171.2765619123
 20
39.2179616074
 11
171.5905365605
 21
40.117638836
  0
LINE
  5
2EB
100
AcDbEntity
  8
RUNDUNGEN
100
AcDbLine
 62
7
  6
CONTINUOUS
 10
199.8230706041
 20
98.2138620522
 11
196.3527711242
 21
88.6792925924
  0
LINE
  5
2EC
100
AcDbEntity
  8
0
100
AcDbLine
 62
7
  6
CONTINUOUS
 10
163.1923555476
 20
35.7101131346
 11
163.6021200388
 21
36.570399283
  0
LINE
  5
2ED
100
AcDbEntity
  8
0
100
AcDbLine
 62
7
  6
CONTINUOUS
 10
170.5406783885
 20
40.0006456097
 11
170.2328341254
 21
39.4799523162
  0
LINE
  5
2EE
100
AcDbEntity
  8
0
100
AcDbLine
 62
7
  6
CONTINUOUS
 10
154.2486326234
 20
37.7344362925
 11
153.9992312827
 21
37.3284790375
  0
LINE
  5
2EF
100
AcDbEntity
  8
0
100
AcDbLine
 62
7
  6
CONTINUOUS
 10
162.5457659144
 20
36.5680412519
 11
162.1832278021
 21
36.0838349803
  0
LINE
  5
2F0
100
AcDbEntity
  8
0
100
AcDbLine
 62
7
  6
CONTINUOUS
 10
121.7244769036
 20
36.9023068401
 11
121.3238441369
 21
36.6444392231
  0
LINE
  5
2F1
100
AcDbEntity
  8
0
100
AcDbLine
 62
7
  6
CONTINUOUS
 10
94.713212421
 20
42.9889186698
 11
95.5072714736
 21
43.2770650957
  0
LINE
  5
2F2
100
AcDbEntity
  8
RUNDUNGEN
100
AcDbLine
 62
7
  6
CONTINUOUS
 10
163.4493074332
 20
191.3877558504
 11
180.9891755193
 21
191.3877558504
  0
LINE
  5
2F3
100
AcDbEntity
  8
RUNDUNGEN
100
AcDbLine
 62
7
  6
CONTINUOUS
 10
204.1325392369
 20
131.5616496487
 11
200.4880296192
 21
141.5748575281
  0
LINE
  5
2F4
100
AcDbEntity
  8
RUNDUNGEN
100
AcDbLine
 62
7
  6
CONTINUOUS
 10
216.4417386579
 20
118.1248094695
 11
216.4417386579
 21
109.6507022313
  0
LINE
  5
2F5
100
AcDbEntity
  8
RUNDUNGEN
100
AcDbLine
 62
7
  6
CONTINUOUS
 10
224.1602585905
 20
97.8877558504
 11
224.1602585905
 21
129.8877558504
  0
LINE
  5
2F6
100
AcDbEntity
  8
0
100
AcDbLine
 62
7
  6
CONTINUOUS
 10
170.8178571876
 20
38.6264121612
 11
171.2765619123
 21
39.2179616074
  0
LINE
  5
2F7
100
AcDbEntity
  8
0
100
AcDbLine
 62
7
  6
CONTINUOUS
 10
162.6721579068
 20
35.1718425834
 11
163.1923555476
 21
35.7101131346
  0
LINE
  5
2F8
100
AcDbEntity
  8
0
100
AcDbLine
 62
7
  6
CONTINUOUS
 10
154.3507552133
 20
36.5356881912
 11
154.925166888
 21
37.0156798258
  0
LINE
  5
2F9
100
AcDbEntity
  8
0
100
AcDbLine
 62
7
  6
CONTINUOUS
 10
170.2328341254
 20
39.4799523162
 11
169.701774705
 21
39.0424716601
  0
LINE
  5
2FA
100
AcDbEntity
  8
0
100
AcDbLine
 62
7
  6
CONTINUOUS
 10
162.1832278021
 20
36.0838349803
 11
161.6078243997
 21
35.7065759751
  0
LINE
  5
2FB
100
AcDbEntity
  8
0
100
AcDbLine
 62
7
  6
CONTINUOUS
 10
153.9992312827
 20
37.3284790375
 11
153.5495239977
 21
37.0514668777
  0
LINE
  5
2FC
100
AcDbEntity
  8
0
100
AcDbLine
 62
7
  6
CONTINUOUS
 10
166.734949477
 20
45.3591581693
 11
163.1144096499
 21
43.6586607831
  0
LINE
  5
2FD
100
AcDbEntity
  8
0
100
AcDbLine
 62
7
  6
CONTINUOUS
 10
164.4537141003
 20
43.1593920925
 11
167.1691189707
 21
44.4347651321
  0
LINE
  5
2FE
100
AcDbEntity
  8
0
100
AcDbLine
 62
7
  6
CONTINUOUS
 10
121.2594647806
 20
35.6116576078
 11
122.0229171682
 21
35.9614333746
  0
LINE
  5
2FF
100
AcDbEntity
  8
0
100
AcDbLine
 62
7
  6
CONTINUOUS
 10
161.8665652896
 20
43.1729493309
 11
160.9206371318
 21
42.8485731292
  0
LINE
  5
300
100
AcDbEntity
  8
0
100
AcDbLine
 62
7
  6
CONTINUOUS
 10
157.1369245006
 20
41.551068322
 11
156.1909963428
 21
41.2266921202
  0
LINE
  5
301
100
AcDbEntity
  8
RUNDUNGEN
100
AcDbLine
 62
7
  6
CONTINUOUS
 10
182.4068278139
 20
191.0316662066
 11
197.039866649
 21
183.1854996249
  0
LINE
  5
302
100
AcDbEntity
  8
RUNDUNGEN
100
AcDbLine
 62
7
  6
CONTINUOUS
 10
212.9846145117
 20
171.3192372997
 11
219.6312422214
 21
158.7127861006
  0
LINE
  5
303
100
AcDbEntity
  8
RUNDUNGEN
100
AcDbLine
 62
7
  6
CONTINUOUS
 10
208.8956585005
 20
58.5165726515
 11
220.1179768516
 21
73.1417826688
  0
LINE
  5
304
100
AcDbEntity
  8
0
100
AcDbLine
 62
7
  6
CONTINUOUS
 10
170.1359442493
 20
38.1180785151
 11
170.8178571876
 21
38.6264121612
  0
LINE
  5
305
100
AcDbEntity
  8
0
100
AcDbLine
 62
7
  6
CONTINUOUS
 10
161.939102222
 20
34.7405216887
 11
162.6721579068
 21
35.1718425834
  0
LINE
  5
306
100
AcDbEntity
  8
0
100
AcDbLine
 62
7
  6
CONTINUOUS
 10
169.701774705
 20
39.0424716601
 11
166.9863698347
 21
37.7670986205
  0
LINE
  5
307
100
AcDbEntity
  8
0
100
AcDbLine
 62
7
  6
CONTINUOUS
 10
166.5154044222
 20
36.4175811289
 11
170.1359442493
 21
38.1180785151
  0
LINE
  5
308
100
AcDbEntity
  8
0
100
AcDbLine
 62
7
  6
CONTINUOUS
 10
161.6078243997
 20
35.7065759751
 11
160.9772008166
 21
35.4903235241
  0
LINE
  5
309
100
AcDbEntity
  8
0
100
AcDbLine
 62
7
  6
CONTINUOUS
 10
161.3084786389
 20
34.5242692377
 11
161.939102222
 21
34.7405216887
  0
LINE
  5
30A
100
AcDbEntity
  8
BEZUGSACHSEN
100
AcDbLine
 62
7
  6
CONTINUOUS
 10
145.2602585905
 20
252.3877558504
 11
127.0602585905
 21
252.3877558504
  0
LINE
  5
30B
100
AcDbEntity
  8
BEZUGSACHSEN
100
AcDbLine
 62
7
  6
CONTINUOUS
 10
127.0602585905
 20
271.3877558504
 11
145.2602585905
 21
271.3877558504
  0
LWPOLYLINE
  5
30C
100
AcDbEntity
  8
RUNDUNGEN
100
AcDbPolyline
 62
7
  6
CONTINUOUS
 90
23
 70
0
 10
103.6337844366
 20
286.8877558475
 10
103.4450613036
 20
286.8842180592
 10
103.0816278353
 20
286.8573613519
 10
102.7211203082
 20
286.8042023285
 10
102.3655752382
 20
286.7250028456
 10
102.0169710571
 20
286.6201959895
 10
101.6771929184
 20
286.490361459
 10
101.3481201203
 20
286.3362501838
 10
101.0314765454
 20
286.1587166677
 10
100.7289606801
 20
285.9587692957
 10
100.4421258012
 20
285.7374968785
 10
100.1724640346
 20
285.4961123498
 10
99.9213665471
 20
285.2359248513
 10
99.6901323779
 20
284.9583463294
 10
99.4799472679
 20
284.6648680776
 10
99.2918933706
 20
284.3570715764
 10
99.1269240951
 20
284.0365883646
 10
98.9858817006
 20
283.7051236749
 10
98.8694802819
 20
283.3644209272
 10
98.7783150266
 20
283.0162805492
 10
98.7128498757
 20
282.6625170572
 10
98.67342467
 20
282.3049594312
 10
98.6602585905
 20
281.9455408038
  0
LWPOLYLINE
  5
30D
100
AcDbEntity
  8
BEZUGSACHSEN
100
AcDbPolyline
 62
7
  6
CONTINUOUS
 90
22
 70
0
 10
103.633785384
 20
286.8877558472
 10
103.4601975579
 20
286.8847631098
 10
103.0959613898
 20
286.8589244006
 10
102.7345831384
 20
286.8066717046
 10
102.3781134868
 20
286.7282619875
 10
102.0285448621
 20
286.6241253222
 10
101.6877755773
 20
286.4948399368
 10
101.3576989429
 20
286.3411570923
 10
101.0400504896
 20
286.1639323423
 10
100.7365408276
 20
285.9641764892
 10
100.4487345607
 20
285.7429818091
 10
100.178134869
 20
285.5015658012
 10
99.9261432759
 20
285.2412430603
 10
99.6940686606
 20
284.9634319959
 10
99.4831057159
 20
284.6696310162
 10
99.2943449632
 20
284.3614296944
 10
99.1287469936
 20
284.0404677451
 10
98.9871605706
 20
283.7084591932
 10
98.8703056429
 20
283.3671572192
 10
98.7787822181
 20
283.0183720452
 10
98.713058407
 20
282.6639297676
 10
98.6734769362
 20
282.30567125
  0
LINE
  5
30E
100
AcDbEntity
  8
RUNDUNGEN
100
AcDbLine
 62
7
  6
CONTINUOUS
 10
103.6268865618
 20
286.8878028473
 11
103.6187485924
 21
286.8877441882
  0
LINE
  5
30F
100
AcDbEntity
  8
RUNDUNGEN
100
AcDbLine
 62
7
  6
CONTINUOUS
 10
103.6337660653
 20
286.8877558504
 11
122.0602585905
 21
286.8877558504
  0
LINE
  5
310
100
AcDbEntity
  8
RUNDUNGEN
100
AcDbLine
 62
7
  6
CONTINUOUS
 10
150.2602585905
 20
286.8877558504
 11
168.6602585905
 21
286.8877558504
  0
LWPOLYLINE
  5
311
100
AcDbEntity
  8
RUNDUNGEN
100
AcDbPolyline
 62
7
  6
CONTINUOUS
 90
31
 70
0
 10
343.3632733924
 20
12.8877558467
 10
343.5858978847
 20
12.8913289885
 10
344.015901558
 20
12.9185232981
 10
344.4390304501
 20
12.9716746822
 10
344.8532459679
 20
13.0496563399
 10
345.2568329842
 20
13.1511901067
 10
345.6482410024
 20
13.2748624488
 10
346.0260174067
 20
13.4191150106
 10
346.3891176691
 20
13.5823880609
 10
346.7368487706
 20
13.7631890017
 10
347.0676746956
 20
13.9594270762
 10
347.3806190889
 20
14.1690397442
 10
347.6746933646
 20
14.3896906362
 10
347.9491832078
 20
14.6189439307
 10
348.2038478221
 20
14.8544968465
 10
348.438671078
 20
15.0940557789
 10
348.6536592209
 20
15.3351392216
 10
348.849001164
 20
15.5752226073
 10
349.0254721492
 20
15.8123315699
 10
349.1837201553
 20
16.0442432696
 10
349.3251389125
 20
16.2698210726
 10
349.450895926
 20
16.4877486565
 10
349.5624215477
 20
16.6973455314
 10
349.660975593
 20
16.8978798487
 10
349.7479572635
 20
17.0891884316
 10
349.824586774
 20
17.2710692159
 10
349.8921370066
 20
17.4438059969
 10
349.9516939493
 20
17.6076106224
 10
350.0043988743
 20
17.7632587158
 10
350.051364119
 20
17.9119532802
 10
350.0784619994
 20
18.0026895279
  0
LINE
  5
312
100
AcDbEntity
  8
0
100
AcDbLine
 62
7
  6
CONTINUOUS
 10
334.6277082416
 20
12.8877558504
 11
343.3633954441
 21
12.8877558504
  0
LINE
  5
313
100
AcDbEntity
  8
BEZUGSACHSEN
100
AcDbLine
 62
7
  6
CONTINUOUS
 10
311.665426432
 20
234.521733232
 11
315.8256788617
 21
241.7275018126
  0
LINE
  5
314
100
AcDbEntity
  8
RUNDUNGEN
100
AcDbLine
 62
7
  6
CONTINUOUS
 10
357.3737524373
 20
208.2659564449
 11
365.5310859333
 21
216.4232899409
  0
LWPOLYLINE
  5
315
100
AcDbEntity
  8
BEZUGSACHSEN
100
AcDbPolyline
 62
7
  6
CONTINUOUS
 90
31
 70
0
 10
327.9126427399
 20
18.002685923
 10
327.9396563613
 20
17.9122260464
 10
327.9865077419
 20
17.7638618189
 10
328.0390624978
 20
17.6086012498
 10
328.0984276316
 20
17.4452371928
 10
328.1657363703
 20
17.2729945427
 10
328.2420731812
 20
17.0916438683
 10
328.3287058328
 20
16.9008929077
 10
328.4268600034
 20
16.7009141967
 10
328.537941809
 20
16.4918444461
 10
328.6632156284
 20
16.2743994795
 10
328.8041213874
 20
16.0492395381
 10
328.9618338922
 20
15.8176703469
 10
329.1377679342
 20
15.580803136
 10
329.3325544216
 20
15.3408911345
 10
329.5469518647
 20
15.099929563
 10
329.781156863
 20
14.8604338185
 10
330.0351788647
 20
14.6248827552
 10
330.309000485
 20
14.3955709992
 10
330.6023822248
 20
14.1747994972
 10
330.9146046246
 20
13.9650066287
 10
331.244670298
 20
13.7685312175
 10
331.5916121037
 20
13.5874258927
 10
331.9538998671
 20
13.4237757089
 10
332.3308470586
 20
13.2790660874
 10
332.7214173617
 20
13.1548502847
 10
333.1241644933
 20
13.0526821738
 10
333.5375456363
 20
12.9739709057
 10
333.9598542581
 20
12.9199908536
 10
334.3890607925
 20
12.8918661992
 10
334.6278302903
 20
12.8877558467
  0
LINE
  5
316
100
AcDbEntity
  8
BEZUGSACHSEN
100
AcDbLine
 62
7
  6
CONTINUOUS
 10
327.9128083884
 20
18.002119105
 11
327.9126426927
 21
18.0026859059
  0
LWPOLYLINE
  5
317
100
AcDbEntity
  8
BEZUGSACHSEN
100
AcDbPolyline
 62
7
  6
CONTINUOUS
 90
7
 70
0
 10
327.7146913372
 20
18.8228216273
 10
327.7383409356
 20
18.7061259068
 10
327.7675792649
 20
18.5701555703
 10
327.8001345112
 20
18.4285123415
 10
327.8371291765
 20
18.2785633996
 10
327.8801476215
 20
18.1169307012
 10
327.9128083884
 20
18.002119105
  0
LINE
  5
318
100
AcDbEntity
  8
BEZUGSACHSEN
100
AcDbLine
 62
7
  6
CONTINUOUS
 10
323.6580056665
 20
39.3339292432
 11
325.5860002093
 21
29.6012853198
  0
LINE
  5
319
100
AcDbEntity
  8
BEZUGSACHSEN
100
AcDbLine
 62
7
  6
CONTINUOUS
 10
325.5860002093
 20
29.6012853198
 11
327.7145041785
 21
18.8237700184
  0
LINE
  5
31A
100
AcDbEntity
  8
BEZUGSACHSEN
100
AcDbLine
 62
7
  6
CONTINUOUS
 10
321.0565863094
 20
53.050112184
 11
321.0937324947
 21
52.7058788819
  0
LINE
  5
31B
100
AcDbEntity
  8
BEZUGSACHSEN
100
AcDbLine
 62
7
  6
CONTINUOUS
 10
321.0161719878
 20
53.4424099317
 11
321.0565863094
 21
53.050112184
  0
LINE
  5
31C
100
AcDbEntity
  8
BEZUGSACHSEN
100
AcDbLine
 62
7
  6
CONTINUOUS
 10
320.9566831852
 20
54.0481603256
 11
321.0161719878
 21
53.4424099317
  0
LINE
  5
31D
100
AcDbEntity
  8
BEZUGSACHSEN
100
AcDbLine
 62
7
  6
CONTINUOUS
 10
320.8726142041
 20
54.9513077778
 11
320.9566831852
 21
54.0481603256
  0
LINE
  5
31E
100
AcDbEntity
  8
BEZUGSACHSEN
100
AcDbLine
 62
7
  6
CONTINUOUS
 10
320.7573906568
 20
56.2615756642
 11
320.8726142041
 21
54.9513077778
  0
LINE
  5
31F
100
AcDbEntity
  8
BEZUGSACHSEN
100
AcDbLine
 62
7
  6
CONTINUOUS
 10
320.6023796732
 20
58.1318490622
 11
320.7573906568
 21
56.2615756642
  0
LINE
  5
320
100
AcDbEntity
  8
BEZUGSACHSEN
100
AcDbLine
 62
7
  6
CONTINUOUS
 10
320.4231326443
 20
60.4240849605
 11
320.6023796732
 21
58.1318490622
  0
LINE
  5
321
100
AcDbEntity
  8
BEZUGSACHSEN
100
AcDbLine
 62
7
  6
CONTINUOUS
 10
320.1860713124
 20
63.6430446319
 11
320.4231326443
 21
60.4240849605
  0
LINE
  5
322
100
AcDbEntity
  8
BEZUGSACHSEN
100
AcDbLine
 62
7
  6
CONTINUOUS
 10
319.9120605146
 20
67.6100432411
 11
320.1860713124
 21
63.6430446319
  0
LINE
  5
323
100
AcDbEntity
  8
BEZUGSACHSEN
100
AcDbLine
 62
7
  6
CONTINUOUS
 10
319.6002601188
 20
72.4401313118
 11
319.9120605146
 21
67.6100432411
  0
LINE
  5
324
100
AcDbEntity
  8
BEZUGSACHSEN
100
AcDbLine
 62
7
  6
CONTINUOUS
 10
319.2563547275
 20
78.1794793589
 11
319.6002601188
 21
72.4401313118
  0
LINE
  5
325
100
AcDbEntity
  8
BEZUGSACHSEN
100
AcDbLine
 62
7
  6
CONTINUOUS
 10
318.9369558533
 20
83.950157273
 11
319.2563547275
 21
78.1794793589
  0
LINE
  5
326
100
AcDbEntity
  8
BEZUGSACHSEN
100
AcDbLine
 62
7
  6
CONTINUOUS
 10
318.7022326263
 20
88.5159831014
 11
318.9369558533
 21
83.950157273
  0
LINE
  5
327
100
AcDbEntity
  8
BEZUGSACHSEN
100
AcDbLine
 62
7
  6
CONTINUOUS
 10
318.4655262068
 20
93.4703010023
 11
318.7022326263
 21
88.5159831014
  0
LINE
  5
328
100
AcDbEntity
  8
BEZUGSACHSEN
100
AcDbLine
 62
7
  6
CONTINUOUS
 10
318.2777952232
 20
97.7205210115
 11
318.4655262068
 21
93.4703010023
  0
LINE
  5
329
100
AcDbEntity
  8
BEZUGSACHSEN
100
AcDbLine
 62
7
  6
CONTINUOUS
 10
318.0949707057
 20
102.2274356341
 11
318.2777952232
 21
97.7205210115
  0
LINE
  5
32A
100
AcDbEntity
  8
BEZUGSACHSEN
100
AcDbLine
 62
7
  6
CONTINUOUS
 10
317.9635808543
 20
105.7742217028
 11
318.0949707057
 21
102.2274356341
  0
LINE
  5
32B
100
AcDbEntity
  8
BEZUGSACHSEN
100
AcDbLine
 62
7
  6
CONTINUOUS
 10
317.8395586616
 20
109.459792405
 11
317.9635808543
 21
105.7742217028
  0
LINE
  5
32C
100
AcDbEntity
  8
BEZUGSACHSEN
100
AcDbLine
 62
7
  6
CONTINUOUS
 10
317.762284757
 20
111.9911993533
 11
317.8395586616
 21
109.459792405
  0
LINE
  5
32D
100
AcDbEntity
  8
BEZUGSACHSEN
100
AcDbLine
 62
7
  6
CONTINUOUS
 10
317.6903976878
 20
114.5800479124
 11
317.762284757
 21
111.9911993533
  0
LINE
  5
32E
100
AcDbEntity
  8
BEZUGSACHSEN
100
AcDbLine
 62
7
  6
CONTINUOUS
 10
321.0473562585
 20
57.9318979401
 11
321.177695742
 21
53.4939423302
  0
LINE
  5
32F
100
AcDbEntity
  8
BEZUGSACHSEN
100
AcDbLine
 62
7
  6
CONTINUOUS
 10
317.6249931215
 20
117.2244342322
 11
317.6903976878
 21
114.5800479124
  0
LINE
  5
330
100
AcDbEntity
  8
BEZUGSACHSEN
100
AcDbLine
 62
7
  6
CONTINUOUS
 10
321.177695742
 20
53.4939423302
 11
321.1831645672
 21
53.2724360501
  0
LINE
  5
331
100
AcDbEntity
  8
BEZUGSACHSEN
100
AcDbLine
 62
7
  6
CONTINUOUS
 10
321.0040132081
 20
59.7752884619
 11
321.0473562585
 21
57.9318979401
  0
LINE
  5
332
100
AcDbEntity
  8
BEZUGSACHSEN
100
AcDbLine
 62
7
  6
CONTINUOUS
 10
317.5674236419
 20
119.9215942185
 11
317.6249931215
 21
117.2244342322
  0
LINE
  5
333
100
AcDbEntity
  8
BEZUGSACHSEN
100
AcDbLine
 62
7
  6
CONTINUOUS
 10
317.5192242194
 20
122.6678475062
 11
317.5674236419
 21
119.9215942185
  0
LINE
  5
334
100
AcDbEntity
  8
BEZUGSACHSEN
100
AcDbLine
 62
7
  6
CONTINUOUS
 10
310.9955518428
 20
219.9588232482
 11
310.9955518428
 21
232.0217304467
  0
LINE
  5
335
100
AcDbEntity
  8
BEZUGSACHSEN
100
AcDbLine
 62
7
  6
CONTINUOUS
 10
316.4955518428
 20
244.2275028611
 11
316.4955518428
 21
264.8877564834
  0
LWPOLYLINE
  5
336
100
AcDbEntity
  8
BEZUGSACHSEN
100
AcDbPolyline
 62
7
  6
CONTINUOUS
 90
21
 70
0
 10
318.1622165614
 20
152.7791909039
 10
318.062081694
 20
151.4992111073
 10
317.9630091005
 20
150.0758875596
 10
317.8749494844
 20
148.6410911922
 10
317.7971273198
 20
147.1965239699
 10
317.7288482062
 20
145.7440995237
 10
317.6694735666
 20
144.2857662445
 10
317.6184048225
 20
142.8232708434
 10
317.5750868262
 20
141.3583378616
 10
317.5389991713
 20
139.8925376629
 10
317.5096548742
 20
138.4273474541
 10
317.4865968879
 20
136.9641133717
 10
317.4693966659
 20
135.50409706
 10
317.4576516533
 20
134.0484368377
 10
317.4509840577
 20
132.598195242
 10
317.4490388993
 20
131.1543244826
 10
317.4514828171
 20
129.7176977142
 10
317.4580027297
 20
128.2890922559
 10
317.4683046262
 20
126.8692096371
 10
317.4821129578
 20
125.4586270779
 10
317.5192242194
 20
122.6678475062
  0
LINE
  5
337
100
AcDbEntity
  8
BEZUGSACHSEN
100
AcDbLine
 62
7
  6
CONTINUOUS
 10
318.1678353773
 20
152.8468832122
 11
318.1623619289
 21
152.7809369102
  0
LWPOLYLINE
  5
338
100
AcDbEntity
  8
BEZUGSACHSEN
100
AcDbPolyline
 62
7
  6
CONTINUOUS
 90
7
 70
0
 10
322.5709056439
 20
202.8859099431
 10
321.8823466309
 20
195.5660205293
 10
321.1689195928
 20
187.7966321572
 10
320.4415880887
 20
179.6738847509
 10
319.7010762419
 20
171.1806582652
 10
318.9474688375
 20
162.2936718897
 10
318.1678353773
 20
152.8468832122
  0
LWPOLYLINE
  5
339
100
AcDbEntity
  8
BEZUGSACHSEN
100
AcDbPolyline
 62
7
  6
CONTINUOUS
 90
9
 70
0
 10
321.2071986741
 20
51.7838361316
 10
321.2198251049
 20
51.695804408
 10
321.2332540327
 20
51.6056012413
 10
321.2477192802
 20
51.512247213
 10
321.2633481572
 20
51.415595307
 10
321.2807657819
 20
51.312731526
 10
321.3006232316
 20
51.2012242914
 10
321.3235329419
 20
51.0794781251
 10
323.6580056665
 20
39.3339292432
  0
LINE
  5
33A
100
AcDbEntity
  8
BEZUGSACHSEN
100
AcDbLine
 62
7
  6
CONTINUOUS
 10
321.1838704225
 20
51.9547257819
 11
321.2071986741
 21
51.7838361316
  0
LINE
  5
33B
100
AcDbEntity
  8
BEZUGSACHSEN
100
AcDbLine
 62
7
  6
CONTINUOUS
 10
321.161674589
 20
52.1268949572
 11
321.1838704225
 21
51.9547257819
  0
LINE
  5
33C
100
AcDbEntity
  8
BEZUGSACHSEN
100
AcDbLine
 62
7
  6
CONTINUOUS
 10
321.1396129438
 20
52.30685038
 11
321.161674589
 21
52.1268949572
  0
LINE
  5
33D
100
AcDbEntity
  8
BEZUGSACHSEN
100
AcDbLine
 62
7
  6
CONTINUOUS
 10
321.1171416088
 20
52.4983274585
 11
321.1396129438
 21
52.30685038
  0
LINE
  5
33E
100
AcDbEntity
  8
BEZUGSACHSEN
100
AcDbLine
 62
7
  6
CONTINUOUS
 10
321.0937324947
 20
52.7058788819
 11
321.1171416088
 21
52.4983274585
  0
LINE
  5
33F
100
AcDbEntity
  8
BEZUGSACHSEN
100
AcDbLine
 62
7
  6
CONTINUOUS
 10
321.1831645672
 20
53.2724360501
 11
321.1849387629
 21
53.1828070765
  0
LINE
  5
340
100
AcDbEntity
  8
BEZUGSACHSEN
100
AcDbLine
 62
7
  6
CONTINUOUS
 10
320.9678923472
 20
61.668610185
 11
321.0040132081
 21
59.7752884619
  0
LWPOLYLINE
  5
341
100
AcDbEntity
  8
BEZUGSACHSEN
100
AcDbPolyline
 62
7
  6
CONTINUOUS
 90
3
 70
0
 10
321.1849387629
 20
53.1828070765
 10
321.1857077357
 20
53.1303475779
 10
321.185774165
 20
53.123718923
  0
LINE
  5
342
100
AcDbEntity
  8
BEZUGSACHSEN
100
AcDbLine
 62
7
  6
CONTINUOUS
 10
320.9367195396
 20
63.8509588786
 11
320.9678923472
 21
61.668610185
  0
LINE
  5
343
100
AcDbEntity
  8
BEZUGSACHSEN
100
AcDbLine
 62
7
  6
CONTINUOUS
 10
320.9169181016
 20
65.9758395936
 11
320.9367195396
 21
63.8509588786
  0
LINE
  5
344
100
AcDbEntity
  8
BEZUGSACHSEN
100
AcDbLine
 62
7
  6
CONTINUOUS
 10
320.9076697615
 20
67.942783655
 11
320.9169181016
 21
65.9758395936
  0
LINE
  5
345
100
AcDbEntity
  8
BEZUGSACHSEN
100
AcDbLine
 62
7
  6
CONTINUOUS
 10
320.9073798598
 20
70.1025884631
 11
320.9076697615
 21
67.942783655
  0
LINE
  5
346
100
AcDbEntity
  8
BEZUGSACHSEN
100
AcDbLine
 62
7
  6
CONTINUOUS
 10
320.9187208832
 20
72.4693324805
 11
320.9073798598
 21
70.1025884631
  0
LINE
  5
347
100
AcDbEntity
  8
BEZUGSACHSEN
100
AcDbLine
 62
7
  6
CONTINUOUS
 10
320.9264701305
 20
73.3993820027
 11
320.9187208832
 21
72.4693324805
  0
LWPOLYLINE
  5
348
100
AcDbEntity
  8
BEZUGSACHSEN
100
AcDbPolyline
 62
7
  6
CONTINUOUS
 90
9
 70
0
 10
326.1787391061
 20
121.0724273922
 10
325.0427519593
 20
114.942853282
 10
324.017392424
 20
108.7920313335
 10
323.1300509184
 20
102.729354416
 10
322.3852935424
 20
96.741139423
 10
321.7881844526
 20
90.8146762885
 10
321.3434687081
 20
84.9373892733
 10
321.0550553855
 20
79.0977661786
 10
320.926470498
 20
73.3994222787
  0
LINE
  5
349
100
AcDbEntity
  8
BEZUGSACHSEN
100
AcDbLine
 62
7
  6
CONTINUOUS
 10
326.1787391061
 20
121.0724273922
 11
326.1786860653
 21
121.0721540281
  0
LWPOLYLINE
  5
34A
100
AcDbEntity
  8
BEZUGSACHSEN
100
AcDbPolyline
 62
7
  6
CONTINUOUS
 90
28
 70
0
 10
335.7427097111
 20
129.3877558223
 10
335.3702204124
 20
129.3804033914
 10
334.7500854799
 20
129.3354267233
 10
334.1340674206
 20
129.2497212386
 10
333.5259477968
 20
129.1239220311
 10
332.9293996012
 20
128.9591369131
 10
332.3476042732
 20
128.7568048386
 10
331.7847790768
 20
128.5192769549
 10
331.2438046652
 20
128.2490199148
 10
330.7296927905
 20
127.950362365
 10
330.2470729039
 20
127.6287713163
 10
329.7958168921
 20
127.2874295483
 10
329.3769681118
 20
126.9305632394
 10
328.989106742
 20
126.560485432
 10
328.6312600381
 20
126.1796559478
 10
328.302185861
 20
125.7900758832
 10
328.0005061253
 20
125.3933394302
 10
327.7251918216
 20
124.9912953787
 10
327.4748898486
 20
124.5851849244
 10
327.2486525229
 20
124.1767716665
 10
327.045102194
 20
123.7669948875
 10
326.8634132102
 20
123.3578616688
 10
326.7023303126
 20
122.9505950633
 10
326.5606569046
 20
122.5465771048
 10
326.4369474399
 20
122.1464359252
 10
326.3300257356
 20
121.7515394744
 10
326.2387180491
 20
121.3634085373
 10
326.1786860653
 20
121.0721540282
  0
LINE
  5
34B
100
AcDbEntity
  8
0
100
AcDbLine
 62
7
  6
CONTINUOUS
 10
335.7427244894
 20
129.3877558504
 11
342.2483791962
 21
129.3877558504
  0
LWPOLYLINE
  5
34C
100
AcDbEntity
  8
RUNDUNGEN
100
AcDbPolyline
 62
7
  6
CONTINUOUS
 90
28
 70
0
 10
351.8124189533
 20
121.0721471573
 10
351.7524388483
 20
121.3631648289
 10
351.6611591951
 20
121.7512176737
 10
351.5542193887
 20
122.1462177476
 10
351.4304391729
 20
122.5466002055
 10
351.2886339209
 20
122.9509694384
 10
351.1273527161
 20
123.3586674181
 10
350.9453973268
 20
123.7682809911
 10
350.7415138911
 20
124.1785580386
 10
350.5148905488
 20
124.5874492407
 10
350.2641406095
 20
124.9940213769
 10
349.9883179482
 20
125.3964982432
 10
349.6860565295
 20
125.7936459544
 10
349.356317093
 20
126.183614575
 10
348.9977074677
 20
126.5648085614
 10
348.6089708416
 20
126.9352212011
 10
348.189118844
 20
127.2923833854
 10
347.7366846346
 20
127.6339894643
 10
347.2527894824
 20
127.9557304529
 10
346.7373343284
 20
128.2543925208
 10
346.1951156546
 20
128.5244293264
 10
345.6313696958
 20
128.7614605376
 10
345.0489231646
 20
128.9631113119
 10
344.4520275681
 20
129.1270805827
 10
343.843775473
 20
129.2520035236
 10
343.227768421
 20
129.3368179704
 10
342.6077106089
 20
129.3809143883
 10
342.2483937985
 20
129.3877558222
  0
LINE
  5
34D
100
AcDbEntity
  8
RUNDUNGEN
100
AcDbLine
 62
7
  6
CONTINUOUS
 10
351.8123645796
 20
121.0724273922
 11
351.8124189533
 21
121.0721471572
  0
LWPOLYLINE
  5
34E
100
AcDbEntity
  8
RUNDUNGEN
100
AcDbPolyline
 62
7
  6
CONTINUOUS
 90
6
 70
0
 10
359.0436348482
 20
162.2936718897
 10
358.2900274438
 20
171.1806582652
 10
357.5495155969
 20
179.6738847509
 10
356.8221840928
 20
187.7966321572
 10
356.1087570548
 20
195.5660205293
 10
355.4201980417
 20
202.8859099431
  0
LINE
  5
34F
100
AcDbEntity
  8
RUNDUNGEN
100
AcDbLine
 62
7
  6
CONTINUOUS
 10
359.8288864717
 20
152.7791911643
 11
359.0436348482
 21
162.2936718897
  0
LWPOLYLINE
  5
350
100
AcDbEntity
  8
RUNDUNGEN
100
AcDbPolyline
 62
7
  6
CONTINUOUS
 90
13
 70
0
 10
355.4201904063
 20
202.8859902038
 10
355.3939297782
 20
203.3267251446
 10
355.401842176
 20
203.8393459256
 10
355.4493736987
 20
204.3460832413
 10
355.5346659721
 20
204.844881245
 10
355.6561515936
 20
205.3338255823
 10
355.8124082276
 20
205.810811883
 10
356.0020802482
 20
206.2736465752
 10
356.2244293501
 20
206.7211898807
 10
356.4789627374
 20
207.1519981592
 10
356.7653795544
 20
207.5643219358
 10
357.0838798508
 20
207.9564791262
 10
357.3737238944
 20
208.2659279047
  0
LWPOLYLINE
  5
351
100
AcDbEntity
  8
RUNDUNGEN
100
AcDbPolyline
 62
7
  6
CONTINUOUS
 90
9
 70
0
 10
357.0646331876
 20
73.3994222787
 10
356.9360483002
 20
79.0977661786
 10
356.6476349775
 20
84.9373892733
 10
356.2029192331
 20
90.8146762885
 10
355.6058101432
 20
96.741139423
 10
354.8610527673
 20
102.729354416
 10
353.9737112617
 20
108.7920313335
 10
352.9483517263
 20
114.942853282
 10
351.8123645796
 20
121.0724273922
  0
LINE
  5
352
100
AcDbEntity
  8
RUNDUNGEN
100
AcDbLine
 62
7
  6
CONTINUOUS
 10
357.0802647122
 20
71.1350148667
 11
357.0646335552
 21
73.3993820027
  0
LINE
  5
353
100
AcDbEntity
  8
RUNDUNGEN
100
AcDbLine
 62
7
  6
CONTINUOUS
 10
357.0848531957
 20
68.9898589985
 11
357.0802647122
 21
71.1350148667
  0
LINE
  5
354
100
AcDbEntity
  8
RUNDUNGEN
100
AcDbLine
 62
7
  6
CONTINUOUS
 10
361.4955518428
 20
244.2275028611
 11
361.4955518428
 21
264.8877564834
  0
LINE
  5
355
100
AcDbEntity
  8
RUNDUNGEN
100
AcDbLine
 62
7
  6
CONTINUOUS
 10
356.805302523
 20
53.1212159837
 11
356.8052961561
 21
53.1194364117
  0
LINE
  5
356
100
AcDbEntity
  8
RUNDUNGEN
100
AcDbLine
 62
7
  6
CONTINUOUS
 10
357.07786909
 20
66.5659915809
 11
357.0848531957
 21
68.9898589985
  0
LWPOLYLINE
  5
357
100
AcDbEntity
  8
RUNDUNGEN
100
AcDbPolyline
 62
7
  6
CONTINUOUS
 90
20
 70
0
 10
360.5090886496
 20
125.467529005
 10
360.5228715896
 20
126.8777012706
 10
360.5331488268
 20
128.2971638802
 10
360.5396449852
 20
129.7253395581
 10
360.5420662476
 20
131.1615270941
 10
360.5400997458
 20
132.6049495317
 10
360.5334123521
 20
134.0547341846
 10
360.5216493429
 20
135.5099294144
 10
360.5044332059
 20
136.9694733684
 10
360.4813616915
 20
138.4322285269
 10
360.4520065866
 20
139.8969341899
 10
360.4159112089
 20
141.3622452255
 10
360.3725889726
 20
142.8266855881
 10
360.3215199035
 20
144.2886862559
 10
360.2621493251
 20
145.7465241882
 10
360.1938791775
 20
147.1984542677
 10
360.1160714489
 20
148.6425299168
 10
360.0280323701
 20
150.0768393191
 10
359.9289871309
 20
151.4996821952
 10
359.8288871275
 20
152.7791908645
  0
LINE
  5
358
100
AcDbEntity
  8
RUNDUNGEN
100
AcDbLine
 62
7
  6
CONTINUOUS
 10
357.0605477117
 20
64.4056560359
 11
357.07786909
 21
66.5659915809
  0
LINE
  5
359
100
AcDbEntity
  8
RUNDUNGEN
100
AcDbLine
 62
7
  6
CONTINUOUS
 10
356.8053284958
 20
53.1236041821
 11
356.8056692791
 21
53.1516580184
  0
LINE
  5
35A
100
AcDbEntity
  8
RUNDUNGEN
100
AcDbLine
 62
7
  6
CONTINUOUS
 10
357.0361844142
 20
62.4857105086
 11
357.0605477117
 21
64.4056560359
  0
LINE
  5
35B
100
AcDbEntity
  8
RUNDUNGEN
100
AcDbLine
 62
7
  6
CONTINUOUS
 10
360.4720296963
 20
122.6775370517
 11
360.5090886496
 21
125.467529005
  0
LINE
  5
35C
100
AcDbEntity
  8
RUNDUNGEN
100
AcDbLine
 62
7
  6
CONTINUOUS
 10
360.4238836176
 20
119.9320243589
 11
360.4720296963
 21
122.6775370517
  0
LINE
  5
35D
100
AcDbEntity
  8
RUNDUNGEN
100
AcDbLine
 62
7
  6
CONTINUOUS
 10
357.0013116503
 20
60.4689526853
 11
357.0361844142
 21
62.4857105086
  0
LINE
  5
35E
100
AcDbEntity
  8
RUNDUNGEN
100
AcDbLine
 62
7
  6
CONTINUOUS
 10
356.8056692791
 20
53.1516580184
 11
356.8071979514
 21
53.237347438
  0
LINE
  5
35F
100
AcDbEntity
  8
RUNDUNGEN
100
AcDbLine
 62
7
  6
CONTINUOUS
 10
360.3663675095
 20
117.2355570183
 11
360.4238836176
 21
119.9320243589
  0
LINE
  5
360
100
AcDbEntity
  8
RUNDUNGEN
100
AcDbLine
 62
7
  6
CONTINUOUS
 10
356.9572758601
 20
58.4719295139
 11
357.0013116503
 21
60.4689526853
  0
LINE
  5
361
100
AcDbEntity
  8
RUNDUNGEN
100
AcDbLine
 62
7
  6
CONTINUOUS
 10
356.8071979514
 20
53.237347438
 11
356.8115428736
 21
53.4228960553
  0
LINE
  5
362
100
AcDbEntity
  8
RUNDUNGEN
100
AcDbLine
 62
7
  6
CONTINUOUS
 10
360.3010155381
 20
114.5918160416
 11
360.3663675095
 21
117.2355570183
  0
LINE
  5
363
100
AcDbEntity
  8
RUNDUNGEN
100
AcDbLine
 62
7
  6
CONTINUOUS
 10
360.2291799156
 20
112.0035682228
 11
360.3010155381
 21
114.5918160416
  0
LINE
  5
364
100
AcDbEntity
  8
RUNDUNGEN
100
AcDbLine
 62
7
  6
CONTINUOUS
 10
356.9026101925
 20
56.429166281
 11
356.9572758601
 21
58.4719295139
  0
LINE
  5
365
100
AcDbEntity
  8
RUNDUNGEN
100
AcDbLine
 62
7
  6
CONTINUOUS
 10
356.8115428736
 20
53.4228960553
 11
356.8286703343
 21
54.0175911237
  0
LINE
  5
366
100
AcDbEntity
  8
RUNDUNGEN
100
AcDbLine
 62
7
  6
CONTINUOUS
 10
356.8286703343
 20
54.0175911237
 11
356.9026101925
 21
56.429166281
  0
LINE
  5
367
100
AcDbEntity
  8
RUNDUNGEN
100
AcDbLine
 62
7
  6
CONTINUOUS
 10
360.1116166206
 20
108.2293766597
 11
360.2291799156
 21
112.0035682228
  0
LINE
  5
368
100
AcDbEntity
  8
RUNDUNGEN
100
AcDbLine
 62
7
  6
CONTINUOUS
 10
359.9849326771
 20
104.5902069204
 11
360.1116166206
 21
108.2293766597
  0
LINE
  5
369
100
AcDbEntity
  8
RUNDUNGEN
100
AcDbLine
 62
7
  6
CONTINUOUS
 10
359.85167419
 20
101.0912357448
 11
359.9849326771
 21
104.5902069204
  0
LINE
  5
36A
100
AcDbEntity
  8
RUNDUNGEN
100
AcDbLine
 62
7
  6
CONTINUOUS
 10
359.6673492508
 20
96.6490103079
 11
359.85167419
 21
101.0912357448
  0
LINE
  5
36B
100
AcDbEntity
  8
RUNDUNGEN
100
AcDbLine
 62
7
  6
CONTINUOUS
 10
359.4316571423
 20
91.4567545122
 11
359.6673492508
 21
96.6490103079
  0
LINE
  5
36C
100
AcDbEntity
  8
RUNDUNGEN
100
AcDbLine
 62
7
  6
CONTINUOUS
 10
359.1483886533
 20
85.7466612493
 11
359.4316571423
 21
91.4567545122
  0
LINE
  5
36D
100
AcDbEntity
  8
RUNDUNGEN
100
AcDbLine
 62
7
  6
CONTINUOUS
 10
358.8255057598
 20
79.7727612097
 11
359.1483886533
 21
85.7466612493
  0
LINE
  5
36E
100
AcDbEntity
  8
RUNDUNGEN
100
AcDbLine
 62
7
  6
CONTINUOUS
 10
358.4751307818
 20
73.8052490648
 11
358.8255057598
 21
79.7727612097
  0
LINE
  5
36F
100
AcDbEntity
  8
RUNDUNGEN
100
AcDbLine
 62
7
  6
CONTINUOUS
 10
358.1545414728
 20
68.7484763677
 11
358.4751307818
 21
73.8052490648
  0
LINE
  5
370
100
AcDbEntity
  8
RUNDUNGEN
100
AcDbLine
 62
7
  6
CONTINUOUS
 10
357.8708174483
 20
64.5717949533
 11
358.1545414728
 21
68.7484763677
  0
LINE
  5
371
100
AcDbEntity
  8
RUNDUNGEN
100
AcDbLine
 62
7
  6
CONTINUOUS
 10
357.6246309167
 20
61.1747765632
 11
357.8708174483
 21
64.5717949533
  0
LINE
  5
372
100
AcDbEntity
  8
RUNDUNGEN
100
AcDbLine
 62
7
  6
CONTINUOUS
 10
357.413442446
 20
58.440134999
 11
357.6246309167
 21
61.1747765632
  0
LINE
  5
373
100
AcDbEntity
  8
RUNDUNGEN
100
AcDbLine
 62
7
  6
CONTINUOUS
 10
357.2550755671
 20
56.5124706319
 11
357.413442446
 21
58.440134999
  0
LINE
  5
374
100
AcDbEntity
  8
RUNDUNGEN
100
AcDbLine
 62
7
  6
CONTINUOUS
 10
357.1372194986
 20
55.1590100119
 11
357.2550755671
 21
56.5124706319
  0
LINE
  5
375
100
AcDbEntity
  8
RUNDUNGEN
100
AcDbLine
 62
7
  6
CONTINUOUS
 10
366.9955518428
 20
219.9588232482
 11
366.9955518428
 21
232.0217304467
  0
LINE
  5
376
100
AcDbEntity
  8
RUNDUNGEN
100
AcDbLine
 62
7
  6
CONTINUOUS
 10
357.050962194
 20
54.2218258892
 11
357.1372194986
 21
55.1590100119
  0
LINE
  5
377
100
AcDbEntity
  8
RUNDUNGEN
100
AcDbLine
 62
7
  6
CONTINUOUS
 10
356.9897661871
 20
53.5905301556
 11
357.050962194
 21
54.2218258892
  0
LINE
  5
378
100
AcDbEntity
  8
RUNDUNGEN
100
AcDbLine
 62
7
  6
CONTINUOUS
 10
356.935084039
 20
53.0554903544
 11
356.9897661871
 21
53.5905301556
  0
LINE
  5
379
100
AcDbEntity
  8
RUNDUNGEN
100
AcDbLine
 62
7
  6
CONTINUOUS
 10
356.8979153457
 20
52.7107959945
 11
356.935084039
 21
53.0554903544
  0
LINE
  5
37A
100
AcDbEntity
  8
RUNDUNGEN
100
AcDbLine
 62
7
  6
CONTINUOUS
 10
356.8744939664
 20
52.502953849
 11
356.8979153457
 21
52.7107959945
  0
LINE
  5
37B
100
AcDbEntity
  8
RUNDUNGEN
100
AcDbLine
 62
7
  6
CONTINUOUS
 10
356.852017467
 20
52.3112477047
 11
356.8744939664
 21
52.502953849
  0
LINE
  5
37C
100
AcDbEntity
  8
RUNDUNGEN
100
AcDbLine
 62
7
  6
CONTINUOUS
 10
356.8299681833
 20
52.1311893258
 11
356.852017467
 21
52.3112477047
  0
LINE
  5
37D
100
AcDbEntity
  8
RUNDUNGEN
100
AcDbLine
 62
7
  6
CONTINUOUS
 10
356.807804371
 20
51.9590407782
 11
356.8299681833
 21
52.1311893258
  0
LWPOLYLINE
  5
37E
100
AcDbEntity
  8
RUNDUNGEN
100
AcDbPolyline
 62
7
  6
CONTINUOUS
 90
10
 70
0
 10
356.6561320657
 20
51.0212045749
 10
356.6691697778
 20
51.0877525868
 10
356.691812335
 20
51.2085221944
 10
356.7114635938
 20
51.31923191
 10
356.7287238192
 20
51.4214608013
 10
356.7442358402
 20
51.5176361152
 10
356.758622147
 20
51.610696272
 10
356.7719907645
 20
51.7006860337
 10
356.784556036
 20
51.7884606676
 10
356.807804371
 20
51.9590407782
  0
LINE
  5
37F
100
AcDbEntity
  8
0
100
AcDbLine
 62
7
  6
CONTINUOUS
 10
350.2765995072
 20
18.8237700184
 11
352.4051034764
 21
29.6012853198
  0
LINE
  5
380
100
AcDbEntity
  8
0
100
AcDbLine
 62
7
  6
CONTINUOUS
 10
352.4051034764
 20
29.6012853198
 11
354.3330980191
 21
39.3339292432
  0
LINE
  5
381
100
AcDbEntity
  8
0
100
AcDbLine
 62
7
  6
CONTINUOUS
 10
354.3330980191
 20
39.3339292432
 11
356.6563421414
 21
51.0222626491
  0
LWPOLYLINE
  5
382
100
AcDbEntity
  8
RUNDUNGEN
100
AcDbPolyline
 62
7
  6
CONTINUOUS
 90
6
 70
0
 10
350.0780883224
 20
18.0014113486
 10
350.1240114712
 20
18.1646594005
 10
350.1766305359
 20
18.3690872934
 10
350.2204027172
 20
18.5561458916
 10
350.2582315711
 20
18.7325558989
 10
350.2762452631
 20
18.8219750196
  0
LINE
  5
383
100
AcDbEntity
  8
RUNDUNGEN
100
AcDbLine
 62
7
  6
CONTINUOUS
 10
350.0780883224
 20
18.0014113486
 11
350.0784620466
 21
18.0026895108
  0
LINE
  5
384
100
AcDbEntity
  8
BEZUGSACHSEN
100
AcDbLine
 62
7
  6
CONTINUOUS
 10
320.6173512483
 20
208.2659564449
 11
312.4600177523
 21
216.4232899409
  0
LWPOLYLINE
  5
385
100
AcDbEntity
  8
BEZUGSACHSEN
100
AcDbPolyline
 62
7
  6
CONTINUOUS
 90
13
 70
0
 10
320.6173797913
 20
208.2659279047
 10
320.9072238348
 20
207.9564791262
 10
321.2257241313
 20
207.5643219358
 10
321.5121409482
 20
207.1519981592
 10
321.7666743356
 20
206.7211898807
 10
321.9890234375
 20
206.2736465752
 10
322.178695458
 20
205.810811883
 10
322.334952092
 20
205.3338255823
 10
322.4564377136
 20
204.844881245
 10
322.541729987
 20
204.3460832413
 10
322.5892615096
 20
203.8393459256
 10
322.5971739075
 20
203.3267251446
 10
322.5709132793
 20
202.8859902038
  0
LINE
  5
386
100
AcDbEntity
  8
RUNDUNGEN
100
AcDbLine
 62
7
  6
CONTINUOUS
 10
366.3256772536
 20
234.521733232
 11
362.1654248239
 21
241.7275018126
  0
LINE
  5
387
100
AcDbEntity
  8
BEZUGSACHSEN
100
AcDbLine
 62
7
  6
CONTINUOUS
 10
339.4955518428
 20
286.8877558504
 11
338.4955518428
 21
286.8877558504
  0
ARC
  5
388
100
AcDbEntity
  8
RUNDUNGEN
100
AcDbCircle
 62
7
  6
CONTINUOUS
 10
136.1602585905
 20
113.8877558504
 40
90.0
100
AcDbArc
 50
275.9377724516
 51
313.0238917143
  0
ARC
  5
389
100
AcDbEntity
  8
RUNDUNGEN
100
AcDbCircle
 62
7
  6
CONTINUOUS
 10
136.1602585905
 20
113.8877558504
 40
70.0571831342
100
AcDbArc
 50
202.3534397957
 51
262.9236897905
  0
ARC
  5
38A
100
AcDbEntity
  8
RUNDUNGEN
100
AcDbCircle
 62
7
  6
CONTINUOUS
 10
136.1602585905
 20
113.8877558504
 40
70.0571831342
100
AcDbArc
 50
277.0763102095
 51
312.6465602043
  0
ARC
  5
38B
100
AcDbEntity
  8
BEZUGSACHSEN
100
AcDbCircle
 62
7
  6
CONTINUOUS
 10
136.1602585905
 20
113.8877558504
 40
51.0
100
AcDbArc
 50
221.8751376274
 51
41.3487901454
  0
ARC
  5
38C
100
AcDbEntity
  8
RUNDUNGEN
100
AcDbCircle
 62
7
  6
CONTINUOUS
 10
136.1602585905
 20
113.8877558504
 40
51.0
100
AcDbArc
 50
221.8
 51
41.800000001
  0
ARC
  5
38D
100
AcDbEntity
  8
BEZUGSACHSEN
100
AcDbCircle
 62
7
  6
CONTINUOUS
 10
48.7447953043
 20
117.8877558504
 40
11.5
100
AcDbArc
 50
41.8
 51
199.7999377431
  0
ARC
  5
38E
100
AcDbEntity
  8
RUNDUNGEN
100
AcDbCircle
 62
7
  6
CONTINUOUS
 10
48.7447953043
 20
117.8877558504
 40
11.5
100
AcDbArc
 50
41.8
 51
199.7999377431
  0
ARC
  5
38F
100
AcDbEntity
  8
RUNDUNGEN
100
AcDbCircle
 62
7
  6
CONTINUOUS
 10
68.5929284721
 20
86.1027255611
 40
3.0
100
AcDbArc
 50
22.3534397957
 51
110.0
  0
ARC
  5
390
100
AcDbEntity
  8
RUNDUNGEN
100
AcDbCircle
 62
7
  6
CONTINUOUS
 10
63.2933862734
 20
84.1738499455
 40
3.0
100
AcDbArc
 50
110.0
 51
196.1343463195
  0
ARC
  5
391
100
AcDbEntity
  8
RUNDUNGEN
100
AcDbCircle
 62
7
  6
CONTINUOUS
 10
127.1602585905
 20
41.3870523538
 40
3.0
100
AcDbArc
 50
0.0
 51
82.9236897905
  0
ARC
  5
392
100
AcDbEntity
  8
RUNDUNGEN
100
AcDbCircle
 62
7
  6
CONTINUOUS
 10
127.1602585905
 20
27.5412550686
 40
3.0
100
AcDbArc
 50
260.7369978211
 51
360.0
  0
ARC
  5
393
100
AcDbEntity
  8
RUNDUNGEN
100
AcDbCircle
 62
7
  6
CONTINUOUS
 10
108.6602585905
 20
236.163254238
 40
10.0
100
AcDbArc
 50
179.9999999909
 51
221.7998712518
  0
ARC
  5
394
100
AcDbEntity
  8
BEZUGSACHSEN
100
AcDbCircle
 62
7
  6
CONTINUOUS
 10
136.1602585905
 20
241.4877558504
 40
9.1
100
AcDbArc
 50
180.0022099961
 51
189.2244086749
  0
ARC
  5
395
100
AcDbEntity
  8
RUNDUNGEN
100
AcDbCircle
 62
7
  6
CONTINUOUS
 10
136.1602585905
 20
241.4877558504
 40
9.1
100
AcDbArc
 50
180.0022099961
 51
359.9978147948
  0
ARC
  5
396
100
AcDbEntity
  8
RUNDUNGEN
100
AcDbCircle
 62
7
  6
CONTINUOUS
 10
122.0602585905
 20
281.8877558504
 40
5.0
100
AcDbArc
 50
0.0
 51
90.0
  0
CIRCLE
  5
397
100
AcDbEntity
  8
BEZUGSACHSEN
100
AcDbCircle
 62
7
  6
CONTINUOUS
 10
109.1602585905
 20
261.8877558504
 40
3.0
  0
ARC
  5
398
100
AcDbEntity
  8
BEZUGSACHSEN
100
AcDbCircle
 62
7
  6
CONTINUOUS
 10
140.3599853662
 20
114.6880290747
 40
101.8002732243
100
AcDbArc
 50
267.6356165648
 51
68.9847836349
  0
ARC
  5
399
100
AcDbEntity
  8
RUNDUNGEN
100
AcDbCircle
 62
7
  6
CONTINUOUS
 10
140.3599853662
 20
114.6880290747
 40
101.8002732243
100
AcDbArc
 50
267.6356165648
 51
68.9847836349
  0
ARC
  5
39A
100
AcDbEntity
  8
BEZUGSACHSEN
100
AcDbCircle
 62
7
  6
CONTINUOUS
 10
140.0164811518
 20
106.3686657768
 40
93.4738213492
100
AcDbArc
 50
216.5246243653
 51
267.6356166062
  0
ARC
  5
39B
100
AcDbEntity
  8
RUNDUNGEN
100
AcDbCircle
 62
7
  6
CONTINUOUS
 10
140.0164811518
 20
106.3686657768
 40
93.4738213492
100
AcDbArc
 50
199.7999950968
 51
267.6356166062
  0
ARC
  5
39C
100
AcDbEntity
  8
RUNDUNGEN
100
AcDbCircle
 62
7
  6
CONTINUOUS
 10
140.0164811518
 20
106.3686657768
 40
82.8689122093
100
AcDbArc
 50
196.1343463195
 51
260.7369978211
  0
ARC
  5
39D
100
AcDbEntity
  8
RUNDUNGEN
100
AcDbCircle
 62
7
  6
CONTINUOUS
 10
180.3227736025
 20
113.8877558504
 40
50.0
100
AcDbArc
 50
340.7374816992
 51
19.2625183008
  0
ARC
  5
39E
100
AcDbEntity
  8
RUNDUNGEN
100
AcDbCircle
 62
7
  6
CONTINUOUS
 10
213.4417386579
 20
118.1248094695
 40
3.0
100
AcDbArc
 50
0.0
 51
125.0
  0
ARC
  5
39F
100
AcDbEntity
  8
RUNDUNGEN
100
AcDbCircle
 62
7
  6
CONTINUOUS
 10
213.4417386579
 20
109.6507022313
 40
3.0
100
AcDbArc
 50
235.0
 51
360.0
  0
ARC
  5
3A0
100
AcDbEntity
  8
RUNDUNGEN
100
AcDbCircle
 62
7
  6
CONTINUOUS
 10
207.3905989774
 20
113.8877558504
 40
3.0
100
AcDbArc
 50
125.0
 51
235.0
  0
ARC
  5
3A1
100
AcDbEntity
  8
RUNDUNGEN
100
AcDbCircle
 62
7
  6
CONTINUOUS
 10
217.0182736736
 20
139.6364588966
 40
3.0
100
AcDbArc
 50
305.0
 51
77.8
  0
ARC
  5
3A2
100
AcDbEntity
  8
RUNDUNGEN
100
AcDbCircle
 62
7
  6
CONTINUOUS
 10
206.9516170992
 20
132.5877100786
 40
3.0
100
AcDbArc
 50
200.0
 51
305.0
  0
ARC
  5
3A3
100
AcDbEntity
  8
RUNDUNGEN
100
AcDbCircle
 62
7
  6
CONTINUOUS
 10
203.3071074816
 20
142.6009179581
 40
3.0
100
AcDbArc
 50
77.8
 51
200.0
  0
ARC
  5
3A4
100
AcDbEntity
  8
RUNDUNGEN
100
AcDbCircle
 62
7
  6
CONTINUOUS
 10
199.1718489865
 20
87.6532321624
 40
3.0
100
AcDbArc
 50
160.0
 51
277.5
  0
ARC
  5
3A5
100
AcDbEntity
  8
RUNDUNGEN
100
AcDbCircle
 62
7
  6
CONTINUOUS
 10
145.1602585905
 20
41.3870523538
 40
3.0
100
AcDbArc
 50
97.0763102095
 51
180.0
  0
ARC
  5
3A6
100
AcDbEntity
  8
RUNDUNGEN
100
AcDbCircle
 62
7
  6
CONTINUOUS
 10
185.6545948227
 20
60.1507789311
 40
3.0
100
AcDbArc
 50
45.0
 51
132.6465602043
  0
ARC
  5
3A7
100
AcDbEntity
  8
RUNDUNGEN
100
AcDbCircle
 62
7
  6
CONTINUOUS
 10
145.1602585905
 20
27.3545252393
 40
3.0
100
AcDbArc
 50
180.0
 51
275.9377724516
  0
ARC
  5
3A8
100
AcDbEntity
  8
RUNDUNGEN
100
AcDbCircle
 62
7
  6
CONTINUOUS
 10
195.5206428427
 20
50.2847309111
 40
3.0
100
AcDbArc
 50
313.0238917143
 51
45.0
  0
ARC
  5
3A9
100
AcDbEntity
  8
RUNDUNGEN
100
AcDbCircle
 62
7
  6
CONTINUOUS
 10
206.5155984796
 20
60.3428569385
 40
3.0
100
AcDbArc
 50
217.5
 51
322.5
  0
ARC
  5
3AA
100
AcDbEntity
  8
RUNDUNGEN
100
AcDbCircle
 62
7
  6
CONTINUOUS
 10
197.3526139158
 20
72.284290913
 40
3.0
100
AcDbArc
 50
97.5
 51
217.5
  0
ARC
  5
3AB
100
AcDbEntity
  8
RUNDUNGEN
100
AcDbCircle
 62
7
  6
CONTINUOUS
 10
217.7379168307
 20
74.9680669558
 40
3.0
100
AcDbArc
 50
322.5
 51
97.5
  0
ARC
  5
3AC
100
AcDbEntity
  8
RUNDUNGEN
100
AcDbCircle
 62
7
  6
CONTINUOUS
 10
202.6421484664
 20
97.1878016222
 40
3.0
100
AcDbArc
 50
55.0
 51
160.0
  0
ARC
  5
3AD
100
AcDbEntity
  8
RUNDUNGEN
100
AcDbCircle
 62
7
  6
CONTINUOUS
 10
213.5546763861
 20
89.5467673119
 40
3.0
100
AcDbArc
 50
277.5
 51
55.0
  0
ARC
  5
3AE
100
AcDbEntity
  8
RUNDUNGEN
100
AcDbCircle
 62
7
  6
CONTINUOUS
 10
226.1075964153
 20
129.8877558504
 40
1.5
100
AcDbArc
 50
19.2625183008
 51
90.0
  0
ARC
  5
3AF
100
AcDbEntity
  8
RUNDUNGEN
100
AcDbCircle
 62
7
  6
CONTINUOUS
 10
226.1075964153
 20
97.8877558504
 40
1.5
100
AcDbArc
 50
270.0
 51
340.7374816992
  0
ARC
  5
3B0
100
AcDbEntity
  8
RUNDUNGEN
100
AcDbCircle
 62
7
  6
CONTINUOUS
 10
225.6602585905
 20
97.8877558504
 40
1.5
100
AcDbArc
 50
180.0
 51
270.0
  0
ARC
  5
3B1
100
AcDbEntity
  8
RUNDUNGEN
100
AcDbCircle
 62
7
  6
CONTINUOUS
 10
225.6602585905
 20
129.8877558504
 40
1.5
100
AcDbArc
 50
90.0
 51
180.0
  0
ARC
  5
3B2
100
AcDbEntity
  8
RUNDUNGEN
100
AcDbCircle
 62
7
  6
CONTINUOUS
 10
150.2602585905
 20
281.8877558504
 40
5.0
100
AcDbArc
 50
90.0
 51
180.0
  0
ARC
  5
3B3
100
AcDbEntity
  8
RUNDUNGEN
100
AcDbCircle
 62
7
  6
CONTINUOUS
 10
168.6602585905
 20
281.8877558504
 40
5.0
100
AcDbArc
 50
0.0
 51
90.0
  0
ARC
  5
3B4
100
AcDbEntity
  8
RUNDUNGEN
100
AcDbCircle
 62
7
  6
CONTINUOUS
 10
178.6602585905
 20
214.3844998417
 40
4.9999972887
100
AcDbArc
 50
179.9999340183
 51
248.9847601026
  0
ARC
  5
3B5
100
AcDbEntity
  8
BEZUGSACHSEN
100
AcDbCircle
 62
7
  6
CONTINUOUS
 10
178.6602585905
 20
214.3844998417
 40
4.9999972887
100
AcDbArc
 50
179.9999340183
 51
248.9847601026
  0
ARC
  5
3B6
100
AcDbEntity
  8
RUNDUNGEN
100
AcDbCircle
 62
7
  6
CONTINUOUS
 10
200.5521766984
 20
160.8649066273
 40
3.0
100
AcDbArc
 50
132.8
 51
257.8
  0
ARC
  5
3B7
100
AcDbEntity
  8
RUNDUNGEN
100
AcDbCircle
 62
7
  6
CONTINUOUS
 10
210.3308715861
 20
169.9200773786
 40
3.0
100
AcDbArc
 50
27.8
 51
132.8
  0
ARC
  5
3B8
100
AcDbEntity
  8
RUNDUNGEN
100
AcDbCircle
 62
7
  6
CONTINUOUS
 10
216.9774992958
 20
157.3136261796
 40
3.0
100
AcDbArc
 50
257.8
 51
27.8
  0
ARC
  5
3B9
100
AcDbEntity
  8
RUNDUNGEN
100
AcDbCircle
 62
7
  6
CONTINUOUS
 10
180.9891755193
 20
188.3877558504
 40
3.0
100
AcDbArc
 50
61.8
 51
90.0
  0
ARC
  5
3BA
100
AcDbEntity
  8
RUNDUNGEN
100
AcDbCircle
 62
7
  6
CONTINUOUS
 10
195.6222143544
 20
180.5415892687
 40
3.0
100
AcDbArc
 50
311.8
 51
61.8
  0
ARC
  5
3BB
100
AcDbEntity
  8
RUNDUNGEN
100
AcDbCircle
 62
7
  6
CONTINUOUS
 10
181.6412554222
 20
168.041169272
 40
3.0
100
AcDbArc
 50
221.8
 51
311.8
  0
ARC
  5
3BC
100
AcDbEntity
  8
RUNDUNGEN
100
AcDbCircle
 62
7
  6
CONTINUOUS
 10
163.4493074332
 20
188.3877558504
 40
3.0
100
AcDbArc
 50
90.0
 51
221.8
  0
ARC
  5
3BD
100
AcDbEntity
  8
RUNDUNGEN
100
AcDbCircle
 62
7
  6
CONTINUOUS
 10
834.3822526655
 20
66.2421303482
 40
482.415256398
100
AcDbArc
 50
177.968863567
 51
181.038577343
  0
ARC
  5
3BE
100
AcDbEntity
  8
BEZUGSACHSEN
100
AcDbCircle
 62
7
  6
CONTINUOUS
 10
-156.3911489796
 20
66.2421303482
 40
482.4152563978
100
AcDbArc
 50
358.961422657
 51
2.031136433
  0
ARC
  5
3BF
100
AcDbEntity
  8
BEZUGSACHSEN
100
AcDbCircle
 62
7
  6
CONTINUOUS
 10
-148.739985669
 20
77.7447450781
 40
471.5784918645
100
AcDbArc
 50
358.7177274532
 51
1.15417865
  0
ARC
  5
3C0
100
AcDbEntity
  8
RUNDUNGEN
100
AcDbCircle
 62
7
  6
CONTINUOUS
 10
826.7310893547
 20
77.7447450781
 40
471.5784918645
100
AcDbArc
 50
178.84582135
 51
181.2822725468
  0
ARC
  5
3C1
100
AcDbEntity
  8
RUNDUNGEN
100
AcDbCircle
 62
7
  6
CONTINUOUS
 10
132.3277196223
 20
256.0103906962
 40
278.0379253441
100
AcDbArc
 50
322.5626513654
 51
323.0615960014
  0
ARC
  5
3C2
100
AcDbEntity
  8
BEZUGSACHSEN
100
AcDbCircle
 62
7
  6
CONTINUOUS
 10
545.6633840591
 20
256.010390693
 40
278.0379253387
100
AcDbArc
 50
216.9384039986
 51
217.4373486346
  0
ARC
  5
3C3
100
AcDbEntity
  8
RUNDUNGEN
100
AcDbCircle
 62
7
  6
CONTINUOUS
 10
339.4955518428
 20
264.8877558504
 40
22.0
100
AcDbArc
 50
0.0000016486
 51
90.0000234062
  0
ARC
  5
3C4
100
AcDbEntity
  8
BEZUGSACHSEN
100
AcDbCircle
 62
7
  6
CONTINUOUS
 10
338.4955518428
 20
264.8877558504
 40
22.0
100
AcDbArc
 50
89.9999765938
 51
179.9999983514
  0
ARC
  5
3C5
100
AcDbEntity
  8
RUNDUNGEN
100
AcDbCircle
 62
7
  6
CONTINUOUS
 10
366.4955518428
 20
244.2275018126
 40
5.0
100
AcDbArc
 50
179.9999879846
 51
210.0000120004
  0
ARC
  5
3C6
100
AcDbEntity
  8
RUNDUNGEN
100
AcDbCircle
 62
7
  6
CONTINUOUS
 10
361.9955518428
 20
219.9588236623
 40
5.0
100
AcDbArc
 50
315.0000029908
 51
359.9999952544
  0
ARC
  5
3C7
100
AcDbEntity
  8
RUNDUNGEN
100
AcDbCircle
 62
7
  6
CONTINUOUS
 10
361.9955518428
 20
232.0217304466
 40
5.0
100
AcDbArc
 50
0.0
 51
29.9999567129
  0
ARC
  5
3C8
100
AcDbEntity
  8
BEZUGSACHSEN
100
AcDbCircle
 62
7
  6
CONTINUOUS
 10
311.4955518428
 20
244.2275018126
 40
5.0
100
AcDbArc
 50
329.9999879996
 51
0.0000120154
  0
ARC
  5
3C9
100
AcDbEntity
  8
BEZUGSACHSEN
100
AcDbCircle
 62
7
  6
CONTINUOUS
 10
315.9955518428
 20
232.0217304466
 40
5.0
100
AcDbArc
 50
150.0000432871
 51
180.0
  0
ARC
  5
3CA
100
AcDbEntity
  8
BEZUGSACHSEN
100
AcDbCircle
 62
7
  6
CONTINUOUS
 10
315.9955518428
 20
219.9588236623
 40
5.0
100
AcDbArc
 50
180.0000047456
 51
224.9999970092
  0
SPLINE
  5
3CB
100
AcDbEntity
  8
BEZUGSACHSEN
100
AcDbSpline
 62
7
  6
CONTINUOUS
 70
0
 71
3
 72
11
 73
7
 74
0
 42
0.0000001
 43
0.0000001
 44
0.0000000001
 40
0.0
 40
0.0
 40
0.0
 40
0.0
 40
0.0684838436
 40
0.2549144728
 40
0.5652905538
 40
1.0
 40
1.0
 40
1.0
 40
1.0
 10
326.6334482236
 20
24.5412543939
 30
0.0
 10
326.6343492251
 20
24.5412569068
 30
0.0
 10
326.6348207562
 20
24.5461165358
 30
0.0
 10
326.6348290728
 20
24.5521662255
 30
0.0
 10
326.6339570807
 20
24.5652004579
 30
0.0
 10
326.6329845811
 20
24.5746898276
 30
0.0
 10
326.6323656586
 20
24.5803754775
 30
0.0
  0
SPLINE
  5
3CC
100
AcDbEntity
  8
RUNDUNGEN
100
AcDbSpline
 62
7
  6
CONTINUOUS
 70
0
 71
3
 72
15
 73
11
 74
0
 42
0.0000001
 43
0.0000001
 44
0.0000000001
 40
0.0
 40
0.0
 40
0.0
 40
0.0
 40
0.022740213
 40
0.0512920832
 40
0.1255405893
 40
0.2220468021
 40
0.3399036302
 40
0.4780076173
 40
0.6350682352
 40
1.0
 40
1.0
 40
1.0
 40
1.0
 10
351.358738027
 20
24.5803754775
 30
0.0
 10
351.385757342
 20
24.8285848625
 30
0.0
 10
351.4401196408
 20
25.3891515964
 30
0.0
 10
351.5537338641
 20
26.7628576528
 30
0.0
 10
351.6959195909
 20
28.9466726559
 30
0.0
 10
351.8523637263
 20
32.1117037614
 30
0.0
 10
351.9896178529
 20
35.979294445
 30
0.0
 10
352.0923488822
 20
40.5130126137
 30
0.0
 10
352.1672565823
 20
47.7602795488
 30
0.0
 10
352.1196678116
 20
53.4919759756
 30
0.0
 10
352.0462485119
 20
57.4980636357
 30
0.0
  0
SPLINE
  5
3CD
100
AcDbEntity
  8
RUNDUNGEN
100
AcDbSpline
 62
7
  6
CONTINUOUS
 70
0
 71
3
 72
11
 73
7
 74
0
 42
0.0000001
 43
0.0000001
 44
0.0000000001
 40
0.0
 40
0.0
 40
0.0
 40
0.0
 40
0.0684838436
 40
0.2549144728
 40
0.5652905538
 40
1.0
 40
1.0
 40
1.0
 40
1.0
 10
351.357655462
 20
24.5412543939
 30
0.0
 10
351.3567544605
 20
24.5412569068
 30
0.0
 10
351.3562829295
 20
24.5461165358
 30
0.0
 10
351.3562746129
 20
24.5521662255
 30
0.0
 10
351.357146605
 20
24.5652004579
 30
0.0
 10
351.3581191045
 20
24.5746898276
 30
0.0
 10
351.358738027
 20
24.5803754775
 30
0.0
  0
SPLINE
  5
3CE
100
AcDbEntity
  8
RUNDUNGEN
100
AcDbSpline
 62
7
  6
CONTINUOUS
 70
0
 71
3
 72
13
 73
9
 74
0
 42
0.0000001
 43
0.0000001
 44
0.0000000001
 40
0.0
 40
0.0
 40
0.0
 40
0.0
 40
0.3007176779
 40
0.5906181034
 40
0.7194339551
 40
0.8323039442
 40
0.9264021089
 40
1.0
 40
1.0
 40
1.0
 40
1.0
 10
352.2700910663
 20
83.3401782996
 30
0.0
 10
352.2833050544
 20
83.7189234882
 30
0.0
 10
352.3454412869
 20
84.4617284781
 30
0.0
 10
352.4972620903
 20
85.3570851
 30
0.0
 10
352.6626125763
 20
86.0066119435
 30
0.0
 10
352.7937029231
 20
86.4094733746
 30
0.0
 10
352.9318038205
 20
86.7353052596
 30
0.0
 10
353.0386200064
 20
86.9192679505
 30
0.0
 10
353.0949843343
 20
86.9929278078
 30
0.0
  0
SPLINE
  5
3CF
100
AcDbEntity
  8
RUNDUNGEN
100
AcDbSpline
 62
7
  6
CONTINUOUS
 70
0
 71
3
 72
10
 73
6
 74
0
 42
0.0000001
 43
0.0000001
 44
0.0000000001
 40
0.0
 40
0.0
 40
0.0
 40
0.0
 40
0.3177756875
 40
0.5854148157
 40
1.0
 40
1.0
 40
1.0
 40
1.0
 10
354.5584374199
 20
88.9218034234
 30
0.0
 10
354.5790671818
 20
88.9492834267
 30
0.0
 10
354.6199135289
 20
88.9981642173
 30
0.0
 10
354.6999031219
 20
89.070186455
 30
0.0
 10
354.7726087595
 20
89.1027496077
 30
0.0
 10
354.8174388624
 20
89.1027217746
 30
0.0
  0
SPLINE
  5
3D0
100
AcDbEntity
  8
BEZUGSACHSEN
100
AcDbSpline
 62
7
  6
CONTINUOUS
 70
0
 71
3
 72
15
 73
11
 74
0
 42
0.0000001
 43
0.0000001
 44
0.0000000001
 40
0.0
 40
0.0
 40
0.0
 40
0.0
 40
0.022740213
 40
0.0512920832
 40
0.1255405893
 40
0.2220468021
 40
0.3399036302
 40
0.4780076173
 40
0.6350682352
 40
1.0
 40
1.0
 40
1.0
 40
1.0
 10
326.6323656586
 20
24.5803754775
 30
0.0
 10
326.6053463437
 20
24.8285848625
 30
0.0
 10
326.5509840449
 20
25.3891515964
 30
0.0
 10
326.4373698215
 20
26.7628576528
 30
0.0
 10
326.2951840948
 20
28.9466726559
 30
0.0
 10
326.1387399594
 20
32.1117037614
 30
0.0
 10
326.0014858328
 20
35.979294445
 30
0.0
 10
325.8987548034
 20
40.5130126137
 30
0.0
 10
325.8238471034
 20
47.7602795488
 30
0.0
 10
325.871435874
 20
53.4919759756
 30
0.0
 10
325.9448551738
 20
57.4980636357
 30
0.0
  0
SPLINE
  5
3D1
100
AcDbEntity
  8
BEZUGSACHSEN
100
AcDbSpline
 62
7
  6
CONTINUOUS
 70
0
 71
3
 72
10
 73
6
 74
0
 42
0.0000001
 43
0.0000001
 44
0.0000000001
 40
0.0
 40
0.0
 40
0.0
 40
0.0
 40
0.3177756875
 40
0.5854148157
 40
1.0
 40
1.0
 40
1.0
 40
1.0
 10
323.4326662658
 20
88.9218034234
 30
0.0
 10
323.4120365038
 20
88.9492834267
 30
0.0
 10
323.3711901568
 20
88.9981642173
 30
0.0
 10
323.2912005638
 20
89.070186455
 30
0.0
 10
323.2184949261
 20
89.1027496077
 30
0.0
 10
323.1736648233
 20
89.1027217746
 30
0.0
  0
SPLINE
  5
3D2
100
AcDbEntity
  8
BEZUGSACHSEN
100
AcDbSpline
 62
7
  6
CONTINUOUS
 70
0
 71
3
 72
13
 73
9
 74
0
 42
0.0000001
 43
0.0000001
 44
0.0000000001
 40
0.0
 40
0.0
 40
0.0
 40
0.0
 40
0.3007176779
 40
0.5906181034
 40
0.7194339551
 40
0.8323039442
 40
0.9264021089
 40
1.0
 40
1.0
 40
1.0
 40
1.0
 10
325.7210126193
 20
83.3401782996
 30
0.0
 10
325.7077986313
 20
83.7189234882
 30
0.0
 10
325.6456623988
 20
84.4617284781
 30
0.0
 10
325.4938415954
 20
85.3570851
 30
0.0
 10
325.3284911093
 20
86.0066119435
 30
0.0
 10
325.1974007625
 20
86.4094733746
 30
0.0
 10
325.0592998652
 20
86.7353052596
 30
0.0
 10
324.9524836793
 20
86.9192679505
 30
0.0
 10
324.8961193514
 20
86.9929278078
 30
0.0
  0
SPLINE
  5
3D3
100
AcDbEntity
  8
RUNDUNGEN
100
AcDbSpline
 62
7
  6
CONTINUOUS
 70
0
 71
3
 72
8
 73
4
 74
0
 42
0.0000001
 43
0.0000001
 44
0.0000000001
 40
0.0
 40
0.0
 40
0.0
 40
0.0
 40
1.0
 40
1.0
 40
1.0
 40
1.0
 10
354.6852843709
 20
41.3870523538
 30
0.0
 10
353.7826512987
 20
36.7717278254
 30
0.0
 10
352.8804045531
 20
32.1563275858
 30
0.0
 10
351.9764838557
 20
27.5412550686
 30
0.0
  0
SPLINE
  5
3D4
100
AcDbEntity
  8
RUNDUNGEN
100
AcDbSpline
 62
7
  6
CONTINUOUS
 70
0
 71
3
 72
13
 73
9
 74
0
 42
0.0000001
 43
0.0000001
 44
0.0000000001
 40
0.0
 40
0.0
 40
0.0
 40
0.0
 40
0.3754553447
 40
0.6731625607
 40
0.7897813441
 40
0.8836026149
 40
0.9538667816
 40
1.0
 40
1.0
 40
1.0
 40
1.0
 10
355.2706897111
 20
67.1917570113
 30
0.0
 10
355.3344805234
 20
64.3352599675
 30
0.0
 10
355.4063266728
 20
59.2126932526
 30
0.0
 10
355.3901010918
 20
53.2022343342
 30
0.0
 10
355.3344368665
 20
49.3356155016
 30
0.0
 10
355.2901213609
 20
47.1999075206
 30
0.0
 10
355.2498630265
 20
45.6006551931
 30
0.0
 10
355.2255995939
 20
44.7151978272
 30
0.0
 10
355.21827277
 20
44.3642012276
 30
0.0
  0
SPLINE
  5
3D5
100
AcDbEntity
  8
RUNDUNGEN
100
AcDbSpline
 62
7
  6
CONTINUOUS
 70
0
 71
3
 72
17
 73
13
 74
0
 42
0.0000001
 43
0.0000001
 44
0.0000000001
 40
0.0
 40
0.0
 40
0.0
 40
0.0
 40
0.0251730616
 40
0.0518423296
 40
0.0820053179
 40
0.1170423298
 40
0.2045927646
 40
0.3175907053
 40
0.4559088946
 40
0.6178039256
 40
0.8004071096
 40
1.0
 40
1.0
 40
1.0
 40
1.0
 10
354.8174388624
 20
89.1027217746
 30
0.0
 10
354.8342283938
 20
89.1027113506
 30
0.0
 10
354.8690543018
 20
89.097083412
 30
0.0
 10
354.9182961836
 20
89.0716517337
 30
0.0
 10
354.9642498993
 20
89.0303635247
 30
0.0
 10
355.0259383644
 20
88.9487300256
 30
0.0
 10
355.0918872349
 20
88.8045181156
 30
0.0
 10
355.1536747668
 20
88.5867866383
 30
0.0
 10
355.2016456317
 20
88.3149806724
 30
0.0
 10
355.234419189
 20
87.9944460167
 30
0.0
 10
355.2509838096
 20
87.6317766486
 30
0.0
 10
355.2508816452
 20
87.3767781952
 30
0.0
 10
355.2482750555
 20
87.2436823745
 30
0.0
  0
SPLINE
  5
3D6
100
AcDbEntity
  8
RUNDUNGEN
100
AcDbSpline
 62
7
  6
CONTINUOUS
 70
0
 71
3
 72
10
 73
6
 74
0
 42
0.0000001
 43
0.0000001
 44
0.0000000001
 40
0.0
 40
0.0
 40
0.0
 40
0.0
 40
0.6002827809
 40
0.8363502284
 40
1.0
 40
1.0
 40
1.0
 40
1.0
 10
351.9764838557
 20
27.5412550686
 30
0.0
 10
351.8673502628
 20
26.984060785
 30
0.0
 10
351.7139207294
 20
26.2080038795
 30
0.0
 10
351.5251565699
 20
25.2811821767
 30
0.0
 10
351.4475842841
 20
24.9111334295
 30
0.0
 10
351.4139317479
 20
24.7600467067
 30
0.0
  0
SPLINE
  5
3D7
100
AcDbEntity
  8
RUNDUNGEN
100
AcDbSpline
 62
7
  6
CONTINUOUS
 70
0
 71
3
 72
14
 73
10
 74
0
 42
0.0000001
 43
0.0000001
 44
0.0000000001
 40
0.0
 40
0.0
 40
0.0
 40
0.0
 40
0.430197909
 40
0.6010720172
 40
0.7418977352
 40
0.8523070242
 40
0.9320148109
 40
0.9809950397
 40
1.0
 40
1.0
 40
1.0
 40
1.0
 10
351.4139317479
 20
24.7600467067
 30
0.0
 10
351.4068753118
 20
24.7283660691
 30
0.0
 10
351.3968828653
 20
24.6840977051
 30
0.0
 10
351.3839394318
 20
24.6297129899
 30
0.0
 10
351.3762929167
 20
24.5986461794
 30
0.0
 10
351.3698725902
 20
24.5749085332
 30
0.0
 10
351.3649508956
 20
24.5566504337
 30
0.0
 10
351.3611097111
 20
24.5478101148
 30
0.0
 10
351.3590893169
 20
24.5412503949
 30
0.0
 10
351.357655462
 20
24.5412543939
 30
0.0
  0
SPLINE
  5
3D8
100
AcDbEntity
  8
RUNDUNGEN
100
AcDbSpline
 62
7
  6
CONTINUOUS
 70
0
 71
3
 72
15
 73
11
 74
0
 42
0.0000001
 43
0.0000001
 44
0.0000000001
 40
0.0
 40
0.0
 40
0.0
 40
0.0
 40
0.0152699738
 40
0.0387219331
 40
0.1093003561
 40
0.2092126332
 40
0.3348733647
 40
0.4818954505
 40
0.6453307236
 40
1.0
 40
1.0
 40
1.0
 40
1.0
 10
355.21827277
 20
44.3642012276
 30
0.0
 10
355.2179514208
 20
44.3488067675
 30
0.0
 10
355.2145074037
 20
44.3098627471
 30
0.0
 10
355.2012699309
 20
44.2004670795
 30
0.0
 10
355.1714662566
 20
44.0071261235
 30
0.0
 10
355.1220729848
 20
43.712626861
 30
0.0
 10
355.056353522
 20
43.3426917956
 30
0.0
 10
354.9769560756
 20
42.9101508837
 30
0.0
 10
354.8530074227
 20
42.2510058294
 30
0.0
 10
354.7539283756
 20
41.7380414413
 30
0.0
 10
354.6852843709
 20
41.3870523538
 30
0.0
  0
SPLINE
  5
3D9
100
AcDbEntity
  8
BEZUGSACHSEN
100
AcDbSpline
 62
7
  6
CONTINUOUS
 70
0
 71
3
 72
17
 73
13
 74
0
 42
0.0000001
 43
0.0000001
 44
0.0000000001
 40
0.0
 40
0.0
 40
0.0
 40
0.0
 40
0.0251730616
 40
0.0518423296
 40
0.0820053179
 40
0.1170423298
 40
0.2045927646
 40
0.3175907053
 40
0.4559088946
 40
0.6178039256
 40
0.8004071096
 40
1.0
 40
1.0
 40
1.0
 40
1.0
 10
323.1736648233
 20
89.1027217746
 30
0.0
 10
323.1568752918
 20
89.1027113506
 30
0.0
 10
323.1220493839
 20
89.097083412
 30
0.0
 10
323.0728075021
 20
89.0716517337
 30
0.0
 10
323.0268537864
 20
89.0303635247
 30
0.0
 10
322.9651653212
 20
88.9487300256
 30
0.0
 10
322.8992164508
 20
88.8045181156
 30
0.0
 10
322.8374289189
 20
88.5867866383
 30
0.0
 10
322.789458054
 20
88.3149806724
 30
0.0
 10
322.7566844966
 20
87.9944460167
 30
0.0
 10
322.740119876
 20
87.6317766486
 30
0.0
 10
322.7402220404
 20
87.3767781952
 30
0.0
 10
322.7428286301
 20
87.2436823745
 30
0.0
  0
SPLINE
  5
3DA
100
AcDbEntity
  8
BEZUGSACHSEN
100
AcDbSpline
 62
7
  6
CONTINUOUS
 70
0
 71
3
 72
13
 73
9
 74
0
 42
0.0000001
 43
0.0000001
 44
0.0000000001
 40
0.0
 40
0.0
 40
0.0
 40
0.0
 40
0.3754553447
 40
0.6731625607
 40
0.7897813441
 40
0.8836026149
 40
0.9538667816
 40
1.0
 40
1.0
 40
1.0
 40
1.0
 10
322.7204139745
 20
67.1917570113
 30
0.0
 10
322.6566231622
 20
64.3352599675
 30
0.0
 10
322.5847770129
 20
59.2126932526
 30
0.0
 10
322.6010025938
 20
53.2022343342
 30
0.0
 10
322.6566668192
 20
49.3356155016
 30
0.0
 10
322.7009823248
 20
47.1999075206
 30
0.0
 10
322.7412406592
 20
45.6006551931
 30
0.0
 10
322.7655040918
 20
44.7151978272
 30
0.0
 10
322.7728309156
 20
44.3642012276
 30
0.0
  0
SPLINE
  5
3DB
100
AcDbEntity
  8
BEZUGSACHSEN
100
AcDbSpline
 62
7
  6
CONTINUOUS
 70
0
 71
3
 72
8
 73
4
 74
0
 42
0.0000001
 43
0.0000001
 44
0.0000000001
 40
0.0
 40
0.0
 40
0.0
 40
0.0
 40
1.0
 40
1.0
 40
1.0
 40
1.0
 10
323.3058193147
 20
41.3870523538
 30
0.0
 10
324.2084523869
 20
36.7717278254
 30
0.0
 10
325.1106991326
 20
32.1563275858
 30
0.0
 10
326.0146198299
 20
27.5412550686
 30
0.0
  0
SPLINE
  5
3DC
100
AcDbEntity
  8
BEZUGSACHSEN
100
AcDbSpline
 62
7
  6
CONTINUOUS
 70
0
 71
3
 72
15
 73
11
 74
0
 42
0.0000001
 43
0.0000001
 44
0.0000000001
 40
0.0
 40
0.0
 40
0.0
 40
0.0
 40
0.0152699738
 40
0.0387219331
 40
0.1093003561
 40
0.2092126332
 40
0.3348733647
 40
0.4818954505
 40
0.6453307236
 40
1.0
 40
1.0
 40
1.0
 40
1.0
 10
322.7728309156
 20
44.3642012276
 30
0.0
 10
322.7731522649
 20
44.3488067675
 30
0.0
 10
322.7765962819
 20
44.3098627471
 30
0.0
 10
322.7898337547
 20
44.2004670795
 30
0.0
 10
322.8196374291
 20
44.0071261235
 30
0.0
 10
322.8690307008
 20
43.712626861
 30
0.0
 10
322.9347501637
 20
43.3426917956
 30
0.0
 10
323.01414761
 20
42.9101508837
 30
0.0
 10
323.1380962629
 20
42.2510058294
 30
0.0
 10
323.2371753101
 20
41.7380414413
 30
0.0
 10
323.3058193147
 20
41.3870523538
 30
0.0
  0
SPLINE
  5
3DD
100
AcDbEntity
  8
BEZUGSACHSEN
100
AcDbSpline
 62
7
  6
CONTINUOUS
 70
0
 71
3
 72
10
 73
6
 74
0
 42
0.0000001
 43
0.0000001
 44
0.0000000001
 40
0.0
 40
0.0
 40
0.0
 40
0.0
 40
0.6002827809
 40
0.8363502284
 40
1.0
 40
1.0
 40
1.0
 40
1.0
 10
326.0146198299
 20
27.5412550686
 30
0.0
 10
326.1237534228
 20
26.984060785
 30
0.0
 10
326.2771829563
 20
26.2080038795
 30
0.0
 10
326.4659471157
 20
25.2811821767
 30
0.0
 10
326.5435194015
 20
24.9111334295
 30
0.0
 10
326.5771719377
 20
24.7600467067
 30
0.0
  0
SPLINE
  5
3DE
100
AcDbEntity
  8
BEZUGSACHSEN
100
AcDbSpline
 62
7
  6
CONTINUOUS
 70
0
 71
3
 72
14
 73
10
 74
0
 42
0.0000001
 43
0.0000001
 44
0.0000000001
 40
0.0
 40
0.0
 40
0.0
 40
0.0
 40
0.430197909
 40
0.6010720172
 40
0.7418977352
 40
0.8523070242
 40
0.9320148109
 40
0.9809950397
 40
1.0
 40
1.0
 40
1.0
 40
1.0
 10
326.5771719377
 20
24.7600467067
 30
0.0
 10
326.5842283738
 20
24.7283660691
 30
0.0
 10
326.5942208203
 20
24.6840977051
 30
0.0
 10
326.6071642538
 20
24.6297129899
 30
0.0
 10
326.6148107689
 20
24.5986461794
 30
0.0
 10
326.6212310955
 20
24.5749085332
 30
0.0
 10
326.62615279
 20
24.5566504337
 30
0.0
 10
326.6299939746
 20
24.5478101148
 30
0.0
 10
326.6320143688
 20
24.5412503949
 30
0.0
 10
326.6334482236
 20
24.5412543939
 30
0.0
  0
ENDSEC
  0
SECTION
  2
OBJECTS
  0
DICTIONARY
  5
C
100
AcDbDictionary
280
0
281
1
  3
ACAD_GROUP
350
D
  3
ACAD_MLINESTYLE
350
17
  3
ACAD_LAYOUT
350
1A
  3
ACAD_PLOTSETTINGS
350
19
  3
ACAD_PLOTSTYLENAME
350
E
  0
DICTIONARY
  5
D
102
{ACAD_REACTORS
330
C
102
}
100
AcDbDictionary
280
0
281
1
  0
ACDBDICTIONARYWDFLT
  5
E
102
{ACAD_REACTORS
330
C
102
}
100
AcDbDictionary
281
1
  3
Normal
350
F
100
AcDbDictionaryWithDefault
340
F
  0
DICTIONARY
  5
17
102
{ACAD_REACTORS
330
C
102
}
100
AcDbDictionary
280
0
281
1
  3
Standard
350
18
  0
DICTIONARY
  5
19
102
{ACAD_REACTORS
330
C
102
}
100
AcDbDictionary
281
1
  0
DICTIONARY
  5
1A
102
{ACAD_REACTORS
330
C
102
}
100
AcDbDictionary
281
1
  3
Model
350
3DF
  3
Layout1
350
3E0
  0
ACDBPLACEHOLDER
  5
F
102
{ACAD_REACTORS
330
E
102
}
  0
MLINESTYLE
  5
18
102
{ACAD_REACTORS
330
17
102
}
100
AcDbMlineStyle
  2
STANDARD
 70
0
  3

 62
256
 51
90.0
 52
90.0
 71
2
 49
0.5
 62
256
  6
BYLAYER
 49
-0.5
 62
256
  6
BYLAYER
  0
LAYOUT
  5
3DF
102
{ACAD_REACTORS
330
1A
102
}
100
AcDbPlotSettings
  1

  2
none_device
  4
ISO_A3_(420.00_x_297.00_MM)
  6

 40
0.0
 41
0.0
 42
0.0
 43
0.0
 44
420.0
 45
297.0
 46
0.0
 47
0.0
 48
0.0
 49
0.0
140
0.0
141
0.0
142
1.0
143
1.0
 70
1024
 72
1
 73
0
 74
0
  7

 75
0
147
1.0
148
0.0
149
0.0
100
AcDbLayout
  1
Model
 70
0
 71
0
 10
0.0
 20
0.0
 11
420.0
 21
297.0
 12
0.0
 22
0.0
 32
0.0
 14
0.0
 24
0.0
 34
0.0
 15
0.0
 25
0.0
 35
0.0
146
0.0
 13
0.0
 23
0.0
 33
0.0
 16
1.0
 26
0.0
 36
0.0
 17
0.0
 27
1.0
 37
0.0
 76
0
330
209
345
0
346
0
  0
LAYOUT
  5
3E0
102
{ACAD_REACTORS
330
1A
102
}
100
AcDbPlotSettings
  1

  2
none_device
  4
ISO_A3_(420.00_x_297.00_MM)
  6

 40
0.0
 41
0.0
 42
0.0
 43
0.0
 44
420.0
 45
297.0
 46
0.0
 47
0.0
 48
0.0
 49
0.0
140
0.0
141
0.0
142
1.0
143
1.0
 70
0
 72
1
 73
0
 74
0
  7

 75
0
147
1.0
148
0.0
149
0.0
100
AcDbLayout
  1
Layout1
 70
0
 71
1
 10
0.0
 20
0.0
 11
420.0
 21
297.0
 12
0.0
 22
0.0
 32
0.0
 14
0.0
 24
0.0
 34
0.0
 15
0.0
 25
0.0
 35
0.0
146
0.0
 13
0.0
 23
0.0
 33
0.0
 16
1.0
 26
0.0
 36
0.0
 17
0.0
 27
1.0
 37
0.0
 76
0
330
20A
345
0
346
0
  0
ENDSEC
  0
EOF
