999
DXF file: VWH-13_7100213_M34720-P-5.dxf
999
Pro/ENGINEER 2010140 by Parametric Technology Corporation
  0
SECTION
  2
HEADER
  9
$ACADVER
  1
AC1015
  9
$DWGCODEPAGE
  3
ANSI_1252
  9
$EXTMAX
 10
420.0
 20
297.0
 30
0.0
  9
$EXTMIN
 10
0.0
 20
0.0
 30
0.0
  9
$LIMMIN
 10
0.0
 20
0.0
  9
$LIMMAX
 10
420.0
 20
297.0
  9
$VIEWCTR
 10
210.0
 20
148.5
  9
$VIEWSIZE
 40
297.0
  9
$CLAYER
  8
0
  9
$LTSCALE
 40
23.1
  9
$CELTYPE
  6
BYLAYER
  9
$DIMSCALE
 40
1.0
  9
$DIMASZ
 40
3.5
  9
$DIMEXO
 40
2.625
  9
$DIMDLI
 40
15.96
  9
$DIMEXE
 40
7.56
  9
$DIMCEN
 40
3.78
  9
$DIMLFAC
 40
1.0
  9
$DIMBLK
  1
_FILLED
  9
$DIMTXT
 40
3.5
  9
$DIMTOL
 70
1
  9
$DIMLIM
 70
0
  9
$DIMTFAC
 40
1.0
  9
$DIMTP
 40
0.005
  9
$DIMTM
 40
0.005
  9
$PDMODE
 70
3
  9
$PDSIZE
 40
0.3125
  9
$HANDSEED
  5
410
  9
$TILEMODE
 70
1
  9
$MEASUREMENT
 70
1
  9
$INSUNITS
 70
4
  0
ENDSEC
  0
SECTION
  2
CLASSES
  0
CLASS
  1
ACDBDICTIONARYWDFLT
  2
AcDbDictionaryWithDefault
  3
AutoCAD 2000
 90
0
280
0
281
0
  0
CLASS
  1
ACDBPLACEHOLDER
  2
AcDbPlaceHolder
  3
AutoCAD 2000
 90
0
280
0
281
0
  0
CLASS
  1
LAYOUT
  2
AcDbLayout
  3
AutoCAD 2000
 90
0
280
0
281
0
  0
ENDSEC
  0
SECTION
  2
TABLES
  0
TABLE
  2
VPORT
  5
8
100
AcDbSymbolTable
 70
2
  0
VPORT
  5
1F4
100
AcDbSymbolTableRecord
100
AcDbViewportTableRecord
  2
*ACTIVE
 70
0
 10
0.0
 20
0.0
 11
1.0
 21
1.0
 12
210.0
 22
148.5
 13
0.0
 23
0.0
 14
1.0
 24
1.0
 15
0.0
 25
0.0
 16
0.0
 26
0.0
 36
1.0
 17
0.0
 27
0.0
 37
0.0
 40
297.0
 41
1.4141414141
 42
50.0
 43
0.0
 44
0.0
 50
0.0
 51
0.0
 71
0
 72
100
 73
1
 74
1
 75
0
 76
0
 77
0
 78
0
  0
ENDTAB
  0
TABLE
  2
LTYPE
  5
5
100
AcDbSymbolTable
 70
6
  0
LTYPE
  5
14
100
AcDbSymbolTableRecord
100
AcDbLinetypeTableRecord
  2
BYBLOCK
 70
0
  3

 72
65
 73
0
 40
0.0
  0
LTYPE
  5
15
100
AcDbSymbolTableRecord
100
AcDbLinetypeTableRecord
  2
BYLAYER
 70
0
  3

 72
65
 73
0
 40
0.0
  0
LTYPE
  5
16
100
AcDbSymbolTableRecord
100
AcDbLinetypeTableRecord
  2
CONTINUOUS
 70
64
  3
Solid line
 72
65
 73
0
 40
0.0
  0
LTYPE
  5
1F5
100
AcDbSymbolTableRecord
100
AcDbLinetypeTableRecord
  2
CENTER
 70
64
  3
____ _ ____ _ ____ _ ____ _ ____ _ ____ _ ____
 72
65
 73
4
 40
0.6
 49
0.375
 74
0
 49
-0.075
 74
0
 49
0.075
 74
0
 49
-0.075
 74
0
  0
LTYPE
  5
1F6
100
AcDbSymbolTableRecord
100
AcDbLinetypeTableRecord
  2
HIDDEN
 70
64
  3
- - - - - - - - - - - - - - - - - - - -
 72
65
 73
2
 40
0.2
 49
0.1
 74
0
 49
-0.1
 74
0
  0
LTYPE
  5
1F7
100
AcDbSymbolTableRecord
100
AcDbLinetypeTableRecord
  2
PHANTOM
 70
64
  3
_____ _ _ _____ _ _ _____ _ _ _____
 72
65
 73
6
 40
0.8
 49
0.45
 74
0
 49
-0.05
 74
0
 49
0.1
 74
0
 49
-0.05
 74
0
 49
0.1
 74
0
 49
-0.05
 74
0
  0
LTYPE
  5
1F8
100
AcDbSymbolTableRecord
100
AcDbLinetypeTableRecord
  2
DOT
 70
64
  3
. . . . . . . . . . . . . . . . . . . .
 72
65
 73
2
 40
0.2
 49
0.1
 74
0
 49
-0.1
 74
0
  0
LTYPE
  5
1F9
100
AcDbSymbolTableRecord
100
AcDbLinetypeTableRecord
  2
DASHED
 70
64
  3
- - - - - - - - - - - - - - - - - - - -
 72
65
 73
2
 40
0.2
 49
0.1
 74
0
 49
-0.1
 74
0
  0
ENDTAB
  0
TABLE
  2
LAYER
  5
2
100
AcDbSymbolTable
 70
36
  0
LAYER
  5
10
100
AcDbSymbolTableRecord
100
AcDbLayerTableRecord
  2
0
 70
0
 62
7
  6
CONTINUOUS
370
-3
390
F
  0
LAYER
  5
1FA
100
AcDbSymbolTableRecord
100
AcDbLayerTableRecord
  2
DEFAULT_1
 70
0
 62
7
  6
CENTER
370
-3
390
F
  0
LAYER
  5
1FB
100
AcDbSymbolTableRecord
100
AcDbLayerTableRecord
  2
DEFAULT_2
 70
0
 62
8
  6
HIDDEN
370
-3
390
F
  0
LAYER
  5
1FC
100
AcDbSymbolTableRecord
100
AcDbLayerTableRecord
  2
DEFAULT_3
 70
0
 62
7
  6
PHANTOM
370
-3
390
F
  0
LAYER
  5
1FD
100
AcDbSymbolTableRecord
100
AcDbLayerTableRecord
  2
BEZUGSACHSEN
 70
0
 62
7
  6
CONTINUOUS
370
-3
390
F
  0
LAYER
  5
1FE
100
AcDbSymbolTableRecord
100
AcDbLayerTableRecord
  2
BEZUGSEBENEN
 70
0
 62
7
  6
CONTINUOUS
370
-3
390
F
  0
LAYER
  5
1FF
100
AcDbSymbolTableRecord
100
AcDbLayerTableRecord
  2
FASEN
 70
0
 62
7
  6
CONTINUOUS
370
-3
390
F
  0
LAYER
  5
200
100
AcDbSymbolTableRecord
100
AcDbLayerTableRecord
  2
FLAECHEN
 70
0
 62
7
  6
CONTINUOUS
370
-3
390
F
  0
LAYER
  5
201
100
AcDbSymbolTableRecord
100
AcDbLayerTableRecord
  2
HILFEN
 70
0
 62
7
  6
CONTINUOUS
370
-3
390
F
  0
LAYER
  5
202
100
AcDbSymbolTableRecord
100
AcDbLayerTableRecord
  2
KURVEN
 70
0
 62
7
  6
CONTINUOUS
370
-3
390
F
  0
LAYER
  5
203
100
AcDbSymbolTableRecord
100
AcDbLayerTableRecord
  2
PLATZIERUNG
 70
0
 62
7
  6
CONTINUOUS
370
-3
390
F
  0
LAYER
  5
204
100
AcDbSymbolTableRecord
100
AcDbLayerTableRecord
  2
RUNDUNGEN
 70
0
 62
7
  6
CONTINUOUS
370
-3
390
F
  0
LAYER
  5
205
100
AcDbSymbolTableRecord
100
AcDbLayerTableRecord
  2
T_STARTBEZUEGE
 70
0
 62
7
  6
CONTINUOUS
370
-3
390
F
  0
LAYER
  5
206
100
AcDbSymbolTableRecord
100
AcDbLayerTableRecord
  2
ZEICHNUNGSBEMASSUNGEN
 70
0
 62
7
  6
CONTINUOUS
370
-3
390
F
  0
ENDTAB
  0
TABLE
  2
STYLE
  5
3
100
AcDbSymbolTable
 70
1
  0
STYLE
  5
11
100
AcDbSymbolTableRecord
100
AcDbTextStyleTableRecord
  2
STANDARD
 70
0
 40
0.0
 41
0.7
 50
0.0
 71
0
 42
0.2
  3
txt
  4

  0
STYLE
  5
207
100
AcDbSymbolTableRecord
100
AcDbTextStyleTableRecord
  2
TEXTSTYLE_1
 70
0
 40
0.0
 41
0.8
 50
0.0
 71
0
 42
0.2
  3
gdt
  4

  0
ENDTAB
  0
TABLE
  2
VIEW
  5
6
100
AcDbSymbolTable
 70
0
  0
ENDTAB
  0
TABLE
  2
UCS
  5
7
100
AcDbSymbolTable
 70
0
  0
ENDTAB
  0
TABLE
  2
APPID
  5
9
100
AcDbSymbolTable
 70
1
  0
APPID
  5
208
100
AcDbSymbolTableRecord
100
AcDbRegAppTableRecord
  2
ACAD
 70
0
  0
ENDTAB
  0
TABLE
  2
BLOCK_RECORD
  5
1
100
AcDbSymbolTable
 70
0
  0
BLOCK_RECORD
  5
209
100
AcDbSymbolTableRecord
100
AcDbBlockTableRecord
  2
*Model_Space
  0
BLOCK_RECORD
  5
20A
100
AcDbSymbolTableRecord
100
AcDbBlockTableRecord
  2
*Paper_Space
  0
ENDTAB
  0
TABLE
  2
DIMSTYLE
  5
A
100
AcDbSymbolTable
 70
1
100
AcDbDimStyleTable
 71
0
  0
DIMSTYLE
105
20B
100
AcDbSymbolTableRecord
100
AcDbDimStyleTableRecord
  2
STANDARD
 70
0
  3

  4

 40
1.0
 41
3.5
 42
0.0625
 43
0.38
 44
0.18
 45
0.0
 46
0.0
 47
0.005
 48
0.005
140
3.5
141
0.09
142
0.0
143
25.4
144
1.0
145
0.0
146
1.0
147
0.09
 71
1.0
 72
0.0
 73
0
 74
0
 75
0
 76
0
 77
1
 78
8
170
0
171
2
172
0
173
0
174
0
175
0
176
0
177
0
178
5
270
2
271
3
272
3
273
2
274
2
275
0
280
0
281
0
282
0
283
1
284
8
285
0
286
0
287
3
288
0
340
11
  0
ENDTAB
  0
ENDSEC
  0
SECTION
  2
BLOCKS
  0
BLOCK
  5
20
100
AcDbEntity
  8
0
100
AcDbBlockBegin
  2
*Model_Space
 70
0
 10
0.0
 20
0.0
 30
0.0
  3
*Model_Space
  1

  0
ENDBLK
  5
21
100
AcDbEntity
  8
0
100
AcDbBlockEnd
  0
BLOCK
  5
1C
100
AcDbEntity
  8
0
100
AcDbBlockBegin
  2
*Paper_Space
 70
0
 10
0.0
 20
0.0
 30
0.0
  3
*Paper_Space
  1

  0
ENDBLK
  5
1D
100
AcDbEntity
  8
0
100
AcDbBlockEnd
  0
ENDSEC
  0
SECTION
  2
ENTITIES
  0
MTEXT
  5
20C
100
AcDbEntity
  8
0
100
AcDbMText
 62
5
  6
CONTINUOUS
  7
STANDARD
 71
1
 72
1
 10
320.4314669643
 20
134.061446875
 30
0.0
 11
0.0
 21
1.0
 31
0.0
 44
0.9
  1
RUD VWH 13
 40
5.5
 41
46.75
  0
LINE
  5
20D
100
AcDbEntity
  8
0
100
AcDbLine
 62
7
  6
CONTINUOUS
 10
0.0
 20
0.0
 11
0.0
 21
297.0
  0
LINE
  5
20E
100
AcDbEntity
  8
0
100
AcDbLine
 62
7
  6
CONTINUOUS
 10
0.0
 20
0.0
 11
420.0
 21
0.0
  0
LINE
  5
20F
100
AcDbEntity
  8
0
100
AcDbLine
 62
7
  6
CONTINUOUS
 10
0.0
 20
297.0
 11
420.0
 21
297.0
  0
LINE
  5
210
100
AcDbEntity
  8
0
100
AcDbLine
 62
7
  6
CONTINUOUS
 10
420.0
 20
0.0
 11
420.0
 21
297.0
  0
LINE
  5
211
100
AcDbEntity
  8
0
100
AcDbLine
 62
7
  6
CONTINUOUS
 10
149.8561437576
 20
39.9119407928
 11
150.7053915661
 21
40.1226613656
  0
LINE
  5
212
100
AcDbEntity
  8
0
100
AcDbLine
 62
7
  6
CONTINUOUS
 10
154.2439219416
 20
41.0006632162
 11
155.2347088918
 21
41.2465033486
  0
LINE
  5
213
100
AcDbEntity
  8
0
100
AcDbLine
 62
7
  6
CONTINUOUS
 10
149.9521775931
 20
43.1582705964
 11
152.3583753976
 21
43.7553111475
  0
LINE
  5
214
100
AcDbEntity
  8
0
100
AcDbLine
 62
7
  6
CONTINUOUS
 10
152.4262561967
 20
44.6928686817
 11
149.7369736296
 21
44.0255874038
  0
LINE
  5
215
100
AcDbEntity
  8
0
100
AcDbLine
 62
7
  6
CONTINUOUS
 10
158.5174730395
 20
42.5003872808
 11
159.2536010907
 21
42.6098176747
  0
LINE
  5
216
100
AcDbEntity
  8
0
100
AcDbLine
 62
7
  6
CONTINUOUS
 10
158.9479701264
 20
43.4495444698
 11
158.3488787367
 21
43.3899905781
  0
LINE
  5
217
100
AcDbEntity
  8
0
100
AcDbLine
 62
7
  6
CONTINUOUS
 10
123.4649468953
 20
42.8610306609
 11
124.2091638823
 21
42.8602616816
  0
LINE
  5
218
100
AcDbEntity
  8
0
100
AcDbLine
 62
7
  6
CONTINUOUS
 10
119.4073851354
 20
40.5012699483
 11
120.2645029035
 21
40.3252752566
  0
LINE
  5
219
100
AcDbEntity
  8
0
100
AcDbLine
 62
7
  6
CONTINUOUS
 10
120.8935903212
 20
43.3890154075
 11
123.4649468953
 21
42.8610306609
  0
LINE
  5
21A
100
AcDbEntity
  8
0
100
AcDbLine
 62
7
  6
CONTINUOUS
 10
123.7875369152
 20
43.7070528719
 11
121.0733295595
 21
44.2643696195
  0
LINE
  5
21B
100
AcDbEntity
  8
0
100
AcDbLine
 62
7
  6
CONTINUOUS
 10
116.9759445159
 20
41.2009978115
 11
117.8187975075
 21
40.9660002915
  0
LINE
  5
21C
100
AcDbEntity
  8
0
100
AcDbLine
 62
7
  6
CONTINUOUS
 10
99.4233778038
 20
48.9933009876
 11
99.9956253168
 21
48.8062345793
  0
LINE
  5
21D
100
AcDbEntity
  8
0
100
AcDbLine
 62
7
  6
CONTINUOUS
 10
112.0555073311
 20
42.8073353278
 11
113.1534973158
 21
42.4129668347
  0
LINE
  5
21E
100
AcDbEntity
  8
0
100
AcDbLine
 62
7
  6
CONTINUOUS
 10
100.3949211587
 20
49.4348142515
 11
99.6995786789
 21
49.7000749131
  0
LINE
  5
21F
100
AcDbEntity
  8
0
100
AcDbLine
 62
7
  6
CONTINUOUS
 10
98.4386039265
 20
49.6188638746
 11
99.4233778038
 21
48.9933009876
  0
LINE
  5
220
100
AcDbEntity
  8
0
100
AcDbLine
 62
7
  6
CONTINUOUS
 10
99.6995786789
 20
49.7000749131
 11
98.9609975666
 21
50.1692475258
  0
LINE
  5
221
100
AcDbEntity
  8
0
100
AcDbLine
 62
7
  6
CONTINUOUS
 10
98.2091831143
 20
51.705498079
 11
97.5936997931
 21
52.0964746597
  0
LINE
  5
222
100
AcDbEntity
  8
0
100
AcDbLine
 62
7
  6
CONTINUOUS
 10
100.4416984042
 20
52.2282241712
 11
100.9340867515
 21
51.9154418328
  0
LINE
  5
223
100
AcDbEntity
  8
0
100
AcDbLine
 62
7
  6
CONTINUOUS
 10
101.2535233859
 20
52.418305509
 11
100.7611350385
 21
52.7310878473
  0
LINE
  5
224
100
AcDbEntity
  8
0
100
AcDbLine
 62
7
  6
CONTINUOUS
 10
94.6560457671
 20
52.2531259798
 11
95.3572549391
 21
51.729742089
  0
LINE
  5
225
100
AcDbEntity
  8
0
100
AcDbLine
 62
7
  6
CONTINUOUS
 10
100.9340867515
 20
51.9154418328
 11
101.5928087053
 21
51.3205533011
  0
LINE
  5
226
100
AcDbEntity
  8
0
100
AcDbLine
 62
7
  6
CONTINUOUS
 10
98.9609975666
 20
50.1692475258
 11
98.4253705865
 21
50.6859418152
  0
LINE
  5
227
100
AcDbEntity
  8
0
100
AcDbLine
 62
7
  6
CONTINUOUS
 10
98.0260747446
 20
50.057362143
 11
98.4386039265
 21
49.6188638746
  0
LINE
  5
228
100
AcDbEntity
  8
0
100
AcDbLine
 62
7
  6
CONTINUOUS
 10
82.8625942041
 20
63.3499988286
 11
83.4504772011
 21
62.7019104227
  0
LINE
  5
229
100
AcDbEntity
  8
0
100
AcDbLine
 62
7
  6
CONTINUOUS
 10
86.1939308133
 20
59.6774982739
 11
86.7818138103
 21
59.029409868
  0
LINE
  5
22A
100
AcDbEntity
  8
0
100
AcDbLine
 62
7
  6
CONTINUOUS
 10
85.8773614642
 20
64.9033446421
 11
88.6208150763
 21
61.8789324933
  0
LINE
  5
22B
100
AcDbEntity
  8
0
100
AcDbLine
 62
7
  6
CONTINUOUS
 10
78.2027897846
 20
69.677977205
 11
78.8753496724
 21
68.7246799762
  0
LINE
  5
22C
100
AcDbEntity
  8
0
100
AcDbLine
 62
7
  6
CONTINUOUS
 10
80.2204684858
 20
66.8180868822
 11
80.8930283736
 21
65.8647896534
  0
LINE
  5
22D
100
AcDbEntity
  8
0
100
AcDbLine
 62
7
  6
CONTINUOUS
 10
74.8404158756
 20
75.4615093253
 11
75.3916419067
 21
74.4332774392
  0
LINE
  5
22E
100
AcDbEntity
  8
RUNDUNGEN
100
AcDbLine
 62
7
  6
CONTINUOUS
 10
63.680965531
 20
74.8249734808
 11
50.0591074243
 21
112.6611399211
  0
LINE
  5
22F
100
AcDbEntity
  8
0
100
AcDbLine
 62
7
  6
CONTINUOUS
 10
164.5444720815
 20
52.3638331571
 11
163.8244659278
 21
52.1755497177
  0
LINE
  5
230
100
AcDbEntity
  8
0
100
AcDbLine
 62
7
  6
CONTINUOUS
 10
149.1989636202
 20
46.1938798273
 11
151.8882461873
 21
46.8611611051
  0
LINE
  5
231
100
AcDbEntity
  8
0
100
AcDbLine
 62
7
  6
CONTINUOUS
 10
151.5673704093
 20
47.5488055517
 11
148.1703791754
 21
46.7059232606
  0
LINE
  5
232
100
AcDbEntity
  8
0
100
AcDbLine
 62
7
  6
CONTINUOUS
 10
164.2189899549
 20
51.3737380301
 11
164.8081468768
 21
51.4976383148
  0
LINE
  5
233
100
AcDbEntity
  8
0
100
AcDbLine
 62
7
  6
CONTINUOUS
 10
124.2460523389
 20
43.7649478947
 11
123.7875369152
 21
43.7070528719
  0
LINE
  5
234
100
AcDbEntity
  8
0
100
AcDbLine
 62
7
  6
CONTINUOUS
 10
102.0785789461
 20
51.5413107839
 11
102.8105447692
 21
51.6056762027
  0
LINE
  5
235
100
AcDbEntity
  8
0
100
AcDbLine
 62
7
  6
CONTINUOUS
 10
152.3109399241
 20
47.579852156
 11
151.5673704093
 21
47.5488055517
  0
LINE
  5
236
100
AcDbEntity
  8
0
100
AcDbLine
 62
7
  6
CONTINUOUS
 10
100.6477320023
 20
48.7448841121
 11
101.1767409036
 21
48.7617296878
  0
LINE
  5
237
100
AcDbEntity
  8
0
100
AcDbLine
 62
7
  6
CONTINUOUS
 10
100.8145304466
 20
54.9909580339
 11
101.34353932
 21
55.0078035656
  0
LINE
  5
238
100
AcDbEntity
  8
0
100
AcDbLine
 62
7
  6
CONTINUOUS
 10
165.1993889978
 20
52.3541011078
 11
164.5444720815
 21
52.3638331571
  0
LINE
  5
239
100
AcDbEntity
  8
0
100
AcDbLine
 62
7
  6
CONTINUOUS
 10
151.8882461873
 20
46.8611611051
 11
152.3487374188
 21
46.8219685903
  0
LINE
  5
23A
100
AcDbEntity
  8
0
100
AcDbLine
 62
7
  6
CONTINUOUS
 10
99.9956253168
 20
48.8062345793
 11
100.6477320023
 21
48.7448841121
  0
LINE
  5
23B
100
AcDbEntity
  8
0
100
AcDbLine
 62
7
  6
CONTINUOUS
 10
100.7209730822
 20
49.4041398963
 11
100.3949211587
 21
49.4348142515
  0
LINE
  5
23C
100
AcDbEntity
  8
0
100
AcDbLine
 62
7
  6
CONTINUOUS
 10
101.6197373217
 20
55.7145791928
 11
100.9676334746
 21
55.7759279033
  0
LINE
  5
23D
100
AcDbEntity
  8
0
100
AcDbLine
 62
7
  6
CONTINUOUS
 10
157.8674368752
 20
42.5807855922
 11
158.5174730395
 21
42.5003872808
  0
LINE
  5
23E
100
AcDbEntity
  8
0
100
AcDbLine
 62
7
  6
CONTINUOUS
 10
164.8081468768
 20
51.4976383148
 11
165.3322085713
 21
51.4235201636
  0
LINE
  5
23F
100
AcDbEntity
  8
0
100
AcDbLine
 62
7
  6
CONTINUOUS
 10
121.522677739
 20
46.4527555584
 11
124.2368850947
 21
45.8954388107
  0
LINE
  5
240
100
AcDbEntity
  8
0
100
AcDbLine
 62
7
  6
CONTINUOUS
 10
124.2438170116
 20
46.6542326552
 11
120.8153426693
 21
47.3582120935
  0
LINE
  5
241
100
AcDbEntity
  8
0
100
AcDbLine
 62
7
  6
CONTINUOUS
 10
102.1518228155
 20
52.2005647344
 11
101.2535233859
 21
52.418305509
  0
LINE
  5
242
100
AcDbEntity
  8
0
100
AcDbLine
 62
7
  6
CONTINUOUS
 10
158.3488787367
 20
43.3899905781
 11
157.8358854804
 21
43.5202677485
  0
LINE
  5
243
100
AcDbEntity
  8
0
100
AcDbLine
 62
7
  6
CONTINUOUS
 10
119.6987776673
 20
47.7088242251
 11
118.8559246756
 21
47.943821745
  0
LINE
  5
244
100
AcDbEntity
  8
0
100
AcDbLine
 62
7
  6
CONTINUOUS
 10
117.7156936418
 20
48.2121749117
 11
116.8922003679
 21
48.5079515636
  0
LINE
  5
245
100
AcDbEntity
  8
0
100
AcDbLine
 62
7
  6
CONTINUOUS
 10
113.0492307091
 20
49.8882429818
 11
112.2257374352
 21
50.1840196337
  0
LINE
  5
246
100
AcDbEntity
  8
0
100
AcDbLine
 62
7
  6
CONTINUOUS
 10
101.34353932
 20
55.0078035656
 11
102.0388817997
 21
54.742542904
  0
LINE
  5
247
100
AcDbEntity
  8
0
100
AcDbLine
 62
7
  6
CONTINUOUS
 10
124.9281209191
 20
46.3616789385
 11
124.2438170116
 21
46.6542326552
  0
LINE
  5
248
100
AcDbEntity
  8
0
100
AcDbLine
 62
7
  6
CONTINUOUS
 10
102.5612753839
 20
55.2929264671
 11
101.6197373217
 21
55.7145791928
  0
LINE
  5
249
100
AcDbEntity
  8
0
100
AcDbLine
 62
7
  6
CONTINUOUS
 10
124.2368850947
 20
45.8954388107
 11
124.635487439
 21
45.6615490962
  0
LINE
  5
24A
100
AcDbEntity
  8
0
100
AcDbLine
 62
7
  6
CONTINUOUS
 10
99.7132740673
 20
55.1611789215
 11
100.3287602059
 21
54.7702005511
  0
LINE
  5
24B
100
AcDbEntity
  8
0
100
AcDbLine
 62
7
  6
CONTINUOUS
 10
102.0388817997
 20
54.742542904
 11
102.5312701471
 21
54.4297605657
  0
LINE
  5
24C
100
AcDbEntity
  8
0
100
AcDbLine
 62
7
  6
CONTINUOUS
 10
102.8074681488
 20
55.1365361928
 11
102.5612753839
 21
55.2929264671
  0
LINE
  5
24D
100
AcDbEntity
  8
0
100
AcDbLine
 62
7
  6
CONTINUOUS
 10
99.5443260656
 20
57.3394154646
 11
98.8431168937
 21
57.8627993554
  0
LINE
  5
24E
100
AcDbEntity
  8
0
100
AcDbLine
 62
7
  6
CONTINUOUS
 10
103.5892878938
 20
54.4634516291
 11
102.8074681488
 21
55.1365361928
  0
LINE
  5
24F
100
AcDbEntity
  8
0
100
AcDbLine
 62
7
  6
CONTINUOUS
 10
102.5312701471
 20
54.4297605657
 11
103.0668943097
 21
53.913068066
  0
LINE
  5
250
100
AcDbEntity
  8
0
100
AcDbLine
 62
7
  6
CONTINUOUS
 10
89.2826925183
 20
62.4793235676
 11
86.5392389062
 21
65.5037357164
  0
LINE
  5
251
100
AcDbEntity
  8
0
100
AcDbLine
 62
7
  6
CONTINUOUS
 10
91.9665210574
 20
63.7324738439
 11
91.3786380604
 21
64.3805622498
  0
LINE
  5
252
100
AcDbEntity
  8
0
100
AcDbLine
 62
7
  6
CONTINUOUS
 10
88.6351844482
 20
67.4049743986
 11
88.0473014512
 21
68.0530628045
  0
LINE
  5
253
100
AcDbEntity
  8
0
100
AcDbLine
 62
7
  6
CONTINUOUS
 10
102.5343467675
 20
50.8989005755
 11
102.0785789461
 21
51.5413107839
  0
LINE
  5
254
100
AcDbEntity
  8
0
100
AcDbLine
 62
7
  6
CONTINUOUS
 10
87.285368426
 20
68.9468505089
 11
86.7809487507
 21
69.6618230896
  0
LINE
  5
255
100
AcDbEntity
  8
0
100
AcDbLine
 62
7
  6
CONTINUOUS
 10
85.6039696686
 20
71.3300922173
 11
84.9314097808
 21
72.2833894461
  0
LINE
  5
256
100
AcDbEntity
  8
0
100
AcDbLine
 62
7
  6
CONTINUOUS
 10
83.7544306988
 20
73.9516585738
 11
83.2500110235
 21
74.6666311545
  0
LINE
  5
257
100
AcDbEntity
  8
0
100
AcDbLine
 62
7
  6
CONTINUOUS
 10
97.6934075529
 20
50.6215745627
 11
98.0260747446
 21
50.057362143
  0
LINE
  5
258
100
AcDbEntity
  8
0
100
AcDbLine
 62
7
  6
CONTINUOUS
 10
98.4253705865
 20
50.6859418152
 11
98.2590369802
 21
50.9680480085
  0
LINE
  5
259
100
AcDbEntity
  8
0
100
AcDbLine
 62
7
  6
CONTINUOUS
 10
103.921957924
 20
53.8992374527
 11
103.5892878938
 21
54.4634516291
  0
LINE
  5
25A
100
AcDbEntity
  8
0
100
AcDbLine
 62
7
  6
CONTINUOUS
 10
82.663485653
 20
75.6841700505
 11
82.250066105
 21
76.455344011
  0
LINE
  5
25B
100
AcDbEntity
  8
0
100
AcDbLine
 62
7
  6
CONTINUOUS
 10
80.3207749471
 20
80.0541557042
 11
79.9073553992
 21
80.8253296648
  0
LINE
  5
25C
100
AcDbEntity
  8
0
100
AcDbLine
 62
7
  6
CONTINUOUS
 10
97.4838353418
 20
51.1075927511
 11
97.6934075529
 21
50.6215745627
  0
LINE
  5
25D
100
AcDbEntity
  8
0
100
AcDbLine
 62
7
  6
CONTINUOUS
 10
101.5928087053
 20
51.3205533011
 11
101.8023809443
 21
50.8345351568
  0
LINE
  5
25E
100
AcDbEntity
  8
0
100
AcDbLine
 62
7
  6
CONTINUOUS
 10
96.8056083357
 20
56.5958618352
 11
98.1304240209
 21
56.9079614479
  0
LINE
  5
25F
100
AcDbEntity
  8
0
100
AcDbLine
 62
7
  6
CONTINUOUS
 10
98.8431168937
 20
57.8627993554
 11
97.5183014581
 21
57.5507000771
  0
LINE
  5
260
100
AcDbEntity
  8
0
100
AcDbLine
 62
7
  6
CONTINUOUS
 10
101.1268870378
 20
49.4991797583
 11
100.7209730822
 21
49.4041398963
  0
LINE
  5
261
100
AcDbEntity
  8
0
100
AcDbLine
 62
7
  6
CONTINUOUS
 10
102.5577338976
 20
52.2956062981
 11
102.1518228155
 21
52.2005647344
  0
LINE
  5
262
100
AcDbEntity
  8
0
100
AcDbLine
 62
7
  6
CONTINUOUS
 10
100.9676334746
 20
55.7759279033
 11
100.1558084928
 21
55.5858465656
  0
LINE
  5
263
100
AcDbEntity
  8
RUNDUNGEN
100
AcDbLine
 62
7
  6
CONTINUOUS
 10
202.7193302335
 20
80.1031235147
 11
187.7869740562
 21
78.1372415291
  0
LINE
  5
264
100
AcDbEntity
  8
0
100
AcDbLine
 62
7
  6
CONTINUOUS
 10
165.9858079333
 20
52.0770955487
 11
165.1993889978
 21
52.3541011078
  0
LINE
  5
265
100
AcDbEntity
  8
0
100
AcDbLine
 62
7
  6
CONTINUOUS
 10
152.9847114311
 20
47.286675206
 11
152.3109399241
 21
47.579852156
  0
LINE
  5
266
100
AcDbEntity
  8
0
100
AcDbLine
 62
7
  6
CONTINUOUS
 10
157.1155300034
 20
42.9410950981
 11
157.8674368752
 21
42.5807855922
  0
LINE
  5
267
100
AcDbEntity
  8
0
100
AcDbLine
 62
7
  6
CONTINUOUS
 10
152.3487374188
 20
46.8219685903
 11
152.7035568359
 21
46.6031037146
  0
LINE
  5
268
100
AcDbEntity
  8
0
100
AcDbLine
 62
7
  6
CONTINUOUS
 10
157.8358854804
 20
43.5202677485
 11
157.4089904287
 21
43.8403757849
  0
LINE
  5
269
100
AcDbEntity
  8
RUNDUNGEN
100
AcDbLine
 62
7
  6
CONTINUOUS
 10
66.922689979
 20
122.7138025277
 11
102.3821840289
 21
83.054516664
  0
LINE
  5
26A
100
AcDbEntity
  8
0
100
AcDbLine
 62
7
  6
CONTINUOUS
 10
125.409667505
 20
45.8066711428
 11
124.9281209191
 21
46.3616789385
  0
LINE
  5
26B
100
AcDbEntity
  8
0
100
AcDbLine
 62
7
  6
CONTINUOUS
 10
124.635487439
 20
45.6615490962
 11
124.8612824621
 21
45.311099014
  0
LINE
  5
26C
100
AcDbEntity
  8
0
100
AcDbLine
 62
7
  6
CONTINUOUS
 10
103.0668943097
 20
53.913068066
 11
103.2764665486
 21
53.4270499216
  0
LINE
  5
26D
100
AcDbEntity
  8
0
100
AcDbLine
 62
7
  6
CONTINUOUS
 10
98.2590369802
 20
50.9680480085
 11
98.1725625883
 21
51.3758702089
  0
LINE
  5
26E
100
AcDbEntity
  8
0
100
AcDbLine
 62
7
  6
CONTINUOUS
 10
104.0949068196
 20
53.083593228
 11
103.921957924
 21
53.8992374527
  0
LINE
  5
26F
100
AcDbEntity
  8
0
100
AcDbLine
 62
7
  6
CONTINUOUS
 10
97.4772172352
 20
51.6411325722
 11
97.4838353418
 21
51.1075927511
  0
LINE
  5
270
100
AcDbEntity
  8
0
100
AcDbLine
 62
7
  6
CONTINUOUS
 10
102.5409620567
 20
50.3653625441
 11
102.5343467675
 21
50.8989005755
  0
LINE
  5
271
100
AcDbEntity
  8
0
100
AcDbLine
 62
7
  6
CONTINUOUS
 10
103.2764665486
 20
53.4270499216
 11
103.2830846553
 21
52.8935101005
  0
LINE
  5
272
100
AcDbEntity
  8
RUNDUNGEN
100
AcDbLine
 62
7
  6
CONTINUOUS
 10
103.9286040146
 20
220.1707462763
 11
103.9286040146
 21
242.2984778252
  0
LINE
  5
273
100
AcDbEntity
  8
BEZUGSACHSEN
100
AcDbLine
 62
7
  6
CONTINUOUS
 10
103.9286040146
 20
223.8882237874
 11
103.9286040146
 21
255.5621595763
  0
LINE
  5
274
100
AcDbEntity
  8
BEZUGSACHSEN
100
AcDbLine
 62
7
  6
CONTINUOUS
 10
103.9419367681
 20
255.9262152834
 11
103.9286040146
 21
255.562341111
  0
LINE
  5
275
100
AcDbEntity
  8
0
100
AcDbLine
 62
7
  6
CONTINUOUS
 10
98.1725625883
 20
51.3758702089
 11
98.2091831143
 21
51.705498079
  0
LINE
  5
276
100
AcDbEntity
  8
0
100
AcDbLine
 62
7
  6
CONTINUOUS
 10
101.8023809443
 20
50.8345351568
 11
101.7291369631
 21
50.1752810302
  0
LINE
  5
277
100
AcDbEntity
  8
0
100
AcDbLine
 62
7
  6
CONTINUOUS
 10
75.3916419067
 20
74.4332774392
 11
82.663485653
 21
75.6841700505
  0
LINE
  5
278
100
AcDbEntity
  8
0
100
AcDbLine
 62
7
  6
CONTINUOUS
 10
82.250066105
 20
76.455344011
 11
75.9036107571
 21
75.3696091817
  0
LINE
  5
279
100
AcDbEntity
  8
RUNDUNGEN
100
AcDbLine
 62
7
  6
CONTINUOUS
 10
190.6998535606
 20
87.5983900362
 11
199.4126035307
 21
88.7454453307
  0
LINE
  5
27A
100
AcDbEntity
  8
0
100
AcDbLine
 62
7
  6
CONTINUOUS
 10
165.3322085713
 20
51.4235201636
 11
165.7911752227
 21
51.151383202
  0
LINE
  5
27B
100
AcDbEntity
  8
0
100
AcDbLine
 62
7
  6
CONTINUOUS
 10
166.510528405
 20
51.6713236803
 11
165.9858079333
 21
52.0770955487
  0
LINE
  5
27C
100
AcDbEntity
  8
0
100
AcDbLine
 62
7
  6
CONTINUOUS
 10
153.5528046444
 20
46.8138242874
 11
152.9847114311
 21
47.286675206
  0
LINE
  5
27D
100
AcDbEntity
  8
0
100
AcDbLine
 62
7
  6
CONTINUOUS
 10
156.6376964279
 20
43.401157682
 11
157.1155300034
 21
42.9410950981
  0
LINE
  5
27E
100
AcDbEntity
  8
0
100
AcDbLine
 62
7
  6
CONTINUOUS
 10
125.7184002302
 20
45.1351043223
 11
125.409667505
 21
45.8066711428
  0
LINE
  5
27F
100
AcDbEntity
  8
0
100
AcDbLine
 62
7
  6
CONTINUOUS
 10
112.9065705241
 20
43.4511660508
 11
113.0492307091
 21
49.8882429818
  0
LINE
  5
280
100
AcDbEntity
  8
0
100
AcDbLine
 62
7
  6
CONTINUOUS
 10
112.2257374352
 20
50.1840196337
 11
112.0555073311
 21
42.8073353278
  0
LINE
  5
281
100
AcDbEntity
  8
0
100
AcDbLine
 62
7
  6
CONTINUOUS
 10
97.5936997931
 20
52.0964746597
 11
97.4772172352
 21
51.6411325722
  0
LINE
  5
282
100
AcDbEntity
  8
0
100
AcDbLine
 62
7
  6
CONTINUOUS
 10
75.9036107571
 20
75.3696091817
 11
80.3207749471
 21
80.0541557042
  0
LINE
  5
283
100
AcDbEntity
  8
0
100
AcDbLine
 62
7
  6
CONTINUOUS
 10
79.9073553992
 20
80.8253296648
 11
74.8404158756
 21
75.4615093253
  0
LINE
  5
284
100
AcDbEntity
  8
RUNDUNGEN
100
AcDbLine
 62
7
  6
CONTINUOUS
 10
214.709387945
 20
96.7984778252
 11
214.4286040146
 21
96.7984778252
  0
LINE
  5
285
100
AcDbEntity
  8
0
100
AcDbLine
 62
7
  6
CONTINUOUS
 10
165.7911752227
 20
51.151383202
 11
166.1850404727
 21
50.6812252317
  0
LINE
  5
286
100
AcDbEntity
  8
0
100
AcDbLine
 62
7
  6
CONTINUOUS
 10
166.9701478437
 20
51.0675300542
 11
166.510528405
 21
51.6713236803
  0
LINE
  5
287
100
AcDbEntity
  8
0
100
AcDbLine
 62
7
  6
CONTINUOUS
 10
155.2347088918
 20
41.2465033486
 11
153.1358885516
 21
44.2551373227
  0
LINE
  5
288
100
AcDbEntity
  8
0
100
AcDbLine
 62
7
  6
CONTINUOUS
 10
152.3583753976
 20
43.7553111475
 11
154.2439219416
 21
41.0006632162
  0
LINE
  5
289
100
AcDbEntity
  8
0
100
AcDbLine
 62
7
  6
CONTINUOUS
 10
157.4089904287
 20
43.8403757849
 11
157.0681998191
 21
44.3503170684
  0
LINE
  5
28A
100
AcDbEntity
  8
0
100
AcDbLine
 62
7
  6
CONTINUOUS
 10
152.7035568359
 20
46.6031037146
 11
152.9526979593
 21
46.2045648705
  0
LINE
  5
28B
100
AcDbEntity
  8
0
100
AcDbLine
 62
7
  6
CONTINUOUS
 10
153.8019457678
 20
46.4152854433
 11
153.5528046444
 21
46.8138242874
  0
LINE
  5
28C
100
AcDbEntity
  8
0
100
AcDbLine
 62
7
  6
CONTINUOUS
 10
156.2459673302
 20
44.0510534151
 11
156.6376964279
 21
43.401157682
  0
LINE
  5
28D
100
AcDbEntity
  8
0
100
AcDbLine
 62
7
  6
CONTINUOUS
 10
124.8612824621
 20
45.311099014
 11
124.9142636246
 21
44.8440899069
  0
LINE
  5
28E
100
AcDbEntity
  8
0
100
AcDbLine
 62
7
  6
CONTINUOUS
 10
125.7713813927
 20
44.6680952152
 11
125.7184002302
 21
45.1351043223
  0
LINE
  5
28F
100
AcDbEntity
  8
BEZUGSACHSEN
100
AcDbLine
 62
7
  6
CONTINUOUS
 10
128.6786040146
 20
255.5484778252
 11
128.6786040146
 21
242.2984778252
  0
LINE
  5
290
100
AcDbEntity
  8
RUNDUNGEN
100
AcDbLine
 62
7
  6
CONTINUOUS
 10
128.6786040146
 20
242.2984778252
 11
128.6786040146
 21
221.7980743103
  0
LINE
  5
291
100
AcDbEntity
  8
RUNDUNGEN
100
AcDbLine
 62
7
  6
CONTINUOUS
 10
130.9286040146
 20
47.9947556727
 11
130.9286040146
 21
36.5159101862
  0
LINE
  5
292
100
AcDbEntity
  8
0
100
AcDbLine
 62
7
  6
CONTINUOUS
 10
120.8153426693
 20
47.3582120935
 11
119.4073851354
 21
40.5012699483
  0
LINE
  5
293
100
AcDbEntity
  8
0
100
AcDbLine
 62
7
  6
CONTINUOUS
 10
120.2645029035
 20
40.3252752566
 11
120.8935903212
 21
43.3890154075
  0
LINE
  5
294
100
AcDbEntity
  8
0
100
AcDbLine
 62
7
  6
CONTINUOUS
 10
121.0733295595
 20
44.2643696195
 11
121.522677739
 21
46.4527555584
  0
LINE
  5
295
100
AcDbEntity
  8
0
100
AcDbLine
 62
7
  6
CONTINUOUS
 10
118.8559246756
 20
47.943821745
 11
116.9759445159
 21
41.2009978115
  0
LINE
  5
296
100
AcDbEntity
  8
0
100
AcDbLine
 62
7
  6
CONTINUOUS
 10
102.3446231017
 20
49.7843026599
 11
102.5409620567
 21
50.3653625441
  0
LINE
  5
297
100
AcDbEntity
  8
0
100
AcDbLine
 62
7
  6
CONTINUOUS
 10
103.8985679764
 20
52.5025335198
 11
104.0949068196
 21
53.083593228
  0
LINE
  5
298
100
AcDbEntity
  8
0
100
AcDbLine
 62
7
  6
CONTINUOUS
 10
81.8954205066
 20
67.285883625
 11
85.6039696686
 21
71.3300922173
  0
LINE
  5
299
100
AcDbEntity
  8
0
100
AcDbLine
 62
7
  6
CONTINUOUS
 10
84.1724127104
 20
71.0340129106
 11
80.2204684858
 21
66.8180868822
  0
LINE
  5
29A
100
AcDbEntity
  8
0
100
AcDbLine
 62
7
  6
CONTINUOUS
 10
83.2500110235
 20
74.6666311545
 11
78.2027897846
 21
69.677977205
  0
LINE
  5
29B
100
AcDbEntity
  8
0
100
AcDbLine
 62
7
  6
CONTINUOUS
 10
79.8777418054
 20
70.1457739478
 11
83.7544306988
 21
73.9516585738
  0
LINE
  5
29C
100
AcDbEntity
  8
0
100
AcDbLine
 62
7
  6
CONTINUOUS
 10
88.0473014512
 20
68.0530628045
 11
82.8625942041
 21
63.3499988286
  0
LINE
  5
29D
100
AcDbEntity
  8
RUNDUNGEN
100
AcDbLine
 62
7
  6
CONTINUOUS
 10
190.4215106203
 20
170.3014726802
 11
179.4002934597
 21
160.4473672464
  0
LINE
  5
29E
100
AcDbEntity
  8
RUNDUNGEN
100
AcDbLine
 62
7
  6
CONTINUOUS
 10
71.6199968019
 20
89.6420589927
 11
74.402149722
 21
90.6546798428
  0
LINE
  5
29F
100
AcDbEntity
  8
RUNDUNGEN
100
AcDbLine
 62
7
  6
CONTINUOUS
 10
182.2264806716
 20
66.7506011682
 11
190.3344860495
 21
58.6425957903
  0
LINE
  5
2A0
100
AcDbEntity
  8
0
100
AcDbLine
 62
7
  6
CONTINUOUS
 10
160.6840364436
 20
50.6303304273
 11
163.7744750244
 21
44.3494714591
  0
LINE
  5
2A1
100
AcDbEntity
  8
0
100
AcDbLine
 62
7
  6
CONTINUOUS
 10
164.1650583223
 20
45.5375880629
 11
161.8636678418
 21
50.2148235623
  0
LINE
  5
2A2
100
AcDbEntity
  8
0
100
AcDbLine
 62
7
  6
CONTINUOUS
 10
166.1850404727
 20
50.6812252317
 11
167.1713506325
 21
48.6766958255
  0
LINE
  5
2A3
100
AcDbEntity
  8
0
100
AcDbLine
 62
7
  6
CONTINUOUS
 10
167.9564580035
 20
49.0630006481
 11
166.9701478437
 21
51.0675300542
  0
LINE
  5
2A4
100
AcDbEntity
  8
0
100
AcDbLine
 62
7
  6
CONTINUOUS
 10
154.6668739847
 20
48.389641938
 11
156.2459673302
 21
44.0510534151
  0
LINE
  5
2A5
100
AcDbEntity
  8
0
100
AcDbLine
 62
7
  6
CONTINUOUS
 10
157.0681998191
 20
44.3503170684
 11
155.4891064736
 21
48.6889055913
  0
LINE
  5
2A6
100
AcDbEntity
  8
0
100
AcDbLine
 62
7
  6
CONTINUOUS
 10
158.7780364291
 20
49.8859602047
 11
160.3571297747
 21
45.5473716818
  0
LINE
  5
2A7
100
AcDbEntity
  8
0
100
AcDbLine
 62
7
  6
CONTINUOUS
 10
161.1793622636
 20
45.8466353351
 11
159.600268918
 21
50.1852238581
  0
LINE
  5
2A8
100
AcDbEntity
  8
0
100
AcDbLine
 62
7
  6
CONTINUOUS
 10
148.1703791754
 20
46.7059232606
 11
149.8561437576
 21
39.9119407928
  0
LINE
  5
2A9
100
AcDbEntity
  8
0
100
AcDbLine
 62
7
  6
CONTINUOUS
 10
150.7053915661
 20
40.1226613656
 11
149.9521775931
 21
43.1582705964
  0
LINE
  5
2AA
100
AcDbEntity
  8
0
100
AcDbLine
 62
7
  6
CONTINUOUS
 10
149.7369736296
 20
44.0255874038
 11
149.1989636202
 21
46.1938798273
  0
LINE
  5
2AB
100
AcDbEntity
  8
0
100
AcDbLine
 62
7
  6
CONTINUOUS
 10
152.9526979593
 20
46.2045648705
 11
153.0603000416
 21
45.7709060619
  0
LINE
  5
2AC
100
AcDbEntity
  8
0
100
AcDbLine
 62
7
  6
CONTINUOUS
 10
153.9454151773
 20
45.8370738334
 11
153.8019457678
 21
46.4152854433
  0
LINE
  5
2AD
100
AcDbEntity
  8
RUNDUNGEN
100
AcDbLine
 62
7
  6
CONTINUOUS
 10
140.9286040146
 20
36.465189831
 11
140.9286040146
 21
47.9947556727
  0
LINE
  5
2AE
100
AcDbEntity
  8
RUNDUNGEN
100
AcDbLine
 62
7
  6
CONTINUOUS
 10
143.1786040146
 20
221.7984778252
 11
143.1786040146
 21
242.2984778252
  0
LINE
  5
2AF
100
AcDbEntity
  8
BEZUGSACHSEN
100
AcDbLine
 62
7
  6
CONTINUOUS
 10
143.1786040146
 20
242.2984778252
 11
143.1786040146
 21
255.5484778252
  0
LINE
  5
2B0
100
AcDbEntity
  8
0
100
AcDbLine
 62
7
  6
CONTINUOUS
 10
124.9142636246
 20
44.8440899069
 11
124.8243939215
 21
44.4064123922
  0
LINE
  5
2B1
100
AcDbEntity
  8
0
100
AcDbLine
 62
7
  6
CONTINUOUS
 10
125.65155515
 20
44.0845253318
 11
125.7713813927
 21
44.6680952152
  0
LINE
  5
2B2
100
AcDbEntity
  8
0
100
AcDbLine
 62
7
  6
CONTINUOUS
 10
117.8187975075
 20
40.9660002915
 11
119.6987776673
 21
47.7088242251
  0
LINE
  5
2B3
100
AcDbEntity
  8
0
100
AcDbLine
 62
7
  6
CONTINUOUS
 10
100.7611350385
 20
52.7310878473
 11
100.4416984042
 21
52.2282241712
  0
LINE
  5
2B4
100
AcDbEntity
  8
0
100
AcDbLine
 62
7
  6
CONTINUOUS
 10
103.2830846553
 20
52.8935101005
 11
103.1233661144
 21
52.6420779102
  0
LINE
  5
2B5
100
AcDbEntity
  8
0
100
AcDbLine
 62
7
  6
CONTINUOUS
 10
101.7291369631
 20
50.1752810302
 11
101.4097003287
 21
49.6724173541
  0
LINE
  5
2B6
100
AcDbEntity
  8
0
100
AcDbLine
 62
7
  6
CONTINUOUS
 10
103.7388494355
 20
52.2511013296
 11
103.8985679764
 21
52.5025335198
  0
LINE
  5
2B7
100
AcDbEntity
  8
0
100
AcDbLine
 62
7
  6
CONTINUOUS
 10
102.0251864673
 20
49.2814389837
 11
102.3446231017
 21
49.7843026599
  0
LINE
  5
2B8
100
AcDbEntity
  8
0
100
AcDbLine
 62
7
  6
CONTINUOUS
 10
97.5183014581
 20
57.5507000771
 11
96.8056083357
 21
56.5958618352
  0
LINE
  5
2B9
100
AcDbEntity
  8
0
100
AcDbLine
 62
7
  6
CONTINUOUS
 10
98.1304240209
 20
56.9079614479
 11
94.6560457671
 21
52.2531259798
  0
LINE
  5
2BA
100
AcDbEntity
  8
0
100
AcDbLine
 62
7
  6
CONTINUOUS
 10
95.3572549391
 20
51.729742089
 11
99.5443260656
 21
57.3394154646
  0
LINE
  5
2BB
100
AcDbEntity
  8
RUNDUNGEN
100
AcDbLine
 62
7
  6
CONTINUOUS
 10
190.0819622132
 20
154.8949610228
 11
199.4937921686
 21
163.6104111221
  0
LINE
  5
2BC
100
AcDbEntity
  8
0
100
AcDbLine
 62
7
  6
CONTINUOUS
 10
83.4504772011
 20
62.7019104227
 11
85.8773614642
 21
64.9033446421
  0
LINE
  5
2BD
100
AcDbEntity
  8
0
100
AcDbLine
 62
7
  6
CONTINUOUS
 10
86.5392389062
 20
65.5037357164
 11
88.6351844482
 21
67.4049743986
  0
LINE
  5
2BE
100
AcDbEntity
  8
0
100
AcDbLine
 62
7
  6
CONTINUOUS
 10
91.3786380604
 20
64.3805622498
 11
89.2826925183
 21
62.4793235676
  0
LINE
  5
2BF
100
AcDbEntity
  8
0
100
AcDbLine
 62
7
  6
CONTINUOUS
 10
88.6208150763
 20
61.8789324933
 11
86.1939308133
 21
59.6774982739
  0
LINE
  5
2C0
100
AcDbEntity
  8
0
100
AcDbLine
 62
7
  6
CONTINUOUS
 10
86.7818138103
 20
59.029409868
 11
91.9665210574
 21
63.7324738439
  0
LINE
  5
2C1
100
AcDbEntity
  8
RUNDUNGEN
100
AcDbLine
 62
7
  6
CONTINUOUS
 10
185.798492612
 20
73.3366226579
 11
192.5104335493
 21
64.5894509274
  0
LINE
  5
2C2
100
AcDbEntity
  8
0
100
AcDbLine
 62
7
  6
CONTINUOUS
 10
168.1543787943
 20
48.3304410871
 11
167.9564580035
 21
49.0630006481
  0
LINE
  5
2C3
100
AcDbEntity
  8
0
100
AcDbLine
 62
7
  6
CONTINUOUS
 10
161.297018047
 20
45.0969865731
 11
161.1793622636
 21
45.8466353351
  0
LINE
  5
2C4
100
AcDbEntity
  8
0
100
AcDbLine
 62
7
  6
CONTINUOUS
 10
160.3571297747
 20
45.5473716818
 11
160.42384707
 21
44.9376773693
  0
LINE
  5
2C5
100
AcDbEntity
  8
0
100
AcDbLine
 62
7
  6
CONTINUOUS
 10
153.0603000416
 20
45.7709060619
 11
153.0263628817
 21
45.3021280986
  0
LINE
  5
2C6
100
AcDbEntity
  8
0
100
AcDbLine
 62
7
  6
CONTINUOUS
 10
153.9114780174
 20
45.3682958701
 11
153.9454151773
 21
45.8370738334
  0
LINE
  5
2C7
100
AcDbEntity
  8
0
100
AcDbLine
 62
7
  6
CONTINUOUS
 10
124.8243939215
 20
44.4064123922
 11
124.5916735208
 21
43.9980672872
  0
LINE
  5
2C8
100
AcDbEntity
  8
0
100
AcDbLine
 62
7
  6
CONTINUOUS
 10
125.4188347493
 20
43.6761802268
 11
125.65155515
 21
44.0845253318
  0
LINE
  5
2C9
100
AcDbEntity
  8
0
100
AcDbLine
 62
7
  6
CONTINUOUS
 10
113.1534973158
 20
42.4129668347
 11
117.7156936418
 21
48.2121749117
  0
LINE
  5
2CA
100
AcDbEntity
  8
0
100
AcDbLine
 62
7
  6
CONTINUOUS
 10
116.8922003679
 20
48.5079515636
 11
112.9065705241
 21
43.4511660508
  0
LINE
  5
2CB
100
AcDbEntity
  8
0
100
AcDbLine
 62
7
  6
CONTINUOUS
 10
100.1558084928
 20
55.5858465656
 11
99.7132740673
 21
55.1611789215
  0
LINE
  5
2CC
100
AcDbEntity
  8
0
100
AcDbLine
 62
7
  6
CONTINUOUS
 10
103.29631501
 20
51.8264336855
 11
103.7388494355
 21
52.2511013296
  0
LINE
  5
2CD
100
AcDbEntity
  8
0
100
AcDbLine
 62
7
  6
CONTINUOUS
 10
101.6625111444
 20
48.9824871706
 11
102.0251864673
 21
49.2814389837
  0
LINE
  5
2CE
100
AcDbEntity
  8
RUNDUNGEN
100
AcDbLine
 62
7
  6
CONTINUOUS
 10
204.072753806
 20
134.6859946528
 11
196.3678685573
 21
129.2909759206
  0
LINE
  5
2CF
100
AcDbEntity
  8
0
100
AcDbLine
 62
7
  6
CONTINUOUS
 10
86.7809487507
 20
69.6618230896
 11
81.8954205066
 21
67.285883625
  0
LINE
  5
2D0
100
AcDbEntity
  8
0
100
AcDbLine
 62
7
  6
CONTINUOUS
 10
80.8930283736
 20
65.8647896534
 11
87.285368426
 21
68.9468505089
  0
LINE
  5
2D1
100
AcDbEntity
  8
0
100
AcDbLine
 62
7
  6
CONTINUOUS
 10
78.8753496724
 20
68.7246799762
 11
84.1724127104
 21
71.0340129106
  0
LINE
  5
2D2
100
AcDbEntity
  8
0
100
AcDbLine
 62
7
  6
CONTINUOUS
 10
84.9314097808
 20
72.2833894461
 11
79.8777418054
 21
70.1457739478
  0
LINE
  5
2D3
100
AcDbEntity
  8
RUNDUNGEN
100
AcDbLine
 62
7
  6
CONTINUOUS
 10
214.4286040146
 20
129.2984778252
 11
214.709387945
 21
129.2984778252
  0
LINE
  5
2D4
100
AcDbEntity
  8
RUNDUNGEN
100
AcDbLine
 62
7
  6
CONTINUOUS
 10
200.7417542631
 20
94.1772360476
 11
194.1312231996
 21
98.8059797299
  0
LINE
  5
2D5
100
AcDbEntity
  8
0
100
AcDbLine
 62
7
  6
CONTINUOUS
 10
167.1713506325
 20
48.6766958255
 11
167.3035174187
 21
48.0777715457
  0
LINE
  5
2D6
100
AcDbEntity
  8
0
100
AcDbLine
 62
7
  6
CONTINUOUS
 10
168.1556904047
 20
47.6671306118
 11
168.1543787943
 21
48.3304410871
  0
LINE
  5
2D7
100
AcDbEntity
  8
BEZUGSACHSEN
100
AcDbLine
 62
7
  6
CONTINUOUS
 10
167.9286040146
 20
255.5484778252
 11
167.9286040146
 21
242.2984778252
  0
LINE
  5
2D8
100
AcDbEntity
  8
RUNDUNGEN
100
AcDbLine
 62
7
  6
CONTINUOUS
 10
167.9286040146
 20
242.2984778252
 11
167.9286040146
 21
199.2217848626
  0
LINE
  5
2D9
100
AcDbEntity
  8
0
100
AcDbLine
 62
7
  6
CONTINUOUS
 10
161.2266924478
 20
44.4374133648
 11
161.297018047
 21
45.0969865731
  0
LINE
  5
2DA
100
AcDbEntity
  8
0
100
AcDbLine
 62
7
  6
CONTINUOUS
 10
167.3035174187
 20
48.0777715457
 11
167.2390749786
 21
47.5480964453
  0
LINE
  5
2DB
100
AcDbEntity
  8
0
100
AcDbLine
 62
7
  6
CONTINUOUS
 10
160.42384707
 20
44.9376773693
 11
160.302582947
 21
44.4180587085
  0
LINE
  5
2DC
100
AcDbEntity
  8
0
100
AcDbLine
 62
7
  6
CONTINUOUS
 10
153.6303234222
 20
44.6847243788
 11
153.9114780174
 21
45.3682958701
  0
LINE
  5
2DD
100
AcDbEntity
  8
RUNDUNGEN
100
AcDbLine
 62
7
  6
CONTINUOUS
 10
196.9382150924
 20
115.5059339581
 11
202.989354773
 21
119.7429875772
  0
LINE
  5
2DE
100
AcDbEntity
  8
0
100
AcDbLine
 62
7
  6
CONTINUOUS
 10
103.1233661144
 20
52.6420779102
 11
102.5577338976
 21
52.2956062981
  0
LINE
  5
2DF
100
AcDbEntity
  8
0
100
AcDbLine
 62
7
  6
CONTINUOUS
 10
101.4097003287
 20
49.6724173541
 11
101.1268870378
 21
49.4991797583
  0
LINE
  5
2E0
100
AcDbEntity
  8
0
100
AcDbLine
 62
7
  6
CONTINUOUS
 10
100.3287602059
 20
54.7702005511
 11
100.8145304466
 21
54.9909580339
  0
LINE
  5
2E1
100
AcDbEntity
  8
0
100
AcDbLine
 62
7
  6
CONTINUOUS
 10
102.8105447692
 20
51.6056762027
 11
103.29631501
 21
51.8264336855
  0
LINE
  5
2E2
100
AcDbEntity
  8
0
100
AcDbLine
 62
7
  6
CONTINUOUS
 10
101.1767409036
 20
48.7617296878
 11
101.6625111444
 21
48.9824871706
  0
LINE
  5
2E3
100
AcDbEntity
  8
RUNDUNGEN
100
AcDbLine
 62
7
  6
CONTINUOUS
 10
192.4916543782
 20
142.3446560638
 11
202.9859988863
 21
140.0756984685
  0
LINE
  5
2E4
100
AcDbEntity
  8
RUNDUNGEN
100
AcDbLine
 62
7
  6
CONTINUOUS
 10
202.989354773
 20
106.3539680733
 11
196.9382150924
 21
110.5910216923
  0
LINE
  5
2E5
100
AcDbEntity
  8
0
100
AcDbLine
 62
7
  6
CONTINUOUS
 10
167.8953035285
 20
46.875053874
 11
168.1556904047
 21
47.6671306118
  0
LINE
  5
2E6
100
AcDbEntity
  8
RUNDUNGEN
100
AcDbLine
 62
7
  6
CONTINUOUS
 10
187.4891971216
 20
91.5987850503
 11
189.5914160282
 21
97.374584027
  0
LINE
  5
2E7
100
AcDbEntity
  8
0
100
AcDbLine
 62
7
  6
CONTINUOUS
 10
160.8822935166
 20
43.6780871766
 11
161.2266924478
 21
44.4374133648
  0
LINE
  5
2E8
100
AcDbEntity
  8
0
100
AcDbLine
 62
7
  6
CONTINUOUS
 10
153.0263628817
 20
45.3021280986
 11
152.8150127736
 21
44.9427817693
  0
LINE
  5
2E9
100
AcDbEntity
  8
0
100
AcDbLine
 62
7
  6
CONTINUOUS
 10
124.8704497064
 20
43.180608098
 11
125.4188347493
 21
43.6761802268
  0
LINE
  5
2EA
100
AcDbEntity
  8
0
100
AcDbLine
 62
7
  6
CONTINUOUS
 10
124.5916735208
 20
43.9980672872
 11
124.2460523389
 21
43.7649478947
  0
LINE
  5
2EB
100
AcDbEntity
  8
0
100
AcDbLine
 62
7
  6
CONTINUOUS
 10
124.2091638823
 20
42.8602616816
 11
124.8704497064
 21
43.180608098
  0
LINE
  5
2EC
100
AcDbEntity
  8
RUNDUNGEN
100
AcDbLine
 62
7
  6
CONTINUOUS
 10
207.2954094767
 20
146.3434758289
 11
191.4863117366
 21
149.7615237465
  0
LINE
  5
2ED
100
AcDbEntity
  8
BEZUGSACHSEN
100
AcDbLine
 62
7
  6
CONTINUOUS
 10
123.3126780397
 20
194.6722132866
 11
106.473845279
 21
213.5054228392
  0
LINE
  5
2EE
100
AcDbEntity
  8
RUNDUNGEN
100
AcDbLine
 62
7
  6
CONTINUOUS
 10
169.4750239988
 20
143.0424389881
 11
106.473845279
 21
213.5054228392
  0
LINE
  5
2EF
100
AcDbEntity
  8
RUNDUNGEN
100
AcDbLine
 62
7
  6
CONTINUOUS
 10
207.710084082
 20
117.2855314443
 11
207.710084082
 21
108.8114242061
  0
LINE
  5
2F0
100
AcDbEntity
  8
0
100
AcDbLine
 62
7
  6
CONTINUOUS
 10
167.2390749786
 20
47.5480964453
 11
166.9780293482
 21
47.0876733779
  0
LINE
  5
2F1
100
AcDbEntity
  8
0
100
AcDbLine
 62
7
  6
CONTINUOUS
 10
160.302582947
 20
44.4180587085
 11
159.9933437145
 21
43.9885178848
  0
LINE
  5
2F2
100
AcDbEntity
  8
0
100
AcDbLine
 62
7
  6
CONTINUOUS
 10
167.5034026475
 20
46.3502447631
 11
167.8953035285
 21
46.875053874
  0
LINE
  5
2F3
100
AcDbEntity
  8
0
100
AcDbLine
 62
7
  6
CONTINUOUS
 10
160.4360113315
 20
43.1986676165
 11
160.8822935166
 21
43.6780871766
  0
LINE
  5
2F4
100
AcDbEntity
  8
0
100
AcDbLine
 62
7
  6
CONTINUOUS
 10
153.1358885516
 20
44.2551373227
 11
153.6303234222
 21
44.6847243788
  0
LINE
  5
2F5
100
AcDbEntity
  8
0
100
AcDbLine
 62
7
  6
CONTINUOUS
 10
166.9780293482
 20
47.0876733779
 11
166.5203804353
 21
46.6965025307
  0
LINE
  5
2F6
100
AcDbEntity
  8
0
100
AcDbLine
 62
7
  6
CONTINUOUS
 10
166.9149045085
 20
45.8946907495
 11
167.5034026475
 21
46.3502447631
  0
LINE
  5
2F7
100
AcDbEntity
  8
0
100
AcDbLine
 62
7
  6
CONTINUOUS
 10
159.9933437145
 20
43.9885178848
 11
159.4961293011
 21
43.6490550942
  0
LINE
  5
2F8
100
AcDbEntity
  8
0
100
AcDbLine
 62
7
  6
CONTINUOUS
 10
152.8150127736
 20
44.9427817693
 11
152.4262561967
 21
44.6928686817
  0
LINE
  5
2F9
100
AcDbEntity
  8
0
100
AcDbLine
 62
7
  6
CONTINUOUS
 10
159.8017602654
 20
42.8093282991
 11
160.4360113315
 21
43.1986676165
  0
LINE
  5
2FA
100
AcDbEntity
  8
0
100
AcDbLine
 62
7
  6
CONTINUOUS
 10
163.8244659278
 20
52.1755497177
 11
160.6840364436
 21
50.6303304273
  0
LINE
  5
2FB
100
AcDbEntity
  8
0
100
AcDbLine
 62
7
  6
CONTINUOUS
 10
161.8636678418
 20
50.2148235623
 11
164.2189899549
 21
51.3737380301
  0
LINE
  5
2FC
100
AcDbEntity
  8
0
100
AcDbLine
 62
7
  6
CONTINUOUS
 10
159.600268918
 20
50.1852238581
 11
158.7780364291
 21
49.8859602047
  0
LINE
  5
2FD
100
AcDbEntity
  8
0
100
AcDbLine
 62
7
  6
CONTINUOUS
 10
155.4891064736
 20
48.6889055913
 11
154.6668739847
 21
48.389641938
  0
LINE
  5
2FE
100
AcDbEntity
  8
RUNDUNGEN
100
AcDbLine
 62
7
  6
CONTINUOUS
 10
161.8748779409
 20
183.0484778252
 11
174.414746027
 21
183.0484778252
  0
LINE
  5
2FF
100
AcDbEntity
  8
RUNDUNGEN
100
AcDbLine
 62
7
  6
CONTINUOUS
 10
175.1642680499
 20
160.6841978347
 11
159.6384499419
 21
178.0488804145
  0
LINE
  5
300
100
AcDbEntity
  8
RUNDUNGEN
100
AcDbLine
 62
7
  6
CONTINUOUS
 10
191.8280613859
 20
130.7223716234
 11
189.0386021265
 21
138.386347951
  0
LINE
  5
301
100
AcDbEntity
  8
RUNDUNGEN
100
AcDbLine
 62
7
  6
CONTINUOUS
 10
213.4286040146
 20
97.7984778252
 11
213.4286040146
 21
128.2984778252
  0
LINE
  5
302
100
AcDbEntity
  8
RUNDUNGEN
100
AcDbLine
 62
7
  6
CONTINUOUS
 10
197.270553591
 20
64.5894509274
 11
205.4909688311
 21
75.3025046436
  0
LINE
  5
303
100
AcDbEntity
  8
0
100
AcDbLine
 62
7
  6
CONTINUOUS
 10
166.5203804353
 20
46.6965025307
 11
164.1650583223
 21
45.5375880629
  0
LINE
  5
304
100
AcDbEntity
  8
0
100
AcDbLine
 62
7
  6
CONTINUOUS
 10
163.7744750244
 20
44.3494714591
 11
166.9149045085
 21
45.8946907495
  0
LINE
  5
305
100
AcDbEntity
  8
0
100
AcDbLine
 62
7
  6
CONTINUOUS
 10
159.4961293011
 20
43.6490550942
 11
158.9479701264
 21
43.4495444698
  0
LINE
  5
306
100
AcDbEntity
  8
0
100
AcDbLine
 62
7
  6
CONTINUOUS
 10
159.2536010907
 20
42.6098176747
 11
159.8017602654
 21
42.8093282991
  0
LINE
  5
307
100
AcDbEntity
  8
RUNDUNGEN
100
AcDbLine
 62
7
  6
CONTINUOUS
 10
175.8323983216
 20
182.6923881814
 11
189.8395655042
 21
175.1818110354
  0
LINE
  5
308
100
AcDbEntity
  8
RUNDUNGEN
100
AcDbLine
 62
7
  6
CONTINUOUS
 10
204.1858590071
 20
162.8083814496
 11
210.5831267917
 21
150.6748834328
  0
LINE
  5
309
100
AcDbEntity
  8
BEZUGSACHSEN
100
AcDbLine
 62
7
  6
CONTINUOUS
 10
143.1786040146
 20
232.2484778252
 11
128.6786040146
 21
232.2484778252
  0
LINE
  5
30A
100
AcDbEntity
  8
BEZUGSACHSEN
100
AcDbLine
 62
7
  6
CONTINUOUS
 10
128.6786040146
 20
247.8484778252
 11
143.1786040146
 21
247.8484778252
  0
LWPOLYLINE
  5
30B
100
AcDbEntity
  8
RUNDUNGEN
100
AcDbPolyline
 62
7
  6
CONTINUOUS
 90
23
 70
0
 10
108.9286098988
 20
260.5484778234
 10
108.7411923085
 20
260.5449819664
 10
108.3763277989
 20
260.5180278826
 10
108.0144836705
 20
260.4645814293
 10
107.6576146863
 20
260.3849316147
 10
107.3076405671
 20
260.2795156873
 10
106.9664285787
 20
260.1489106409
 10
106.6358115708
 20
259.9938384033
 10
106.317535181
 20
259.8151422234
 10
106.0132922238
 20
259.6137995039
 10
105.7246785136
 20
259.3908949233
 10
105.4532138806
 20
259.1476305004
 10
105.2003243957
 20
258.8853128244
 10
104.9673394725
 20
258.6053501016
 10
104.7554806371
 20
258.3092400592
 10
104.565860016
 20
257.9985680486
 10
104.3994674731
 20
257.6749871501
 10
104.2571736124
 20
257.3402211321
 10
104.1397209422
 20
256.9960466944
 10
104.0477238144
 20
256.6442919713
 10
103.9816634215
 20
256.2868217676
 10
103.9418862118
 20
255.9255256273
 10
103.9286040146
 20
255.562341111
  0
LWPOLYLINE
  5
30C
100
AcDbEntity
  8
BEZUGSACHSEN
100
AcDbPolyline
 62
7
  6
CONTINUOUS
 90
22
 70
0
 10
108.9286102201
 20
260.5484778233
 10
108.7557724958
 20
260.5455049427
 10
108.3901345717
 20
260.5195360526
 10
108.0274542777
 20
260.4669658097
 10
107.6696986504
 20
260.3880794268
 10
107.3187997633
 20
260.2833116737
 10
106.9766370498
 20
260.1532382942
 10
106.6450557453
 20
259.9985812692
 10
106.3258130677
 20
259.8201848707
 10
106.0206133866
 20
259.6190286696
 10
105.7310636229
 20
259.3962005604
 10
105.4586943346
 20
259.1529067993
 10
105.2049417644
 20
258.8904591466
 10
104.9711449331
 20
258.6102719104
 10
104.7585342485
 20
258.3138497054
 10
104.5682300315
 20
258.0027856043
 10
104.4012294311
 20
257.6787409366
 10
104.2584095387
 20
257.3434483569
 10
104.1405185
 20
256.9986940731
 10
104.0481753608
 20
256.646316154
 10
103.9818650597
 20
256.2881898203
 10
103.9419367681
 20
255.9262152834
  0
LINE
  5
30D
100
AcDbEntity
  8
RUNDUNGEN
100
AcDbLine
 62
7
  6
CONTINUOUS
 10
108.9286039829
 20
260.5484778252
 11
123.6786040146
 21
260.5484778252
  0
LINE
  5
30E
100
AcDbEntity
  8
RUNDUNGEN
100
AcDbLine
 62
7
  6
CONTINUOUS
 10
148.1786040146
 20
260.5484778252
 11
162.9286040146
 21
260.5484778252
  0
LWPOLYLINE
  5
30F
100
AcDbEntity
  8
RUNDUNGEN
100
AcDbPolyline
 62
7
  6
CONTINUOUS
 90
9
 70
0
 10
324.7427036153
 20
24.0484778252
 10
325.1075791831
 20
24.0560965933
 10
325.65952157
 20
24.0966922407
 10
326.2068118192
 20
24.1719704047
 10
326.7472475384
 20
24.2814353306
 10
327.2786916029
 20
24.4244525162
 10
327.7990660433
 20
24.6002530685
 10
328.3063756027
 20
24.8079459722
 10
328.4066330482
 20
24.8534712009
  0
LINE
  5
310
100
AcDbEntity
  8
BEZUGSACHSEN
100
AcDbLine
 62
7
  6
CONTINUOUS
 10
324.7427036662
 20
24.0484778252
 11
321.5268885491
 21
24.0484778252
  0
LINE
  5
311
100
AcDbEntity
  8
0
100
AcDbLine
 62
7
  6
CONTINUOUS
 10
321.5268885713
 20
24.0484778252
 11
324.742703644
 21
24.0484778252
  0
LWPOLYLINE
  5
312
100
AcDbEntity
  8
BEZUGSACHSEN
100
AcDbPolyline
 62
7
  6
CONTINUOUS
 90
9
 70
0
 10
317.8630360935
 20
24.8534356843
 10
317.9572469926
 20
24.8106141324
 10
318.463175398
 20
24.6030003894
 10
318.982140782
 20
24.4271133219
 10
319.5121631598
 20
24.2838406789
 10
320.0511803726
 20
24.1739493315
 10
320.5970713292
 20
24.0980731137
 10
321.1476498491
 20
24.0567085099
 10
321.5268885997
 20
24.0484778252
  0
LINE
  5
313
100
AcDbEntity
  8
BEZUGSACHSEN
100
AcDbLine
 62
7
  6
CONTINUOUS
 10
317.8630360961
 20
24.8534356883
 11
317.6795315616
 21
24.9407601164
  0
LINE
  5
314
100
AcDbEntity
  8
BEZUGSACHSEN
100
AcDbLine
 62
7
  6
CONTINUOUS
 10
300.8046658195
 20
215.4814848646
 11
304.2149201325
 21
221.3882186015
  0
LINE
  5
315
100
AcDbEntity
  8
RUNDUNGEN
100
AcDbLine
 62
7
  6
CONTINUOUS
 10
338.0861778994
 20
194.499859617
 11
344.6703306883
 21
201.0840124059
  0
LWPOLYLINE
  5
316
100
AcDbEntity
  8
BEZUGSACHSEN
100
AcDbPolyline
 62
7
  6
CONTINUOUS
 90
32
 70
0
 10
312.9318555146
 20
31.1393099992
 10
312.9534995251
 20
31.0366554772
 10
312.9774467417
 20
30.9287322678
 10
313.0043600383
 20
30.8137278826
 10
313.0349137969
 20
30.6902423853
 10
313.0699789686
 20
30.5565736657
 10
313.1105982822
 20
30.4109734139
 10
313.1577400622
 20
30.252570861
 10
313.2126822361
 20
30.0800407485
 10
313.2764431928
 20
29.8934478715
 10
313.3504233327
 20
29.6921908783
 10
313.4354947199
 20
29.477498374
 10
313.5329499056
 20
29.2497073154
 10
313.6431310923
 20
29.0114360357
 10
313.7664493099
 20
28.764809417
 10
313.9032183
 20
28.5118614656
 10
314.0536197816
 20
28.2545787333
 10
314.2174415147
 20
27.9952752935
 10
314.3941557579
 20
27.7363208312
 10
314.5835599127
 20
27.4792244395
 10
314.7847736208
 20
27.226097606
 10
314.9982528387
 20
26.97714219
 10
315.2240556696
 20
26.7330849138
 10
315.4622643081
 20
26.4946067227
 10
315.7129013223
 20
26.2624372067
 10
315.9759805438
 20
26.0373006379
 10
316.2514737233
 20
25.819947778
 10
316.5392923697
 20
25.6111639654
 10
316.8393161024
 20
25.4117420489
 10
317.1513394513
 20
25.2225135301
 10
317.4750839043
 20
25.0443281473
 10
317.6795315616
 20
24.9407601164
  0
LINE
  5
317
100
AcDbEntity
  8
BEZUGSACHSEN
100
AcDbLine
 62
7
  6
CONTINUOUS
 10
312.4590089365
 20
33.5342972853
 11
312.9318555146
 21
31.1393099992
  0
LINE
  5
318
100
AcDbEntity
  8
BEZUGSACHSEN
100
AcDbLine
 62
7
  6
CONTINUOUS
 10
307.7848496951
 20
57.6491815617
 11
307.8092773274
 21
57.4214130869
  0
LINE
  5
319
100
AcDbEntity
  8
BEZUGSACHSEN
100
AcDbLine
 62
7
  6
CONTINUOUS
 10
307.7582694686
 20
57.9087914005
 11
307.7848496951
 21
57.6491815617
  0
LINE
  5
31A
100
AcDbEntity
  8
BEZUGSACHSEN
100
AcDbLine
 62
7
  6
CONTINUOUS
 10
307.7292764297
 20
58.205317698
 11
307.7582694686
 21
57.9087914005
  0
LINE
  5
31B
100
AcDbEntity
  8
BEZUGSACHSEN
100
AcDbLine
 62
7
  6
CONTINUOUS
 10
307.6976878182
 20
58.5439199862
 11
307.7292764297
 21
58.205317698
  0
LINE
  5
31C
100
AcDbEntity
  8
BEZUGSACHSEN
100
AcDbLine
 62
7
  6
CONTINUOUS
 10
307.3667062393
 20
62.3566584617
 11
307.5585727886
 21
60.2355009145
  0
LINE
  5
31D
100
AcDbEntity
  8
BEZUGSACHSEN
100
AcDbLine
 62
7
  6
CONTINUOUS
 10
307.663380456
 20
58.93006544
 11
307.6976878182
 21
58.5439199862
  0
LINE
  5
31E
100
AcDbEntity
  8
BEZUGSACHSEN
100
AcDbLine
 62
7
  6
CONTINUOUS
 10
307.1628390285
 20
64.7266510211
 11
307.3667062393
 21
62.3566584617
  0
LINE
  5
31F
100
AcDbEntity
  8
BEZUGSACHSEN
100
AcDbLine
 62
7
  6
CONTINUOUS
 10
307.6262849789
 20
59.3697046842
 11
307.663380456
 21
58.93006544
  0
LINE
  5
320
100
AcDbEntity
  8
BEZUGSACHSEN
100
AcDbLine
 62
7
  6
CONTINUOUS
 10
306.9374609654
 20
67.4909239704
 11
307.1628390285
 21
64.7266510211
  0
LINE
  5
321
100
AcDbEntity
  8
BEZUGSACHSEN
100
AcDbLine
 62
7
  6
CONTINUOUS
 10
307.5863927888
 20
59.8693756672
 11
307.6262849789
 21
59.3697046842
  0
LINE
  5
322
100
AcDbEntity
  8
BEZUGSACHSEN
100
AcDbLine
 62
7
  6
CONTINUOUS
 10
306.6995468435
 20
70.584641943
 11
306.9374609654
 21
67.4909239704
  0
LINE
  5
323
100
AcDbEntity
  8
BEZUGSACHSEN
100
AcDbLine
 62
7
  6
CONTINUOUS
 10
307.5437728755
 20
60.4362414155
 11
307.5863927888
 21
59.8693756672
  0
LINE
  5
324
100
AcDbEntity
  8
BEZUGSACHSEN
100
AcDbLine
 62
7
  6
CONTINUOUS
 10
306.4592894324
 20
73.9122076419
 11
306.6995468435
 21
70.584641943
  0
LINE
  5
325
100
AcDbEntity
  8
BEZUGSACHSEN
100
AcDbLine
 62
7
  6
CONTINUOUS
 10
307.498726207
 20
61.0761588096
 11
307.5437728755
 21
60.4362414155
  0
LINE
  5
326
100
AcDbEntity
  8
BEZUGSACHSEN
100
AcDbLine
 62
7
  6
CONTINUOUS
 10
306.226109853
 20
77.3673244909
 11
306.4592894324
 21
73.9122076419
  0
LINE
  5
327
100
AcDbEntity
  8
BEZUGSACHSEN
100
AcDbLine
 62
7
  6
CONTINUOUS
 10
307.4518777826
 20
61.7918574565
 11
307.498726207
 21
61.0761588096
  0
LINE
  5
328
100
AcDbEntity
  8
BEZUGSACHSEN
100
AcDbLine
 62
7
  6
CONTINUOUS
 10
306.0080658047
 20
80.838913297
 11
306.226109853
 21
77.3673244909
  0
LINE
  5
329
100
AcDbEntity
  8
BEZUGSACHSEN
100
AcDbLine
 62
7
  6
CONTINUOUS
 10
307.4039899439
 20
62.5849300732
 11
307.4518777826
 21
61.7918574565
  0
LINE
  5
32A
100
AcDbEntity
  8
BEZUGSACHSEN
100
AcDbLine
 62
7
  6
CONTINUOUS
 10
305.8113685063
 20
84.2177458236
 11
306.0080658047
 21
80.838913297
  0
LINE
  5
32B
100
AcDbEntity
  8
BEZUGSACHSEN
100
AcDbLine
 62
7
  6
CONTINUOUS
 10
307.3559301448
 20
63.4559720476
 11
307.4039899439
 21
62.5849300732
  0
LINE
  5
32C
100
AcDbEntity
  8
BEZUGSACHSEN
100
AcDbLine
 62
7
  6
CONTINUOUS
 10
305.6398754018
 20
87.4071656872
 11
305.8113685063
 21
84.2177458236
  0
LINE
  5
32D
100
AcDbEntity
  8
BEZUGSACHSEN
100
AcDbLine
 62
7
  6
CONTINUOUS
 10
307.3086199959
 20
64.4051780482
 11
307.3559301448
 21
63.4559720476
  0
LINE
  5
32E
100
AcDbEntity
  8
BEZUGSACHSEN
100
AcDbLine
 62
7
  6
CONTINUOUS
 10
305.4718950242
 20
90.8217797879
 11
305.6398754018
 21
87.4071656872
  0
LINE
  5
32F
100
AcDbEntity
  8
BEZUGSACHSEN
100
AcDbLine
 62
7
  6
CONTINUOUS
 10
307.2718540264
 20
65.2231937212
 11
307.3086199959
 21
64.4051780482
  0
LINE
  5
330
100
AcDbEntity
  8
BEZUGSACHSEN
100
AcDbLine
 62
7
  6
CONTINUOUS
 10
305.3334374689
 20
93.9320916731
 11
305.4718950242
 21
90.8217797879
  0
LINE
  5
331
100
AcDbEntity
  8
BEZUGSACHSEN
100
AcDbLine
 62
7
  6
CONTINUOUS
 10
307.2365109022
 20
66.0963671241
 11
307.2718540264
 21
65.2231937212
  0
LINE
  5
332
100
AcDbEntity
  8
BEZUGSACHSEN
100
AcDbLine
 62
7
  6
CONTINUOUS
 10
305.2030865509
 20
97.2140220492
 11
305.3334374689
 21
93.9320916731
  0
LINE
  5
333
100
AcDbEntity
  8
BEZUGSACHSEN
100
AcDbLine
 62
7
  6
CONTINUOUS
 10
307.2030797228
 20
67.0276709079
 11
307.2365109022
 21
66.0963671241
  0
LINE
  5
334
100
AcDbEntity
  8
BEZUGSACHSEN
100
AcDbLine
 62
7
  6
CONTINUOUS
 10
305.1031615059
 20
100.0809259937
 11
305.2030865509
 21
97.2140220492
  0
LINE
  5
335
100
AcDbEntity
  8
BEZUGSACHSEN
100
AcDbLine
 62
7
  6
CONTINUOUS
 10
307.1721188018
 20
68.0202366872
 11
307.2030797228
 21
67.0276709079
  0
LINE
  5
336
100
AcDbEntity
  8
BEZUGSACHSEN
100
AcDbLine
 62
7
  6
CONTINUOUS
 10
305.0137424227
 20
103.0675985123
 11
305.1031615059
 21
100.0809259937
  0
LINE
  5
337
100
AcDbEntity
  8
BEZUGSACHSEN
100
AcDbLine
 62
7
  6
CONTINUOUS
 10
307.1442652413
 20
69.0773431621
 11
307.1721188018
 21
68.0202366872
  0
LINE
  5
338
100
AcDbEntity
  8
BEZUGSACHSEN
100
AcDbLine
 62
7
  6
CONTINUOUS
 10
304.9517226948
 20
105.5421728437
 11
305.0137424227
 21
103.0675985123
  0
LINE
  5
339
100
AcDbEntity
  8
BEZUGSACHSEN
100
AcDbLine
 62
7
  6
CONTINUOUS
 10
307.1202453009
 20
70.2024027967
 11
307.1442652413
 21
69.0773431621
  0
LINE
  5
33A
100
AcDbEntity
  8
BEZUGSACHSEN
100
AcDbLine
 62
7
  6
CONTINUOUS
 10
304.9000460552
 20
108.0909197714
 11
304.9517226948
 21
105.5421728437
  0
LINE
  5
33B
100
AcDbEntity
  8
BEZUGSACHSEN
100
AcDbLine
 62
7
  6
CONTINUOUS
 10
307.1008856926
 20
71.3989432552
 11
307.1202453009
 21
70.2024027967
  0
LINE
  5
33C
100
AcDbEntity
  8
BEZUGSACHSEN
100
AcDbLine
 62
7
  6
CONTINUOUS
 10
304.8607265718
 20
110.7117300646
 11
304.9000460552
 21
108.0909197714
  0
LINE
  5
33D
100
AcDbEntity
  8
BEZUGSACHSEN
100
AcDbLine
 62
7
  6
CONTINUOUS
 10
307.0871258459
 20
72.6705778049
 11
307.1008856926
 21
71.3989432552
  0
LINE
  5
33E
100
AcDbEntity
  8
BEZUGSACHSEN
100
AcDbLine
 62
7
  6
CONTINUOUS
 10
304.8407205123
 20
112.723592516
 11
304.8607265718
 21
110.7117300646
  0
LINE
  5
33F
100
AcDbEntity
  8
BEZUGSACHSEN
100
AcDbLine
 62
7
  6
CONTINUOUS
 10
304.830004849
 20
114.77373787
 11
304.8407205123
 21
112.723592516
  0
LINE
  5
340
100
AcDbEntity
  8
BEZUGSACHSEN
100
AcDbLine
 62
7
  6
CONTINUOUS
 10
307.0800307633
 20
74.0209975953
 11
307.0871258459
 21
72.6705778049
  0
LINE
  5
341
100
AcDbEntity
  8
BEZUGSACHSEN
100
AcDbLine
 62
7
  6
CONTINUOUS
 10
300.1347961077
 20
204.6195433103
 11
300.1347961077
 21
212.9814933986
  0
LINE
  5
342
100
AcDbEntity
  8
BEZUGSACHSEN
100
AcDbLine
 62
7
  6
CONTINUOUS
 10
304.8847961077
 20
223.8882248358
 11
304.8847961077
 21
242.2984793306
  0
LINE
  5
343
100
AcDbEntity
  8
BEZUGSACHSEN
100
AcDbLine
 62
7
  6
CONTINUOUS
 10
307.0798026565
 20
75.0877585785
 11
307.0800307633
 21
74.0209975953
  0
LINE
  5
344
100
AcDbEntity
  8
BEZUGSACHSEN
100
AcDbLine
 62
7
  6
CONTINUOUS
 10
304.8293635699
 20
116.8600718261
 11
304.830004849
 21
114.77373787
  0
LINE
  5
345
100
AcDbEntity
  8
BEZUGSACHSEN
100
AcDbLine
 62
7
  6
CONTINUOUS
 10
304.839476076
 20
118.9809969781
 11
304.8293635699
 21
116.8600718261
  0
LINE
  5
346
100
AcDbEntity
  8
BEZUGSACHSEN
100
AcDbLine
 62
7
  6
CONTINUOUS
 10
307.086268015
 20
76.4447521822
 11
307.0798026565
 21
75.0877585785
  0
LINE
  5
347
100
AcDbEntity
  8
BEZUGSACHSEN
100
AcDbLine
 62
7
  6
CONTINUOUS
 10
307.0865756572
 20
76.4858570259
 11
307.0862687989
 21
76.444856215
  0
LINE
  5
348
100
AcDbEntity
  8
BEZUGSACHSEN
100
AcDbLine
 62
7
  6
CONTINUOUS
 10
304.8610603857
 20
121.1345092455
 11
304.839476076
 21
118.9809969781
  0
LINE
  5
349
100
AcDbEntity
  8
BEZUGSACHSEN
100
AcDbLine
 62
7
  6
CONTINUOUS
 10
304.8948664728
 20
123.3181437533
 11
304.8610603857
 21
121.1345092455
  0
LINE
  5
34A
100
AcDbEntity
  8
BEZUGSACHSEN
100
AcDbLine
 62
7
  6
CONTINUOUS
 10
304.9416700675
 20
125.5288805556
 11
304.8948664728
 21
123.3181437533
  0
LINE
  5
34B
100
AcDbEntity
  8
BEZUGSACHSEN
100
AcDbLine
 62
7
  6
CONTINUOUS
 10
305.0022860263
 20
127.7637177637
 11
304.9416700675
 21
125.5288805556
  0
LINE
  5
34C
100
AcDbEntity
  8
BEZUGSACHSEN
100
AcDbLine
 62
7
  6
CONTINUOUS
 10
305.0775706305
 20
130.0193294166
 11
305.0022860263
 21
127.7637177637
  0
LINE
  5
34D
100
AcDbEntity
  8
BEZUGSACHSEN
100
AcDbLine
 62
7
  6
CONTINUOUS
 10
305.1363471535
 20
131.5326337127
 11
305.0775706305
 21
130.0193294166
  0
LINE
  5
34E
100
AcDbEntity
  8
BEZUGSACHSEN
100
AcDbLine
 62
7
  6
CONTINUOUS
 10
305.2023078321
 20
133.0519779954
 11
305.1363471535
 21
131.5326337127
  0
LINE
  5
34F
100
AcDbEntity
  8
BEZUGSACHSEN
100
AcDbLine
 62
7
  6
CONTINUOUS
 10
305.2757284087
 20
134.5757965856
 11
305.2023078321
 21
133.0519779954
  0
LINE
  5
350
100
AcDbEntity
  8
BEZUGSACHSEN
100
AcDbLine
 62
7
  6
CONTINUOUS
 10
305.3568897126
 20
136.1023513095
 11
305.2757284087
 21
134.5757965856
  0
LINE
  5
351
100
AcDbEntity
  8
BEZUGSACHSEN
100
AcDbLine
 62
7
  6
CONTINUOUS
 10
305.4461046152
 20
137.6301659603
 11
305.3568897126
 21
136.1023513095
  0
LINE
  5
352
100
AcDbEntity
  8
BEZUGSACHSEN
100
AcDbLine
 62
7
  6
CONTINUOUS
 10
305.5437248525
 20
139.1579122664
 11
305.4461046152
 21
137.6301659603
  0
LINE
  5
353
100
AcDbEntity
  8
BEZUGSACHSEN
100
AcDbLine
 62
7
  6
CONTINUOUS
 10
305.650020515
 20
140.6826496223
 11
305.5437248525
 21
139.1579122664
  0
LINE
  5
354
100
AcDbEntity
  8
BEZUGSACHSEN
100
AcDbLine
 62
7
  6
CONTINUOUS
 10
305.7652580878
 20
142.2011260556
 11
305.650020515
 21
140.6826496223
  0
LWPOLYLINE
  5
355
100
AcDbEntity
  8
BEZUGSACHSEN
100
AcDbPolyline
 62
7
  6
CONTINUOUS
 90
6
 70
0
 10
310.1573003075
 20
189.1476000091
 10
309.6600749203
 20
183.1591689771
 10
309.1093644751
 20
176.7907154969
 10
308.5087888895
 20
170.1401641655
 10
307.8521936856
 20
163.1918658616
 10
307.1320536156
 20
155.924258719
  0
LINE
  5
356
100
AcDbEntity
  8
BEZUGSACHSEN
100
AcDbLine
 62
7
  6
CONTINUOUS
 10
305.8897133868
 20
143.7101552152
 11
305.7652580878
 21
142.2011260556
  0
LINE
  5
357
100
AcDbEntity
  8
BEZUGSACHSEN
100
AcDbLine
 62
7
  6
CONTINUOUS
 10
306.0235512154
 20
145.2058240687
 11
305.8897133868
 21
143.7101552152
  0
LINE
  5
358
100
AcDbEntity
  8
BEZUGSACHSEN
100
AcDbLine
 62
7
  6
CONTINUOUS
 10
306.1671515247
 20
146.6842117231
 11
306.0235512154
 21
145.2058240687
  0
LINE
  5
359
100
AcDbEntity
  8
BEZUGSACHSEN
100
AcDbLine
 62
7
  6
CONTINUOUS
 10
306.3075918289
 20
148.022220908
 11
306.1671515247
 21
146.6842117231
  0
LWPOLYLINE
  5
35A
100
AcDbEntity
  8
BEZUGSACHSEN
100
AcDbPolyline
 62
7
  6
CONTINUOUS
 90
3
 70
0
 10
307.1320536156
 20
155.924258719
 10
306.3179118027
 20
148.1169043551
 10
306.3074999342
 20
148.0213810743
  0
LWPOLYLINE
  5
35B
100
AcDbEntity
  8
BEZUGSACHSEN
100
AcDbPolyline
 62
7
  6
CONTINUOUS
 90
7
 70
0
 10
307.9241938445
 20
56.5248937382
 10
307.9330541064
 20
56.4695329563
 10
307.9433609994
 20
56.4072994051
 10
307.9554805352
 20
56.3368639318
 10
307.9698635357
 20
56.256756416
 10
307.9872114198
 20
56.1646108304
 10
307.9966011078
 20
56.1165711409
  0
LINE
  5
35C
100
AcDbEntity
  8
BEZUGSACHSEN
100
AcDbLine
 62
7
  6
CONTINUOUS
 10
307.9095554232
 20
56.6204562178
 11
307.9241938445
 21
56.5248937382
  0
LINE
  5
35D
100
AcDbEntity
  8
BEZUGSACHSEN
100
AcDbLine
 62
7
  6
CONTINUOUS
 10
307.8977319126
 20
56.7016465353
 11
307.9095554232
 21
56.6204562178
  0
LINE
  5
35E
100
AcDbEntity
  8
BEZUGSACHSEN
100
AcDbLine
 62
7
  6
CONTINUOUS
 10
307.8875412332
 20
56.7746373996
 11
307.8977319126
 21
56.7016465353
  0
LINE
  5
35F
100
AcDbEntity
  8
BEZUGSACHSEN
100
AcDbLine
 62
7
  6
CONTINUOUS
 10
307.8739339385
 20
56.8764910168
 11
307.8875412332
 21
56.7746373996
  0
LINE
  5
360
100
AcDbEntity
  8
BEZUGSACHSEN
100
AcDbLine
 62
7
  6
CONTINUOUS
 10
307.8612703473
 20
56.9756619079
 11
307.8739339385
 21
56.8764910168
  0
LINE
  5
361
100
AcDbEntity
  8
BEZUGSACHSEN
100
AcDbLine
 62
7
  6
CONTINUOUS
 10
307.844636041
 20
57.1119080444
 11
307.8612703473
 21
56.9756619079
  0
LINE
  5
362
100
AcDbEntity
  8
BEZUGSACHSEN
100
AcDbLine
 62
7
  6
CONTINUOUS
 10
307.8274567585
 20
57.2591116919
 11
307.844636041
 21
57.1119080444
  0
LINE
  5
363
100
AcDbEntity
  8
BEZUGSACHSEN
100
AcDbLine
 62
7
  6
CONTINUOUS
 10
307.8092773274
 20
57.4214130869
 11
307.8274567585
 21
57.2591116919
  0
LWPOLYLINE
  5
364
100
AcDbEntity
  8
BEZUGSACHSEN
100
AcDbPolyline
 62
7
  6
CONTINUOUS
 90
7
 70
0
 10
310.7046253192
 20
117.0620988478
 10
310.4637156293
 20
114.5157476099
 10
310.1935320588
 20
111.8417184416
 10
309.9076514179
 20
109.1732660547
 10
309.6078683418
 20
106.5026550031
 10
309.296795487
 20
103.8183095562
 10
308.6573261232
 20
98.3553583964
  0
LWPOLYLINE
  5
365
100
AcDbEntity
  8
BEZUGSACHSEN
100
AcDbPolyline
 62
7
  6
CONTINUOUS
 90
8
 70
0
 10
308.6573261232
 20
98.3553583964
 10
308.3403249899
 20
95.5446640203
 10
308.0353520688
 20
92.6586345702
 10
307.7519465693
 20
89.6773290909
 10
307.5016552044
 20
86.5827679614
 10
307.2972226134
 20
83.349357176
 10
307.1531814454
 20
79.9488704097
 10
307.0865706614
 20
76.4851820279
  0
LWPOLYLINE
  5
366
100
AcDbEntity
  8
RUNDUNGEN
100
AcDbPolyline
 62
7
  6
CONTINUOUS
 90
38
 70
0
 10
335.564966696
 20
117.0621010356
 10
335.5440909259
 20
117.267544918
 10
335.5096554256
 20
117.5417567256
 10
335.4671252281
 20
117.8187847356
 10
335.4159873343
 20
118.0993148936
 10
335.355718263
 20
118.3835802415
 10
335.2858172562
 20
118.6714625495
 10
335.2059047907
 20
118.9623195743
 10
335.1152465252
 20
119.2567039507
 10
335.0131020707
 20
119.5548090999
 10
334.8987822831
 20
119.856442778
 10
334.7716020088
 20
120.1612672009
 10
334.6306001368
 20
120.4694181855
 10
334.4746587105
 20
120.7810509189
 10
334.303083655
 20
121.0952575953
 10
334.1148582239
 20
121.4116370809
 10
333.9098263427
 20
121.7283189237
 10
333.6878180618
 20
122.0436920507
 10
333.4486059195
 20
122.3563843344
 10
333.1922040558
 20
122.6648392094
 10
332.9183759612
 20
122.9679162023
 10
332.6270956232
 20
123.2642905062
 10
332.3182050265
 20
123.5528256908
 10
331.99166842
 20
123.8322887343
 10
331.6474761865
 20
124.1014492883
 10
331.2856805807
 20
124.3590455042
 10
330.9064783004
 20
124.6037357581
 10
330.5101360244
 20
124.8341666825
 10
330.0970034732
 20
125.0489678003
 10
329.6678253616
 20
125.2466211876
 10
329.2222487416
 20
125.4261129708
 10
328.7604377176
 20
125.5860878137
 10
328.2819385071
 20
125.7252775312
 10
327.7865348174
 20
125.8421320582
 10
327.2741631515
 20
125.934872922
 10
326.7449041422
 20
126.0015029109
 10
326.1990095317
 20
126.0398029345
 10
325.7869404368
 20
126.0484778125
  0
LWPOLYLINE
  5
367
100
AcDbEntity
  8
RUNDUNGEN
100
AcDbPolyline
 62
7
  6
CONTINUOUS
 90
6
 70
0
 10
336.9727967283
 20
103.8183095562
 10
336.6617238735
 20
106.5026550031
 10
336.3619407974
 20
109.1732660547
 10
336.0760601566
 20
111.8417184416
 10
335.8058765861
 20
114.5157476099
 10
335.5649788782
 20
117.0619678332
  0
LWPOLYLINE
  5
368
100
AcDbEntity
  8
RUNDUNGEN
100
AcDbPolyline
 62
7
  6
CONTINUOUS
 90
7
 70
0
 10
339.9183544367
 20
148.4261242173
 10
339.1375385997
 20
155.924258719
 10
338.4173985297
 20
163.1918658616
 10
337.7608033259
 20
170.1401641655
 10
337.1602277402
 20
176.7907154969
 10
336.6095172951
 20
183.1591689771
 10
336.1122984549
 20
189.147519911
  0
LWPOLYLINE
  5
369
100
AcDbEntity
  8
RUNDUNGEN
100
AcDbPolyline
 62
7
  6
CONTINUOUS
 90
10
 70
0
 10
340.6671990437
 20
140.0156023542
 10
340.6010187267
 20
140.935900868
 10
340.5315564866
 20
141.8536828322
 10
340.458775638
 20
142.7682369352
 10
340.3825822348
 20
143.6786766074
 10
340.3029651304
 20
144.5843249852
 10
340.2198475065
 20
145.4846056785
 10
340.1331066929
 20
146.3781495123
 10
340.0428298243
 20
147.2647471884
 10
339.9183525692
 20
148.4261417008
  0
LINE
  5
36A
100
AcDbEntity
  8
RUNDUNGEN
100
AcDbLine
 62
7
  6
CONTINUOUS
 10
340.7899505825
 20
138.1704299681
 11
340.6671990437
 21
140.0156023542
  0
LINE
  5
36B
100
AcDbEntity
  8
RUNDUNGEN
100
AcDbLine
 62
7
  6
CONTINUOUS
 10
340.9002880691
 20
136.323578743
 11
340.7899505825
 21
138.1704299681
  0
LINE
  5
36C
100
AcDbEntity
  8
RUNDUNGEN
100
AcDbLine
 62
7
  6
CONTINUOUS
 10
340.9987780767
 20
134.478438732
 11
340.9002880691
 21
136.323578743
  0
LWPOLYLINE
  5
36D
100
AcDbEntity
  8
RUNDUNGEN
100
AcDbPolyline
 62
7
  6
CONTINUOUS
 90
13
 70
0
 10
336.1122919079
 20
189.1476000091
 10
336.0917202111
 20
189.5863521722
 10
336.1050221154
 20
190.0962180532
 10
336.156755449
 20
190.6002524302
 10
336.245239882
 20
191.0963815819
 10
336.369038497
 20
191.5826778264
 10
336.5268339633
 20
192.0570584923
 10
336.7173472178
 20
192.5173323586
 10
336.939922797
 20
192.9624082901
 10
337.194137706
 20
193.3908813763
 10
337.4797571961
 20
193.8010450045
 10
337.7970490948
 20
194.1912646518
 10
338.0861509778
 20
194.4998326966
  0
LINE
  5
36E
100
AcDbEntity
  8
RUNDUNGEN
100
AcDbLine
 62
7
  6
CONTINUOUS
 10
341.0859847827
 20
132.6374809532
 11
340.9987780767
 21
134.478438732
  0
LINE
  5
36F
100
AcDbEntity
  8
RUNDUNGEN
100
AcDbLine
 62
7
  6
CONTINUOUS
 10
341.1624023236
 20
130.8037417718
 11
341.0859847827
 21
132.6374809532
  0
LINE
  5
370
100
AcDbEntity
  8
RUNDUNGEN
100
AcDbLine
 62
7
  6
CONTINUOUS
 10
341.2285128211
 20
128.9799292209
 11
341.1624023236
 21
130.8037417718
  0
LINE
  5
371
100
AcDbEntity
  8
RUNDUNGEN
100
AcDbLine
 62
7
  6
CONTINUOUS
 10
341.2847883869
 20
127.1683947655
 11
341.2285128211
 21
128.9799292209
  0
LINE
  5
372
100
AcDbEntity
  8
RUNDUNGEN
100
AcDbLine
 62
7
  6
CONTINUOUS
 10
341.3316890219
 20
125.3711667338
 11
341.2847883869
 21
127.1683947655
  0
LINE
  5
373
100
AcDbEntity
  8
RUNDUNGEN
100
AcDbLine
 62
7
  6
CONTINUOUS
 10
341.3696614006
 20
123.5899579676
 11
341.3316890219
 21
125.3711667338
  0
LWPOLYLINE
  5
374
100
AcDbEntity
  8
RUNDUNGEN
100
AcDbPolyline
 62
7
  6
CONTINUOUS
 90
9
 70
0
 10
339.1830215539
 20
76.4851820279
 10
339.11641077
 20
79.9488704097
 10
338.972369602
 20
83.349357176
 10
338.767937011
 20
86.5827679614
 10
338.5176456461
 20
89.6773290909
 10
338.2342401466
 20
92.6586345702
 10
337.9292672255
 20
95.5446640203
 10
337.6122660922
 20
98.3553583964
 10
336.9727967283
 20
103.8183095562
  0
LINE
  5
375
100
AcDbEntity
  8
RUNDUNGEN
100
AcDbLine
 62
7
  6
CONTINUOUS
 10
341.3991347049
 20
121.8263611838
 11
341.3696614006
 21
123.5899579676
  0
LINE
  5
376
100
AcDbEntity
  8
RUNDUNGEN
100
AcDbLine
 62
7
  6
CONTINUOUS
 10
341.4205221642
 20
120.0819057874
 11
341.3991347049
 21
121.8263611838
  0
LINE
  5
377
100
AcDbEntity
  8
RUNDUNGEN
100
AcDbLine
 62
7
  6
CONTINUOUS
 10
341.4342244046
 20
118.3578612698
 11
341.4205221642
 21
120.0819057874
  0
LINE
  5
378
100
AcDbEntity
  8
RUNDUNGEN
100
AcDbLine
 62
7
  6
CONTINUOUS
 10
339.1887502685
 20
75.4642291283
 11
339.1830165582
 21
76.4858570259
  0
LINE
  5
379
100
AcDbEntity
  8
RUNDUNGEN
100
AcDbLine
 62
7
  6
CONTINUOUS
 10
341.4406275613
 20
116.6552463607
 11
341.4342244046
 21
118.3578612698
  0
LINE
  5
37A
100
AcDbEntity
  8
RUNDUNGEN
100
AcDbLine
 62
7
  6
CONTINUOUS
 10
341.3847961077
 20
223.8882248358
 11
341.3847961077
 21
242.2984793306
  0
LINE
  5
37B
100
AcDbEntity
  8
RUNDUNGEN
100
AcDbLine
 62
7
  6
CONTINUOUS
 10
346.1347961077
 20
204.6195433103
 11
346.1347961077
 21
212.9814933986
  0
LINE
  5
37C
100
AcDbEntity
  8
RUNDUNGEN
100
AcDbLine
 62
7
  6
CONTINUOUS
 10
339.1901721194
 20
74.3887660352
 11
339.1887502685
 21
75.4642291283
  0
LINE
  5
37D
100
AcDbEntity
  8
RUNDUNGEN
100
AcDbLine
 62
7
  6
CONTINUOUS
 10
341.4373506063
 20
114.1432903987
 11
341.4406275613
 21
116.6552463607
  0
LINE
  5
37E
100
AcDbEntity
  8
RUNDUNGEN
100
AcDbLine
 62
7
  6
CONTINUOUS
 10
339.1850588996
 20
73.0230884747
 11
339.1901721194
 21
74.3887660352
  0
LINE
  5
37F
100
AcDbEntity
  8
RUNDUNGEN
100
AcDbLine
 62
7
  6
CONTINUOUS
 10
341.4196767462
 20
111.6838377752
 11
341.4373506063
 21
114.1432903987
  0
LINE
  5
380
100
AcDbEntity
  8
RUNDUNGEN
100
AcDbLine
 62
7
  6
CONTINUOUS
 10
339.1729896957
 20
71.7325932927
 11
339.1850588996
 21
73.0230884747
  0
LINE
  5
381
100
AcDbEntity
  8
RUNDUNGEN
100
AcDbLine
 62
7
  6
CONTINUOUS
 10
341.3891783995
 20
109.2796934222
 11
341.4196767462
 21
111.6838377752
  0
LINE
  5
382
100
AcDbEntity
  8
RUNDUNGEN
100
AcDbLine
 62
7
  6
CONTINUOUS
 10
339.1549992363
 20
70.5141965584
 11
339.1729896957
 21
71.7325932927
  0
LINE
  5
383
100
AcDbEntity
  8
RUNDUNGEN
100
AcDbLine
 62
7
  6
CONTINUOUS
 10
341.3476339351
 20
106.9319323995
 11
341.3891783995
 21
109.2796934222
  0
LINE
  5
384
100
AcDbEntity
  8
RUNDUNGEN
100
AcDbLine
 62
7
  6
CONTINUOUS
 10
339.1320100985
 20
69.364845434
 11
339.1549992363
 21
70.5141965584
  0
LINE
  5
385
100
AcDbEntity
  8
RUNDUNGEN
100
AcDbLine
 62
7
  6
CONTINUOUS
 10
341.277813901
 20
103.8939748011
 11
341.3476339351
 21
106.9319323995
  0
LINE
  5
386
100
AcDbEntity
  8
RUNDUNGEN
100
AcDbLine
 62
7
  6
CONTINUOUS
 10
339.1048438695
 20
68.2815553321
 11
339.1320100985
 21
69.364845434
  0
LINE
  5
387
100
AcDbEntity
  8
RUNDUNGEN
100
AcDbLine
 62
7
  6
CONTINUOUS
 10
341.1945978961
 20
100.9681020367
 11
341.277813901
 21
103.8939748011
  0
LINE
  5
388
100
AcDbEntity
  8
RUNDUNGEN
100
AcDbLine
 62
7
  6
CONTINUOUS
 10
339.0742316769
 20
67.2614298894
 11
339.1048438695
 21
68.2815553321
  0
LINE
  5
389
100
AcDbEntity
  8
RUNDUNGEN
100
AcDbLine
 62
7
  6
CONTINUOUS
 10
341.1009497423
 20
98.1599241686
 11
341.1945978961
 21
100.9681020367
  0
LINE
  5
38A
100
AcDbEntity
  8
RUNDUNGEN
100
AcDbLine
 62
7
  6
CONTINUOUS
 10
339.0408238464
 20
66.3016765399
 11
339.0742316769
 21
67.2614298894
  0
LINE
  5
38B
100
AcDbEntity
  8
RUNDUNGEN
100
AcDbLine
 62
7
  6
CONTINUOUS
 10
340.9731062617
 20
94.8213875286
 11
341.1009497423
 21
98.1599241686
  0
LINE
  5
38C
100
AcDbEntity
  8
RUNDUNGEN
100
AcDbLine
 62
7
  6
CONTINUOUS
 10
339.005198808
 20
65.3996192016
 11
339.0408238464
 21
66.3016765399
  0
LINE
  5
38D
100
AcDbEntity
  8
RUNDUNGEN
100
AcDbLine
 62
7
  6
CONTINUOUS
 10
340.8372460087
 20
91.678543019
 11
340.9731062617
 21
94.8213875286
  0
LINE
  5
38E
100
AcDbEntity
  8
RUNDUNGEN
100
AcDbLine
 62
7
  6
CONTINUOUS
 10
338.9678714551
 20
64.5527110673
 11
339.005198808
 21
65.3996192016
  0
LINE
  5
38F
100
AcDbEntity
  8
RUNDUNGEN
100
AcDbLine
 62
7
  6
CONTINUOUS
 10
340.668680322
 20
88.1703573081
 11
340.8372460087
 21
91.678543019
  0
LINE
  5
390
100
AcDbEntity
  8
RUNDUNGEN
100
AcDbLine
 62
7
  6
CONTINUOUS
 10
338.9293008679
 20
63.7585440795
 11
338.9678714551
 21
64.5527110673
  0
LINE
  5
391
100
AcDbEntity
  8
RUNDUNGEN
100
AcDbLine
 62
7
  6
CONTINUOUS
 10
340.4988562693
 20
84.9506049168
 11
340.668680322
 21
88.1703573081
  0
LINE
  5
392
100
AcDbEntity
  8
RUNDUNGEN
100
AcDbLine
 62
7
  6
CONTINUOUS
 10
338.8799604676
 20
62.8365709296
 11
338.9293008679
 21
63.7585440795
  0
LINE
  5
393
100
AcDbEntity
  8
RUNDUNGEN
100
AcDbLine
 62
7
  6
CONTINUOUS
 10
340.3036678819
 20
81.5411387246
 11
340.4988562693
 21
84.9506049168
  0
LINE
  5
394
100
AcDbEntity
  8
RUNDUNGEN
100
AcDbLine
 62
7
  6
CONTINUOUS
 10
338.8300272945
 20
61.9894137746
 11
338.8799604676
 21
62.8365709296
  0
LINE
  5
395
100
AcDbEntity
  8
RUNDUNGEN
100
AcDbLine
 62
7
  6
CONTINUOUS
 10
340.0874748417
 20
78.0474586863
 11
340.3036678819
 21
81.5411387246
  0
LINE
  5
396
100
AcDbEntity
  8
RUNDUNGEN
100
AcDbLine
 62
7
  6
CONTINUOUS
 10
338.7804539927
 20
61.2182422408
 11
338.8300272945
 21
61.9894137746
  0
LINE
  5
397
100
AcDbEntity
  8
RUNDUNGEN
100
AcDbLine
 62
7
  6
CONTINUOUS
 10
339.8558616503
 20
74.5686376079
 11
340.0874748417
 21
78.0474586863
  0
LINE
  5
398
100
AcDbEntity
  8
RUNDUNGEN
100
AcDbLine
 62
7
  6
CONTINUOUS
 10
338.7329340831
 20
60.5344103769
 11
338.7804539927
 21
61.2182422408
  0
LINE
  5
399
100
AcDbEntity
  8
RUNDUNGEN
100
AcDbLine
 62
7
  6
CONTINUOUS
 10
339.619704732
 20
71.2548139458
 11
339.8558616503
 21
74.5686376079
  0
LINE
  5
39A
100
AcDbEntity
  8
RUNDUNGEN
100
AcDbLine
 62
7
  6
CONTINUOUS
 10
338.6890879572
 20
59.9456026656
 11
338.7329340831
 21
60.5344103769
  0
LINE
  5
39B
100
AcDbEntity
  8
RUNDUNGEN
100
AcDbLine
 62
7
  6
CONTINUOUS
 10
339.390918533
 20
68.2379764845
 11
339.619704732
 21
71.2548139458
  0
LINE
  5
39C
100
AcDbEntity
  8
RUNDUNGEN
100
AcDbLine
 62
7
  6
CONTINUOUS
 10
338.6493724682
 20
59.4438393131
 11
338.6890879572
 21
59.9456026656
  0
LINE
  5
39D
100
AcDbEntity
  8
RUNDUNGEN
100
AcDbLine
 62
7
  6
CONTINUOUS
 10
339.170376166
 20
65.4913249388
 11
339.390918533
 21
68.2379764845
  0
LINE
  5
39E
100
AcDbEntity
  8
RUNDUNGEN
100
AcDbLine
 62
7
  6
CONTINUOUS
 10
338.606424966
 20
58.9325258668
 11
338.6493724682
 21
59.4438393131
  0
LINE
  5
39F
100
AcDbEntity
  8
RUNDUNGEN
100
AcDbLine
 62
7
  6
CONTINUOUS
 10
338.9478179585
 20
62.8686271238
 11
339.170376166
 21
65.4913249388
  0
LINE
  5
3A0
100
AcDbEntity
  8
RUNDUNGEN
100
AcDbLine
 62
7
  6
CONTINUOUS
 10
338.5679781909
 20
58.5009549463
 11
338.606424966
 21
58.9325258668
  0
LINE
  5
3A1
100
AcDbEntity
  8
RUNDUNGEN
100
AcDbLine
 62
7
  6
CONTINUOUS
 10
338.7519019799
 20
60.6786707543
 11
338.9478179585
 21
62.8686271238
  0
LINE
  5
3A2
100
AcDbEntity
  8
RUNDUNGEN
100
AcDbLine
 62
7
  6
CONTINUOUS
 10
338.7110077426
 20
60.2353772352
 11
338.7519019799
 21
60.6786707543
  0
LINE
  5
3A3
100
AcDbEntity
  8
RUNDUNGEN
100
AcDbLine
 62
7
  6
CONTINUOUS
 10
338.5333982564
 20
58.1333238096
 11
338.5679781909
 21
58.5009549463
  0
LINE
  5
3A4
100
AcDbEntity
  8
RUNDUNGEN
100
AcDbLine
 62
7
  6
CONTINUOUS
 10
338.5022819706
 20
57.8191541344
 11
338.5333982564
 21
58.1333238096
  0
LINE
  5
3A5
100
AcDbEntity
  8
RUNDUNGEN
100
AcDbLine
 62
7
  6
CONTINUOUS
 10
338.4743535385
 20
57.5510066524
 11
338.5022819706
 21
57.8191541344
  0
LINE
  5
3A6
100
AcDbEntity
  8
RUNDUNGEN
100
AcDbLine
 62
7
  6
CONTINUOUS
 10
338.453217442
 20
57.3572867629
 11
338.4743535385
 21
57.5510066524
  0
LINE
  5
3A7
100
AcDbEntity
  8
RUNDUNGEN
100
AcDbLine
 62
7
  6
CONTINUOUS
 10
338.4336525071
 20
57.1856399259
 11
338.453217442
 21
57.3572867629
  0
LINE
  5
3A8
100
AcDbEntity
  8
RUNDUNGEN
100
AcDbLine
 62
7
  6
CONTINUOUS
 10
338.4187700103
 20
57.0604821989
 11
338.4336525071
 21
57.1856399259
  0
LINE
  5
3A9
100
AcDbEntity
  8
RUNDUNGEN
100
AcDbLine
 62
7
  6
CONTINUOUS
 10
338.4040207547
 20
56.9415200388
 11
338.4187700103
 21
57.0604821989
  0
LINE
  5
3AA
100
AcDbEntity
  8
RUNDUNGEN
100
AcDbLine
 62
7
  6
CONTINUOUS
 10
338.3925074057
 20
56.8524637238
 11
338.4040207547
 21
56.9415200388
  0
LINE
  5
3AB
100
AcDbEntity
  8
RUNDUNGEN
100
AcDbLine
 62
7
  6
CONTINUOUS
 10
338.3798156414
 20
56.7583848889
 11
338.3925074057
 21
56.8524637238
  0
LINE
  5
3AC
100
AcDbEntity
  8
RUNDUNGEN
100
AcDbLine
 62
7
  6
CONTINUOUS
 10
338.3701688286
 20
56.6898035821
 11
338.3798156414
 21
56.7583848889
  0
LINE
  5
3AD
100
AcDbEntity
  8
RUNDUNGEN
100
AcDbLine
 62
7
  6
CONTINUOUS
 10
338.3589216648
 20
56.6129877885
 11
338.3701688286
 21
56.6898035821
  0
LWPOLYLINE
  5
3AE
100
AcDbEntity
  8
BEZUGSACHSEN
100
AcDbPolyline
 62
7
  6
CONTINUOUS
 90
38
 70
0
 10
320.4826517819
 20
126.0484778125
 10
320.0592230477
 20
126.0393178315
 10
319.5138143197
 20
126.0004278133
 10
318.9850490404
 20
125.933272148
 10
318.4731784809
 20
125.840065981
 10
317.9782834909
 20
125.7228036287
 10
317.5003012632
 20
125.5832616983
 10
317.0390162815
 20
125.4229892764
 10
316.593978091
 20
125.2432553904
 10
316.1653443551
 20
125.045413581
 10
315.7527599459
 20
124.8304769651
 10
315.3569615873
 20
124.5999604405
 10
314.9782928444
 20
124.3552309469
 10
314.6170158235
 20
124.097638381
 10
314.2733228325
 20
123.8285202285
 10
313.9472626615
 20
123.5491340415
 10
313.6388226372
 20
123.2607054758
 10
313.347964714
 20
122.9644628718
 10
313.0745290953
 20
122.6615377575
 10
312.8184884306
 20
122.3532500349
 10
312.5796065993
 20
122.0407366855
 10
312.3578940109
 20
121.7255448114
 10
312.1531215638
 20
121.4090377952
 10
311.9651197934
 20
121.0928198919
 10
311.793729612
 20
120.7787469585
 10
311.6379480912
 20
120.4672357147
 10
311.4970901143
 20
120.1592067674
 10
311.3700388203
 20
119.8545035026
 10
311.2558352523
 20
119.5529918925
 10
311.1537966441
 20
119.255014081
 10
311.0632352237
 20
118.9607656325
 10
310.9834117936
 20
118.6700575435
 10
310.9135923702
 20
118.3823404944
 10
310.8533974945
 20
118.0982616107
 10
310.8023257506
 20
117.8179424529
 10
310.7598531057
 20
117.541156289
 10
310.7254658209
 20
117.2672277074
 10
310.7046253192
 20
117.0620988478
  0
LINE
  5
3AF
100
AcDbEntity
  8
0
100
AcDbLine
 62
7
  6
CONTINUOUS
 10
320.4826547585
 20
126.0484778252
 11
325.7869374569
 21
126.0484778252
  0
LWPOLYLINE
  5
3B0
100
AcDbEntity
  8
RUNDUNGEN
100
AcDbPolyline
 62
7
  6
CONTINUOUS
 90
8
 70
0
 10
338.2729905771
 20
56.1165684605
 10
338.2841118994
 20
56.1736027114
 10
338.3010488158
 20
56.2639619236
 10
338.3150389846
 20
56.3421544085
 10
338.3267590584
 20
56.4104326711
 10
338.3366264395
 20
56.4700761392
 10
338.3450520948
 20
56.5226962258
 10
338.3589216648
 20
56.6129877885
  0
LINE
  5
3B1
100
AcDbEntity
  8
0
100
AcDbLine
 62
7
  6
CONTINUOUS
 10
333.3546920072
 20
31.2234923692
 11
333.8105832788
 21
33.5342972853
  0
LINE
  5
3B2
100
AcDbEntity
  8
BEZUGSACHSEN
100
AcDbLine
 62
7
  6
CONTINUOUS
 10
308.1834143159
 20
194.499859617
 11
301.599261527
 21
201.0840124059
  0
LWPOLYLINE
  5
3B3
100
AcDbEntity
  8
BEZUGSACHSEN
100
AcDbPolyline
 62
7
  6
CONTINUOUS
 90
13
 70
0
 10
308.1834412376
 20
194.4998326966
 10
308.4725431206
 20
194.1912646518
 10
308.7898350193
 20
193.8010450045
 10
309.0754545093
 20
193.3908813763
 10
309.3296694183
 20
192.9624082901
 10
309.5522449976
 20
192.5173323586
 10
309.742758252
 20
192.0570584923
 10
309.9005537183
 20
191.5826778264
 10
310.0243523334
 20
191.0963815819
 10
310.1128367663
 20
190.6002524302
 10
310.1645700999
 20
190.0962180532
 10
310.1778720042
 20
189.5863521722
 10
310.1573003075
 20
189.1476000091
  0
LINE
  5
3B4
100
AcDbEntity
  8
RUNDUNGEN
100
AcDbLine
 62
7
  6
CONTINUOUS
 10
345.4649263958
 20
215.4814848646
 11
342.0546720828
 21
221.3882186015
  0
LWPOLYLINE
  5
3B5
100
AcDbEntity
  8
RUNDUNGEN
100
AcDbPolyline
 62
7
  6
CONTINUOUS
 90
32
 70
0
 10
328.5901080174
 20
24.9407833346
 10
328.8722889639
 20
25.0855199133
 10
329.2005236874
 20
25.2706879689
 10
329.5164262957
 20
25.4671910541
 10
329.8197478153
 20
25.6741468581
 10
330.1103049779
 20
25.8906925489
 10
330.3880015424
 20
26.1160112275
 10
330.6527742317
 20
26.3492998523
 10
330.9046132013
 20
26.5897898749
 10
331.1435548589
 20
26.8367484604
 10
331.3696313056
 20
27.0894277045
 10
331.5830682149
 20
27.3472995738
 10
331.7835450376
 20
27.609135136
 10
331.9714365229
 20
27.8745245624
 10
332.1454172394
 20
28.140430362
 10
332.3049411854
 20
28.4043382891
 10
332.449708898
 20
28.6636168082
 10
332.5795949741
 20
28.9154165647
 10
332.6950702306
 20
29.1576038008
 10
332.796183143
 20
29.3867674502
 10
332.8850302835
 20
29.6040665349
 10
332.9628896643
 20
29.8093154465
 10
333.0315010566
 20
30.0040688029
 10
333.0925483136
 20
30.1905809516
 10
333.1463801736
 20
30.3675499107
 10
333.1937620151
 20
30.5350227152
 10
333.2350503969
 20
30.6917044125
 10
333.2705452341
 20
30.8359424946
 10
333.3012243785
 20
30.9689911452
 10
333.3276729319
 20
31.0909386278
 10
333.3507685872
 20
31.203701046
 10
333.3546998282
 20
31.2235319667
  0
LINE
  5
3B6
100
AcDbEntity
  8
RUNDUNGEN
100
AcDbLine
 62
7
  6
CONTINUOUS
 10
328.4066330457
 20
24.8534712049
 11
328.5901080174
 21
24.9407833346
  0
ARC
  5
3B7
100
AcDbEntity
  8
BEZUGSACHSEN
100
AcDbCircle
 62
7
  6
CONTINUOUS
 10
135.9286040146
 20
116.0484778252
 40
92.0
100
AcDbArc
 50
270.0000102024
 51
40.1105107614
  0
ARC
  5
3B8
100
AcDbEntity
  8
RUNDUNGEN
100
AcDbCircle
 62
7
  6
CONTINUOUS
 10
135.9286040146
 20
116.0484778252
 40
92.0
100
AcDbArc
 50
270.0000102024
 51
67.5768873859
  0
ARC
  5
3B9
100
AcDbEntity
  8
RUNDUNGEN
100
AcDbCircle
 62
7
  6
CONTINUOUS
 10
135.9286040146
 20
113.0484778252
 40
80.0
100
AcDbArc
 50
275.9635701183
 51
312.7671317572
  0
ARC
  5
3BA
100
AcDbEntity
  8
RUNDUNGEN
100
AcDbCircle
 62
7
  6
CONTINUOUS
 10
135.9286040146
 20
100.8357164563
 40
76.7872386311
100
AcDbArc
 50
199.7999948137
 51
270.0000122237
  0
ARC
  5
3BB
100
AcDbEntity
  8
RUNDUNGEN
100
AcDbCircle
 62
7
  6
CONTINUOUS
 10
135.9286040146
 20
100.8357164563
 40
67.8154108112
100
AcDbArc
 50
192.4856154187
 51
262.9100487185
  0
ARC
  5
3BC
100
AcDbEntity
  8
RUNDUNGEN
100
AcDbCircle
 62
7
  6
CONTINUOUS
 10
135.9286040146
 20
113.0484778252
 40
62.5437774765
100
AcDbArc
 50
202.6233979567
 51
262.9892348812
  0
ARC
  5
3BD
100
AcDbEntity
  8
RUNDUNGEN
100
AcDbCircle
 62
7
  6
CONTINUOUS
 10
135.9286040146
 20
113.0484778252
 40
62.5437774765
100
AcDbArc
 50
277.0107651188
 51
312.3766020433
  0
ARC
  5
3BE
100
AcDbEntity
  8
BEZUGSACHSEN
100
AcDbCircle
 62
7
  6
CONTINUOUS
 10
135.9286040146
 20
113.0484778252
 40
45.0
100
AcDbArc
 50
221.8
 51
41.1542282628
  0
ARC
  5
3BF
100
AcDbEntity
  8
RUNDUNGEN
100
AcDbCircle
 62
7
  6
CONTINUOUS
 10
135.9286040146
 20
113.0484778252
 40
45.0
100
AcDbArc
 50
221.8
 51
41.8000000028
  0
ARC
  5
3C0
100
AcDbEntity
  8
BEZUGSACHSEN
100
AcDbCircle
 62
7
  6
CONTINUOUS
 10
59.4679299822
 20
116.0484778252
 40
10.0
100
AcDbArc
 50
41.8
 51
199.7997485096
  0
ARC
  5
3C1
100
AcDbEntity
  8
RUNDUNGEN
100
AcDbCircle
 62
7
  6
CONTINUOUS
 10
59.4679299822
 20
116.0484778252
 40
10.0
100
AcDbArc
 50
41.8
 51
199.7997485096
  0
ARC
  5
3C2
100
AcDbEntity
  8
RUNDUNGEN
100
AcDbCircle
 62
7
  6
CONTINUOUS
 10
75.428210152
 20
87.8356019804
 40
3.0
100
AcDbArc
 50
22.6233979567
 51
110.0
  0
ARC
  5
3C3
100
AcDbEntity
  8
RUNDUNGEN
100
AcDbCircle
 62
7
  6
CONTINUOUS
 10
72.6460572319
 20
86.8229811303
 40
3.0
100
AcDbArc
 50
110.0
 51
192.4856154187
  0
ARC
  5
3C4
100
AcDbEntity
  8
RUNDUNGEN
100
AcDbCircle
 62
7
  6
CONTINUOUS
 10
127.9286040146
 20
47.9947556727
 40
3.0
100
AcDbArc
 50
0.0
 51
82.9892348812
  0
ARC
  5
3C5
100
AcDbEntity
  8
RUNDUNGEN
100
AcDbCircle
 62
7
  6
CONTINUOUS
 10
127.9286040146
 20
36.5159101862
 40
3.0
100
AcDbArc
 50
262.9100487185
 51
360.0
  0
ARC
  5
3C6
100
AcDbEntity
  8
RUNDUNGEN
100
AcDbCircle
 62
7
  6
CONTINUOUS
 10
113.9286040146
 20
220.1707489522
 40
10.0
100
AcDbArc
 50
180.0000153319
 51
221.8000108413
  0
ARC
  5
3C7
100
AcDbEntity
  8
BEZUGSACHSEN
100
AcDbCircle
 62
7
  6
CONTINUOUS
 10
135.9286040146
 20
221.7984778252
 40
7.25
100
AcDbArc
 50
180.0031889487
 51
193.7432677576
  0
ARC
  5
3C8
100
AcDbEntity
  8
RUNDUNGEN
100
AcDbCircle
 62
7
  6
CONTINUOUS
 10
135.9286040146
 20
221.7984778252
 40
7.25
100
AcDbArc
 50
180.0031889487
 51
360.0
  0
ARC
  5
3C9
100
AcDbEntity
  8
BEZUGSACHSEN
100
AcDbCircle
 62
7
  6
CONTINUOUS
 10
123.6786040146
 20
255.5484778252
 40
5.0
100
AcDbArc
 50
0.0
 51
90.0
  0
CIRCLE
  5
3CA
100
AcDbEntity
  8
BEZUGSACHSEN
100
AcDbCircle
 62
7
  6
CONTINUOUS
 10
112.9286040146
 20
240.0484778252
 40
3.0
  0
ARC
  5
3CB
100
AcDbEntity
  8
RUNDUNGEN
100
AcDbCircle
 62
7
  6
CONTINUOUS
 10
168.1429032162
 20
113.0484778252
 40
50.0
100
AcDbArc
 50
341.8669605725
 51
18.1330394275
  0
ARC
  5
3CC
100
AcDbEntity
  8
RUNDUNGEN
100
AcDbCircle
 62
7
  6
CONTINUOUS
 10
204.710084082
 20
117.2855314443
 40
3.0
100
AcDbArc
 50
0.0
 51
125.0
  0
ARC
  5
3CD
100
AcDbEntity
  8
RUNDUNGEN
100
AcDbCircle
 62
7
  6
CONTINUOUS
 10
204.710084082
 20
108.8114242061
 40
3.0
100
AcDbArc
 50
235.0
 51
360.0
  0
ARC
  5
3CE
100
AcDbEntity
  8
RUNDUNGEN
100
AcDbCircle
 62
7
  6
CONTINUOUS
 10
198.6589444015
 20
113.0484778252
 40
3.0
100
AcDbArc
 50
125.0
 51
235.0
  0
ARC
  5
3CF
100
AcDbEntity
  8
RUNDUNGEN
100
AcDbCircle
 62
7
  6
CONTINUOUS
 10
202.352024497
 20
137.1434507856
 40
3.0
100
AcDbArc
 50
305.0
 51
77.8
  0
ARC
  5
3D0
100
AcDbEntity
  8
RUNDUNGEN
100
AcDbCircle
 62
7
  6
CONTINUOUS
 10
194.6471392482
 20
131.7484320534
 40
3.0
100
AcDbArc
 50
200.0
 51
305.0
  0
ARC
  5
3D1
100
AcDbEntity
  8
RUNDUNGEN
100
AcDbCircle
 62
7
  6
CONTINUOUS
 10
191.8576799889
 20
139.4124083809
 40
3.0
100
AcDbArc
 50
77.8
 51
200.0
  0
ARC
  5
3D2
100
AcDbEntity
  8
RUNDUNGEN
100
AcDbCircle
 62
7
  6
CONTINUOUS
 10
190.3082749839
 20
90.5727246204
 40
3.0
100
AcDbArc
 50
160.0
 51
277.5
  0
ARC
  5
3D3
100
AcDbEntity
  8
RUNDUNGEN
100
AcDbCircle
 62
7
  6
CONTINUOUS
 10
143.9286040146
 20
47.9947556727
 40
3.0
100
AcDbArc
 50
97.0107651188
 51
180.0
  0
ARC
  5
3D4
100
AcDbEntity
  8
RUNDUNGEN
100
AcDbCircle
 62
7
  6
CONTINUOUS
 10
180.105160328
 20
64.6292808247
 40
3.0
100
AcDbArc
 50
45.0
 51
132.3766020433
  0
ARC
  5
3D5
100
AcDbEntity
  8
RUNDUNGEN
100
AcDbCircle
 62
7
  6
CONTINUOUS
 10
143.9286040146
 20
36.465189831
 40
3.0
100
AcDbArc
 50
180.0
 51
275.9635701183
  0
ARC
  5
3D6
100
AcDbEntity
  8
RUNDUNGEN
100
AcDbCircle
 62
7
  6
CONTINUOUS
 10
188.213165706
 20
56.5212754467
 40
3.0
100
AcDbArc
 50
312.7671317572
 51
45.0
  0
ARC
  5
3D7
100
AcDbEntity
  8
RUNDUNGEN
100
AcDbCircle
 62
7
  6
CONTINUOUS
 10
194.8904935701
 20
66.4157352145
 40
3.0
100
AcDbArc
 50
217.5
 51
322.5
  0
ARC
  5
3D8
100
AcDbEntity
  8
RUNDUNGEN
100
AcDbCircle
 62
7
  6
CONTINUOUS
 10
188.1785526328
 20
75.162906945
 40
3.0
100
AcDbArc
 50
97.5
 51
217.5
  0
ARC
  5
3D9
100
AcDbEntity
  8
RUNDUNGEN
100
AcDbCircle
 62
7
  6
CONTINUOUS
 10
203.1109088102
 20
77.1287889306
 40
3.0
100
AcDbArc
 50
322.5
 51
97.5
  0
ARC
  5
3DA
100
AcDbEntity
  8
RUNDUNGEN
100
AcDbCircle
 62
7
  6
CONTINUOUS
 10
192.4104938905
 20
96.348523597
 40
3.0
100
AcDbArc
 50
55.0
 51
160.0
  0
ARC
  5
3DB
100
AcDbEntity
  8
RUNDUNGEN
100
AcDbCircle
 62
7
  6
CONTINUOUS
 10
199.021024954
 20
91.7197799148
 40
3.0
100
AcDbArc
 50
277.5
 51
55.0
  0
ARC
  5
3DC
100
AcDbEntity
  8
RUNDUNGEN
100
AcDbCircle
 62
7
  6
CONTINUOUS
 10
214.709387945
 20
128.2984778252
 40
1.0
100
AcDbArc
 50
18.1330394275
 51
90.0
  0
ARC
  5
3DD
100
AcDbEntity
  8
RUNDUNGEN
100
AcDbCircle
 62
7
  6
CONTINUOUS
 10
214.709387945
 20
97.7984778252
 40
1.0
100
AcDbArc
 50
270.0
 51
341.8669605725
  0
ARC
  5
3DE
100
AcDbEntity
  8
RUNDUNGEN
100
AcDbCircle
 62
7
  6
CONTINUOUS
 10
214.4286040146
 20
97.7984778252
 40
1.0
100
AcDbArc
 50
180.0
 51
270.0
  0
ARC
  5
3DF
100
AcDbEntity
  8
RUNDUNGEN
100
AcDbCircle
 62
7
  6
CONTINUOUS
 10
214.4286040146
 20
128.2984778252
 40
1.0
100
AcDbArc
 50
90.0
 51
180.0
  0
ARC
  5
3E0
100
AcDbEntity
  8
BEZUGSACHSEN
100
AcDbCircle
 62
7
  6
CONTINUOUS
 10
148.1786040146
 20
255.5484778252
 40
5.0
100
AcDbArc
 50
90.0
 51
180.0
  0
ARC
  5
3E1
100
AcDbEntity
  8
BEZUGSACHSEN
100
AcDbCircle
 62
7
  6
CONTINUOUS
 10
162.9286040146
 20
255.5484778252
 40
5.0
100
AcDbArc
 50
0.0
 51
90.0
  0
ARC
  5
3E2
100
AcDbEntity
  8
RUNDUNGEN
100
AcDbCircle
 62
7
  6
CONTINUOUS
 10
172.9286040146
 20
205.7145191052
 40
4.9999972763
100
AcDbArc
 50
179.9999334921
 51
247.5768621464
  0
ARC
  5
3E3
100
AcDbEntity
  8
BEZUGSACHSEN
100
AcDbCircle
 62
7
  6
CONTINUOUS
 10
172.9286040146
 20
205.7145191052
 40
4.9999972763
100
AcDbArc
 50
179.9999334921
 51
247.5768621464
  0
ARC
  5
3E4
100
AcDbEntity
  8
RUNDUNGEN
100
AcDbCircle
 62
7
  6
CONTINUOUS
 10
192.120286126
 20
152.6937714293
 40
3.0
100
AcDbArc
 50
132.8
 51
257.8
  0
ARC
  5
3E5
100
AcDbEntity
  8
RUNDUNGEN
100
AcDbCircle
 62
7
  6
CONTINUOUS
 10
201.5321160814
 20
161.4092215286
 40
3.0
100
AcDbArc
 50
27.8
 51
132.8
  0
ARC
  5
3E6
100
AcDbEntity
  8
RUNDUNGEN
100
AcDbCircle
 62
7
  6
CONTINUOUS
 10
207.929383866
 20
149.2757235118
 40
3.0
100
AcDbArc
 50
257.8
 51
27.8
  0
ARC
  5
3E7
100
AcDbEntity
  8
RUNDUNGEN
100
AcDbCircle
 62
7
  6
CONTINUOUS
 10
174.414746027
 20
180.0484778252
 40
3.0
100
AcDbArc
 50
61.8
 51
90.0
  0
ARC
  5
3E8
100
AcDbEntity
  8
RUNDUNGEN
100
AcDbCircle
 62
7
  6
CONTINUOUS
 10
188.4219132095
 20
172.5379006792
 40
3.0
100
AcDbArc
 50
311.8
 51
61.8
  0
ARC
  5
3E9
100
AcDbEntity
  8
RUNDUNGEN
100
AcDbCircle
 62
7
  6
CONTINUOUS
 10
177.400696049
 20
162.6837952455
 40
3.0
100
AcDbArc
 50
221.8
 51
311.8
  0
ARC
  5
3EA
100
AcDbEntity
  8
RUNDUNGEN
100
AcDbCircle
 62
7
  6
CONTINUOUS
 10
161.8748779409
 20
180.0484778252
 40
3.0
100
AcDbArc
 50
90.0
 51
221.8
  0
ARC
  5
3EB
100
AcDbEntity
  8
BEZUGSACHSEN
100
AcDbCircle
 62
7
  6
CONTINUOUS
 10
-103.9976166392
 20
76.7759311931
 40
412.5573114061
100
AcDbArc
 50
359.2478880008
 51
1.6964794952
  0
ARC
  5
3EC
100
AcDbEntity
  8
BEZUGSACHSEN
100
AcDbCircle
 62
7
  6
CONTINUOUS
 10
-93.9859937207
 20
60.1821080776
 40
405.356036318
100
AcDbArc
 50
0.374387017
 51
3.6764493299
  0
ARC
  5
3ED
100
AcDbEntity
  8
BEZUGSACHSEN
100
AcDbCircle
 62
7
  6
CONTINUOUS
 10
321.5268903011
 20
32.7891614271
 40
8.7406836136
100
AcDbArc
 50
245.2176485691
 51
269.9999886614
  0
ARC
  5
3EE
100
AcDbEntity
  8
RUNDUNGEN
100
AcDbCircle
 62
7
  6
CONTINUOUS
 10
140.5427383736
 20
230.7816320105
 40
241.5279924077
100
AcDbArc
 50
324.2421296959
 51
324.5375995321
  0
ARC
  5
3EF
100
AcDbEntity
  8
BEZUGSACHSEN
100
AcDbCircle
 62
7
  6
CONTINUOUS
 10
299.8847961077
 20
223.8882237874
 40
5.0
100
AcDbArc
 50
330.0000078135
 51
0.0000120137
  0
ARC
  5
3F0
100
AcDbEntity
  8
BEZUGSACHSEN
100
AcDbCircle
 62
7
  6
CONTINUOUS
 10
305.1347961077
 20
212.9814905271
 40
5.0
100
AcDbArc
 50
150.0000749255
 51
179.9999670951
  0
ARC
  5
3F1
100
AcDbEntity
  8
BEZUGSACHSEN
100
AcDbCircle
 62
7
  6
CONTINUOUS
 10
305.1347961077
 20
204.6195456371
 40
5.0
100
AcDbArc
 50
180.000026663
 51
224.9999890656
  0
ARC
  5
3F2
100
AcDbEntity
  8
RUNDUNGEN
100
AcDbCircle
 62
7
  6
CONTINUOUS
 10
750.2672088548
 20
76.7759311931
 40
412.5573114064
100
AcDbArc
 50
178.3035205048
 51
180.7521119992
  0
ARC
  5
3F3
100
AcDbEntity
  8
RUNDUNGEN
100
AcDbCircle
 62
7
  6
CONTINUOUS
 10
740.2555859361
 20
60.1821080776
 40
405.356036318
100
AcDbArc
 50
176.3235506701
 51
179.625612983
  0
ARC
  5
3F4
100
AcDbEntity
  8
RUNDUNGEN
100
AcDbCircle
 62
7
  6
CONTINUOUS
 10
324.7427019173
 20
32.7891613995
 40
8.740683586
100
AcDbArc
 50
270.0000113188
 51
294.782906897
  0
ARC
  5
3F5
100
AcDbEntity
  8
BEZUGSACHSEN
100
AcDbCircle
 62
7
  6
CONTINUOUS
 10
505.7268538418
 20
230.7816320105
 40
241.5279924077
100
AcDbArc
 50
215.4624004679
 51
215.7578703041
  0
ARC
  5
3F6
100
AcDbEntity
  8
BEZUGSACHSEN
100
AcDbCircle
 62
7
  6
CONTINUOUS
 10
323.1347961077
 20
242.2984778252
 40
18.25
100
AcDbArc
 50
0.0000047263
 51
179.9999952737
  0
ARC
  5
3F7
100
AcDbEntity
  8
RUNDUNGEN
100
AcDbCircle
 62
7
  6
CONTINUOUS
 10
346.3847961077
 20
223.8882237874
 40
5.0
100
AcDbArc
 50
179.9999879863
 51
209.9999921865
  0
ARC
  5
3F8
100
AcDbEntity
  8
RUNDUNGEN
100
AcDbCircle
 62
7
  6
CONTINUOUS
 10
341.1347961077
 20
212.9814905271
 40
5.0
100
AcDbArc
 50
0.0000329049
 51
29.9999250745
  0
ARC
  5
3F9
100
AcDbEntity
  8
RUNDUNGEN
100
AcDbCircle
 62
7
  6
CONTINUOUS
 10
341.1347961077
 20
204.6195456371
 40
5.0
100
AcDbArc
 50
315.0000109344
 51
359.999973337
  0
SPLINE
  5
3FA
100
AcDbEntity
  8
BEZUGSACHSEN
100
AcDbSpline
 62
7
  6
CONTINUOUS
 70
0
 71
3
 72
11
 73
7
 74
0
 42
0.0000001
 43
0.0000001
 44
0.0000000001
 40
0.0
 40
0.0
 40
0.0
 40
0.0
 40
0.067044619
 40
0.2535266906
 40
0.5643498251
 40
1.0
 40
1.0
 40
1.0
 40
1.0
 10
312.4831680519
 20
33.5159154358
 30
0.0
 10
312.4836844493
 20
33.5159270273
 30
0.0
 10
312.4837458266
 20
33.5188242637
 30
0.0
 10
312.483776149
 20
33.522295945
 30
0.0
 10
312.483088733
 20
33.529968126
 30
0.0
 10
312.4824788952
 20
33.5355165296
 30
0.0
 10
312.4820824544
 20
33.5388493854
 30
0.0
  0
SPLINE
  5
3FB
100
AcDbEntity
  8
RUNDUNGEN
100
AcDbSpline
 62
7
  6
CONTINUOUS
 70
0
 71
3
 72
10
 73
6
 74
0
 42
0.0000001
 43
0.0000001
 44
0.0000000001
 40
0.0
 40
0.0
 40
0.0
 40
0.0
 40
0.3231458735
 40
0.5925696629
 40
1.0
 40
1.0
 40
1.0
 40
1.0
 10
337.2664237616
 20
90.6546798428
 30
0.0
 10
337.2859095872
 20
90.6820415793
 30
0.0
 10
337.324386761
 20
90.7306738305
 30
0.0
 10
337.3989887912
 20
90.8021050017
 30
0.0
 10
337.4677938411
 20
90.8356112223
 30
0.0
 10
337.5101463329
 20
90.8356014469
 30
0.0
  0
SPLINE
  5
3FC
100
AcDbEntity
  8
RUNDUNGEN
100
AcDbSpline
 62
7
  6
CONTINUOUS
 70
0
 71
3
 72
15
 73
11
 74
0
 42
0.0000001
 43
0.0000001
 44
0.0000000001
 40
0.0
 40
0.0
 40
0.0
 40
0.0
 40
0.0185599076
 40
0.04357769
 40
0.1126711759
 40
0.2064822449
 40
0.3239378054
 40
0.4637075974
 40
0.6242152461
 40
1.0
 40
1.0
 40
1.0
 40
1.0
 10
333.7875097609
 20
33.5388493854
 30
0.0
 10
333.8089363724
 20
33.7189817315
 30
0.0
 10
333.8536177525
 20
34.142584518
 30
0.0
 10
333.9547270134
 20
35.2391799652
 30
0.0
 10
334.0944868438
 20
37.0706900407
 30
0.0
 10
334.2670347368
 20
39.8055071287
 30
0.0
 10
334.4427937027
 20
43.2320670088
 30
0.0
 10
334.6082627723
 20
47.3116583854
 30
0.0
 10
334.8082763656
 20
53.9164646464
 30
0.0
 10
334.8856331585
 20
59.1579978273
 30
0.0
 10
334.9082033094
 20
62.8308015525
 30
0.0
  0
SPLINE
  5
3FD
100
AcDbEntity
  8
RUNDUNGEN
100
AcDbSpline
 62
7
  6
CONTINUOUS
 70
0
 71
3
 72
11
 73
7
 74
0
 42
0.0000001
 43
0.0000001
 44
0.0000000001
 40
0.0
 40
0.0
 40
0.0
 40
0.0
 40
0.067044619
 40
0.2535266906
 40
0.5643498251
 40
1.0
 40
1.0
 40
1.0
 40
1.0
 10
333.7864241634
 20
33.5159154358
 30
0.0
 10
333.785907766
 20
33.5159270273
 30
0.0
 10
333.7858463888
 20
33.5188242637
 30
0.0
 10
333.7858160664
 20
33.522295945
 30
0.0
 10
333.7865034824
 20
33.529968126
 30
0.0
 10
333.7871133201
 20
33.5355165296
 30
0.0
 10
333.7875097609
 20
33.5388493854
 30
0.0
  0
SPLINE
  5
3FE
100
AcDbEntity
  8
RUNDUNGEN
100
AcDbSpline
 62
7
  6
CONTINUOUS
 70
0
 71
3
 72
13
 73
9
 74
0
 42
0.0000001
 43
0.0000001
 44
0.0000000001
 40
0.0
 40
0.0
 40
0.0
 40
0.0
 40
0.3046244523
 40
0.5938508377
 40
0.7217183686
 40
0.8336556771
 40
0.9269915818
 40
1.0
 40
1.0
 40
1.0
 40
1.0
 10
335.7337483757
 20
86.1743976306
 30
0.0
 10
335.7566306373
 20
86.538063042
 30
0.0
 10
335.8304634703
 20
87.2453411195
 30
0.0
 10
335.9846098955
 20
88.095944752
 30
0.0
 10
336.1431362206
 20
88.7088369301
 30
0.0
 10
336.2658413402
 20
89.0883746506
 30
0.0
 10
336.3930595675
 20
89.396240141
 30
0.0
 10
336.4901615777
 20
89.5711854866
 30
0.0
 10
336.5411874613
 20
89.6420589927
 30
0.0
  0
SPLINE
  5
3FF
100
AcDbEntity
  8
BEZUGSACHSEN
100
AcDbSpline
 62
7
  6
CONTINUOUS
 70
0
 71
3
 72
10
 73
6
 74
0
 42
0.0000001
 43
0.0000001
 44
0.0000000001
 40
0.0
 40
0.0
 40
0.0
 40
0.0
 40
0.3231458735
 40
0.5925696629
 40
1.0
 40
1.0
 40
1.0
 40
1.0
 10
309.0031684538
 20
90.6546798428
 30
0.0
 10
308.9836826282
 20
90.6820415793
 30
0.0
 10
308.9452054544
 20
90.7306738305
 30
0.0
 10
308.8706034242
 20
90.8021050017
 30
0.0
 10
308.8017983742
 20
90.8356112223
 30
0.0
 10
308.7594458824
 20
90.8356014469
 30
0.0
  0
SPLINE
  5
400
100
AcDbEntity
  8
BEZUGSACHSEN
100
AcDbSpline
 62
7
  6
CONTINUOUS
 70
0
 71
3
 72
15
 73
11
 74
0
 42
0.0000001
 43
0.0000001
 44
0.0000000001
 40
0.0
 40
0.0
 40
0.0
 40
0.0
 40
0.0185599076
 40
0.04357769
 40
0.1126711759
 40
0.2064822449
 40
0.3239378054
 40
0.4637075974
 40
0.6242152461
 40
1.0
 40
1.0
 40
1.0
 40
1.0
 10
312.4820824544
 20
33.5388493854
 30
0.0
 10
312.4606558429
 20
33.7189817315
 30
0.0
 10
312.4159744628
 20
34.142584518
 30
0.0
 10
312.314865202
 20
35.2391799652
 30
0.0
 10
312.1751053715
 20
37.0706900407
 30
0.0
 10
312.0025574786
 20
39.8055071287
 30
0.0
 10
311.8267985127
 20
43.2320670088
 30
0.0
 10
311.661329443
 20
47.3116583854
 30
0.0
 10
311.4613158498
 20
53.9164646464
 30
0.0
 10
311.3839590569
 20
59.1579978273
 30
0.0
 10
311.361388906
 20
62.8308015525
 30
0.0
  0
SPLINE
  5
401
100
AcDbEntity
  8
BEZUGSACHSEN
100
AcDbSpline
 62
7
  6
CONTINUOUS
 70
0
 71
3
 72
13
 73
9
 74
0
 42
0.0000001
 43
0.0000001
 44
0.0000000001
 40
0.0
 40
0.0
 40
0.0
 40
0.0
 40
0.3046244523
 40
0.5938508377
 40
0.7217183686
 40
0.8336556771
 40
0.9269915818
 40
1.0
 40
1.0
 40
1.0
 40
1.0
 10
310.5358438397
 20
86.1743976306
 30
0.0
 10
310.5129615781
 20
86.538063042
 30
0.0
 10
310.4391287451
 20
87.2453411195
 30
0.0
 10
310.2849823199
 20
88.095944752
 30
0.0
 10
310.1264559948
 20
88.7088369301
 30
0.0
 10
310.0037508752
 20
89.0883746506
 30
0.0
 10
309.8765326479
 20
89.396240141
 30
0.0
 10
309.7794306377
 20
89.5711854866
 30
0.0
 10
309.728404754
 20
89.6420589927
 30
0.0
  0
SPLINE
  5
402
100
AcDbEntity
  8
BEZUGSACHSEN
100
AcDbSpline
 62
7
  6
CONTINUOUS
 70
0
 71
3
 72
17
 73
13
 74
0
 42
0.0000001
 43
0.0000001
 44
0.0000000001
 40
0.0
 40
0.0
 40
0.0
 40
0.0
 40
0.0238004293
 40
0.0492487197
 40
0.0784603305
 40
0.1128310497
 40
0.1997925022
 40
0.3129417284
 40
0.4519437287
 40
0.6148886739
 40
0.798848343
 40
1.0
 40
1.0
 40
1.0
 40
1.0
 10
308.7594458824
 20
90.8356014469
 30
0.0
 10
308.7438169215
 20
90.8355978396
 30
0.0
 10
308.7112153281
 20
90.8299326889
 30
0.0
 10
308.6655607732
 20
90.8044684285
 30
0.0
 10
308.6233230282
 20
90.7633365884
 30
0.0
 10
308.5666875673
 20
90.6818051594
 30
0.0
 10
308.5071262946
 20
90.5383683635
 30
0.0
 10
308.4521654003
 20
90.3223119551
 30
0.0
 10
308.4106117411
 20
90.0525435762
 30
0.0
 10
308.3836515319
 20
89.7344489841
 30
0.0
 10
308.3721925222
 20
89.3746019392
 30
0.0
 10
308.3750208357
 20
89.1216526924
 30
0.0
 10
308.3788630823
 20
88.9896188901
 30
0.0
  0
SPLINE
  5
403
100
AcDbEntity
  8
RUNDUNGEN
100
AcDbSpline
 62
7
  6
CONTINUOUS
 70
0
 71
3
 72
10
 73
6
 74
0
 42
0.0000001
 43
0.0000001
 44
0.0000000001
 40
0.0
 40
0.0
 40
0.0
 40
0.0
 40
0.6102406925
 40
0.8447819673
 40
1.0
 40
1.0
 40
1.0
 40
1.0
 10
334.3949938258
 20
36.5159101862
 30
0.0
 10
334.2815229979
 20
35.9395426222
 30
0.0
 10
334.1240067845
 20
35.1417320981
 30
0.0
 10
333.9342242003
 20
34.198010999
 30
0.0
 10
333.8589384645
 20
33.8304390059
 30
0.0
 10
333.8273445541
 20
33.6844011828
 30
0.0
  0
SPLINE
  5
404
100
AcDbEntity
  8
RUNDUNGEN
100
AcDbSpline
 62
7
  6
CONTINUOUS
 70
0
 71
3
 72
14
 73
10
 74
0
 42
0.0000001
 43
0.0000001
 44
0.0000000001
 40
0.0
 40
0.0
 40
0.0
 40
0.0
 40
0.4322015074
 40
0.6034547791
 40
0.7443035851
 40
0.8544563448
 40
0.9337603469
 40
0.9821339999
 40
1.0
 40
1.0
 40
1.0
 40
1.0
 10
333.8273445541
 20
33.6844011828
 30
0.0
 10
333.8220565494
 20
33.6599582224
 30
0.0
 10
333.8145997577
 20
33.625815654
 30
0.0
 10
333.8050220463
 20
33.5838921322
 30
0.0
 10
333.7994518587
 20
33.5599658648
 30
0.0
 10
333.7947563698
 20
33.5417916563
 30
0.0
 10
333.7913999729
 20
33.5276382403
 30
0.0
 10
333.7885161661
 20
33.5211440385
 30
0.0
 10
333.7874576813
 20
33.5158922365
 30
0.0
 10
333.7864241634
 20
33.5159154358
 30
0.0
  0
SPLINE
  5
405
100
AcDbEntity
  8
RUNDUNGEN
100
AcDbSpline
 62
7
  6
CONTINUOUS
 70
0
 71
3
 72
14
 73
10
 74
0
 42
0.0000001
 43
0.0000001
 44
0.0000000001
 40
0.0
 40
0.0
 40
0.0
 40
0.0
 40
0.0387171407
 40
0.1093654885
 40
0.2093383373
 40
0.3350221523
 40
0.4820287031
 40
0.6454243444
 40
1.0
 40
1.0
 40
1.0
 40
1.0
 10
337.2179723525
 20
50.9723253822
 30
0.0
 10
337.2141579926
 20
50.933402332
 30
0.0
 10
337.1960950745
 20
50.824303682
 30
0.0
 10
337.1603563885
 20
50.6159581207
 30
0.0
 10
337.105983556
 20
50.3215906479
 30
0.0
 10
337.036327662
 20
49.9516655406
 30
0.0
 10
336.9533403315
 20
49.5190422501
 30
0.0
 10
336.8255231585
 20
48.8596002359
 30
0.0
 10
336.7248133072
 20
48.3461620213
 30
0.0
 10
336.6555415843
 20
47.9947556727
 30
0.0
  0
SPLINE
  5
406
100
AcDbEntity
  8
RUNDUNGEN
100
AcDbSpline
 62
7
  6
CONTINUOUS
 70
0
 71
3
 72
8
 73
4
 74
0
 42
0.0000001
 43
0.0000001
 44
0.0000000001
 40
0.0
 40
0.0
 40
0.0
 40
0.0
 40
1.0
 40
1.0
 40
1.0
 40
1.0
 10
336.6555415843
 20
47.9947556727
 30
0.0
 10
335.9013056177
 20
44.1686157143
 30
0.0
 10
335.1482913289
 20
40.3422350217
 30
0.0
 10
334.3949938258
 20
36.5159101862
 30
0.0
  0
SPLINE
  5
407
100
AcDbEntity
  8
RUNDUNGEN
100
AcDbSpline
 62
7
  6
CONTINUOUS
 70
0
 71
3
 72
13
 73
9
 74
0
 42
0.0000001
 43
0.0000001
 44
0.0000000001
 40
0.0
 40
0.0
 40
0.0
 40
0.0
 40
0.3756164798
 40
0.6733683108
 40
0.7899794404
 40
0.8837710298
 40
0.9539747792
 40
1.0
 40
1.0
 40
1.0
 40
1.0
 10
337.7454415733
 20
71.360516728
 30
0.0
 10
337.7825221157
 20
68.8062977982
 30
0.0
 10
337.792969217
 20
64.2262800586
 30
0.0
 10
337.6698763277
 20
58.8545901083
 30
0.0
 10
337.5206631254
 20
55.4018779781
 30
0.0
 10
337.4138528849
 20
53.4964608184
 30
0.0
 10
337.3146101108
 20
52.0715782067
 30
0.0
 10
337.2485000821
 20
51.2838409088
 30
0.0
 10
337.2179723525
 20
50.9723253822
 30
0.0
  0
SPLINE
  5
408
100
AcDbEntity
  8
BEZUGSACHSEN
100
AcDbSpline
 62
7
  6
CONTINUOUS
 70
0
 71
3
 72
13
 73
9
 74
0
 42
0.0000001
 43
0.0000001
 44
0.0000000001
 40
0.0
 40
0.0
 40
0.0
 40
0.0
 40
0.3756164798
 40
0.6733683108
 40
0.7899794404
 40
0.8837710298
 40
0.9539747792
 40
1.0
 40
1.0
 40
1.0
 40
1.0
 10
308.524150642
 20
71.360516728
 30
0.0
 10
308.4870700996
 20
68.8062977982
 30
0.0
 10
308.4766229983
 20
64.2262800586
 30
0.0
 10
308.5997158877
 20
58.8545901083
 30
0.0
 10
308.74892909
 20
55.4018779781
 30
0.0
 10
308.8557393305
 20
53.4964608184
 30
0.0
 10
308.9549821046
 20
52.0715782067
 30
0.0
 10
309.0210921332
 20
51.2838409088
 30
0.0
 10
309.0516198628
 20
50.9723253822
 30
0.0
  0
SPLINE
  5
409
100
AcDbEntity
  8
BEZUGSACHSEN
100
AcDbSpline
 62
7
  6
CONTINUOUS
 70
0
 71
3
 72
8
 73
4
 74
0
 42
0.0000001
 43
0.0000001
 44
0.0000000001
 40
0.0
 40
0.0
 40
0.0
 40
0.0
 40
1.0
 40
1.0
 40
1.0
 40
1.0
 10
309.614050631
 20
47.9947556727
 30
0.0
 10
310.3682865976
 20
44.1686157143
 30
0.0
 10
311.1213008865
 20
40.3422350217
 30
0.0
 10
311.8745983895
 20
36.5159101862
 30
0.0
  0
SPLINE
  5
40A
100
AcDbEntity
  8
RUNDUNGEN
100
AcDbSpline
 62
7
  6
CONTINUOUS
 70
0
 71
3
 72
17
 73
13
 74
0
 42
0.0000001
 43
0.0000001
 44
0.0000000001
 40
0.0
 40
0.0
 40
0.0
 40
0.0
 40
0.0238004293
 40
0.0492487197
 40
0.0784603305
 40
0.1128310497
 40
0.1997925022
 40
0.3129417284
 40
0.4519437287
 40
0.6148886739
 40
0.798848343
 40
1.0
 40
1.0
 40
1.0
 40
1.0
 10
337.5101463329
 20
90.8356014469
 30
0.0
 10
337.5257752939
 20
90.8355978396
 30
0.0
 10
337.5583768873
 20
90.8299326889
 30
0.0
 10
337.6040314421
 20
90.8044684285
 30
0.0
 10
337.6462691872
 20
90.7633365884
 30
0.0
 10
337.702904648
 20
90.6818051594
 30
0.0
 10
337.7624659208
 20
90.5383683635
 30
0.0
 10
337.8174268151
 20
90.3223119551
 30
0.0
 10
337.8589804743
 20
90.0525435762
 30
0.0
 10
337.8859406835
 20
89.7344489841
 30
0.0
 10
337.8973996932
 20
89.3746019392
 30
0.0
 10
337.8945713797
 20
89.1216526924
 30
0.0
 10
337.8907291331
 20
88.9896188901
 30
0.0
  0
SPLINE
  5
40B
100
AcDbEntity
  8
BEZUGSACHSEN
100
AcDbSpline
 62
7
  6
CONTINUOUS
 70
0
 71
3
 72
14
 73
10
 74
0
 42
0.0000001
 43
0.0000001
 44
0.0000000001
 40
0.0
 40
0.0
 40
0.0
 40
0.0
 40
0.0387171407
 40
0.1093654885
 40
0.2093383373
 40
0.3350221523
 40
0.4820287031
 40
0.6454243444
 40
1.0
 40
1.0
 40
1.0
 40
1.0
 10
309.0516198628
 20
50.9723253822
 30
0.0
 10
309.0554342228
 20
50.933402332
 30
0.0
 10
309.0734971408
 20
50.824303682
 30
0.0
 10
309.1092358269
 20
50.6159581207
 30
0.0
 10
309.1636086594
 20
50.3215906479
 30
0.0
 10
309.2332645534
 20
49.9516655406
 30
0.0
 10
309.3162518838
 20
49.5190422501
 30
0.0
 10
309.4440690568
 20
48.8596002359
 30
0.0
 10
309.5447789081
 20
48.3461620213
 30
0.0
 10
309.614050631
 20
47.9947556727
 30
0.0
  0
SPLINE
  5
40C
100
AcDbEntity
  8
BEZUGSACHSEN
100
AcDbSpline
 62
7
  6
CONTINUOUS
 70
0
 71
3
 72
10
 73
6
 74
0
 42
0.0000001
 43
0.0000001
 44
0.0000000001
 40
0.0
 40
0.0
 40
0.0
 40
0.0
 40
0.6102406925
 40
0.8447819673
 40
1.0
 40
1.0
 40
1.0
 40
1.0
 10
311.8745983895
 20
36.5159101862
 30
0.0
 10
311.9880692174
 20
35.9395426222
 30
0.0
 10
312.1455854308
 20
35.1417320981
 30
0.0
 10
312.3353680151
 20
34.198010999
 30
0.0
 10
312.4106537509
 20
33.8304390059
 30
0.0
 10
312.4422476613
 20
33.6844011828
 30
0.0
  0
SPLINE
  5
40D
100
AcDbEntity
  8
BEZUGSACHSEN
100
AcDbSpline
 62
7
  6
CONTINUOUS
 70
0
 71
3
 72
14
 73
10
 74
0
 42
0.0000001
 43
0.0000001
 44
0.0000000001
 40
0.0
 40
0.0
 40
0.0
 40
0.0
 40
0.4322015074
 40
0.6034547791
 40
0.7443035851
 40
0.8544563448
 40
0.9337603469
 40
0.9821339999
 40
1.0
 40
1.0
 40
1.0
 40
1.0
 10
312.4422476613
 20
33.6844011828
 30
0.0
 10
312.447535666
 20
33.6599582224
 30
0.0
 10
312.4549924576
 20
33.625815654
 30
0.0
 10
312.4645701691
 20
33.5838921322
 30
0.0
 10
312.4701403566
 20
33.5599658648
 30
0.0
 10
312.4748358456
 20
33.5417916563
 30
0.0
 10
312.4781922424
 20
33.5276382403
 30
0.0
 10
312.4810760493
 20
33.5211440385
 30
0.0
 10
312.482134534
 20
33.5158922365
 30
0.0
 10
312.4831680519
 20
33.5159154358
 30
0.0
  0
ENDSEC
  0
SECTION
  2
OBJECTS
  0
DICTIONARY
  5
C
100
AcDbDictionary
280
0
281
1
  3
ACAD_GROUP
350
D
  3
ACAD_MLINESTYLE
350
17
  3
ACAD_LAYOUT
350
1A
  3
ACAD_PLOTSETTINGS
350
19
  3
ACAD_PLOTSTYLENAME
350
E
  0
DICTIONARY
  5
D
102
{ACAD_REACTORS
330
C
102
}
100
AcDbDictionary
280
0
281
1
  0
ACDBDICTIONARYWDFLT
  5
E
102
{ACAD_REACTORS
330
C
102
}
100
AcDbDictionary
281
1
  3
Normal
350
F
100
AcDbDictionaryWithDefault
340
F
  0
DICTIONARY
  5
17
102
{ACAD_REACTORS
330
C
102
}
100
AcDbDictionary
280
0
281
1
  3
Standard
350
18
  0
DICTIONARY
  5
19
102
{ACAD_REACTORS
330
C
102
}
100
AcDbDictionary
281
1
  0
DICTIONARY
  5
1A
102
{ACAD_REACTORS
330
C
102
}
100
AcDbDictionary
281
1
  3
Model
350
40E
  3
Layout1
350
40F
  0
ACDBPLACEHOLDER
  5
F
102
{ACAD_REACTORS
330
E
102
}
  0
MLINESTYLE
  5
18
102
{ACAD_REACTORS
330
17
102
}
100
AcDbMlineStyle
  2
STANDARD
 70
0
  3

 62
256
 51
90.0
 52
90.0
 71
2
 49
0.5
 62
256
  6
BYLAYER
 49
-0.5
 62
256
  6
BYLAYER
  0
LAYOUT
  5
40E
102
{ACAD_REACTORS
330
1A
102
}
100
AcDbPlotSettings
  1

  2
none_device
  4
ISO_A3_(420.00_x_297.00_MM)
  6

 40
0.0
 41
0.0
 42
0.0
 43
0.0
 44
420.0
 45
297.0
 46
0.0
 47
0.0
 48
0.0
 49
0.0
140
0.0
141
0.0
142
1.0
143
1.0
 70
1024
 72
1
 73
0
 74
0
  7

 75
0
147
1.0
148
0.0
149
0.0
100
AcDbLayout
  1
Model
 70
0
 71
0
 10
0.0
 20
0.0
 11
420.0
 21
297.0
 12
0.0
 22
0.0
 32
0.0
 14
0.0
 24
0.0
 34
0.0
 15
0.0
 25
0.0
 35
0.0
146
0.0
 13
0.0
 23
0.0
 33
0.0
 16
1.0
 26
0.0
 36
0.0
 17
0.0
 27
1.0
 37
0.0
 76
0
330
209
345
0
346
0
  0
LAYOUT
  5
40F
102
{ACAD_REACTORS
330
1A
102
}
100
AcDbPlotSettings
  1

  2
none_device
  4
ISO_A3_(420.00_x_297.00_MM)
  6

 40
0.0
 41
0.0
 42
0.0
 43
0.0
 44
420.0
 45
297.0
 46
0.0
 47
0.0
 48
0.0
 49
0.0
140
0.0
141
0.0
142
1.0
143
1.0
 70
0
 72
1
 73
0
 74
0
  7

 75
0
147
1.0
148
0.0
149
0.0
100
AcDbLayout
  1
Layout1
 70
0
 71
1
 10
0.0
 20
0.0
 11
420.0
 21
297.0
 12
0.0
 22
0.0
 32
0.0
 14
0.0
 24
0.0
 34
0.0
 15
0.0
 25
0.0
 35
0.0
146
0.0
 13
0.0
 23
0.0
 33
0.0
 16
1.0
 26
0.0
 36
0.0
 17
0.0
 27
1.0
 37
0.0
 76
0
330
20A
345
0
346
0
  0
ENDSEC
  0
EOF
