999
DXF file: VWH-10_7100212_M34844-P-3.dxf
999
Pro/ENGINEER 2010140 by Parametric Technology Corporation
  0
SECTION
  2
HEADER
  9
$ACADVER
  1
AC1015
  9
$DWGCODEPAGE
  3
ANSI_1252
  9
$EXTMAX
 10
420.0
 20
297.0
 30
0.0
  9
$EXTMIN
 10
0.0
 20
0.0
 30
0.0
  9
$LIMMIN
 10
0.0
 20
0.0
  9
$LIMMAX
 10
420.0
 20
297.0
  9
$VIEWCTR
 10
210.0
 20
148.5
  9
$VIEWSIZE
 40
297.0
  9
$CLAYER
  8
0
  9
$LTSCALE
 40
23.1
  9
$CELTYPE
  6
BYLAYER
  9
$DIMSCALE
 40
1.0
  9
$DIMASZ
 40
3.5
  9
$DIMEXO
 40
2.625
  9
$DIMDLI
 40
15.96
  9
$DIMEXE
 40
7.56
  9
$DIMCEN
 40
3.78
  9
$DIMLFAC
 40
1.0
  9
$DIMBLK
  1
_FILLED
  9
$DIMTXT
 40
3.5
  9
$DIMTOL
 70
1
  9
$DIMLIM
 70
0
  9
$DIMTFAC
 40
1.0
  9
$DIMTP
 40
0.005
  9
$DIMTM
 40
0.005
  9
$PDMODE
 70
3
  9
$PDSIZE
 40
0.3125
  9
$HANDSEED
  5
3E6
  9
$TILEMODE
 70
1
  9
$MEASUREMENT
 70
1
  9
$INSUNITS
 70
4
  0
ENDSEC
  0
SECTION
  2
CLASSES
  0
CLASS
  1
ACDBDICTIONARYWDFLT
  2
AcDbDictionaryWithDefault
  3
AutoCAD 2000
 90
0
280
0
281
0
  0
CLASS
  1
ACDBPLACEHOLDER
  2
AcDbPlaceHolder
  3
AutoCAD 2000
 90
0
280
0
281
0
  0
CLASS
  1
LAYOUT
  2
AcDbLayout
  3
AutoCAD 2000
 90
0
280
0
281
0
  0
ENDSEC
  0
SECTION
  2
TABLES
  0
TABLE
  2
VPORT
  5
8
100
AcDbSymbolTable
 70
2
  0
VPORT
  5
1F4
100
AcDbSymbolTableRecord
100
AcDbViewportTableRecord
  2
*ACTIVE
 70
0
 10
0.0
 20
0.0
 11
1.0
 21
1.0
 12
210.0
 22
148.5
 13
0.0
 23
0.0
 14
1.0
 24
1.0
 15
0.0
 25
0.0
 16
0.0
 26
0.0
 36
1.0
 17
0.0
 27
0.0
 37
0.0
 40
297.0
 41
1.4141414141
 42
50.0
 43
0.0
 44
0.0
 50
0.0
 51
0.0
 71
0
 72
100
 73
1
 74
1
 75
0
 76
0
 77
0
 78
0
  0
ENDTAB
  0
TABLE
  2
LTYPE
  5
5
100
AcDbSymbolTable
 70
6
  0
LTYPE
  5
14
100
AcDbSymbolTableRecord
100
AcDbLinetypeTableRecord
  2
BYBLOCK
 70
0
  3

 72
65
 73
0
 40
0.0
  0
LTYPE
  5
15
100
AcDbSymbolTableRecord
100
AcDbLinetypeTableRecord
  2
BYLAYER
 70
0
  3

 72
65
 73
0
 40
0.0
  0
LTYPE
  5
16
100
AcDbSymbolTableRecord
100
AcDbLinetypeTableRecord
  2
CONTINUOUS
 70
64
  3
Solid line
 72
65
 73
0
 40
0.0
  0
LTYPE
  5
1F5
100
AcDbSymbolTableRecord
100
AcDbLinetypeTableRecord
  2
CENTER
 70
64
  3
____ _ ____ _ ____ _ ____ _ ____ _ ____ _ ____
 72
65
 73
4
 40
0.6
 49
0.375
 74
0
 49
-0.075
 74
0
 49
0.075
 74
0
 49
-0.075
 74
0
  0
LTYPE
  5
1F6
100
AcDbSymbolTableRecord
100
AcDbLinetypeTableRecord
  2
HIDDEN
 70
64
  3
- - - - - - - - - - - - - - - - - - - -
 72
65
 73
2
 40
0.2
 49
0.1
 74
0
 49
-0.1
 74
0
  0
LTYPE
  5
1F7
100
AcDbSymbolTableRecord
100
AcDbLinetypeTableRecord
  2
PHANTOM
 70
64
  3
_____ _ _ _____ _ _ _____ _ _ _____
 72
65
 73
6
 40
0.8
 49
0.45
 74
0
 49
-0.05
 74
0
 49
0.1
 74
0
 49
-0.05
 74
0
 49
0.1
 74
0
 49
-0.05
 74
0
  0
LTYPE
  5
1F8
100
AcDbSymbolTableRecord
100
AcDbLinetypeTableRecord
  2
DOT
 70
64
  3
. . . . . . . . . . . . . . . . . . . .
 72
65
 73
2
 40
0.2
 49
0.1
 74
0
 49
-0.1
 74
0
  0
LTYPE
  5
1F9
100
AcDbSymbolTableRecord
100
AcDbLinetypeTableRecord
  2
DASHED
 70
64
  3
- - - - - - - - - - - - - - - - - - - -
 72
65
 73
2
 40
0.2
 49
0.1
 74
0
 49
-0.1
 74
0
  0
ENDTAB
  0
TABLE
  2
LAYER
  5
2
100
AcDbSymbolTable
 70
36
  0
LAYER
  5
10
100
AcDbSymbolTableRecord
100
AcDbLayerTableRecord
  2
0
 70
0
 62
7
  6
CONTINUOUS
370
-3
390
F
  0
LAYER
  5
1FA
100
AcDbSymbolTableRecord
100
AcDbLayerTableRecord
  2
DEFAULT_1
 70
0
 62
7
  6
CENTER
370
-3
390
F
  0
LAYER
  5
1FB
100
AcDbSymbolTableRecord
100
AcDbLayerTableRecord
  2
DEFAULT_2
 70
0
 62
8
  6
HIDDEN
370
-3
390
F
  0
LAYER
  5
1FC
100
AcDbSymbolTableRecord
100
AcDbLayerTableRecord
  2
DEFAULT_3
 70
0
 62
7
  6
PHANTOM
370
-3
390
F
  0
LAYER
  5
1FD
100
AcDbSymbolTableRecord
100
AcDbLayerTableRecord
  2
BEZUGSACHSEN
 70
0
 62
7
  6
CONTINUOUS
370
-3
390
F
  0
LAYER
  5
1FE
100
AcDbSymbolTableRecord
100
AcDbLayerTableRecord
  2
BEZUGSEBENEN
 70
0
 62
7
  6
CONTINUOUS
370
-3
390
F
  0
LAYER
  5
1FF
100
AcDbSymbolTableRecord
100
AcDbLayerTableRecord
  2
FASEN
 70
0
 62
7
  6
CONTINUOUS
370
-3
390
F
  0
LAYER
  5
200
100
AcDbSymbolTableRecord
100
AcDbLayerTableRecord
  2
FLAECHEN
 70
0
 62
7
  6
CONTINUOUS
370
-3
390
F
  0
LAYER
  5
201
100
AcDbSymbolTableRecord
100
AcDbLayerTableRecord
  2
HILFEN
 70
0
 62
7
  6
CONTINUOUS
370
-3
390
F
  0
LAYER
  5
202
100
AcDbSymbolTableRecord
100
AcDbLayerTableRecord
  2
KURVEN
 70
0
 62
7
  6
CONTINUOUS
370
-3
390
F
  0
LAYER
  5
203
100
AcDbSymbolTableRecord
100
AcDbLayerTableRecord
  2
PLATZIERUNG
 70
0
 62
7
  6
CONTINUOUS
370
-3
390
F
  0
LAYER
  5
204
100
AcDbSymbolTableRecord
100
AcDbLayerTableRecord
  2
RUNDUNGEN
 70
0
 62
7
  6
CONTINUOUS
370
-3
390
F
  0
LAYER
  5
205
100
AcDbSymbolTableRecord
100
AcDbLayerTableRecord
  2
T_STARTBEZUEGE
 70
0
 62
7
  6
CONTINUOUS
370
-3
390
F
  0
LAYER
  5
206
100
AcDbSymbolTableRecord
100
AcDbLayerTableRecord
  2
ZEICHNUNGSBEMASSUNGEN
 70
0
 62
7
  6
CONTINUOUS
370
-3
390
F
  0
ENDTAB
  0
TABLE
  2
STYLE
  5
3
100
AcDbSymbolTable
 70
1
  0
STYLE
  5
11
100
AcDbSymbolTableRecord
100
AcDbTextStyleTableRecord
  2
STANDARD
 70
0
 40
0.0
 41
0.7
 50
0.0
 71
0
 42
0.2
  3
txt
  4

  0
STYLE
  5
207
100
AcDbSymbolTableRecord
100
AcDbTextStyleTableRecord
  2
TEXTSTYLE_1
 70
0
 40
0.0
 41
0.8
 50
0.0
 71
0
 42
0.2
  3
gdt
  4

  0
ENDTAB
  0
TABLE
  2
VIEW
  5
6
100
AcDbSymbolTable
 70
0
  0
ENDTAB
  0
TABLE
  2
UCS
  5
7
100
AcDbSymbolTable
 70
0
  0
ENDTAB
  0
TABLE
  2
APPID
  5
9
100
AcDbSymbolTable
 70
1
  0
APPID
  5
208
100
AcDbSymbolTableRecord
100
AcDbRegAppTableRecord
  2
ACAD
 70
0
  0
ENDTAB
  0
TABLE
  2
BLOCK_RECORD
  5
1
100
AcDbSymbolTable
 70
0
  0
BLOCK_RECORD
  5
209
100
AcDbSymbolTableRecord
100
AcDbBlockTableRecord
  2
*Model_Space
  0
BLOCK_RECORD
  5
20A
100
AcDbSymbolTableRecord
100
AcDbBlockTableRecord
  2
*Paper_Space
  0
ENDTAB
  0
TABLE
  2
DIMSTYLE
  5
A
100
AcDbSymbolTable
 70
1
100
AcDbDimStyleTable
 71
0
  0
DIMSTYLE
105
20B
100
AcDbSymbolTableRecord
100
AcDbDimStyleTableRecord
  2
STANDARD
 70
0
  3

  4

 40
1.0
 41
3.5
 42
0.0625
 43
0.38
 44
0.18
 45
0.0
 46
0.0
 47
0.005
 48
0.005
140
3.5
141
0.09
142
0.0
143
25.4
144
1.0
145
0.0
146
1.0
147
0.09
 71
1.0
 72
0.0
 73
0
 74
0
 75
0
 76
0
 77
1
 78
8
170
0
171
2
172
0
173
0
174
0
175
0
176
0
177
0
178
5
270
2
271
3
272
3
273
2
274
2
275
0
280
0
281
0
282
0
283
1
284
8
285
0
286
0
287
3
288
0
340
11
  0
ENDTAB
  0
ENDSEC
  0
SECTION
  2
BLOCKS
  0
BLOCK
  5
20
100
AcDbEntity
  8
0
100
AcDbBlockBegin
  2
*Model_Space
 70
0
 10
0.0
 20
0.0
 30
0.0
  3
*Model_Space
  1

  0
ENDBLK
  5
21
100
AcDbEntity
  8
0
100
AcDbBlockEnd
  0
BLOCK
  5
1C
100
AcDbEntity
  8
0
100
AcDbBlockBegin
  2
*Paper_Space
 70
0
 10
0.0
 20
0.0
 30
0.0
  3
*Paper_Space
  1

  0
ENDBLK
  5
1D
100
AcDbEntity
  8
0
100
AcDbBlockEnd
  0
ENDSEC
  0
SECTION
  2
ENTITIES
  0
MTEXT
  5
20C
100
AcDbEntity
  8
0
100
AcDbMText
 62
5
  6
CONTINUOUS
  7
STANDARD
 71
1
 72
1
 10
283.1458542069
 20
144.6519615197
 30
0.0
 11
0.0
 21
1.0
 31
0.0
 44
0.9
  1
RUD VWH 10
 40
5.0
 41
42.8571428571
  0
LINE
  5
20D
100
AcDbEntity
  8
0
100
AcDbLine
 62
7
  6
CONTINUOUS
 10
0.0
 20
0.0
 11
0.0
 21
297.0
  0
LINE
  5
20E
100
AcDbEntity
  8
0
100
AcDbLine
 62
7
  6
CONTINUOUS
 10
0.0
 20
0.0
 11
420.0
 21
0.0
  0
LINE
  5
20F
100
AcDbEntity
  8
0
100
AcDbLine
 62
7
  6
CONTINUOUS
 10
0.0
 20
297.0
 11
420.0
 21
297.0
  0
LINE
  5
210
100
AcDbEntity
  8
0
100
AcDbLine
 62
7
  6
CONTINUOUS
 10
420.0
 20
0.0
 11
420.0
 21
297.0
  0
LINE
  5
211
100
AcDbEntity
  8
0
100
AcDbLine
 62
7
  6
CONTINUOUS
 10
136.2462308548
 20
64.0185757108
 11
136.9831112486
 21
64.1582441946
  0
LINE
  5
212
100
AcDbEntity
  8
0
100
AcDbLine
 62
7
  6
CONTINUOUS
 10
140.0534443484
 20
64.7401958553
 11
140.913136267
 21
64.9031420645
  0
LINE
  5
213
100
AcDbEntity
  8
0
100
AcDbLine
 62
7
  6
CONTINUOUS
 10
136.4838707036
 20
66.7921996818
 11
138.5716947378
 21
67.1879263422
  0
LINE
  5
214
100
AcDbEntity
  8
0
100
AcDbLine
 62
7
  6
CONTINUOUS
 10
138.674683273
 20
67.9870414689
 11
136.3412305669
 21
67.5447582921
  0
LINE
  5
215
100
AcDbEntity
  8
0
100
AcDbLine
 62
7
  6
CONTINUOUS
 10
143.8111117166
 20
65.8389251013
 11
144.4460001212
 21
65.9008436865
  0
LINE
  5
216
100
AcDbEntity
  8
0
100
AcDbLine
 62
7
  6
CONTINUOUS
 10
144.220592531
 20
66.6328834571
 11
143.7051671307
 21
66.6077495664
  0
LINE
  5
217
100
AcDbEntity
  8
0
100
AcDbLine
 62
7
  6
CONTINUOUS
 10
120.0064126924
 20
66.7546090864
 11
120.6438392344
 21
66.779197665
  0
LINE
  5
218
100
AcDbEntity
  8
0
100
AcDbLine
 62
7
  6
CONTINUOUS
 10
116.6112813868
 20
64.5958911302
 11
117.3513486465
 21
64.4742340257
  0
LINE
  5
219
100
AcDbEntity
  8
0
100
AcDbLine
 62
7
  6
CONTINUOUS
 10
117.78620809
 20
67.119580864
 11
120.0064126924
 21
66.7546090864
  0
LINE
  5
21A
100
AcDbEntity
  8
0
100
AcDbLine
 62
7
  6
CONTINUOUS
 10
120.2540008923
 20
67.4901464932
 11
117.9104536288
 21
67.8753941455
  0
LINE
  5
21B
100
AcDbEntity
  8
0
100
AcDbLine
 62
7
  6
CONTINUOUS
 10
114.4856048511
 20
65.1256287374
 11
115.2148245242
 21
64.9503042716
  0
LINE
  5
21C
100
AcDbEntity
  8
0
100
AcDbLine
 62
7
  6
CONTINUOUS
 10
110.2021841395
 20
66.3658910258
 11
111.153695264
 21
66.0582797897
  0
LINE
  5
21D
100
AcDbEntity
  8
0
100
AcDbLine
 62
7
  6
CONTINUOUS
 10
99.6818724767
 20
71.9988764688
 11
99.0813140366
 21
72.2139353701
  0
LINE
  5
21E
100
AcDbEntity
  8
0
100
AcDbLine
 62
7
  6
CONTINUOUS
 10
98.7502150724
 20
71.668226962
 11
99.4576422279
 21
71.388327363
  0
LINE
  5
21F
100
AcDbEntity
  8
0
100
AcDbLine
 62
7
  6
CONTINUOUS
 10
95.020019482
 20
74.1386583997
 11
95.6284335105
 21
73.7001012541
  0
LINE
  5
220
100
AcDbEntity
  8
RUNDUNGEN
100
AcDbLine
 62
7
  6
CONTINUOUS
 10
66.4964743487
 20
94.4076830121
 11
55.4489904217
 21
125.0932500862
  0
LINE
  5
221
100
AcDbEntity
  8
0
100
AcDbLine
 62
7
  6
CONTINUOUS
 10
149.3883164075
 20
74.0438449315
 11
148.7645739563
 21
73.9101940829
  0
LINE
  5
222
100
AcDbEntity
  8
0
100
AcDbLine
 62
7
  6
CONTINUOUS
 10
135.9846301586
 20
69.426155169
 11
138.3180828647
 21
69.8684383459
  0
LINE
  5
223
100
AcDbEntity
  8
0
100
AcDbLine
 62
7
  6
CONTINUOUS
 10
138.0764045592
 20
70.4722927957
 11
135.1288829844
 21
69.9136188604
  0
LINE
  5
224
100
AcDbEntity
  8
0
100
AcDbLine
 62
7
  6
CONTINUOUS
 10
120.6447421119
 20
67.5552868212
 11
120.2540008923
 21
67.4901464932
  0
LINE
  5
225
100
AcDbEntity
  8
0
100
AcDbLine
 62
7
  6
CONTINUOUS
 10
149.0716930431
 20
73.2085043103
 11
149.5809253553
 21
73.2920357889
  0
LINE
  5
226
100
AcDbEntity
  8
0
100
AcDbLine
 62
7
  6
CONTINUOUS
 10
100.1349157269
 20
72.022639164
 11
99.6818724767
 21
71.9988764688
  0
LINE
  5
227
100
AcDbEntity
  8
0
100
AcDbLine
 62
7
  6
CONTINUOUS
 10
100.4778422173
 20
76.4434752499
 11
100.9308854675
 21
76.4672379452
  0
LINE
  5
228
100
AcDbEntity
  8
0
100
AcDbLine
 62
7
  6
CONTINUOUS
 10
99.4576422279
 20
71.388327363
 11
100.1906402525
 21
71.391551823
  0
LINE
  5
229
100
AcDbEntity
  8
0
100
AcDbLine
 62
7
  6
CONTINUOUS
 10
101.1551181217
 20
77.0777854999
 11
100.4221176685
 21
77.0745625527
  0
LINE
  5
22A
100
AcDbEntity
  8
0
100
AcDbLine
 62
7
  6
CONTINUOUS
 10
138.7142411621
 20
70.4632560534
 11
138.0764045592
 21
70.4722927957
  0
LINE
  5
22B
100
AcDbEntity
  8
0
100
AcDbLine
 62
7
  6
CONTINUOUS
 10
149.9487404761
 20
74.010430409
 11
149.3883164075
 21
74.0438449315
  0
LINE
  5
22C
100
AcDbEntity
  8
0
100
AcDbLine
 62
7
  6
CONTINUOUS
 10
138.3180828647
 20
69.8684383459
 11
138.7102964177
 21
69.8128461528
  0
LINE
  5
22D
100
AcDbEntity
  8
0
100
AcDbLine
 62
7
  6
CONTINUOUS
 10
118.2210675336
 20
69.7649277022
 11
120.5646147971
 21
69.37968005
  0
LINE
  5
22E
100
AcDbEntity
  8
0
100
AcDbLine
 62
7
  6
CONTINUOUS
 10
120.5448100848
 20
70.0298003259
 11
117.5845382228
 21
70.516429208
  0
LINE
  5
22F
100
AcDbEntity
  8
0
100
AcDbLine
 62
7
  6
CONTINUOUS
 10
143.2581129104
 20
65.9357961729
 11
143.8111117166
 21
65.8389251013
  0
LINE
  5
230
100
AcDbEntity
  8
0
100
AcDbLine
 62
7
  6
CONTINUOUS
 10
116.6174202509
 20
70.7840616566
 11
115.8882005778
 21
70.9593861225
  0
LINE
  5
231
100
AcDbEntity
  8
0
100
AcDbLine
 62
7
  6
CONTINUOUS
 10
143.7051671307
 20
66.6077495664
 11
143.2716367779
 21
66.7414070806
  0
LINE
  5
232
100
AcDbEntity
  8
0
100
AcDbLine
 62
7
  6
CONTINUOUS
 10
114.9023894119
 20
71.1521286293
 11
114.1887553879
 21
71.3828372764
  0
LINE
  5
233
100
AcDbEntity
  8
0
100
AcDbLine
 62
7
  6
CONTINUOUS
 10
110.8584623686
 20
72.4594779227
 11
110.1448283446
 21
72.6901865698
  0
LINE
  5
234
100
AcDbEntity
  8
0
100
AcDbLine
 62
7
  6
CONTINUOUS
 10
100.9308854675
 20
76.4672379452
 11
101.5314463536
 21
76.2521775597
  0
LINE
  5
235
100
AcDbEntity
  8
0
100
AcDbLine
 62
7
  6
CONTINUOUS
 10
121.1408214473
 20
69.802451144
 11
120.5448100848
 21
70.0298003259
  0
LINE
  5
236
100
AcDbEntity
  8
0
100
AcDbLine
 62
7
  6
CONTINUOUS
 10
101.8625452715
 20
76.7978858914
 11
101.1551181217
 21
77.0777854999
  0
LINE
  5
237
100
AcDbEntity
  8
0
100
AcDbLine
 62
7
  6
CONTINUOUS
 10
120.5646147971
 20
69.37968005
 11
120.9139408372
 21
69.1928826174
  0
LINE
  5
238
100
AcDbEntity
  8
0
100
AcDbLine
 62
7
  6
CONTINUOUS
 10
99.1368906749
 20
78.5674134821
 11
98.5284766464
 21
79.0059706277
  0
LINE
  5
239
100
AcDbEntity
  8
0
100
AcDbLine
 62
7
  6
CONTINUOUS
 10
98.1752274956
 20
72.1664099128
 11
98.7502150724
 21
71.668226962
  0
LINE
  5
23A
100
AcDbEntity
  8
0
100
AcDbLine
 62
7
  6
CONTINUOUS
 10
102.4375328541
 20
76.2997029502
 11
101.8625452715
 21
76.7978858914
  0
LINE
  5
23B
100
AcDbEntity
  8
0
100
AcDbLine
 62
7
  6
CONTINUOUS
 10
99.0813140366
 20
72.2139353701
 11
98.6131927177
 21
72.6472790883
  0
LINE
  5
23C
100
AcDbEntity
  8
0
100
AcDbLine
 62
7
  6
CONTINUOUS
 10
101.5314463536
 20
76.2521775597
 11
101.9995652265
 21
75.8188353256
  0
LINE
  5
23D
100
AcDbEntity
  8
0
100
AcDbLine
 62
7
  6
CONTINUOUS
 10
84.7673165281
 20
83.5799679999
 11
85.2748369895
 21
83.027769683
  0
LINE
  5
23E
100
AcDbEntity
  8
0
100
AcDbLine
 62
7
  6
CONTINUOUS
 10
87.6432654869
 20
80.450844555
 11
88.1507859483
 21
79.8986462381
  0
LINE
  5
23F
100
AcDbEntity
  8
0
100
AcDbLine
 62
7
  6
CONTINUOUS
 10
87.3426434697
 20
84.9282718519
 11
89.7110719671
 21
82.3513467239
  0
LINE
  5
240
100
AcDbEntity
  8
0
100
AcDbLine
 62
7
  6
CONTINUOUS
 10
90.2750191171
 20
82.8696654312
 11
87.9065906198
 21
85.4465905592
  0
LINE
  5
241
100
AcDbEntity
  8
0
100
AcDbLine
 62
7
  6
CONTINUOUS
 10
92.5683724838
 20
83.9588099295
 11
92.0608520223
 21
84.5110082465
  0
LINE
  5
242
100
AcDbEntity
  8
0
100
AcDbLine
 62
7
  6
CONTINUOUS
 10
89.692423525
 20
87.0879333744
 11
89.1849030636
 21
87.6401316914
  0
LINE
  5
243
100
AcDbEntity
  8
0
100
AcDbLine
 62
7
  6
CONTINUOUS
 10
80.7424490681
 20
89.0291882779
 11
81.319040369
 21
88.2121549704
  0
LINE
  5
244
100
AcDbEntity
  8
0
100
AcDbLine
 62
7
  6
CONTINUOUS
 10
82.4722221459
 20
86.5780895244
 11
83.0488134468
 21
85.761056217
  0
LINE
  5
245
100
AcDbEntity
  8
0
100
AcDbLine
 62
7
  6
CONTINUOUS
 10
77.8624537476
 20
94.0320443548
 11
78.3294026207
 21
93.1477601071
  0
LINE
  5
246
100
AcDbEntity
  8
0
100
AcDbLine
 62
7
  6
CONTINUOUS
 10
100.1906402525
 20
71.391551823
 11
100.7099033095
 21
71.5244562228
  0
LINE
  5
247
100
AcDbEntity
  8
0
100
AcDbLine
 62
7
  6
CONTINUOUS
 10
100.4221176685
 20
77.0745625527
 11
99.9028546347
 21
76.9416581912
  0
LINE
  5
248
100
AcDbEntity
  8
0
100
AcDbLine
 62
7
  6
CONTINUOUS
 10
96.8003421707
 20
77.8911301487
 11
97.9312925194
 21
78.1774920493
  0
LINE
  5
249
100
AcDbEntity
  8
0
100
AcDbLine
 62
7
  6
CONTINUOUS
 10
98.5284766464
 20
79.0059706277
 11
97.3975265068
 21
78.7196090172
  0
LINE
  5
24A
100
AcDbEntity
  8
0
100
AcDbLine
 62
7
  6
CONTINUOUS
 10
149.5809253553
 20
73.2920357889
 11
150.026834043
 21
73.2084996022
  0
LINE
  5
24B
100
AcDbEntity
  8
0
100
AcDbLine
 62
7
  6
CONTINUOUS
 10
150.6115323317
 20
73.7431170013
 11
149.9487404761
 21
74.010430409
  0
LINE
  5
24C
100
AcDbEntity
  8
0
100
AcDbLine
 62
7
  6
CONTINUOUS
 10
139.2768185742
 20
70.1800897812
 11
138.7142411621
 21
70.4632560534
  0
LINE
  5
24D
100
AcDbEntity
  8
0
100
AcDbLine
 62
7
  6
CONTINUOUS
 10
142.6299837151
 20
66.2766821675
 11
143.2581129104
 21
65.9357961729
  0
LINE
  5
24E
100
AcDbEntity
  8
0
100
AcDbLine
 62
7
  6
CONTINUOUS
 10
121.5720806153
 20
69.3434391482
 11
121.1408214473
 21
69.802451144
  0
LINE
  5
24F
100
AcDbEntity
  8
0
100
AcDbLine
 62
7
  6
CONTINUOUS
 10
88.5276018422
 20
88.4035696497
 11
88.0951585727
 21
89.016344338
  0
LINE
  5
250
100
AcDbEntity
  8
0
100
AcDbLine
 62
7
  6
CONTINUOUS
 10
87.0861244148
 20
90.4461517494
 11
86.5095331139
 21
91.2631850568
  0
LINE
  5
251
100
AcDbEntity
  8
0
100
AcDbLine
 62
7
  6
CONTINUOUS
 10
85.5004989559
 20
92.6929924682
 11
85.0680556865
 21
93.3057671566
  0
LINE
  5
252
100
AcDbEntity
  8
0
100
AcDbLine
 62
7
  6
CONTINUOUS
 10
84.5690061692
 20
94.1808850174
 11
84.2187944935
 21
94.8440982427
  0
LINE
  5
253
100
AcDbEntity
  8
0
100
AcDbLine
 62
7
  6
CONTINUOUS
 10
82.5844733959
 20
97.9390931887
 11
82.2342617202
 21
98.6023064139
  0
LINE
  5
254
100
AcDbEntity
  8
0
100
AcDbLine
 62
7
  6
CONTINUOUS
 10
97.8395457612
 20
72.8180369923
 11
98.1752274956
 21
72.1664099128
  0
LINE
  5
255
100
AcDbEntity
  8
0
100
AcDbLine
 62
7
  6
CONTINUOUS
 10
102.7732121598
 20
75.6480773834
 11
102.4375328541
 21
76.2997029502
  0
LINE
  5
256
100
AcDbEntity
  8
0
100
AcDbLine
 62
7
  6
CONTINUOUS
 10
98.6131927177
 20
72.6472790883
 11
98.4250286018
 21
73.0600830584
  0
LINE
  5
257
100
AcDbEntity
  8
RUNDUNGEN
100
AcDbLine
 62
7
  6
CONTINUOUS
 10
187.7616391789
 20
100.0516900612
 11
174.1063289854
 21
98.8570052224
  0
LINE
  5
258
100
AcDbEntity
  8
0
100
AcDbLine
 62
7
  6
CONTINUOUS
 10
150.026834043
 20
73.2084996022
 11
150.4094192496
 21
72.9578954224
  0
LINE
  5
259
100
AcDbEntity
  8
0
100
AcDbLine
 62
7
  6
CONTINUOUS
 10
138.7102964177
 20
69.8128461528
 11
139.0034718018
 21
69.6085497991
  0
LINE
  5
25A
100
AcDbEntity
  8
0
100
AcDbLine
 62
7
  6
CONTINUOUS
 10
143.2716367779
 20
66.7414070806
 11
142.9200015252
 21
67.0338558288
  0
LINE
  5
25B
100
AcDbEntity
  8
0
100
AcDbLine
 62
7
  6
CONTINUOUS
 10
139.7403521955
 20
69.748218283
 11
139.2768185742
 21
70.1800897812
  0
LINE
  5
25C
100
AcDbEntity
  8
BEZUGSACHSEN
100
AcDbLine
 62
7
  6
CONTINUOUS
 10
69.7830291344
 20
133.6380371966
 11
99.7299031261
 21
100.1442813441
  0
LINE
  5
25D
100
AcDbEntity
  8
RUNDUNGEN
100
AcDbLine
 62
7
  6
CONTINUOUS
 10
69.7830291344
 20
133.6380371966
 11
99.7299031261
 21
100.1442813441
  0
LINE
  5
25E
100
AcDbEntity
  8
0
100
AcDbLine
 62
7
  6
CONTINUOUS
 10
120.9139408372
 20
69.1928826174
 11
121.1192166263
 21
68.9003921794
  0
LINE
  5
25F
100
AcDbEntity
  8
0
100
AcDbLine
 62
7
  6
CONTINUOUS
 10
101.9995652265
 20
75.8188353256
 11
102.1877293424
 21
75.4060313555
  0
LINE
  5
260
100
AcDbEntity
  8
0
100
AcDbLine
 62
7
  6
CONTINUOUS
 10
97.717601452
 20
73.3399826669
 11
97.8395457612
 21
72.8180369923
  0
LINE
  5
261
100
AcDbEntity
  8
0
100
AcDbLine
 62
7
  6
CONTINUOUS
 10
98.4250286018
 20
73.0600830584
 11
98.3948774028
 21
73.9742929934
  0
LINE
  5
262
100
AcDbEntity
  8
0
100
AcDbLine
 62
7
  6
CONTINUOUS
 10
78.3294026207
 20
93.1477601071
 11
84.5690061692
 21
94.1808850174
  0
LINE
  5
263
100
AcDbEntity
  8
0
100
AcDbLine
 62
7
  6
CONTINUOUS
 10
84.2187944935
 20
94.8440982427
 11
78.7732522857
 21
93.9475652971
  0
LINE
  5
264
100
AcDbEntity
  8
RUNDUNGEN
100
AcDbLine
 62
7
  6
CONTINUOUS
 10
173.4837791688
 20
104.8254581962
 11
185.0173484095
 21
105.8345147548
  0
LINE
  5
265
100
AcDbEntity
  8
0
100
AcDbLine
 62
7
  6
CONTINUOUS
 10
151.0453039093
 20
73.3755648538
 11
150.6115323317
 21
73.7431170013
  0
LINE
  5
266
100
AcDbEntity
  8
0
100
AcDbLine
 62
7
  6
CONTINUOUS
 10
142.2407805087
 20
66.6911376153
 11
142.6299837151
 21
66.2766821675
  0
LINE
  5
267
100
AcDbEntity
  8
0
100
AcDbLine
 62
7
  6
CONTINUOUS
 10
121.859283886
 20
68.7787350749
 11
121.5720806153
 21
69.3434391482
  0
LINE
  5
268
100
AcDbEntity
  8
0
100
AcDbLine
 62
7
  6
CONTINUOUS
 10
102.8951564922
 20
75.126131747
 11
102.7732121598
 21
75.6480773834
  0
LINE
  5
269
100
AcDbEntity
  8
0
100
AcDbLine
 62
7
  6
CONTINUOUS
 10
102.1877293424
 20
75.4060313555
 11
102.2178828482
 21
74.4918197071
  0
LINE
  5
26A
100
AcDbEntity
  8
BEZUGSACHSEN
100
AcDbLine
 62
7
  6
CONTINUOUS
 10
103.057991114
 20
214.2635983743
 11
103.057991114
 21
216.4663712912
  0
LINE
  5
26B
100
AcDbEntity
  8
RUNDUNGEN
100
AcDbLine
 62
7
  6
CONTINUOUS
 10
103.057991114
 20
214.2635983743
 11
103.057991114
 21
235.4725152136
  0
LINE
  5
26C
100
AcDbEntity
  8
BEZUGSACHSEN
100
AcDbLine
 62
7
  6
CONTINUOUS
 10
103.057991114
 20
220.2337103691
 11
103.057991114
 21
245.9869490353
  0
LINE
  5
26D
100
AcDbEntity
  8
0
100
AcDbLine
 62
7
  6
CONTINUOUS
 10
97.7687456593
 20
73.906229339
 11
97.717601452
 21
73.3399826669
  0
LINE
  5
26E
100
AcDbEntity
  8
RUNDUNGEN
100
AcDbLine
 62
7
  6
CONTINUOUS
 10
194.3184585707
 20
110.4725152136
 11
194.057991114
 21
110.4725152136
  0
LINE
  5
26F
100
AcDbEntity
  8
0
100
AcDbLine
 62
7
  6
CONTINUOUS
 10
150.4094192496
 20
72.9578954224
 11
150.7286754464
 21
72.5402216106
  0
LINE
  5
270
100
AcDbEntity
  8
0
100
AcDbLine
 62
7
  6
CONTINUOUS
 10
140.913136267
 20
64.9031420645
 11
139.2610284193
 21
67.5784476961
  0
LINE
  5
271
100
AcDbEntity
  8
0
100
AcDbLine
 62
7
  6
CONTINUOUS
 10
138.5716947378
 20
67.1879263422
 11
140.0534443484
 21
64.7401958553
  0
LINE
  5
272
100
AcDbEntity
  8
0
100
AcDbLine
 62
7
  6
CONTINUOUS
 10
142.9200015252
 20
67.0338558288
 11
142.6502668148
 21
67.4850975803
  0
LINE
  5
273
100
AcDbEntity
  8
0
100
AcDbLine
 62
7
  6
CONTINUOUS
 10
139.0034718018
 20
69.6085497991
 11
139.1976033951
 21
69.2555482195
  0
LINE
  5
274
100
AcDbEntity
  8
0
100
AcDbLine
 62
7
  6
CONTINUOUS
 10
139.9344837888
 20
69.3952167033
 11
139.7403521955
 21
69.748218283
  0
LINE
  5
275
100
AcDbEntity
  8
0
100
AcDbLine
 62
7
  6
CONTINUOUS
 10
141.933477871
 20
67.264385981
 11
142.2407805087
 21
66.6911376153
  0
LINE
  5
276
100
AcDbEntity
  8
0
100
AcDbLine
 62
7
  6
CONTINUOUS
 10
110.9135556817
 20
66.9409035726
 11
110.8584623686
 21
72.4594779227
  0
LINE
  5
277
100
AcDbEntity
  8
0
100
AcDbLine
 62
7
  6
CONTINUOUS
 10
110.1448283446
 20
72.6901865698
 11
110.2021841395
 21
66.3658910258
  0
LINE
  5
278
100
AcDbEntity
  8
0
100
AcDbLine
 62
7
  6
CONTINUOUS
 10
102.8440123312
 20
74.5598851514
 11
102.8951564922
 21
75.126131747
  0
LINE
  5
279
100
AcDbEntity
  8
0
100
AcDbLine
 62
7
  6
CONTINUOUS
 10
97.8605363004
 20
74.2984950452
 11
97.7687456593
 21
73.906229339
  0
LINE
  5
27A
100
AcDbEntity
  8
0
100
AcDbLine
 62
7
  6
CONTINUOUS
 10
151.415746764
 20
72.8409424189
 11
151.0453039093
 21
73.3755648538
  0
LINE
  5
27B
100
AcDbEntity
  8
0
100
AcDbLine
 62
7
  6
CONTINUOUS
 10
121.1192166263
 20
68.9003921794
 11
121.1804365181
 21
68.5022096639
  0
LINE
  5
27C
100
AcDbEntity
  8
0
100
AcDbLine
 62
7
  6
CONTINUOUS
 10
121.9205037778
 20
68.3805525594
 11
121.859283886
 21
68.7787350749
  0
LINE
  5
27D
100
AcDbEntity
  8
BEZUGSACHSEN
100
AcDbLine
 62
7
  6
CONTINUOUS
 10
122.457991114
 20
245.9724295975
 11
122.457991114
 21
235.4725152136
  0
LINE
  5
27E
100
AcDbEntity
  8
RUNDUNGEN
100
AcDbLine
 62
7
  6
CONTINUOUS
 10
122.457991114
 20
235.4725152136
 11
122.457991114
 21
217.572282787
  0
LINE
  5
27F
100
AcDbEntity
  8
RUNDUNGEN
100
AcDbLine
 62
7
  6
CONTINUOUS
 10
124.057991114
 20
72.7773314418
 11
124.057991114
 21
61.8171311593
  0
LINE
  5
280
100
AcDbEntity
  8
0
100
AcDbLine
 62
7
  6
CONTINUOUS
 10
102.7522215047
 20
74.1676191394
 11
102.8440123312
 21
74.5598851514
  0
LINE
  5
281
100
AcDbEntity
  8
0
100
AcDbLine
 62
7
  6
CONTINUOUS
 10
98.0847690473
 20
74.9090427529
 11
97.8605363004
 21
74.2984950452
  0
LINE
  5
282
100
AcDbEntity
  8
0
100
AcDbLine
 62
7
  6
CONTINUOUS
 10
102.5279912965
 20
73.5570701006
 11
102.7522215047
 21
74.1676191394
  0
LINE
  5
283
100
AcDbEntity
  8
0
100
AcDbLine
 62
7
  6
CONTINUOUS
 10
98.3948774028
 20
73.9742929934
 11
98.6853274873
 21
74.6939838515
  0
LINE
  5
284
100
AcDbEntity
  8
0
100
AcDbLine
 62
7
  6
CONTINUOUS
 10
78.7732522857
 20
93.9475652971
 11
82.5844733959
 21
97.9390931887
  0
LINE
  5
285
100
AcDbEntity
  8
0
100
AcDbLine
 62
7
  6
CONTINUOUS
 10
82.2342617202
 20
98.6023064139
 11
77.8624537476
 21
94.0320443548
  0
LINE
  5
286
100
AcDbEntity
  8
RUNDUNGEN
100
AcDbLine
 62
7
  6
CONTINUOUS
 10
165.5331988702
 20
87.9973074574
 11
173.2907226256
 21
80.239783702
  0
LINE
  5
287
100
AcDbEntity
  8
0
100
AcDbLine
 62
7
  6
CONTINUOUS
 10
146.0162886859
 20
72.7073108498
 11
148.4220551521
 21
67.210740309
  0
LINE
  5
288
100
AcDbEntity
  8
0
100
AcDbLine
 62
7
  6
CONTINUOUS
 10
148.8020073471
 20
68.2131509718
 11
147.0104790903
 21
72.3063418855
  0
LINE
  5
289
100
AcDbEntity
  8
0
100
AcDbLine
 62
7
  6
CONTINUOUS
 10
150.7286754464
 20
72.5402216106
 11
151.4964732349
 21
70.7859970152
  0
LINE
  5
28A
100
AcDbEntity
  8
0
100
AcDbLine
 62
7
  6
CONTINUOUS
 10
152.1835445525
 20
71.0867178235
 11
151.415746764
 21
72.8409424189
  0
LINE
  5
28B
100
AcDbEntity
  8
0
100
AcDbLine
 62
7
  6
CONTINUOUS
 10
140.7688719665
 20
71.0465915335
 11
141.933477871
 21
67.264385981
  0
LINE
  5
28C
100
AcDbEntity
  8
0
100
AcDbLine
 62
7
  6
CONTINUOUS
 10
142.6502668148
 20
67.4850975803
 11
141.4856609103
 21
71.2673031327
  0
LINE
  5
28D
100
AcDbEntity
  8
0
100
AcDbLine
 62
7
  6
CONTINUOUS
 10
144.3528166855
 20
72.1501495298
 11
145.51742259
 21
68.3679439773
  0
LINE
  5
28E
100
AcDbEntity
  8
0
100
AcDbLine
 62
7
  6
CONTINUOUS
 10
146.2342115338
 20
68.5886555766
 11
145.0696056293
 21
72.3708611291
  0
LINE
  5
28F
100
AcDbEntity
  8
0
100
AcDbLine
 62
7
  6
CONTINUOUS
 10
135.1288829844
 20
69.9136188604
 11
136.2462308548
 21
64.0185757108
  0
LINE
  5
290
100
AcDbEntity
  8
0
100
AcDbLine
 62
7
  6
CONTINUOUS
 10
136.9831112486
 20
64.1582441946
 11
136.4838707036
 21
66.7921996818
  0
LINE
  5
291
100
AcDbEntity
  8
0
100
AcDbLine
 62
7
  6
CONTINUOUS
 10
136.3412305669
 20
67.5447582921
 11
135.9846301586
 21
69.426155169
  0
LINE
  5
292
100
AcDbEntity
  8
0
100
AcDbLine
 62
7
  6
CONTINUOUS
 10
139.1976033951
 20
69.2555482195
 11
139.2689235301
 21
68.879268563
  0
LINE
  5
293
100
AcDbEntity
  8
0
100
AcDbLine
 62
7
  6
CONTINUOUS
 10
140.0295772799
 20
68.8935106117
 11
139.9344837888
 21
69.3952167033
  0
LINE
  5
294
100
AcDbEntity
  8
RUNDUNGEN
100
AcDbLine
 62
7
  6
CONTINUOUS
 10
132.057991114
 20
61.7543859253
 11
132.057991114
 21
72.7773314418
  0
LINE
  5
295
100
AcDbEntity
  8
RUNDUNGEN
100
AcDbLine
 62
7
  6
CONTINUOUS
 10
133.657991114
 20
217.5722729615
 11
133.657991114
 21
235.4725152136
  0
LINE
  5
296
100
AcDbEntity
  8
BEZUGSACHSEN
100
AcDbLine
 62
7
  6
CONTINUOUS
 10
133.657991114
 20
235.4725152136
 11
133.657991114
 21
245.9724291321
  0
LINE
  5
297
100
AcDbEntity
  8
0
100
AcDbLine
 62
7
  6
CONTINUOUS
 10
117.5845382228
 20
70.516429208
 11
116.6112813868
 21
64.5958911302
  0
LINE
  5
298
100
AcDbEntity
  8
0
100
AcDbLine
 62
7
  6
CONTINUOUS
 10
117.3513486465
 20
64.4742340257
 11
117.78620809
 21
67.119580864
  0
LINE
  5
299
100
AcDbEntity
  8
0
100
AcDbLine
 62
7
  6
CONTINUOUS
 10
117.9104536288
 20
67.8753941455
 11
118.2210675336
 21
69.7649277022
  0
LINE
  5
29A
100
AcDbEntity
  8
0
100
AcDbLine
 62
7
  6
CONTINUOUS
 10
121.1804365181
 20
68.5022096639
 11
121.1183136907
 21
68.1243026703
  0
LINE
  5
29B
100
AcDbEntity
  8
0
100
AcDbLine
 62
7
  6
CONTINUOUS
 10
121.8376733607
 20
67.8766766855
 11
121.9205037778
 21
68.3805525594
  0
LINE
  5
29C
100
AcDbEntity
  8
0
100
AcDbLine
 62
7
  6
CONTINUOUS
 10
115.8882005778
 20
70.9593861225
 11
114.4856048511
 21
65.1256287374
  0
LINE
  5
29D
100
AcDbEntity
  8
0
100
AcDbLine
 62
7
  6
CONTINUOUS
 10
115.2148245242
 20
64.9503042716
 11
116.6174202509
 21
70.7840616566
  0
LINE
  5
29E
100
AcDbEntity
  8
0
100
AcDbLine
 62
7
  6
CONTINUOUS
 10
102.2178828482
 20
74.4918197071
 11
101.9274304105
 21
73.772130486
  0
LINE
  5
29F
100
AcDbEntity
  8
0
100
AcDbLine
 62
7
  6
CONTINUOUS
 10
98.6807470995
 20
75.8913177499
 11
98.0847690473
 21
74.9090427529
  0
LINE
  5
2A0
100
AcDbEntity
  8
0
100
AcDbLine
 62
7
  6
CONTINUOUS
 10
98.6853274873
 20
74.6939838515
 11
99.1488659724
 21
75.4579755158
  0
LINE
  5
2A1
100
AcDbEntity
  8
0
100
AcDbLine
 62
7
  6
CONTINUOUS
 10
97.3975265068
 20
78.7196090172
 11
96.8003421707
 21
77.8911301487
  0
LINE
  5
2A2
100
AcDbEntity
  8
0
100
AcDbLine
 62
7
  6
CONTINUOUS
 10
83.9078406265
 20
86.9792538924
 11
87.0861244148
 21
90.4461517494
  0
LINE
  5
2A3
100
AcDbEntity
  8
0
100
AcDbLine
 62
7
  6
CONTINUOUS
 10
85.8591102047
 20
90.192202197
 11
82.4722221459
 21
86.5780895244
  0
LINE
  5
2A4
100
AcDbEntity
  8
0
100
AcDbLine
 62
7
  6
CONTINUOUS
 10
85.0680556865
 20
93.3057671566
 11
80.7424490681
 21
89.0291882779
  0
LINE
  5
2A5
100
AcDbEntity
  8
0
100
AcDbLine
 62
7
  6
CONTINUOUS
 10
82.1780675486
 20
89.4303526459
 11
85.5004989559
 21
92.6929924682
  0
LINE
  5
2A6
100
AcDbEntity
  8
RUNDUNGEN
100
AcDbLine
 62
7
  6
CONTINUOUS
 10
173.8626656843
 20
174.180497561
 11
162.9699661685
 21
164.4413001636
  0
LINE
  5
2A7
100
AcDbEntity
  8
RUNDUNGEN
100
AcDbLine
 62
7
  6
CONTINUOUS
 10
194.057991114
 20
140.4725152136
 11
194.3184585707
 21
140.4725152136
  0
LINE
  5
2A8
100
AcDbEntity
  8
0
100
AcDbLine
 62
7
  6
CONTINUOUS
 10
152.3249669858
 20
70.4518569764
 11
152.1835445525
 21
71.0867178235
  0
LINE
  5
2A9
100
AcDbEntity
  8
0
100
AcDbLine
 62
7
  6
CONTINUOUS
 10
146.3025881693
 20
67.9418378004
 11
146.2342115338
 21
68.5886555766
  0
LINE
  5
2AA
100
AcDbEntity
  8
0
100
AcDbLine
 62
7
  6
CONTINUOUS
 10
145.51742259
 20
68.3679439773
 11
145.5482312982
 21
67.8431328153
  0
LINE
  5
2AB
100
AcDbEntity
  8
0
100
AcDbLine
 62
7
  6
CONTINUOUS
 10
101.9274304105
 20
73.772130486
 11
101.4638919254
 21
73.0081388216
  0
LINE
  5
2AC
100
AcDbEntity
  8
0
100
AcDbLine
 62
7
  6
CONTINUOUS
 10
101.9320132443
 20
72.5747951035
 11
102.5279912965
 21
73.5570701006
  0
LINE
  5
2AD
100
AcDbEntity
  8
0
100
AcDbLine
 62
7
  6
CONTINUOUS
 10
97.9312925194
 20
78.1774920493
 11
95.020019482
 21
74.1386583997
  0
LINE
  5
2AE
100
AcDbEntity
  8
0
100
AcDbLine
 62
7
  6
CONTINUOUS
 10
95.6284335105
 20
73.7001012541
 11
99.1368906749
 21
78.5674134821
  0
LINE
  5
2AF
100
AcDbEntity
  8
0
100
AcDbLine
 62
7
  6
CONTINUOUS
 10
99.1488659724
 20
75.4579755158
 11
99.6530533835
 21
76.0479848067
  0
LINE
  5
2B0
100
AcDbEntity
  8
0
100
AcDbLine
 62
7
  6
CONTINUOUS
 10
99.1187122811
 20
76.3721868585
 11
98.6807470995
 21
75.8913177499
  0
LINE
  5
2B1
100
AcDbEntity
  8
RUNDUNGEN
100
AcDbLine
 62
7
  6
CONTINUOUS
 10
174.4653213596
 20
160.3482778123
 11
182.5741993245
 21
167.8571811391
  0
LINE
  5
2B2
100
AcDbEntity
  8
0
100
AcDbLine
 62
7
  6
CONTINUOUS
 10
89.1849030636
 20
87.6401316914
 11
84.7673165281
 21
83.5799679999
  0
LINE
  5
2B3
100
AcDbEntity
  8
0
100
AcDbLine
 62
7
  6
CONTINUOUS
 10
85.2748369895
 20
83.027769683
 11
87.3426434697
 21
84.9282718519
  0
LINE
  5
2B4
100
AcDbEntity
  8
0
100
AcDbLine
 62
7
  6
CONTINUOUS
 10
87.9065906198
 20
85.4465905592
 11
89.692423525
 21
87.0879333744
  0
LINE
  5
2B5
100
AcDbEntity
  8
0
100
AcDbLine
 62
7
  6
CONTINUOUS
 10
92.0608520223
 20
84.5110082465
 11
90.2750191171
 21
82.8696654312
  0
LINE
  5
2B6
100
AcDbEntity
  8
0
100
AcDbLine
 62
7
  6
CONTINUOUS
 10
89.7110719671
 20
82.3513467239
 11
87.6432654869
 21
80.450844555
  0
LINE
  5
2B7
100
AcDbEntity
  8
0
100
AcDbLine
 62
7
  6
CONTINUOUS
 10
88.1507859483
 20
79.8986462381
 11
92.5683724838
 21
83.9588099295
  0
LINE
  5
2B8
100
AcDbEntity
  8
RUNDUNGEN
100
AcDbLine
 62
7
  6
CONTINUOUS
 10
74.3067281271
 20
105.9086554322
 11
78.2562113434
 21
107.3461497636
  0
LINE
  5
2B9
100
AcDbEntity
  8
RUNDUNGEN
100
AcDbLine
 62
7
  6
CONTINUOUS
 10
186.060559782
 20
109.4136108315
 11
177.6258275194
 21
115.885808533
  0
LINE
  5
2BA
100
AcDbEntity
  8
RUNDUNGEN
100
AcDbLine
 62
7
  6
CONTINUOUS
 10
185.5694966116
 20
118.941407337
 11
179.1258275194
 21
123.885808533
  0
LINE
  5
2BB
100
AcDbEntity
  8
RUNDUNGEN
100
AcDbLine
 62
7
  6
CONTINUOUS
 10
172.6423363823
 20
95.7174629535
 11
178.397926648
 21
87.4976281879
  0
LINE
  5
2BC
100
AcDbEntity
  8
0
100
AcDbLine
 62
7
  6
CONTINUOUS
 10
151.4964732349
 20
70.7859970152
 11
151.5867091538
 21
70.2680844636
  0
LINE
  5
2BD
100
AcDbEntity
  8
BEZUGSACHSEN
100
AcDbLine
 62
7
  6
CONTINUOUS
 10
153.057991114
 20
245.9724295975
 11
153.057991114
 21
235.4725152136
  0
LINE
  5
2BE
100
AcDbEntity
  8
RUNDUNGEN
100
AcDbLine
 62
7
  6
CONTINUOUS
 10
153.057991114
 20
235.4725152136
 11
153.057991114
 21
198.8370418639
  0
LINE
  5
2BF
100
AcDbEntity
  8
0
100
AcDbLine
 62
7
  6
CONTINUOUS
 10
152.3006875596
 20
69.8838226785
 11
152.3249669858
 21
70.4518569764
  0
LINE
  5
2C0
100
AcDbEntity
  8
0
100
AcDbLine
 62
7
  6
CONTINUOUS
 10
139.2689235301
 20
68.879268563
 11
139.2174320734
 21
68.4797115324
  0
LINE
  5
2C1
100
AcDbEntity
  8
0
100
AcDbLine
 62
7
  6
CONTINUOUS
 10
139.9780858232
 20
68.4939535812
 11
140.0295772799
 21
68.8935106117
  0
LINE
  5
2C2
100
AcDbEntity
  8
0
100
AcDbLine
 62
7
  6
CONTINUOUS
 10
146.213928434
 20
67.3802401638
 11
146.3025881693
 21
67.9418378004
  0
LINE
  5
2C3
100
AcDbEntity
  8
0
100
AcDbLine
 62
7
  6
CONTINUOUS
 10
121.1183136907
 20
68.1243026703
 11
120.9328482602
 21
67.7666719042
  0
LINE
  5
2C4
100
AcDbEntity
  8
0
100
AcDbLine
 62
7
  6
CONTINUOUS
 10
121.6522079301
 20
67.5190459194
 11
121.8376733607
 21
67.8766766855
  0
LINE
  5
2C5
100
AcDbEntity
  8
0
100
AcDbLine
 62
7
  6
CONTINUOUS
 10
111.153695264
 20
66.0582797897
 11
114.9023894119
 21
71.1521286293
  0
LINE
  5
2C6
100
AcDbEntity
  8
0
100
AcDbLine
 62
7
  6
CONTINUOUS
 10
114.1887553879
 20
71.3828372764
 11
110.9135556817
 21
66.9409035726
  0
LINE
  5
2C7
100
AcDbEntity
  8
0
100
AcDbLine
 62
7
  6
CONTINUOUS
 10
101.4638919254
 20
73.0081388216
 11
100.9597068675
 21
72.4181278938
  0
LINE
  5
2C8
100
AcDbEntity
  8
0
100
AcDbLine
 62
7
  6
CONTINUOUS
 10
101.494045524
 20
72.0939273261
 11
101.9320132443
 21
72.5747951035
  0
LINE
  5
2C9
100
AcDbEntity
  8
0
100
AcDbLine
 62
7
  6
CONTINUOUS
 10
99.424240527
 20
76.6347714561
 11
99.1187122811
 21
76.3721868585
  0
LINE
  5
2CA
100
AcDbEntity
  8
RUNDUNGEN
100
AcDbLine
 62
7
  6
CONTINUOUS
 10
185.6816105563
 20
143.9750454666
 11
178.0681176324
 21
138.1330068733
  0
LINE
  5
2CB
100
AcDbEntity
  8
0
100
AcDbLine
 62
7
  6
CONTINUOUS
 10
88.0951585727
 20
89.016344338
 11
83.9078406265
 21
86.9792538924
  0
LINE
  5
2CC
100
AcDbEntity
  8
0
100
AcDbLine
 62
7
  6
CONTINUOUS
 10
83.0488134468
 20
85.761056217
 11
88.5276018422
 21
88.4035696497
  0
LINE
  5
2CD
100
AcDbEntity
  8
0
100
AcDbLine
 62
7
  6
CONTINUOUS
 10
81.319040369
 20
88.2121549704
 11
85.8591102047
 21
90.192202197
  0
LINE
  5
2CE
100
AcDbEntity
  8
0
100
AcDbLine
 62
7
  6
CONTINUOUS
 10
86.5095331139
 20
91.2631850568
 11
82.1780675486
 21
89.4303526459
  0
LINE
  5
2CF
100
AcDbEntity
  8
RUNDUNGEN
100
AcDbLine
 62
7
  6
CONTINUOUS
 10
174.3149922963
 20
149.8022761086
 11
184.8867372912
 21
147.5165839357
  0
LINE
  5
2D0
100
AcDbEntity
  8
RUNDUNGEN
100
AcDbLine
 62
7
  6
CONTINUOUS
 10
189.0220771551
 20
153.9811250326
 11
175.4015543752
 21
156.9259862947
  0
LINE
  5
2D1
100
AcDbEntity
  8
BEZUGSACHSEN
100
AcDbLine
 62
7
  6
CONTINUOUS
 10
122.4376266966
 20
188.7700268365
 11
105.6032323409
 21
207.5982723032
  0
LINE
  5
2D2
100
AcDbEntity
  8
RUNDUNGEN
100
AcDbLine
 62
7
  6
CONTINUOUS
 10
156.3860791011
 20
150.8007490841
 11
105.6032323409
 21
207.5982723032
  0
LINE
  5
2D3
100
AcDbEntity
  8
0
100
AcDbLine
 62
7
  6
CONTINUOUS
 10
151.5867091538
 20
70.2680844636
 11
151.5112431773
 21
69.816998543
  0
LINE
  5
2D4
100
AcDbEntity
  8
0
100
AcDbLine
 62
7
  6
CONTINUOUS
 10
145.5482312982
 20
67.8431328153
 11
145.4220036093
 21
67.4035418784
  0
LINE
  5
2D5
100
AcDbEntity
  8
0
100
AcDbLine
 62
7
  6
CONTINUOUS
 10
101.1885174636
 20
71.8313430343
 11
101.494045524
 21
72.0939273261
  0
LINE
  5
2D6
100
AcDbEntity
  8
RUNDUNGEN
100
AcDbLine
 62
7
  6
CONTINUOUS
 10
179.1258275194
 20
127.0592218942
 11
185.5694966116
 21
132.0036230902
  0
LINE
  5
2D7
100
AcDbEntity
  8
0
100
AcDbLine
 62
7
  6
CONTINUOUS
 10
99.9028546347
 20
76.9416581912
 11
99.424240527
 21
76.6347714561
  0
LINE
  5
2D8
100
AcDbEntity
  8
0
100
AcDbLine
 62
7
  6
CONTINUOUS
 10
152.0473878376
 20
69.2155496818
 11
152.3006875596
 21
69.8838226785
  0
LINE
  5
2D9
100
AcDbEntity
  8
0
100
AcDbLine
 62
7
  6
CONTINUOUS
 10
139.7047390508
 20
67.9224135991
 11
139.9780858232
 21
68.4939535812
  0
LINE
  5
2DA
100
AcDbEntity
  8
0
100
AcDbLine
 62
7
  6
CONTINUOUS
 10
145.8863426835
 20
66.7450731595
 11
146.213928434
 21
67.3802401638
  0
LINE
  5
2DB
100
AcDbEntity
  8
0
100
AcDbLine
 62
7
  6
CONTINUOUS
 10
139.2174320734
 20
68.4797115324
 11
139.0193501138
 21
68.1823021459
  0
LINE
  5
2DC
100
AcDbEntity
  8
0
100
AcDbLine
 62
7
  6
CONTINUOUS
 10
121.1993439411
 20
67.0759989506
 11
121.6522079301
 21
67.5190459194
  0
LINE
  5
2DD
100
AcDbEntity
  8
0
100
AcDbLine
 62
7
  6
CONTINUOUS
 10
100.7099033095
 20
71.5244562228
 11
101.1885174636
 21
71.8313430343
  0
LINE
  5
2DE
100
AcDbEntity
  8
0
100
AcDbLine
 62
7
  6
CONTINUOUS
 10
99.6530533835
 20
76.0479848067
 11
100.4778422173
 21
76.4434752499
  0
LINE
  5
2DF
100
AcDbEntity
  8
0
100
AcDbLine
 62
7
  6
CONTINUOUS
 10
100.9597068675
 20
72.4181278938
 11
100.1349157269
 21
72.022639164
  0
LINE
  5
2E0
100
AcDbEntity
  8
RUNDUNGEN
100
AcDbLine
 62
7
  6
CONTINUOUS
 10
145.9540960607
 20
185.4725152136
 11
157.9806747847
 21
185.4725152136
  0
LINE
  5
2E1
100
AcDbEntity
  8
RUNDUNGEN
100
AcDbLine
 62
7
  6
CONTINUOUS
 10
160.1459492286
 20
164.5991872225
 11
144.4631440613
 21
182.1394502731
  0
LINE
  5
2E2
100
AcDbEntity
  8
RUNDUNGEN
100
AcDbLine
 62
7
  6
CONTINUOUS
 10
174.9712095328
 20
139.0356732673
 11
172.0129574618
 21
147.1634040334
  0
LINE
  5
2E3
100
AcDbEntity
  8
RUNDUNGEN
100
AcDbLine
 62
7
  6
CONTINUOUS
 10
174.5605455964
 20
115.0644687172
 11
171.4617086183
 21
107.5832144571
  0
LINE
  5
2E4
100
AcDbEntity
  8
0
100
AcDbLine
 62
7
  6
CONTINUOUS
 10
151.5112431773
 20
69.816998543
 11
151.2700805832
 21
69.4327414661
  0
LINE
  5
2E5
100
AcDbEntity
  8
0
100
AcDbLine
 62
7
  6
CONTINUOUS
 10
145.4220036093
 20
67.4035418784
 11
145.1387450183
 21
67.0491727649
  0
LINE
  5
2E6
100
AcDbEntity
  8
0
100
AcDbLine
 62
7
  6
CONTINUOUS
 10
120.9328482602
 20
67.7666719042
 11
120.6447421119
 21
67.5552868212
  0
LINE
  5
2E7
100
AcDbEntity
  8
0
100
AcDbLine
 62
7
  6
CONTINUOUS
 10
120.6438392344
 20
66.779197665
 11
121.1993439411
 21
67.0759989506
  0
LINE
  5
2E8
100
AcDbEntity
  8
RUNDUNGEN
100
AcDbLine
 62
7
  6
CONTINUOUS
 10
158.9257763144
 20
185.2351221177
 11
173.4747022735
 21
177.4340564645
  0
LINE
  5
2E9
100
AcDbEntity
  8
RUNDUNGEN
100
AcDbLine
 62
7
  6
CONTINUOUS
 10
188.7870194696
 20
130.4169164096
 11
188.7870194696
 21
120.5281140176
  0
LINE
  5
2EA
100
AcDbEntity
  8
RUNDUNGEN
100
AcDbLine
 62
7
  6
CONTINUOUS
 10
193.057991114
 20
111.4725152136
 11
193.057991114
 21
139.4725152136
  0
LINE
  5
2EB
100
AcDbEntity
  8
0
100
AcDbLine
 62
7
  6
CONTINUOUS
 10
151.6917098403
 20
68.7811709918
 11
152.0473878376
 21
69.2155496818
  0
LINE
  5
2EC
100
AcDbEntity
  8
0
100
AcDbLine
 62
7
  6
CONTINUOUS
 10
145.4836156063
 20
66.3539177103
 11
145.8863426835
 21
66.7450731595
  0
LINE
  5
2ED
100
AcDbEntity
  8
0
100
AcDbLine
 62
7
  6
CONTINUOUS
 10
151.2700805832
 20
69.4327414661
 11
150.8632212999
 21
69.1153133966
  0
LINE
  5
2EE
100
AcDbEntity
  8
0
100
AcDbLine
 62
7
  6
CONTINUOUS
 10
139.2610284193
 20
67.5784476961
 11
139.7047390508
 21
67.9224135991
  0
LINE
  5
2EF
100
AcDbEntity
  8
0
100
AcDbLine
 62
7
  6
CONTINUOUS
 10
151.1703404225
 20
68.4136235421
 11
151.6917098403
 21
68.7811709918
  0
LINE
  5
2F0
100
AcDbEntity
  8
0
100
AcDbLine
 62
7
  6
CONTINUOUS
 10
145.1387450183
 20
67.0491727649
 11
144.6984554727
 21
66.7800256459
  0
LINE
  5
2F1
100
AcDbEntity
  8
0
100
AcDbLine
 62
7
  6
CONTINUOUS
 10
139.0193501138
 20
68.1823021459
 11
138.674683273
 21
67.9870414689
  0
LINE
  5
2F2
100
AcDbEntity
  8
0
100
AcDbLine
 62
7
  6
CONTINUOUS
 10
144.9238630629
 20
66.0479858753
 11
145.4836156063
 21
66.3539177103
  0
LINE
  5
2F3
100
AcDbEntity
  8
0
100
AcDbLine
 62
7
  6
CONTINUOUS
 10
148.7645739563
 20
73.9101940829
 11
146.0162886859
 21
72.7073108498
  0
LINE
  5
2F4
100
AcDbEntity
  8
0
100
AcDbLine
 62
7
  6
CONTINUOUS
 10
147.0104790903
 20
72.3063418855
 11
149.0716930431
 21
73.2085043103
  0
LINE
  5
2F5
100
AcDbEntity
  8
0
100
AcDbLine
 62
7
  6
CONTINUOUS
 10
145.0696056293
 20
72.3708611291
 11
144.3528166855
 21
72.1501495298
  0
LINE
  5
2F6
100
AcDbEntity
  8
0
100
AcDbLine
 62
7
  6
CONTINUOUS
 10
141.4856609103
 20
71.2673031327
 11
140.7688719665
 21
71.0465915335
  0
LINE
  5
2F7
100
AcDbEntity
  8
RUNDUNGEN
100
AcDbLine
 62
7
  6
CONTINUOUS
 10
185.7022438834
 20
167.3224946908
 11
191.2138886985
 21
156.8687301018
  0
LINE
  5
2F8
100
AcDbEntity
  8
RUNDUNGEN
100
AcDbLine
 62
7
  6
CONTINUOUS
 10
181.5683196228
 20
87.3592058412
 11
189.4680395507
 21
96.7737254457
  0
LINE
  5
2F9
100
AcDbEntity
  8
0
100
AcDbLine
 62
7
  6
CONTINUOUS
 10
150.8632212999
 20
69.1153133966
 11
148.8020073471
 21
68.2131509718
  0
LINE
  5
2FA
100
AcDbEntity
  8
0
100
AcDbLine
 62
7
  6
CONTINUOUS
 10
148.4220551521
 20
67.210740309
 11
151.1703404225
 21
68.4136235421
  0
LINE
  5
2FB
100
AcDbEntity
  8
0
100
AcDbLine
 62
7
  6
CONTINUOUS
 10
144.6984554727
 20
66.7800256459
 11
144.220592531
 21
66.6328834571
  0
LINE
  5
2FC
100
AcDbEntity
  8
0
100
AcDbLine
 62
7
  6
CONTINUOUS
 10
144.4460001212
 20
65.9008436865
 11
144.9238630629
 21
66.0479858753
  0
LINE
  5
2FD
100
AcDbEntity
  8
BEZUGSACHSEN
100
AcDbLine
 62
7
  6
CONTINUOUS
 10
133.657991114
 20
227.9225152136
 11
122.457991114
 21
227.9225152136
  0
LINE
  5
2FE
100
AcDbEntity
  8
BEZUGSACHSEN
100
AcDbLine
 62
7
  6
CONTINUOUS
 10
122.457991114
 20
240.0225152136
 11
133.657991114
 21
240.0225152136
  0
LINE
  5
2FF
100
AcDbEntity
  8
RUNDUNGEN
100
AcDbLine
 62
7
  6
CONTINUOUS
 10
107.0579910418
 20
249.9725152136
 11
118.457991114
 21
249.9725152136
  0
LINE
  5
300
100
AcDbEntity
  8
RUNDUNGEN
100
AcDbLine
 62
7
  6
CONTINUOUS
 10
137.657991114
 20
249.9725152136
 11
149.057991114
 21
249.9725152136
  0
LWPOLYLINE
  5
301
100
AcDbEntity
  8
BEZUGSACHSEN
100
AcDbPolyline
 62
7
  6
CONTINUOUS
 90
20
 70
0
 10
106.9344527894
 20
249.9706210146
 10
106.6099958106
 20
249.9475204531
 10
106.288607935
 20
249.8983025054
 10
105.9724365903
 20
249.8233011851
 10
105.6635840205
 20
249.7230344437
 10
105.3640745687
 20
249.5981879447
 10
105.0758925278
 20
249.4496264876
 10
104.800892718
 20
249.2783495385
 10
104.5408625688
 20
249.0855149246
 10
104.2974719198
 20
248.8724072759
 10
104.0722891922
 20
248.640446267
 10
103.8667592969
 20
248.3911676116
 10
103.6822030444
 20
248.1262218876
 10
103.5197988576
 20
247.8473503069
 10
103.3805866047
 20
247.5563886261
 10
103.2654513095
 20
247.2552361479
 10
103.1751279134
 20
246.9458614236
 10
103.1101929868
 20
246.6302816398
 10
103.071062231
 20
246.3105456715
 10
103.057991114
 20
245.9887719048
  0
LWPOLYLINE
  5
302
100
AcDbEntity
  8
RUNDUNGEN
100
AcDbPolyline
 62
7
  6
CONTINUOUS
 90
19
 70
0
 10
107.058003244
 20
249.9725152071
 10
106.8833973489
 20
249.9687306213
 10
106.5243245772
 20
249.9369953588
 10
106.1697161434
 20
249.8732647241
 10
105.8224791056
 20
249.7780719758
 10
105.4854498887
 20
249.6522263128
 10
105.1613298589
 20
249.4967806435
 10
104.8527463655
 20
249.3130506208
 10
104.5621302284
 20
249.1025457124
 10
104.2917905374
 20
248.8670000619
 10
104.0438600398
 20
248.6083351941
 10
103.8202988678
 20
248.3286605766
 10
103.6228647765
 20
248.0302411728
 10
103.4531137026
 20
247.7154970682
 10
103.3123716346
 20
247.3869554061
 10
103.2017425413
 20
247.0472583635
 10
103.1220926866
 20
246.6991270013
 10
103.0740475023
 20
246.345338637
 10
103.057991114
 20
245.9887719048
  0
LINE
  5
303
100
AcDbEntity
  8
BEZUGSACHSEN
100
AcDbLine
 62
7
  6
CONTINUOUS
 10
107.0580010196
 20
249.9725152083
 11
106.9344527894
 21
249.9706210146
  0
LWPOLYLINE
  5
304
100
AcDbEntity
  8
RUNDUNGEN
100
AcDbPolyline
 62
7
  6
CONTINUOUS
 90
16
 70
0
 10
287.9095653689
 20
50.4725154055
 10
288.1850706493
 20
50.4782507617
 10
288.6463450127
 20
50.5136419726
 10
289.1026441879
 20
50.5809043805
 10
289.5502904961
 20
50.679031761
 10
289.9862766684
 20
50.8066206608
 10
290.4078769345
 20
50.9619043968
 10
290.8126799212
 20
51.1428079128
 10
291.1983015579
 20
51.346826183
 10
291.5630254423
 20
51.5713552082
 10
291.9045479591
 20
51.8129244106
 10
292.2212555119
 20
52.0678611351
 10
292.5122639376
 20
52.332488521
 10
292.7771819874
 20
52.6030799813
 10
293.0157562589
 20
52.8755401688
 10
293.2366533821
 20
53.1571122788
  0
LINE
  5
305
100
AcDbEntity
  8
0
100
AcDbLine
 62
7
  6
CONTINUOUS
 10
282.9593710596
 20
50.4725152136
 11
287.9098305308
 21
50.4725152136
  0
LINE
  5
306
100
AcDbEntity
  8
BEZUGSACHSEN
100
AcDbLine
 62
7
  6
CONTINUOUS
 10
268.1579891038
 20
215.0071027611
 11
270.2110676246
 21
217.9392027582
  0
LWPOLYLINE
  5
307
100
AcDbEntity
  8
BEZUGSACHSEN
100
AcDbPolyline
 62
7
  6
CONTINUOUS
 90
16
 70
0
 10
277.6325376253
 20
53.157126539
 10
277.8523263847
 20
52.8768906888
 10
278.0901450078
 20
52.6051078055
 10
278.3541878735
 20
52.3351433051
 10
278.6442245844
 20
52.0710516717
 10
278.9598693312
 20
51.816543336
 10
279.3002539593
 20
51.575274652
 10
279.663781139
 20
51.3509035911
 10
280.0481632123
 20
51.1468911857
 10
280.4517194842
 20
50.965825651
 10
280.8721032742
 20
50.8102050325
 10
281.3069311222
 20
50.6821077513
 10
281.7535079813
 20
50.583308512
 10
282.2088568637
 20
50.5152247988
 10
282.6693346363
 20
50.4788836497
 10
282.9596361764
 20
50.4725154055
  0
LINE
  5
308
100
AcDbEntity
  8
BEZUGSACHSEN
100
AcDbLine
 62
7
  6
CONTINUOUS
 10
277.6325375923
 20
53.157126514
 11
277.6245525773
 21
53.167908902
  0
LINE
  5
309
100
AcDbEntity
  8
RUNDUNGEN
100
AcDbLine
 62
7
  6
CONTINUOUS
 10
297.7390152431
 20
195.2769296615
 11
302.2630280675
 21
199.800942486
  0
LWPOLYLINE
  5
30A
100
AcDbEntity
  8
BEZUGSACHSEN
100
AcDbPolyline
 62
7
  6
CONTINUOUS
 90
17
 70
0
 10
276.3788894147
 20
56.0730839484
 10
276.4013181372
 20
55.9637124987
 10
276.4261522654
 20
55.849352294
 10
276.4541729833
 20
55.7279959383
 10
276.4862197058
 20
55.5980505689
 10
276.5234330663
 20
55.4574567925
 10
276.5673108644
 20
55.3038072292
 10
276.6190286
 20
55.1367888568
 10
276.6804286865
 20
54.9547585351
 10
276.7523834742
 20
54.7596394347
 10
276.8360611964
 20
54.5525723784
 10
276.9326451828
 20
54.334786979
 10
277.0425969839
 20
54.109009327
 10
277.1689849884
 20
53.8728632989
 10
277.3143595352
 20
53.6261575982
 10
277.4825895663
 20
53.3675641455
 10
277.6245525773
 20
53.167908902
  0
LINE
  5
30B
100
AcDbEntity
  8
BEZUGSACHSEN
100
AcDbLine
 62
7
  6
CONTINUOUS
 10
275.6421153937
 20
59.8162037733
 11
276.3788894147
 21
56.0730839484
  0
LINE
  5
30C
100
AcDbEntity
  8
BEZUGSACHSEN
100
AcDbLine
 62
7
  6
CONTINUOUS
 10
271.7815610452
 20
79.7405076088
 11
271.8009587033
 21
79.5590012478
  0
LINE
  5
30D
100
AcDbEntity
  8
BEZUGSACHSEN
100
AcDbLine
 62
7
  6
CONTINUOUS
 10
271.7614995862
 20
79.9395556555
 11
271.7815610452
 21
79.7405076088
  0
LINE
  5
30E
100
AcDbEntity
  8
BEZUGSACHSEN
100
AcDbLine
 62
7
  6
CONTINUOUS
 10
271.7404524661
 20
80.1603131127
 11
271.7614995862
 21
79.9395556555
  0
LINE
  5
30F
100
AcDbEntity
  8
BEZUGSACHSEN
100
AcDbLine
 62
7
  6
CONTINUOUS
 10
271.7181976307
 20
80.4067215548
 11
271.7404524661
 21
80.1603131127
  0
LINE
  5
310
100
AcDbEntity
  8
BEZUGSACHSEN
100
AcDbLine
 62
7
  6
CONTINUOUS
 10
271.6945775198
 20
80.6827557996
 11
271.7181976307
 21
80.4067215548
  0
LINE
  5
311
100
AcDbEntity
  8
BEZUGSACHSEN
100
AcDbLine
 62
7
  6
CONTINUOUS
 10
271.6694966657
 20
80.9924102437
 11
271.6945775198
 21
80.6827557996
  0
LINE
  5
312
100
AcDbEntity
  8
BEZUGSACHSEN
100
AcDbLine
 62
7
  6
CONTINUOUS
 10
271.6429619999
 20
81.3391429453
 11
271.6694966657
 21
80.9924102437
  0
LINE
  5
313
100
AcDbEntity
  8
BEZUGSACHSEN
100
AcDbLine
 62
7
  6
CONTINUOUS
 10
271.6150607041
 20
81.7260308853
 11
271.6429619999
 21
81.3391429453
  0
LINE
  5
314
100
AcDbEntity
  8
BEZUGSACHSEN
100
AcDbLine
 62
7
  6
CONTINUOUS
 10
271.5859332105
 20
82.1560794807
 11
271.6150607041
 21
81.7260308853
  0
LINE
  5
315
100
AcDbEntity
  8
BEZUGSACHSEN
100
AcDbLine
 62
7
  6
CONTINUOUS
 10
271.5557993851
 20
82.6318068037
 11
271.5859332105
 21
82.1560794807
  0
LINE
  5
316
100
AcDbEntity
  8
BEZUGSACHSEN
100
AcDbLine
 62
7
  6
CONTINUOUS
 10
271.1601164369
 20
89.7730076376
 11
271.3843273504
 21
86.2330048212
  0
LINE
  5
317
100
AcDbEntity
  8
BEZUGSACHSEN
100
AcDbLine
 62
7
  6
CONTINUOUS
 10
271.5249518187
 20
83.155218682
 11
271.5557993851
 21
82.6318068037
  0
LINE
  5
318
100
AcDbEntity
  8
BEZUGSACHSEN
100
AcDbLine
 62
7
  6
CONTINUOUS
 10
270.9300531977
 20
93.6887411382
 11
271.1601164369
 21
89.7730076376
  0
LINE
  5
319
100
AcDbEntity
  8
BEZUGSACHSEN
100
AcDbLine
 62
7
  6
CONTINUOUS
 10
271.4937353314
 20
83.7280353672
 11
271.5249518187
 21
83.155218682
  0
LINE
  5
31A
100
AcDbEntity
  8
BEZUGSACHSEN
100
AcDbLine
 62
7
  6
CONTINUOUS
 10
270.7182141765
 20
97.6073368788
 11
270.9300531977
 21
93.6887411382
  0
LINE
  5
31B
100
AcDbEntity
  8
BEZUGSACHSEN
100
AcDbLine
 62
7
  6
CONTINUOUS
 10
271.4625427508
 20
84.3517022289
 11
271.4937353314
 21
83.7280353672
  0
LINE
  5
31C
100
AcDbEntity
  8
BEZUGSACHSEN
100
AcDbLine
 62
7
  6
CONTINUOUS
 10
270.51824974
 20
101.6639523679
 11
270.7182141765
 21
97.6073368788
  0
LINE
  5
31D
100
AcDbEntity
  8
BEZUGSACHSEN
100
AcDbLine
 62
7
  6
CONTINUOUS
 10
271.4318131299
 20
85.0273484155
 11
271.4625427508
 21
84.3517022289
  0
LINE
  5
31E
100
AcDbEntity
  8
BEZUGSACHSEN
100
AcDbLine
 62
7
  6
CONTINUOUS
 10
270.3612926143
 20
105.1782538891
 11
270.51824974
 21
101.6639523679
  0
LINE
  5
31F
100
AcDbEntity
  8
BEZUGSACHSEN
100
AcDbLine
 62
7
  6
CONTINUOUS
 10
270.2077621876
 20
109.0212859552
 11
270.3612926143
 21
105.1782538891
  0
LWPOLYLINE
  5
320
100
AcDbEntity
  8
BEZUGSACHSEN
100
AcDbPolyline
 62
7
  6
CONTINUOUS
 90
3
 70
0
 10
271.3923475298
 20
86.0117510177
 10
271.4020044683
 20
85.7563732094
 10
271.4318131299
 20
85.0273484155
  0
LINE
  5
321
100
AcDbEntity
  8
BEZUGSACHSEN
100
AcDbLine
 62
7
  6
CONTINUOUS
 10
270.0834821476
 20
112.5833837995
 11
270.2077621876
 21
109.0212859552
  0
LINE
  5
322
100
AcDbEntity
  8
BEZUGSACHSEN
100
AcDbLine
 62
7
  6
CONTINUOUS
 10
269.9889543143
 20
115.7426001087
 11
270.0834821476
 21
112.5833837995
  0
LWPOLYLINE
  5
323
100
AcDbEntity
  8
BEZUGSACHSEN
100
AcDbPolyline
 62
7
  6
CONTINUOUS
 90
3
 70
0
 10
269.906722834
 20
119.0741868149
 10
269.9219670329
 20
118.3942496515
 10
269.9889543143
 20
115.7426001087
  0
LINE
  5
324
100
AcDbEntity
  8
BEZUGSACHSEN
100
AcDbLine
 62
7
  6
CONTINUOUS
 10
267.4346007952
 20
202.629369124
 11
267.4346007952
 21
212.7128020346
  0
LWPOLYLINE
  5
325
100
AcDbEntity
  8
BEZUGSACHSEN
100
AcDbPolyline
 62
7
  6
CONTINUOUS
 90
12
 70
0
 10
270.8075994862
 20
153.6917111452
 10
270.7259601955
 20
152.8887989737
 10
270.648897003
 20
152.0799925659
 10
270.5762145375
 20
151.2659066324
 10
270.5077397296
 20
150.4472443168
 10
270.443312207
 20
149.624716422
 10
270.3827769105
 20
148.7989765932
 10
270.3259878126
 20
147.9706752388
 10
270.2728042765
 20
147.1404137997
 10
270.2230927203
 20
146.3087825514
 10
270.1767242962
 20
145.4763318337
 10
270.0935270236
 20
143.8110455929
  0
LINE
  5
326
100
AcDbEntity
  8
BEZUGSACHSEN
100
AcDbLine
 62
7
  6
CONTINUOUS
 10
271.6354205654
 20
161.3425890772
 11
270.8075994862
 21
153.6917111452
  0
LWPOLYLINE
  5
327
100
AcDbEntity
  8
BEZUGSACHSEN
100
AcDbPolyline
 62
7
  6
CONTINUOUS
 90
9
 70
0
 10
271.8610891895
 20
79.0703214215
 10
271.8690944492
 20
79.0139736491
 10
271.8778023818
 20
78.9549081444
 10
271.8874808171
 20
78.8918662913
 10
271.8983844837
 20
78.8239335002
 10
271.9109670132
 20
78.749290057
 10
271.9257202099
 20
78.666382924
 10
271.9432709922
 20
78.5734674764
 10
272.6969291219
 20
74.7609298657
  0
LINE
  5
328
100
AcDbEntity
  8
BEZUGSACHSEN
100
AcDbLine
 62
7
  6
CONTINUOUS
 10
271.846525104
 20
79.1780455645
 11
271.8610891895
 21
79.0703214215
  0
LINE
  5
329
100
AcDbEntity
  8
BEZUGSACHSEN
100
AcDbLine
 62
7
  6
CONTINUOUS
 10
271.8330623734
 20
79.283714262
 11
271.846525104
 21
79.1780455645
  0
LINE
  5
32A
100
AcDbEntity
  8
BEZUGSACHSEN
100
AcDbLine
 62
7
  6
CONTINUOUS
 10
271.8201147079
 20
79.390848058
 11
271.8330623734
 21
79.283714262
  0
LWPOLYLINE
  5
32B
100
AcDbEntity
  8
BEZUGSACHSEN
100
AcDbPolyline
 62
7
  6
CONTINUOUS
 90
3
 70
0
 10
271.8009587033
 20
79.5590012478
 10
271.8073455718
 20
79.5016836482
 10
271.8201147079
 20
79.390848058
  0
LINE
  5
32C
100
AcDbEntity
  8
BEZUGSACHSEN
100
AcDbLine
 62
7
  6
CONTINUOUS
 10
271.3644580761
 20
86.8168140088
 11
271.3923475298
 21
86.0117510177
  0
LINE
  5
32D
100
AcDbEntity
  8
BEZUGSACHSEN
100
AcDbLine
 62
7
  6
CONTINUOUS
 10
271.3386064242
 20
87.6831493606
 11
271.3644580761
 21
86.8168140088
  0
LINE
  5
32E
100
AcDbEntity
  8
BEZUGSACHSEN
100
AcDbLine
 62
7
  6
CONTINUOUS
 10
271.3154003364
 20
88.6146243953
 11
271.3386064242
 21
87.6831493606
  0
LINE
  5
32F
100
AcDbEntity
  8
BEZUGSACHSEN
100
AcDbLine
 62
7
  6
CONTINUOUS
 10
271.2955466439
 20
89.6152901596
 11
271.3154003364
 21
88.6146243953
  0
LINE
  5
330
100
AcDbEntity
  8
BEZUGSACHSEN
100
AcDbLine
 62
7
  6
CONTINUOUS
 10
269.8530486077
 20
121.8605018735
 11
269.906722834
 21
119.0741868149
  0
LINE
  5
331
100
AcDbEntity
  8
BEZUGSACHSEN
100
AcDbLine
 62
7
  6
CONTINUOUS
 10
269.8218501303
 20
124.0182221593
 11
269.8530486077
 21
121.8605018735
  0
LINE
  5
332
100
AcDbEntity
  8
BEZUGSACHSEN
100
AcDbLine
 62
7
  6
CONTINUOUS
 10
271.2798648689
 20
90.6893693146
 11
271.2955466439
 21
89.6152901596
  0
LINE
  5
333
100
AcDbEntity
  8
BEZUGSACHSEN
100
AcDbLine
 62
7
  6
CONTINUOUS
 10
269.8000985343
 20
126.2322271235
 11
269.8218501303
 21
124.0182221593
  0
LINE
  5
334
100
AcDbEntity
  8
BEZUGSACHSEN
100
AcDbLine
 62
7
  6
CONTINUOUS
 10
271.2693024308
 20
91.8412179181
 11
271.2798648689
 21
90.6893693146
  0
LINE
  5
335
100
AcDbEntity
  8
BEZUGSACHSEN
100
AcDbLine
 62
7
  6
CONTINUOUS
 10
269.7894070156
 20
128.4998064884
 11
269.8000985343
 21
126.2322271235
  0
LINE
  5
336
100
AcDbEntity
  8
BEZUGSACHSEN
100
AcDbLine
 62
7
  6
CONTINUOUS
 10
271.2649506963
 20
93.0753057019
 11
271.2693024308
 21
91.8412179181
  0
LINE
  5
337
100
AcDbEntity
  8
BEZUGSACHSEN
100
AcDbLine
 62
7
  6
CONTINUOUS
 10
270.9346007952
 20
220.2337117066
 11
270.9346007952
 21
235.4725173694
  0
LINE
  5
338
100
AcDbEntity
  8
BEZUGSACHSEN
100
AcDbLine
 62
7
  6
CONTINUOUS
 10
269.7913421344
 20
130.8175526422
 11
269.7894070156
 21
128.4998064884
  0
LINE
  5
339
100
AcDbEntity
  8
BEZUGSACHSEN
100
AcDbLine
 62
7
  6
CONTINUOUS
 10
269.8004808964
 20
132.3885181319
 11
269.7913421344
 21
130.8175526422
  0
LINE
  5
33A
100
AcDbEntity
  8
BEZUGSACHSEN
100
AcDbLine
 62
7
  6
CONTINUOUS
 10
271.2737162251
 20
95.1893651921
 11
271.2649506963
 21
93.0753057019
  0
LINE
  5
33B
100
AcDbEntity
  8
BEZUGSACHSEN
100
AcDbLine
 62
7
  6
CONTINUOUS
 10
271.2740500072
 20
95.227001436
 11
271.2737167446
 21
95.1894217787
  0
LINE
  5
33C
100
AcDbEntity
  8
BEZUGSACHSEN
100
AcDbLine
 62
7
  6
CONTINUOUS
 10
269.8165302816
 20
133.978337149
 11
269.8004808964
 21
132.3885181319
  0
LINE
  5
33D
100
AcDbEntity
  8
BEZUGSACHSEN
100
AcDbLine
 62
7
  6
CONTINUOUS
 10
269.8400717852
 20
135.5853290366
 11
269.8165302816
 21
133.978337149
  0
LINE
  5
33E
100
AcDbEntity
  8
BEZUGSACHSEN
100
AcDbLine
 62
7
  6
CONTINUOUS
 10
269.8717282437
 20
137.2078366539
 11
269.8400717852
 21
135.5853290366
  0
LINE
  5
33F
100
AcDbEntity
  8
BEZUGSACHSEN
100
AcDbLine
 62
7
  6
CONTINUOUS
 10
269.9121649399
 20
138.8440307552
 11
269.8717282437
 21
137.2078366539
  0
LINE
  5
340
100
AcDbEntity
  8
BEZUGSACHSEN
100
AcDbLine
 62
7
  6
CONTINUOUS
 10
269.9620930771
 20
140.4917306224
 11
269.9121649399
 21
138.8440307552
  0
LINE
  5
341
100
AcDbEntity
  8
BEZUGSACHSEN
100
AcDbLine
 62
7
  6
CONTINUOUS
 10
270.0222748608
 20
142.1483867801
 11
269.9620930771
 21
140.4917306224
  0
LINE
  5
342
100
AcDbEntity
  8
BEZUGSACHSEN
100
AcDbLine
 62
7
  6
CONTINUOUS
 10
270.0935270236
 20
143.8110455929
 11
270.0222748608
 21
142.1483867801
  0
LWPOLYLINE
  5
343
100
AcDbEntity
  8
BEZUGSACHSEN
100
AcDbPolyline
 62
7
  6
CONTINUOUS
 90
6
 70
0
 10
274.6547844721
 20
191.0598756902
 10
274.1330931709
 20
185.7110147309
 10
273.5671825089
 20
180.0098630813
 10
272.964567112
 20
174.0569617014
 10
272.3219443152
 20
167.8401772006
 10
271.6354205654
 20
161.3425890772
  0
LWPOLYLINE
  5
344
100
AcDbEntity
  8
BEZUGSACHSEN
100
AcDbPolyline
 62
7
  6
CONTINUOUS
 90
9
 70
0
 10
275.4387978375
 20
130.3190343748
 10
274.5148780539
 20
125.9086693334
 10
273.6861524234
 20
121.4155476443
 10
272.9789633815
 20
116.9591310532
 10
272.3931875217
 20
112.536043165
 10
271.9292108935
 20
108.1429607512
 10
271.587615614
 20
103.7766951451
 10
271.3688760814
 20
99.4341634684
 10
271.2740475588
 20
95.226724582
  0
LINE
  5
345
100
AcDbEntity
  8
BEZUGSACHSEN
100
AcDbLine
 62
7
  6
CONTINUOUS
 10
275.4388200038
 20
130.3191343284
 11
275.4387978375
 21
130.3190343748
  0
LWPOLYLINE
  5
346
100
AcDbEntity
  8
BEZUGSACHSEN
100
AcDbPolyline
 62
7
  6
CONTINUOUS
 90
26
 70
0
 10
282.8399470775
 20
136.4725152086
 10
282.3700497555
 20
136.4576282905
 10
281.8209958316
 20
136.4022576124
 10
281.2812305982
 20
136.3070611289
 10
280.7597304787
 20
136.1752009806
 10
280.2638445408
 20
136.0114470783
 10
279.8032570371
 20
135.8234858187
 10
279.3741674384
 20
135.6146890208
 10
278.9770078707
 20
135.3896827534
 10
278.6065811721
 20
135.1493412146
 10
278.2580448096
 20
134.8931111963
 10
277.9323071578
 20
134.6237567476
 10
277.6286431601
 20
134.3428326467
 10
277.3466494579
 20
134.0520428744
 10
277.0857132166
 20
133.7528017151
 10
276.8452989238
 20
133.4465228614
 10
276.6247085898
 20
133.1343415754
 10
276.4234192379
 20
132.8175791175
 10
276.2407269737
 20
132.4972680417
 10
276.075939235
 20
132.1744228198
 10
275.928034288
 20
131.8492990343
 10
275.7967433229
 20
131.5238076373
 10
275.6813759434
 20
131.1992564575
 10
275.5807955555
 20
130.8757383022
 10
275.4939134456
 20
130.55310513
 10
275.4388200034
 20
130.3191343267
  0
LINE
  5
347
100
AcDbEntity
  8
0
100
AcDbLine
 62
7
  6
CONTINUOUS
 10
282.8399446488
 20
136.4725152136
 11
288.0292569416
 21
136.4725152136
  0
LWPOLYLINE
  5
348
100
AcDbEntity
  8
RUNDUNGEN
100
AcDbPolyline
 62
7
  6
CONTINUOUS
 90
11
 70
0
 10
296.2144171182
 20
191.0598756902
 10
296.1919046826
 20
191.4728602248
 10
296.2089738175
 20
191.9599218159
 10
296.2709029628
 20
192.4384736471
 10
296.3751711543
 20
192.9058116049
 10
296.5196507031
 20
193.3592705768
 10
296.7026897625
 20
193.7966215186
 10
296.9229181806
 20
194.2154249136
 10
297.179678375
 20
194.6137522726
 10
297.4730203232
 20
194.9895898933
 10
297.7389794089
 20
195.2768938313
  0
LWPOLYLINE
  5
349
100
AcDbEntity
  8
RUNDUNGEN
100
AcDbPolyline
 62
7
  6
CONTINUOUS
 90
9
 70
0
 10
299.5951540316
 20
95.226724582
 10
299.5003255089
 20
99.4341634684
 10
299.2815859764
 20
103.7766951451
 10
298.9399906969
 20
108.1429607512
 10
298.4760140687
 20
112.536043165
 10
297.8902382089
 20
116.9591310532
 10
297.1830491669
 20
121.4155476443
 10
296.3543235365
 20
125.9086693334
 10
295.4304037528
 20
130.3190343748
  0
LINE
  5
34A
100
AcDbEntity
  8
RUNDUNGEN
100
AcDbLine
 62
7
  6
CONTINUOUS
 10
299.6024095536
 20
94.1283658683
 11
299.5951559114
 21
95.2265108697
  0
LINE
  5
34B
100
AcDbEntity
  8
RUNDUNGEN
100
AcDbLine
 62
7
  6
CONTINUOUS
 10
299.9346007952
 20
220.2337117066
 11
299.9346007952
 21
235.4725173694
  0
LINE
  5
34C
100
AcDbEntity
  8
RUNDUNGEN
100
AcDbLine
 62
7
  6
CONTINUOUS
 10
299.6041847286
 20
92.9966726329
 11
299.6024095536
 21
94.1283658683
  0
LINE
  5
34D
100
AcDbEntity
  8
RUNDUNGEN
100
AcDbLine
 62
7
  6
CONTINUOUS
 10
299.6004455345
 20
91.9291981452
 11
299.6041847286
 21
92.9966726329
  0
LINE
  5
34E
100
AcDbEntity
  8
RUNDUNGEN
100
AcDbLine
 62
7
  6
CONTINUOUS
 10
299.59199617
 20
90.9230352286
 11
299.6004455345
 21
91.9291981452
  0
LWPOLYLINE
  5
34F
100
AcDbEntity
  8
RUNDUNGEN
100
AcDbPolyline
 62
7
  6
CONTINUOUS
 90
26
 70
0
 10
295.4303808109
 20
130.3191378257
 10
295.375142115
 20
130.5536905913
 10
295.2880797736
 20
130.8768645514
 10
295.1872877921
 20
131.2008728109
 10
295.0716716928
 20
131.5258831991
 10
294.9400884778
 20
131.8518154837
 10
294.7918448389
 20
132.1773620586
 10
294.6266654283
 20
132.5006187382
 10
294.4435319392
 20
132.8213147168
 10
294.2417621168
 20
133.1384145756
 10
294.0206347106
 20
133.4509084818
 10
293.7796072935
 20
133.7574906335
 10
293.5179799316
 20
134.0570129672
 10
293.2352114041
 20
134.3480534995
 10
292.9306806308
 20
134.6291902509
 10
292.6039778037
 20
134.8987079735
 10
292.2543677626
 20
135.1550405268
 10
291.8826979245
 20
135.3954430887
 10
291.4842754902
 20
135.6203457065
 10
291.0540322125
 20
135.8288053349
 10
290.5925045719
 20
136.0161842278
 10
290.0960998178
 20
136.1790880408
 10
289.5743718926
 20
136.309967196
 10
289.034608752
 20
136.4041286406
 10
288.4856904076
 20
136.4584697974
 10
288.029254184
 20
136.4725152085
  0
LINE
  5
350
100
AcDbEntity
  8
RUNDUNGEN
100
AcDbLine
 62
7
  6
CONTINUOUS
 10
295.4303808106
 20
130.3191378274
 11
295.4304037528
 21
130.3190343748
  0
LWPOLYLINE
  5
351
100
AcDbEntity
  8
RUNDUNGEN
100
AcDbPolyline
 62
7
  6
CONTINUOUS
 90
7
 70
0
 10
299.9630057276
 20
154.5990513321
 10
299.233781025
 20
161.3425890772
 10
298.5472572752
 20
167.8401772006
 10
297.9046344784
 20
174.0569617014
 10
297.3020190815
 20
180.0098630813
 10
296.7361084195
 20
185.7110147309
 10
296.2144270126
 20
191.0597738561
  0
LWPOLYLINE
  5
352
100
AcDbEntity
  8
RUNDUNGEN
100
AcDbPolyline
 62
7
  6
CONTINUOUS
 90
10
 70
0
 10
300.5903189993
 20
147.2382406718
 10
300.5374419766
 20
148.0574608475
 10
300.4810391218
 20
148.8747101365
 10
300.4209746896
 20
149.6894077168
 10
300.3571077504
 20
150.5009258745
 10
300.2892887647
 20
151.308634259
 10
300.2173631098
 20
152.1118479617
 10
300.1411640182
 20
152.9098897623
 10
300.0605032891
 20
153.702168767
 10
299.9893011259
 20
154.3614257749
  0
LINE
  5
353
100
AcDbEntity
  8
RUNDUNGEN
100
AcDbLine
 62
7
  6
CONTINUOUS
 10
300.6860071162
 20
145.5961319126
 11
300.5903189993
 21
147.2382406718
  0
LINE
  5
354
100
AcDbEntity
  8
RUNDUNGEN
100
AcDbLine
 62
7
  6
CONTINUOUS
 10
300.7690791161
 20
143.952563325
 11
300.6860071162
 21
145.5961319126
  0
LINE
  5
355
100
AcDbEntity
  8
RUNDUNGEN
100
AcDbLine
 62
7
  6
CONTINUOUS
 10
300.8404412889
 20
142.3112557567
 11
300.7690791161
 21
143.952563325
  0
LINE
  5
356
100
AcDbEntity
  8
RUNDUNGEN
100
AcDbLine
 62
7
  6
CONTINUOUS
 10
300.9009396971
 20
140.6754928691
 11
300.8404412889
 21
142.3112557567
  0
LINE
  5
357
100
AcDbEntity
  8
RUNDUNGEN
100
AcDbLine
 62
7
  6
CONTINUOUS
 10
300.9513651215
 20
139.0481576482
 11
300.9009396971
 21
140.6754928691
  0
LINE
  5
358
100
AcDbEntity
  8
RUNDUNGEN
100
AcDbLine
 62
7
  6
CONTINUOUS
 10
300.9924562897
 20
137.4317464617
 11
300.9513651215
 21
139.0481576482
  0
LINE
  5
359
100
AcDbEntity
  8
RUNDUNGEN
100
AcDbLine
 62
7
  6
CONTINUOUS
 10
301.0249029895
 20
135.8284020816
 11
300.9924562897
 21
137.4317464617
  0
LINE
  5
35A
100
AcDbEntity
  8
RUNDUNGEN
100
AcDbLine
 62
7
  6
CONTINUOUS
 10
301.0493508561
 20
134.2399302182
 11
301.0249029895
 21
135.8284020816
  0
LINE
  5
35B
100
AcDbEntity
  8
RUNDUNGEN
100
AcDbLine
 62
7
  6
CONTINUOUS
 10
301.0664051789
 20
132.6679288471
 11
301.0493508561
 21
134.2399302182
  0
LINE
  5
35C
100
AcDbEntity
  8
RUNDUNGEN
100
AcDbLine
 62
7
  6
CONTINUOUS
 10
301.079351093
 20
130.3443180634
 11
301.0664051789
 21
132.6679288471
  0
LINE
  5
35D
100
AcDbEntity
  8
RUNDUNGEN
100
AcDbLine
 62
7
  6
CONTINUOUS
 10
303.4346007952
 20
202.629369124
 11
303.4346007952
 21
212.7128020346
  0
LINE
  5
35E
100
AcDbEntity
  8
RUNDUNGEN
100
AcDbLine
 62
7
  6
CONTINUOUS
 10
301.0786896184
 20
128.0663253675
 11
301.079351093
 21
130.3443180634
  0
LINE
  5
35F
100
AcDbEntity
  8
RUNDUNGEN
100
AcDbLine
 62
7
  6
CONTINUOUS
 10
301.0660266036
 20
125.8378407572
 11
301.0786896184
 21
128.0663253675
  0
LINE
  5
360
100
AcDbEntity
  8
RUNDUNGEN
100
AcDbLine
 62
7
  6
CONTINUOUS
 10
301.0428597736
 20
123.6620386188
 11
301.0660266036
 21
125.8378407572
  0
LINE
  5
361
100
AcDbEntity
  8
RUNDUNGEN
100
AcDbLine
 62
7
  6
CONTINUOUS
 10
299.579550416
 20
89.9753147612
 11
299.59199617
 21
90.9230352286
  0
LINE
  5
362
100
AcDbEntity
  8
RUNDUNGEN
100
AcDbLine
 62
7
  6
CONTINUOUS
 10
300.9983090181
 20
120.8469025321
 11
301.0428597736
 21
123.6620386188
  0
LINE
  5
363
100
AcDbEntity
  8
RUNDUNGEN
100
AcDbLine
 62
7
  6
CONTINUOUS
 10
299.5637406653
 20
89.0832324322
 11
299.579550416
 21
89.9753147612
  0
LINE
  5
364
100
AcDbEntity
  8
RUNDUNGEN
100
AcDbLine
 62
7
  6
CONTINUOUS
 10
300.9411804404
 20
118.1337676414
 11
300.9983090181
 21
120.8469025321
  0
LINE
  5
365
100
AcDbEntity
  8
RUNDUNGEN
100
AcDbLine
 62
7
  6
CONTINUOUS
 10
299.5451255772
 20
88.2440525808
 11
299.5637406653
 21
89.0832324322
  0
LINE
  5
366
100
AcDbEntity
  8
RUNDUNGEN
100
AcDbLine
 62
7
  6
CONTINUOUS
 10
300.8562995256
 20
114.8912903664
 11
300.9411804404
 21
118.1337676414
  0
LINE
  5
367
100
AcDbEntity
  8
RUNDUNGEN
100
AcDbLine
 62
7
  6
CONTINUOUS
 10
299.5167844107
 20
87.2028824267
 11
299.5451255772
 21
88.2440525808
  0
LINE
  5
368
100
AcDbEntity
  8
RUNDUNGEN
100
AcDbLine
 62
7
  6
CONTINUOUS
 10
300.7605382345
 20
111.8177074563
 11
300.8562995256
 21
114.8912903664
  0
LINE
  5
369
100
AcDbEntity
  8
RUNDUNGEN
100
AcDbLine
 62
7
  6
CONTINUOUS
 10
299.485331761
 20
86.2450784171
 11
299.5167844107
 21
87.2028824267
  0
LINE
  5
36A
100
AcDbEntity
  8
RUNDUNGEN
100
AcDbLine
 62
7
  6
CONTINUOUS
 10
300.6361497794
 20
108.3529972573
 11
300.7605382345
 21
111.8177074563
  0
LINE
  5
36B
100
AcDbEntity
  8
RUNDUNGEN
100
AcDbLine
 62
7
  6
CONTINUOUS
 10
299.4516142011
 20
85.365002434
 11
299.485331761
 21
86.2450784171
  0
LINE
  5
36C
100
AcDbEntity
  8
RUNDUNGEN
100
AcDbLine
 62
7
  6
CONTINUOUS
 10
300.4837776247
 20
104.6146144219
 11
300.6361497794
 21
108.3529972573
  0
LINE
  5
36D
100
AcDbEntity
  8
RUNDUNGEN
100
AcDbLine
 62
7
  6
CONTINUOUS
 10
299.4163427174
 20
84.5574149814
 11
299.4516142011
 21
85.365002434
  0
LINE
  5
36E
100
AcDbEntity
  8
RUNDUNGEN
100
AcDbLine
 62
7
  6
CONTINUOUS
 10
300.3066185295
 20
100.7288312697
 11
300.4837776247
 21
104.6146144219
  0
LINE
  5
36F
100
AcDbEntity
  8
RUNDUNGEN
100
AcDbLine
 62
7
  6
CONTINUOUS
 10
299.3801950728
 20
83.8190519358
 11
299.4163427174
 21
84.5574149814
  0
LINE
  5
370
100
AcDbEntity
  8
RUNDUNGEN
100
AcDbLine
 62
7
  6
CONTINUOUS
 10
300.1102112324
 20
96.8260735469
 11
300.3066185295
 21
100.7288312697
  0
LINE
  5
371
100
AcDbEntity
  8
RUNDUNGEN
100
AcDbLine
 62
7
  6
CONTINUOUS
 10
299.3439042306
 20
83.149133121
 11
299.3801950728
 21
83.8190519358
  0
LINE
  5
372
100
AcDbEntity
  8
RUNDUNGEN
100
AcDbLine
 62
7
  6
CONTINUOUS
 10
299.9037015603
 20
93.0643304354
 11
300.1102112324
 21
96.8260735469
  0
LINE
  5
373
100
AcDbEntity
  8
RUNDUNGEN
100
AcDbLine
 62
7
  6
CONTINUOUS
 10
299.3081435184
 20
82.5463799416
 11
299.3439042306
 21
83.149133121
  0
LINE
  5
374
100
AcDbEntity
  8
RUNDUNGEN
100
AcDbLine
 62
7
  6
CONTINUOUS
 10
299.6819854125
 20
89.3316874138
 11
299.9037015603
 21
93.0643304354
  0
LINE
  5
375
100
AcDbEntity
  8
RUNDUNGEN
100
AcDbLine
 62
7
  6
CONTINUOUS
 10
299.4849214604
 20
86.2337800911
 11
299.6819854125
 21
89.3316874138
  0
LINE
  5
376
100
AcDbEntity
  8
RUNDUNGEN
100
AcDbLine
 62
7
  6
CONTINUOUS
 10
299.2734994406
 20
82.0087305926
 11
299.3081435184
 21
82.5463799416
  0
LINE
  5
377
100
AcDbEntity
  8
RUNDUNGEN
100
AcDbLine
 62
7
  6
CONTINUOUS
 10
299.2404403459
 20
81.5331103463
 11
299.2734994406
 21
82.0087305926
  0
LINE
  5
378
100
AcDbEntity
  8
RUNDUNGEN
100
AcDbLine
 62
7
  6
CONTINUOUS
 10
299.2091662999
 20
81.1137456805
 11
299.2404403459
 21
81.5331103463
  0
LINE
  5
379
100
AcDbEntity
  8
RUNDUNGEN
100
AcDbLine
 62
7
  6
CONTINUOUS
 10
299.1797004534
 20
80.7440423616
 11
299.2091662999
 21
81.1137456805
  0
LINE
  5
37A
100
AcDbEntity
  8
RUNDUNGEN
100
AcDbLine
 62
7
  6
CONTINUOUS
 10
299.1519980513
 20
80.4180374033
 11
299.1797004534
 21
80.7440423616
  0
LINE
  5
37B
100
AcDbEntity
  8
RUNDUNGEN
100
AcDbLine
 62
7
  6
CONTINUOUS
 10
299.1259692412
 20
80.13046739
 11
299.1519980513
 21
80.4180374033
  0
LINE
  5
37C
100
AcDbEntity
  8
RUNDUNGEN
100
AcDbLine
 62
7
  6
CONTINUOUS
 10
299.1074410939
 20
79.936894917
 11
299.1259692412
 21
80.13046739
  0
LINE
  5
37D
100
AcDbEntity
  8
RUNDUNGEN
100
AcDbLine
 62
7
  6
CONTINUOUS
 10
299.0896269862
 20
79.7597109277
 11
299.1074410939
 21
79.936894917
  0
LINE
  5
37E
100
AcDbEntity
  8
RUNDUNGEN
100
AcDbLine
 62
7
  6
CONTINUOUS
 10
299.0723343018
 20
79.5963639441
 11
299.0896269862
 21
79.7597109277
  0
LINE
  5
37F
100
AcDbEntity
  8
RUNDUNGEN
100
AcDbLine
 62
7
  6
CONTINUOUS
 10
299.0552411405
 20
79.4436341527
 11
299.0723343018
 21
79.5963639441
  0
LINE
  5
380
100
AcDbEntity
  8
RUNDUNGEN
100
AcDbLine
 62
7
  6
CONTINUOUS
 10
299.0436917437
 20
79.345555685
 11
299.0552411405
 21
79.4436341527
  0
LINE
  5
381
100
AcDbEntity
  8
RUNDUNGEN
100
AcDbLine
 62
7
  6
CONTINUOUS
 10
299.0317797769
 20
79.248854749
 11
299.0436917437
 21
79.345555685
  0
LINE
  5
382
100
AcDbEntity
  8
RUNDUNGEN
100
AcDbLine
 62
7
  6
CONTINUOUS
 10
299.0192220883
 20
79.1518781322
 11
299.0317797769
 21
79.248854749
  0
LINE
  5
383
100
AcDbEntity
  8
RUNDUNGEN
100
AcDbLine
 62
7
  6
CONTINUOUS
 10
299.9891765669
 20
154.3625422597
 11
299.9630057276
 21
154.5990513321
  0
LWPOLYLINE
  5
384
100
AcDbEntity
  8
RUNDUNGEN
100
AcDbPolyline
 62
7
  6
CONTINUOUS
 90
10
 70
0
 10
298.921403643
 20
78.5504077057
 10
298.9276360249
 20
78.5822468358
 10
298.9443606499
 20
78.6711946545
 10
298.9583521232
 20
78.7499699176
 10
298.9702606857
 20
78.8205502855
 10
298.9805595668
 20
78.8844798053
 10
298.9897069771
 20
78.943691549
 10
298.9979329586
 20
78.9990120023
 10
299.005502048
 20
79.0517278167
 10
299.0192220883
 20
79.1518781322
  0
LINE
  5
385
100
AcDbEntity
  8
0
100
AcDbLine
 62
7
  6
CONTINUOUS
 10
294.4954734786
 20
56.0991272373
 11
295.2270861967
 21
59.8162037733
  0
LINE
  5
386
100
AcDbEntity
  8
0
100
AcDbLine
 62
7
  6
CONTINUOUS
 10
298.1722724685
 20
74.7609298657
 11
298.9213886545
 21
78.5503178948
  0
LINE
  5
387
100
AcDbEntity
  8
BEZUGSACHSEN
100
AcDbLine
 62
7
  6
CONTINUOUS
 10
273.1301863473
 20
195.2769296615
 11
268.6061735228
 21
199.800942486
  0
LWPOLYLINE
  5
388
100
AcDbEntity
  8
BEZUGSACHSEN
100
AcDbPolyline
 62
7
  6
CONTINUOUS
 90
11
 70
0
 10
273.1302221815
 20
195.2768938313
 10
273.3961812672
 20
194.9895898933
 10
273.6895232153
 20
194.6137522726
 10
273.9462834098
 20
194.2154249136
 10
274.1665118278
 20
193.7966215186
 10
274.3495508872
 20
193.3592705768
 10
274.4940304361
 20
192.9058116049
 10
274.5982986276
 20
192.4384736471
 10
274.6602277728
 20
191.9599218159
 10
274.6772969078
 20
191.4728602248
 10
274.6547844721
 20
191.0598756902
  0
LWPOLYLINE
  5
389
100
AcDbEntity
  8
RUNDUNGEN
100
AcDbPolyline
 62
7
  6
CONTINUOUS
 90
18
 70
0
 10
293.2447071759
 20
53.1679876087
 10
293.3915889761
 20
53.3748525759
 10
293.5614702625
 20
53.6369000213
 10
293.7079255614
 20
53.8866430805
 10
293.8348847268
 20
54.1252978619
 10
293.9447766543
 20
54.3525536009
 10
294.040604917
 20
54.5702901046
 10
294.1229383593
 20
54.7755687039
 10
294.1928005096
 20
54.9662243653
 10
294.2520702884
 20
55.1426778178
 10
294.3020504812
 20
55.3043453957
 10
294.3445095469
 20
55.4528751515
 10
294.3807132411
 20
55.589178279
 10
294.4119978706
 20
55.715320529
 10
294.4394175126
 20
55.8331821452
 10
294.46380652
 20
55.9444693552
 10
294.485939767
 20
56.0512831471
 10
294.4955406971
 20
56.0994685892
  0
LINE
  5
38A
100
AcDbEntity
  8
RUNDUNGEN
100
AcDbLine
 62
7
  6
CONTINUOUS
 10
293.2366534152
 20
53.1571122538
 11
293.2447071759
 21
53.1679876087
  0
LINE
  5
38B
100
AcDbEntity
  8
RUNDUNGEN
100
AcDbLine
 62
7
  6
CONTINUOUS
 10
302.7112124865
 20
215.0071027611
 11
300.6581339658
 21
217.9392027582
  0
ARC
  5
38C
100
AcDbEntity
  8
RUNDUNGEN
100
AcDbCircle
 62
7
  6
CONTINUOUS
 10
128.057991114
 20
125.4725152136
 40
66.0
100
AcDbArc
 50
275.3793789911
 51
313.2092153407
  0
ARC
  5
38D
100
AcDbEntity
  8
RUNDUNGEN
100
AcDbCircle
 62
7
  6
CONTINUOUS
 10
128.057991114
 20
125.4725152136
 40
51.0356709465
100
AcDbArc
 50
202.1611631208
 51
263.5041409076
  0
ARC
  5
38E
100
AcDbEntity
  8
RUNDUNGEN
100
AcDbCircle
 62
7
  6
CONTINUOUS
 10
128.057991114
 20
125.4725152136
 40
51.0356709465
100
AcDbArc
 50
276.4958590924
 51
312.8388368792
  0
ARC
  5
38F
100
AcDbEntity
  8
BEZUGSACHSEN
100
AcDbCircle
 62
7
  6
CONTINUOUS
 10
128.057991114
 20
125.4725152136
 40
38.0
100
AcDbArc
 50
221.8
 51
41.2322489409
  0
ARC
  5
390
100
AcDbEntity
  8
RUNDUNGEN
100
AcDbCircle
 62
7
  6
CONTINUOUS
 10
128.057991114
 20
125.4725152136
 40
38.0
100
AcDbArc
 50
221.8
 51
41.800000002
  0
ARC
  5
391
100
AcDbEntity
  8
BEZUGSACHSEN
100
AcDbCircle
 62
7
  6
CONTINUOUS
 10
63.4464795481
 20
127.9725152136
 40
8.5
100
AcDbArc
 50
41.7999637039
 51
199.7999484553
  0
ARC
  5
392
100
AcDbEntity
  8
RUNDUNGEN
100
AcDbCircle
 62
7
  6
CONTINUOUS
 10
63.4464795481
 20
127.9725152136
 40
8.5
100
AcDbArc
 50
41.7999637039
 51
199.7999484553
  0
ARC
  5
393
100
AcDbEntity
  8
RUNDUNGEN
100
AcDbCircle
 62
7
  6
CONTINUOUS
 10
78.9402516301
 20
105.466764522
 40
2.0
100
AcDbArc
 50
22.1611631208
 51
110.0
  0
ARC
  5
394
100
AcDbEntity
  8
RUNDUNGEN
100
AcDbCircle
 62
7
  6
CONTINUOUS
 10
74.9907684138
 20
104.0292701906
 40
2.0
100
AcDbArc
 50
110.0
 51
193.415319493
  0
ARC
  5
395
100
AcDbEntity
  8
RUNDUNGEN
100
AcDbCircle
 62
7
  6
CONTINUOUS
 10
122.057991114
 20
72.7773314418
 40
2.0
100
AcDbArc
 50
0.0
 51
83.5041409076
  0
ARC
  5
396
100
AcDbEntity
  8
RUNDUNGEN
100
AcDbCircle
 62
7
  6
CONTINUOUS
 10
122.057991114
 20
61.8171311593
 40
2.0
100
AcDbArc
 50
262.8101299211
 51
360.0
  0
ARC
  5
397
100
AcDbEntity
  8
RUNDUNGEN
100
AcDbCircle
 62
7
  6
CONTINUOUS
 10
113.057991114
 20
214.2635983743
 40
10.0
100
AcDbArc
 50
180.0
 51
221.8000105189
  0
ARC
  5
398
100
AcDbEntity
  8
BEZUGSACHSEN
100
AcDbCircle
 62
7
  6
CONTINUOUS
 10
128.057991114
 20
217.5725152136
 40
5.6
100
AcDbArc
 50
191.5821383993
 51
210.4123803767
  0
ARC
  5
399
100
AcDbEntity
  8
BEZUGSACHSEN
100
AcDbCircle
 62
7
  6
CONTINUOUS
 10
128.057991114
 20
217.5725152136
 40
5.6
100
AcDbArc
 50
329.5876196233
 51
348.4178616007
  0
ARC
  5
39A
100
AcDbEntity
  8
RUNDUNGEN
100
AcDbCircle
 62
7
  6
CONTINUOUS
 10
128.057991114
 20
217.5725152136
 40
5.6
100
AcDbArc
 50
180.0023780662
 51
359.9975214029
  0
ARC
  5
39B
100
AcDbEntity
  8
BEZUGSACHSEN
100
AcDbCircle
 62
7
  6
CONTINUOUS
 10
118.457991114
 20
245.9725152136
 40
4.0
100
AcDbArc
 50
0.0
 51
90.0
  0
CIRCLE
  5
39C
100
AcDbEntity
  8
BEZUGSACHSEN
100
AcDbCircle
 62
7
  6
CONTINUOUS
 10
110.357991114
 20
233.9725152136
 40
2.5
  0
ARC
  5
39D
100
AcDbEntity
  8
BEZUGSACHSEN
100
AcDbCircle
 62
7
  6
CONTINUOUS
 10
129.157991114
 20
127.3725152136
 40
76.9
100
AcDbArc
 50
269.1804175504
 51
41.0848535747
  0
ARC
  5
39E
100
AcDbEntity
  8
RUNDUNGEN
100
AcDbCircle
 62
7
  6
CONTINUOUS
 10
129.157991114
 20
127.3725152136
 40
76.9
100
AcDbArc
 50
269.1804175504
 51
69.8261268839
  0
ARC
  5
39F
100
AcDbEntity
  8
BEZUGSACHSEN
100
AcDbCircle
 62
7
  6
CONTINUOUS
 10
129.0083647241
 20
116.9133405218
 40
66.4397551037
100
AcDbArc
 50
215.2527634326
 51
269.1804208601
  0
ARC
  5
3A0
100
AcDbEntity
  8
RUNDUNGEN
100
AcDbCircle
 62
7
  6
CONTINUOUS
 10
129.0083647241
 20
116.9133405218
 40
66.4397551037
100
AcDbArc
 50
199.7999936247
 51
269.1804208601
  0
ARC
  5
3A1
100
AcDbEntity
  8
RUNDUNGEN
100
AcDbCircle
 62
7
  6
CONTINUOUS
 10
129.0083647241
 20
116.9133405218
 40
57.5328729623
100
AcDbArc
 50
193.415319493
 51
262.8101299211
  0
ARC
  5
3A2
100
AcDbEntity
  8
RUNDUNGEN
100
AcDbCircle
 62
7
  6
CONTINUOUS
 10
147.3610310432
 20
125.4725152136
 40
50.0
100
AcDbArc
 50
343.398450401
 51
16.601549599
  0
ARC
  5
3A3
100
AcDbEntity
  8
RUNDUNGEN
100
AcDbCircle
 62
7
  6
CONTINUOUS
 10
186.7870194696
 20
130.4169164096
 40
2.0
100
AcDbArc
 50
0.0
 51
127.5
  0
ARC
  5
3A4
100
AcDbEntity
  8
RUNDUNGEN
100
AcDbCircle
 62
7
  6
CONTINUOUS
 10
186.7870194696
 20
120.5281140176
 40
2.0
100
AcDbArc
 50
232.5
 51
360.0
  0
ARC
  5
3A5
100
AcDbEntity
  8
RUNDUNGEN
100
AcDbCircle
 62
7
  6
CONTINUOUS
 10
180.3433503774
 20
125.4725152136
 40
2.0
100
AcDbArc
 50
127.5
 51
232.5
  0
ARC
  5
3A6
100
AcDbEntity
  8
RUNDUNGEN
100
AcDbCircle
 62
7
  6
CONTINUOUS
 10
184.4640876982
 20
145.5617521472
 40
2.0
100
AcDbArc
 50
307.5
 51
77.8
  0
ARC
  5
3A7
100
AcDbEntity
  8
RUNDUNGEN
100
AcDbCircle
 62
7
  6
CONTINUOUS
 10
176.8505947744
 20
139.7197135539
 40
2.0
100
AcDbArc
 50
200.0
 51
307.5
  0
ARC
  5
3A8
100
AcDbEntity
  8
RUNDUNGEN
100
AcDbCircle
 62
7
  6
CONTINUOUS
 10
173.8923427034
 20
147.84744432
 40
2.0
100
AcDbArc
 50
77.8
 51
200.0
  0
ARC
  5
3A9
100
AcDbEntity
  8
RUNDUNGEN
100
AcDbCircle
 62
7
  6
CONTINUOUS
 10
173.3094676833
 20
106.8178475924
 40
2.0
100
AcDbArc
 50
157.5
 51
275.0
  0
ARC
  5
3AA
100
AcDbEntity
  8
RUNDUNGEN
100
AcDbCircle
 62
7
  6
CONTINUOUS
 10
134.057991114
 20
72.7773314418
 40
2.0
100
AcDbArc
 50
96.4958590924
 51
180.0
  0
ARC
  5
3AB
100
AcDbEntity
  8
RUNDUNGEN
100
AcDbCircle
 62
7
  6
CONTINUOUS
 10
164.1189853079
 20
86.583093895
 40
2.0
100
AcDbArc
 50
45.0
 51
132.8388368792
  0
ARC
  5
3AC
100
AcDbEntity
  8
RUNDUNGEN
100
AcDbCircle
 62
7
  6
CONTINUOUS
 10
134.057991114
 20
61.7543859253
 40
2.0
100
AcDbArc
 50
180.0
 51
275.3793789911
  0
ARC
  5
3AD
100
AcDbEntity
  8
RUNDUNGEN
100
AcDbCircle
 62
7
  6
CONTINUOUS
 10
171.8765090632
 20
78.8255701396
 40
2.0
100
AcDbArc
 50
313.2092153407
 51
45.0
  0
ARC
  5
3AE
100
AcDbEntity
  8
RUNDUNGEN
100
AcDbCircle
 62
7
  6
CONTINUOUS
 10
180.0362307366
 20
88.6447810606
 40
2.0
100
AcDbArc
 50
215.0
 51
320.0
  0
ARC
  5
3AF
100
AcDbEntity
  8
RUNDUNGEN
100
AcDbCircle
 62
7
  6
CONTINUOUS
 10
174.2806404709
 20
96.8646158262
 40
2.0
100
AcDbArc
 50
95.0
 51
215.0
  0
ARC
  5
3B0
100
AcDbEntity
  8
RUNDUNGEN
100
AcDbCircle
 62
7
  6
CONTINUOUS
 10
187.9359506644
 20
98.0593006651
 40
2.0
100
AcDbArc
 50
320.0
 51
95.0
  0
ARC
  5
3B1
100
AcDbEntity
  8
RUNDUNGEN
100
AcDbCircle
 62
7
  6
CONTINUOUS
 10
176.4083046614
 20
114.2991018524
 40
2.0
100
AcDbArc
 50
52.5
 51
157.5
  0
ARC
  5
3B2
100
AcDbEntity
  8
RUNDUNGEN
100
AcDbCircle
 62
7
  6
CONTINUOUS
 10
184.843036924
 20
107.8269041509
 40
2.0
100
AcDbArc
 50
275.0
 51
52.5
  0
ARC
  5
3B3
100
AcDbEntity
  8
RUNDUNGEN
100
AcDbCircle
 62
7
  6
CONTINUOUS
 10
194.3184585707
 20
139.4725152136
 40
1.0
100
AcDbArc
 50
16.601549599
 51
90.0
  0
ARC
  5
3B4
100
AcDbEntity
  8
RUNDUNGEN
100
AcDbCircle
 62
7
  6
CONTINUOUS
 10
194.3184585707
 20
111.4725152136
 40
1.0
100
AcDbArc
 50
270.0
 51
343.398450401
  0
ARC
  5
3B5
100
AcDbEntity
  8
RUNDUNGEN
100
AcDbCircle
 62
7
  6
CONTINUOUS
 10
194.057991114
 20
111.4725152136
 40
1.0
100
AcDbArc
 50
180.0
 51
270.0
  0
ARC
  5
3B6
100
AcDbEntity
  8
RUNDUNGEN
100
AcDbCircle
 62
7
  6
CONTINUOUS
 10
194.057991114
 20
139.4725152136
 40
1.0
100
AcDbArc
 50
90.0
 51
180.0
  0
ARC
  5
3B7
100
AcDbEntity
  8
BEZUGSACHSEN
100
AcDbCircle
 62
7
  6
CONTINUOUS
 10
137.657991114
 20
245.9725152136
 40
4.0
100
AcDbArc
 50
90.0
 51
180.0
  0
ARC
  5
3B8
100
AcDbEntity
  8
BEZUGSACHSEN
100
AcDbCircle
 62
7
  6
CONTINUOUS
 10
149.057991114
 20
245.9725152136
 40
4.0
100
AcDbArc
 50
0.0
 51
90.0
  0
ARC
  5
3B9
100
AcDbEntity
  8
BEZUGSACHSEN
100
AcDbCircle
 62
7
  6
CONTINUOUS
 10
157.057991114
 20
203.3093310541
 40
4.0
100
AcDbArc
 50
189.9751610077
 51
249.8261269101
  0
ARC
  5
3BA
100
AcDbEntity
  8
BEZUGSACHSEN
100
AcDbCircle
 62
7
  6
CONTINUOUS
 10
157.057991114
 20
203.3093310541
 40
4.0
100
AcDbArc
 50
180.000000024
 51
189.6787552435
  0
ARC
  5
3BB
100
AcDbEntity
  8
RUNDUNGEN
100
AcDbCircle
 62
7
  6
CONTINUOUS
 10
157.057991114
 20
203.3093310541
 40
4.0
100
AcDbArc
 50
180.000000024
 51
249.8261269101
  0
ARC
  5
3BC
100
AcDbEntity
  8
RUNDUNGEN
100
AcDbCircle
 62
7
  6
CONTINUOUS
 10
175.8242039681
 20
158.8808180833
 40
2.0
100
AcDbArc
 50
132.8
 51
257.8
  0
ARC
  5
3BD
100
AcDbEntity
  8
RUNDUNGEN
100
AcDbCircle
 62
7
  6
CONTINUOUS
 10
183.933081933
 20
166.3897214101
 40
2.0
100
AcDbArc
 50
27.8
 51
132.8
  0
ARC
  5
3BE
100
AcDbEntity
  8
RUNDUNGEN
100
AcDbCircle
 62
7
  6
CONTINUOUS
 10
189.4447267481
 20
155.9359568211
 40
2.0
100
AcDbArc
 50
257.8
 51
27.8
  0
ARC
  5
3BF
100
AcDbEntity
  8
RUNDUNGEN
100
AcDbCircle
 62
7
  6
CONTINUOUS
 10
157.9806747847
 20
183.4725152136
 40
2.0
100
AcDbArc
 50
61.8
 51
90.0
  0
ARC
  5
3C0
100
AcDbEntity
  8
RUNDUNGEN
100
AcDbCircle
 62
7
  6
CONTINUOUS
 10
172.5296007438
 20
175.6714495604
 40
2.0
100
AcDbArc
 50
311.8
 51
61.8
  0
ARC
  5
3C1
100
AcDbEntity
  8
RUNDUNGEN
100
AcDbCircle
 62
7
  6
CONTINUOUS
 10
161.636901228
 20
165.932252163
 40
2.0
100
AcDbArc
 50
221.8
 51
311.8
  0
ARC
  5
3C2
100
AcDbEntity
  8
RUNDUNGEN
100
AcDbCircle
 62
7
  6
CONTINUOUS
 10
145.9540960607
 20
183.4725152136
 40
2.0
100
AcDbArc
 50
90.0
 51
221.8
  0
ARC
  5
3C3
100
AcDbEntity
  8
RUNDUNGEN
100
AcDbCircle
 62
7
  6
CONTINUOUS
 10
746.8266020186
 20
98.6441924802
 40
448.3395741362
100
AcDbArc
 50
179.0316476265
 51
180.9187117658
  0
ARC
  5
3C4
100
AcDbEntity
  8
BEZUGSACHSEN
100
AcDbCircle
 62
7
  6
CONTINUOUS
 10
-175.9574004282
 20
98.6441924802
 40
448.3395741362
100
AcDbArc
 50
359.0812882342
 51
0.9683523735
  0
ARC
  5
3C5
100
AcDbEntity
  8
BEZUGSACHSEN
100
AcDbCircle
 62
7
  6
CONTINUOUS
 10
438.2351090662
 20
227.2282519187
 40
204.3293778605
100
AcDbArc
 50
215.923890209
 51
216.423235048
  0
ARC
  5
3C6
100
AcDbEntity
  8
RUNDUNGEN
100
AcDbCircle
 62
7
  6
CONTINUOUS
 10
132.6340925252
 20
227.2282519179
 40
204.3293778591
100
AcDbArc
 50
323.576764952
 51
324.076109791
  0
ARC
  5
3C7
100
AcDbEntity
  8
BEZUGSACHSEN
100
AcDbCircle
 62
7
  6
CONTINUOUS
 10
285.4346007952
 20
235.4725152136
 40
14.5
100
AcDbArc
 50
0.0000085184
 51
179.9999914816
  0
ARC
  5
3C8
100
AcDbEntity
  8
RUNDUNGEN
100
AcDbCircle
 62
7
  6
CONTINUOUS
 10
303.9346007952
 20
220.2337103691
 40
4.0
100
AcDbArc
 50
179.999980842
 51
215.0035298831
  0
ARC
  5
3C9
100
AcDbEntity
  8
RUNDUNGEN
100
AcDbCircle
 62
7
  6
CONTINUOUS
 10
299.4346007952
 20
212.7128020345
 40
4.0
100
AcDbArc
 50
0.0000086193
 51
35.0000067386
  0
ARC
  5
3CA
100
AcDbEntity
  8
RUNDUNGEN
100
AcDbCircle
 62
7
  6
CONTINUOUS
 10
299.4346007952
 20
202.6293694631
 40
4.0
100
AcDbArc
 50
315.0000029903
 51
359.9999951429
  0
ARC
  5
3CB
100
AcDbEntity
  8
BEZUGSACHSEN
100
AcDbCircle
 62
7
  6
CONTINUOUS
 10
266.9346007952
 20
220.2337103691
 40
4.0
100
AcDbArc
 50
324.9964701169
 51
0.000019158
  0
ARC
  5
3CC
100
AcDbEntity
  8
BEZUGSACHSEN
100
AcDbCircle
 62
7
  6
CONTINUOUS
 10
271.4346007952
 20
212.7128020345
 40
4.0
100
AcDbArc
 50
144.9999932614
 51
179.9999913807
  0
ARC
  5
3CD
100
AcDbEntity
  8
BEZUGSACHSEN
100
AcDbCircle
 62
7
  6
CONTINUOUS
 10
271.4346007952
 20
202.6293694631
 40
4.0
100
AcDbArc
 50
180.0000048571
 51
224.9999970097
  0
SPLINE
  5
3CE
100
AcDbEntity
  8
BEZUGSACHSEN
100
AcDbSpline
 62
7
  6
CONTINUOUS
 70
0
 71
3
 72
11
 73
7
 74
0
 42
0.0000001
 43
0.0000001
 44
0.0000000001
 40
0.0
 40
0.0
 40
0.0
 40
0.0
 40
0.063323793
 40
0.2504325886
 40
0.5626594106
 40
1.0
 40
1.0
 40
1.0
 40
1.0
 10
275.6468140788
 20
59.8171446698
 30
0.0
 10
275.6471479992
 20
59.8171635025
 30
0.0
 10
275.6466447501
 20
59.8192324721
 30
0.0
 10
275.6467901191
 20
59.8214743254
 30
0.0
 10
275.6458753553
 20
59.8267951516
 30
0.0
 10
275.6453805314
 20
59.8305739464
 30
0.0
 10
275.6450327249
 20
59.8328574697
 30
0.0
  0
SPLINE
  5
3CF
100
AcDbEntity
  8
RUNDUNGEN
100
AcDbSpline
 62
7
  6
CONTINUOUS
 70
0
 71
3
 72
9
 73
5
 74
0
 42
0.0000001
 43
0.0000001
 44
0.0000000001
 40
0.0
 40
0.0
 40
0.0
 40
0.0
 40
0.4790549604
 40
1.0
 40
1.0
 40
1.0
 40
1.0
 10
296.0917167068
 20
84.0804680707
 30
0.0
 10
296.0799778506
 20
87.1928736721
 30
0.0
 10
296.1421432899
 20
93.6904157635
 30
0.0
 10
296.369079574
 20
100.1841466952
 30
0.0
 10
296.5225384698
 20
103.5652542071
 30
0.0
  0
SPLINE
  5
3D0
100
AcDbEntity
  8
RUNDUNGEN
100
AcDbSpline
 62
7
  6
CONTINUOUS
 70
0
 71
3
 72
16
 73
12
 74
0
 42
0.0000001
 43
0.0000001
 44
0.0000000001
 40
0.0
 40
0.0
 40
0.0
 40
0.0
 40
0.0189198677
 40
0.0442215233
 40
0.1136740926
 40
0.2076030872
 40
0.324982116
 40
0.4645355778
 40
0.6247507334
 40
0.8038857629
 40
1.0
 40
1.0
 40
1.0
 40
1.0
 10
295.2241688655
 20
59.8328574697
 30
0.0
 10
295.2472206526
 20
59.9842039454
 30
0.0
 10
295.2932503955
 20
60.3391228651
 30
0.0
 10
295.3923059297
 20
61.2536017911
 30
0.0
 10
295.5204719051
 20
62.7751538072
 30
0.0
 10
295.6703611596
 20
65.042066585
 30
0.0
 10
295.8143055677
 20
67.8775563906
 30
0.0
 10
295.9403868654
 20
71.2506781311
 30
0.0
 10
296.0367462729
 20
75.1246739907
 30
0.0
 10
296.0930158162
 20
79.4571639668
 30
0.0
 10
296.0977017853
 20
82.4936020816
 30
0.0
 10
296.0917167068
 20
84.0804680707
 30
0.0
  0
SPLINE
  5
3D1
100
AcDbEntity
  8
RUNDUNGEN
100
AcDbSpline
 62
7
  6
CONTINUOUS
 70
0
 71
3
 72
11
 73
7
 74
0
 42
0.0000001
 43
0.0000001
 44
0.0000000001
 40
0.0
 40
0.0
 40
0.0
 40
0.0
 40
0.063323793
 40
0.2504325886
 40
0.5626594106
 40
1.0
 40
1.0
 40
1.0
 40
1.0
 10
295.2223875116
 20
59.8171446698
 30
0.0
 10
295.2220535911
 20
59.8171635025
 30
0.0
 10
295.2225568402
 20
59.8192324721
 30
0.0
 10
295.2224114713
 20
59.8214743254
 30
0.0
 10
295.2233262351
 20
59.8267951515
 30
0.0
 10
295.2238210589
 20
59.8305739464
 30
0.0
 10
295.2241688655
 20
59.8328574697
 30
0.0
  0
SPLINE
  5
3D2
100
AcDbEntity
  8
RUNDUNGEN
100
AcDbSpline
 62
7
  6
CONTINUOUS
 70
0
 71
3
 72
13
 73
9
 74
0
 42
0.0000001
 43
0.0000001
 44
0.0000000001
 40
0.0
 40
0.0
 40
0.0
 40
0.0
 40
0.3037464731
 40
0.5931603505
 40
0.7212182172
 40
0.8333137019
 40
0.9267906464
 40
1.0
 40
1.0
 40
1.0
 40
1.0
 10
296.5225384698
 20
103.5652542071
 30
0.0
 10
296.533660225
 20
103.8102960458
 30
0.0
 10
296.5764343742
 20
104.2879842675
 30
0.0
 10
296.6743343007
 20
104.862999616
 30
0.0
 10
296.7786419395
 20
105.2779340035
 30
0.0
 10
296.8606569999
 20
105.5348753654
 30
0.0
 10
296.9467842453
 20
105.7430837403
 30
0.0
 10
297.0132643557
 20
105.86107548
 30
0.0
 10
297.0483563981
 20
105.9086554322
 30
0.0
  0
SPLINE
  5
3D3
100
AcDbEntity
  8
RUNDUNGEN
100
AcDbSpline
 62
7
  6
CONTINUOUS
 70
0
 71
3
 72
9
 73
5
 74
0
 42
0.0000001
 43
0.0000001
 44
0.0000000001
 40
0.0
 40
0.0
 40
0.0
 40
0.0
 40
0.5873931665
 40
1.0
 40
1.0
 40
1.0
 40
1.0
 10
298.0994249649
 20
107.3461497636
 30
0.0
 10
298.123680027
 20
107.3796680532
 30
0.0
 10
298.1686893515
 20
107.4345373203
 30
0.0
 10
298.2373559836
 20
107.4667828899
 30
0.0
 10
298.266418412
 20
107.4667653918
 30
0.0
  0
SPLINE
  5
3D4
100
AcDbEntity
  8
BEZUGSACHSEN
100
AcDbSpline
 62
7
  6
CONTINUOUS
 70
0
 71
3
 72
9
 73
5
 74
0
 42
0.0000001
 43
0.0000001
 44
0.0000000001
 40
0.0
 40
0.0
 40
0.0
 40
0.0
 40
0.4790549604
 40
1.0
 40
1.0
 40
1.0
 40
1.0
 10
274.7774848835
 20
84.0804680707
 30
0.0
 10
274.7892237398
 20
87.1928736721
 30
0.0
 10
274.7270583005
 20
93.6904157635
 30
0.0
 10
274.5001220164
 20
100.1841466952
 30
0.0
 10
274.3466631206
 20
103.5652542071
 30
0.0
  0
SPLINE
  5
3D5
100
AcDbEntity
  8
BEZUGSACHSEN
100
AcDbSpline
 62
7
  6
CONTINUOUS
 70
0
 71
3
 72
16
 73
12
 74
0
 42
0.0000001
 43
0.0000001
 44
0.0000000001
 40
0.0
 40
0.0
 40
0.0
 40
0.0
 40
0.0189198677
 40
0.0442215233
 40
0.1136740926
 40
0.2076030872
 40
0.324982116
 40
0.4645355778
 40
0.6247507334
 40
0.8038857629
 40
1.0
 40
1.0
 40
1.0
 40
1.0
 10
275.6450327249
 20
59.8328574697
 30
0.0
 10
275.6219809378
 20
59.9842039454
 30
0.0
 10
275.5759511948
 20
60.3391228651
 30
0.0
 10
275.4768956607
 20
61.2536017911
 30
0.0
 10
275.3487296853
 20
62.7751538072
 30
0.0
 10
275.1988404308
 20
65.042066585
 30
0.0
 10
275.0548960227
 20
67.8775563906
 30
0.0
 10
274.928814725
 20
71.2506781311
 30
0.0
 10
274.8324553175
 20
75.1246739907
 30
0.0
 10
274.7761857741
 20
79.4571639668
 30
0.0
 10
274.771499805
 20
82.4936020816
 30
0.0
 10
274.7774848835
 20
84.0804680707
 30
0.0
  0
SPLINE
  5
3D6
100
AcDbEntity
  8
BEZUGSACHSEN
100
AcDbSpline
 62
7
  6
CONTINUOUS
 70
0
 71
3
 72
9
 73
5
 74
0
 42
0.0000001
 43
0.0000001
 44
0.0000000001
 40
0.0
 40
0.0
 40
0.0
 40
0.0
 40
0.5873931665
 40
1.0
 40
1.0
 40
1.0
 40
1.0
 10
272.7697766254
 20
107.3461497636
 30
0.0
 10
272.7455215633
 20
107.3796680532
 30
0.0
 10
272.7005122389
 20
107.4345373203
 30
0.0
 10
272.6318456068
 20
107.4667828899
 30
0.0
 10
272.6027831783
 20
107.4667653918
 30
0.0
  0
SPLINE
  5
3D7
100
AcDbEntity
  8
BEZUGSACHSEN
100
AcDbSpline
 62
7
  6
CONTINUOUS
 70
0
 71
3
 72
13
 73
9
 74
0
 42
0.0000001
 43
0.0000001
 44
0.0000000001
 40
0.0
 40
0.0
 40
0.0
 40
0.0
 40
0.3037464731
 40
0.5931603505
 40
0.7212182172
 40
0.8333137019
 40
0.9267906464
 40
1.0
 40
1.0
 40
1.0
 40
1.0
 10
274.3466631206
 20
103.5652542071
 30
0.0
 10
274.3355413654
 20
103.8102960458
 30
0.0
 10
274.2927672162
 20
104.2879842675
 30
0.0
 10
274.1948672896
 20
104.862999616
 30
0.0
 10
274.0905596509
 20
105.2779340035
 30
0.0
 10
274.0085445905
 20
105.5348753654
 30
0.0
 10
273.9224173451
 20
105.7430837403
 30
0.0
 10
273.8559372347
 20
105.86107548
 30
0.0
 10
273.8208451923
 20
105.9086554322
 30
0.0
  0
SPLINE
  5
3D8
100
AcDbEntity
  8
RUNDUNGEN
100
AcDbSpline
 62
7
  6
CONTINUOUS
 70
0
 71
3
 72
14
 73
10
 74
0
 42
0.0000001
 43
0.0000001
 44
0.0000000001
 40
0.0
 40
0.0
 40
0.0
 40
0.0
 40
0.3786253445
 40
0.5387222104
 40
0.6775387292
 40
0.7939407386
 40
0.8869701927
 40
0.9558513744
 40
1.0
 40
1.0
 40
1.0
 40
1.0
 10
298.5446621882
 20
91.4555793677
 30
0.0
 10
298.5791764677
 20
89.347915765
 30
0.0
 10
298.59340867
 20
86.3482465892
 30
0.0
 10
298.5371409139
 20
82.5764904015
 30
0.0
 10
298.4737589267
 20
80.2650774508
 30
0.0
 10
298.3959079694
 20
78.3277718741
 30
0.0
 10
298.3132790537
 20
76.7804370925
 30
0.0
 10
298.2346132559
 20
75.6359231935
 30
0.0
 10
298.1808577088
 20
75.0088379982
 30
0.0
 10
298.1542437741
 20
74.7644915109
 30
0.0
  0
SPLINE
  5
3D9
100
AcDbEntity
  8
RUNDUNGEN
100
AcDbSpline
 62
7
  6
CONTINUOUS
 70
0
 71
3
 72
9
 73
5
 74
0
 42
0.0000001
 43
0.0000001
 44
0.0000000001
 40
0.0
 40
0.0
 40
0.0
 40
0.0
 40
0.590142997
 40
1.0
 40
1.0
 40
1.0
 40
1.0
 10
295.6207527063
 20
61.8171311593
 30
0.0
 10
295.550663092
 20
61.4607953812
 30
0.0
 10
295.4316383918
 20
60.8570352778
 30
0.0
 10
295.3128052224
 20
60.253231334
 30
0.0
 10
295.2627444133
 20
60.0060306102
 30
0.0
  0
SPLINE
  5
3DA
100
AcDbEntity
  8
RUNDUNGEN
100
AcDbSpline
 62
7
  6
CONTINUOUS
 70
0
 71
3
 72
16
 73
12
 74
0
 42
0.0000001
 43
0.0000001
 44
0.0000000001
 40
0.0
 40
0.0
 40
0.0
 40
0.0
 40
0.4321106072
 40
0.6039274773
 40
0.7453848529
 40
0.8560108593
 40
0.9354816869
 40
0.9634371942
 40
0.9834919272
 40
0.9956394429
 40
1.0
 40
1.0
 40
1.0
 40
1.0
 10
295.2627444133
 20
60.0060306102
 30
0.0
 10
295.257220875
 20
59.9787553285
 30
0.0
 10
295.2494660819
 20
59.9406372231
 30
0.0
 10
295.2397249687
 20
59.8936413981
 30
0.0
 10
295.2341084391
 20
59.8669042176
 30
0.0
 10
295.2295861683
 20
59.8460898231
 30
0.0
 10
295.2265532014
 20
59.8322649413
 30
0.0
 10
295.2245874728
 20
59.8244447434
 30
0.0
 10
295.223701838
 20
59.8204222325
 30
0.0
 10
295.22289268
 20
59.8186478738
 30
0.0
 10
295.2226678962
 20
59.8171288565
 30
0.0
 10
295.2223875116
 20
59.8171446698
 30
0.0
  0
SPLINE
  5
3DB
100
AcDbEntity
  8
RUNDUNGEN
100
AcDbSpline
 62
7
  6
CONTINUOUS
 70
0
 71
3
 72
13
 73
9
 74
0
 42
0.0000001
 43
0.0000001
 44
0.0000000001
 40
0.0
 40
0.0
 40
0.0
 40
0.0
 40
0.0374378346
 40
0.1072440654
 40
0.2068009954
 40
0.3324649671
 40
0.643773127
 40
1.0
 40
1.0
 40
1.0
 40
1.0
 10
298.1542437741
 20
74.7644915109
 30
0.0
 10
298.1515103804
 20
74.7393958175
 30
0.0
 10
298.1392474607
 20
74.668066976
 30
0.0
 10
298.1151978872
 20
74.530753335
 30
0.0
 10
298.0786261313
 20
74.3351861282
 30
0.0
 10
298.0111562631
 20
73.9797654727
 30
0.0
 10
297.9092185902
 20
73.4547113348
 30
0.0
 10
297.822614173
 20
73.0130087916
 30
0.0
 10
297.7762132594
 20
72.7773314418
 30
0.0
  0
SPLINE
  5
3DC
100
AcDbEntity
  8
BEZUGSACHSEN
100
AcDbSpline
 62
7
  6
CONTINUOUS
 70
0
 71
3
 72
15
 73
11
 74
0
 42
0.0000001
 43
0.0000001
 44
0.0000000001
 40
0.0
 40
0.0
 40
0.0
 40
0.0
 40
0.050100082
 40
0.1145281024
 40
0.2021183046
 40
0.3154532561
 40
0.4542684561
 40
0.6166979532
 40
0.7999059191
 40
1.0
 40
1.0
 40
1.0
 40
1.0
 10
272.6027831783
 20
107.4667653918
 30
0.0
 10
272.5804756897
 20
107.4667519608
 30
0.0
 10
272.529356214
 20
107.447038478
 30
0.0
 10
272.472326894
 20
107.3747479982
 30
0.0
 10
272.4235302826
 20
107.2666940162
 30
0.0
 10
272.3828836802
 20
107.1205017915
 30
0.0
 10
272.3509779357
 20
106.9385250181
 30
0.0
 10
272.3288641173
 20
106.7238019252
 30
0.0
 10
272.3172324966
 20
106.4809997282
 30
0.0
 10
272.3167293185
 20
106.310273149
 30
0.0
 10
272.3181429976
 20
106.2211907538
 30
0.0
  0
SPLINE
  5
3DD
100
AcDbEntity
  8
BEZUGSACHSEN
100
AcDbSpline
 62
7
  6
CONTINUOUS
 70
0
 71
3
 72
14
 73
10
 74
0
 42
0.0000001
 43
0.0000001
 44
0.0000000001
 40
0.0
 40
0.0
 40
0.0
 40
0.0
 40
0.3786253445
 40
0.5387222104
 40
0.6775387292
 40
0.7939407386
 40
0.8869701927
 40
0.9558513744
 40
1.0
 40
1.0
 40
1.0
 40
1.0
 10
272.3245394022
 20
91.4555793677
 30
0.0
 10
272.2900251227
 20
89.347915765
 30
0.0
 10
272.2757929204
 20
86.3482465892
 30
0.0
 10
272.3320606764
 20
82.5764904015
 30
0.0
 10
272.3954426637
 20
80.2650774508
 30
0.0
 10
272.473293621
 20
78.3277718741
 30
0.0
 10
272.5559225367
 20
76.7804370925
 30
0.0
 10
272.6345883345
 20
75.6359231935
 30
0.0
 10
272.6883438816
 20
75.0088379982
 30
0.0
 10
272.7149578163
 20
74.7644915109
 30
0.0
  0
SPLINE
  5
3DE
100
AcDbEntity
  8
BEZUGSACHSEN
100
AcDbSpline
 62
7
  6
CONTINUOUS
 70
0
 71
3
 72
8
 73
4
 74
0
 42
0.0000001
 43
0.0000001
 44
0.0000000001
 40
0.0
 40
0.0
 40
0.0
 40
0.0
 40
1.0
 40
1.0
 40
1.0
 40
1.0
 10
273.092988331
 20
72.7773314418
 30
0.0
 10
273.8122514039
 20
69.124084087
 30
0.0
 10
274.5298463073
 20
65.4705084926
 30
0.0
 10
275.248448884
 20
61.8171311593
 30
0.0
  0
SPLINE
  5
3DF
100
AcDbEntity
  8
BEZUGSACHSEN
100
AcDbSpline
 62
7
  6
CONTINUOUS
 70
0
 71
3
 72
13
 73
9
 74
0
 42
0.0000001
 43
0.0000001
 44
0.0000000001
 40
0.0
 40
0.0
 40
0.0
 40
0.0
 40
0.0374378346
 40
0.1072440654
 40
0.2068009954
 40
0.3324649671
 40
0.643773127
 40
1.0
 40
1.0
 40
1.0
 40
1.0
 10
272.7149578163
 20
74.7644915109
 30
0.0
 10
272.7176912099
 20
74.7393958175
 30
0.0
 10
272.7299541297
 20
74.668066976
 30
0.0
 10
272.7540037031
 20
74.530753335
 30
0.0
 10
272.7905754591
 20
74.3351861282
 30
0.0
 10
272.8580453272
 20
73.9797654727
 30
0.0
 10
272.9599830002
 20
73.4547113348
 30
0.0
 10
273.0465874174
 20
73.0130087916
 30
0.0
 10
273.092988331
 20
72.7773314418
 30
0.0
  0
SPLINE
  5
3E0
100
AcDbEntity
  8
BEZUGSACHSEN
100
AcDbSpline
 62
7
  6
CONTINUOUS
 70
0
 71
3
 72
9
 73
5
 74
0
 42
0.0000001
 43
0.0000001
 44
0.0000000001
 40
0.0
 40
0.0
 40
0.0
 40
0.0
 40
0.590142997
 40
1.0
 40
1.0
 40
1.0
 40
1.0
 10
275.248448884
 20
61.8171311593
 30
0.0
 10
275.3185384984
 20
61.4607953812
 30
0.0
 10
275.4375631986
 20
60.8570352778
 30
0.0
 10
275.556396368
 20
60.253231334
 30
0.0
 10
275.6064571771
 20
60.0060306102
 30
0.0
  0
SPLINE
  5
3E1
100
AcDbEntity
  8
BEZUGSACHSEN
100
AcDbSpline
 62
7
  6
CONTINUOUS
 70
0
 71
3
 72
16
 73
12
 74
0
 42
0.0000001
 43
0.0000001
 44
0.0000000001
 40
0.0
 40
0.0
 40
0.0
 40
0.0
 40
0.4321106072
 40
0.6039274773
 40
0.7453848529
 40
0.8560108593
 40
0.9354816869
 40
0.9634371942
 40
0.9834919272
 40
0.9956394429
 40
1.0
 40
1.0
 40
1.0
 40
1.0
 10
275.6064571771
 20
60.0060306102
 30
0.0
 10
275.6119807154
 20
59.9787553285
 30
0.0
 10
275.6197355084
 20
59.9406372231
 30
0.0
 10
275.6294766217
 20
59.8936413981
 30
0.0
 10
275.6350931513
 20
59.8669042176
 30
0.0
 10
275.6396154221
 20
59.8460898231
 30
0.0
 10
275.6426483889
 20
59.8322649413
 30
0.0
 10
275.6446141176
 20
59.8244447434
 30
0.0
 10
275.6454997523
 20
59.8204222325
 30
0.0
 10
275.6463089104
 20
59.8186478738
 30
0.0
 10
275.6465336941
 20
59.8171288565
 30
0.0
 10
275.6468140788
 20
59.8171446698
 30
0.0
  0
SPLINE
  5
3E2
100
AcDbEntity
  8
RUNDUNGEN
100
AcDbSpline
 62
7
  6
CONTINUOUS
 70
0
 71
3
 72
15
 73
11
 74
0
 42
0.0000001
 43
0.0000001
 44
0.0000000001
 40
0.0
 40
0.0
 40
0.0
 40
0.0
 40
0.050100082
 40
0.1145281024
 40
0.2021183046
 40
0.3154532561
 40
0.4542684561
 40
0.6166979532
 40
0.7999059191
 40
1.0
 40
1.0
 40
1.0
 40
1.0
 10
298.266418412
 20
107.4667653918
 30
0.0
 10
298.2887259007
 20
107.4667519608
 30
0.0
 10
298.3398453763
 20
107.447038478
 30
0.0
 10
298.3968746964
 20
107.3747479982
 30
0.0
 10
298.4456713077
 20
107.2666940162
 30
0.0
 10
298.4863179102
 20
107.1205017915
 30
0.0
 10
298.5182236547
 20
106.9385250181
 30
0.0
 10
298.5403374731
 20
106.7238019252
 30
0.0
 10
298.5519690937
 20
106.4809997282
 30
0.0
 10
298.5524722719
 20
106.310273149
 30
0.0
 10
298.5510585927
 20
106.2211907538
 30
0.0
  0
SPLINE
  5
3E3
100
AcDbEntity
  8
RUNDUNGEN
100
AcDbSpline
 62
7
  6
CONTINUOUS
 70
0
 71
3
 72
8
 73
4
 74
0
 42
0.0000001
 43
0.0000001
 44
0.0000000001
 40
0.0
 40
0.0
 40
0.0
 40
0.0
 40
1.0
 40
1.0
 40
1.0
 40
1.0
 10
297.7762132594
 20
72.7773314418
 30
0.0
 10
297.0569501864
 20
69.124084087
 30
0.0
 10
296.339355283
 20
65.4705084926
 30
0.0
 10
295.6207527063
 20
61.8171311593
 30
0.0
  0
ENDSEC
  0
SECTION
  2
OBJECTS
  0
DICTIONARY
  5
C
100
AcDbDictionary
280
0
281
1
  3
ACAD_GROUP
350
D
  3
ACAD_MLINESTYLE
350
17
  3
ACAD_LAYOUT
350
1A
  3
ACAD_PLOTSETTINGS
350
19
  3
ACAD_PLOTSTYLENAME
350
E
  0
DICTIONARY
  5
D
102
{ACAD_REACTORS
330
C
102
}
100
AcDbDictionary
280
0
281
1
  0
ACDBDICTIONARYWDFLT
  5
E
102
{ACAD_REACTORS
330
C
102
}
100
AcDbDictionary
281
1
  3
Normal
350
F
100
AcDbDictionaryWithDefault
340
F
  0
DICTIONARY
  5
17
102
{ACAD_REACTORS
330
C
102
}
100
AcDbDictionary
280
0
281
1
  3
Standard
350
18
  0
DICTIONARY
  5
19
102
{ACAD_REACTORS
330
C
102
}
100
AcDbDictionary
281
1
  0
DICTIONARY
  5
1A
102
{ACAD_REACTORS
330
C
102
}
100
AcDbDictionary
281
1
  3
Model
350
3E4
  3
Layout1
350
3E5
  0
ACDBPLACEHOLDER
  5
F
102
{ACAD_REACTORS
330
E
102
}
  0
MLINESTYLE
  5
18
102
{ACAD_REACTORS
330
17
102
}
100
AcDbMlineStyle
  2
STANDARD
 70
0
  3

 62
256
 51
90.0
 52
90.0
 71
2
 49
0.5
 62
256
  6
BYLAYER
 49
-0.5
 62
256
  6
BYLAYER
  0
LAYOUT
  5
3E4
102
{ACAD_REACTORS
330
1A
102
}
100
AcDbPlotSettings
  1

  2
none_device
  4
ISO_A3_(420.00_x_297.00_MM)
  6

 40
0.0
 41
0.0
 42
0.0
 43
0.0
 44
420.0
 45
297.0
 46
0.0
 47
0.0
 48
0.0
 49
0.0
140
0.0
141
0.0
142
1.0
143
1.0
 70
1024
 72
1
 73
0
 74
0
  7

 75
0
147
1.0
148
0.0
149
0.0
100
AcDbLayout
  1
Model
 70
0
 71
0
 10
0.0
 20
0.0
 11
420.0
 21
297.0
 12
0.0
 22
0.0
 32
0.0
 14
0.0
 24
0.0
 34
0.0
 15
0.0
 25
0.0
 35
0.0
146
0.0
 13
0.0
 23
0.0
 33
0.0
 16
1.0
 26
0.0
 36
0.0
 17
0.0
 27
1.0
 37
0.0
 76
0
330
209
345
0
346
0
  0
LAYOUT
  5
3E5
102
{ACAD_REACTORS
330
1A
102
}
100
AcDbPlotSettings
  1

  2
none_device
  4
ISO_A3_(420.00_x_297.00_MM)
  6

 40
0.0
 41
0.0
 42
0.0
 43
0.0
 44
420.0
 45
297.0
 46
0.0
 47
0.0
 48
0.0
 49
0.0
140
0.0
141
0.0
142
1.0
143
1.0
 70
0
 72
1
 73
0
 74
0
  7

 75
0
147
1.0
148
0.0
149
0.0
100
AcDbLayout
  1
Layout1
 70
0
 71
1
 10
0.0
 20
0.0
 11
420.0
 21
297.0
 12
0.0
 22
0.0
 32
0.0
 14
0.0
 24
0.0
 34
0.0
 15
0.0
 25
0.0
 35
0.0
146
0.0
 13
0.0
 23
0.0
 33
0.0
 16
1.0
 26
0.0
 36
0.0
 17
0.0
 27
1.0
 37
0.0
 76
0
330
20A
345
0
346
0
  0
ENDSEC
  0
EOF
