999
DXF file: C:\Aktuell-Internet\CAD-Daten\2vcoeh16.dxf
999
Pro/ENGINEER 2001400 by Parametric Technology Corporation
0
SECTION
2
HEADER
9
$ACADVER
1
AC1014
9
$EXTMAX
10
420.0000000000
20
297.0000000000
9
$EXTMIN
10
0.0000000000
20
0.0000000000
9
$LIMMIN
10
0.0000000000
20
0.0000000000
9
$LIMMAX
10
420.0000000000
20
297.0000000000
9
$VIEWCTR
10
210.0000000000
20
148.5000000000
9
$VIEWSIZE
40
297.0000000000
9
$CLAYER
8
0
9
$LTSCALE
40
23.1000000000
9
$CELTYPE
6
BYLAYER
9
$DIMSCALE
40
1
9
$DIMASZ
40
3.5000000000
9
$DIMEXO
40
2.6250000000
9
$DIMDLI
40
15.9600000000
9
$DIMEXE
40
7.5600000000
9
$DIMCEN
40
3.7800000000
9
$DIMLFAC
40
1.0000000000
9
$DIMTXT
40
3.5000000000
9
$DIMTOL
70
1
9
$DIMTFAC
40
0.6000000000
9
$DIMTP
40
0.0050000000
9
$DIMTM
40
0.0050000000
9
$HANDSEED
5
5BA
0
ENDSEC
0
SECTION
2
CLASSES
0
ENDSEC
0
SECTION
2
TABLES
0
TABLE
2
VPORT
5
8
100
AcDbSymbolTable
70
2
0
VPORT
5
1F4
100
AcDbSymbolTableRecord
100
AcDbViewportTableRecord
2
*ACTIVE
70
0
10
0.0
20
0.0
11
1.0
21
1.0
12
210.0000000000
22
148.5000000000
13
0.0
23
0.0
14
1.0
24
1.0
15
0.0
25
0.0
16
0.0
26
0.0
36
1.0
17
0.0
27
0.0
37
0.0
40
297.0000000000
41
1.4141414141
42
50.0
43
0.0
44
0.0
50
0.0
51
0.0
71
0
72
100
73
1
74
1
75
0
76
0
77
0
78
0
0
ENDTAB
0
TABLE
2
LTYPE
5
5
100
AcDbSymbolTable
70
6
0
LTYPE
5
14
100
AcDbSymbolTableRecord
100
AcDbLinetypeTableRecord
2
BYBLOCK
70
0
3

72
65
73
0
40
0.0
0
LTYPE
5
15
100
AcDbSymbolTableRecord
100
AcDbLinetypeTableRecord
2
BYLAYER
70
0
3

72
65
73
0
40
0.0
0
LTYPE
5
16
100
AcDbSymbolTableRecord
100
AcDbLinetypeTableRecord
2
CONTINUOUS
70
64
3
Solid line
72
65
73
0
40
0
0
LTYPE
5
1F5
100
AcDbSymbolTableRecord
100
AcDbLinetypeTableRecord
2
CENTER
70
64
3
____ _ ____ _ ____ _ ____ _ ____ _ ____ _ ____
72
65
73
4
40
0.6
49
0.375
74
0
49
-0.075
74
0
49
0.075
74
0
49
-0.075
74
0
0
LTYPE
5
1F6
100
AcDbSymbolTableRecord
100
AcDbLinetypeTableRecord
2
HIDDEN
70
64
3
- - - - - - - - - - - - - - - - - - - -
72
65
73
2
40
0.2
49
0.1
74
0
49
-0.1
74
0
0
LTYPE
5
1F7
100
AcDbSymbolTableRecord
100
AcDbLinetypeTableRecord
2
PHANTOM
70
64
3
_____ _ _ _____ _ _ _____ _ _ _____
72
65
73
6
40
0.8
49
0.45
74
0
49
-0.05
74
0
49
0.1
74
0
49
-0.05
74
0
49
0.1
74
0
49
-0.05
74
0
0
LTYPE
5
1F8
100
AcDbSymbolTableRecord
100
AcDbLinetypeTableRecord
2
DOT
70
64
3
. . . . . . . . . . . . . . . . . . . .
72
65
73
2
40
0.2
49
0.1
74
0
49
-0.1
74
0
0
LTYPE
5
1F9
100
AcDbSymbolTableRecord
100
AcDbLinetypeTableRecord
2
DASHED
70
64
3
- - - - - - - - - - - - - - - - - - - -
72
65
73
2
40
0.2
49
0.1
74
0
49
-0.1
74
0
0
ENDTAB
0
TABLE
2
LAYER
5
2
100
AcDbSymbolTable
70
36
0
LAYER
5
10
100
AcDbSymbolTableRecord
100
AcDbLayerTableRecord
2
0
70
0
62
7
6
CONTINUOUS
0
LAYER
5
1FA
100
AcDbSymbolTableRecord
100
AcDbLayerTableRecord
2
DEFAULT_1
70
0
62
7
6
CENTER
0
LAYER
5
1FB
100
AcDbSymbolTableRecord
100
AcDbLayerTableRecord
2
DEFAULT_2
70
0
62
8
6
HIDDEN
0
LAYER
5
1FC
100
AcDbSymbolTableRecord
100
AcDbLayerTableRecord
2
DEFAULT_3
70
0
62
7
6
PHANTOM
0
LAYER
5
1FD
100
AcDbSymbolTableRecord
100
AcDbLayerTableRecord
2
ZEICHNUNGSBEMASSUNGEN
70
0
62
7
6
CONTINUOUS
0
ENDTAB
0
TABLE
2
STYLE
5
3
100
AcDbSymbolTable
70
1
0
STYLE
5
11
100
AcDbSymbolTableRecord
100
AcDbTextStyleTableRecord
2
STANDARD
70
0
40
0.0
41
1.0
50
0.0
71
0
42
0.0
3
txt
4

0
STYLE
5
1FE
100
AcDbSymbolTableRecord
100
AcDbTextStyleTableRecord
2
TEXTSTYLE_0
70
0
40
0.0
41
0.80
50
0.0
71
0
42
0.2
3
txt
4

0
ENDTAB
0
TABLE
2
VIEW
5
6
100
AcDbSymbolTable
70
0
0
ENDTAB
0
TABLE
2
UCS
5
7
100
AcDbSymbolTable
70
0
0
ENDTAB
0
TABLE
2
APPID
5
9
100
AcDbSymbolTable
70
1
0
APPID
5
1FF
100
AcDbSymbolTableRecord
100
AcDbRegAppTableRecord
2
ACAD
70
0
0
ENDTAB
0
TABLE
2
DIMSTYLE
5
A
100
AcDbSymbolTable
70
1
0
DIMSTYLE
105
200
100
AcDbSymbolTableRecord
100
AcDbDimStyleTableRecord
2
STANDARD
70
0
3

4

5

6

7

40
1.0
41
0.18
42
0.0625
43
0.38
44
0.18
45
0.0
46
0.0
47
0.0050000000
48
0.0050000000
140
3.5000000000
141
0.09
142
0.0
143
25.4
144
1.0000000000
145
0.0
146
0.6000000000
147
0.09
71
1
72
0
73
1
74
1
75
0
76
0
77
0
78
0
170
0
171
2
172
0
173
0
174
0
175
0
176
0
177
0
178
0
270
2
271
3
272
4
273
2
274
2
340
11
275
0
280
0
281
0
282
0
283
1
284
0
285
0
286
0
287
3
288
0
0
ENDTAB
0
TABLE
2
BLOCK_RECORD
5
1
100
AcDbSymbolTable
70
0
0
BLOCK_RECORD
5
1B
100
AcDbSymbolTableRecord
100
AcDbBlockTableRecord
2
*MODEL_SPACE
0
BLOCK_RECORD
5
1C
100
AcDbSymbolTableRecord
100
AcDbBlockTableRecord
2
*PAPER_SPACE
0
ENDTAB
0
ENDSEC
0
SECTION
2
BLOCKS
0
BLOCK
5
1E
100
AcDbEntity
8
0
100
AcDbBlockBegin
2
*MODEL_SPACE
70
0
10
0.0
20
0.0
30
0.0
3
*MODEL_SPACE
1

0
ENDBLK
5
1F
100
AcDbEntity
8
0
100
AcDbBlockEnd
0
BLOCK
5
20
100
AcDbEntity
8
0
100
AcDbBlockBegin
2
*PAPER_SPACE
70
0
10
0.0
20
0.0
30
0.0
3
*PAPER_SPACE
1

0
ENDBLK
5
21
100
AcDbEntity
8
0
100
AcDbBlockEnd
0
ENDSEC
0
SECTION
2
ENTITIES
0
TEXT
5
201
100
AcDbEntity
8
0
100
AcDbText
62
2
6
CONTINUOUS
10
181.0861465388
20
49.7756754806
7
TEXTSTYLE_0
40
8.0000000000
1
VCÖH 16/VIP
50
90.0000000000
72
5
11
181.0861465388
21
116.3280557029
100
AcDbText
0
TEXT
5
202
100
AcDbEntity
8
0
100
AcDbText
62
2
6
CONTINUOUS
10
292.0692942580
20
202.3985172828
7
TEXTSTYLE_0
40
7.0000000000
1
VCÖH
50
90.0000000000
72
5
11
292.0692942580
21
224.4651839494
100
AcDbText
0
TEXT
5
203
100
AcDbEntity
8
0
100
AcDbText
62
2
6
CONTINUOUS
10
305.6084798122
20
198.2655027452
7
TEXTSTYLE_0
40
7.0000000000
1
16/VIP
50
90.0000000000
72
5
11
305.6084798122
21
228.9321694118
100
AcDbText
0
TEXT
5
204
100
AcDbEntity
8
0
100
AcDbText
62
2
6
CONTINUOUS
10
127.3477367249
20
155.0590906260
7
TEXTSTYLE_0
40
8.0000000000
1
RUD
50
90.0000000000
72
5
11
127.3477367249
21
174.8686144356
100
AcDbText
0
LINE
5
205
100
AcDbEntity
8
0
100
AcDbLine
62
7
6
CONTINUOUS
10
0.0000000000
20
0.0000000000
11
0.0000000000
21
297.0000000000
0
LINE
5
206
100
AcDbEntity
8
0
100
AcDbLine
62
7
6
CONTINUOUS
10
0.0000000000
20
0.0000000000
11
420.0000000000
21
0.0000000000
0
LINE
5
207
100
AcDbEntity
8
0
100
AcDbLine
62
7
6
CONTINUOUS
10
0.0000000000
20
297.0000000000
11
420.0000000000
21
297.0000000000
0
LINE
5
208
100
AcDbEntity
8
0
100
AcDbLine
62
7
6
CONTINUOUS
10
420.0000000000
20
0.0000000000
11
420.0000000000
21
297.0000000000
0
LINE
5
209
100
AcDbEntity
8
0
100
AcDbLine
62
7
6
CONTINUOUS
10
56.7340630087
20
123.4832573127
11
59.0066638823
21
133.3269731690
0
LINE
5
20A
100
AcDbEntity
8
0
100
AcDbLine
62
7
6
CONTINUOUS
10
59.1417208115
20
133.9119689991
11
59.7049727944
21
136.3516813744
0
LINE
5
20B
100
AcDbEntity
8
0
100
AcDbLine
62
7
6
CONTINUOUS
10
59.9555379918
20
137.4369984818
11
60.6050046030
21
140.2501474392
0
LINE
5
20C
100
AcDbEntity
8
0
100
AcDbLine
62
7
6
CONTINUOUS
10
60.8695470429
20
141.3960066354
11
61.7954455825
21
145.4065138221
0
LINE
5
20D
100
AcDbEntity
8
0
100
AcDbLine
62
7
6
CONTINUOUS
10
60.0605761547
20
135.6514813629
11
59.8138168200
21
134.5826492583
0
LINE
5
20E
100
AcDbEntity
8
0
100
AcDbLine
62
7
6
CONTINUOUS
10
59.3182776988
20
132.4362335097
11
56.7894222995
21
121.4825573582
0
LINE
5
20F
100
AcDbEntity
8
0
100
AcDbLine
62
7
6
CONTINUOUS
10
56.2938812933
20
119.3361334451
11
56.0471212348
21
118.2672982052
0
LINE
5
210
100
AcDbEntity
8
0
100
AcDbLine
62
7
6
CONTINUOUS
10
55.5244441235
20
116.0033349072
11
51.9801705894
21
100.6513996025
0
LINE
5
211
100
AcDbEntity
8
0
100
AcDbLine
62
7
6
CONTINUOUS
10
60.5832539899
20
137.9154477961
11
62.4403946164
21
145.9596076150
0
LINE
5
212
100
AcDbEntity
8
0
100
AcDbLine
62
7
6
CONTINUOUS
10
54.2284276207
20
97.0534362451
11
54.9032807837
21
99.9765464394
0
LINE
5
213
100
AcDbEntity
8
0
100
AcDbLine
62
7
6
CONTINUOUS
10
51.9801705894
20
100.6513996025
11
54.9032807837
21
99.9765464394
0
LINE
5
214
100
AcDbEntity
8
0
100
AcDbLine
62
7
6
CONTINUOUS
10
59.1002779446
20
95.9286809734
11
59.8561134872
21
99.2025643910
0
LINE
5
215
100
AcDbEntity
8
0
100
AcDbLine
62
7
6
CONTINUOUS
10
59.8561134872
20
99.2025643910
11
89.5744735907
21
166.7809534867
0
LINE
5
216
100
AcDbEntity
8
0
100
AcDbLine
62
7
6
CONTINUOUS
10
57.2251455213
20
123.3698819813
11
56.7340630087
21
123.4832573127
0
LINE
5
217
100
AcDbEntity
8
0
100
AcDbLine
62
7
6
CONTINUOUS
10
57.5247641768
20
124.6676729593
11
57.0336816642
21
124.7810482907
0
LINE
5
218
100
AcDbEntity
8
0
100
AcDbLine
62
7
6
CONTINUOUS
10
93.5036673195
20
166.2725384837
11
92.6689852473
21
174.1109340397
0
LINE
5
219
100
AcDbEntity
8
DEFAULT_1
100
AcDbLine
62
2
6
CENTER
10
108.7589357106
20
228.9167310590
11
108.7589357106
21
8.2164134586
0
LINE
5
21A
100
AcDbEntity
8
DEFAULT_1
100
AcDbLine
62
2
6
CENTER
10
108.7589357106
20
228.9167310590
11
108.7589357106
21
291.2076655461
0
LINE
5
21B
100
AcDbEntity
8
0
100
AcDbLine
62
7
6
CONTINUOUS
10
60.8315446757
20
138.9909129116
11
60.3404621631
21
139.1042882430
0
LINE
5
21C
100
AcDbEntity
8
0
100
AcDbLine
62
7
6
CONTINUOUS
10
61.0960871156
20
140.1367721078
11
60.6050046030
21
140.2501474392
0
LINE
5
21D
100
AcDbEntity
8
0
100
AcDbLine
62
7
6
CONTINUOUS
10
61.3606295555
20
141.2826313040
11
60.8695470429
21
141.3960066354
0
LINE
5
21E
100
AcDbEntity
8
0
100
AcDbLine
62
7
6
CONTINUOUS
10
61.3803295238
20
141.3679612414
11
60.8892470112
21
141.4813365728
0
LINE
5
21F
100
AcDbEntity
8
0
100
AcDbLine
62
7
6
CONTINUOUS
10
61.4197294622
20
141.5386211238
11
60.9286469495
21
141.6519964552
0
LINE
5
220
100
AcDbEntity
8
0
100
AcDbLine
62
7
6
CONTINUOUS
10
61.4985293354
20
141.8799408736
11
61.0074468227
21
141.9933162049
0
LINE
5
221
100
AcDbEntity
8
0
100
AcDbLine
62
7
6
CONTINUOUS
10
61.5773292155
20
142.2212606532
11
61.0862467029
21
142.3346359846
0
LINE
5
222
100
AcDbEntity
8
0
100
AcDbLine
62
7
6
CONTINUOUS
10
61.6758290484
20
142.6479103030
11
61.1847465358
21
142.7612856344
0
LINE
5
223
100
AcDbEntity
8
0
100
AcDbLine
62
7
6
CONTINUOUS
10
61.9713285747
20
143.9278593721
11
61.4802460621
21
144.0412347035
0
LINE
5
224
100
AcDbEntity
8
0
100
AcDbLine
62
7
6
CONTINUOUS
10
62.0698284628
20
144.3545092610
11
61.5787459502
21
144.4678845924
0
LINE
5
225
100
AcDbEntity
8
0
100
AcDbLine
62
7
6
CONTINUOUS
10
62.1486283291
20
144.6958289809
11
61.6575458165
21
144.8092043123
0
LINE
5
226
100
AcDbEntity
8
0
100
AcDbLine
62
7
6
CONTINUOUS
10
62.2274281955
20
145.0371487008
11
61.7363456828
21
145.1505240321
0
LINE
5
227
100
AcDbEntity
8
0
100
AcDbLine
62
7
6
CONTINUOUS
10
62.2668281286
20
145.2078085607
11
61.7757456160
21
145.3211838921
0
LINE
5
228
100
AcDbEntity
8
0
100
AcDbLine
62
7
6
CONTINUOUS
10
62.2865280952
20
145.2931384907
11
61.7954455825
21
145.4065138221
0
LINE
5
229
100
AcDbEntity
8
0
100
AcDbLine
62
7
6
CONTINUOUS
10
94.0135369309
20
161.4844163594
11
135.7329492805
21
107.1146196453
0
LINE
5
22A
100
AcDbEntity
8
0
100
AcDbLine
62
7
6
CONTINUOUS
10
156.2060583371
20
195.5583305176
11
156.2697542794
21
195.6492977506
0
LINE
5
22B
100
AcDbEntity
8
0
100
AcDbLine
62
7
6
CONTINUOUS
10
51.3629029563
20
107.2374236349
11
48.3889244854
21
105.5203963642
0
LINE
5
22C
100
AcDbEntity
8
0
100
AcDbLine
62
7
6
CONTINUOUS
10
66.2670695644
20
189.2072267268
11
79.9082504714
21
186.0579119660
0
LINE
5
22D
100
AcDbEntity
8
0
100
AcDbLine
62
7
6
CONTINUOUS
10
65.8558367688
20
192.3356198030
11
81.3050628170
21
187.7572893387
0
LINE
5
22E
100
AcDbEntity
8
0
100
AcDbLine
62
7
6
CONTINUOUS
10
166.0906999860
20
152.0137922597
11
163.5733265752
21
153.7764760984
0
LINE
5
22F
100
AcDbEntity
8
0
100
AcDbLine
62
7
6
CONTINUOUS
10
137.9960715766
20
214.4167310590
11
162.7880550410
21
214.4167310590
0
LINE
5
230
100
AcDbEntity
8
DEFAULT_1
100
AcDbLine
62
2
6
CENTER
10
108.7589357106
20
228.9167310590
11
42.7605163030
21
228.9167310590
0
LINE
5
231
100
AcDbEntity
8
DEFAULT_1
100
AcDbLine
62
2
6
CENTER
10
108.7589357106
20
228.9167310590
11
172.3437795792
21
228.9167310590
0
LINE
5
232
100
AcDbEntity
8
0
100
AcDbLine
62
7
6
CONTINUOUS
10
136.3054439040
20
246.4167310590
11
161.8922184590
21
246.4167310590
0
LINE
5
233
100
AcDbEntity
8
0
100
AcDbLine
62
7
6
CONTINUOUS
10
295.3771299929
20
4.1167310590
11
302.6649225616
21
5.2710040062
0
LINE
5
234
100
AcDbEntity
8
0
100
AcDbLine
62
7
6
CONTINUOUS
10
288.0893374243
20
5.2710040062
11
295.3771299929
21
4.1167310590
0
LINE
5
235
100
AcDbEntity
8
DEFAULT_2
100
AcDbLine
62
8
6
HIDDEN
10
295.3771299929
20
52.4167310590
11
284.4385232027
21
50.6842259446
0
LINE
5
236
100
AcDbEntity
8
DEFAULT_2
100
AcDbLine
62
8
6
HIDDEN
10
306.3157367831
20
50.6842259446
11
295.3771299929
21
52.4167310590
0
LINE
5
237
100
AcDbEntity
8
0
100
AcDbLine
62
7
6
CONTINUOUS
10
278.5872307095
20
215.7193056461
11
270.6670292763
21
212.8365880750
0
LINE
5
238
100
AcDbEntity
8
0
100
AcDbLine
62
7
6
CONTINUOUS
10
271.6019712823
20
189.2072267268
11
270.3771299929
21
186.0579119660
0
POLYLINE
5
239
100
AcDbEntity
8
0
100
AcDb2dPolyline
62
7
6
CONTINUOUS
66
1
70
0
0
VERTEX
5
23A
100
AcDbEntity
8
0
100
AcDbVertex
62
7
6
CONTINUOUS
100
AcDb2dVertex
10
278.7966553011
20
99.9765464394
0
VERTEX
5
23B
100
AcDbEntity
8
0
100
AcDbVertex
62
7
6
CONTINUOUS
100
AcDb2dVertex
10
279.0833419097
20
100.0041859985
0
VERTEX
5
23C
100
AcDbEntity
8
0
100
AcDbVertex
62
7
6
CONTINUOUS
100
AcDb2dVertex
10
279.3504645220
20
100.0798089255
0
VERTEX
5
23D
100
AcDbEntity
8
0
100
AcDbVertex
62
7
6
CONTINUOUS
100
AcDb2dVertex
10
279.6022230148
20
100.2060222611
0
VERTEX
5
23E
100
AcDbEntity
8
0
100
AcDbVertex
62
7
6
CONTINUOUS
100
AcDb2dVertex
10
279.8260177579
20
100.3750048832
0
VERTEX
5
23F
100
AcDbEntity
8
0
100
AcDbVertex
62
7
6
CONTINUOUS
100
AcDb2dVertex
10
280.0092491213
20
100.5789356700
0
VERTEX
5
240
100
AcDbEntity
8
0
100
AcDbVertex
62
7
6
CONTINUOUS
100
AcDb2dVertex
10
280.1561169816
20
100.8204216620
0
SEQEND
5
241
100
AcDbEntity
8
0
0
POLYLINE
5
242
100
AcDbEntity
8
0
100
AcDb2dPolyline
62
7
6
CONTINUOUS
66
1
70
0
0
VERTEX
5
243
100
AcDbEntity
8
0
100
AcDbVertex
62
7
6
CONTINUOUS
100
AcDb2dVertex
10
278.7966553011
20
100.6513996025
0
VERTEX
5
244
100
AcDbEntity
8
0
100
AcDbVertex
62
7
6
CONTINUOUS
100
AcDb2dVertex
10
279.0833419097
20
100.6790391616
0
VERTEX
5
245
100
AcDbEntity
8
0
100
AcDbVertex
62
7
6
CONTINUOUS
100
AcDb2dVertex
10
279.3504645220
20
100.7546620886
0
VERTEX
5
246
100
AcDbEntity
8
0
100
AcDbVertex
62
7
6
CONTINUOUS
100
AcDb2dVertex
10
279.6022230148
20
100.8808754241
0
VERTEX
5
247
100
AcDbEntity
8
0
100
AcDbVertex
62
7
6
CONTINUOUS
100
AcDb2dVertex
10
279.8260177579
20
101.0498580462
0
VERTEX
5
248
100
AcDbEntity
8
0
100
AcDbVertex
62
7
6
CONTINUOUS
100
AcDb2dVertex
10
280.0092491213
20
101.2537888330
0
VERTEX
5
249
100
AcDbEntity
8
0
100
AcDbVertex
62
7
6
CONTINUOUS
100
AcDb2dVertex
10
280.1561169816
20
101.4952748250
0
SEQEND
5
24A
100
AcDbEntity
8
0
0
LINE
5
24B
100
AcDbEntity
8
0
100
AcDbLine
62
7
6
CONTINUOUS
10
313.7281029232
20
99.9765464394
11
311.9576046847
21
99.9765464394
0
LINE
5
24C
100
AcDbEntity
8
0
100
AcDbLine
62
7
6
CONTINUOUS
10
277.0261570626
20
99.9765464394
11
278.7966553011
21
99.9765464394
0
LINE
5
24D
100
AcDbEntity
8
0
100
AcDbLine
62
7
6
CONTINUOUS
10
313.4563781350
20
100.6513996025
11
311.9576046847
21
100.6513996025
0
LINE
5
24E
100
AcDbEntity
8
0
100
AcDbLine
62
7
6
CONTINUOUS
10
277.2978818508
20
100.6513996025
11
278.7966553011
21
100.6513996025
0
POLYLINE
5
24F
100
AcDbEntity
8
0
100
AcDb2dPolyline
62
7
6
CONTINUOUS
66
1
70
0
0
VERTEX
5
250
100
AcDbEntity
8
0
100
AcDbVertex
62
7
6
CONTINUOUS
100
AcDb2dVertex
10
311.9576046847
20
99.9765464394
0
VERTEX
5
251
100
AcDbEntity
8
0
100
AcDbVertex
62
7
6
CONTINUOUS
100
AcDb2dVertex
10
311.6709180761
20
100.0041859985
0
VERTEX
5
252
100
AcDbEntity
8
0
100
AcDbVertex
62
7
6
CONTINUOUS
100
AcDb2dVertex
10
311.4037954638
20
100.0798089255
0
VERTEX
5
253
100
AcDbEntity
8
0
100
AcDbVertex
62
7
6
CONTINUOUS
100
AcDb2dVertex
10
311.1520369710
20
100.2060222611
0
VERTEX
5
254
100
AcDbEntity
8
0
100
AcDbVertex
62
7
6
CONTINUOUS
100
AcDb2dVertex
10
310.9282422279
20
100.3750048832
0
VERTEX
5
255
100
AcDbEntity
8
0
100
AcDbVertex
62
7
6
CONTINUOUS
100
AcDb2dVertex
10
310.7450108646
20
100.5789356700
0
VERTEX
5
256
100
AcDbEntity
8
0
100
AcDbVertex
62
7
6
CONTINUOUS
100
AcDb2dVertex
10
310.5981430042
20
100.8204216620
0
SEQEND
5
257
100
AcDbEntity
8
0
0
POLYLINE
5
258
100
AcDbEntity
8
0
100
AcDb2dPolyline
62
7
6
CONTINUOUS
66
1
70
0
0
VERTEX
5
259
100
AcDbEntity
8
0
100
AcDbVertex
62
7
6
CONTINUOUS
100
AcDb2dVertex
10
311.9576046847
20
100.6513996025
0
VERTEX
5
25A
100
AcDbEntity
8
0
100
AcDbVertex
62
7
6
CONTINUOUS
100
AcDb2dVertex
10
311.6709180761
20
100.6790391616
0
VERTEX
5
25B
100
AcDbEntity
8
0
100
AcDbVertex
62
7
6
CONTINUOUS
100
AcDb2dVertex
10
311.4037954638
20
100.7546620886
0
VERTEX
5
25C
100
AcDbEntity
8
0
100
AcDbVertex
62
7
6
CONTINUOUS
100
AcDb2dVertex
10
311.1520369710
20
100.8808754241
0
VERTEX
5
25D
100
AcDbEntity
8
0
100
AcDbVertex
62
7
6
CONTINUOUS
100
AcDb2dVertex
10
310.9282422279
20
101.0498580462
0
VERTEX
5
25E
100
AcDbEntity
8
0
100
AcDbVertex
62
7
6
CONTINUOUS
100
AcDb2dVertex
10
310.7450108646
20
101.2537888330
0
VERTEX
5
25F
100
AcDbEntity
8
0
100
AcDbVertex
62
7
6
CONTINUOUS
100
AcDb2dVertex
10
310.5981430042
20
101.4952748250
0
SEQEND
5
260
100
AcDbEntity
8
0
0
LINE
5
261
100
AcDbEntity
8
0
100
AcDbLine
62
7
6
CONTINUOUS
10
288.0893374243
20
5.2710040062
11
282.6133704834
21
27.2339078053
0
LINE
5
262
100
AcDbEntity
8
0
100
AcDbLine
62
7
6
CONTINUOUS
10
267.3771299929
20
208.1381249711
11
267.3771299929
21
150.2693850204
0
LINE
5
263
100
AcDbEntity
8
0
100
AcDbLine
62
7
6
CONTINUOUS
10
283.3053588814
20
105.9953159047
11
295.3771299929
21
107.9072966160
0
LINE
5
264
100
AcDbEntity
8
0
100
AcDbLine
62
7
6
CONTINUOUS
10
297.8771299929
20
108.5954918156
11
292.8771299929
21
108.5954918156
0
LINE
5
265
100
AcDbEntity
8
0
100
AcDbLine
62
7
6
CONTINUOUS
10
292.8771299929
20
109.7202470873
11
297.8771299929
21
109.7202470873
0
LINE
5
266
100
AcDbEntity
8
0
100
AcDbLine
62
7
6
CONTINUOUS
10
299.3771299929
20
113.6177273464
11
291.3771299929
21
113.6177273464
0
LINE
5
267
100
AcDbEntity
8
0
100
AcDbLine
62
7
6
CONTINUOUS
10
291.3771299929
20
114.2925805095
11
299.3771299929
21
114.2925805095
0
LINE
5
268
100
AcDbEntity
8
0
100
AcDbLine
62
7
6
CONTINUOUS
10
295.3771299929
20
107.9072966160
11
307.4489011045
21
105.9953159047
0
LINE
5
269
100
AcDbEntity
8
0
100
AcDbLine
62
7
6
CONTINUOUS
10
276.4768207063
20
99.2025643910
11
270.3606802211
21
119.1883820346
0
LINE
5
26A
100
AcDbEntity
8
0
100
AcDbLine
62
7
6
CONTINUOUS
10
276.4768207063
20
99.2025643910
11
276.9794045182
21
97.3749693276
0
LINE
5
26B
100
AcDbEntity
8
0
100
AcDbLine
62
7
6
CONTINUOUS
10
277.4322791652
20
98.4997245993
11
277.0261570626
21
99.9765464394
0
LINE
5
26C
100
AcDbEntity
8
0
100
AcDbLine
62
7
6
CONTINUOUS
10
273.1891165012
20
115.5925081150
11
277.2978818508
21
100.6513996025
0
LINE
5
26D
100
AcDbEntity
8
0
100
AcDbLine
62
7
6
CONTINUOUS
10
272.9771299929
20
129.6430032027
11
272.9885937331
21
129.4642119075
0
LINE
5
26E
100
AcDbEntity
8
0
100
AcDbLine
62
7
6
CONTINUOUS
10
272.9781587363
20
123.0415775931
11
272.9771299929
21
123.0952363674
0
LINE
5
26F
100
AcDbEntity
8
0
100
AcDbLine
62
7
6
CONTINUOUS
10
269.9785502696
20
121.5854140164
11
269.1737364985
21
166.7809534867
0
LINE
5
270
100
AcDbEntity
8
0
100
AcDbLine
62
7
6
CONTINUOUS
10
271.0770393011
20
138.6319269514
11
271.0770393011
21
145.9596076150
0
LINE
5
271
100
AcDbEntity
8
0
100
AcDbLine
62
7
6
CONTINUOUS
10
277.3771299929
20
36.0251870402
11
277.3771299929
21
41.0263065321
0
LINE
5
272
100
AcDbEntity
8
0
100
AcDbLine
62
7
6
CONTINUOUS
10
277.3771299929
20
41.1055659702
11
277.3771299929
21
96.6317835656
0
POLYLINE
5
273
100
AcDbEntity
8
0
100
AcDb2dPolyline
62
7
6
CONTINUOUS
66
1
70
0
0
VERTEX
5
274
100
AcDbEntity
8
0
100
AcDbVertex
62
7
6
CONTINUOUS
100
AcDb2dVertex
10
300.0811299929
20
124.7810482907
0
VERTEX
5
275
100
AcDbEntity
8
0
100
AcDbVertex
62
7
6
CONTINUOUS
100
AcDb2dVertex
10
300.4315031287
20
124.8162468478
0
VERTEX
5
276
100
AcDbEntity
8
0
100
AcDbVertex
62
7
6
CONTINUOUS
100
AcDb2dVertex
10
300.7561835676
20
124.9118832972
0
VERTEX
5
277
100
AcDbEntity
8
0
100
AcDbVertex
62
7
6
CONTINUOUS
100
AcDb2dVertex
10
301.0606166138
20
125.0715028220
0
VERTEX
5
278
100
AcDbEntity
8
0
100
AcDbVertex
62
7
6
CONTINUOUS
100
AcDb2dVertex
10
301.3284663549
20
125.2844698731
0
VERTEX
5
279
100
AcDbEntity
8
0
100
AcDbVertex
62
7
6
CONTINUOUS
100
AcDb2dVertex
10
301.5470353143
20
125.5454546427
0
VERTEX
5
27A
100
AcDbEntity
8
0
100
AcDbVertex
62
7
6
CONTINUOUS
100
AcDb2dVertex
10
301.7108534883
20
125.8420850897
0
VERTEX
5
27B
100
AcDbEntity
8
0
100
AcDbVertex
62
7
6
CONTINUOUS
100
AcDb2dVertex
10
301.8090055692
20
126.1584439900
0
VERTEX
5
27C
100
AcDbEntity
8
0
100
AcDbVertex
62
7
6
CONTINUOUS
100
AcDb2dVertex
10
301.8451299929
20
126.4998370850
0
SEQEND
5
27D
100
AcDbEntity
8
0
0
POLYLINE
5
27E
100
AcDbEntity
8
0
100
AcDb2dPolyline
62
7
6
CONTINUOUS
66
1
70
0
0
VERTEX
5
27F
100
AcDbEntity
8
0
100
AcDbVertex
62
7
6
CONTINUOUS
100
AcDb2dVertex
10
297.0235299929
20
124.6676729593
0
VERTEX
5
280
100
AcDbEntity
8
0
100
AcDbVertex
62
7
6
CONTINUOUS
100
AcDb2dVertex
10
296.8133061114
20
124.6465538250
0
VERTEX
5
281
100
AcDbEntity
8
0
100
AcDbVertex
62
7
6
CONTINUOUS
100
AcDb2dVertex
10
296.6184978481
20
124.5891719554
0
VERTEX
5
282
100
AcDbEntity
8
0
100
AcDbVertex
62
7
6
CONTINUOUS
100
AcDb2dVertex
10
296.4358380203
20
124.4934002405
0
VERTEX
5
283
100
AcDbEntity
8
0
100
AcDbVertex
62
7
6
CONTINUOUS
100
AcDb2dVertex
10
296.2751281757
20
124.3656200098
0
VERTEX
5
284
100
AcDbEntity
8
0
100
AcDbVertex
62
7
6
CONTINUOUS
100
AcDb2dVertex
10
296.1439868001
20
124.2090291481
0
VERTEX
5
285
100
AcDbEntity
8
0
100
AcDbVertex
62
7
6
CONTINUOUS
100
AcDb2dVertex
10
296.0456958957
20
124.0310508799
0
VERTEX
5
286
100
AcDbEntity
8
0
100
AcDbVertex
62
7
6
CONTINUOUS
100
AcDb2dVertex
10
295.9868046472
20
123.8412355397
0
VERTEX
5
287
100
AcDbEntity
8
0
100
AcDbVertex
62
7
6
CONTINUOUS
100
AcDb2dVertex
10
295.9769939371
20
123.7485196339
0
SEQEND
5
288
100
AcDbEntity
8
0
0
POLYLINE
5
289
100
AcDbEntity
8
0
100
AcDb2dPolyline
62
7
6
CONTINUOUS
66
1
70
0
0
VERTEX
5
28A
100
AcDbEntity
8
0
100
AcDbVertex
62
7
6
CONTINUOUS
100
AcDb2dVertex
10
300.0811299929
20
124.6676729593
0
VERTEX
5
28B
100
AcDbEntity
8
0
100
AcDbVertex
62
7
6
CONTINUOUS
100
AcDb2dVertex
10
300.3603528283
20
124.6897331616
0
VERTEX
5
28C
100
AcDbEntity
8
0
100
AcDbVertex
62
7
6
CONTINUOUS
100
AcDb2dVertex
10
300.6262359710
20
124.7517964706
0
VERTEX
5
28D
100
AcDbEntity
8
0
100
AcDbVertex
62
7
6
CONTINUOUS
100
AcDb2dVertex
10
300.8817878985
20
124.8553564945
0
VERTEX
5
28E
100
AcDbEntity
8
0
100
AcDbVertex
62
7
6
CONTINUOUS
100
AcDb2dVertex
10
301.1179831780
20
124.9959324093
0
VERTEX
5
28F
100
AcDbEntity
8
0
100
AcDbVertex
62
7
6
CONTINUOUS
100
AcDb2dVertex
10
301.3281839176
20
125.1713697402
0
VERTEX
5
290
100
AcDbEntity
8
0
100
AcDbVertex
62
7
6
CONTINUOUS
100
AcDb2dVertex
10
301.5082359710
20
125.3761830485
0
VERTEX
5
291
100
AcDbEntity
8
0
100
AcDbVertex
62
7
6
CONTINUOUS
100
AcDb2dVertex
10
301.6525096098
20
125.6063246582
0
VERTEX
5
292
100
AcDbEntity
8
0
100
AcDbVertex
62
7
6
CONTINUOUS
100
AcDb2dVertex
10
301.7587936877
20
125.8553268064
0
VERTEX
5
293
100
AcDbEntity
8
0
100
AcDbVertex
62
7
6
CONTINUOUS
100
AcDb2dVertex
10
301.8224895167
20
126.1143953813
0
VERTEX
5
294
100
AcDbEntity
8
0
100
AcDbVertex
62
7
6
CONTINUOUS
100
AcDb2dVertex
10
301.8451299929
20
126.3864617536
0
SEQEND
5
295
100
AcDbEntity
8
0
0
POLYLINE
5
296
100
AcDbEntity
8
0
100
AcDb2dPolyline
62
7
6
CONTINUOUS
66
1
70
0
0
VERTEX
5
297
100
AcDbEntity
8
0
100
AcDbVertex
62
7
6
CONTINUOUS
100
AcDb2dVertex
10
297.0235299929
20
125.9269074869
0
VERTEX
5
298
100
AcDbEntity
8
0
100
AcDbVertex
62
7
6
CONTINUOUS
100
AcDb2dVertex
10
296.7131747116
20
125.9055078660
0
VERTEX
5
299
100
AcDbEntity
8
0
100
AcDbVertex
62
7
6
CONTINUOUS
100
AcDb2dVertex
10
296.4143577699
20
125.8444332931
0
VERTEX
5
29A
100
AcDbEntity
8
0
100
AcDbVertex
62
7
6
CONTINUOUS
100
AcDb2dVertex
10
296.1244131308
20
125.7425417481
0
VERTEX
5
29B
100
AcDbEntity
8
0
100
AcDbVertex
62
7
6
CONTINUOUS
100
AcDb2dVertex
10
295.8513389055
20
125.6032592912
0
VERTEX
5
29C
100
AcDbEntity
8
0
100
AcDbVertex
62
7
6
CONTINUOUS
100
AcDb2dVertex
10
295.6031332053
20
125.4300119824
0
VERTEX
5
29D
100
AcDbEntity
8
0
100
AcDbVertex
62
7
6
CONTINUOUS
100
AcDb2dVertex
10
295.3771299929
20
125.2216578019
0
SEQEND
5
29E
100
AcDbEntity
8
0
0
LINE
5
29F
100
AcDbEntity
8
0
100
AcDbLine
62
7
6
CONTINUOUS
10
294.7891299929
20
123.3698819813
11
295.9651299929
21
123.3698819813
0
LINE
5
2A0
100
AcDbEntity
8
0
100
AcDbLine
62
7
6
CONTINUOUS
10
294.7891299929
20
123.4832573127
11
295.9651299929
21
123.4832573127
0
LINE
5
2A1
100
AcDbEntity
8
0
100
AcDbLine
62
7
6
CONTINUOUS
10
290.6731299929
20
124.6676729593
11
293.7307299929
21
124.6676729593
0
LINE
5
2A2
100
AcDbEntity
8
0
100
AcDbLine
62
7
6
CONTINUOUS
10
297.0235299929
20
124.6676729593
11
300.0811299929
21
124.6676729593
0
LINE
5
2A3
100
AcDbEntity
8
0
100
AcDbLine
62
7
6
CONTINUOUS
10
290.6731299929
20
124.7810482907
11
293.7307299929
21
124.7810482907
0
LINE
5
2A4
100
AcDbEntity
8
0
100
AcDbLine
62
7
6
CONTINUOUS
10
297.0235299929
20
124.7810482907
11
300.0811299929
21
124.7810482907
0
LINE
5
2A5
100
AcDbEntity
8
0
100
AcDbLine
62
7
6
CONTINUOUS
10
300.0811299929
20
125.9269074869
11
297.0235299929
21
125.9269074869
0
LINE
5
2A6
100
AcDbEntity
8
0
100
AcDbLine
62
7
6
CONTINUOUS
10
293.7307299929
20
125.9269074869
11
290.6731299929
21
125.9269074869
0
LINE
5
2A7
100
AcDbEntity
8
0
100
AcDbLine
62
7
6
CONTINUOUS
10
293.2603299929
20
126.9593913517
11
297.4939299929
21
126.9593913517
0
LINE
5
2A8
100
AcDbEntity
8
0
100
AcDbLine
62
7
6
CONTINUOUS
10
293.2603299929
20
127.0727666831
11
297.4939299929
21
127.0727666831
0
POLYLINE
5
2A9
100
AcDbEntity
8
0
100
AcDb2dPolyline
62
7
6
CONTINUOUS
66
1
70
0
0
VERTEX
5
2AA
100
AcDbEntity
8
0
100
AcDbVertex
62
7
6
CONTINUOUS
100
AcDb2dVertex
10
293.7307299929
20
124.7810482907
0
VERTEX
5
2AB
100
AcDbEntity
8
0
100
AcDbVertex
62
7
6
CONTINUOUS
100
AcDb2dVertex
10
294.0130548320
20
124.7418795549
0
VERTEX
5
2AC
100
AcDbEntity
8
0
100
AcDbVertex
62
7
6
CONTINUOUS
100
AcDb2dVertex
10
294.2599299929
20
124.6428838699
0
VERTEX
5
2AD
100
AcDbEntity
8
0
100
AcDbVertex
62
7
6
CONTINUOUS
100
AcDb2dVertex
10
294.4778432171
20
124.4777397747
0
VERTEX
5
2AE
100
AcDbEntity
8
0
100
AcDbVertex
62
7
6
CONTINUOUS
100
AcDb2dVertex
10
294.6473312803
20
124.2654116524
0
VERTEX
5
2AF
100
AcDbEntity
8
0
100
AcDbVertex
62
7
6
CONTINUOUS
100
AcDb2dVertex
10
294.7489309584
20
124.0248638859
0
VERTEX
5
2B0
100
AcDbEntity
8
0
100
AcDbVertex
62
7
6
CONTINUOUS
100
AcDb2dVertex
10
294.7891299929
20
123.7497750141
0
SEQEND
5
2B1
100
AcDbEntity
8
0
0
POLYLINE
5
2B2
100
AcDbEntity
8
0
100
AcDb2dPolyline
62
7
6
CONTINUOUS
66
1
70
0
0
VERTEX
5
2B3
100
AcDbEntity
8
0
100
AcDbVertex
62
7
6
CONTINUOUS
100
AcDb2dVertex
10
290.6731299929
20
125.9269074869
0
VERTEX
5
2B4
100
AcDbEntity
8
0
100
AcDbVertex
62
7
6
CONTINUOUS
100
AcDb2dVertex
10
290.5162828601
20
125.9486678957
0
VERTEX
5
2B5
100
AcDbEntity
8
0
100
AcDbVertex
62
7
6
CONTINUOUS
100
AcDb2dVertex
10
290.3791299929
20
126.0036654984
0
VERTEX
5
2B6
100
AcDbEntity
8
0
100
AcDbVertex
62
7
6
CONTINUOUS
100
AcDb2dVertex
10
290.2580670906
20
126.0954122180
0
VERTEX
5
2B7
100
AcDbEntity
8
0
100
AcDbVertex
62
7
6
CONTINUOUS
100
AcDb2dVertex
10
290.1639070555
20
126.2133722859
0
VERTEX
5
2B8
100
AcDbEntity
8
0
100
AcDbVertex
62
7
6
CONTINUOUS
100
AcDb2dVertex
10
290.1074627898
20
126.3470099340
0
SEQEND
5
2B9
100
AcDbEntity
8
0
0
POLYLINE
5
2BA
100
AcDbEntity
8
0
100
AcDb2dPolyline
62
7
6
CONTINUOUS
66
1
70
0
0
VERTEX
5
2BB
100
AcDbEntity
8
0
100
AcDbVertex
62
7
6
CONTINUOUS
100
AcDb2dVertex
10
316.0996119832
20
116.0350194342
0
VERTEX
5
2BC
100
AcDbEntity
8
0
100
AcDbVertex
62
7
6
CONTINUOUS
100
AcDb2dVertex
10
316.4581917302
20
115.9079686233
0
VERTEX
5
2BD
100
AcDbEntity
8
0
100
AcDbVertex
62
7
6
CONTINUOUS
100
AcDb2dVertex
10
316.8219735628
20
115.7918664665
0
VERTEX
5
2BE
100
AcDbEntity
8
0
100
AcDbVertex
62
7
6
CONTINUOUS
100
AcDb2dVertex
10
317.1909574809
20
115.6867129637
0
VERTEX
5
2BF
100
AcDbEntity
8
0
100
AcDbVertex
62
7
6
CONTINUOUS
100
AcDb2dVertex
10
317.5651434846
20
115.5925081150
0
SEQEND
5
2C0
100
AcDbEntity
8
0
0
POLYLINE
5
2C1
100
AcDbEntity
8
0
100
AcDb2dPolyline
62
7
6
CONTINUOUS
66
1
70
0
0
VERTEX
5
2C2
100
AcDbEntity
8
0
100
AcDbVertex
62
7
6
CONTINUOUS
100
AcDb2dVertex
10
299.0906554845
20
107.9930172499
0
VERTEX
5
2C3
100
AcDbEntity
8
0
100
AcDbVertex
62
7
6
CONTINUOUS
100
AcDb2dVertex
10
298.9375499969
20
108.1671782264
0
VERTEX
5
2C4
100
AcDbEntity
8
0
100
AcDbVertex
62
7
6
CONTINUOUS
100
AcDb2dVertex
10
298.7588078713
20
108.3163596302
0
VERTEX
5
2C5
100
AcDbEntity
8
0
100
AcDbVertex
62
7
6
CONTINUOUS
100
AcDb2dVertex
10
298.5579615453
20
108.4358969727
0
VERTEX
5
2C6
100
AcDbEntity
8
0
100
AcDbVertex
62
7
6
CONTINUOUS
100
AcDb2dVertex
10
298.3406554845
20
108.5239582175
0
VERTEX
5
2C7
100
AcDbEntity
8
0
100
AcDbVertex
62
7
6
CONTINUOUS
100
AcDb2dVertex
10
298.1145643768
20
108.5767331402
0
VERTEX
5
2C8
100
AcDbEntity
8
0
100
AcDbVertex
62
7
6
CONTINUOUS
100
AcDb2dVertex
10
297.8771299929
20
108.5954918156
0
SEQEND
5
2C9
100
AcDbEntity
8
0
0
LINE
5
2CA
100
AcDbEntity
8
0
100
AcDbLine
62
7
6
CONTINUOUS
10
269.5819137991
20
143.8591373368
11
267.4977447513
21
149.5853447338
0
POLYLINE
5
2CB
100
AcDbEntity
8
0
100
AcDb2dPolyline
62
7
6
CONTINUOUS
66
1
70
0
0
VERTEX
5
2CC
100
AcDbEntity
8
0
100
AcDbVertex
62
7
6
CONTINUOUS
100
AcDb2dVertex
10
288.9091299929
20
126.4998370850
0
VERTEX
5
2CD
100
AcDbEntity
8
0
100
AcDbVertex
62
7
6
CONTINUOUS
100
AcDb2dVertex
10
288.9452544166
20
126.1584439900
0
VERTEX
5
2CE
100
AcDbEntity
8
0
100
AcDbVertex
62
7
6
CONTINUOUS
100
AcDb2dVertex
10
289.0434064976
20
125.8420850897
0
VERTEX
5
2CF
100
AcDbEntity
8
0
100
AcDbVertex
62
7
6
CONTINUOUS
100
AcDb2dVertex
10
289.2072246716
20
125.5454546427
0
VERTEX
5
2D0
100
AcDbEntity
8
0
100
AcDbVertex
62
7
6
CONTINUOUS
100
AcDb2dVertex
10
289.4257936309
20
125.2844698731
0
VERTEX
5
2D1
100
AcDbEntity
8
0
100
AcDbVertex
62
7
6
CONTINUOUS
100
AcDb2dVertex
10
289.6936433720
20
125.0715028220
0
VERTEX
5
2D2
100
AcDbEntity
8
0
100
AcDbVertex
62
7
6
CONTINUOUS
100
AcDb2dVertex
10
289.9980764182
20
124.9118832972
0
VERTEX
5
2D3
100
AcDbEntity
8
0
100
AcDbVertex
62
7
6
CONTINUOUS
100
AcDb2dVertex
10
290.3227568571
20
124.8162468478
0
VERTEX
5
2D4
100
AcDbEntity
8
0
100
AcDbVertex
62
7
6
CONTINUOUS
100
AcDb2dVertex
10
290.6731299929
20
124.7810482907
0
SEQEND
5
2D5
100
AcDbEntity
8
0
0
LINE
5
2D6
100
AcDbEntity
8
0
100
AcDbLine
62
7
6
CONTINUOUS
10
281.8771299929
20
220.4177687500
11
281.8771299929
21
284.7785299528
0
LINE
5
2D7
100
AcDbEntity
8
0
100
AcDbLine
62
7
6
CONTINUOUS
10
282.3771299929
20
154.2879926977
11
282.3771299929
21
179.3931998470
0
LINE
5
2D8
100
AcDbEntity
8
0
100
AcDbLine
62
7
6
CONTINUOUS
10
283.3771299929
20
192.3356198030
11
283.3771299929
21
189.3353764029
0
LINE
5
2D9
100
AcDbEntity
8
0
100
AcDbLine
62
7
6
CONTINUOUS
10
283.3771299929
20
179.3931998470
11
283.3771299929
21
158.3174866535
0
POLYLINE
5
2DA
100
AcDbEntity
8
0
100
AcDb2dPolyline
62
7
6
CONTINUOUS
66
1
70
0
0
VERTEX
5
2DB
100
AcDbEntity
8
0
100
AcDbVertex
62
7
6
CONTINUOUS
100
AcDb2dVertex
10
319.6772206847
20
138.6319269514
0
VERTEX
5
2DC
100
AcDbEntity
8
0
100
AcDbVertex
62
7
6
CONTINUOUS
100
AcDb2dVertex
10
318.7574445262
20
138.5444325937
0
VERTEX
5
2DD
100
AcDbEntity
8
0
100
AcDbVertex
62
7
6
CONTINUOUS
100
AcDb2dVertex
10
317.8545843565
20
138.3905738607
0
VERTEX
5
2DE
100
AcDbEntity
8
0
100
AcDbVertex
62
7
6
CONTINUOUS
100
AcDb2dVertex
10
316.9686401755
20
138.1703507525
0
VERTEX
5
2DF
100
AcDbEntity
8
0
100
AcDbVertex
62
7
6
CONTINUOUS
100
AcDb2dVertex
10
316.0996119832
20
137.8837632691
0
SEQEND
5
2E0
100
AcDbEntity
8
0
0
LINE
5
2E1
100
AcDbEntity
8
0
100
AcDbLine
62
7
6
CONTINUOUS
10
296.5531299929
20
127.9894540400
11
294.2011299929
21
127.9894540400
0
LINE
5
2E2
100
AcDbEntity
8
0
100
AcDbLine
62
7
6
CONTINUOUS
10
294.9067299929
20
129.7094534225
11
295.8475299929
21
129.7094534225
0
LINE
5
2E3
100
AcDbEntity
8
0
100
AcDbLine
62
7
6
CONTINUOUS
10
294.9067299929
20
129.8228287539
11
295.8475299929
21
129.8228287539
0
LINE
5
2E4
100
AcDbEntity
8
0
100
AcDbLine
62
7
6
CONTINUOUS
10
294.2011299929
20
130.6261407795
11
294.9067299929
21
130.6261407795
0
LINE
5
2E5
100
AcDbEntity
8
0
100
AcDbLine
62
7
6
CONTINUOUS
10
295.8475299929
20
130.6261407795
11
296.5531299929
21
130.6261407795
0
LINE
5
2E6
100
AcDbEntity
8
0
100
AcDbLine
62
7
6
CONTINUOUS
10
294.2011299929
20
130.7395161109
11
294.9067299929
21
130.7395161109
0
LINE
5
2E7
100
AcDbEntity
8
0
100
AcDbLine
62
7
6
CONTINUOUS
10
295.8475299929
20
130.7395161109
11
296.5531299929
21
130.7395161109
0
LINE
5
2E8
100
AcDbEntity
8
0
100
AcDbLine
62
7
6
CONTINUOUS
10
297.4939299929
20
131.6562034678
11
295.8475299929
21
131.6562034678
0
LINE
5
2E9
100
AcDbEntity
8
0
100
AcDbLine
62
7
6
CONTINUOUS
10
294.9067299929
20
131.6562034678
11
293.2603299929
21
131.6562034678
0
LINE
5
2EA
100
AcDbEntity
8
0
100
AcDbLine
62
7
6
CONTINUOUS
10
293.2603299929
20
132.6886873326
11
294.9067299929
21
132.6886873326
0
LINE
5
2EB
100
AcDbEntity
8
0
100
AcDbLine
62
7
6
CONTINUOUS
10
295.8475299929
20
132.6886873326
11
297.4939299929
21
132.6886873326
0
LINE
5
2EC
100
AcDbEntity
8
0
100
AcDbLine
62
7
6
CONTINUOUS
10
293.2603299929
20
132.8020626640
11
294.9067299929
21
132.8020626640
0
LINE
5
2ED
100
AcDbEntity
8
0
100
AcDbLine
62
7
6
CONTINUOUS
10
295.8475299929
20
132.8020626640
11
297.4939299929
21
132.8020626640
0
LINE
5
2EE
100
AcDbEntity
8
0
100
AcDbLine
62
7
6
CONTINUOUS
10
296.5531299929
20
133.7187500209
11
295.8475299929
21
133.7187500209
0
LINE
5
2EF
100
AcDbEntity
8
0
100
AcDbLine
62
7
6
CONTINUOUS
10
294.9067299929
20
133.7187500209
11
294.2011299929
21
133.7187500209
0
LINE
5
2F0
100
AcDbEntity
8
0
100
AcDbLine
62
7
6
CONTINUOUS
10
295.8475299929
20
134.6354373779
11
294.9067299929
21
134.6354373779
0
LINE
5
2F1
100
AcDbEntity
8
0
100
AcDbLine
62
7
6
CONTINUOUS
10
294.2011299929
20
136.3554367604
11
296.5531299929
21
136.3554367604
0
LINE
5
2F2
100
AcDbEntity
8
0
100
AcDbLine
62
7
6
CONTINUOUS
10
294.2011299929
20
136.4688120918
11
296.5531299929
21
136.4688120918
0
POLYLINE
5
2F3
100
AcDbEntity
8
0
100
AcDb2dPolyline
62
7
6
CONTINUOUS
66
1
70
0
0
VERTEX
5
2F4
100
AcDbEntity
8
0
100
AcDbVertex
62
7
6
CONTINUOUS
100
AcDb2dVertex
10
271.0770393011
20
138.6319269514
0
VERTEX
5
2F5
100
AcDbEntity
8
0
100
AcDbVertex
62
7
6
CONTINUOUS
100
AcDb2dVertex
10
271.9968154596
20
138.5444325937
0
VERTEX
5
2F6
100
AcDbEntity
8
0
100
AcDbVertex
62
7
6
CONTINUOUS
100
AcDb2dVertex
10
272.8996756294
20
138.3905738607
0
VERTEX
5
2F7
100
AcDbEntity
8
0
100
AcDbVertex
62
7
6
CONTINUOUS
100
AcDb2dVertex
10
273.7856198103
20
138.1703507525
0
VERTEX
5
2F8
100
AcDbEntity
8
0
100
AcDbVertex
62
7
6
CONTINUOUS
100
AcDb2dVertex
10
274.6546480026
20
137.8837632691
0
SEQEND
5
2F9
100
AcDbEntity
8
0
0
POLYLINE
5
2FA
100
AcDbEntity
8
0
100
AcDb2dPolyline
62
7
6
CONTINUOUS
66
1
70
0
0
VERTEX
5
2FB
100
AcDbEntity
8
0
100
AcDbVertex
62
7
6
CONTINUOUS
100
AcDb2dVertex
10
274.9511226493
20
137.7691299275
0
VERTEX
5
2FC
100
AcDbEntity
8
0
100
AcDbVertex
62
7
6
CONTINUOUS
100
AcDb2dVertex
10
276.0227170498
20
137.2765771948
0
VERTEX
5
2FD
100
AcDbEntity
8
0
100
AcDbVertex
62
7
6
CONTINUOUS
100
AcDb2dVertex
10
277.0303150883
20
136.6901792801
0
VERTEX
5
2FE
100
AcDbEntity
8
0
100
AcDbVertex
62
7
6
CONTINUOUS
100
AcDb2dVertex
10
277.9782951921
20
136.0064881657
0
VERTEX
5
2FF
100
AcDbEntity
8
0
100
AcDbVertex
62
7
6
CONTINUOUS
100
AcDb2dVertex
10
278.8535220799
20
135.2358479051
0
VERTEX
5
300
100
AcDbEntity
8
0
100
AcDbVertex
62
7
6
CONTINUOUS
100
AcDb2dVertex
10
279.6466661864
20
134.3839878467
0
VERTEX
5
301
100
AcDbEntity
8
0
100
AcDbVertex
62
7
6
CONTINUOUS
100
AcDb2dVertex
10
280.3506887910
20
133.4613040877
0
VERTEX
5
302
100
AcDbEntity
8
0
100
AcDbVertex
62
7
6
CONTINUOUS
100
AcDb2dVertex
10
280.9565386078
20
132.4773738288
0
VERTEX
5
303
100
AcDbEntity
8
0
100
AcDbVertex
62
7
6
CONTINUOUS
100
AcDb2dVertex
10
281.4609237679
20
131.4403831066
0
VERTEX
5
304
100
AcDbEntity
8
0
100
AcDbVertex
62
7
6
CONTINUOUS
100
AcDb2dVertex
10
281.8586158927
20
130.3570814767
0
VERTEX
5
305
100
AcDbEntity
8
0
100
AcDbVertex
62
7
6
CONTINUOUS
100
AcDb2dVertex
10
282.1463732263
20
129.2413555825
0
VERTEX
5
306
100
AcDbEntity
8
0
100
AcDbVertex
62
7
6
CONTINUOUS
100
AcDb2dVertex
10
282.3190467905
20
128.1066430043
0
VERTEX
5
307
100
AcDbEntity
8
0
100
AcDbVertex
62
7
6
CONTINUOUS
100
AcDb2dVertex
10
282.3771298736
20
126.9610404865
0
VERTEX
5
308
100
AcDbEntity
8
0
100
AcDbVertex
62
7
6
CONTINUOUS
100
AcDb2dVertex
10
282.3186750526
20
125.8126150417
0
VERTEX
5
309
100
AcDbEntity
8
0
100
AcDbVertex
62
7
6
CONTINUOUS
100
AcDb2dVertex
10
282.1458554837
20
124.6748934460
0
VERTEX
5
30A
100
AcDbEntity
8
0
100
AcDbVertex
62
7
6
CONTINUOUS
100
AcDb2dVertex
10
281.8587750826
20
123.5611126374
0
VERTEX
5
30B
100
AcDbEntity
8
0
100
AcDbVertex
62
7
6
CONTINUOUS
100
AcDb2dVertex
10
281.4616941471
20
122.4802091422
0
VERTEX
5
30C
100
AcDbEntity
8
0
100
AcDbVertex
62
7
6
CONTINUOUS
100
AcDb2dVertex
10
280.9569087535
20
121.4424177882
0
VERTEX
5
30D
100
AcDbEntity
8
0
100
AcDbVertex
62
7
6
CONTINUOUS
100
AcDb2dVertex
10
280.3504154829
20
120.4570806092
0
VERTEX
5
30E
100
AcDbEntity
8
0
100
AcDbVertex
62
7
6
CONTINUOUS
100
AcDb2dVertex
10
279.6458323147
20
119.5338784348
0
VERTEX
5
30F
100
AcDbEntity
8
0
100
AcDbVertex
62
7
6
CONTINUOUS
100
AcDb2dVertex
10
278.8525911298
20
118.6820297052
0
VERTEX
5
310
100
AcDbEntity
8
0
100
AcDbVertex
62
7
6
CONTINUOUS
100
AcDb2dVertex
10
277.9787635643
20
117.9124432831
0
VERTEX
5
311
100
AcDbEntity
8
0
100
AcDbVertex
62
7
6
CONTINUOUS
100
AcDb2dVertex
10
277.0320483325
20
117.2297287299
0
VERTEX
5
312
100
AcDbEntity
8
0
100
AcDbVertex
62
7
6
CONTINUOUS
100
AcDb2dVertex
10
276.0241333516
20
116.6431626252
0
VERTEX
5
313
100
AcDbEntity
8
0
100
AcDbVertex
62
7
6
CONTINUOUS
100
AcDb2dVertex
10
274.9511226493
20
116.1496527758
0
SEQEND
5
314
100
AcDbEntity
8
0
0
POLYLINE
5
315
100
AcDbEntity
8
0
100
AcDb2dPolyline
62
7
6
CONTINUOUS
66
1
70
0
0
VERTEX
5
316
100
AcDbEntity
8
0
100
AcDbVertex
62
7
6
CONTINUOUS
100
AcDb2dVertex
10
315.8031373365
20
116.1496527758
0
VERTEX
5
317
100
AcDbEntity
8
0
100
AcDbVertex
62
7
6
CONTINUOUS
100
AcDb2dVertex
10
315.8738356214
20
116.1136959699
0
VERTEX
5
318
100
AcDbEntity
8
0
100
AcDbVertex
62
7
6
CONTINUOUS
100
AcDb2dVertex
10
315.9468141575
20
116.0826048110
0
VERTEX
5
319
100
AcDbEntity
8
0
100
AcDbVertex
62
7
6
CONTINUOUS
100
AcDb2dVertex
10
316.0220729448
20
116.0563792991
0
VERTEX
5
31A
100
AcDbEntity
8
0
100
AcDbVertex
62
7
6
CONTINUOUS
100
AcDb2dVertex
10
316.0996119832
20
116.0350194342
0
SEQEND
5
31B
100
AcDbEntity
8
0
0
POLYLINE
5
31C
100
AcDbEntity
8
0
100
AcDb2dPolyline
62
7
6
CONTINUOUS
66
1
70
0
0
VERTEX
5
31D
100
AcDbEntity
8
0
100
AcDbVertex
62
7
6
CONTINUOUS
100
AcDb2dVertex
10
274.9511226493
20
137.7691299275
0
VERTEX
5
31E
100
AcDbEntity
8
0
100
AcDbVertex
62
7
6
CONTINUOUS
100
AcDb2dVertex
10
274.8804243644
20
137.8050867335
0
VERTEX
5
31F
100
AcDbEntity
8
0
100
AcDbVertex
62
7
6
CONTINUOUS
100
AcDb2dVertex
10
274.8074458283
20
137.8361778924
0
VERTEX
5
320
100
AcDbEntity
8
0
100
AcDbVertex
62
7
6
CONTINUOUS
100
AcDb2dVertex
10
274.7321870410
20
137.8624034042
0
VERTEX
5
321
100
AcDbEntity
8
0
100
AcDbVertex
62
7
6
CONTINUOUS
100
AcDb2dVertex
10
274.6546480026
20
137.8837632691
0
SEQEND
5
322
100
AcDbEntity
8
0
0
POLYLINE
5
323
100
AcDbEntity
8
0
100
AcDb2dPolyline
62
7
6
CONTINUOUS
66
1
70
0
0
VERTEX
5
324
100
AcDbEntity
8
0
100
AcDbVertex
62
7
6
CONTINUOUS
100
AcDb2dVertex
10
295.3771299929
20
125.2216578019
0
VERTEX
5
325
100
AcDbEntity
8
0
100
AcDbVertex
62
7
6
CONTINUOUS
100
AcDb2dVertex
10
295.1511267806
20
125.4300119824
0
VERTEX
5
326
100
AcDbEntity
8
0
100
AcDbVertex
62
7
6
CONTINUOUS
100
AcDb2dVertex
10
294.9029210803
20
125.6032592912
0
VERTEX
5
327
100
AcDbEntity
8
0
100
AcDbVertex
62
7
6
CONTINUOUS
100
AcDb2dVertex
10
294.6298468550
20
125.7425417481
0
VERTEX
5
328
100
AcDbEntity
8
0
100
AcDbVertex
62
7
6
CONTINUOUS
100
AcDb2dVertex
10
294.3399022160
20
125.8444332931
0
VERTEX
5
329
100
AcDbEntity
8
0
100
AcDbVertex
62
7
6
CONTINUOUS
100
AcDb2dVertex
10
294.0410852743
20
125.9055078660
0
VERTEX
5
32A
100
AcDbEntity
8
0
100
AcDbVertex
62
7
6
CONTINUOUS
100
AcDb2dVertex
10
293.7307299929
20
125.9269074869
0
SEQEND
5
32B
100
AcDbEntity
8
0
0
POLYLINE
5
32C
100
AcDbEntity
8
0
100
AcDb2dPolyline
62
7
6
CONTINUOUS
66
1
70
0
0
VERTEX
5
32D
100
AcDbEntity
8
0
100
AcDbVertex
62
7
6
CONTINUOUS
100
AcDb2dVertex
10
306.6275922892
20
109.1170594927
0
VERTEX
5
32E
100
AcDbEntity
8
0
100
AcDbVertex
62
7
6
CONTINUOUS
100
AcDb2dVertex
10
306.0697925905
20
110.0910321471
0
VERTEX
5
32F
100
AcDbEntity
8
0
100
AcDbVertex
62
7
6
CONTINUOUS
100
AcDb2dVertex
10
305.3918484527
20
110.9623414247
0
VERTEX
5
330
100
AcDbEntity
8
0
100
AcDbVertex
62
7
6
CONTINUOUS
100
AcDb2dVertex
10
304.5851889636
20
111.7381515274
0
VERTEX
5
331
100
AcDbEntity
8
0
100
AcDbVertex
62
7
6
CONTINUOUS
100
AcDb2dVertex
10
303.6755268597
20
112.3969698497
0
VERTEX
5
332
100
AcDbEntity
8
0
100
AcDbVertex
62
7
6
CONTINUOUS
100
AcDb2dVertex
10
302.6782888899
20
112.9218448578
0
VERTEX
5
333
100
AcDbEntity
8
0
100
AcDbVertex
62
7
6
CONTINUOUS
100
AcDb2dVertex
10
301.6157621052
20
113.3063175387
0
VERTEX
5
334
100
AcDbEntity
8
0
100
AcDbVertex
62
7
6
CONTINUOUS
100
AcDb2dVertex
10
300.5188044687
20
113.5367646777
0
VERTEX
5
335
100
AcDbEntity
8
0
100
AcDbVertex
62
7
6
CONTINUOUS
100
AcDb2dVertex
10
299.3771299929
20
113.6177273464
0
SEQEND
5
336
100
AcDbEntity
8
0
0
POLYLINE
5
337
100
AcDbEntity
8
0
100
AcDb2dPolyline
62
7
6
CONTINUOUS
66
1
70
0
0
VERTEX
5
338
100
AcDbEntity
8
0
100
AcDbVertex
62
7
6
CONTINUOUS
100
AcDb2dVertex
10
288.8850470437
20
138.0726491121
0
VERTEX
5
339
100
AcDbEntity
8
0
100
AcDbVertex
62
7
6
CONTINUOUS
100
AcDb2dVertex
10
288.8196123231
20
138.2835550456
0
VERTEX
5
33A
100
AcDbEntity
8
0
100
AcDbVertex
62
7
6
CONTINUOUS
100
AcDb2dVertex
10
288.7104002071
20
138.4813086770
0
VERTEX
5
33B
100
AcDbEntity
8
0
100
AcDbVertex
62
7
6
CONTINUOUS
100
AcDb2dVertex
10
288.5646875676
20
138.6552985234
0
VERTEX
5
33C
100
AcDbEntity
8
0
100
AcDbVertex
62
7
6
CONTINUOUS
100
AcDb2dVertex
10
288.3861210735
20
138.7972765574
0
VERTEX
5
33D
100
AcDbEntity
8
0
100
AcDbVertex
62
7
6
CONTINUOUS
100
AcDb2dVertex
10
288.1831657094
20
138.9036895739
0
VERTEX
5
33E
100
AcDbEntity
8
0
100
AcDbVertex
62
7
6
CONTINUOUS
100
AcDb2dVertex
10
287.9667120834
20
138.9674472069
0
VERTEX
5
33F
100
AcDbEntity
8
0
100
AcDbVertex
62
7
6
CONTINUOUS
100
AcDb2dVertex
10
287.7331299929
20
138.9909129116
0
SEQEND
5
340
100
AcDbEntity
8
0
0
POLYLINE
5
341
100
AcDbEntity
8
0
100
AcDb2dPolyline
62
7
6
CONTINUOUS
66
1
70
0
0
VERTEX
5
342
100
AcDbEntity
8
0
100
AcDbVertex
62
7
6
CONTINUOUS
100
AcDb2dVertex
10
288.9091299929
20
126.3864617536
0
VERTEX
5
343
100
AcDbEntity
8
0
100
AcDbVertex
62
7
6
CONTINUOUS
100
AcDb2dVertex
10
288.9317704691
20
126.1143953813
0
VERTEX
5
344
100
AcDbEntity
8
0
100
AcDbVertex
62
7
6
CONTINUOUS
100
AcDb2dVertex
10
288.9954662982
20
125.8553268064
0
VERTEX
5
345
100
AcDbEntity
8
0
100
AcDbVertex
62
7
6
CONTINUOUS
100
AcDb2dVertex
10
289.1017503760
20
125.6063246582
0
VERTEX
5
346
100
AcDbEntity
8
0
100
AcDbVertex
62
7
6
CONTINUOUS
100
AcDb2dVertex
10
289.2460240148
20
125.3761830485
0
VERTEX
5
347
100
AcDbEntity
8
0
100
AcDbVertex
62
7
6
CONTINUOUS
100
AcDb2dVertex
10
289.4260760682
20
125.1713697402
0
VERTEX
5
348
100
AcDbEntity
8
0
100
AcDbVertex
62
7
6
CONTINUOUS
100
AcDb2dVertex
10
289.6362768079
20
124.9959324093
0
VERTEX
5
349
100
AcDbEntity
8
0
100
AcDbVertex
62
7
6
CONTINUOUS
100
AcDb2dVertex
10
289.8724720873
20
124.8553564945
0
VERTEX
5
34A
100
AcDbEntity
8
0
100
AcDbVertex
62
7
6
CONTINUOUS
100
AcDb2dVertex
10
290.1280240148
20
124.7517964706
0
VERTEX
5
34B
100
AcDbEntity
8
0
100
AcDbVertex
62
7
6
CONTINUOUS
100
AcDb2dVertex
10
290.3939071575
20
124.6897331616
0
VERTEX
5
34C
100
AcDbEntity
8
0
100
AcDbVertex
62
7
6
CONTINUOUS
100
AcDb2dVertex
10
290.6731299929
20
124.6676729593
0
SEQEND
5
34D
100
AcDbEntity
8
0
0
POLYLINE
5
34E
100
AcDbEntity
8
0
100
AcDb2dPolyline
62
7
6
CONTINUOUS
66
1
70
0
0
VERTEX
5
34F
100
AcDbEntity
8
0
100
AcDbVertex
62
7
6
CONTINUOUS
100
AcDb2dVertex
10
299.3653390432
20
107.2756263576
0
VERTEX
5
350
100
AcDbEntity
8
0
100
AcDbVertex
62
7
6
CONTINUOUS
100
AcDb2dVertex
10
299.3578778873
20
107.3652856744
0
VERTEX
5
351
100
AcDbEntity
8
0
100
AcDbVertex
62
7
6
CONTINUOUS
100
AcDb2dVertex
10
299.3037147674
20
107.5855820816
0
VERTEX
5
352
100
AcDbEntity
8
0
100
AcDbVertex
62
7
6
CONTINUOUS
100
AcDb2dVertex
10
299.2133371501
20
107.7973186022
0
VERTEX
5
353
100
AcDbEntity
8
0
100
AcDbVertex
62
7
6
CONTINUOUS
100
AcDb2dVertex
10
299.0906554845
20
107.9930172499
0
SEQEND
5
354
100
AcDbEntity
8
0
0
POLYLINE
5
355
100
AcDbEntity
8
0
100
AcDb2dPolyline
62
7
6
CONTINUOUS
66
1
70
0
0
VERTEX
5
356
100
AcDbEntity
8
0
100
AcDbVertex
62
7
6
CONTINUOUS
100
AcDb2dVertex
10
299.3771299929
20
108.2586919901
0
VERTEX
5
357
100
AcDbEntity
8
0
100
AcDbVertex
62
7
6
CONTINUOUS
100
AcDb2dVertex
10
299.3578778873
20
108.4900409461
0
VERTEX
5
358
100
AcDbEntity
8
0
100
AcDbVertex
62
7
6
CONTINUOUS
100
AcDb2dVertex
10
299.3037147674
20
108.7103373533
0
VERTEX
5
359
100
AcDbEntity
8
0
100
AcDbVertex
62
7
6
CONTINUOUS
100
AcDb2dVertex
10
299.2133371501
20
108.9220738739
0
VERTEX
5
35A
100
AcDbEntity
8
0
100
AcDbVertex
62
7
6
CONTINUOUS
100
AcDb2dVertex
10
299.0906554845
20
109.1177725216
0
VERTEX
5
35B
100
AcDbEntity
8
0
100
AcDbVertex
62
7
6
CONTINUOUS
100
AcDb2dVertex
10
298.9375499969
20
109.2919334981
0
VERTEX
5
35C
100
AcDbEntity
8
0
100
AcDbVertex
62
7
6
CONTINUOUS
100
AcDb2dVertex
10
298.7588078713
20
109.4411149019
0
VERTEX
5
35D
100
AcDbEntity
8
0
100
AcDbVertex
62
7
6
CONTINUOUS
100
AcDb2dVertex
10
298.5579615453
20
109.5606522445
0
VERTEX
5
35E
100
AcDbEntity
8
0
100
AcDbVertex
62
7
6
CONTINUOUS
100
AcDb2dVertex
10
298.3406554845
20
109.6487134892
0
VERTEX
5
35F
100
AcDbEntity
8
0
100
AcDbVertex
62
7
6
CONTINUOUS
100
AcDb2dVertex
10
298.1145643768
20
109.7014884119
0
VERTEX
5
360
100
AcDbEntity
8
0
100
AcDbVertex
62
7
6
CONTINUOUS
100
AcDb2dVertex
10
297.8771299929
20
109.7202470873
0
SEQEND
5
361
100
AcDbEntity
8
0
0
POLYLINE
5
362
100
AcDbEntity
8
0
100
AcDb2dPolyline
62
7
6
CONTINUOUS
66
1
70
0
0
VERTEX
5
363
100
AcDbEntity
8
0
100
AcDbVertex
62
7
6
CONTINUOUS
100
AcDb2dVertex
10
290.0851299929
20
137.9584290468
0
VERTEX
5
364
100
AcDbEntity
8
0
100
AcDbVertex
62
7
6
CONTINUOUS
100
AcDb2dVertex
10
290.0760612387
20
138.1589168571
0
VERTEX
5
365
100
AcDbEntity
8
0
100
AcDbVertex
62
7
6
CONTINUOUS
100
AcDb2dVertex
10
290.0493978280
20
138.3563817694
0
VERTEX
5
366
100
AcDbEntity
8
0
100
AcDbVertex
62
7
6
CONTINUOUS
100
AcDb2dVertex
10
290.0049382531
20
138.5515565458
0
VERTEX
5
367
100
AcDbEntity
8
0
100
AcDbVertex
62
7
6
CONTINUOUS
100
AcDb2dVertex
10
289.9432870370
20
138.7422428999
0
VERTEX
5
368
100
AcDbEntity
8
0
100
AcDbVertex
62
7
6
CONTINUOUS
100
AcDb2dVertex
10
289.8650487027
20
138.9262425449
0
VERTEX
5
369
100
AcDbEntity
8
0
100
AcDbVertex
62
7
6
CONTINUOUS
100
AcDb2dVertex
10
289.7700217426
20
139.1042882430
0
SEQEND
5
36A
100
AcDbEntity
8
0
0
LINE
5
36B
100
AcDbEntity
8
0
100
AcDbLine
62
7
6
CONTINUOUS
10
287.1451299929
20
138.9909129116
11
287.1451299929
21
140.2501474392
0
LINE
5
36C
100
AcDbEntity
8
0
100
AcDbLine
62
7
6
CONTINUOUS
10
288.9091299929
20
137.9584290468
11
288.9091299929
21
126.4998370850
0
LINE
5
36D
100
AcDbEntity
8
0
100
AcDbLine
62
7
6
CONTINUOUS
10
289.4971299929
20
141.2826313040
11
289.4971299929
21
145.4065138221
0
LINE
5
36E
100
AcDbEntity
8
0
100
AcDbLine
62
7
6
CONTINUOUS
10
290.0116299929
20
141.2826313040
11
290.0116299929
21
143.1879354038
0
LINE
5
36F
100
AcDbEntity
8
0
100
AcDbLine
62
7
6
CONTINUOUS
10
290.0116299929
20
143.6999149836
11
290.0116299929
21
144.9798641722
0
LINE
5
370
100
AcDbEntity
8
0
100
AcDbLine
62
7
6
CONTINUOUS
10
290.0851299929
20
126.4998370850
11
290.0851299929
21
137.9584290468
0
LINE
5
371
100
AcDbEntity
8
0
100
AcDbLine
62
7
6
CONTINUOUS
10
291.3771299929
20
107.2737588547
11
291.3771299929
21
108.2586919901
0
LINE
5
372
100
AcDbEntity
8
0
100
AcDbLine
62
7
6
CONTINUOUS
10
291.4693799520
20
143.0745600724
11
291.4693799520
21
143.1879354038
0
LINE
5
373
100
AcDbEntity
8
0
100
AcDbLine
62
7
6
CONTINUOUS
10
291.6408799111
20
144.8664888408
11
291.6408799111
21
144.9798641722
0
LINE
5
374
100
AcDbEntity
8
0
100
AcDbLine
62
7
6
CONTINUOUS
10
291.8981299111
20
144.7811589108
11
291.8981299111
21
144.8945342422
0
LINE
5
375
100
AcDbEntity
8
0
100
AcDbLine
62
7
6
CONTINUOUS
10
292.1553799111
20
144.4678845924
11
292.1553799111
21
144.2118945634
0
LINE
5
376
100
AcDbEntity
8
0
100
AcDbLine
62
7
6
CONTINUOUS
10
292.1553799111
20
141.2826313040
11
292.1553799111
21
141.3960066354
0
LINE
5
377
100
AcDbEntity
8
0
100
AcDbLine
62
7
6
CONTINUOUS
10
292.3268799929
20
143.4158797923
11
292.3268799929
21
143.5292551237
0
LINE
5
378
100
AcDbEntity
8
0
100
AcDbLine
62
7
6
CONTINUOUS
10
292.5841299929
20
143.7571995122
11
292.5841299929
21
143.8705748436
0
LINE
5
379
100
AcDbEntity
8
0
100
AcDbLine
62
7
6
CONTINUOUS
10
292.6698799111
20
144.1265646335
11
292.6698799111
21
144.4678845924
0
LINE
5
37A
100
AcDbEntity
8
0
100
AcDbLine
62
7
6
CONTINUOUS
10
292.7556300747
20
141.2826313040
11
292.7556300747
21
141.3960066354
0
LINE
5
37B
100
AcDbEntity
8
0
100
AcDbLine
62
7
6
CONTINUOUS
10
293.2603299929
20
126.9593913517
11
293.2603299929
21
131.6562034678
0
LINE
5
37C
100
AcDbEntity
8
0
100
AcDbLine
62
7
6
CONTINUOUS
10
293.2603299929
20
132.6886873326
11
293.2603299929
21
137.3854994487
0
LINE
5
37D
100
AcDbEntity
8
0
100
AcDbLine
62
7
6
CONTINUOUS
10
293.4416299111
20
145.4065138221
11
293.4416299111
21
142.7612856344
0
LINE
5
37E
100
AcDbEntity
8
0
100
AcDbLine
62
7
6
CONTINUOUS
10
293.5273800747
20
142.2212606532
11
293.5273800747
21
142.3346359846
0
LINE
5
37F
100
AcDbEntity
8
0
100
AcDbLine
62
7
6
CONTINUOUS
10
293.6988801565
20
141.8799408736
11
293.6988801565
21
141.9933162049
0
LINE
5
380
100
AcDbEntity
8
0
100
AcDbLine
62
7
6
CONTINUOUS
10
293.9561301565
20
142.7612856344
11
293.9561301565
21
145.4065138221
0
LINE
5
381
100
AcDbEntity
8
0
100
AcDbLine
62
7
6
CONTINUOUS
10
294.0418798294
20
141.5386211238
11
294.0418798294
21
141.6519964552
0
LINE
5
382
100
AcDbEntity
8
0
100
AcDbLine
62
7
6
CONTINUOUS
10
294.2011299929
20
127.9894540400
11
294.2011299929
21
130.7395161109
0
LINE
5
383
100
AcDbEntity
8
0
100
AcDbLine
62
7
6
CONTINUOUS
10
294.2011299929
20
133.7187500209
11
294.2011299929
21
136.4688120918
0
LINE
5
384
100
AcDbEntity
8
0
100
AcDbLine
62
7
6
CONTINUOUS
10
294.3848799929
20
141.3679612414
11
294.3848799929
21
141.4813365728
0
LINE
5
385
100
AcDbEntity
8
0
100
AcDbLine
62
7
6
CONTINUOUS
10
294.7891299929
20
123.3698819813
11
294.7891299929
21
123.7497750141
0
LINE
5
386
100
AcDbEntity
8
0
100
AcDbLine
62
7
6
CONTINUOUS
10
294.8136298294
20
141.2826313040
11
294.8136298294
21
141.3960066354
0
LINE
5
387
100
AcDbEntity
8
0
100
AcDbLine
62
7
6
CONTINUOUS
10
294.9067299929
20
134.6354373779
11
294.9067299929
21
133.7187500209
0
LINE
5
388
100
AcDbEntity
8
0
100
AcDbLine
62
7
6
CONTINUOUS
10
294.9067299929
20
132.8020626640
11
294.9067299929
21
131.6562034678
0
LINE
5
389
100
AcDbEntity
8
0
100
AcDbLine
62
7
6
CONTINUOUS
10
294.9067299929
20
129.7094534225
11
294.9067299929
21
130.7395161109
0
LINE
5
38A
100
AcDbEntity
8
0
100
AcDbLine
62
7
6
CONTINUOUS
10
295.1566299929
20
141.2826313040
11
295.1566299929
21
141.3960066354
0
LINE
5
38B
100
AcDbEntity
8
DEFAULT_1
100
AcDbLine
62
2
6
CENTER
10
295.3771299929
20
291.2391028380
11
295.3771299929
21
179.3931998470
0
LINE
5
38C
100
AcDbEntity
8
DEFAULT_1
100
AcDbLine
62
2
6
CENTER
10
295.3771299929
20
155.8902743004
11
295.3771299929
21
108.5954918156
0
LINE
5
38D
100
AcDbEntity
8
DEFAULT_1
100
AcDbLine
62
2
6
CENTER
10
295.3771299929
20
105.5203963642
11
295.3771299929
21
2.7153065057
0
LINE
5
38E
100
AcDbEntity
8
0
100
AcDbLine
62
7
6
CONTINUOUS
10
295.3771299929
20
179.3931998470
11
295.3771299929
21
155.8902743004
0
LINE
5
38F
100
AcDbEntity
8
0
100
AcDbLine
62
7
6
CONTINUOUS
10
295.3771299929
20
108.5954918156
11
295.3771299929
21
105.5203963642
0
LINE
5
390
100
AcDbEntity
8
0
100
AcDbLine
62
7
6
CONTINUOUS
10
295.5853798294
20
141.3679612414
11
295.5853798294
21
141.4813365728
0
LINE
5
391
100
AcDbEntity
8
0
100
AcDbLine
62
7
6
CONTINUOUS
10
295.8475299929
20
129.7094534225
11
295.8475299929
21
130.7395161109
0
LINE
5
392
100
AcDbEntity
8
0
100
AcDbLine
62
7
6
CONTINUOUS
10
295.8475299929
20
131.6562034678
11
295.8475299929
21
132.8020626640
0
LINE
5
393
100
AcDbEntity
8
0
100
AcDbLine
62
7
6
CONTINUOUS
10
295.8475299929
20
133.7187500209
11
295.8475299929
21
134.6354373779
0
LINE
5
394
100
AcDbEntity
8
0
100
AcDbLine
62
7
6
CONTINUOUS
10
295.9283799929
20
141.5386211238
11
295.9283799929
21
141.6519964552
0
LINE
5
395
100
AcDbEntity
8
0
100
AcDbLine
62
7
6
CONTINUOUS
10
295.9651299929
20
123.3698819813
11
295.9651299929
21
123.7497750141
0
LINE
5
396
100
AcDbEntity
8
0
100
AcDbLine
62
7
6
CONTINUOUS
10
296.0141301565
20
145.4065138221
11
296.0141301565
21
142.7612856344
0
LINE
5
397
100
AcDbEntity
8
0
100
AcDbLine
62
7
6
CONTINUOUS
10
296.2713801565
20
141.8799408736
11
296.2713801565
21
141.9933162049
0
LINE
5
398
100
AcDbEntity
8
0
100
AcDbLine
62
7
6
CONTINUOUS
10
296.4428799929
20
142.2212606532
11
296.4428799929
21
142.3346359846
0
LINE
5
399
100
AcDbEntity
8
0
100
AcDbLine
62
7
6
CONTINUOUS
10
296.5286301565
20
142.7612856344
11
296.5286301565
21
145.4065138221
0
LINE
5
39A
100
AcDbEntity
8
0
100
AcDbLine
62
7
6
CONTINUOUS
10
296.5531299929
20
136.4688120918
11
296.5531299929
21
133.7187500209
0
LINE
5
39B
100
AcDbEntity
8
0
100
AcDbLine
62
7
6
CONTINUOUS
10
296.5531299929
20
130.7395161109
11
296.5531299929
21
127.9894540400
0
POLYLINE
5
39C
100
AcDbEntity
8
0
100
AcDb2dPolyline
62
7
6
CONTINUOUS
66
1
70
0
0
VERTEX
5
39D
100
AcDbEntity
8
0
100
AcDbVertex
62
7
6
CONTINUOUS
100
AcDb2dVertex
10
291.3771299929
20
108.2586919901
0
VERTEX
5
39E
100
AcDbEntity
8
0
100
AcDbVertex
62
7
6
CONTINUOUS
100
AcDb2dVertex
10
291.3963820985
20
108.4900409461
0
VERTEX
5
39F
100
AcDbEntity
8
0
100
AcDbVertex
62
7
6
CONTINUOUS
100
AcDb2dVertex
10
291.4505452185
20
108.7103373533
0
VERTEX
5
3A0
100
AcDbEntity
8
0
100
AcDbVertex
62
7
6
CONTINUOUS
100
AcDb2dVertex
10
291.5409228357
20
108.9220738739
0
VERTEX
5
3A1
100
AcDbEntity
8
0
100
AcDbVertex
62
7
6
CONTINUOUS
100
AcDb2dVertex
10
291.6636045013
20
109.1177725216
0
VERTEX
5
3A2
100
AcDbEntity
8
0
100
AcDbVertex
62
7
6
CONTINUOUS
100
AcDb2dVertex
10
291.8167099889
20
109.2919334981
0
VERTEX
5
3A3
100
AcDbEntity
8
0
100
AcDbVertex
62
7
6
CONTINUOUS
100
AcDb2dVertex
10
291.9954521145
20
109.4411149019
0
VERTEX
5
3A4
100
AcDbEntity
8
0
100
AcDbVertex
62
7
6
CONTINUOUS
100
AcDb2dVertex
10
292.1962984405
20
109.5606522445
0
VERTEX
5
3A5
100
AcDbEntity
8
0
100
AcDbVertex
62
7
6
CONTINUOUS
100
AcDb2dVertex
10
292.4136045013
20
109.6487134892
0
VERTEX
5
3A6
100
AcDbEntity
8
0
100
AcDbVertex
62
7
6
CONTINUOUS
100
AcDb2dVertex
10
292.6396956090
20
109.7014884119
0
VERTEX
5
3A7
100
AcDbEntity
8
0
100
AcDbVertex
62
7
6
CONTINUOUS
100
AcDb2dVertex
10
292.8771299929
20
109.7202470873
0
SEQEND
5
3A8
100
AcDbEntity
8
0
0
POLYLINE
5
3A9
100
AcDbEntity
8
0
100
AcDb2dPolyline
62
7
6
CONTINUOUS
66
1
70
0
0
VERTEX
5
3AA
100
AcDbEntity
8
0
100
AcDbVertex
62
7
6
CONTINUOUS
100
AcDb2dVertex
10
291.3889209426
20
107.2756263576
0
VERTEX
5
3AB
100
AcDbEntity
8
0
100
AcDbVertex
62
7
6
CONTINUOUS
100
AcDb2dVertex
10
291.3963820985
20
107.3652856744
0
VERTEX
5
3AC
100
AcDbEntity
8
0
100
AcDbVertex
62
7
6
CONTINUOUS
100
AcDb2dVertex
10
291.4505452185
20
107.5855820816
0
VERTEX
5
3AD
100
AcDbEntity
8
0
100
AcDbVertex
62
7
6
CONTINUOUS
100
AcDb2dVertex
10
291.5409228357
20
107.7973186022
0
VERTEX
5
3AE
100
AcDbEntity
8
0
100
AcDbVertex
62
7
6
CONTINUOUS
100
AcDb2dVertex
10
291.6636045013
20
107.9930172499
0
SEQEND
5
3AF
100
AcDbEntity
8
0
0
LINE
5
3B0
100
AcDbEntity
8
0
100
AcDbLine
62
7
6
CONTINUOUS
10
296.0141301565
20
142.7612856344
11
295.9283799929
21
142.4199659146
0
LINE
5
3B1
100
AcDbEntity
8
0
100
AcDbLine
62
7
6
CONTINUOUS
10
292.1553799111
20
144.2118945634
11
292.0696299929
21
143.9559047735
0
LINE
5
3B2
100
AcDbEntity
8
0
100
AcDbLine
62
7
6
CONTINUOUS
10
292.5841299929
20
143.8705748436
11
292.6698799111
21
144.1265646335
0
LINE
5
3B3
100
AcDbEntity
8
0
100
AcDbLine
62
7
6
CONTINUOUS
10
292.5841299929
20
143.7571995122
11
292.6698799111
21
144.0131893021
0
LINE
5
3B4
100
AcDbEntity
8
0
100
AcDbLine
62
7
6
CONTINUOUS
10
277.2978818508
20
100.6513996025
11
277.0261570626
21
99.9765464394
0
LINE
5
3B5
100
AcDbEntity
8
0
100
AcDbLine
62
7
6
CONTINUOUS
10
292.3268799929
20
143.5292551237
11
292.5841299929
21
143.8705748436
0
LINE
5
3B6
100
AcDbEntity
8
0
100
AcDbLine
62
7
6
CONTINUOUS
10
292.3268799929
20
143.4158797923
11
292.5841299929
21
143.7571995122
0
LINE
5
3B7
100
AcDbEntity
8
0
100
AcDbLine
62
7
6
CONTINUOUS
10
292.0696299929
20
143.9559047735
11
291.8981299111
21
143.7852449136
0
LINE
5
3B8
100
AcDbEntity
8
0
100
AcDbLine
62
7
6
CONTINUOUS
10
291.9838800747
20
143.3585952637
11
292.3268799929
21
143.5292551237
0
LINE
5
3B9
100
AcDbEntity
8
0
100
AcDbLine
62
7
6
CONTINUOUS
10
292.0290964385
20
143.2677173672
11
292.3268799929
21
143.4158797923
0
LINE
5
3BA
100
AcDbEntity
8
0
100
AcDbLine
62
7
6
CONTINUOUS
10
291.8981299111
20
143.7852449136
11
291.6408799111
21
143.6999149836
0
LINE
5
3BB
100
AcDbEntity
8
0
100
AcDbLine
62
7
6
CONTINUOUS
10
299.6156296658
20
141.9933162049
11
299.2726299929
21
141.9079862750
0
LINE
5
3BC
100
AcDbEntity
8
0
100
AcDbLine
62
7
6
CONTINUOUS
10
295.4996301565
20
141.9933162049
11
295.1566299929
21
141.9079862750
0
LINE
5
3BD
100
AcDbEntity
8
0
100
AcDbLine
62
7
6
CONTINUOUS
10
299.2726299929
20
141.2826313040
11
299.7013803200
21
141.3679612414
0
LINE
5
3BE
100
AcDbEntity
8
0
100
AcDbLine
62
7
6
CONTINUOUS
10
299.2726299929
20
141.3960066354
11
299.7013803200
21
141.4813365728
0
LINE
5
3BF
100
AcDbEntity
8
0
100
AcDbLine
62
7
6
CONTINUOUS
10
295.1566299929
20
141.2826313040
11
295.5853798294
21
141.3679612414
0
LINE
5
3C0
100
AcDbEntity
8
0
100
AcDbLine
62
7
6
CONTINUOUS
10
295.1566299929
20
141.3960066354
11
295.5853798294
21
141.4813365728
0
POLYLINE
5
3C1
100
AcDbEntity
8
0
100
AcDb2dPolyline
62
7
6
CONTINUOUS
66
1
70
0
0
VERTEX
5
3C2
100
AcDbEntity
8
0
100
AcDbVertex
62
7
6
CONTINUOUS
100
AcDb2dVertex
10
303.0211299929
20
138.9909129116
0
VERTEX
5
3C3
100
AcDbEntity
8
0
100
AcDbVertex
62
7
6
CONTINUOUS
100
AcDb2dVertex
10
302.7875479024
20
138.9674472069
0
VERTEX
5
3C4
100
AcDbEntity
8
0
100
AcDbVertex
62
7
6
CONTINUOUS
100
AcDb2dVertex
10
302.5710942764
20
138.9036895739
0
VERTEX
5
3C5
100
AcDbEntity
8
0
100
AcDbVertex
62
7
6
CONTINUOUS
100
AcDb2dVertex
10
302.3681389123
20
138.7972765574
0
VERTEX
5
3C6
100
AcDbEntity
8
0
100
AcDbVertex
62
7
6
CONTINUOUS
100
AcDb2dVertex
10
302.1895724182
20
138.6552985234
0
VERTEX
5
3C7
100
AcDbEntity
8
0
100
AcDbVertex
62
7
6
CONTINUOUS
100
AcDb2dVertex
10
302.0438597787
20
138.4813086770
0
VERTEX
5
3C8
100
AcDbEntity
8
0
100
AcDbVertex
62
7
6
CONTINUOUS
100
AcDb2dVertex
10
301.9346476627
20
138.2835550456
0
VERTEX
5
3C9
100
AcDbEntity
8
0
100
AcDbVertex
62
7
6
CONTINUOUS
100
AcDb2dVertex
10
301.8692129421
20
138.0726491121
0
VERTEX
5
3CA
100
AcDbEntity
8
0
100
AcDbVertex
62
7
6
CONTINUOUS
100
AcDb2dVertex
10
301.8569939371
20
137.9571736666
0
SEQEND
5
3CB
100
AcDbEntity
8
0
0
LINE
5
3CC
100
AcDbEntity
8
0
100
AcDbLine
62
7
6
CONTINUOUS
10
297.4939299929
20
137.3854994487
11
293.2603299929
21
137.3854994487
0
LINE
5
3CD
100
AcDbEntity
8
0
100
AcDbLine
62
7
6
CONTINUOUS
10
287.1451299929
20
138.9909129116
11
287.7331299929
21
138.9909129116
0
LINE
5
3CE
100
AcDbEntity
8
0
100
AcDbLine
62
7
6
CONTINUOUS
10
289.8305326856
20
138.9909129116
11
300.9237273002
21
138.9909129116
0
LINE
5
3CF
100
AcDbEntity
8
0
100
AcDbLine
62
7
6
CONTINUOUS
10
303.0211299929
20
138.9909129116
11
303.6091299929
21
138.9909129116
0
LINE
5
3D0
100
AcDbEntity
8
0
100
AcDbLine
62
7
6
CONTINUOUS
10
287.1451299929
20
139.1042882430
11
287.7331299929
21
139.1042882430
0
LINE
5
3D1
100
AcDbEntity
8
0
100
AcDbLine
62
7
6
CONTINUOUS
10
289.7700217426
20
139.1042882430
11
300.9842382432
21
139.1042882430
0
LINE
5
3D2
100
AcDbEntity
8
0
100
AcDbLine
62
7
6
CONTINUOUS
10
303.0211299929
20
139.1042882430
11
303.6091299929
21
139.1042882430
0
LINE
5
3D3
100
AcDbEntity
8
0
100
AcDbLine
62
7
6
CONTINUOUS
10
303.6091299929
20
140.2501474392
11
287.1451299929
21
140.2501474392
0
LINE
5
3D4
100
AcDbEntity
8
0
100
AcDbLine
62
7
6
CONTINUOUS
10
289.4971299929
20
141.2826313040
11
290.0116299929
21
141.2826313040
0
LINE
5
3D5
100
AcDbEntity
8
0
100
AcDbLine
62
7
6
CONTINUOUS
10
292.1553799111
20
141.2826313040
11
292.7556300747
21
141.2826313040
0
LINE
5
3D6
100
AcDbEntity
8
0
100
AcDbLine
62
7
6
CONTINUOUS
10
294.8136298294
20
141.2826313040
11
295.1566299929
21
141.2826313040
0
LINE
5
3D7
100
AcDbEntity
8
0
100
AcDbLine
62
7
6
CONTINUOUS
10
297.2146299929
20
141.2826313040
11
299.2726299929
21
141.2826313040
0
LINE
5
3D8
100
AcDbEntity
8
0
100
AcDbLine
62
7
6
CONTINUOUS
10
289.4971299929
20
141.3960066354
11
290.0116299929
21
141.3960066354
0
LINE
5
3D9
100
AcDbEntity
8
0
100
AcDbLine
62
7
6
CONTINUOUS
10
292.1553799111
20
141.3960066354
11
292.7556300747
21
141.3960066354
0
LINE
5
3DA
100
AcDbEntity
8
0
100
AcDbLine
62
7
6
CONTINUOUS
10
294.8136298294
20
141.3960066354
11
295.1566299929
21
141.3960066354
0
LINE
5
3DB
100
AcDbEntity
8
0
100
AcDbLine
62
7
6
CONTINUOUS
10
297.2146299929
20
141.3960066354
11
299.2726299929
21
141.3960066354
0
LINE
5
3DC
100
AcDbEntity
8
0
100
AcDbLine
62
7
6
CONTINUOUS
10
299.2726299929
20
141.9079862750
11
297.7291299929
21
141.9079862750
0
LINE
5
3DD
100
AcDbEntity
8
0
100
AcDbLine
62
7
6
CONTINUOUS
10
295.1566299929
20
141.9079862750
11
294.8136298294
21
141.9079862750
0
LINE
5
3DE
100
AcDbEntity
8
0
100
AcDbLine
62
7
6
CONTINUOUS
10
290.0116299929
20
143.0745600724
11
291.4693799520
21
143.0745600724
0
LINE
5
3DF
100
AcDbEntity
8
0
100
AcDbLine
62
7
6
CONTINUOUS
10
290.0116299929
20
143.1879354038
11
291.4693799520
21
143.1879354038
0
LINE
5
3E0
100
AcDbEntity
8
0
100
AcDbLine
62
7
6
CONTINUOUS
10
291.6408799111
20
143.6999149836
11
290.0116299929
21
143.6999149836
0
LINE
5
3E1
100
AcDbEntity
8
0
100
AcDbLine
62
7
6
CONTINUOUS
10
297.7291299929
20
144.7811589108
11
299.2726299929
21
144.7811589108
0
LINE
5
3E2
100
AcDbEntity
8
0
100
AcDbLine
62
7
6
CONTINUOUS
10
290.0116299929
20
144.8664888408
11
291.6408799111
21
144.8664888408
0
LINE
5
3E3
100
AcDbEntity
8
0
100
AcDbLine
62
7
6
CONTINUOUS
10
297.7291299929
20
144.8945342422
11
299.2726299929
21
144.8945342422
0
LINE
5
3E4
100
AcDbEntity
8
0
100
AcDbLine
62
7
6
CONTINUOUS
10
290.0116299929
20
144.9798641722
11
291.6408799111
21
144.9798641722
0
LINE
5
3E5
100
AcDbEntity
8
0
100
AcDbLine
62
7
6
CONTINUOUS
10
299.2726299929
20
145.4065138221
11
297.2146299929
21
145.4065138221
0
LINE
5
3E6
100
AcDbEntity
8
0
100
AcDbLine
62
7
6
CONTINUOUS
10
296.5286301565
20
145.4065138221
11
296.0141301565
21
145.4065138221
0
LINE
5
3E7
100
AcDbEntity
8
0
100
AcDbLine
62
7
6
CONTINUOUS
10
293.9561301565
20
145.4065138221
11
293.4416299111
21
145.4065138221
0
LINE
5
3E8
100
AcDbEntity
8
0
100
AcDbLine
62
7
6
CONTINUOUS
10
291.5551299929
20
145.4065138221
11
289.4971299929
21
145.4065138221
0
POLYLINE
5
3E9
100
AcDbEntity
8
0
100
AcDb2dPolyline
62
7
6
CONTINUOUS
66
1
70
0
0
VERTEX
5
3EA
100
AcDbEntity
8
0
100
AcDbVertex
62
7
6
CONTINUOUS
100
AcDb2dVertex
10
287.7331299929
20
139.1042882430
0
VERTEX
5
3EB
100
AcDbEntity
8
0
100
AcDbVertex
62
7
6
CONTINUOUS
100
AcDb2dVertex
10
288.0468242586
20
139.0607674254
0
VERTEX
5
3EC
100
AcDbEntity
8
0
100
AcDbVertex
62
7
6
CONTINUOUS
100
AcDb2dVertex
10
288.3211299929
20
138.9507722199
0
VERTEX
5
3ED
100
AcDbEntity
8
0
100
AcDbVertex
62
7
6
CONTINUOUS
100
AcDb2dVertex
10
288.5632557975
20
138.7672787808
0
VERTEX
5
3EE
100
AcDbEntity
8
0
100
AcDbVertex
62
7
6
CONTINUOUS
100
AcDb2dVertex
10
288.7515758678
20
138.5313586449
0
VERTEX
5
3EF
100
AcDbEntity
8
0
100
AcDbVertex
62
7
6
CONTINUOUS
100
AcDb2dVertex
10
288.8644643990
20
138.2640833488
0
VERTEX
5
3F0
100
AcDbEntity
8
0
100
AcDbVertex
62
7
6
CONTINUOUS
100
AcDb2dVertex
10
288.9091299929
20
137.9584290468
0
SEQEND
5
3F1
100
AcDbEntity
8
0
0
LINE
5
3F2
100
AcDbEntity
8
0
100
AcDbLine
62
7
6
CONTINUOUS
10
294.3848799929
20
141.3679612414
11
294.8136298294
21
141.2826313040
0
LINE
5
3F3
100
AcDbEntity
8
0
100
AcDbLine
62
7
6
CONTINUOUS
10
294.3848799929
20
141.4813365728
11
294.8136298294
21
141.3960066354
0
LINE
5
3F4
100
AcDbEntity
8
0
100
AcDbLine
62
7
6
CONTINUOUS
10
291.9838800747
20
145.3211838921
11
291.5551299929
21
145.4065138221
0
LINE
5
3F5
100
AcDbEntity
8
0
100
AcDbLine
62
7
6
CONTINUOUS
10
299.7013803200
20
145.3211838921
11
299.2726299929
21
145.4065138221
0
LINE
5
3F6
100
AcDbEntity
8
0
100
AcDbLine
62
7
6
CONTINUOUS
10
294.8136298294
20
141.9079862750
11
294.4706301565
21
141.9933162049
0
LINE
5
3F7
100
AcDbEntity
8
0
100
AcDbLine
62
7
6
CONTINUOUS
10
299.2726299929
20
144.7811589108
11
299.6156296658
21
144.6958289809
0
LINE
5
3F8
100
AcDbEntity
8
0
100
AcDbLine
62
7
6
CONTINUOUS
10
299.2726299929
20
144.8945342422
11
299.6156296658
21
144.8092043123
0
LINE
5
3F9
100
AcDbEntity
8
0
100
AcDbLine
62
7
6
CONTINUOUS
10
291.6408799111
20
144.8664888408
11
291.8981299111
21
144.7811589108
0
LINE
5
3FA
100
AcDbEntity
8
0
100
AcDbLine
62
7
6
CONTINUOUS
10
291.6408799111
20
144.9798641722
11
291.8981299111
21
144.8945342422
0
LINE
5
3FB
100
AcDbEntity
8
0
100
AcDbLine
62
7
6
CONTINUOUS
10
294.0418798294
20
141.5386211238
11
294.3848799929
21
141.3679612414
0
LINE
5
3FC
100
AcDbEntity
8
0
100
AcDbLine
62
7
6
CONTINUOUS
10
294.0418798294
20
141.6519964552
11
294.3848799929
21
141.4813365728
0
LINE
5
3FD
100
AcDbEntity
8
0
100
AcDbLine
62
7
6
CONTINUOUS
10
294.4706301565
20
141.9933162049
11
294.2133801565
21
142.1639761246
0
LINE
5
3FE
100
AcDbEntity
8
0
100
AcDbLine
62
7
6
CONTINUOUS
10
292.3268799929
20
145.0651941022
11
291.9838800747
21
145.3211838921
0
LINE
5
3FF
100
AcDbEntity
8
0
100
AcDbLine
62
7
6
CONTINUOUS
10
293.6988801565
20
141.8799408736
11
294.0418798294
21
141.5386211238
0
LINE
5
400
100
AcDbEntity
8
0
100
AcDbLine
62
7
6
CONTINUOUS
10
293.6988801565
20
141.9933162049
11
294.0418798294
21
141.6519964552
0
LINE
5
401
100
AcDbEntity
8
0
100
AcDbLine
62
7
6
CONTINUOUS
10
291.8981299111
20
144.7811589108
11
292.0696299929
21
144.6104990509
0
LINE
5
402
100
AcDbEntity
8
0
100
AcDbLine
62
7
6
CONTINUOUS
10
291.8981299111
20
144.8945342422
11
292.0696299929
21
144.7238743823
0
LINE
5
403
100
AcDbEntity
8
0
100
AcDbLine
62
7
6
CONTINUOUS
10
292.5841299929
20
144.7238743823
11
292.3268799929
21
145.0651941022
0
LINE
5
404
100
AcDbEntity
8
0
100
AcDbLine
62
7
6
CONTINUOUS
10
294.2133801565
20
142.1639761246
11
294.0418798294
21
142.4199659146
0
POLYLINE
5
405
100
AcDbEntity
8
0
100
AcDb2dPolyline
62
7
6
CONTINUOUS
66
1
70
0
0
VERTEX
5
406
100
AcDbEntity
8
0
100
AcDbVertex
62
7
6
CONTINUOUS
100
AcDb2dVertex
10
306.6275922892
20
109.7919126557
0
VERTEX
5
407
100
AcDbEntity
8
0
100
AcDbVertex
62
7
6
CONTINUOUS
100
AcDb2dVertex
10
306.1947974846
20
110.5750446492
0
VERTEX
5
408
100
AcDbEntity
8
0
100
AcDbVertex
62
7
6
CONTINUOUS
100
AcDb2dVertex
10
305.6812160218
20
111.2966768840
0
VERTEX
5
409
100
AcDbEntity
8
0
100
AcDbVertex
62
7
6
CONTINUOUS
100
AcDb2dVertex
10
305.0827806770
20
111.9608421189
0
VERTEX
5
40A
100
AcDbEntity
8
0
100
AcDbVertex
62
7
6
CONTINUOUS
100
AcDb2dVertex
10
304.4116931213
20
112.5554420777
0
VERTEX
5
40B
100
AcDbEntity
8
0
100
AcDbVertex
62
7
6
CONTINUOUS
100
AcDb2dVertex
10
303.6752610092
20
113.0714164065
0
VERTEX
5
40C
100
AcDbEntity
8
0
100
AcDbVertex
62
7
6
CONTINUOUS
100
AcDb2dVertex
10
302.8840991672
20
113.5036840961
0
VERTEX
5
40D
100
AcDbEntity
8
0
100
AcDbVertex
62
7
6
CONTINUOUS
100
AcDb2dVertex
10
302.0474197025
20
113.8450187416
0
VERTEX
5
40E
100
AcDbEntity
8
0
100
AcDbVertex
62
7
6
CONTINUOUS
100
AcDb2dVertex
10
301.1767384277
20
114.0927961764
0
VERTEX
5
40F
100
AcDbEntity
8
0
100
AcDbVertex
62
7
6
CONTINUOUS
100
AcDb2dVertex
10
300.2884651722
20
114.2413543113
0
VERTEX
5
410
100
AcDbEntity
8
0
100
AcDbVertex
62
7
6
CONTINUOUS
100
AcDb2dVertex
10
299.3771299929
20
114.2925805095
0
SEQEND
5
411
100
AcDbEntity
8
0
0
LINE
5
412
100
AcDbEntity
8
0
100
AcDbLine
62
7
6
CONTINUOUS
10
293.5273800747
20
142.2212606532
11
293.6988801565
21
141.8799408736
0
LINE
5
413
100
AcDbEntity
8
0
100
AcDbLine
62
7
6
CONTINUOUS
10
293.5273800747
20
142.3346359846
11
293.6988801565
21
141.9933162049
0
LINE
5
414
100
AcDbEntity
8
0
100
AcDbLine
62
7
6
CONTINUOUS
10
310.5981430042
20
100.8204216620
11
306.6275922892
21
109.1170594927
0
LINE
5
415
100
AcDbEntity
8
0
100
AcDbLine
62
7
6
CONTINUOUS
10
310.5981430042
20
101.4952748250
11
306.6275922892
21
109.7919126557
0
LINE
5
416
100
AcDbEntity
8
0
100
AcDbLine
62
7
6
CONTINUOUS
10
313.4563781350
20
100.6513996025
11
313.7281029232
21
99.9765464394
0
LINE
5
417
100
AcDbEntity
8
0
100
AcDbLine
62
7
6
CONTINUOUS
10
292.7556300747
20
141.3960066354
11
291.9838800747
21
143.3585952637
0
LINE
5
418
100
AcDbEntity
8
0
100
AcDbLine
62
7
6
CONTINUOUS
10
291.4693799520
20
143.0745600724
11
292.1553799111
21
141.2826313040
0
LINE
5
419
100
AcDbEntity
8
0
100
AcDbLine
62
7
6
CONTINUOUS
10
291.4693799520
20
143.1879354038
11
292.1553799111
21
141.3960066354
0
LINE
5
41A
100
AcDbEntity
8
0
100
AcDbLine
62
7
6
CONTINUOUS
10
292.0696299929
20
144.6104990509
11
292.1212335999
21
144.4564464667
0
LINE
5
41B
100
AcDbEntity
8
0
100
AcDbLine
62
7
6
CONTINUOUS
10
292.0696299929
20
144.7238743823
11
292.1553799111
21
144.4678845924
0
LINE
5
41C
100
AcDbEntity
8
0
100
AcDbLine
62
7
6
CONTINUOUS
10
292.6698799111
20
144.4678845924
11
292.5841299929
21
144.7238743823
0
POLYLINE
5
41D
100
AcDbEntity
8
0
100
AcDb2dPolyline
62
7
6
CONTINUOUS
66
1
70
0
0
VERTEX
5
41E
100
AcDbEntity
8
0
100
AcDbVertex
62
7
6
CONTINUOUS
100
AcDb2dVertex
10
294.7674553387
20
123.8412355397
0
VERTEX
5
41F
100
AcDbEntity
8
0
100
AcDbVertex
62
7
6
CONTINUOUS
100
AcDb2dVertex
10
294.7085640901
20
124.0310508799
0
VERTEX
5
420
100
AcDbEntity
8
0
100
AcDbVertex
62
7
6
CONTINUOUS
100
AcDb2dVertex
10
294.6102731857
20
124.2090291481
0
VERTEX
5
421
100
AcDbEntity
8
0
100
AcDbVertex
62
7
6
CONTINUOUS
100
AcDb2dVertex
10
294.4791318101
20
124.3656200098
0
VERTEX
5
422
100
AcDbEntity
8
0
100
AcDbVertex
62
7
6
CONTINUOUS
100
AcDb2dVertex
10
294.3184219655
20
124.4934002405
0
VERTEX
5
423
100
AcDbEntity
8
0
100
AcDbVertex
62
7
6
CONTINUOUS
100
AcDb2dVertex
10
294.1357621377
20
124.5891719554
0
VERTEX
5
424
100
AcDbEntity
8
0
100
AcDbVertex
62
7
6
CONTINUOUS
100
AcDb2dVertex
10
293.9409538744
20
124.6465538250
0
VERTEX
5
425
100
AcDbEntity
8
0
100
AcDbVertex
62
7
6
CONTINUOUS
100
AcDb2dVertex
10
293.7307299929
20
124.6676729593
0
SEQEND
5
426
100
AcDbEntity
8
0
0
LINE
5
427
100
AcDbEntity
8
0
100
AcDbLine
62
7
6
CONTINUOUS
10
294.0418798294
20
142.4199659146
11
293.9561301565
21
142.7612856344
0
LINE
5
428
100
AcDbEntity
8
0
100
AcDbLine
62
7
6
CONTINUOUS
10
293.4416299111
20
142.6479103030
11
293.5273800747
21
142.2212606532
0
LINE
5
429
100
AcDbEntity
8
0
100
AcDbLine
62
7
6
CONTINUOUS
10
293.4416299111
20
142.7612856344
11
293.5273800747
21
142.3346359846
0
LINE
5
42A
100
AcDbEntity
8
0
100
AcDbLine
62
7
6
CONTINUOUS
10
290.1074627898
20
126.3470099340
11
290.0851299929
21
126.4998370850
0
LINE
5
42B
100
AcDbEntity
8
0
100
AcDbLine
62
7
6
CONTINUOUS
10
297.2146299929
20
141.2826313040
11
297.2146299929
21
145.4065138221
0
LINE
5
42C
100
AcDbEntity
8
0
100
AcDbLine
62
7
6
CONTINUOUS
10
297.4939299929
20
126.9593913517
11
297.4939299929
21
131.6562034678
0
LINE
5
42D
100
AcDbEntity
8
0
100
AcDbLine
62
7
6
CONTINUOUS
10
297.4939299929
20
132.6886873326
11
297.4939299929
21
137.3854994487
0
LINE
5
42E
100
AcDbEntity
8
0
100
AcDbLine
62
7
6
CONTINUOUS
10
297.7291299929
20
141.9079862750
11
297.7291299929
21
144.8945342422
0
LINE
5
42F
100
AcDbEntity
8
0
100
AcDbLine
62
7
6
CONTINUOUS
10
299.2726299929
20
141.2826313040
11
299.2726299929
21
141.3960066354
0
LINE
5
430
100
AcDbEntity
8
0
100
AcDbLine
62
7
6
CONTINUOUS
10
299.2726299929
20
144.7811589108
11
299.2726299929
21
144.8945342422
0
LINE
5
431
100
AcDbEntity
8
0
100
AcDbLine
62
7
6
CONTINUOUS
10
299.3771299929
20
107.2737588547
11
299.3771299929
21
108.2586919901
0
LINE
5
432
100
AcDbEntity
8
0
100
AcDbLine
62
7
6
CONTINUOUS
10
299.6156296658
20
144.6958289809
11
299.6156296658
21
144.8092043123
0
LINE
5
433
100
AcDbEntity
8
0
100
AcDbLine
62
7
6
CONTINUOUS
10
299.7013803200
20
141.3679612414
11
299.7013803200
21
141.4813365728
0
LINE
5
434
100
AcDbEntity
8
0
100
AcDbLine
62
7
6
CONTINUOUS
10
299.8728796658
20
144.5251691209
11
299.8728796658
21
144.6385444523
0
LINE
5
435
100
AcDbEntity
8
0
100
AcDbLine
62
7
6
CONTINUOUS
10
300.0443799929
20
141.5386211238
11
300.0443799929
21
141.6519964552
0
LINE
5
436
100
AcDbEntity
8
0
100
AcDbLine
62
7
6
CONTINUOUS
10
300.0443799929
20
144.2691790920
11
300.0443799929
21
144.3825544234
0
LINE
5
437
100
AcDbEntity
8
0
100
AcDbLine
62
7
6
CONTINUOUS
10
300.1301296658
20
144.0412347035
11
300.1301296658
21
142.7612856344
0
LINE
5
438
100
AcDbEntity
8
0
100
AcDbLine
62
7
6
CONTINUOUS
10
300.3873796658
20
141.8799408736
11
300.3873796658
21
141.9933162049
0
LINE
5
439
100
AcDbEntity
8
0
100
AcDbLine
62
7
6
CONTINUOUS
10
300.5588799929
20
142.2212606532
11
300.5588799929
21
142.3346359846
0
LINE
5
43A
100
AcDbEntity
8
0
100
AcDbLine
62
7
6
CONTINUOUS
10
300.6446296658
20
142.7612856344
11
300.6446296658
21
144.0412347035
0
LINE
5
43B
100
AcDbEntity
8
0
100
AcDbLine
62
7
6
CONTINUOUS
10
300.6691299929
20
137.9584290468
11
300.6691299929
21
126.4998370850
0
LINE
5
43C
100
AcDbEntity
8
0
100
AcDbLine
62
7
6
CONTINUOUS
10
301.8451299929
20
126.4998370850
11
301.8451299929
21
137.9584290468
0
LINE
5
43D
100
AcDbEntity
8
0
100
AcDbLine
62
7
6
CONTINUOUS
10
303.6091299929
20
138.9909129116
11
303.6091299929
21
140.2501474392
0
POLYLINE
5
43E
100
AcDbEntity
8
0
100
AcDb2dPolyline
62
7
6
CONTINUOUS
66
1
70
0
0
VERTEX
5
43F
100
AcDbEntity
8
0
100
AcDbVertex
62
7
6
CONTINUOUS
100
AcDb2dVertex
10
295.9651299929
20
123.7497750141
0
VERTEX
5
440
100
AcDbEntity
8
0
100
AcDbVertex
62
7
6
CONTINUOUS
100
AcDb2dVertex
10
296.0053290274
20
124.0248638859
0
VERTEX
5
441
100
AcDbEntity
8
0
100
AcDbVertex
62
7
6
CONTINUOUS
100
AcDb2dVertex
10
296.1069287055
20
124.2654116524
0
VERTEX
5
442
100
AcDbEntity
8
0
100
AcDbVertex
62
7
6
CONTINUOUS
100
AcDb2dVertex
10
296.2764167688
20
124.4777397747
0
VERTEX
5
443
100
AcDbEntity
8
0
100
AcDbVertex
62
7
6
CONTINUOUS
100
AcDb2dVertex
10
296.4943299929
20
124.6428838699
0
VERTEX
5
444
100
AcDbEntity
8
0
100
AcDbVertex
62
7
6
CONTINUOUS
100
AcDb2dVertex
10
296.7412051538
20
124.7418795549
0
VERTEX
5
445
100
AcDbEntity
8
0
100
AcDbVertex
62
7
6
CONTINUOUS
100
AcDb2dVertex
10
297.0235299929
20
124.7810482907
0
SEQEND
5
446
100
AcDbEntity
8
0
0
POLYLINE
5
447
100
AcDbEntity
8
0
100
AcDb2dPolyline
62
7
6
CONTINUOUS
66
1
70
0
0
VERTEX
5
448
100
AcDbEntity
8
0
100
AcDbVertex
62
7
6
CONTINUOUS
100
AcDb2dVertex
10
301.8451299929
20
137.9584290468
0
VERTEX
5
449
100
AcDbEntity
8
0
100
AcDbVertex
62
7
6
CONTINUOUS
100
AcDb2dVertex
10
301.8897955868
20
138.2640833488
0
VERTEX
5
44A
100
AcDbEntity
8
0
100
AcDbVertex
62
7
6
CONTINUOUS
100
AcDb2dVertex
10
302.0026841181
20
138.5313586449
0
VERTEX
5
44B
100
AcDbEntity
8
0
100
AcDbVertex
62
7
6
CONTINUOUS
100
AcDb2dVertex
10
302.1910041883
20
138.7672787808
0
VERTEX
5
44C
100
AcDbEntity
8
0
100
AcDbVertex
62
7
6
CONTINUOUS
100
AcDb2dVertex
10
302.4331299929
20
138.9507722199
0
VERTEX
5
44D
100
AcDbEntity
8
0
100
AcDbVertex
62
7
6
CONTINUOUS
100
AcDb2dVertex
10
302.7074357273
20
139.0607674254
0
VERTEX
5
44E
100
AcDbEntity
8
0
100
AcDbVertex
62
7
6
CONTINUOUS
100
AcDb2dVertex
10
303.0211299929
20
139.1042882430
0
SEQEND
5
44F
100
AcDbEntity
8
0
0
POLYLINE
5
450
100
AcDbEntity
8
0
100
AcDb2dPolyline
62
7
6
CONTINUOUS
66
1
70
0
0
VERTEX
5
451
100
AcDbEntity
8
0
100
AcDbVertex
62
7
6
CONTINUOUS
100
AcDb2dVertex
10
300.6691299929
20
126.4998370850
0
VERTEX
5
452
100
AcDbEntity
8
0
100
AcDbVertex
62
7
6
CONTINUOUS
100
AcDb2dVertex
10
300.6467971960
20
126.3470099340
0
VERTEX
5
453
100
AcDbEntity
8
0
100
AcDbVertex
62
7
6
CONTINUOUS
100
AcDb2dVertex
10
300.5903529303
20
126.2133722859
0
VERTEX
5
454
100
AcDbEntity
8
0
100
AcDbVertex
62
7
6
CONTINUOUS
100
AcDb2dVertex
10
300.4961928952
20
126.0954122180
0
VERTEX
5
455
100
AcDbEntity
8
0
100
AcDbVertex
62
7
6
CONTINUOUS
100
AcDb2dVertex
10
300.3751299929
20
126.0036654984
0
VERTEX
5
456
100
AcDbEntity
8
0
100
AcDbVertex
62
7
6
CONTINUOUS
100
AcDb2dVertex
10
300.2379771257
20
125.9486678957
0
VERTEX
5
457
100
AcDbEntity
8
0
100
AcDbVertex
62
7
6
CONTINUOUS
100
AcDb2dVertex
10
300.0811299929
20
125.9269074869
0
SEQEND
5
458
100
AcDbEntity
8
0
0
LINE
5
459
100
AcDbEntity
8
0
100
AcDbLine
62
7
6
CONTINUOUS
10
296.4428799929
20
142.3346359846
11
296.5286301565
21
142.7612856344
0
LINE
5
45A
100
AcDbEntity
8
0
100
AcDbLine
62
7
6
CONTINUOUS
10
296.4428799929
20
142.2212606532
11
296.5286301565
21
142.6479103030
0
LINE
5
45B
100
AcDbEntity
8
0
100
AcDbLine
62
7
6
CONTINUOUS
10
300.5588799929
20
142.3346359846
11
300.6446296658
21
142.7612856344
0
LINE
5
45C
100
AcDbEntity
8
0
100
AcDbLine
62
7
6
CONTINUOUS
10
300.5588799929
20
142.2212606532
11
300.6446296658
21
142.6479103030
0
LINE
5
45D
100
AcDbEntity
8
0
100
AcDbLine
62
7
6
CONTINUOUS
10
300.1301296658
20
142.7612856344
11
300.0443799929
21
142.4199659146
0
LINE
5
45E
100
AcDbEntity
8
0
100
AcDbLine
62
7
6
CONTINUOUS
10
280.1561169816
20
101.4952748250
11
284.1266676966
21
109.7919126557
0
LINE
5
45F
100
AcDbEntity
8
0
100
AcDbLine
62
7
6
CONTINUOUS
10
280.1561169816
20
100.8204216620
11
284.1266676966
21
109.1170594927
0
LINE
5
460
100
AcDbEntity
8
0
100
AcDbLine
62
7
6
CONTINUOUS
10
296.2713801565
20
141.9933162049
11
296.4428799929
21
142.3346359846
0
LINE
5
461
100
AcDbEntity
8
0
100
AcDbLine
62
7
6
CONTINUOUS
10
296.2713801565
20
141.8799408736
11
296.4428799929
21
142.2212606532
0
LINE
5
462
100
AcDbEntity
8
0
100
AcDbLine
62
7
6
CONTINUOUS
10
300.3873796658
20
141.9933162049
11
300.5588799929
21
142.3346359846
0
LINE
5
463
100
AcDbEntity
8
0
100
AcDbLine
62
7
6
CONTINUOUS
10
300.3873796658
20
141.8799408736
11
300.5588799929
21
142.2212606532
0
POLYLINE
5
464
100
AcDbEntity
8
0
100
AcDb2dPolyline
62
7
6
CONTINUOUS
66
1
70
0
0
VERTEX
5
465
100
AcDbEntity
8
0
100
AcDbVertex
62
7
6
CONTINUOUS
100
AcDb2dVertex
10
300.9842382432
20
139.1042882430
0
VERTEX
5
466
100
AcDbEntity
8
0
100
AcDbVertex
62
7
6
CONTINUOUS
100
AcDb2dVertex
10
300.8892112831
20
138.9262425449
0
VERTEX
5
467
100
AcDbEntity
8
0
100
AcDbVertex
62
7
6
CONTINUOUS
100
AcDb2dVertex
10
300.8109729488
20
138.7422428999
0
VERTEX
5
468
100
AcDbEntity
8
0
100
AcDbVertex
62
7
6
CONTINUOUS
100
AcDb2dVertex
10
300.7493217327
20
138.5515565458
0
VERTEX
5
469
100
AcDbEntity
8
0
100
AcDbVertex
62
7
6
CONTINUOUS
100
AcDb2dVertex
10
300.7048621578
20
138.3563817694
0
VERTEX
5
46A
100
AcDbEntity
8
0
100
AcDbVertex
62
7
6
CONTINUOUS
100
AcDb2dVertex
10
300.6781987471
20
138.1589168571
0
VERTEX
5
46B
100
AcDbEntity
8
0
100
AcDbVertex
62
7
6
CONTINUOUS
100
AcDb2dVertex
10
300.6691299929
20
137.9584290468
0
SEQEND
5
46C
100
AcDbEntity
8
0
0
POLYLINE
5
46D
100
AcDbEntity
8
0
100
AcDb2dPolyline
62
7
6
CONTINUOUS
66
1
70
0
0
VERTEX
5
46E
100
AcDbEntity
8
0
100
AcDbVertex
62
7
6
CONTINUOUS
100
AcDb2dVertex
10
284.1266676966
20
109.7919126557
0
VERTEX
5
46F
100
AcDbEntity
8
0
100
AcDbVertex
62
7
6
CONTINUOUS
100
AcDb2dVertex
10
284.5594625012
20
110.5750446492
0
VERTEX
5
470
100
AcDbEntity
8
0
100
AcDbVertex
62
7
6
CONTINUOUS
100
AcDb2dVertex
10
285.0730439641
20
111.2966768840
0
VERTEX
5
471
100
AcDbEntity
8
0
100
AcDbVertex
62
7
6
CONTINUOUS
100
AcDb2dVertex
10
285.6714793089
20
111.9608421189
0
VERTEX
5
472
100
AcDbEntity
8
0
100
AcDbVertex
62
7
6
CONTINUOUS
100
AcDb2dVertex
10
286.3425668645
20
112.5554420777
0
VERTEX
5
473
100
AcDbEntity
8
0
100
AcDbVertex
62
7
6
CONTINUOUS
100
AcDb2dVertex
10
287.0789989766
20
113.0714164065
0
VERTEX
5
474
100
AcDbEntity
8
0
100
AcDbVertex
62
7
6
CONTINUOUS
100
AcDb2dVertex
10
287.8701608186
20
113.5036840961
0
VERTEX
5
475
100
AcDbEntity
8
0
100
AcDbVertex
62
7
6
CONTINUOUS
100
AcDb2dVertex
10
288.7068402833
20
113.8450187416
0
VERTEX
5
476
100
AcDbEntity
8
0
100
AcDbVertex
62
7
6
CONTINUOUS
100
AcDb2dVertex
10
289.5775215582
20
114.0927961764
0
VERTEX
5
477
100
AcDbEntity
8
0
100
AcDbVertex
62
7
6
CONTINUOUS
100
AcDb2dVertex
10
290.4657948136
20
114.2413543113
0
VERTEX
5
478
100
AcDbEntity
8
0
100
AcDbVertex
62
7
6
CONTINUOUS
100
AcDb2dVertex
10
291.3771299929
20
114.2925805095
0
SEQEND
5
479
100
AcDbEntity
8
0
0
POLYLINE
5
47A
100
AcDbEntity
8
0
100
AcDb2dPolyline
62
7
6
CONTINUOUS
66
1
70
0
0
VERTEX
5
47B
100
AcDbEntity
8
0
100
AcDbVertex
62
7
6
CONTINUOUS
100
AcDb2dVertex
10
284.1266676966
20
109.1170594927
0
VERTEX
5
47C
100
AcDbEntity
8
0
100
AcDbVertex
62
7
6
CONTINUOUS
100
AcDb2dVertex
10
284.6844673953
20
110.0910321471
0
VERTEX
5
47D
100
AcDbEntity
8
0
100
AcDbVertex
62
7
6
CONTINUOUS
100
AcDb2dVertex
10
285.3624115331
20
110.9623414247
0
VERTEX
5
47E
100
AcDbEntity
8
0
100
AcDbVertex
62
7
6
CONTINUOUS
100
AcDb2dVertex
10
286.1690710222
20
111.7381515274
0
VERTEX
5
47F
100
AcDbEntity
8
0
100
AcDbVertex
62
7
6
CONTINUOUS
100
AcDb2dVertex
10
287.0787331261
20
112.3969698497
0
VERTEX
5
480
100
AcDbEntity
8
0
100
AcDbVertex
62
7
6
CONTINUOUS
100
AcDb2dVertex
10
288.0759710959
20
112.9218448578
0
VERTEX
5
481
100
AcDbEntity
8
0
100
AcDbVertex
62
7
6
CONTINUOUS
100
AcDb2dVertex
10
289.1384978807
20
113.3063175387
0
VERTEX
5
482
100
AcDbEntity
8
0
100
AcDbVertex
62
7
6
CONTINUOUS
100
AcDb2dVertex
10
290.2354555171
20
113.5367646777
0
VERTEX
5
483
100
AcDbEntity
8
0
100
AcDbVertex
62
7
6
CONTINUOUS
100
AcDb2dVertex
10
291.3771299929
20
113.6177273464
0
SEQEND
5
484
100
AcDbEntity
8
0
0
LINE
5
485
100
AcDbEntity
8
0
100
AcDbLine
62
7
6
CONTINUOUS
10
295.9283799929
20
142.4199659146
11
295.7568801565
21
142.1639761246
0
LINE
5
486
100
AcDbEntity
8
0
100
AcDbLine
62
7
6
CONTINUOUS
10
300.0443799929
20
142.4199659146
11
299.8728796658
21
142.1639761246
0
LINE
5
487
100
AcDbEntity
8
0
100
AcDbLine
62
7
6
CONTINUOUS
10
295.9283799929
20
141.6519964552
11
296.2713801565
21
141.9933162049
0
LINE
5
488
100
AcDbEntity
8
0
100
AcDbLine
62
7
6
CONTINUOUS
10
295.9283799929
20
141.5386211238
11
296.2713801565
21
141.8799408736
0
LINE
5
489
100
AcDbEntity
8
0
100
AcDbLine
62
7
6
CONTINUOUS
10
300.0443799929
20
141.6519964552
11
300.3873796658
21
141.9933162049
0
LINE
5
48A
100
AcDbEntity
8
0
100
AcDbLine
62
7
6
CONTINUOUS
10
300.0443799929
20
141.5386211238
11
300.3873796658
21
141.8799408736
0
LINE
5
48B
100
AcDbEntity
8
0
100
AcDbLine
62
7
6
CONTINUOUS
10
295.7568801565
20
142.1639761246
11
295.4996301565
21
141.9933162049
0
LINE
5
48C
100
AcDbEntity
8
0
100
AcDbLine
62
7
6
CONTINUOUS
10
299.8728796658
20
142.1639761246
11
299.6156296658
21
141.9933162049
0
LINE
5
48D
100
AcDbEntity
8
0
100
AcDbLine
62
7
6
CONTINUOUS
10
295.5853798294
20
141.4813365728
11
295.9283799929
21
141.6519964552
0
LINE
5
48E
100
AcDbEntity
8
0
100
AcDbLine
62
7
6
CONTINUOUS
10
295.5853798294
20
141.3679612414
11
295.9283799929
21
141.5386211238
0
LINE
5
48F
100
AcDbEntity
8
0
100
AcDbLine
62
7
6
CONTINUOUS
10
299.7013803200
20
141.4813365728
11
300.0443799929
21
141.6519964552
0
LINE
5
490
100
AcDbEntity
8
0
100
AcDbLine
62
7
6
CONTINUOUS
10
299.7013803200
20
141.3679612414
11
300.0443799929
21
141.5386211238
0
LINE
5
491
100
AcDbEntity
8
0
100
AcDbLine
62
7
6
CONTINUOUS
10
295.3771299929
20
156.4167310590
11
307.3771299929
21
158.3173443429
0
LINE
5
492
100
AcDbEntity
8
0
100
AcDbLine
62
7
6
CONTINUOUS
10
308.3771299929
20
154.2879926977
11
282.3771299929
21
154.2879926977
0
LINE
5
493
100
AcDbEntity
8
0
100
AcDbLine
62
7
6
CONTINUOUS
10
308.3771299929
20
155.8902743004
11
282.3771299929
21
155.8902743004
0
LINE
5
494
100
AcDbEntity
8
0
100
AcDbLine
62
7
6
CONTINUOUS
10
283.3771299929
20
158.3173443429
11
295.3771299929
21
156.4167310590
0
LINE
5
495
100
AcDbEntity
8
0
100
AcDbLine
62
7
6
CONTINUOUS
10
300.0443799929
20
145.1505240321
11
299.7013803200
21
145.3211838921
0
LINE
5
496
100
AcDbEntity
8
0
100
AcDbLine
62
7
6
CONTINUOUS
10
299.6156296658
20
144.6958289809
11
299.8728796658
21
144.5251691209
0
LINE
5
497
100
AcDbEntity
8
0
100
AcDbLine
62
7
6
CONTINUOUS
10
299.6156296658
20
144.8092043123
11
299.8728796658
21
144.6385444523
0
LINE
5
498
100
AcDbEntity
8
0
100
AcDbLine
62
7
6
CONTINUOUS
10
300.3873796658
20
144.8092043123
11
300.0443799929
21
145.1505240321
0
LINE
5
499
100
AcDbEntity
8
0
100
AcDbLine
62
7
6
CONTINUOUS
10
299.8728796658
20
144.5251691209
11
300.0443799929
21
144.2691790920
0
LINE
5
49A
100
AcDbEntity
8
0
100
AcDbLine
62
7
6
CONTINUOUS
10
299.8728796658
20
144.6385444523
11
300.0443799929
21
144.3825544234
0
LINE
5
49B
100
AcDbEntity
8
0
100
AcDbLine
62
7
6
CONTINUOUS
10
300.5588799929
20
144.4678845924
11
300.3873796658
21
144.8092043123
0
LINE
5
49C
100
AcDbEntity
8
0
100
AcDbLine
62
7
6
CONTINUOUS
10
300.0443799929
20
144.2691790920
11
300.1033374369
21
144.0345036981
0
LINE
5
49D
100
AcDbEntity
8
0
100
AcDbLine
62
7
6
CONTINUOUS
10
300.0443799929
20
144.3825544234
11
300.1301296658
21
144.0412347035
0
LINE
5
49E
100
AcDbEntity
8
0
100
AcDbLine
62
7
6
CONTINUOUS
10
300.6446296658
20
144.0412347035
11
300.5588799929
21
144.4678845924
0
LINE
5
49F
100
AcDbEntity
8
0
100
AcDbLine
62
7
6
CONTINUOUS
10
307.3771299929
20
192.3356198030
11
307.3771299929
21
189.3353764029
0
LINE
5
4A0
100
AcDbEntity
8
0
100
AcDbLine
62
7
6
CONTINUOUS
10
307.3771299929
20
179.3931998470
11
307.3771299929
21
158.3174866535
0
LINE
5
4A1
100
AcDbEntity
8
0
100
AcDbLine
62
7
6
CONTINUOUS
10
308.3771299929
20
154.2879926977
11
308.3771299929
21
179.3931998470
0
LINE
5
4A2
100
AcDbEntity
8
0
100
AcDbLine
62
7
6
CONTINUOUS
10
308.8771299929
20
220.4177687500
11
308.8771299929
21
284.7785299528
0
LINE
5
4A3
100
AcDbEntity
8
0
100
AcDbLine
62
7
6
CONTINUOUS
10
313.3771299929
20
36.0251870402
11
313.3771299929
21
41.0263065321
0
LINE
5
4A4
100
AcDbEntity
8
0
100
AcDbLine
62
7
6
CONTINUOUS
10
313.3771299929
20
41.1055659702
11
313.3771299929
21
96.6317835656
0
POLYLINE
5
4A5
100
AcDbEntity
8
0
100
AcDb2dPolyline
62
7
6
CONTINUOUS
66
1
70
0
0
VERTEX
5
4A6
100
AcDbEntity
8
0
100
AcDbVertex
62
7
6
CONTINUOUS
100
AcDb2dVertex
10
315.8031373365
20
137.7691299275
0
VERTEX
5
4A7
100
AcDbEntity
8
0
100
AcDbVertex
62
7
6
CONTINUOUS
100
AcDb2dVertex
10
315.8738356214
20
137.8050867335
0
VERTEX
5
4A8
100
AcDbEntity
8
0
100
AcDbVertex
62
7
6
CONTINUOUS
100
AcDb2dVertex
10
315.9468141575
20
137.8361778924
0
VERTEX
5
4A9
100
AcDbEntity
8
0
100
AcDbVertex
62
7
6
CONTINUOUS
100
AcDb2dVertex
10
316.0220729448
20
137.8624034042
0
VERTEX
5
4AA
100
AcDbEntity
8
0
100
AcDbVertex
62
7
6
CONTINUOUS
100
AcDb2dVertex
10
316.0996119832
20
137.8837632691
0
SEQEND
5
4AB
100
AcDbEntity
8
0
0
POLYLINE
5
4AC
100
AcDbEntity
8
0
100
AcDb2dPolyline
62
7
6
CONTINUOUS
66
1
70
0
0
VERTEX
5
4AD
100
AcDbEntity
8
0
100
AcDbVertex
62
7
6
CONTINUOUS
100
AcDb2dVertex
10
274.9511226493
20
116.1496527758
0
VERTEX
5
4AE
100
AcDbEntity
8
0
100
AcDbVertex
62
7
6
CONTINUOUS
100
AcDb2dVertex
10
274.8804243644
20
116.1136959699
0
VERTEX
5
4AF
100
AcDbEntity
8
0
100
AcDbVertex
62
7
6
CONTINUOUS
100
AcDb2dVertex
10
274.8074458283
20
116.0826048110
0
VERTEX
5
4B0
100
AcDbEntity
8
0
100
AcDbVertex
62
7
6
CONTINUOUS
100
AcDb2dVertex
10
274.7321870410
20
116.0563792991
0
VERTEX
5
4B1
100
AcDbEntity
8
0
100
AcDbVertex
62
7
6
CONTINUOUS
100
AcDb2dVertex
10
274.6546480026
20
116.0350194342
0
SEQEND
5
4B2
100
AcDbEntity
8
0
0
POLYLINE
5
4B3
100
AcDbEntity
8
0
100
AcDb2dPolyline
62
7
6
CONTINUOUS
66
1
70
0
0
VERTEX
5
4B4
100
AcDbEntity
8
0
100
AcDbVertex
62
7
6
CONTINUOUS
100
AcDb2dVertex
10
315.8031373365
20
137.7691299275
0
VERTEX
5
4B5
100
AcDbEntity
8
0
100
AcDbVertex
62
7
6
CONTINUOUS
100
AcDb2dVertex
10
314.7315429361
20
137.2765771948
0
VERTEX
5
4B6
100
AcDbEntity
8
0
100
AcDbVertex
62
7
6
CONTINUOUS
100
AcDb2dVertex
10
313.7239448975
20
136.6901792801
0
VERTEX
5
4B7
100
AcDbEntity
8
0
100
AcDbVertex
62
7
6
CONTINUOUS
100
AcDb2dVertex
10
312.7759647937
20
136.0064881657
0
VERTEX
5
4B8
100
AcDbEntity
8
0
100
AcDbVertex
62
7
6
CONTINUOUS
100
AcDb2dVertex
10
311.9007379059
20
135.2358479051
0
VERTEX
5
4B9
100
AcDbEntity
8
0
100
AcDbVertex
62
7
6
CONTINUOUS
100
AcDb2dVertex
10
311.1075937994
20
134.3839878467
0
VERTEX
5
4BA
100
AcDbEntity
8
0
100
AcDbVertex
62
7
6
CONTINUOUS
100
AcDb2dVertex
10
310.4035711948
20
133.4613040877
0
VERTEX
5
4BB
100
AcDbEntity
8
0
100
AcDbVertex
62
7
6
CONTINUOUS
100
AcDb2dVertex
10
309.7977213781
20
132.4773738288
0
VERTEX
5
4BC
100
AcDbEntity
8
0
100
AcDbVertex
62
7
6
CONTINUOUS
100
AcDb2dVertex
10
309.2933362179
20
131.4403831066
0
VERTEX
5
4BD
100
AcDbEntity
8
0
100
AcDbVertex
62
7
6
CONTINUOUS
100
AcDb2dVertex
10
308.8956440931
20
130.3570814767
0
VERTEX
5
4BE
100
AcDbEntity
8
0
100
AcDbVertex
62
7
6
CONTINUOUS
100
AcDb2dVertex
10
308.6078867595
20
129.2413555825
0
VERTEX
5
4BF
100
AcDbEntity
8
0
100
AcDbVertex
62
7
6
CONTINUOUS
100
AcDb2dVertex
10
308.4352131954
20
128.1066430043
0
VERTEX
5
4C0
100
AcDbEntity
8
0
100
AcDbVertex
62
7
6
CONTINUOUS
100
AcDb2dVertex
10
308.3771301123
20
126.9610404865
0
VERTEX
5
4C1
100
AcDbEntity
8
0
100
AcDbVertex
62
7
6
CONTINUOUS
100
AcDb2dVertex
10
308.4355849332
20
125.8126150417
0
VERTEX
5
4C2
100
AcDbEntity
8
0
100
AcDbVertex
62
7
6
CONTINUOUS
100
AcDb2dVertex
10
308.6084045021
20
124.6748934460
0
VERTEX
5
4C3
100
AcDbEntity
8
0
100
AcDbVertex
62
7
6
CONTINUOUS
100
AcDb2dVertex
10
308.8954849033
20
123.5611126374
0
VERTEX
5
4C4
100
AcDbEntity
8
0
100
AcDbVertex
62
7
6
CONTINUOUS
100
AcDb2dVertex
10
309.2925658387
20
122.4802091422
0
VERTEX
5
4C5
100
AcDbEntity
8
0
100
AcDbVertex
62
7
6
CONTINUOUS
100
AcDb2dVertex
10
309.7973512323
20
121.4424177882
0
VERTEX
5
4C6
100
AcDbEntity
8
0
100
AcDbVertex
62
7
6
CONTINUOUS
100
AcDb2dVertex
10
310.4038445029
20
120.4570806092
0
VERTEX
5
4C7
100
AcDbEntity
8
0
100
AcDbVertex
62
7
6
CONTINUOUS
100
AcDb2dVertex
10
311.1084276711
20
119.5338784348
0
VERTEX
5
4C8
100
AcDbEntity
8
0
100
AcDbVertex
62
7
6
CONTINUOUS
100
AcDb2dVertex
10
311.9016688560
20
118.6820297052
0
VERTEX
5
4C9
100
AcDbEntity
8
0
100
AcDbVertex
62
7
6
CONTINUOUS
100
AcDb2dVertex
10
312.7754964216
20
117.9124432831
0
VERTEX
5
4CA
100
AcDbEntity
8
0
100
AcDbVertex
62
7
6
CONTINUOUS
100
AcDb2dVertex
10
313.7222116534
20
117.2297287299
0
VERTEX
5
4CB
100
AcDbEntity
8
0
100
AcDbVertex
62
7
6
CONTINUOUS
100
AcDb2dVertex
10
314.7301266342
20
116.6431626252
0
VERTEX
5
4CC
100
AcDbEntity
8
0
100
AcDbVertex
62
7
6
CONTINUOUS
100
AcDb2dVertex
10
315.8031373365
20
116.1496527758
0
SEQEND
5
4CD
100
AcDbEntity
8
0
0
LINE
5
4CE
100
AcDbEntity
8
0
100
AcDbLine
62
7
6
CONTINUOUS
10
319.6772206847
20
138.6319269514
11
319.6772206847
21
145.9596076150
0
LINE
5
4CF
100
AcDbEntity
8
0
100
AcDbLine
62
7
6
CONTINUOUS
10
323.3771299929
20
208.1381249711
11
323.3771299929
21
150.2693850204
0
LINE
5
4D0
100
AcDbEntity
8
0
100
AcDbLine
62
7
6
CONTINUOUS
10
320.7757097162
20
121.5854140164
11
321.5805234873
21
166.7809534867
0
LINE
5
4D1
100
AcDbEntity
8
0
100
AcDbLine
62
7
6
CONTINUOUS
10
317.7761012495
20
123.0415775931
11
317.7771299929
21
123.0952363674
0
LINE
5
4D2
100
AcDbEntity
8
0
100
AcDbLine
62
7
6
CONTINUOUS
10
317.7771299929
20
129.6430032027
11
317.7656662528
21
129.4642119075
0
LINE
5
4D3
100
AcDbEntity
8
0
100
AcDbLine
62
7
6
CONTINUOUS
10
317.5651434846
20
115.5925081150
11
313.4563781350
21
100.6513996025
0
LINE
5
4D4
100
AcDbEntity
8
0
100
AcDbLine
62
7
6
CONTINUOUS
10
313.3219808206
20
98.4997245993
11
313.7281029232
21
99.9765464394
0
LINE
5
4D5
100
AcDbEntity
8
0
100
AcDbLine
62
7
6
CONTINUOUS
10
321.1723461868
20
143.8591373368
11
323.2565152345
21
149.5853447338
0
POLYLINE
5
4D6
100
AcDbEntity
8
0
100
AcDb2dPolyline
62
7
6
CONTINUOUS
66
1
70
0
0
VERTEX
5
4D7
100
AcDbEntity
8
0
100
AcDbVertex
62
7
6
CONTINUOUS
100
AcDb2dVertex
10
291.6636045013
20
107.9930172499
0
VERTEX
5
4D8
100
AcDbEntity
8
0
100
AcDbVertex
62
7
6
CONTINUOUS
100
AcDb2dVertex
10
291.8167099889
20
108.1671782264
0
VERTEX
5
4D9
100
AcDbEntity
8
0
100
AcDbVertex
62
7
6
CONTINUOUS
100
AcDb2dVertex
10
291.9954521145
20
108.3163596302
0
VERTEX
5
4DA
100
AcDbEntity
8
0
100
AcDbVertex
62
7
6
CONTINUOUS
100
AcDb2dVertex
10
292.1962984405
20
108.4358969727
0
VERTEX
5
4DB
100
AcDbEntity
8
0
100
AcDbVertex
62
7
6
CONTINUOUS
100
AcDb2dVertex
10
292.4136045013
20
108.5239582175
0
VERTEX
5
4DC
100
AcDbEntity
8
0
100
AcDbVertex
62
7
6
CONTINUOUS
100
AcDb2dVertex
10
292.6396956090
20
108.5767331402
0
VERTEX
5
4DD
100
AcDbEntity
8
0
100
AcDbVertex
62
7
6
CONTINUOUS
100
AcDb2dVertex
10
292.8771299929
20
108.5954918156
0
SEQEND
5
4DE
100
AcDbEntity
8
0
0
POLYLINE
5
4DF
100
AcDbEntity
8
0
100
AcDb2dPolyline
62
7
6
CONTINUOUS
66
1
70
0
0
VERTEX
5
4E0
100
AcDbEntity
8
0
100
AcDbVertex
62
7
6
CONTINUOUS
100
AcDb2dVertex
10
274.6546480026
20
116.0350194342
0
VERTEX
5
4E1
100
AcDbEntity
8
0
100
AcDbVertex
62
7
6
CONTINUOUS
100
AcDb2dVertex
10
274.2960682556
20
115.9079686233
0
VERTEX
5
4E2
100
AcDbEntity
8
0
100
AcDbVertex
62
7
6
CONTINUOUS
100
AcDb2dVertex
10
273.9322864230
20
115.7918664665
0
VERTEX
5
4E3
100
AcDbEntity
8
0
100
AcDbVertex
62
7
6
CONTINUOUS
100
AcDb2dVertex
10
273.5633025049
20
115.6867129637
0
VERTEX
5
4E4
100
AcDbEntity
8
0
100
AcDbVertex
62
7
6
CONTINUOUS
100
AcDb2dVertex
10
273.1891165012
20
115.5925081150
0
SEQEND
5
4E5
100
AcDbEntity
8
0
0
LINE
5
4E6
100
AcDbEntity
8
0
100
AcDbLine
62
7
6
CONTINUOUS
10
282.3771299929
20
166.4167310590
11
283.3771299929
21
166.4167310590
0
LINE
5
4E7
100
AcDbEntity
8
0
100
AcDbLine
62
7
6
CONTINUOUS
10
307.3771299929
20
166.4167310590
11
308.3771299929
21
166.4167310590
0
LINE
5
4E8
100
AcDbEntity
8
0
100
AcDbLine
62
7
6
CONTINUOUS
10
314.2774392795
20
99.2025643910
11
313.7748554676
21
97.3749693276
0
LINE
5
4E9
100
AcDbEntity
8
0
100
AcDbLine
62
7
6
CONTINUOUS
10
314.2774392795
20
99.2025643910
11
320.3935797647
21
119.1883820346
0
LINE
5
4EA
100
AcDbEntity
8
0
100
AcDbLine
62
7
6
CONTINUOUS
10
282.3771299929
20
178.4167310590
11
283.3771299929
21
178.4167310590
0
LINE
5
4EB
100
AcDbEntity
8
0
100
AcDbLine
62
7
6
CONTINUOUS
10
307.3771299929
20
178.4167310590
11
308.3771299929
21
178.4167310590
0
LINE
5
4EC
100
AcDbEntity
8
0
100
AcDbLine
62
7
6
CONTINUOUS
10
282.3771299929
20
179.3931998470
11
308.3771299929
21
179.3931998470
0
LINE
5
4ED
100
AcDbEntity
8
0
100
AcDbLine
62
7
6
CONTINUOUS
10
319.1522887035
20
189.2072267268
11
320.3771299929
21
186.0579119660
0
LINE
5
4EE
100
AcDbEntity
8
0
100
AcDbLine
62
7
6
CONTINUOUS
10
308.1408895024
20
27.2339078053
11
302.6649225616
21
5.2710040062
0
LINE
5
4EF
100
AcDbEntity
8
0
100
AcDbLine
62
7
6
CONTINUOUS
10
319.0542439874
20
189.3353764029
11
271.7000159984
21
189.3353764029
0
LINE
5
4F0
100
AcDbEntity
8
0
100
AcDbLine
62
7
6
CONTINUOUS
10
312.1670292763
20
215.7193056461
11
320.0872307095
21
212.8365880750
0
LINE
5
4F1
100
AcDbEntity
8
DEFAULT_1
100
AcDbLine
62
2
6
CENTER
10
311.8771299929
20
228.9167310590
11
284.8733716261
21
228.9167310590
0
LINE
5
4F2
100
AcDbEntity
8
0
100
AcDbLine
62
7
6
CONTINUOUS
10
281.8771299929
20
284.7785411146
11
295.3771299929
21
286.9167310590
0
LINE
5
4F3
100
AcDbEntity
8
0
100
AcDbLine
62
7
6
CONTINUOUS
10
295.3771299929
20
286.9167310590
11
308.8771299929
21
284.7785411146
0
ARC
5
4F4
100
AcDbEntity
8
0
100
AcDbCircle
62
7
6
CONTINUOUS
10
59.8547605641
20
123.0952363674
40
1.4000000000
100
AcDbArc
50
77.7262038775
51
241.1363884149
0
ARC
5
4F5
100
AcDbEntity
8
0
100
AcDbCircle
62
7
6
CONTINUOUS
10
65.1423142927
20
184.3353764029
40
5.0000000000
100
AcDbArc
50
77.0000000000
51
138.9275130641
0
ARC
5
4F6
100
AcDbEntity
8
0
100
AcDbCircle
62
7
6
CONTINUOUS
10
60.4034783976
20
133.3137002803
40
1.4000000000
100
AcDbArc
50
98.2249620357
51
267.4211013545
0
ARC
5
4F7
100
AcDbEntity
8
0
100
AcDbCircle
62
7
6
CONTINUOUS
10
63.1012342990
20
181.4286485730
40
5.0000000000
100
AcDbArc
50
150.9200670692
51
206.1288116872
0
ARC
5
4F8
100
AcDbEntity
8
0
100
AcDbCircle
62
7
6
CONTINUOUS
10
61.3664316493
20
129.6430032027
40
1.4000000000
100
AcDbArc
50
92.8673770693
51
256.3151770035
0
ARC
5
4F9
100
AcDbEntity
8
0
100
AcDbCircle
62
7
6
CONTINUOUS
10
59.5738663577
20
126.6084677069
40
1.4000000000
100
AcDbArc
50
72.4123608440
51
261.5871733401
0
ARC
5
4FA
100
AcDbEntity
8
0
100
AcDbCircle
62
7
6
CONTINUOUS
10
56.5424535992
20
116.9631790805
40
1.4000000000
100
AcDbArc
50
62.9443480761
51
225.0646707258
0
ARC
5
4FB
100
AcDbEntity
8
0
100
AcDbCircle
62
7
6
CONTINUOUS
10
57.3801362272
20
120.2181666096
40
1.4000000000
100
AcDbArc
50
66.7349251057
51
235.8004451144
0
ARC
5
4FC
100
AcDbEntity
8
0
100
AcDbCircle
62
7
6
CONTINUOUS
10
61.0774668547
20
136.6064795865
40
1.4000000000
100
AcDbArc
50
108.9353292742
51
271.0664206205
0
ARC
5
4FD
100
AcDbEntity
8
0
100
AcDbCircle
62
7
6
CONTINUOUS
10
76.7589357106
20
172.4167310590
40
14.0000000000
100
AcDbArc
50
336.2619648086
51
77.0000000000
0
ARC
5
4FE
100
AcDbEntity
8
0
100
AcDbCircle
62
7
6
CONTINUOUS
10
77.9582568298
20
173.1661500694
40
22.0000000000
100
AcDbArc
50
138.9275130641
51
150.9200670692
0
ARC
5
4FF
100
AcDbEntity
8
0
100
AcDbCircle
62
7
6
CONTINUOUS
10
13.7218913771
20
157.2071603322
40
50.0000000000
100
AcDbArc
50
347.0000000000
51
26.1288116872
0
CIRCLE
5
500
100
AcDbEntity
8
0
100
AcDbCircle
62
7
6
CONTINUOUS
10
76.7589357106
20
172.4167310590
40
6.0000000000
0
ARC
5
501
100
AcDbEntity
8
0
100
AcDbCircle
62
7
6
CONTINUOUS
10
55.2249723391
20
186.9868519066
40
10.0000000000
100
AcDbArc
50
13.5633633242
51
38.0694263243
0
ARC
5
502
100
AcDbEntity
8
0
100
AcDbCircle
62
7
6
CONTINUOUS
10
76.7589357106
20
172.4167310590
40
16.0000000000
100
AcDbArc
50
174.6464806077
51
212.4760582163
0
ARC
5
503
100
AcDbEntity
8
0
100
AcDbCircle
62
7
6
CONTINUOUS
10
76.7589357106
20
172.4167310590
40
16.0000000000
100
AcDbArc
50
307.3785278735
51
317.9409309820
0
ARC
5
504
100
AcDbEntity
8
0
100
AcDbCircle
62
7
6
CONTINUOUS
10
91.2368002399
20
159.3537513578
40
3.5000000000
100
AcDbArc
50
37.5000000000
51
137.9409309820
0
ARC
5
505
100
AcDbEntity
8
0
100
AcDbCircle
62
7
6
CONTINUOUS
10
-8.8429803472
20
44.0517769162
40
91.0000000000
100
AcDbArc
50
19.8110659549
51
39.6986158688
0
ARC
5
506
100
AcDbEntity
8
0
100
AcDbCircle
62
7
6
CONTINUOUS
10
-1.0908208883
20
61.2520899102
40
50.0000000000
100
AcDbArc
50
2.9949421284
51
28.7637302533
0
ARC
5
507
100
AcDbEntity
8
0
100
AcDbCircle
62
7
6
CONTINUOUS
10
108.7589357106
20
66.9993479658
40
60.0000000000
100
AcDbArc
50
182.9949421284
51
239.8445741833
0
ARC
5
508
100
AcDbEntity
8
0
100
AcDbCircle
62
7
6
CONTINUOUS
10
119.4589357106
20
85.4167310590
40
81.3000000000
100
AcDbArc
50
239.8445741833
51
55.0000000000
0
ARC
5
509
100
AcDbEntity
8
0
100
AcDbCircle
62
7
6
CONTINUOUS
10
180.7806196657
20
178.3510374271
40
30.0000000000
100
AcDbArc
50
145.0000000000
51
235.0000000000
0
CIRCLE
5
50A
100
AcDbEntity
8
0
100
AcDbCircle
62
7
6
CONTINUOUS
10
108.7589357106
20
228.9167310590
40
31.5000000000
0
ARC
5
50B
100
AcDbEntity
8
0
100
AcDbCircle
62
7
6
CONTINUOUS
10
53.8629029563
20
102.9072966160
40
5.0000000000
100
AcDbArc
50
92.3928337067
51
120.0000000000
0
ARC
5
50C
100
AcDbEntity
8
0
100
AcDbCircle
62
7
6
CONTINUOUS
10
55.8889244854
20
92.5300153074
40
15.0000000000
100
AcDbArc
50
120.0000000000
51
208.7637302533
0
ARC
5
50D
100
AcDbEntity
8
0
100
AcDbCircle
62
7
6
CONTINUOUS
10
108.7589357106
20
228.9167310590
40
58.0000000000
100
AcDbArc
50
325.0000000000
51
218.0694263243
0
ARC
5
50E
100
AcDbEntity
8
0
100
AcDbCircle
62
7
6
CONTINUOUS
10
108.7589357106
20
86.4167310590
40
34.0000000000
100
AcDbArc
50
199.8110659549
51
37.5000000000
0
ARC
5
50F
100
AcDbEntity
8
0
100
AcDbCircle
62
7
6
CONTINUOUS
10
76.7589357106
20
172.4167310590
40
16.0000000000
100
AcDbArc
50
6.0783123647
51
73.4929725326
0
ARC
5
510
100
AcDbEntity
8
0
100
AcDbCircle
62
7
6
CONTINUOUS
10
108.7589357106
20
228.9167310590
40
56.7329244774
100
AcDbArc
50
350.3603368192
51
12.7284521935
0
ARC
5
511
100
AcDbEntity
8
0
100
AcDbCircle
62
7
6
CONTINUOUS
10
108.7589357106
20
228.9167310590
40
31.9278872500
100
AcDbArc
50
342.6897587997
51
23.0483187516
0
ARC
5
512
100
AcDbEntity
8
DEFAULT_2
100
AcDbCircle
62
8
6
HIDDEN
10
285.3771299929
20
44.7580959010
40
6.0000000000
100
AcDbArc
50
99.0000000000
51
143.1681146399
0
ARC
5
513
100
AcDbEntity
8
DEFAULT_2
100
AcDbCircle
62
8
6
HIDDEN
10
295.3771299929
20
335.4167310590
40
75.0000000000
100
AcDbArc
50
259.6302401945
51
280.3697598055
0
ARC
5
514
100
AcDbEntity
8
DEFAULT_2
100
AcDbCircle
62
8
6
HIDDEN
10
295.3771299929
20
122.4167310590
40
75.0000000000
100
AcDbArc
50
68.0786599385
51
111.9213400615
0
ARC
5
515
100
AcDbEntity
8
DEFAULT_2
100
AcDbCircle
62
8
6
HIDDEN
10
305.3771299929
20
44.7580959010
40
6.0000000000
100
AcDbArc
50
36.8318853601
51
81.0000000000
0
ARC
5
516
100
AcDbEntity
8
0
100
AcDbCircle
62
7
6
CONTINUOUS
10
287.3771299929
20
36.0250042785
40
10.0000000000
100
AcDbArc
50
180.0000000000
51
243.3485825872
0
ARC
5
517
100
AcDbEntity
8
0
100
AcDbCircle
62
7
6
CONTINUOUS
10
303.3771299929
20
36.0250042785
40
10.0000000000
100
AcDbArc
50
296.6514174128
51
360.0000000000
0
ARC
5
518
100
AcDbEntity
8
0
100
AcDbCircle
62
7
6
CONTINUOUS
10
313.8771299929
20
220.4177687500
40
5.0000000000
100
AcDbArc
50
180.0000000000
51
250.0000000000
0
ARC
5
519
100
AcDbEntity
8
0
100
AcDbCircle
62
7
6
CONTINUOUS
10
318.3771299929
20
208.1381249711
40
5.0000000000
100
AcDbArc
50
0.0000000000
51
70.0000000000
0
ARC
5
51A
100
AcDbEntity
8
0
100
AcDbCircle
62
7
6
CONTINUOUS
10
321.3771299929
20
150.2693850204
40
2.0000000000
100
AcDbArc
50
340.0000000000
51
360.0000000000
0
ARC
5
51B
100
AcDbEntity
8
0
100
AcDbCircle
62
7
6
CONTINUOUS
10
269.3771299929
20
150.2693850204
40
2.0000000000
100
AcDbArc
50
180.0000000000
51
200.0000000000
0
ARC
5
51C
100
AcDbEntity
8
0
100
AcDbCircle
62
7
6
CONTINUOUS
10
272.3771299929
20
208.1381249711
40
5.0000000000
100
AcDbArc
50
110.0000000000
51
180.0000000000
0
ARC
5
51D
100
AcDbEntity
8
0
100
AcDbCircle
62
7
6
CONTINUOUS
10
276.8771299929
20
220.4177687500
40
5.0000000000
100
AcDbArc
50
290.0000000000
51
360.0000000000
0
SPLINE
5
51E
100
AcDbEntity
8
0
100
AcDbSpline
62
7
6
CONTINUOUS
70
0
71
3
72
15
73
11
74
9
42
0.0000001000
43
0.0000001000
44
0.0000000001
40
0.0000000000
40
0.0000000000
40
0.0000000000
40
0.0000000000
40
0.0146928295
40
0.0783209767
40
0.1782633745
40
0.3007253966
40
0.4450716729
40
0.6150240819
40
0.8039445395
40
1.0000000000
40
1.0000000000
40
1.0000000000
40
1.0000000000
10
60.1541919658
20
124.4574094422
30
0.0000000000
10
60.1610147555
20
124.4568965428
30
0.0000000000
10
60.1941746711
20
124.4482641067
30
0.0000000000
10
60.2010521044
20
124.3374819132
30
0.0000000000
10
60.1934211577
20
124.2146343049
30
0.0000000000
10
60.1625633839
20
124.0367652302
30
0.0000000000
10
60.1151921925
20
123.8354951313
30
0.0000000000
10
60.0498876561
20
123.6035981554
30
0.0000000000
10
59.9687624801
20
123.3515520201
30
0.0000000000
10
59.9067727244
20
123.1784443531
30
0.0000000000
10
59.8738401374
20
123.0908315008
30
0.0000000000
11
60.1541919658
21
124.4574094422
31
0.0000000000
11
60.1723955461
21
124.4522485600
31
0.0000000000
11
60.1980358715
21
124.3648008024
31
0.0000000000
11
60.1914413574
21
124.2218137208
31
0.0000000000
11
60.1630375794
21
124.0487368912
31
0.0000000000
11
60.1165565176
21
123.8472949113
31
0.0000000000
11
60.0510279027
21
123.6128728540
31
0.0000000000
11
59.9684304757
21
123.3552133695
31
0.0000000000
11
59.8738401374
21
123.0908315008
31
0.0000000000
0
SPLINE
5
51F
100
AcDbEntity
8
0
100
AcDbSpline
62
7
6
CONTINUOUS
70
0
71
3
72
12
73
8
74
6
42
0.0000001000
43
0.0000001000
44
0.0000000001
40
0.0000000000
40
0.0000000000
40
0.0000000000
40
0.0000000000
40
0.0722082396
40
0.2387328492
40
0.4624849330
40
0.7207383818
40
1.0000000000
40
1.0000000000
40
1.0000000000
40
1.0000000000
10
61.2955020836
20
131.0400232019
30
0.0000000000
10
61.3202515311
20
131.0339306738
30
0.0000000000
10
61.4049280021
20
130.9072910466
30
0.0000000000
10
61.4033968920
20
130.7031080194
30
0.0000000000
10
61.4291776742
20
130.3876108215
30
0.0000000000
10
61.4152952242
20
130.0271224849
30
0.0000000000
10
61.3980303483
20
129.7710521343
30
0.0000000000
10
61.3855112226
20
129.6385983362
30
0.0000000000
11
61.2955020836
21
131.0400232019
31
0.0000000000
11
61.3636558847
21
130.9592659070
31
0.0000000000
11
61.4066461362
21
130.7251768150
31
0.0000000000
11
61.4217829875
21
130.4057394408
31
0.0000000000
11
61.4139556246
21
130.0367158444
31
0.0000000000
11
61.3855112226
21
129.6385983362
31
0.0000000000
0
SPLINE
5
520
100
AcDbEntity
8
0
100
AcDbSpline
62
7
6
CONTINUOUS
70
0
71
3
72
9
73
5
74
3
42
0.0000001000
43
0.0000001000
44
0.0000000001
40
0.0000000000
40
0.0000000000
40
0.0000000000
40
0.0000000000
40
0.1495252528
40
1.0000000000
40
1.0000000000
40
1.0000000000
40
1.0000000000
10
60.6170616188
20
137.9163873875
30
0.0000000000
10
60.6278834367
20
137.9198185713
30
0.0000000000
10
60.7042122265
20
137.9295396456
30
0.0000000000
10
60.7295518637
20
137.8420257469
30
0.0000000000
10
60.7514383801
20
137.7772738952
30
0.0000000000
11
60.6170616188
21
137.9163873875
31
0.0000000000
11
60.6495695946
21
137.9205517032
31
0.0000000000
11
60.7514383801
21
137.7772738952
31
0.0000000000
0
SPLINE
5
521
100
AcDbEntity
8
0
100
AcDbSpline
62
7
6
CONTINUOUS
70
0
71
3
72
10
73
6
74
4
42
0.0000001000
43
0.0000001000
44
0.0000000001
40
0.0000000000
40
0.0000000000
40
0.0000000000
40
0.0000000000
40
0.2651793527
40
0.6179918079
40
1.0000000000
40
1.0000000000
40
1.0000000000
40
1.0000000000
10
60.7514383801
20
137.7772738952
30
0.0000000000
10
60.7916806873
20
137.6582159390
30
0.0000000000
10
60.8881097000
20
137.4569937390
30
0.0000000000
10
60.9888371567
20
137.0462149051
30
0.0000000000
10
61.0517536666
20
136.7586030461
30
0.0000000000
10
61.0797987044
20
136.6059412366
30
0.0000000000
11
60.7514383801
21
137.7772738952
31
0.0000000000
11
60.8681423153
21
137.4758360686
31
0.0000000000
11
60.9833374509
21
137.0614899130
31
0.0000000000
11
61.0797987044
21
136.6059412366
31
0.0000000000
0
SPLINE
5
522
100
AcDbEntity
8
0
100
AcDbSpline
62
7
6
CONTINUOUS
70
0
71
3
72
12
73
8
74
6
42
0.0000001000
43
0.0000001000
44
0.0000000001
40
0.0000000000
40
0.0000000000
40
0.0000000000
40
0.0000000000
40
0.0657057167
40
0.2177362503
40
0.4322612471
40
0.7013598415
40
1.0000000000
40
1.0000000000
40
1.0000000000
40
1.0000000000
10
59.9957973732
20
127.9378082897
30
0.0000000000
10
60.0277700072
20
127.9258749788
30
0.0000000000
10
60.1283861233
20
127.8570221741
30
0.0000000000
10
60.1838034664
20
127.6334815371
30
0.0000000000
10
60.2148309985
20
127.3161530867
30
0.0000000000
10
60.1857467827
20
126.9174828250
30
0.0000000000
10
60.1356469795
20
126.6341285730
30
0.0000000000
10
60.1015947160
20
126.4866320154
30
0.0000000000
11
59.9957973732
21
127.9378082897
31
0.0000000000
11
60.0818748786
21
127.8803360688
31
0.0000000000
11
60.1707854158
21
127.6669304600
31
0.0000000000
11
60.2039843149
21
127.3424054254
31
0.0000000000
11
60.1803318871
21
126.9338831509
31
0.0000000000
11
60.1015947160
21
126.4866320154
31
0.0000000000
0
SPLINE
5
523
100
AcDbEntity
8
0
100
AcDbSpline
62
7
6
CONTINUOUS
70
0
71
3
72
12
73
8
74
6
42
0.0000001000
43
0.0000001000
44
0.0000000001
40
0.0000000000
40
0.0000000000
40
0.0000000000
40
0.0000000000
40
0.0489296625
40
0.1865178631
40
0.3981867830
40
0.6796973992
40
1.0000000000
40
1.0000000000
40
1.0000000000
40
1.0000000000
10
57.9360532165
20
121.4964635634
30
0.0000000000
10
57.9587898101
20
121.4869980540
30
0.0000000000
10
58.0375493777
20
121.4361822110
30
0.0000000000
10
58.0613668647
20
121.2199235124
30
0.0000000000
10
58.0180136792
20
120.9261126341
30
0.0000000000
10
57.8933851393
20
120.5460080467
30
0.0000000000
10
57.7703206701
20
120.2820823345
30
0.0000000000
10
57.6976946179
20
120.1448524783
30
0.0000000000
11
57.9360532165
21
121.4964635634
31
0.0000000000
11
57.9954598477
21
121.4568625842
31
0.0000000000
11
58.0499682748
21
121.2643477597
31
0.0000000000
11
58.0151398671
21
120.9585124167
31
0.0000000000
11
57.8925747933
21
120.5679138323
31
0.0000000000
11
57.6976946179
21
120.1448524783
31
0.0000000000
0
SPLINE
5
524
100
AcDbEntity
8
0
100
AcDbSpline
62
7
6
CONTINUOUS
70
0
71
3
72
10
73
6
74
4
42
0.0000001000
43
0.0000001000
44
0.0000000001
40
0.0000000000
40
0.0000000000
40
0.0000000000
40
0.0000000000
40
0.3062086973
40
0.6400647799
40
1.0000000000
40
1.0000000000
40
1.0000000000
40
1.0000000000
10
60.2893933524
20
123.8723093239
30
0.0000000000
10
60.2043637541
20
123.6203369476
30
0.0000000000
10
60.0180027031
20
123.0965052919
30
0.0000000000
10
59.6987437077
20
122.2886634927
30
0.0000000000
10
59.4556442372
20
121.7371151639
30
0.0000000000
10
59.3234671165
20
121.4538429255
30
0.0000000000
11
60.2893933524
21
123.8723093239
31
0.0000000000
11
60.0219362070
21
123.1206793122
31
0.0000000000
11
59.7020679590
21
122.3117980365
31
0.0000000000
11
59.3234671165
21
121.4538429255
31
0.0000000000
0
SPLINE
5
525
100
AcDbEntity
8
0
100
AcDbSpline
62
7
6
CONTINUOUS
70
0
71
3
72
12
73
8
74
6
42
0.0000001000
43
0.0000001000
44
0.0000000001
40
0.0000000000
40
0.0000000000
40
0.0000000000
40
0.0000000000
40
0.3266202577
40
0.6282779117
40
0.8550085167
40
0.9783201118
40
1.0000000000
40
1.0000000000
40
1.0000000000
40
1.0000000000
10
56.5447854488
20
116.9626407305
30
0.0000000000
10
56.4526562033
20
116.8377233405
30
0.0000000000
10
56.2700264784
20
116.6068002965
30
0.0000000000
10
55.9994196515
20
116.2817507370
30
0.0000000000
10
55.7837275782
20
116.1108229660
30
0.0000000000
10
55.6269832062
20
115.9376446359
30
0.0000000000
10
55.5626407829
20
115.9798422187
30
0.0000000000
10
55.5544183293
20
115.9876701190
30
0.0000000000
11
56.5447854488
21
116.9626407305
31
0.0000000000
11
56.2583872528
21
116.5954821227
31
0.0000000000
11
55.9732131514
21
116.2735684887
31
0.0000000000
11
55.7361787035
21
116.0537976027
31
0.0000000000
11
55.5818107885
21
115.9696766982
31
0.0000000000
11
55.5544183293
21
115.9876701190
31
0.0000000000
0
SPLINE
5
526
100
AcDbEntity
8
0
100
AcDbSpline
62
7
6
CONTINUOUS
70
0
71
3
72
11
73
7
74
5
42
0.0000001000
43
0.0000001000
44
0.0000000001
40
0.0000000000
40
0.0000000000
40
0.0000000000
40
0.0000000000
40
0.2827620648
40
0.5420255806
40
0.7803934144
40
1.0000000000
40
1.0000000000
40
1.0000000000
40
1.0000000000
10
55.4295972851
20
115.5925081150
30
0.0000000000
10
55.8764593468
20
116.0857741312
30
0.0000000000
10
56.6935346140
20
117.0680344689
30
0.0000000000
10
57.7508628938
20
118.5723003316
30
0.0000000000
10
58.6168075183
20
120.0232163642
30
0.0000000000
10
59.1048910345
20
120.9854068171
30
0.0000000000
10
59.3234671165
20
121.4538429255
30
0.0000000000
11
55.4295972851
21
115.5925081150
31
0.0000000000
11
56.7064500127
21
117.1276370009
31
0.0000000000
11
57.7592456750
21
118.6254573985
31
0.0000000000
11
58.6218922253
21
120.0708520745
31
0.0000000000
11
59.3234671165
21
121.4538429255
31
0.0000000000
0
SPLINE
5
527
100
AcDbEntity
8
0
100
AcDbSpline
62
7
6
CONTINUOUS
70
0
71
3
72
12
73
8
74
6
42
0.0000001000
43
0.0000001000
44
0.0000000001
40
0.0000000000
40
0.0000000000
40
0.0000000000
40
0.0000000000
40
0.3456508730
40
0.6419326155
40
0.8571681429
40
0.9749104701
40
1.0000000000
40
1.0000000000
40
1.0000000000
40
1.0000000000
10
61.0797987044
20
136.6059412366
30
0.0000000000
10
61.1094938293
20
136.4442972576
30
0.0000000000
10
61.1539554070
20
136.1469773452
30
0.0000000000
10
61.2020921630
20
135.7248306175
30
0.0000000000
10
61.1838778551
20
135.4616542564
30
0.0000000000
10
61.1928548673
20
135.2341266368
30
0.0000000000
10
61.1245351634
20
135.2211537386
30
0.0000000000
10
61.1120175316
20
135.2209613784
30
0.0000000000
11
61.0797987044
21
136.6059412366
31
0.0000000000
11
61.1549359067
21
136.1186532434
31
0.0000000000
11
61.1920387026
21
135.6976598212
31
0.0000000000
11
61.1885710070
21
135.3906609504
31
0.0000000000
11
61.1463184005
21
135.2281114924
31
0.0000000000
11
61.1120175316
21
135.2209613784
31
0.0000000000
0
SPLINE
5
528
100
AcDbEntity
8
0
100
AcDbSpline
62
7
6
CONTINUOUS
70
0
71
3
72
12
73
8
74
6
42
0.0000001000
43
0.0000001000
44
0.0000000001
40
0.0000000000
40
0.0000000000
40
0.0000000000
40
0.0000000000
40
0.3001391791
40
0.5799696432
40
0.8074031686
40
0.9557054342
40
1.0000000000
40
1.0000000000
40
1.0000000000
40
1.0000000000
10
57.6976946179
20
120.1448524783
30
0.0000000000
10
57.6213796592
20
120.0006522843
30
0.0000000000
10
57.4598769494
20
119.7310772181
30
0.0000000000
10
57.1873350715
20
119.3766710976
30
0.0000000000
10
56.9389005833
20
119.1443379238
30
0.0000000000
10
56.7085002469
20
119.0094350134
30
0.0000000000
10
56.6128056615
20
119.0568974505
30
0.0000000000
10
56.5926934556
20
119.0716409990
30
0.0000000000
11
57.6976946179
21
120.1448524783
31
0.0000000000
11
57.4450441071
21
119.7256547455
31
0.0000000000
11
57.1632562375
21
119.3667226778
31
0.0000000000
11
56.8855687359
21
119.1208679104
31
0.0000000000
11
56.6573488287
21
119.0408483617
31
0.0000000000
11
56.5926934556
21
119.0716409990
31
0.0000000000
0
SPLINE
5
529
100
AcDbEntity
8
0
100
AcDbSpline
62
7
6
CONTINUOUS
70
0
71
3
72
12
73
8
74
6
42
0.0000001000
43
0.0000001000
44
0.0000000001
40
0.0000000000
40
0.0000000000
40
0.0000000000
40
0.0000000000
40
0.2801705913
40
0.5384648936
40
0.7620458013
40
0.9285720039
40
1.0000000000
40
1.0000000000
40
1.0000000000
40
1.0000000000
10
59.8738401374
20
123.0908315008
30
0.0000000000
10
59.8268887828
20
122.9659235459
30
0.0000000000
10
59.7299791422
20
122.7278960379
30
0.0000000000
10
59.5843104198
20
122.3974008735
30
0.0000000000
10
59.4227179821
20
122.1258219938
30
0.0000000000
10
59.3350131969
20
121.9409260195
30
0.0000000000
10
59.2035792412
20
121.8660966195
30
0.0000000000
10
59.1786415478
20
121.8709835594
30
0.0000000000
11
59.8738401374
21
123.0908315008
31
0.0000000000
11
59.7244120693
21
122.7194434362
31
0.0000000000
11
59.5696360849
21
122.3844019738
31
0.0000000000
11
59.4160833957
21
122.1042613547
31
0.0000000000
11
59.2747172144
21
121.9128674542
31
0.0000000000
11
59.1786415478
21
121.8709835594
31
0.0000000000
0
SPLINE
5
52A
100
AcDbEntity
8
0
100
AcDbSpline
62
7
6
CONTINUOUS
70
0
71
3
72
14
73
10
74
8
42
0.0000001000
43
0.0000001000
44
0.0000000001
40
0.0000000000
40
0.0000000000
40
0.0000000000
40
0.0000000000
40
0.2303397353
40
0.4495133616
40
0.6402895934
40
0.7901358194
40
0.9011051491
40
0.9848851578
40
1.0000000000
40
1.0000000000
40
1.0000000000
40
1.0000000000
10
60.7210367883
20
133.2403861490
30
0.0000000000
10
60.7247232287
20
133.1286182552
30
0.0000000000
10
60.7238177866
20
132.9101246458
30
0.0000000000
10
60.6967514234
20
132.6000341566
30
0.0000000000
10
60.6466356230
20
132.3323881433
30
0.0000000000
10
60.5751605697
20
132.1236590140
30
0.0000000000
10
60.4918794056
20
131.9781371133
30
0.0000000000
10
60.3981044506
20
131.9156735107
30
0.0000000000
10
60.3510029215
20
131.9150091373
30
0.0000000000
10
60.3437837324
20
131.9155005028
30
0.0000000000
11
60.7210367883
21
133.2403861490
31
0.0000000000
11
60.7190436380
21
132.9049060532
31
0.0000000000
11
60.6900139937
21
132.5870059864
31
0.0000000000
11
60.6356255717
21
132.3145185035
31
0.0000000000
11
60.5618270091
21
132.1091257038
31
0.0000000000
11
60.4723359773
21
131.9745374652
31
0.0000000000
11
60.3653326663
21
131.9158842788
31
0.0000000000
11
60.3437837324
21
131.9155005028
31
0.0000000000
0
SPLINE
5
52B
100
AcDbEntity
8
0
100
AcDbSpline
62
7
6
CONTINUOUS
70
0
71
3
72
17
73
13
74
11
42
0.0000001000
43
0.0000001000
44
0.0000000001
40
0.0000000000
40
0.0000000000
40
0.0000000000
40
0.0000000000
40
0.1442537468
40
0.2853008090
40
0.4187196673
40
0.5435601244
40
0.6619029198
40
0.7722327425
40
0.8699675121
40
0.9476964491
40
0.9943409054
40
1.0000000000
40
1.0000000000
40
1.0000000000
40
1.0000000000
10
61.3855112226
20
129.6385983362
30
0.0000000000
10
61.3790287409
20
129.5700129299
30
0.0000000000
10
61.3646371113
20
129.4345085614
30
0.0000000000
10
61.3388327530
20
129.2361991151
30
0.0000000000
10
61.3094477508
20
129.0477404806
30
0.0000000000
10
61.2769021904
20
128.8708917401
30
0.0000000000
10
61.2403793217
20
128.7057959446
30
0.0000000000
10
61.2012718306
20
128.5556222477
30
0.0000000000
10
61.1539365125
20
128.4246934418
30
0.0000000000
10
61.1162999790
20
128.3327078033
30
0.0000000000
10
61.0592991115
20
128.2784474514
30
0.0000000000
10
61.0385021959
20
128.2821385278
30
0.0000000000
10
61.0362807154
20
128.2828025619
30
0.0000000000
11
61.3855112226
21
129.6385983362
31
0.0000000000
11
61.3636596857
21
129.4330835314
31
0.0000000000
11
61.3374955081
21
129.2327054988
31
0.0000000000
11
61.3079322342
21
129.0438554446
31
0.0000000000
11
61.2752578953
21
128.8680055742
31
0.0000000000
11
61.2385410607
21
128.7024784471
31
0.0000000000
11
61.1970823745
21
128.5499419903
31
0.0000000000
11
61.1504148342
21
128.4179222982
31
0.0000000000
11
61.0979697426
21
128.3196819334
31
0.0000000000
11
61.0430274739
21
128.2816385115
31
0.0000000000
11
61.0362807154
21
128.2828025619
31
0.0000000000
0
SPLINE
5
52C
100
AcDbEntity
8
0
100
AcDbSpline
62
7
6
CONTINUOUS
70
0
71
3
72
12
73
8
74
6
42
0.0000001000
43
0.0000001000
44
0.0000000001
40
0.0000000000
40
0.0000000000
40
0.0000000000
40
0.0000000000
40
0.3013007487
40
0.5673529670
40
0.7812383789
40
0.9330708167
40
1.0000000000
40
1.0000000000
40
1.0000000000
40
1.0000000000
10
60.1015947160
20
126.4866320154
30
0.0000000000
10
60.0672401362
20
126.3378259817
30
0.0000000000
10
59.9879815516
20
126.0613690618
30
0.0000000000
10
59.8393680339
20
125.6910560275
30
0.0000000000
10
59.6733896191
20
125.4207406418
30
0.0000000000
10
59.5261348767
20
125.2443492033
30
0.0000000000
10
59.4048466812
20
125.2252139391
30
0.0000000000
10
59.3703298916
20
125.2284417905
30
0.0000000000
11
60.1015947160
21
126.4866320154
31
0.0000000000
11
59.9749721887
21
126.0463162297
31
0.0000000000
11
59.8187530000
21
125.6731332162
31
0.0000000000
11
59.6473754856
21
125.3967126970
31
0.0000000000
11
59.4746783797
21
125.2434799382
31
0.0000000000
11
59.3703298916
21
125.2284417905
31
0.0000000000
0
SPLINE
5
52D
100
AcDbEntity
8
0
100
AcDbSpline
62
7
6
CONTINUOUS
70
0
71
3
72
12
73
8
74
6
42
0.0000001000
43
0.0000001000
44
0.0000000001
40
0.0000000000
40
0.0000000000
40
0.0000000000
40
0.0000000000
40
0.0241831146
40
0.1431797494
40
0.3591935580
40
0.6554267957
40
1.0000000000
40
1.0000000000
40
1.0000000000
40
1.0000000000
10
57.1810900690
20
118.1929929275
30
0.0000000000
10
57.1919926483
20
118.1879908213
30
0.0000000000
10
57.2485016043
20
118.1494047278
30
0.0000000000
10
57.1397090112
20
117.9435816481
30
0.0000000000
10
57.0405966214
20
117.7010378060
30
0.0000000000
10
56.8121123548
20
117.3415832346
30
0.0000000000
10
56.6420628308
20
117.0945384424
30
0.0000000000
10
56.5447854488
20
116.9626407305
30
0.0000000000
11
57.1810900690
21
118.1929929275
31
0.0000000000
11
57.2082322416
21
118.1737166692
31
0.0000000000
11
57.1752591601
21
118.0071533391
31
0.0000000000
11
57.0432032952
21
117.7286460072
31
0.0000000000
11
56.8251806111
21
117.3665189449
31
0.0000000000
11
56.5447854488
21
116.9626407305
31
0.0000000000
0
SPLINE
5
52E
100
AcDbEntity
8
0
100
AcDbSpline
62
7
6
CONTINUOUS
70
0
71
3
72
12
73
8
74
6
42
0.0000001000
43
0.0000001000
44
0.0000000001
40
0.0000000000
40
0.0000000000
40
0.0000000000
40
0.0000000000
40
0.0376849568
40
0.1785710112
40
0.4023861953
40
0.6918831473
40
1.0000000000
40
1.0000000000
40
1.0000000000
40
1.0000000000
10
60.1981601506
20
134.6911052092
30
0.0000000000
10
60.2186448822
20
134.6953207949
30
0.0000000000
10
60.3153783340
20
134.6995600625
30
0.0000000000
10
60.4699600121
20
134.4930106462
30
0.0000000000
10
60.5924866427
20
134.1761051822
30
0.0000000000
10
60.6875862013
20
133.7307939955
30
0.0000000000
10
60.7155118558
20
133.4078946405
30
0.0000000000
10
60.7210367883
20
133.2403861490
30
0.0000000000
11
60.1981601506
21
134.6911052092
31
0.0000000000
11
60.2582204650
21
134.6928389619
31
0.0000000000
11
60.4273871132
21
134.5371516296
31
0.0000000000
11
60.5732054539
21
134.2022918217
31
0.0000000000
11
60.6757477832
21
133.7411410615
31
0.0000000000
11
60.7210367883
21
133.2403861490
31
0.0000000000
0
SPLINE
5
52F
100
AcDbEntity
8
0
100
AcDbSpline
62
7
6
CONTINUOUS
70
0
71
3
72
37
73
33
74
31
42
0.0000001000
43
0.0000001000
44
0.0000000001
40
0.0000000000
40
0.0000000000
40
0.0000000000
40
0.0000000000
40
0.0104746407
40
0.0210501638
40
0.0315946708
40
0.0420603134
40
0.0525546649
40
0.0635693850
40
0.0756406159
40
0.0893005634
40
0.1047515699
40
0.1219132882
40
0.1407488446
40
0.1613975184
40
0.1840581236
40
0.2089396449
40
0.2362801076
40
0.2665173574
40
0.3002029372
40
0.3378255765
40
0.3792901981
40
0.4241972141
40
0.4725293543
40
0.5257100365
40
0.5849855790
40
0.6474066126
40
0.7084840505
40
0.7676193662
40
0.8259009093
40
0.8838840581
40
0.9418284676
40
1.0000000000
40
1.0000000000
40
1.0000000000
40
1.0000000000
10
60.9732975581
20
126.2853835571
30
0.0000000000
10
60.9830940986
20
126.3278170358
30
0.0000000000
10
61.0025627521
20
126.4131433537
30
0.0000000000
10
61.0311228800
20
126.5413604324
30
0.0000000000
10
61.0590113221
20
126.6696870317
30
0.0000000000
10
61.0861689399
20
126.7978253017
30
0.0000000000
10
61.1130637729
20
126.9280158824
30
0.0000000000
10
61.1405882974
20
127.0648908847
30
0.0000000000
10
61.1698600327
20
127.2148371026
30
0.0000000000
10
61.2016058212
20
127.3830898679
30
0.0000000000
10
61.2359266397
20
127.5723901513
30
0.0000000000
10
61.2724035708
20
127.7831623364
30
0.0000000000
10
61.3105177059
20
128.0155739147
30
0.0000000000
10
61.3498635936
20
128.2709400357
30
0.0000000000
10
61.3900620276
20
128.5515935739
30
0.0000000000
10
61.4306128065
20
128.8602831212
30
0.0000000000
10
61.4709140696
20
129.2007511998
30
0.0000000000
10
61.5101984144
20
129.5781648199
30
0.0000000000
10
61.5473267792
20
129.9987365148
30
0.0000000000
10
61.5803936255
20
130.4664631444
30
0.0000000000
10
61.6067782062
20
130.9813450928
30
0.0000000000
10
61.6235963978
20
131.5411859103
30
0.0000000000
10
61.6279673741
20
132.1499861628
30
0.0000000000
10
61.6161317739
20
132.8184549756
30
0.0000000000
10
61.5832211621
20
133.5448872332
30
0.0000000000
10
61.5261861373
20
134.3027700888
30
0.0000000000
10
61.4462876373
20
135.0579922294
30
0.0000000000
10
61.3464723382
20
135.7934666981
30
0.0000000000
10
61.2276104191
20
136.5130629577
30
0.0000000000
10
61.0892131926
20
137.2241151459
30
0.0000000000
10
60.9307419335
20
137.9304891980
30
0.0000000000
10
60.8116576306
20
138.3984185018
30
0.0000000000
10
60.7486662364
20
138.6319269514
30
0.0000000000
11
60.9732975581
21
126.2853835571
31
0.0000000000
11
61.0023604328
21
126.4127589873
31
0.0000000000
11
61.0310396686
21
126.5415107851
31
0.0000000000
11
61.0589702322
21
126.6700312047
31
0.0000000000
11
61.0860350008
21
126.7977313836
31
0.0000000000
11
61.1125161685
21
126.9259195241
31
0.0000000000
11
61.1396011057
21
127.0606085328
31
0.0000000000
11
61.1684487182
21
127.2083821613
31
0.0000000000
11
61.2000382914
21
127.3758069940
31
0.0000000000
11
61.2344183729
21
127.5654341638
31
0.0000000000
11
61.2709210131
21
127.7763549261
31
0.0000000000
11
61.3089408891
21
128.0081917707
31
0.0000000000
11
61.3481602238
21
128.2627365860
31
0.0000000000
11
61.3882346250
21
128.5425242609
31
0.0000000000
11
61.4286554863
21
128.8502249783
31
0.0000000000
11
61.4687415279
21
129.1888751120
31
0.0000000000
11
61.5077869869
21
129.5639941601
31
0.0000000000
11
61.5447349064
21
129.9825227077
31
0.0000000000
11
61.5778276398
21
130.4506171466
31
0.0000000000
11
61.6042952576
21
130.9671227892
31
0.0000000000
11
61.6211140180
21
131.5269901499
31
0.0000000000
11
61.6254417802
21
132.1298157145
31
0.0000000000
11
61.6136987480
21
132.7930281520
31
0.0000000000
11
61.5802370825
21
133.5316074108
31
0.0000000000
11
61.5218096303
21
134.3079821925
31
0.0000000000
11
61.4416605268
21
135.0655659712
31
0.0000000000
11
61.3424670048
21
135.7964534193
31
0.0000000000
11
61.2239967172
21
136.5136736458
31
0.0000000000
11
61.0858239451
21
137.2235687821
31
0.0000000000
11
60.9276139046
21
137.9287735272
31
0.0000000000
11
60.7486662364
21
138.6319269514
31
0.0000000000
0
SPLINE
5
530
100
AcDbEntity
8
0
100
AcDbSpline
62
7
6
CONTINUOUS
70
0
71
3
72
17
73
13
74
11
42
0.0000001000
43
0.0000001000
44
0.0000000001
40
0.0000000000
40
0.0000000000
40
0.0000000000
40
0.0000000000
40
0.0994651728
40
0.2004110423
40
0.3005607751
40
0.4010001919
40
0.5020840696
40
0.6034245054
40
0.7046884380
40
0.8052191835
40
0.9039844658
40
1.0000000000
40
1.0000000000
40
1.0000000000
40
1.0000000000
10
60.9732975581
20
126.2853835571
30
0.0000000000
10
60.9545838562
20
126.2043256089
30
0.0000000000
10
60.9160770529
20
126.0411867388
30
0.0000000000
10
60.8559142489
20
125.7971068761
30
0.0000000000
10
60.7931327215
20
125.5528458549
30
0.0000000000
10
60.7279099195
20
125.3091058877
30
0.0000000000
10
60.6600027401
20
125.0650661662
30
0.0000000000
10
60.5894730079
20
124.8210534854
30
0.0000000000
10
60.5166433279
20
124.5782003319
30
0.0000000000
10
60.4420412955
20
124.3381402627
30
0.0000000000
10
60.3664289584
20
124.1030037974
30
0.0000000000
10
60.3150701463
20
123.9483986257
30
0.0000000000
10
60.2893933524
20
123.8723093239
30
0.0000000000
11
60.9732975581
21
126.2853835571
31
0.0000000000
11
60.9159651809
21
126.0424878163
31
0.0000000000
11
60.8553475845
21
125.7965628594
31
0.0000000000
11
60.7927931550
21
125.5531854111
31
0.0000000000
11
60.7276481148
21
125.3097360536
31
0.0000000000
11
60.6596550826
21
125.0653878181
31
0.0000000000
11
60.5890491691
21
124.8211115901
31
0.0000000000
11
60.5160629200
21
124.5777363744
31
0.0000000000
11
60.4412059014
21
124.3368558105
31
0.0000000000
11
60.3653426813
21
124.1009391901
31
0.0000000000
11
60.2893933524
21
123.8723093239
31
0.0000000000
0
SPLINE
5
531
100
AcDbEntity
8
0
100
AcDbSpline
62
7
6
CONTINUOUS
70
0
71
3
72
19
73
15
74
13
42
0.0000001000
43
0.0000001000
44
0.0000000001
40
0.0000000000
40
0.0000000000
40
0.0000000000
40
0.0000000000
40
0.0808697123
40
0.1637496530
40
0.2464601397
40
0.3268434012
40
0.4038108297
40
0.4795974945
40
0.5570309180
40
0.6388902395
40
0.7271184577
40
0.8193079275
40
0.9115575442
40
1.0000000000
40
1.0000000000
40
1.0000000000
40
1.0000000000
10
153.4913110111
20
193.3804205154
30
0.0000000000
10
153.1369054443
20
192.8376663042
30
0.0000000000
10
152.4180455339
20
191.7394748639
30
0.0000000000
10
151.3323945993
20
190.0890067522
30
0.0000000000
10
150.2452880881
20
188.4441688865
30
0.0000000000
10
149.1810114230
20
186.8410552262
30
0.0000000000
10
148.1445043854
20
185.2861252604
30
0.0000000000
10
147.1184743025
20
183.7526312539
30
0.0000000000
10
146.0681131570
20
182.1882409902
30
0.0000000000
10
144.9595959832
20
180.5427811867
30
0.0000000000
10
143.7823270279
20
178.8010265471
30
0.0000000000
10
142.5557489399
20
176.9920791965
30
0.0000000000
10
141.3257472292
20
175.1833811393
30
0.0000000000
10
140.5098533661
20
173.9867033938
30
0.0000000000
10
140.1101931282
20
173.4011822456
30
0.0000000000
11
153.4913110111
21
193.3804205154
31
0.0000000000
11
152.4262720553
21
191.7533492265
31
0.0000000000
11
151.3310413076
21
190.0882721049
31
0.0000000000
11
150.2344258751
21
188.4289887418
31
0.0000000000
11
149.1653524168
21
186.8185874150
31
0.0000000000
11
148.1388104208
21
185.2785468688
31
0.0000000000
11
147.1254116939
21
183.7638718536
31
0.0000000000
11
146.0874983828
21
182.2179565741
31
0.0000000000
11
144.9877183093
21
180.5853904320
31
0.0000000000
11
143.7996850799
21
178.8276189272
31
0.0000000000
11
142.5556041222
21
176.9927603305
31
0.0000000000
11
141.3082133229
21
175.1584009286
31
0.0000000000
11
140.1101931282
21
173.4011822456
31
0.0000000000
0
SPLINE
5
532
100
AcDbEntity
8
0
100
AcDbSpline
62
7
6
CONTINUOUS
70
0
71
3
72
15
73
11
74
9
42
0.0000001000
43
0.0000001000
44
0.0000000001
40
0.0000000000
40
0.0000000000
40
0.0000000000
40
0.0000000000
40
0.1799551156
40
0.3583174384
40
0.5241451394
40
0.6737340501
40
0.7995021523
40
0.8960719409
40
0.9625378365
40
1.0000000000
40
1.0000000000
40
1.0000000000
40
1.0000000000
10
164.6908114145
20
219.4167310590
30
0.0000000000
10
164.6360517785
20
219.0943300952
30
0.0000000000
10
164.5118422301
20
218.4548619955
30
0.0000000000
10
164.2855488347
20
217.5292215982
30
0.0000000000
10
164.0290573220
20
216.6690865077
30
0.0000000000
10
163.7570919873
20
215.9138588759
30
0.0000000000
10
163.4887964045
20
215.2945124533
30
0.0000000000
10
163.2333414072
20
214.8302711415
30
0.0000000000
10
163.0250668066
20
214.5407114359
30
0.0000000000
10
162.8561320987
20
214.4167310590
30
0.0000000000
10
162.7880550410
20
214.4167310590
30
0.0000000000
11
164.6908114145
21
219.4167310590
31
0.0000000000
11
164.5035997466
21
218.4537041725
31
0.0000000000
11
164.2720304044
21
217.5093089693
31
0.0000000000
11
164.0121656829
21
216.6434259424
31
0.0000000000
11
163.7338812292
21
215.8768673120
31
0.0000000000
11
163.4561260595
21
215.2500005520
31
0.0000000000
11
163.1978899617
21
214.7912187618
31
0.0000000000
11
162.9699985887
21
214.5095045333
31
0.0000000000
11
162.7880550410
21
214.4167310590
31
0.0000000000
0
SPLINE
5
533
100
AcDbEntity
8
0
100
AcDbSpline
62
7
6
CONTINUOUS
70
0
71
3
72
8
73
4
74
2
42
0.0000001000
43
0.0000001000
44
0.0000000001
40
0.0000000000
40
0.0000000000
40
0.0000000000
40
0.0000000000
40
1.0000000000
40
1.0000000000
40
1.0000000000
40
1.0000000000
10
161.8922184590
20
246.4167310590
30
0.0000000000
10
161.9223083241
20
246.4167310590
30
0.0000000000
10
161.9511424847
20
246.4085395306
30
0.0000000000
10
161.9786685005
20
246.3954353631
30
0.0000000000
11
161.8922184590
21
246.4167310590
31
0.0000000000
11
161.9786685005
21
246.3954353631
31
0.0000000000
0
SPLINE
5
534
100
AcDbEntity
8
0
100
AcDbSpline
62
7
6
CONTINUOUS
70
0
71
3
72
15
73
11
74
9
42
0.0000001000
43
0.0000001000
44
0.0000000001
40
0.0000000000
40
0.0000000000
40
0.0000000000
40
0.0000000000
40
0.0213736390
40
0.0890251650
40
0.1872902399
40
0.3152498973
40
0.4676250460
40
0.6364513280
40
0.8174210246
40
1.0000000000
40
1.0000000000
40
1.0000000000
40
1.0000000000
10
161.9786685005
20
246.3954353631
30
0.0000000000
10
162.0143356458
20
246.3784554903
30
0.0000000000
10
162.1537476177
20
246.2733754450
30
0.0000000000
10
162.3627135702
20
246.0116201135
30
0.0000000000
10
162.6467049733
20
245.5511595949
30
0.0000000000
10
162.9540017128
20
244.9336570495
30
0.0000000000
10
163.2726945790
20
244.1777724851
30
0.0000000000
10
163.5814505207
20
243.3150467227
30
0.0000000000
10
163.8627904396
20
242.3851097004
30
0.0000000000
10
164.0242803566
20
241.7416024952
30
0.0000000000
10
164.0976628351
20
241.4167310590
30
0.0000000000
11
161.9786685005
21
246.3954353631
31
0.0000000000
11
162.0789667334
21
246.3268843057
31
0.0000000000
11
162.3244367330
21
246.0497364144
31
0.0000000000
11
162.6114061903
21
245.5949478475
31
0.0000000000
11
162.9282189018
21
244.9704498287
31
0.0000000000
11
163.2541775280
21
244.2029197828
31
0.0000000000
11
163.5669457557
21
243.3335639979
31
0.0000000000
11
163.8543497110
21
242.3858216984
31
0.0000000000
11
164.0976628351
21
241.4167310590
31
0.0000000000
0
SPLINE
5
535
100
AcDbEntity
8
0
100
AcDbSpline
62
7
6
CONTINUOUS
70
0
71
3
72
15
73
11
74
9
42
0.0000001000
43
0.0000001000
44
0.0000000001
40
0.0000000000
40
0.0000000000
40
0.0000000000
40
0.0000000000
40
0.1249661330
40
0.2499550550
40
0.3749361284
40
0.4999472771
40
0.6249415421
40
0.7499615652
40
0.8749734035
40
1.0000000000
40
1.0000000000
40
1.0000000000
40
1.0000000000
10
140.1101931282
20
173.4011822456
30
0.0000000000
10
139.4520400067
20
172.4383477031
30
0.0000000000
10
138.2683427225
20
170.4178276949
30
0.0000000000
10
136.9318411489
20
167.1722900413
30
0.0000000000
10
136.0569084245
20
163.7720499721
30
0.0000000000
10
135.6604956967
20
160.2836451081
30
0.0000000000
10
135.7489130522
20
156.7735823141
30
0.0000000000
10
136.3201781191
20
153.3090442212
30
0.0000000000
10
137.3622499340
20
149.9563319399
30
0.0000000000
10
138.3584354193
20
147.8364298113
30
0.0000000000
10
138.9261480558
20
146.8170011372
30
0.0000000000
11
140.1101931282
21
173.4011822456
31
0.0000000000
11
138.3416134660
21
170.3822306119
31
0.0000000000
11
137.0087675226
21
167.1465034893
31
0.0000000000
11
136.1367152126
21
163.7576400916
31
0.0000000000
11
135.7412969082
21
160.2799384623
31
0.0000000000
11
135.8293639826
21
156.7814102650
31
0.0000000000
11
136.3986530753
21
153.3276567168
31
0.0000000000
11
137.4375681411
21
149.9852691136
31
0.0000000000
11
138.9261480558
21
146.8170011372
31
0.0000000000
0
SPLINE
5
536
100
AcDbEntity
8
0
100
AcDbSpline
62
7
6
CONTINUOUS
70
0
71
3
72
9
73
5
74
3
42
0.0000001000
43
0.0000001000
44
0.0000000001
40
0.0000000000
40
0.0000000000
40
0.0000000000
40
0.0000000000
40
0.5079455081
40
1.0000000000
40
1.0000000000
40
1.0000000000
40
1.0000000000
10
147.9711477555
20
131.4942553135
30
0.0000000000
10
147.5643920223
20
132.1008598467
30
0.0000000000
10
146.7572812294
20
133.2908658815
30
0.0000000000
10
145.9377742491
20
134.4723553174
30
0.0000000000
10
145.5323443086
20
135.0521759877
30
0.0000000000
11
147.9711477555
21
131.4942553135
31
0.0000000000
11
146.7412570952
21
133.3075789306
31
0.0000000000
11
145.5323443086
21
135.0521759877
31
0.0000000000
0
SPLINE
5
537
100
AcDbEntity
8
0
100
AcDbSpline
62
7
6
CONTINUOUS
70
0
71
3
72
9
73
5
74
3
42
0.0000001000
43
0.0000001000
44
0.0000000001
40
0.0000000000
40
0.0000000000
40
0.0000000000
40
0.0000000000
40
0.5024113639
40
1.0000000000
40
1.0000000000
40
1.0000000000
40
1.0000000000
10
147.9711479915
20
131.4942549619
30
0.0000000000
10
148.2788615047
20
131.0353544571
30
0.0000000000
10
148.8899813474
20
130.1210501735
30
0.0000000000
10
149.4982238879
20
129.2048288765
30
0.0000000000
10
149.8001149318
20
128.7484229226
30
0.0000000000
11
147.9711479915
21
131.4942549619
31
0.0000000000
11
148.8922023315
21
130.1161568457
31
0.0000000000
11
149.8001149318
21
128.7484229226
31
0.0000000000
0
SPLINE
5
538
100
AcDbEntity
8
0
100
AcDbSpline
62
7
6
CONTINUOUS
70
0
71
3
72
11
73
7
74
5
42
0.0000001000
43
0.0000001000
44
0.0000000001
40
0.0000000000
40
0.0000000000
40
0.0000000000
40
0.0000000000
40
0.2495559649
40
0.5000608685
40
0.7505227211
40
1.0000000000
40
1.0000000000
40
1.0000000000
40
1.0000000000
10
94.9859952864
20
163.2409303279
30
0.0000000000
10
94.7800473598
20
163.4395691532
30
0.0000000000
10
94.4011239279
20
163.8743892018
30
0.0000000000
10
93.9549180202
20
164.6151585087
30
0.0000000000
10
93.6443764283
20
165.4221597264
30
0.0000000000
10
93.5339735097
20
165.9881059869
30
0.0000000000
10
93.5036673195
20
166.2725384837
30
0.0000000000
11
94.9859952864
21
163.2409303279
31
0.0000000000
11
94.4221715726
21
163.8881939542
31
0.0000000000
11
93.9775295410
21
164.6262693146
31
0.0000000000
11
93.6681833763
21
165.4303287350
31
0.0000000000
11
93.5036673195
21
166.2725384837
31
0.0000000000
0
SPLINE
5
539
100
AcDbEntity
8
0
100
AcDbSpline
62
7
6
CONTINUOUS
70
0
71
3
72
29
73
25
74
23
42
0.0000001000
43
0.0000001000
44
0.0000000001
40
0.0000000000
40
0.0000000000
40
0.0000000000
40
0.0000000000
40
0.0449072840
40
0.0898080090
40
0.1347525647
40
0.1794428914
40
0.2238817447
40
0.2682741255
40
0.3127525941
40
0.3571378080
40
0.4016346768
40
0.4462127197
40
0.4910399992
40
0.5364211995
40
0.5825440733
40
0.6291863860
40
0.6763084570
40
0.7237396127
40
0.7710535252
40
0.8179985525
40
0.8643554576
40
0.9100316197
40
0.9552038908
40
1.0000000000
40
1.0000000000
40
1.0000000000
40
1.0000000000
10
87.5646057407
20
30.5185914744
30
0.0000000000
10
89.6728594019
20
29.7584866144
30
0.0000000000
10
93.9807589156
20
28.4799963420
30
0.0000000000
10
100.6193760901
20
27.3204769958
30
0.0000000000
10
107.3378126189
20
26.9376511233
30
0.0000000000
10
114.0319548986
20
27.3348935858
30
0.0000000000
10
120.6080213602
20
28.4988513996
30
0.0000000000
10
126.9953146379
20
30.4122006287
30
0.0000000000
10
133.1154626820
20
33.0519286107
30
0.0000000000
10
138.8925450243
20
36.3863351789
30
0.0000000000
10
144.2481354895
20
40.3710043944
30
0.0000000000
10
149.1222242228
20
44.9642130125
30
0.0000000000
10
153.4616197369
20
50.1233965678
30
0.0000000000
10
157.2198578320
20
55.8129104398
30
0.0000000000
10
160.3391623321
20
61.9781689111
30
0.0000000000
10
162.7633782820
20
68.5408954268
30
0.0000000000
10
164.4463954197
20
75.3986397227
30
0.0000000000
10
165.3559623239
20
82.4347574002
30
0.0000000000
10
165.4749790653
20
89.5195703716
30
0.0000000000
10
164.8039000351
20
96.5198574147
30
0.0000000000
10
163.3609359991
20
103.3191419411
30
0.0000000000
10
161.1781969480
20
109.8252390987
30
0.0000000000
10
158.2953612635
20
115.9658692467
30
0.0000000000
10
155.9242794482
20
119.7925740738
30
0.0000000000
10
154.6383848039
20
121.6212705419
30
0.0000000000
11
87.5646057407
21
30.5185914744
31
0.0000000000
11
94.0102061444
21
28.6063489374
31
0.0000000000
11
100.6323127069
21
27.4500887236
31
0.0000000000
11
107.3503016712
21
27.0678259268
31
0.0000000000
11
114.0293214590
21
27.4645869663
31
0.0000000000
11
120.5805699436
21
28.6245348430
31
0.0000000000
11
126.9471628299
21
30.5319673719
31
0.0000000000
11
133.0616748080
21
33.1693967241
31
0.0000000000
11
138.8169915125
21
36.4911240191
31
0.0000000000
11
144.1620025447
21
40.4674091434
31
0.0000000000
11
149.0196704032
21
45.0439928890
31
0.0000000000
11
153.3407011034
21
50.1791864227
31
0.0000000000
11
157.0871660387
21
55.8471254854
31
0.0000000000
11
160.2070407956
21
62.0074093310
31
0.0000000000
11
162.6295417481
21
68.5567806251
31
0.0000000000
11
164.3133527404
21
75.4077552398
31
0.0000000000
11
165.2244210615
21
82.4502042910
31
0.0000000000
11
165.3419968333
21
89.5328115470
31
0.0000000000
11
164.6685766524
21
96.5288309826
31
0.0000000000
11
163.2248392150
21
103.3173107446
31
0.0000000000
11
161.0474499830
21
109.7997891517
31
0.0000000000
11
158.1716562951
21
115.9208411856
31
0.0000000000
11
154.6383848039
21
121.6212705419
31
0.0000000000
0
SPLINE
5
53A
100
AcDbEntity
8
0
100
AcDbSpline
62
7
6
CONTINUOUS
70
0
71
3
72
10
73
6
74
4
42
0.0000001000
43
0.0000001000
44
0.0000000001
40
0.0000000000
40
0.0000000000
40
0.0000000000
40
0.0000000000
40
0.3233574367
40
0.6567177253
40
1.0000000000
40
1.0000000000
40
1.0000000000
40
1.0000000000
10
154.6383848039
20
121.6212705419
30
0.0000000000
10
154.1042952868
20
122.3808099162
30
0.0000000000
10
153.0299933618
20
123.9307135463
30
0.0000000000
10
151.4200777154
20
126.3085090879
30
0.0000000000
10
150.3439312747
20
127.9262686443
30
0.0000000000
10
149.8001148051
20
128.7484231141
30
0.0000000000
11
154.6383848039
21
121.6212705419
31
0.0000000000
11
153.0504883308
21
123.9099273206
31
0.0000000000
11
151.4392530238
21
126.2870627537
31
0.0000000000
11
149.8001148051
21
128.7484231141
31
0.0000000000
0
SPLINE
5
53B
100
AcDbEntity
8
0
100
AcDbSpline
62
7
6
CONTINUOUS
70
0
71
3
72
16
73
12
74
10
42
0.0000001000
43
0.0000001000
44
0.0000000001
40
0.0000000000
40
0.0000000000
40
0.0000000000
40
0.0000000000
40
0.1867756357
40
0.3674173477
40
0.5314081467
40
0.6733694702
40
0.7878986261
40
0.8747461382
40
0.9363762896
40
0.9740599561
40
1.0000000000
40
1.0000000000
40
1.0000000000
40
1.0000000000
10
138.1381798168
20
241.4167310590
30
0.0000000000
10
138.0046789375
20
241.7305034526
30
0.0000000000
10
137.7378393591
20
242.3459325814
30
0.0000000000
10
137.3409711104
20
243.2313444027
30
0.0000000000
10
136.9724964993
20
244.0393588094
30
0.0000000000
10
136.6558581491
20
244.7396556925
30
0.0000000000
10
136.4112307277
20
245.3142806173
30
0.0000000000
10
136.2394366890
20
245.7692761051
30
0.0000000000
10
136.1626170240
20
246.0886207499
30
0.0000000000
10
136.1372992640
20
246.3418426753
30
0.0000000000
10
136.2580857487
20
246.4167310590
30
0.0000000000
10
136.3054439040
20
246.4167310590
30
0.0000000000
11
138.1381798168
21
241.4167310590
31
0.0000000000
11
137.7314318388
21
242.3553664943
31
0.0000000000
11
137.3275483319
21
243.2585563834
31
0.0000000000
11
136.9561851110
21
244.0763717490
31
0.0000000000
11
136.6383860453
21
244.7859854983
31
0.0000000000
11
136.3953705394
21
245.3642791622
31
0.0000000000
11
136.2351841171
21
245.8121620449
31
0.0000000000
11
136.1607868384
21
246.1414116198
31
0.0000000000
11
136.1818097633
21
246.3467328227
31
0.0000000000
11
136.3054439040
21
246.4167310590
31
0.0000000000
0
SPLINE
5
53C
100
AcDbEntity
8
0
100
AcDbSpline
62
7
6
CONTINUOUS
70
0
71
3
72
8
73
4
74
2
42
0.0000001000
43
0.0000001000
44
0.0000000001
40
0.0000000000
40
0.0000000000
40
0.0000000000
40
0.0000000000
40
1.0000000000
40
1.0000000000
40
1.0000000000
40
1.0000000000
10
137.9960715766
20
214.4167310590
30
0.0000000000
10
137.9763488819
20
214.4167310590
30
0.0000000000
10
137.9560450084
20
214.4213862003
30
0.0000000000
10
137.9373116725
20
214.4296574225
30
0.0000000000
11
137.9960715766
21
214.4167310590
31
0.0000000000
11
137.9373116725
21
214.4296574225
31
0.0000000000
0
SPLINE
5
53D
100
AcDbEntity
8
0
100
AcDbSpline
62
7
6
CONTINUOUS
70
0
71
3
72
19
73
15
74
13
42
0.0000001000
43
0.0000001000
44
0.0000000001
40
0.0000000000
40
0.0000000000
40
0.0000000000
40
0.0000000000
40
0.0106973143
40
0.0393184075
40
0.0830675448
40
0.1409324520
40
0.2098945232
40
0.2895370747
40
0.3802765283
40
0.4833142889
40
0.6007819591
40
0.7304519792
40
0.8660235530
40
1.0000000000
40
1.0000000000
40
1.0000000000
40
1.0000000000
10
137.9373116725
20
214.4296574225
30
0.0000000000
10
137.9195857756
20
214.4374838361
30
0.0000000000
10
137.8596019258
20
214.4781500931
30
0.0000000000
10
137.8250373212
20
214.6313471185
30
0.0000000000
10
137.8361455563
20
214.8549857643
30
0.0000000000
10
137.8898401129
20
215.1498899738
30
0.0000000000
10
137.9784315974
20
215.4985170139
30
0.0000000000
10
138.0963667147
20
215.8993352007
30
0.0000000000
10
138.2407540818
20
216.3539002834
30
0.0000000000
10
138.4107438664
20
216.8696155902
30
0.0000000000
10
138.6040859633
20
217.4491056400
30
0.0000000000
10
138.8141538260
20
218.0828587476
30
0.0000000000
10
139.0293955376
20
218.7452267792
30
0.0000000000
10
139.1711882088
20
219.1935879665
30
0.0000000000
10
139.2407332995
20
219.4167310590
30
0.0000000000
11
137.9373116725
21
214.4296574225
31
0.0000000000
11
137.8901753658
21
214.4619692107
31
0.0000000000
11
137.8370074967
21
214.6020091248
31
0.0000000000
11
137.8392642073
21
214.8309662961
31
0.0000000000
11
137.8893643791
21
215.1296389678
31
0.0000000000
11
137.9758863078
21
215.4800391985
31
0.0000000000
11
138.0922142910
21
215.8802999725
31
0.0000000000
11
138.2350278827
21
216.3332173206
31
0.0000000000
11
138.4031501737
21
216.8456055280
31
0.0000000000
11
138.5971682071
21
217.4289744020
31
0.0000000000
11
138.8102971383
21
218.0732887537
31
0.0000000000
11
139.0293609748
21
218.7481609619
31
0.0000000000
11
139.2407332995
21
219.4167310590
31
0.0000000000
0
SPLINE
5
53E
100
AcDbEntity
8
0
100
AcDbSpline
62
7
6
CONTINUOUS
70
0
71
3
72
11
73
7
74
5
42
0.0000001000
43
0.0000001000
44
0.0000000001
40
0.0000000000
40
0.0000000000
40
0.0000000000
40
0.0000000000
40
0.2474541608
40
0.4965016096
40
0.7472332242
40
1.0000000000
40
1.0000000000
40
1.0000000000
40
1.0000000000
10
67.1111644240
20
42.9539965684
30
0.0000000000
10
68.5659148183
20
41.6004386407
30
0.0000000000
10
71.6251107811
20
39.0311851677
30
0.0000000000
10
76.5947930831
20
35.6511810267
30
0.0000000000
10
81.9172793317
20
32.7688258949
30
0.0000000000
10
85.6551923029
20
31.2070069439
30
0.0000000000
10
87.5646057407
20
30.5185914744
30
0.0000000000
11
67.1111644240
21
42.9539965684
31
0.0000000000
11
71.6756360874
21
39.1197615215
31
0.0000000000
11
76.6359469454
21
35.7448305668
31
0.0000000000
11
81.9467411283
21
32.8675437971
31
0.0000000000
11
87.5646057407
21
30.5185914744
31
0.0000000000
0
SPLINE
5
53F
100
AcDbEntity
8
0
100
AcDbSpline
62
7
6
CONTINUOUS
70
0
71
3
72
9
73
5
74
3
42
0.0000001000
43
0.0000001000
44
0.0000000001
40
0.0000000000
40
0.0000000000
40
0.0000000000
40
0.0000000000
40
0.5200914605
40
1.0000000000
40
1.0000000000
40
1.0000000000
40
1.0000000000
10
144.4927002250
20
136.7338923529
30
0.0000000000
10
144.6574194098
20
136.4331170346
30
0.0000000000
10
144.9900272398
20
135.8633965045
30
0.0000000000
10
145.3515656878
20
135.3115607008
30
0.0000000000
10
145.5329281375
20
135.0522611198
30
0.0000000000
11
144.4927002250
21
136.7338923529
31
0.0000000000
11
145.0112179852
21
135.8453412007
31
0.0000000000
11
145.5329281375
21
135.0522611198
31
0.0000000000
0
SPLINE
5
540
100
AcDbEntity
8
0
100
AcDbSpline
62
7
6
CONTINUOUS
70
0
71
3
72
10
73
6
74
4
42
0.0000001000
43
0.0000001000
44
0.0000000001
40
0.0000000000
40
0.0000000000
40
0.0000000000
40
0.0000000000
40
0.3337328985
40
0.6663021533
40
1.0000000000
40
1.0000000000
40
1.0000000000
40
1.0000000000
10
138.9261480558
20
146.8170011372
30
0.0000000000
10
139.5505257081
20
145.6959784186
30
0.0000000000
10
140.7941825450
20
143.4562131129
30
0.0000000000
10
142.6521765806
20
140.0900170986
30
0.0000000000
10
143.8848898239
20
137.8443647268
30
0.0000000000
10
144.5009976888
20
136.7189294178
30
0.0000000000
11
138.9261480558
21
146.8170011372
31
0.0000000000
11
140.7949316835
21
143.4515142114
31
0.0000000000
11
142.6487823057
21
140.0931019083
31
0.0000000000
11
144.5009976888
21
136.7189294178
31
0.0000000000
0
SPLINE
5
541
100
AcDbEntity
8
0
100
AcDbSpline
62
7
6
CONTINUOUS
70
0
71
3
72
11
73
7
74
5
42
0.0000001000
43
0.0000001000
44
0.0000000001
40
0.0000000000
40
0.0000000000
40
0.0000000000
40
0.0000000000
40
0.2704428265
40
0.5302602067
40
0.7748428905
40
1.0000000000
40
1.0000000000
40
1.0000000000
40
1.0000000000
10
151.5165139752
20
191.9410370559
30
0.0000000000
10
151.2455221719
20
191.5236367622
30
0.0000000000
10
150.7073937070
20
190.7096198065
30
0.0000000000
10
149.9008235102
20
189.5337709146
30
0.0000000000
10
149.1215110976
20
188.4405406580
30
0.0000000000
10
148.6059513462
20
187.7466391721
30
0.0000000000
10
148.3549755216
20
187.4169822878
30
0.0000000000
11
151.5165139752
21
191.9410370559
31
0.0000000000
11
150.6930094546
21
190.6957353381
31
0.0000000000
11
149.8813177386
21
189.5132009237
31
0.0000000000
11
149.0970237922
21
188.4141418022
31
0.0000000000
11
148.3549755216
21
187.4169822878
31
0.0000000000
0
SPLINE
5
542
100
AcDbEntity
8
0
100
AcDbSpline
62
7
6
CONTINUOUS
70
0
71
3
72
15
73
11
74
9
42
0.0000001000
43
0.0000001000
44
0.0000000001
40
0.0000000000
40
0.0000000000
40
0.0000000000
40
0.0000000000
40
0.2055674463
40
0.3976690555
40
0.5702317648
40
0.7173055984
40
0.8383441860
40
0.9311823884
40
0.9880629482
40
1.0000000000
40
1.0000000000
40
1.0000000000
40
1.0000000000
10
270.9020619741
20
173.7664373851
30
0.0000000000
10
270.9020619741
20
174.0884689025
30
0.0000000000
10
270.8976077024
20
174.7116368311
30
0.0000000000
10
270.8756320234
20
175.6039543767
30
0.0000000000
10
270.8420726535
20
176.4072926481
30
0.0000000000
10
270.7898112562
20
177.0890595399
30
0.0000000000
10
270.7437065762
20
177.6710718850
30
0.0000000000
10
270.6436018866
20
178.0423007561
30
0.0000000000
10
270.6277674997
20
178.3699872339
30
0.0000000000
10
270.5157371925
20
178.3899325347
30
0.0000000000
10
270.4960550544
20
178.3900786669
30
0.0000000000
11
270.9020619741
21
173.7664373851
31
0.0000000000
11
270.8945519070
21
174.7325027467
31
0.0000000000
11
270.8721425522
21
175.6350344478
31
0.0000000000
11
270.8354621687
21
176.4451884254
31
0.0000000000
11
270.7859864544
21
177.1346106040
31
0.0000000000
11
270.7235284550
21
177.7000099953
31
0.0000000000
11
270.6459526923
21
178.1293649233
31
0.0000000000
11
270.5514346168
21
178.3794160368
31
0.0000000000
11
270.4960550544
21
178.3900786669
31
0.0000000000
0
SPLINE
5
543
100
AcDbEntity
8
0
100
AcDbSpline
62
7
6
CONTINUOUS
70
0
71
3
72
15
73
11
74
9
42
0.0000001000
43
0.0000001000
44
0.0000000001
40
0.0000000000
40
0.0000000000
40
0.0000000000
40
0.0000000000
40
0.1510627364
40
0.3088900389
40
0.4659652681
40
0.6149040670
40
0.7485541235
40
0.8605817142
40
0.9456322059
40
1.0000000000
40
1.0000000000
40
1.0000000000
40
1.0000000000
10
269.1737364985
20
166.7809534867
30
0.0000000000
10
269.1563829448
20
167.7554686492
30
0.0000000000
10
269.1435862937
20
169.7485764638
30
0.0000000000
10
269.1813479930
20
172.7549579971
30
0.0000000000
10
269.2739297444
20
175.7463980381
30
0.0000000000
10
269.4163525704
20
178.5799350664
30
0.0000000000
10
269.6024331807
20
181.1189934021
30
0.0000000000
10
269.8179654661
20
183.2437528185
30
0.0000000000
10
270.0585393777
20
184.8458347935
30
0.0000000000
10
270.2499793294
20
185.7309818855
30
0.0000000000
10
270.3771299929
20
186.0579119660
30
0.0000000000
11
269.1737364985
21
166.7809534867
31
0.0000000000
11
269.1529141048
21
169.7048883283
31
0.0000000000
11
269.1907871426
21
172.7595992118
31
0.0000000000
11
269.2855785825
21
175.7985095082
31
0.0000000000
11
269.4328924780
21
178.6776407394
31
0.0000000000
11
269.6257267000
21
181.2574084202
31
0.0000000000
11
269.8549735479
21
183.4136911000
31
0.0000000000
11
270.1094984669
21
185.0401553718
31
0.0000000000
11
270.3771299929
21
186.0579119660
31
0.0000000000
0
SPLINE
5
544
100
AcDbEntity
8
0
100
AcDbSpline
62
7
6
CONTINUOUS
70
0
71
3
72
15
73
11
74
9
42
0.0000001000
43
0.0000001000
44
0.0000000001
40
0.0000000000
40
0.0000000000
40
0.0000000000
40
0.0000000000
40
0.1331658781
40
0.2671986335
40
0.4014263141
40
0.5352278493
40
0.6682401781
40
0.8005124875
40
0.9324363069
40
1.0000000000
40
1.0000000000
40
1.0000000000
40
1.0000000000
10
317.7771299929
20
116.9631790805
30
0.0000000000
10
317.7771299929
20
117.1254748497
30
0.0000000000
10
317.7193451256
20
117.4539482143
30
0.0000000000
10
317.4688170240
20
117.8855312787
30
0.0000000000
10
317.0840127060
20
118.2053287979
30
0.0000000000
10
316.6138796163
20
118.3723332331
30
0.0000000000
10
316.1175306514
20
118.3679593907
30
0.0000000000
10
315.6547496028
20
118.1953974712
30
0.0000000000
10
315.3402404814
20
117.9283991455
30
0.0000000000
10
315.2007898074
20
117.7267539052
30
0.0000000000
10
315.1599075435
20
117.6548159097
30
0.0000000000
11
317.7771299929
21
116.9631790805
31
0.0000000000
11
317.6924659749
21
117.4426488443
31
0.0000000000
11
317.4466396254
21
117.8665888136
31
0.0000000000
11
317.0691387797
21
118.1801933938
31
0.0000000000
11
316.6081613542
21
118.3439848272
31
0.0000000000
11
316.1218542588
21
118.3397088838
31
0.0000000000
11
315.6687194316
21
118.1707197533
31
0.0000000000
11
315.3009467574
21
117.8586284892
31
0.0000000000
11
315.1599075435
21
117.6548159097
31
0.0000000000
0
SPLINE
5
545
100
AcDbEntity
8
0
100
AcDbSpline
62
7
6
CONTINUOUS
70
0
71
3
72
9
73
5
74
3
42
0.0000001000
43
0.0000001000
44
0.0000000001
40
0.0000000000
40
0.0000000000
40
0.0000000000
40
0.0000000000
40
0.1934933606
40
1.0000000000
40
1.0000000000
40
1.0000000000
40
1.0000000000
10
313.6491651517
20
119.6333934575
30
0.0000000000
10
313.6654240720
20
119.6687503910
30
0.0000000000
10
313.7418430560
20
119.8550492073
30
0.0000000000
10
313.7771299929
20
120.0568237287
30
0.0000000000
10
313.7771299929
20
120.2181666096
30
0.0000000000
11
313.6491651517
21
119.6333934575
31
0.0000000000
11
313.6934572333
21
119.7414249645
31
0.0000000000
11
313.7771299929
21
120.2181666096
31
0.0000000000
0
SPLINE
5
546
100
AcDbEntity
8
0
100
AcDbSpline
62
7
6
CONTINUOUS
70
0
71
3
72
14
73
10
74
8
42
0.0000001000
43
0.0000001000
44
0.0000000001
40
0.0000000000
40
0.0000000000
40
0.0000000000
40
0.0000000000
40
0.1468300254
40
0.2946158784
40
0.4426166578
40
0.5901475652
40
0.7368082856
40
0.8826530533
40
1.0000000000
40
1.0000000000
40
1.0000000000
40
1.0000000000
10
313.7771299929
20
120.2181666096
30
0.0000000000
10
313.7771299929
20
120.3804623788
30
0.0000000000
10
313.7193451256
20
120.7089357434
30
0.0000000000
10
313.4688170240
20
121.1405188078
30
0.0000000000
10
313.0840127060
20
121.4603163270
30
0.0000000000
10
312.6138796163
20
121.6273207622
30
0.0000000000
10
312.1175306514
20
121.6229469199
30
0.0000000000
10
311.6844560829
20
121.4614619605
30
0.0000000000
10
311.4531681997
20
121.2778903295
30
0.0000000000
10
311.3632481167
20
121.1835372998
30
0.0000000000
11
313.7771299929
21
120.2181666096
31
0.0000000000
11
313.6924659749
21
120.6976363734
31
0.0000000000
11
313.4466396254
21
121.1215763427
31
0.0000000000
11
313.0691387797
21
121.4351809230
31
0.0000000000
11
312.6081613542
21
121.5989723563
31
0.0000000000
11
312.1218542588
21
121.5946964129
31
0.0000000000
11
311.6687194316
21
121.4257072824
31
0.0000000000
11
311.3632481167
21
121.1835372998
31
0.0000000000
0
SPLINE
5
547
100
AcDbEntity
8
0
100
AcDbSpline
62
7
6
CONTINUOUS
70
0
71
3
72
8
73
4
74
2
42
0.0000001000
43
0.0000001000
44
0.0000000001
40
0.0000000000
40
0.0000000000
40
0.0000000000
40
0.0000000000
40
1.0000000000
40
1.0000000000
40
1.0000000000
40
1.0000000000
10
317.7771299929
20
123.0952363674
30
0.0000000000
10
317.7771299929
20
123.1763359105
30
0.0000000000
10
317.7699388940
20
123.2577870537
30
0.0000000000
10
317.7557728187
20
123.3381371741
30
0.0000000000
11
317.7771299929
21
123.0952363674
31
0.0000000000
11
317.7557728187
21
123.3381371741
31
0.0000000000
0
SPLINE
5
548
100
AcDbEntity
8
0
100
AcDbSpline
62
7
6
CONTINUOUS
70
0
71
3
72
14
73
10
74
8
42
0.0000001000
43
0.0000001000
44
0.0000000001
40
0.0000000000
40
0.0000000000
40
0.0000000000
40
0.0000000000
40
0.0808511996
40
0.2435093429
40
0.4064040417
40
0.5687815832
40
0.7302013674
40
0.8907230861
40
1.0000000000
40
1.0000000000
40
1.0000000000
40
1.0000000000
10
317.7557728187
20
123.3381371741
30
0.0000000000
10
317.7415898553
20
123.4185830840
30
0.0000000000
10
317.6778158098
20
123.6575477723
30
0.0000000000
10
317.4688170240
20
124.0175885656
30
0.0000000000
10
317.0840127060
20
124.3373860848
30
0.0000000000
10
316.6138796163
20
124.5043905200
30
0.0000000000
10
316.1175306514
20
124.5000166777
30
0.0000000000
10
315.7035409721
20
124.3456480968
30
0.0000000000
10
315.4851329309
20
124.1797791397
30
0.0000000000
10
315.4056925079
20
124.1032732031
30
0.0000000000
11
317.7557728187
21
123.3381371741
31
0.0000000000
11
317.6924659749
21
123.5747061313
31
0.0000000000
11
317.4466396254
21
123.9986461006
31
0.0000000000
11
317.0691387797
21
124.3122506808
31
0.0000000000
11
316.6081613542
21
124.4760421141
31
0.0000000000
11
316.1218542588
21
124.4717661708
31
0.0000000000
11
315.6687194316
21
124.3027770402
31
0.0000000000
11
315.4056925079
21
124.1032732031
31
0.0000000000
0
SPLINE
5
549
100
AcDbEntity
8
0
100
AcDbSpline
62
7
6
CONTINUOUS
70
0
71
3
72
12
73
8
74
6
42
0.0000001000
43
0.0000001000
44
0.0000000001
40
0.0000000000
40
0.0000000000
40
0.0000000000
40
0.0000000000
40
0.2037262477
40
0.4087787034
40
0.6141293690
40
0.8188280884
40
1.0000000000
40
1.0000000000
40
1.0000000000
40
1.0000000000
10
317.7771299929
20
136.6064795865
30
0.0000000000
10
317.7771299929
20
136.4441838173
30
0.0000000000
10
317.7193451256
20
136.1157104527
30
0.0000000000
10
317.4688170240
20
135.6841273883
30
0.0000000000
10
317.0840127060
20
135.3643298691
30
0.0000000000
10
316.6309821496
20
135.2034007325
30
0.0000000000
10
316.3182719284
20
135.2002707698
30
0.0000000000
10
316.1747388852
20
135.2211964406
30
0.0000000000
11
317.7771299929
21
136.6064795865
31
0.0000000000
11
317.6924659749
21
136.1270098227
31
0.0000000000
11
317.4466396254
21
135.7030698534
31
0.0000000000
11
317.0691387797
21
135.3894652731
31
0.0000000000
11
316.6081613542
21
135.2256738398
31
0.0000000000
11
316.1747388852
21
135.2211964406
31
0.0000000000
0
SPLINE
5
54A
100
AcDbEntity
8
0
100
AcDbSpline
62
7
6
CONTINUOUS
70
0
71
3
72
11
73
7
74
5
42
0.0000001000
43
0.0000001000
44
0.0000000001
40
0.0000000000
40
0.0000000000
40
0.0000000000
40
0.0000000000
40
0.0687420232
40
0.3787281684
40
0.6889325041
40
1.0000000000
40
1.0000000000
40
1.0000000000
40
1.0000000000
10
312.9908146702
20
134.5720071754
30
0.0000000000
10
313.0230269153
20
134.5563094230
30
0.0000000000
10
313.1971708434
20
134.4630111251
30
0.0000000000
10
313.4751210903
20
134.2270489685
30
0.0000000000
10
313.7202906645
20
133.8000565881
30
0.0000000000
10
313.7771299929
20
133.4750431611
30
0.0000000000
10
313.7771299929
20
133.3137002803
30
0.0000000000
11
312.9908146702
21
134.5720071754
31
0.0000000000
11
313.0855405542
21
134.5212409531
31
0.0000000000
11
313.4533132284
21
134.2091496891
31
0.0000000000
11
313.6934572333
21
133.7904419253
31
0.0000000000
11
313.7771299929
21
133.3137002803
31
0.0000000000
0
SPLINE
5
54B
100
AcDbEntity
8
0
100
AcDbSpline
62
7
6
CONTINUOUS
70
0
71
3
72
12
73
8
74
6
42
0.0000001000
43
0.0000001000
44
0.0000000001
40
0.0000000000
40
0.0000000000
40
0.0000000000
40
0.0000000000
40
0.2431134814
40
0.4878095721
40
0.7328615267
40
0.9771354918
40
1.0000000000
40
1.0000000000
40
1.0000000000
40
1.0000000000
10
313.7771299929
20
133.3137002803
30
0.0000000000
10
313.7771299929
20
133.1514045110
30
0.0000000000
10
313.7193451256
20
132.8229311465
30
0.0000000000
10
313.4688170240
20
132.3913480821
30
0.0000000000
10
313.0840127060
20
132.0715505629
30
0.0000000000
10
312.7551256148
20
131.9547206606
30
0.0000000000
10
312.5778586154
20
131.9280835127
30
0.0000000000
10
312.5626525868
20
131.9260547941
30
0.0000000000
11
313.7771299929
21
133.3137002803
31
0.0000000000
11
313.6924659749
21
132.8342305164
31
0.0000000000
11
313.4466396254
21
132.4102905471
31
0.0000000000
11
313.0691387797
21
132.0966859669
31
0.0000000000
11
312.6081613542
21
131.9328945336
31
0.0000000000
11
312.5626525868
21
131.9260547941
31
0.0000000000
0
SPLINE
5
54C
100
AcDbEntity
8
0
100
AcDbSpline
62
7
6
CONTINUOUS
70
0
71
3
72
11
73
7
74
5
42
0.0000001000
43
0.0000001000
44
0.0000000001
40
0.0000000000
40
0.0000000000
40
0.0000000000
40
0.0000000000
40
0.1369801050
40
0.4242519643
40
0.7117260262
40
1.0000000000
40
1.0000000000
40
1.0000000000
40
1.0000000000
10
316.8774152143
20
130.9505139014
30
0.0000000000
10
316.9493827348
20
130.9229817067
30
0.0000000000
10
317.1652704241
20
130.8193954833
30
0.0000000000
10
317.4751210903
20
130.5563518909
30
0.0000000000
10
317.7202906645
20
130.1293595106
30
0.0000000000
10
317.7771299929
20
129.8043460836
30
0.0000000000
10
317.7771299929
20
129.6430032027
30
0.0000000000
11
316.8774152143
21
130.9505139014
31
0.0000000000
11
317.0855405542
21
130.8505438756
31
0.0000000000
11
317.4533132284
21
130.5384526115
31
0.0000000000
11
317.6934572333
21
130.1197448478
31
0.0000000000
11
317.7771299929
21
129.6430032027
31
0.0000000000
0
SPLINE
5
54D
100
AcDbEntity
8
0
100
AcDbSpline
62
7
6
CONTINUOUS
70
0
71
3
72
14
73
10
74
8
42
0.0000001000
43
0.0000001000
44
0.0000000001
40
0.0000000000
40
0.0000000000
40
0.0000000000
40
0.0000000000
40
0.1177404400
40
0.2661514246
40
0.4136870312
40
0.5604018177
40
0.7067300633
40
0.8531613053
40
1.0000000000
40
1.0000000000
40
1.0000000000
40
1.0000000000
10
311.3770665776
20
127.5881378454
30
0.0000000000
10
311.4681002990
20
127.6809793974
30
0.0000000000
10
311.7031619884
20
127.8623096503
30
0.0000000000
10
312.1403803695
20
128.0176218595
30
0.0000000000
10
312.6367293344
20
128.0132480172
30
0.0000000000
10
313.0995103830
20
127.8406860976
30
0.0000000000
10
313.4751210903
20
127.5218163951
30
0.0000000000
10
313.7202906645
20
127.0948240147
30
0.0000000000
10
313.7771299929
20
126.7698105877
30
0.0000000000
10
313.7771299929
20
126.6084677069
30
0.0000000000
11
311.3770665776
21
127.5881378454
31
0.0000000000
11
311.6851212061
21
127.8254820203
31
0.0000000000
11
312.1460986316
21
127.9892734536
31
0.0000000000
11
312.6324057270
21
127.9849975103
31
0.0000000000
11
313.0855405542
21
127.8160083797
31
0.0000000000
11
313.4533132284
21
127.5039171157
31
0.0000000000
11
313.6934572333
21
127.0852093519
31
0.0000000000
11
313.7771299929
21
126.6084677069
31
0.0000000000
0
SPLINE
5
54E
100
AcDbEntity
8
0
100
AcDbSpline
62
7
6
CONTINUOUS
70
0
71
3
72
11
73
7
74
5
42
0.0000001000
43
0.0000001000
44
0.0000000001
40
0.0000000000
40
0.0000000000
40
0.0000000000
40
0.0000000000
40
0.2968643962
40
0.5956613069
40
0.8948927610
40
1.0000000000
40
1.0000000000
40
1.0000000000
40
1.0000000000
10
313.7771299929
20
126.6084677069
30
0.0000000000
10
313.7771299929
20
126.4461719377
30
0.0000000000
10
313.7193451256
20
126.1176985731
30
0.0000000000
10
313.4688170240
20
125.6861155087
30
0.0000000000
10
313.1669463870
20
125.4352412946
30
0.0000000000
10
312.9669418863
20
125.3374894125
30
0.0000000000
10
312.9135853869
20
125.3153692238
30
0.0000000000
11
313.7771299929
21
126.6084677069
31
0.0000000000
11
313.6924659749
21
126.1289979430
31
0.0000000000
11
313.4466396254
21
125.7050579737
31
0.0000000000
11
313.0691387797
21
125.3914533935
31
0.0000000000
11
312.9135853869
21
125.3153692238
31
0.0000000000
0
SPLINE
5
54F
100
AcDbEntity
8
0
100
AcDbSpline
62
7
6
CONTINUOUS
70
0
71
3
72
17
73
13
74
11
42
0.0000001000
43
0.0000001000
44
0.0000000001
40
0.0000000000
40
0.0000000000
40
0.0000000000
40
0.0000000000
40
0.0076683297
40
0.0532783412
40
0.1332186682
40
0.2332588446
40
0.3453988638
40
0.4652058235
40
0.5926104997
40
0.7273364999
40
0.8645649501
40
1.0000000000
40
1.0000000000
40
1.0000000000
40
1.0000000000
10
320.4960550544
20
166.4433834511
30
0.0000000000
10
320.4760967634
20
166.4432352684
30
0.0000000000
10
320.3356476429
20
166.4658784053
30
0.0000000000
10
320.3208132333
20
166.8980670255
30
0.0000000000
10
320.1754992588
20
167.3782833000
30
0.0000000000
10
320.1056416740
20
168.1225760520
30
0.0000000000
10
320.0246561260
20
168.9313681832
30
0.0000000000
10
319.9648749622
20
169.8205366947
30
0.0000000000
10
319.9153840598
20
170.7629921842
30
0.0000000000
10
319.8795373168
20
171.7501385891
30
0.0000000000
10
319.8573488726
20
172.7572625517
30
0.0000000000
10
319.8521980118
20
173.4315317214
30
0.0000000000
10
319.8521980118
20
173.7664373851
30
0.0000000000
11
320.4960550544
21
166.4433834511
31
0.0000000000
11
320.4384537999
21
166.4528648612
31
0.0000000000
11
320.3158080318
21
166.7682095263
31
0.0000000000
11
320.2028269910
21
167.3503804572
31
0.0000000000
11
320.1083087167
21
168.0864791806
31
0.0000000000
11
320.0307327250
21
168.9147584283
31
0.0000000000
11
319.9682744365
21
169.8013420304
31
0.0000000000
11
319.9187983899
21
170.7451902985
31
0.0000000000
11
319.8821176865
21
171.7439739162
31
0.0000000000
11
319.8597081343
21
172.7617484630
31
0.0000000000
11
319.8521980118
21
173.7664373851
31
0.0000000000
0
SPLINE
5
550
100
AcDbEntity
8
0
100
AcDbSpline
62
7
6
CONTINUOUS
70
0
71
3
72
15
73
11
74
9
42
0.0000001000
43
0.0000001000
44
0.0000000001
40
0.0000000000
40
0.0000000000
40
0.0000000000
40
0.0000000000
40
0.1331658781
40
0.2671986335
40
0.4014263141
40
0.5352278493
40
0.6682401781
40
0.8005124875
40
0.9324363069
40
1.0000000000
40
1.0000000000
40
1.0000000000
40
1.0000000000
10
272.9771299929
20
116.9631790805
30
0.0000000000
10
272.9771299929
20
117.1254748497
30
0.0000000000
10
273.0349148602
20
117.4539482143
30
0.0000000000
10
273.2854429618
20
117.8855312787
30
0.0000000000
10
273.6702472798
20
118.2053287979
30
0.0000000000
10
274.1403803695
20
118.3723332331
30
0.0000000000
10
274.6367293344
20
118.3679593907
30
0.0000000000
10
275.0995103830
20
118.1953974712
30
0.0000000000
10
275.4140195044
20
117.9283991454
30
0.0000000000
10
275.5534701784
20
117.7267539052
30
0.0000000000
10
275.5943524423
20
117.6548159097
30
0.0000000000
11
272.9771299929
21
116.9631790805
31
0.0000000000
11
273.0617940109
21
117.4426488443
31
0.0000000000
11
273.3076203604
21
117.8665888136
31
0.0000000000
11
273.6851212061
21
118.1801933938
31
0.0000000000
11
274.1460986316
21
118.3439848272
31
0.0000000000
11
274.6324057270
21
118.3397088838
31
0.0000000000
11
275.0855405542
21
118.1707197533
31
0.0000000000
11
275.4533132284
21
117.8586284892
31
0.0000000000
11
275.5943524423
21
117.6548159097
31
0.0000000000
0
SPLINE
5
551
100
AcDbEntity
8
0
100
AcDbSpline
62
7
6
CONTINUOUS
70
0
71
3
72
9
73
5
74
3
42
0.0000001000
43
0.0000001000
44
0.0000000001
40
0.0000000000
40
0.0000000000
40
0.0000000000
40
0.0000000000
40
0.1934933606
40
1.0000000000
40
1.0000000000
40
1.0000000000
40
1.0000000000
10
277.1050948341
20
119.6333934575
30
0.0000000000
10
277.0888359138
20
119.6687503910
30
0.0000000000
10
277.0124169298
20
119.8550492073
30
0.0000000000
10
276.9771299929
20
120.0568237287
30
0.0000000000
10
276.9771299929
20
120.2181666096
30
0.0000000000
11
277.1050948341
21
119.6333934575
31
0.0000000000
11
277.0608027525
21
119.7414249645
31
0.0000000000
11
276.9771299929
21
120.2181666096
31
0.0000000000
0
SPLINE
5
552
100
AcDbEntity
8
0
100
AcDbSpline
62
7
6
CONTINUOUS
70
0
71
3
72
14
73
10
74
8
42
0.0000001000
43
0.0000001000
44
0.0000000001
40
0.0000000000
40
0.0000000000
40
0.0000000000
40
0.0000000000
40
0.1468300254
40
0.2946158784
40
0.4426166578
40
0.5901475652
40
0.7368082856
40
0.8826530533
40
1.0000000000
40
1.0000000000
40
1.0000000000
40
1.0000000000
10
276.9771299929
20
120.2181666096
30
0.0000000000
10
276.9771299929
20
120.3804623788
30
0.0000000000
10
277.0349148602
20
120.7089357434
30
0.0000000000
10
277.2854429618
20
121.1405188078
30
0.0000000000
10
277.6702472798
20
121.4603163270
30
0.0000000000
10
278.1403803695
20
121.6273207622
30
0.0000000000
10
278.6367293344
20
121.6229469199
30
0.0000000000
10
279.0698039029
20
121.4614619605
30
0.0000000000
10
279.3010917861
20
121.2778903295
30
0.0000000000
10
279.3910118692
20
121.1835372998
30
0.0000000000
11
276.9771299929
21
120.2181666096
31
0.0000000000
11
277.0617940109
21
120.6976363734
31
0.0000000000
11
277.3076203604
21
121.1215763427
31
0.0000000000
11
277.6851212061
21
121.4351809230
31
0.0000000000
11
278.1460986316
21
121.5989723563
31
0.0000000000
11
278.6324057270
21
121.5946964129
31
0.0000000000
11
279.0855405542
21
121.4257072824
31
0.0000000000
11
279.3910118692
21
121.1835372998
31
0.0000000000
0
SPLINE
5
553
100
AcDbEntity
8
0
100
AcDbSpline
62
7
6
CONTINUOUS
70
0
71
3
72
8
73
4
74
2
42
0.0000001000
43
0.0000001000
44
0.0000000001
40
0.0000000000
40
0.0000000000
40
0.0000000000
40
0.0000000000
40
1.0000000000
40
1.0000000000
40
1.0000000000
40
1.0000000000
10
272.9771299929
20
123.0952363674
30
0.0000000000
10
272.9771299929
20
123.1763359105
30
0.0000000000
10
272.9843210918
20
123.2577870537
30
0.0000000000
10
272.9984871671
20
123.3381371741
30
0.0000000000
11
272.9771299929
21
123.0952363674
31
0.0000000000
11
272.9984871671
21
123.3381371741
31
0.0000000000
0
SPLINE
5
554
100
AcDbEntity
8
0
100
AcDbSpline
62
7
6
CONTINUOUS
70
0
71
3
72
14
73
10
74
8
42
0.0000001000
43
0.0000001000
44
0.0000000001
40
0.0000000000
40
0.0000000000
40
0.0000000000
40
0.0000000000
40
0.0808511996
40
0.2435093429
40
0.4064040417
40
0.5687815832
40
0.7302013674
40
0.8907230861
40
1.0000000000
40
1.0000000000
40
1.0000000000
40
1.0000000000
10
272.9984871671
20
123.3381371741
30
0.0000000000
10
273.0126701305
20
123.4185830840
30
0.0000000000
10
273.0764441760
20
123.6575477723
30
0.0000000000
10
273.2854429618
20
124.0175885656
30
0.0000000000
10
273.6702472798
20
124.3373860848
30
0.0000000000
10
274.1403803695
20
124.5043905200
30
0.0000000000
10
274.6367293344
20
124.5000166777
30
0.0000000000
10
275.0507190137
20
124.3456480968
30
0.0000000000
10
275.2691270550
20
124.1797791397
30
0.0000000000
10
275.3485674779
20
124.1032732031
30
0.0000000000
11
272.9984871671
21
123.3381371741
31
0.0000000000
11
273.0617940109
21
123.5747061313
31
0.0000000000
11
273.3076203604
21
123.9986461006
31
0.0000000000
11
273.6851212061
21
124.3122506808
31
0.0000000000
11
274.1460986316
21
124.4760421141
31
0.0000000000
11
274.6324057270
21
124.4717661708
31
0.0000000000
11
275.0855405542
21
124.3027770402
31
0.0000000000
11
275.3485674779
21
124.1032732031
31
0.0000000000
0
SPLINE
5
555
100
AcDbEntity
8
0
100
AcDbSpline
62
7
6
CONTINUOUS
70
0
71
3
72
12
73
8
74
6
42
0.0000001000
43
0.0000001000
44
0.0000000001
40
0.0000000000
40
0.0000000000
40
0.0000000000
40
0.0000000000
40
0.2037262477
40
0.4087787034
40
0.6141293690
40
0.8188280884
40
1.0000000000
40
1.0000000000
40
1.0000000000
40
1.0000000000
10
272.9771299929
20
136.6064795865
30
0.0000000000
10
272.9771299929
20
136.4441838173
30
0.0000000000
10
273.0349148602
20
136.1157104527
30
0.0000000000
10
273.2854429618
20
135.6841273883
30
0.0000000000
10
273.6702472798
20
135.3643298691
30
0.0000000000
10
274.1232778362
20
135.2034007325
30
0.0000000000
10
274.4359880575
20
135.2002707698
30
0.0000000000
10
274.5795211007
20
135.2211964406
30
0.0000000000
11
272.9771299929
21
136.6064795865
31
0.0000000000
11
273.0617940109
21
136.1270098227
31
0.0000000000
11
273.3076203604
21
135.7030698534
31
0.0000000000
11
273.6851212061
21
135.3894652731
31
0.0000000000
11
274.1460986316
21
135.2256738398
31
0.0000000000
11
274.5795211007
21
135.2211964406
31
0.0000000000
0
SPLINE
5
556
100
AcDbEntity
8
0
100
AcDbSpline
62
7
6
CONTINUOUS
70
0
71
3
72
11
73
7
74
5
42
0.0000001000
43
0.0000001000
44
0.0000000001
40
0.0000000000
40
0.0000000000
40
0.0000000000
40
0.0000000000
40
0.0687420232
40
0.3787281684
40
0.6889325041
40
1.0000000000
40
1.0000000000
40
1.0000000000
40
1.0000000000
10
277.7634453156
20
134.5720071754
30
0.0000000000
10
277.7312330705
20
134.5563094230
30
0.0000000000
10
277.5570891424
20
134.4630111251
30
0.0000000000
10
277.2791388955
20
134.2270489685
30
0.0000000000
10
277.0339693213
20
133.8000565881
30
0.0000000000
10
276.9771299929
20
133.4750431611
30
0.0000000000
10
276.9771299929
20
133.3137002803
30
0.0000000000
11
277.7634453156
21
134.5720071754
31
0.0000000000
11
277.6687194316
21
134.5212409531
31
0.0000000000
11
277.3009467574
21
134.2091496891
31
0.0000000000
11
277.0608027525
21
133.7904419253
31
0.0000000000
11
276.9771299929
21
133.3137002803
31
0.0000000000
0
SPLINE
5
557
100
AcDbEntity
8
0
100
AcDbSpline
62
7
6
CONTINUOUS
70
0
71
3
72
12
73
8
74
6
42
0.0000001000
43
0.0000001000
44
0.0000000001
40
0.0000000000
40
0.0000000000
40
0.0000000000
40
0.0000000000
40
0.2431134814
40
0.4878095721
40
0.7328615267
40
0.9771354918
40
1.0000000000
40
1.0000000000
40
1.0000000000
40
1.0000000000
10
276.9771299929
20
133.3137002803
30
0.0000000000
10
276.9771299929
20
133.1514045110
30
0.0000000000
10
277.0349148602
20
132.8229311465
30
0.0000000000
10
277.2854429618
20
132.3913480821
30
0.0000000000
10
277.6702472798
20
132.0715505629
30
0.0000000000
10
277.9991343710
20
131.9547206606
30
0.0000000000
10
278.1764013704
20
131.9280835127
30
0.0000000000
10
278.1916073990
20
131.9260547941
30
0.0000000000
11
276.9771299929
21
133.3137002803
31
0.0000000000
11
277.0617940109
21
132.8342305164
31
0.0000000000
11
277.3076203604
21
132.4102905471
31
0.0000000000
11
277.6851212061
21
132.0966859669
31
0.0000000000
11
278.1460986316
21
131.9328945336
31
0.0000000000
11
278.1916073990
21
131.9260547941
31
0.0000000000
0
SPLINE
5
558
100
AcDbEntity
8
0
100
AcDbSpline
62
7
6
CONTINUOUS
70
0
71
3
72
11
73
7
74
5
42
0.0000001000
43
0.0000001000
44
0.0000000001
40
0.0000000000
40
0.0000000000
40
0.0000000000
40
0.0000000000
40
0.1369801050
40
0.4242519643
40
0.7117260262
40
1.0000000000
40
1.0000000000
40
1.0000000000
40
1.0000000000
10
273.8768447715
20
130.9505139014
30
0.0000000000
10
273.8048772510
20
130.9229817067
30
0.0000000000
10
273.5889895617
20
130.8193954833
30
0.0000000000
10
273.2791388955
20
130.5563518909
30
0.0000000000
10
273.0339693213
20
130.1293595106
30
0.0000000000
10
272.9771299929
20
129.8043460836
30
0.0000000000
10
272.9771299929
20
129.6430032027
30
0.0000000000
11
273.8768447715
21
130.9505139014
31
0.0000000000
11
273.6687194316
21
130.8505438756
31
0.0000000000
11
273.3009467574
21
130.5384526115
31
0.0000000000
11
273.0608027525
21
130.1197448478
31
0.0000000000
11
272.9771299929
21
129.6430032027
31
0.0000000000
0
SPLINE
5
559
100
AcDbEntity
8
0
100
AcDbSpline
62
7
6
CONTINUOUS
70
0
71
3
72
14
73
10
74
8
42
0.0000001000
43
0.0000001000
44
0.0000000001
40
0.0000000000
40
0.0000000000
40
0.0000000000
40
0.0000000000
40
0.1177404400
40
0.2661514246
40
0.4136870312
40
0.5604018177
40
0.7067300633
40
0.8531613053
40
1.0000000000
40
1.0000000000
40
1.0000000000
40
1.0000000000
10
279.3771934082
20
127.5881378454
30
0.0000000000
10
279.2861596868
20
127.6809793974
30
0.0000000000
10
279.0510979974
20
127.8623096503
30
0.0000000000
10
278.6138796163
20
128.0176218595
30
0.0000000000
10
278.1175306514
20
128.0132480172
30
0.0000000000
10
277.6547496028
20
127.8406860976
30
0.0000000000
10
277.2791388955
20
127.5218163951
30
0.0000000000
10
277.0339693213
20
127.0948240147
30
0.0000000000
10
276.9771299929
20
126.7698105877
30
0.0000000000
10
276.9771299929
20
126.6084677069
30
0.0000000000
11
279.3771934082
21
127.5881378454
31
0.0000000000
11
279.0691387797
21
127.8254820203
31
0.0000000000
11
278.6081613542
21
127.9892734536
31
0.0000000000
11
278.1218542588
21
127.9849975103
31
0.0000000000
11
277.6687194316
21
127.8160083797
31
0.0000000000
11
277.3009467574
21
127.5039171157
31
0.0000000000
11
277.0608027525
21
127.0852093519
31
0.0000000000
11
276.9771299929
21
126.6084677069
31
0.0000000000
0
SPLINE
5
55A
100
AcDbEntity
8
0
100
AcDbSpline
62
7
6
CONTINUOUS
70
0
71
3
72
11
73
7
74
5
42
0.0000001000
43
0.0000001000
44
0.0000000001
40
0.0000000000
40
0.0000000000
40
0.0000000000
40
0.0000000000
40
0.2968643962
40
0.5956613069
40
0.8948927610
40
1.0000000000
40
1.0000000000
40
1.0000000000
40
1.0000000000
10
276.9771299929
20
126.6084677069
30
0.0000000000
10
276.9771299929
20
126.4461719377
30
0.0000000000
10
277.0349148602
20
126.1176985731
30
0.0000000000
10
277.2854429618
20
125.6861155087
30
0.0000000000
10
277.5873135988
20
125.4352412946
30
0.0000000000
10
277.7873180995
20
125.3374894125
30
0.0000000000
10
277.8406745989
20
125.3153692238
30
0.0000000000
11
276.9771299929
21
126.6084677069
31
0.0000000000
11
277.0617940109
21
126.1289979430
31
0.0000000000
11
277.3076203604
21
125.7050579737
31
0.0000000000
11
277.6851212061
21
125.3914533935
31
0.0000000000
11
277.8406745989
21
125.3153692238
31
0.0000000000
0
SPLINE
5
55B
100
AcDbEntity
8
0
100
AcDbSpline
62
7
6
CONTINUOUS
70
0
71
3
72
17
73
13
74
11
42
0.0000001000
43
0.0000001000
44
0.0000000001
40
0.0000000000
40
0.0000000000
40
0.0000000000
40
0.0000000000
40
0.0076683297
40
0.0532783412
40
0.1332186682
40
0.2332588446
40
0.3453988638
40
0.4652058235
40
0.5926104997
40
0.7273364999
40
0.8645649501
40
1.0000000000
40
1.0000000000
40
1.0000000000
40
1.0000000000
10
270.2582049314
20
166.4433834511
30
0.0000000000
10
270.2781632224
20
166.4432352684
30
0.0000000000
10
270.4186123429
20
166.4658784053
30
0.0000000000
10
270.4334467525
20
166.8980670255
30
0.0000000000
10
270.5787607270
20
167.3782833000
30
0.0000000000
10
270.6486183118
20
168.1225760520
30
0.0000000000
10
270.7296038598
20
168.9313681832
30
0.0000000000
10
270.7893850236
20
169.8205366947
30
0.0000000000
10
270.8388759260
20
170.7629921842
30
0.0000000000
10
270.8747226690
20
171.7501385891
30
0.0000000000
10
270.8969111132
20
172.7572625517
30
0.0000000000
10
270.9020619741
20
173.4315317214
30
0.0000000000
10
270.9020619741
20
173.7664373851
30
0.0000000000
11
270.2582049314
21
166.4433834511
31
0.0000000000
11
270.3158061859
21
166.4528648612
31
0.0000000000
11
270.4384519541
21
166.7682095263
31
0.0000000000
11
270.5514329948
21
167.3503804572
31
0.0000000000
11
270.6459512692
21
168.0864791806
31
0.0000000000
11
270.7235272608
21
168.9147584283
31
0.0000000000
11
270.7859855493
21
169.8013420304
31
0.0000000000
11
270.8354615959
21
170.7451902985
31
0.0000000000
11
270.8721422993
21
171.7439739162
31
0.0000000000
11
270.8945518515
21
172.7617484630
31
0.0000000000
11
270.9020619741
21
173.7664373851
31
0.0000000000
0
SPLINE
5
55C
100
AcDbEntity
8
0
100
AcDbSpline
62
7
6
CONTINUOUS
70
0
71
3
72
8
73
4
74
2
42
0.0000001000
43
0.0000001000
44
0.0000000001
40
0.0000000000
40
0.0000000000
40
0.0000000000
40
0.0000000000
40
1.0000000000
40
1.0000000000
40
1.0000000000
40
1.0000000000
10
271.7043472155
20
189.3263836703
30
0.0000000000
10
271.6660336840
20
189.3101963995
30
0.0000000000
10
271.6201287340
20
189.2539132087
30
0.0000000000
10
271.6019712823
20
189.2072267268
30
0.0000000000
11
271.7043472155
21
189.3263836703
31
0.0000000000
11
271.6019712823
21
189.2072267268
31
0.0000000000
0
SPLINE
5
55D
100
AcDbEntity
8
0
100
AcDbSpline
62
7
6
CONTINUOUS
70
0
71
3
72
8
73
4
74
2
42
0.0000001000
43
0.0000001000
44
0.0000000001
40
0.0000000000
40
0.0000000000
40
0.0000000000
40
0.0000000000
40
1.0000000000
40
1.0000000000
40
1.0000000000
40
1.0000000000
10
319.0499127703
20
189.3263836703
30
0.0000000000
10
319.0882263018
20
189.3101963995
30
0.0000000000
10
319.1341312518
20
189.2539132087
30
0.0000000000
10
319.1522887035
20
189.2072267268
30
0.0000000000
11
319.0499127703
21
189.3263836703
31
0.0000000000
11
319.1522887035
21
189.2072267268
31
0.0000000000
0
SPLINE
5
55E
100
AcDbEntity
8
0
100
AcDbSpline
62
7
6
CONTINUOUS
70
0
71
3
72
10
73
6
74
4
42
0.0000001000
43
0.0000001000
44
0.0000000001
40
0.0000000000
40
0.0000000000
40
0.0000000000
40
0.0000000000
40
0.3349045812
40
0.6681443631
40
1.0000000000
40
1.0000000000
40
1.0000000000
40
1.0000000000
10
270.3606802211
20
119.1883820346
30
0.0000000000
10
270.2811567453
20
119.4482422666
30
0.0000000000
10
270.1462528827
20
119.9743092656
30
0.0000000000
10
270.0183065434
20
120.7766749358
30
0.0000000000
10
269.9833447134
20
121.3161747462
30
0.0000000000
10
269.9785502696
20
121.5854140164
30
0.0000000000
11
270.3606802211
21
119.1883820346
31
0.0000000000
11
270.1583326979
21
119.9781398395
31
0.0000000000
11
270.0307153431
21
120.7792541397
31
0.0000000000
11
269.9785502696
21
121.5854140164
31
0.0000000000
0
SPLINE
5
55F
100
AcDbEntity
8
0
100
AcDbSpline
62
7
6
CONTINUOUS
70
0
71
3
72
12
73
8
74
6
42
0.0000001000
43
0.0000001000
44
0.0000000001
40
0.0000000000
40
0.0000000000
40
0.0000000000
40
0.0000000000
40
0.1689704817
40
0.3779656618
40
0.5860821671
40
0.7933824056
40
1.0000000000
40
1.0000000000
40
1.0000000000
40
1.0000000000
10
277.9176983593
20
96.1885896176
30
0.0000000000
10
277.8413429122
20
96.2312522116
30
0.0000000000
10
277.6767316771
20
96.3377532521
30
0.0000000000
10
277.4480486474
20
96.5386465035
30
0.0000000000
10
277.2426215039
20
96.7896511134
30
0.0000000000
10
277.0820640781
20
97.0699838296
30
0.0000000000
10
277.0077325182
20
97.2719574283
30
0.0000000000
10
276.9794045182
20
97.3749693276
30
0.0000000000
11
277.9176983593
21
96.1885896176
31
0.0000000000
11
277.6975873364
21
96.3310830860
31
0.0000000000
11
277.4541141434
21
96.5451482801
31
0.0000000000
11
277.2497427164
21
96.7950552916
31
0.0000000000
11
277.0900415867
21
97.0741624429
31
0.0000000000
11
276.9794045182
21
97.3749693276
31
0.0000000000
0
SPLINE
5
560
100
AcDbEntity
8
0
100
AcDbSpline
62
7
6
CONTINUOUS
70
0
71
3
72
15
73
11
74
9
42
0.0000001000
43
0.0000001000
44
0.0000000001
40
0.0000000000
40
0.0000000000
40
0.0000000000
40
0.0000000000
40
0.2055674463
40
0.3976690555
40
0.5702317648
40
0.7173055984
40
0.8383441860
40
0.9311823884
40
0.9880629482
40
1.0000000000
40
1.0000000000
40
1.0000000000
40
1.0000000000
10
319.8521980118
20
173.7664373851
30
0.0000000000
10
319.8521980118
20
174.0884689025
30
0.0000000000
10
319.8566522834
20
174.7116368311
30
0.0000000000
10
319.8786279625
20
175.6039543767
30
0.0000000000
10
319.9121873324
20
176.4072926481
30
0.0000000000
10
319.9644487296
20
177.0890595399
30
0.0000000000
10
320.0105534096
20
177.6710718850
30
0.0000000000
10
320.1106580992
20
178.0423007561
30
0.0000000000
10
320.1264924861
20
178.3699872339
30
0.0000000000
10
320.2385227933
20
178.3899325347
30
0.0000000000
10
320.2582049314
20
178.3900786669
30
0.0000000000
11
319.8521980118
21
173.7664373851
31
0.0000000000
11
319.8597080788
21
174.7325027467
31
0.0000000000
11
319.8821174336
21
175.6350344478
31
0.0000000000
11
319.9187978171
21
176.4451884254
31
0.0000000000
11
319.9682735314
21
177.1346106040
31
0.0000000000
11
320.0307315308
21
177.7000099953
31
0.0000000000
11
320.1083072935
21
178.1293649233
31
0.0000000000
11
320.2028253690
21
178.3794160368
31
0.0000000000
11
320.2582049314
21
178.3900786669
31
0.0000000000
0
SPLINE
5
561
100
AcDbEntity
8
0
100
AcDbSpline
62
7
6
CONTINUOUS
70
0
71
3
72
15
73
11
74
9
42
0.0000001000
43
0.0000001000
44
0.0000000001
40
0.0000000000
40
0.0000000000
40
0.0000000000
40
0.0000000000
40
0.1510627364
40
0.3088900389
40
0.4659652681
40
0.6149040670
40
0.7485541235
40
0.8605817142
40
0.9456322059
40
1.0000000000
40
1.0000000000
40
1.0000000000
40
1.0000000000
10
321.5805234873
20
166.7809534867
30
0.0000000000
10
321.5978770410
20
167.7554686492
30
0.0000000000
10
321.6106736921
20
169.7485764638
30
0.0000000000
10
321.5729119928
20
172.7549579971
30
0.0000000000
10
321.4803302414
20
175.7463980381
30
0.0000000000
10
321.3379074154
20
178.5799350664
30
0.0000000000
10
321.1518268051
20
181.1189934021
30
0.0000000000
10
320.9362945197
20
183.2437528185
30
0.0000000000
10
320.6957206081
20
184.8458347935
30
0.0000000000
10
320.5042806564
20
185.7309818855
30
0.0000000000
10
320.3771299929
20
186.0579119660
30
0.0000000000
11
321.5805234873
21
166.7809534867
31
0.0000000000
11
321.6013458810
21
169.7048883283
31
0.0000000000
11
321.5634728432
21
172.7595992118
31
0.0000000000
11
321.4686814033
21
175.7985095082
31
0.0000000000
11
321.3213675078
21
178.6776407394
31
0.0000000000
11
321.1285332858
21
181.2574084202
31
0.0000000000
11
320.8992864379
21
183.4136911000
31
0.0000000000
11
320.6447615189
21
185.0401553718
31
0.0000000000
11
320.3771299929
21
186.0579119660
31
0.0000000000
0
SPLINE
5
562
100
AcDbEntity
8
0
100
AcDbSpline
62
7
6
CONTINUOUS
70
0
71
3
72
10
73
6
74
4
42
0.0000001000
43
0.0000001000
44
0.0000000001
40
0.0000000000
40
0.0000000000
40
0.0000000000
40
0.0000000000
40
0.3349045812
40
0.6681443631
40
1.0000000000
40
1.0000000000
40
1.0000000000
40
1.0000000000
10
320.3935797647
20
119.1883820346
30
0.0000000000
10
320.4731032405
20
119.4482422666
30
0.0000000000
10
320.6080071031
20
119.9743092656
30
0.0000000000
10
320.7359534424
20
120.7766749358
30
0.0000000000
10
320.7709152724
20
121.3161747462
30
0.0000000000
10
320.7757097162
20
121.5854140164
30
0.0000000000
11
320.3935797647
21
119.1883820346
31
0.0000000000
11
320.5959272880
21
119.9781398395
31
0.0000000000
11
320.7235446427
21
120.7792541397
31
0.0000000000
11
320.7757097162
21
121.5854140164
31
0.0000000000
0
SPLINE
5
563
100
AcDbEntity
8
0
100
AcDbSpline
62
7
6
CONTINUOUS
70
0
71
3
72
12
73
8
74
6
42
0.0000001000
43
0.0000001000
44
0.0000000001
40
0.0000000000
40
0.0000000000
40
0.0000000000
40
0.0000000000
40
0.1689704817
40
0.3779656618
40
0.5860821671
40
0.7933824056
40
1.0000000000
40
1.0000000000
40
1.0000000000
40
1.0000000000
10
312.8365616265
20
96.1885896176
30
0.0000000000
10
312.9129170736
20
96.2312522116
30
0.0000000000
10
313.0775283087
20
96.3377532521
30
0.0000000000
10
313.3062113384
20
96.5386465035
30
0.0000000000
10
313.5116384819
20
96.7896511134
30
0.0000000000
10
313.6721959077
20
97.0699838296
30
0.0000000000
10
313.7465274676
20
97.2719574283
30
0.0000000000
10
313.7748554676
20
97.3749693276
30
0.0000000000
11
312.8365616265
21
96.1885896176
31
0.0000000000
11
313.0566726494
21
96.3310830860
31
0.0000000000
11
313.3001458425
21
96.5451482801
31
0.0000000000
11
313.5045172694
21
96.7950552916
31
0.0000000000
11
313.6642183991
21
97.0741624429
31
0.0000000000
11
313.7748554676
21
97.3749693276
31
0.0000000000
0
SPLINE
5
564
100
AcDbEntity
8
0
100
AcDbSpline
62
7
6
CONTINUOUS
70
0
71
3
72
16
73
12
74
10
42
0.0000001000
43
0.0000001000
44
0.0000000001
40
0.0000000000
40
0.0000000000
40
0.0000000000
40
0.0000000000
40
0.0802273175
40
0.1725421863
40
0.2708013589
40
0.3822354321
40
0.5069602346
40
0.6335872554
40
0.7580350574
40
0.8812501558
40
1.0000000000
40
1.0000000000
40
1.0000000000
40
1.0000000000
10
317.7760886778
20
123.0416342042
30
0.0000000000
10
317.7718688200
20
122.9326351609
30
0.0000000000
10
317.7311331361
20
122.6981888106
30
0.0000000000
10
317.5615778515
20
122.3652955941
30
0.0000000000
10
317.2628015612
20
122.0737273998
30
0.0000000000
10
316.8418716830
20
121.8802598059
30
0.0000000000
10
316.3400714706
20
121.8423077725
30
0.0000000000
10
315.8393553966
20
121.9835762305
30
0.0000000000
10
315.4166220660
20
122.2828952930
30
0.0000000000
10
315.1267525467
20
122.6996151884
30
0.0000000000
10
315.0471526853
20
123.0278134816
30
0.0000000000
10
315.0403987899
20
123.1888413341
30
0.0000000000
11
317.7760886778
21
123.0416342042
31
0.0000000000
11
317.7194373135
21
122.7194434362
31
0.0000000000
11
317.5490593834
21
122.3844019738
31
0.0000000000
11
317.2634317847
21
122.1042613547
31
0.0000000000
11
316.8520546876
21
121.9128674542
31
0.0000000000
11
316.3458456248
21
121.8722468034
31
0.0000000000
11
315.8494143544
21
122.0114595736
31
0.0000000000
11
315.4363865892
21
122.3049923042
31
0.0000000000
11
315.1522160764
21
122.7184402776
31
0.0000000000
11
315.0403987899
21
123.1888413341
31
0.0000000000
0
SPLINE
5
565
100
AcDbEntity
8
0
100
AcDbSpline
62
7
6
CONTINUOUS
70
0
71
3
72
11
73
7
74
5
42
0.0000001000
43
0.0000001000
44
0.0000000001
40
0.0000000000
40
0.0000000000
40
0.0000000000
40
0.0000000000
40
0.5042604617
40
0.8396305123
40
0.9888135329
40
1.0000000000
40
1.0000000000
40
1.0000000000
40
1.0000000000
10
318.7663093056
20
187.6204429715
30
0.0000000000
10
318.7824690446
20
187.9163417166
30
0.0000000000
10
318.8186864015
20
188.4562412221
30
0.0000000000
10
318.8914548115
20
188.9025243913
30
0.0000000000
10
318.9746763974
20
189.3490627098
30
0.0000000000
10
319.0448846931
20
189.3285080072
30
0.0000000000
10
319.0499127703
20
189.3263836703
30
0.0000000000
11
318.7663093056
21
187.6204429715
31
0.0000000000
11
318.8351951733
21
188.5067891666
31
0.0000000000
11
318.9270410811
21
189.0908746107
31
0.0000000000
11
319.0353006447
21
189.3305726933
31
0.0000000000
11
319.0499127703
21
189.3263836703
31
0.0000000000
0
SPLINE
5
566
100
AcDbEntity
8
0
100
AcDbSpline
62
7
6
CONTINUOUS
70
0
71
3
72
17
73
13
74
11
42
0.0000001000
43
0.0000001000
44
0.0000000001
40
0.0000000000
40
0.0000000000
40
0.0000000000
40
0.0000000000
40
0.0076683297
40
0.0532783412
40
0.1332186682
40
0.2332588446
40
0.3453988638
40
0.4652058235
40
0.5926104997
40
0.7273364999
40
0.8645649501
40
1.0000000000
40
1.0000000000
40
1.0000000000
40
1.0000000000
10
320.2582049314
20
178.3900786669
30
0.0000000000
10
320.2781632224
20
178.3902268495
30
0.0000000000
10
320.4186123429
20
178.3675837127
30
0.0000000000
10
320.4334467525
20
177.9353950925
30
0.0000000000
10
320.5787607270
20
177.4551788180
30
0.0000000000
10
320.6486183118
20
176.7108860660
30
0.0000000000
10
320.7296038598
20
175.9020939347
30
0.0000000000
10
320.7893850236
20
175.0129254233
30
0.0000000000
10
320.8388759260
20
174.0704699338
30
0.0000000000
10
320.8747226690
20
173.0833235289
30
0.0000000000
10
320.8969111132
20
172.0761995663
30
0.0000000000
10
320.9020619741
20
171.4019303966
30
0.0000000000
10
320.9020619741
20
171.0670247329
30
0.0000000000
11
320.2582049314
21
178.3900786669
31
0.0000000000
11
320.3158061859
21
178.3805972568
31
0.0000000000
11
320.4384519541
21
178.0652525917
31
0.0000000000
11
320.5514329948
21
177.4830816608
31
0.0000000000
11
320.6459512692
21
176.7469829374
31
0.0000000000
11
320.7235272608
21
175.9187036896
31
0.0000000000
11
320.7859855493
21
175.0321200876
31
0.0000000000
11
320.8354615959
21
174.0882718195
31
0.0000000000
11
320.8721422993
21
173.0894882018
31
0.0000000000
11
320.8945518515
21
172.0717136550
31
0.0000000000
11
320.9020619741
21
171.0670247329
31
0.0000000000
0
SPLINE
5
567
100
AcDbEntity
8
0
100
AcDbSpline
62
7
6
CONTINUOUS
70
0
71
3
72
11
73
7
74
5
42
0.0000001000
43
0.0000001000
44
0.0000000001
40
0.0000000000
40
0.0000000000
40
0.0000000000
40
0.0000000000
40
0.5042604617
40
0.8396305123
40
0.9888135329
40
1.0000000000
40
1.0000000000
40
1.0000000000
40
1.0000000000
10
271.9879506802
20
187.6204429715
30
0.0000000000
10
271.9717909412
20
187.9163417166
30
0.0000000000
10
271.9355735843
20
188.4562412221
30
0.0000000000
10
271.8628051744
20
188.9025243913
30
0.0000000000
10
271.7795835885
20
189.3490627098
30
0.0000000000
10
271.7093752927
20
189.3285080072
30
0.0000000000
10
271.7043472155
20
189.3263836703
30
0.0000000000
11
271.9879506802
21
187.6204429715
31
0.0000000000
11
271.9190648126
21
188.5067891666
31
0.0000000000
11
271.8272189047
21
189.0908746107
31
0.0000000000
11
271.7189593411
21
189.3305726933
31
0.0000000000
11
271.7043472155
21
189.3263836703
31
0.0000000000
0
SPLINE
5
568
100
AcDbEntity
8
0
100
AcDbSpline
62
7
6
CONTINUOUS
70
0
71
3
72
14
73
10
74
8
42
0.0000001000
43
0.0000001000
44
0.0000000001
40
0.0000000000
40
0.0000000000
40
0.0000000000
40
0.0000000000
40
0.0944030602
40
0.2258859214
40
0.3709635134
40
0.5280957791
40
0.6879208728
40
0.8486867548
40
1.0000000000
40
1.0000000000
40
1.0000000000
40
1.0000000000
10
277.1052203272
20
119.6334560703
30
0.0000000000
10
277.1505754356
20
119.5352198743
30
0.0000000000
10
277.2981164826
20
119.3181416419
30
0.0000000000
10
277.6652440860
20
119.0833785704
30
0.0000000000
10
278.1656406030
20
119.0093281247
30
0.0000000000
10
278.6885335602
20
119.1258924333
30
0.0000000000
10
279.1598574726
20
119.4139988942
30
0.0000000000
10
279.5107928921
20
119.8325092760
30
0.0000000000
10
279.6316668647
20
120.1773111602
30
0.0000000000
10
279.6526161728
20
120.3480035186
30
0.0000000000
11
277.1052203272
21
119.6334560703
31
0.0000000000
11
277.2871729749
21
119.3667226778
31
0.0000000000
11
277.6620505838
21
119.1208679104
31
0.0000000000
11
278.1501936147
21
119.0408483617
31
0.0000000000
11
278.6741819501
21
119.1525397437
31
0.0000000000
11
279.1395717954
21
119.4360419290
31
0.0000000000
11
279.4883111876
21
119.8589466053
31
0.0000000000
11
279.6526161728
21
120.3480035186
31
0.0000000000
0
SPLINE
5
569
100
AcDbEntity
8
0
100
AcDbSpline
62
7
6
CONTINUOUS
70
0
71
3
72
11
73
7
74
5
42
0.0000001000
43
0.0000001000
44
0.0000000001
40
0.0000000000
40
0.0000000000
40
0.0000000000
40
0.0000000000
40
0.2454624402
40
0.5035416691
40
0.7598223988
40
1.0000000000
40
1.0000000000
40
1.0000000000
40
1.0000000000
10
318.6961629171
20
179.2266950966
30
0.0000000000
10
318.6728898463
20
179.6051461895
30
0.0000000000
10
318.6352420762
20
180.3821372444
30
0.0000000000
10
318.6029226466
20
181.5554653958
30
0.0000000000
10
318.5942180205
20
182.7210424687
30
0.0000000000
10
318.6048884683
20
183.4879352094
30
0.0000000000
10
318.6151715760
20
183.8587951917
30
0.0000000000
11
318.6961629171
21
179.2266950966
31
0.0000000000
11
318.6400419499
21
180.3628078670
31
0.0000000000
11
318.6068602494
21
181.5583129984
31
0.0000000000
11
318.5984019450
21
182.7459139770
31
0.0000000000
11
318.6151715760
21
183.8587951917
31
0.0000000000
0
SPLINE
5
56A
100
AcDbEntity
8
0
100
AcDbSpline
62
7
6
CONTINUOUS
70
0
71
3
72
10
73
6
74
4
42
0.0000001000
43
0.0000001000
44
0.0000000001
40
0.0000000000
40
0.0000000000
40
0.0000000000
40
0.0000000000
40
0.4865795793
40
0.9679358172
40
1.0000000000
40
1.0000000000
40
1.0000000000
40
1.0000000000
10
279.7353982876
20
126.6847878810
30
0.0000000000
10
279.7353982876
20
126.8454884743
30
0.0000000000
10
279.6791548663
20
127.1685195531
30
0.0000000000
10
279.5025239852
20
127.4571897877
30
0.0000000000
10
279.3846752806
20
127.5805443684
30
0.0000000000
10
279.3772125941
20
127.5881488186
30
0.0000000000
11
279.7353982876
21
126.6847878810
31
0.0000000000
11
279.6498599904
21
127.1592405402
31
0.0000000000
11
279.3992891363
21
127.5650399240
31
0.0000000000
11
279.3772125941
21
127.5881488186
31
0.0000000000
0
SPLINE
5
56B
100
AcDbEntity
8
0
100
AcDbSpline
62
7
6
CONTINUOUS
70
0
71
3
72
13
73
9
74
7
42
0.0000001000
43
0.0000001000
44
0.0000000001
40
0.0000000000
40
0.0000000000
40
0.0000000000
40
0.0000000000
40
0.1969924370
40
0.3968479491
40
0.5935276226
40
0.7907671316
40
0.9902987542
40
1.0000000000
40
1.0000000000
40
1.0000000000
40
1.0000000000
10
275.7138611959
20
129.7366081695
30
0.0000000000
10
275.7072214969
20
129.9045095342
30
0.0000000000
10
275.6309481840
20
130.2436003236
30
0.0000000000
10
275.3394558365
20
130.6721141452
30
0.0000000000
10
274.9095444322
20
130.9624518115
30
0.0000000000
10
274.4031885316
20
131.0732389698
30
0.0000000000
10
274.0527593225
20
131.0161246345
30
0.0000000000
10
273.8845981462
20
130.9535330462
30
0.0000000000
10
273.8768286193
20
130.9505603167
30
0.0000000000
11
275.7138611959
21
129.7366081695
31
0.0000000000
11
275.6022683272
21
130.2281990732
31
0.0000000000
11
275.3144352678
21
130.6509365354
31
0.0000000000
11
274.8972614670
21
130.9324935167
31
0.0000000000
11
274.4042732596
21
131.0407295712
31
0.0000000000
11
273.9002182730
21
130.9592659070
31
0.0000000000
11
273.8768286193
21
130.9505603167
31
0.0000000000
0
SPLINE
5
56C
100
AcDbEntity
8
0
100
AcDbSpline
62
7
6
CONTINUOUS
70
0
71
3
72
12
73
8
74
6
42
0.0000001000
43
0.0000001000
44
0.0000000001
40
0.0000000000
40
0.0000000000
40
0.0000000000
40
0.0000000000
40
0.2105848819
40
0.4224981551
40
0.6271088478
40
0.8291479112
40
1.0000000000
40
1.0000000000
40
1.0000000000
40
1.0000000000
10
279.6526161728
20
133.4435371893
30
0.0000000000
10
279.6330585995
20
133.6223344482
30
0.0000000000
10
279.5263652153
20
133.9772179536
30
0.0000000000
10
279.1862082863
20
134.4076564272
30
0.0000000000
10
278.7132876635
20
134.6733277202
30
0.0000000000
10
278.2085710487
20
134.7265469674
30
0.0000000000
10
277.8955613718
20
134.6362981110
30
0.0000000000
10
277.7634549426
20
134.5719895373
30
0.0000000000
11
279.6526161728
21
133.4435371893
31
0.0000000000
11
279.4962733069
21
133.9599822825
31
0.0000000000
11
279.1582988238
21
134.3849726100
31
0.0000000000
11
278.7000566754
21
134.6397019552
31
0.0000000000
11
278.1850971055
21
134.6928389619
31
0.0000000000
11
277.7634549426
21
134.5719895373
31
0.0000000000
0
SPLINE
5
56D
100
AcDbEntity
8
0
100
AcDbSpline
62
7
6
CONTINUOUS
70
0
71
3
72
10
73
6
74
4
42
0.0000001000
43
0.0000001000
44
0.0000000001
40
0.0000000000
40
0.0000000000
40
0.0000000000
40
0.0000000000
40
0.4538343784
40
0.9102398380
40
1.0000000000
40
1.0000000000
40
1.0000000000
40
1.0000000000
10
275.7138611959
20
123.1888413341
30
0.0000000000
10
275.7202564239
20
123.3413177587
30
0.0000000000
10
275.6750534981
20
123.6530362771
30
0.0000000000
10
275.4987007351
20
123.9492514923
30
0.0000000000
10
275.3704420885
20
124.0822571123
30
0.0000000000
10
275.3485762565
20
124.1033011494
30
0.0000000000
11
275.7138611959
21
123.1888413341
31
0.0000000000
11
275.6465137211
21
123.6416922461
31
0.0000000000
11
275.4117369823
21
124.0377619615
31
0.0000000000
11
275.3485762565
21
124.1033011494
31
0.0000000000
0
SPLINE
5
56E
100
AcDbEntity
8
0
100
AcDbSpline
62
7
6
CONTINUOUS
70
0
71
3
72
10
73
6
74
4
42
0.0000001000
43
0.0000001000
44
0.0000000001
40
0.0000000000
40
0.0000000000
40
0.0000000000
40
0.0000000000
40
0.4952597910
40
0.9767086932
40
1.0000000000
40
1.0000000000
40
1.0000000000
40
1.0000000000
10
279.6526161728
20
120.3480035186
30
0.0000000000
10
279.6706801469
20
120.4951865347
30
0.0000000000
10
279.6512579076
20
120.7969830853
30
0.0000000000
10
279.4995942600
20
121.0671825870
30
0.0000000000
10
279.3958805545
20
121.1784826479
30
0.0000000000
10
279.3910384086
20
121.1835647338
30
0.0000000000
11
279.6526161728
21
120.3480035186
31
0.0000000000
11
279.6178896106
21
120.7915081887
31
0.0000000000
11
279.4053944809
21
121.1681573287
31
0.0000000000
11
279.3910384086
21
121.1835647338
31
0.0000000000
0
SPLINE
5
56F
100
AcDbEntity
8
0
100
AcDbSpline
62
7
6
CONTINUOUS
70
0
71
3
72
9
73
5
74
3
42
0.0000001000
43
0.0000001000
44
0.0000000001
40
0.0000000000
40
0.0000000000
40
0.0000000000
40
0.0000000000
40
0.6986939295
40
1.0000000000
40
1.0000000000
40
1.0000000000
40
1.0000000000
10
275.6976074803
20
117.0678089414
30
0.0000000000
10
275.7201719308
20
117.2062550185
30
0.0000000000
10
275.7070864106
20
117.4158637069
30
0.0000000000
10
275.6243445583
20
117.6017444303
30
0.0000000000
10
275.5941183056
20
117.6547772096
30
0.0000000000
11
275.6976074803
21
117.0678089414
31
0.0000000000
11
275.6678820287
21
117.4875762980
31
0.0000000000
11
275.5941183056
21
117.6547772096
31
0.0000000000
0
SPLINE
5
570
100
AcDbEntity
8
0
100
AcDbSpline
62
7
6
CONTINUOUS
70
0
71
3
72
12
73
8
74
6
42
0.0000001000
43
0.0000001000
44
0.0000000001
40
0.0000000000
40
0.0000000000
40
0.0000000000
40
0.0000000000
40
0.1704084437
40
0.3534982595
40
0.5535355653
40
0.7706195196
40
1.0000000000
40
1.0000000000
40
1.0000000000
40
1.0000000000
10
272.9771320384
20
116.9626407305
30
0.0000000000
10
272.9770263738
20
116.8374288606
30
0.0000000000
10
273.0333811298
20
116.5739003505
30
0.0000000000
10
273.2909241122
20
116.2429684813
30
0.0000000000
10
273.6859187232
20
116.0245398051
30
0.0000000000
10
274.1618287381
20
115.9446324094
30
0.0000000000
10
274.4925225774
20
115.9889528896
30
0.0000000000
10
274.6546480026
20
116.0350194342
30
0.0000000000
11
272.9771320384
21
116.9626407305
31
0.0000000000
11
273.0564842197
21
116.5954821227
31
0.0000000000
11
273.2999101712
21
116.2735684887
31
0.0000000000
11
273.6821867431
21
116.0537976027
31
0.0000000000
11
274.1532585861
21
115.9696766982
31
0.0000000000
11
274.6546480026
21
116.0350194342
31
0.0000000000
0
SPLINE
5
571
100
AcDbEntity
8
0
100
AcDbSpline
62
7
6
CONTINUOUS
70
0
71
3
72
11
73
7
74
5
42
0.0000001000
43
0.0000001000
44
0.0000000001
40
0.0000000000
40
0.0000000000
40
0.0000000000
40
0.0000000000
40
0.2639201208
40
0.5198780898
40
0.7657018749
40
1.0000000000
40
1.0000000000
40
1.0000000000
40
1.0000000000
10
273.1891165012
20
115.5925081150
30
0.0000000000
10
272.9977777434
20
116.1023874085
30
0.0000000000
10
272.6311864142
20
117.1106547989
30
0.0000000000
10
272.1162793868
20
118.6044823481
30
0.0000000000
10
271.6414773310
20
120.0473074348
30
0.0000000000
10
271.3430620388
20
120.9920511837
30
0.0000000000
10
271.1999012611
20
121.4538429255
30
0.0000000000
11
273.1891165012
21
115.5925081150
31
0.0000000000
11
272.6299510232
21
117.1276370009
31
0.0000000000
11
272.1130449114
21
118.6254573985
31
0.0000000000
11
271.6370006729
21
120.0708520745
31
0.0000000000
11
271.1999012611
21
121.4538429255
31
0.0000000000
0
SPLINE
5
572
100
AcDbEntity
8
0
100
AcDbSpline
62
7
6
CONTINUOUS
70
0
71
3
72
12
73
8
74
6
42
0.0000001000
43
0.0000001000
44
0.0000000001
40
0.0000000000
40
0.0000000000
40
0.0000000000
40
0.0000000000
40
0.2073218283
40
0.4103721166
40
0.6111326184
40
0.8093092971
40
1.0000000000
40
1.0000000000
40
1.0000000000
40
1.0000000000
10
274.6546480026
20
137.8837632691
30
0.0000000000
10
274.4925152468
20
137.9261391813
30
0.0000000000
10
274.1529588862
20
137.9519374559
30
0.0000000000
10
273.6696574051
20
137.8056613874
30
0.0000000000
10
273.2781379363
20
137.4974327205
30
0.0000000000
10
273.0315301820
20
137.0772122371
30
0.0000000000
10
272.9770256043
20
136.7600772744
30
0.0000000000
10
272.9771320384
20
136.6059412366
30
0.0000000000
11
274.6546480026
21
137.8837632691
31
0.0000000000
11
274.1532585861
21
137.9205517032
31
0.0000000000
11
273.6821867431
21
137.7772738952
31
0.0000000000
11
273.2999101712
21
137.4758360686
31
0.0000000000
11
273.0564842197
21
137.0614899130
31
0.0000000000
11
272.9771320384
21
136.6059412366
31
0.0000000000
0
SPLINE
5
573
100
AcDbEntity
8
0
100
AcDbSpline
62
7
6
CONTINUOUS
70
0
71
3
72
10
73
6
74
4
42
0.0000001000
43
0.0000001000
44
0.0000000001
40
0.0000000000
40
0.0000000000
40
0.0000000000
40
0.0000000000
40
0.3307916294
40
0.6667626219
40
1.0000000000
40
1.0000000000
40
1.0000000000
40
1.0000000000
10
275.6976074803
20
136.7111094475
30
0.0000000000
10
275.6778618383
20
136.8574809295
30
0.0000000000
10
275.5892261348
20
137.1480697004
30
0.0000000000
10
275.3274847211
20
137.5183629181
30
0.0000000000
10
275.0829762857
20
137.7001887307
30
0.0000000000
10
274.9511226493
20
137.7691299275
30
0.0000000000
11
275.6976074803
21
136.7111094475
31
0.0000000000
11
275.5687760020
21
137.1350586901
31
0.0000000000
11
275.3092900693
21
137.5027457506
31
0.0000000000
11
274.9511226493
21
137.7691299275
31
0.0000000000
0
SPLINE
5
574
100
AcDbEntity
8
0
100
AcDbSpline
62
7
6
CONTINUOUS
70
0
71
3
72
10
73
6
74
4
42
0.0000001000
43
0.0000001000
44
0.0000000001
40
0.0000000000
40
0.0000000000
40
0.0000000000
40
0.0000000000
40
0.3540467089
40
0.6904126058
40
1.0000000000
40
1.0000000000
40
1.0000000000
40
1.0000000000
10
274.9511226493
20
116.1496527758
30
0.0000000000
10
275.0802849916
20
116.2139886708
30
0.0000000000
10
275.3175336811
20
116.3728208363
30
0.0000000000
10
275.5822971820
20
116.6904432689
30
0.0000000000
10
275.6773103202
20
116.9432740147
30
0.0000000000
10
275.6976074803
20
117.0678089414
30
0.0000000000
11
274.9511226493
21
116.1496527758
31
0.0000000000
11
275.3092900693
21
116.3927870221
31
0.0000000000
11
275.5687760020
21
116.7118724945
31
0.0000000000
11
275.6976074803
21
117.0678089414
31
0.0000000000
0
SPLINE
5
575
100
AcDbEntity
8
0
100
AcDbSpline
62
7
6
CONTINUOUS
70
0
71
3
72
10
73
6
74
4
42
0.0000001000
43
0.0000001000
44
0.0000000001
40
0.0000000000
40
0.0000000000
40
0.0000000000
40
0.0000000000
40
0.3065940424
40
0.6395793683
40
1.0000000000
40
1.0000000000
40
1.0000000000
40
1.0000000000
10
270.8257115100
20
123.8723093239
30
0.0000000000
10
270.8279910761
20
123.6214277263
30
0.0000000000
10
270.8554491681
20
123.0979737353
30
0.0000000000
10
270.9736327975
20
122.2870644636
30
0.0000000000
10
271.1125671221
20
121.7355554508
30
0.0000000000
10
271.1999012611
20
121.4538429255
30
0.0000000000
11
270.8257115100
21
123.8723093239
31
0.0000000000
11
270.8653760679
21
123.1206793122
31
0.0000000000
11
270.9835316323
21
122.3117980365
31
0.0000000000
11
271.1999012611
21
121.4538429255
31
0.0000000000
0
SPLINE
5
576
100
AcDbEntity
8
0
100
AcDbSpline
62
7
6
CONTINUOUS
70
0
71
3
72
15
73
11
74
9
42
0.0000001000
43
0.0000001000
44
0.0000000001
40
0.0000000000
40
0.0000000000
40
0.0000000000
40
0.0000000000
40
0.1234396311
40
0.2472898899
40
0.3716279484
40
0.4964879734
40
0.6218389183
40
0.7476199345
40
0.8737190161
40
1.0000000000
40
1.0000000000
40
1.0000000000
40
1.0000000000
10
277.4322791652
20
98.4997245993
30
0.0000000000
10
277.4606077061
20
98.3967107333
30
0.0000000000
10
277.5349418635
20
98.1947310769
30
0.0000000000
10
277.6955067639
20
97.9143896510
30
0.0000000000
10
277.9009444392
20
97.6633791140
30
0.0000000000
10
278.1455758115
20
97.4484835318
30
0.0000000000
10
278.4227610756
20
97.2753004683
30
0.0000000000
10
278.7250895683
20
97.1483230274
30
0.0000000000
10
279.0444367752
20
97.0708071230
30
0.0000000000
10
279.2632705538
20
97.0534362451
30
0.0000000000
10
279.3725677895
20
97.0534362451
30
0.0000000000
11
277.4322791652
21
98.4997245993
31
0.0000000000
11
277.5429188285
21
98.1989121491
31
0.0000000000
11
277.7026284675
21
97.9197944305
31
0.0000000000
11
277.9070119941
21
97.6698795156
31
0.0000000000
11
278.1504936657
21
97.4558147796
31
0.0000000000
11
278.4264628126
21
97.2832569577
31
0.0000000000
11
278.7275375968
21
97.1566974564
31
0.0000000000
11
279.0457074510
21
97.0794226021
31
0.0000000000
11
279.3725677895
21
97.0534362451
31
0.0000000000
0
SPLINE
5
577
100
AcDbEntity
8
0
100
AcDbSpline
62
7
6
CONTINUOUS
70
0
71
3
72
15
73
11
74
9
42
0.0000001000
43
0.0000001000
44
0.0000000001
40
0.0000000000
40
0.0000000000
40
0.0000000000
40
0.0000000000
40
0.2055674463
40
0.3976690555
40
0.5702317648
40
0.7173055984
40
0.8383441860
40
0.9311823884
40
0.9880629482
40
1.0000000000
40
1.0000000000
40
1.0000000000
40
1.0000000000
10
320.9020619741
20
171.0670247329
30
0.0000000000
10
320.9020619741
20
170.7449932155
30
0.0000000000
10
320.8976077024
20
170.1218252869
30
0.0000000000
10
320.8756320234
20
169.2295077413
30
0.0000000000
10
320.8420726534
20
168.4261694699
30
0.0000000000
10
320.7898112562
20
167.7444025781
30
0.0000000000
10
320.7437065762
20
167.1623902330
30
0.0000000000
10
320.6436018866
20
166.7911613619
30
0.0000000000
10
320.6277674997
20
166.4634748841
30
0.0000000000
10
320.5157371925
20
166.4435295833
30
0.0000000000
10
320.4960550544
20
166.4433834511
30
0.0000000000
11
320.9020619741
21
171.0670247329
31
0.0000000000
11
320.8945519070
21
170.1009593713
31
0.0000000000
11
320.8721425522
21
169.1984276702
31
0.0000000000
11
320.8354621687
21
168.3882736926
31
0.0000000000
11
320.7859864544
21
167.6988515140
31
0.0000000000
11
320.7235284550
21
167.1334521227
31
0.0000000000
11
320.6459526923
21
166.7040971947
31
0.0000000000
11
320.5514346168
21
166.4540460812
31
0.0000000000
11
320.4960550544
21
166.4433834511
31
0.0000000000
0
SPLINE
5
578
100
AcDbEntity
8
0
100
AcDbSpline
62
7
6
CONTINUOUS
70
0
71
3
72
17
73
13
74
11
42
0.0000001000
43
0.0000001000
44
0.0000000001
40
0.0000000000
40
0.0000000000
40
0.0000000000
40
0.0000000000
40
0.1006568708
40
0.2025691401
40
0.3034258732
40
0.4043126493
40
0.5055722558
40
0.6068024403
40
0.7076597433
40
0.8074838231
40
0.9052514339
40
1.0000000000
40
1.0000000000
40
1.0000000000
40
1.0000000000
10
319.9393578920
20
126.2853835571
30
0.0000000000
10
319.9393578920
20
126.2044183023
30
0.0000000000
10
319.9392862634
20
126.0414779801
30
0.0000000000
10
319.9389615470
20
125.7974118337
30
0.0000000000
10
319.9384171724
20
125.5531611476
30
0.0000000000
10
319.9376544709
20
125.3094360300
30
0.0000000000
10
319.9366688669
20
125.0654113157
30
0.0000000000
10
319.9354591854
20
124.8214113163
30
0.0000000000
10
319.9340306239
20
124.5785672131
30
0.0000000000
10
319.9323959753
20
124.3385096599
30
0.0000000000
10
319.9305782333
20
124.1033672485
30
0.0000000000
10
319.9292409337
20
123.9485189763
30
0.0000000000
10
319.9285484758
20
123.8723093239
30
0.0000000000
11
319.9393578920
21
126.2853835571
31
0.0000000000
11
319.9392508672
21
126.0424878163
31
0.0000000000
11
319.9389234065
21
125.7965628594
31
0.0000000000
11
319.9383807012
21
125.5531854111
31
0.0000000000
11
319.9376185710
21
125.3097360536
31
0.0000000000
11
319.9366313505
21
125.0653878181
31
0.0000000000
11
319.9354199743
21
124.8211115901
31
0.0000000000
11
319.9339879507
21
124.5777363744
31
0.0000000000
11
319.9323473544
21
124.3368558105
31
0.0000000000
11
319.9305232894
21
124.1009391901
31
0.0000000000
11
319.9285484758
21
123.8723093239
31
0.0000000000
0
SPLINE
5
579
100
AcDbEntity
8
0
100
AcDbSpline
62
7
6
CONTINUOUS
70
0
71
3
72
37
73
33
74
31
42
0.0000001000
43
0.0000001000
44
0.0000000001
40
0.0000000000
40
0.0000000000
40
0.0000000000
40
0.0000000000
40
0.0103136022
40
0.0207386513
40
0.0311449701
40
0.0414848805
40
0.0518643099
40
0.0627701283
40
0.0747354297
40
0.0882919237
40
0.1036461926
40
0.1207246762
40
0.1394968349
40
0.1601077969
40
0.1827628665
40
0.2076783222
40
0.2351001200
40
0.2654753225
40
0.2993661263
40
0.3372713151
40
0.3790977338
40
0.4244368956
40
0.4732566182
40
0.5269690538
40
0.5867884649
40
0.6496730139
40
0.7110399089
40
0.7702488318
40
0.8283553169
40
0.8858734022
40
0.9430168809
40
1.0000000000
40
1.0000000000
40
1.0000000000
40
1.0000000000
10
319.9393578920
20
126.2853835571
30
0.0000000000
10
319.9393578920
20
126.3278420349
30
0.0000000000
10
319.9393382101
20
126.4132177903
30
0.0000000000
10
319.9392494252
20
126.5414336864
30
0.0000000000
10
319.9391012291
20
126.6697578318
30
0.0000000000
10
319.9388944413
20
126.7978940913
30
0.0000000000
10
319.9386248542
20
126.9280865511
30
0.0000000000
10
319.9382773702
20
127.0649701715
30
0.0000000000
10
319.9378215418
20
127.2149327086
30
0.0000000000
10
319.9372162832
20
127.3832079928
30
0.0000000000
10
319.9364162627
20
127.5725323502
30
0.0000000000
10
319.9353774238
20
127.7833274087
30
0.0000000000
10
319.9340522268
20
128.0157617243
30
0.0000000000
10
319.9323802108
20
128.2711517388
30
0.0000000000
10
319.9302831309
20
128.5518297945
30
0.0000000000
10
319.9276642552
20
128.8605430690
30
0.0000000000
10
319.9243986197
20
129.2010336343
30
0.0000000000
10
319.9203191235
20
129.5784670658
30
0.0000000000
10
319.9152064825
20
129.9990489629
30
0.0000000000
10
319.9088198555
20
130.4667601300
30
0.0000000000
10
319.9009362221
20
130.9815845845
30
0.0000000000
10
319.8913533084
20
131.5413198021
30
0.0000000000
10
319.8797472731
20
132.1499581912
30
0.0000000000
10
319.8655881795
20
132.8181688716
30
0.0000000000
10
319.8484958510
20
133.5442299029
30
0.0000000000
10
319.8287299774
20
134.3017458515
30
0.0000000000
10
319.8070664914
20
135.0566956133
30
0.0000000000
10
319.7840941435
20
135.7919271963
30
0.0000000000
10
319.7598124270
20
136.5112632717
30
0.0000000000
10
319.7340355034
20
137.2220388999
30
0.0000000000
10
319.7066412643
20
137.9281259252
30
0.0000000000
10
319.6872229120
20
138.3975552739
30
0.0000000000
10
319.6772206847
20
138.6319269514
30
0.0000000000
11
319.9393578920
21
126.2853835571
31
0.0000000000
11
319.9393285621
21
126.4127589873
31
0.0000000000
11
319.9392394405
21
126.5415107851
31
0.0000000000
11
319.9390910511
21
126.6700312047
31
0.0000000000
11
319.9388849987
21
126.7977313836
31
0.0000000000
11
319.9386195931
21
126.9259195241
31
0.0000000000
11
319.9382777152
21
127.0606085328
31
0.0000000000
11
319.9378285848
21
127.2083821613
31
0.0000000000
11
319.9372264478
21
127.3758069940
31
0.0000000000
11
319.9364252345
21
127.5654341638
31
0.0000000000
11
319.9353858895
21
127.7763549261
31
0.0000000000
11
319.9340642408
21
128.0081917707
31
0.0000000000
11
319.9323979335
21
128.2627365860
31
0.0000000000
11
319.9303077213
21
128.5425242609
31
0.0000000000
11
319.9276976962
21
128.8502249783
31
0.0000000000
11
319.9244500237
21
129.1888751120
31
0.0000000000
11
319.9203959129
21
129.5639941601
31
0.0000000000
11
319.9153086666
21
129.9825227077
31
0.0000000000
11
319.9089172900
21
130.4506171466
31
0.0000000000
11
319.9010083818
21
130.9671227892
31
0.0000000000
11
319.8914235563
21
131.5269901499
31
0.0000000000
11
319.8799284729
21
132.1298157145
31
0.0000000000
11
319.8658749593
21
132.7930281520
31
0.0000000000
11
319.8484867424
21
133.5316074108
31
0.0000000000
11
319.8282264426
21
134.3079821925
31
0.0000000000
11
319.8064842712
21
135.0655659712
31
0.0000000000
11
319.7836440344
21
135.7964534193
31
0.0000000000
11
319.7594295041
21
136.5136736458
31
0.0000000000
11
319.7336795719
21
137.2235687821
31
0.0000000000
11
319.7063138460
21
137.9287735272
31
0.0000000000
11
319.6772206847
21
138.6319269514
31
0.0000000000
0
SPLINE
5
57A
100
AcDbEntity
8
0
100
AcDbSpline
62
7
6
CONTINUOUS
70
0
71
3
72
15
73
11
74
9
42
0.0000001000
43
0.0000001000
44
0.0000000001
40
0.0000000000
40
0.0000000000
40
0.0000000000
40
0.0000000000
40
0.1261537555
40
0.2538343478
40
0.3821064538
40
0.5100322019
40
0.6366803726
40
0.7611447623
40
0.8825383666
40
1.0000000000
40
1.0000000000
40
1.0000000000
40
1.0000000000
10
319.6772206847
20
145.9596076150
30
0.0000000000
10
319.6772206847
20
147.3593442583
30
0.0000000000
10
319.6663457756
20
150.1757691554
30
0.0000000000
10
319.6185720411
20
154.4151909400
30
0.0000000000
10
319.5395666036
20
158.6738122659
30
0.0000000000
10
319.4299388643
20
162.9202959016
30
0.0000000000
10
319.2905265138
20
167.1236355831
30
0.0000000000
10
319.1223822947
20
171.2533905768
30
0.0000000000
10
318.9267578338
20
175.2798882953
30
0.0000000000
10
318.7761585856
20
177.9258591019
30
0.0000000000
10
318.6961629171
20
179.2266950966
30
0.0000000000
11
319.6772206847
21
145.9596076150
31
0.0000000000
11
319.6612584139
21
150.1587872064
31
0.0000000000
11
319.6135008199
21
154.4085517676
31
0.0000000000
11
319.5343227581
21
158.6775398473
31
0.0000000000
11
319.4243367231
21
162.9343124420
31
0.0000000000
11
319.2843845913
21
167.1476559842
31
0.0000000000
11
319.1155112180
21
171.2871897462
31
0.0000000000
11
318.9189604919
21
175.3231680287
31
0.0000000000
11
318.6961629171
21
179.2266950966
31
0.0000000000
0
SPLINE
5
57B
100
AcDbEntity
8
0
100
AcDbSpline
62
7
6
CONTINUOUS
70
0
71
3
72
10
73
6
74
4
42
0.0000001000
43
0.0000001000
44
0.0000000001
40
0.0000000000
40
0.0000000000
40
0.0000000000
40
0.0000000000
40
0.3492140457
40
0.6830800081
40
1.0000000000
40
1.0000000000
40
1.0000000000
40
1.0000000000
10
318.6151715760
20
183.8587951917
30
0.0000000000
10
318.6273182619
20
184.2968650659
30
0.0000000000
10
318.6543333488
20
185.1536662210
30
0.0000000000
10
318.7044437223
20
186.4076070694
30
0.0000000000
10
318.7446216433
20
187.2233231863
30
0.0000000000
10
318.7663093056
20
187.6204429715
30
0.0000000000
11
318.6151715760
21
183.8587951917
31
0.0000000000
11
318.6568258855
21
185.1728498818
31
0.0000000000
11
318.7072843891
21
186.4287692049
31
0.0000000000
11
318.7663093056
21
187.6204429715
31
0.0000000000
0
SPLINE
5
57C
100
AcDbEntity
8
0
100
AcDbSpline
62
7
6
CONTINUOUS
70
0
71
3
72
11
73
7
74
5
42
0.0000001000
43
0.0000001000
44
0.0000000001
40
0.0000000000
40
0.0000000000
40
0.0000000000
40
0.0000000000
40
0.2454624402
40
0.5035416691
40
0.7598223988
40
1.0000000000
40
1.0000000000
40
1.0000000000
40
1.0000000000
10
272.0580970687
20
179.2266950966
30
0.0000000000
10
272.0813701395
20
179.6051461895
30
0.0000000000
10
272.1190179097
20
180.3821372444
30
0.0000000000
10
272.1513373392
20
181.5554653958
30
0.0000000000
10
272.1600419653
20
182.7210424687
30
0.0000000000
10
272.1493715175
20
183.4879352094
30
0.0000000000
10
272.1390884098
20
183.8587951917
30
0.0000000000
11
272.0580970687
21
179.2266950966
31
0.0000000000
11
272.1142180359
21
180.3628078670
31
0.0000000000
11
272.1473997364
21
181.5583129984
31
0.0000000000
11
272.1558580408
21
182.7459139770
31
0.0000000000
11
272.1390884098
21
183.8587951917
31
0.0000000000
0
SPLINE
5
57D
100
AcDbEntity
8
0
100
AcDbSpline
62
7
6
CONTINUOUS
70
0
71
3
72
16
73
12
74
10
42
0.0000001000
43
0.0000001000
44
0.0000000001
40
0.0000000000
40
0.0000000000
40
0.0000000000
40
0.0000000000
40
0.0802273175
40
0.1725421863
40
0.2708013589
40
0.3822354321
40
0.5069602346
40
0.6335872554
40
0.7580350574
40
0.8812501558
40
1.0000000000
40
1.0000000000
40
1.0000000000
40
1.0000000000
10
272.9781713080
20
123.0416342042
30
0.0000000000
10
272.9823911658
20
122.9326351609
30
0.0000000000
10
273.0231268498
20
122.6981888106
30
0.0000000000
10
273.1926821343
20
122.3652955941
30
0.0000000000
10
273.4914584246
20
122.0737273998
30
0.0000000000
10
273.9123883028
20
121.8802598059
30
0.0000000000
10
274.4141885152
20
121.8423077725
30
0.0000000000
10
274.9149045892
20
121.9835762305
30
0.0000000000
10
275.3376379198
20
122.2828952930
30
0.0000000000
10
275.6275074391
20
122.6996151884
30
0.0000000000
10
275.7071073005
20
123.0278134816
30
0.0000000000
10
275.7138611959
20
123.1888413341
30
0.0000000000
11
272.9781713080
21
123.0416342042
31
0.0000000000
11
273.0348226724
21
122.7194434362
31
0.0000000000
11
273.2052006024
21
122.3844019738
31
0.0000000000
11
273.4908282011
21
122.1042613547
31
0.0000000000
11
273.9022052982
21
121.9128674542
31
0.0000000000
11
274.4084143611
21
121.8722468034
31
0.0000000000
11
274.9048456315
21
122.0114595736
31
0.0000000000
11
275.3178733966
21
122.3049923042
31
0.0000000000
11
275.6020439094
21
122.7184402776
31
0.0000000000
11
275.7138611959
21
123.1888413341
31
0.0000000000
0
SPLINE
5
57E
100
AcDbEntity
8
0
100
AcDbSpline
62
7
6
CONTINUOUS
70
0
71
3
72
10
73
6
74
4
42
0.0000001000
43
0.0000001000
44
0.0000000001
40
0.0000000000
40
0.0000000000
40
0.0000000000
40
0.0000000000
40
0.4865795793
40
0.9679358172
40
1.0000000000
40
1.0000000000
40
1.0000000000
40
1.0000000000
10
311.0188616982
20
126.6847878810
30
0.0000000000
10
311.0188616982
20
126.8454884743
30
0.0000000000
10
311.0751051195
20
127.1685195531
30
0.0000000000
10
311.2517360007
20
127.4571897877
30
0.0000000000
10
311.3695847053
20
127.5805443684
30
0.0000000000
10
311.3770473918
20
127.5881488186
30
0.0000000000
11
311.0188616982
21
126.6847878810
31
0.0000000000
11
311.1043999954
21
127.1592405402
31
0.0000000000
11
311.3549708495
21
127.5650399240
31
0.0000000000
11
311.3770473918
21
127.5881488186
31
0.0000000000
0
SPLINE
5
57F
100
AcDbEntity
8
0
100
AcDbSpline
62
7
6
CONTINUOUS
70
0
71
3
72
13
73
9
74
7
42
0.0000001000
43
0.0000001000
44
0.0000000001
40
0.0000000000
40
0.0000000000
40
0.0000000000
40
0.0000000000
40
0.1969924370
40
0.3968479491
40
0.5935276226
40
0.7907671316
40
0.9902987542
40
1.0000000000
40
1.0000000000
40
1.0000000000
40
1.0000000000
10
315.0403987899
20
129.7366081695
30
0.0000000000
10
315.0470384889
20
129.9045095342
30
0.0000000000
10
315.1233118018
20
130.2436003236
30
0.0000000000
10
315.4148041493
20
130.6721141452
30
0.0000000000
10
315.8447155536
20
130.9624518115
30
0.0000000000
10
316.3510714542
20
131.0732389698
30
0.0000000000
10
316.7015006633
20
131.0161246345
30
0.0000000000
10
316.8696618396
20
130.9535330462
30
0.0000000000
10
316.8774313666
20
130.9505603167
30
0.0000000000
11
315.0403987899
21
129.7366081695
31
0.0000000000
11
315.1519916587
21
130.2281990732
31
0.0000000000
11
315.4398247180
21
130.6509365354
31
0.0000000000
11
315.8569985188
21
130.9324935167
31
0.0000000000
11
316.3499867263
21
131.0407295712
31
0.0000000000
11
316.8540417129
21
130.9592659070
31
0.0000000000
11
316.8774313666
21
130.9505603167
31
0.0000000000
0
SPLINE
5
580
100
AcDbEntity
8
0
100
AcDbSpline
62
7
6
CONTINUOUS
70
0
71
3
72
12
73
8
74
6
42
0.0000001000
43
0.0000001000
44
0.0000000001
40
0.0000000000
40
0.0000000000
40
0.0000000000
40
0.0000000000
40
0.0209449308
40
0.2566748307
40
0.4987801661
40
0.7485168401
40
1.0000000000
40
1.0000000000
40
1.0000000000
40
1.0000000000
10
274.5795215543
20
135.2211905462
30
0.0000000000
10
274.5937989368
20
135.2232733530
30
0.0000000000
10
274.7683592064
20
135.2516131434
30
0.0000000000
10
275.0958083317
20
135.3739312084
30
0.0000000000
10
275.4753610938
20
135.7162543231
30
0.0000000000
10
275.7012639271
20
136.1872213095
30
0.0000000000
10
275.7206485340
20
136.5403095730
30
0.0000000000
10
275.6976074803
20
136.7111094475
30
0.0000000000
11
274.5795215543
21
135.2211905462
31
0.0000000000
11
274.6222472256
21
135.2281288953
31
0.0000000000
11
275.0759432249
21
135.3985644823
31
0.0000000000
11
275.4454283926
21
135.7321004202
31
0.0000000000
11
275.6677292755
21
136.1949324639
31
0.0000000000
11
275.6976074803
21
136.7111094475
31
0.0000000000
0
SPLINE
5
581
100
AcDbEntity
8
0
100
AcDbSpline
62
7
6
CONTINUOUS
70
0
71
3
72
12
73
8
74
6
42
0.0000001000
43
0.0000001000
44
0.0000000001
40
0.0000000000
40
0.0000000000
40
0.0000000000
40
0.0000000000
40
0.2105848819
40
0.4224981551
40
0.6271088478
40
0.8291479112
40
1.0000000000
40
1.0000000000
40
1.0000000000
40
1.0000000000
10
311.1016438131
20
133.4435371893
30
0.0000000000
10
311.1212013863
20
133.6223344482
30
0.0000000000
10
311.2278947705
20
133.9772179536
30
0.0000000000
10
311.5680516995
20
134.4076564272
30
0.0000000000
10
312.0409723223
20
134.6733277202
30
0.0000000000
10
312.5456889371
20
134.7265469674
30
0.0000000000
10
312.8586986140
20
134.6362981110
30
0.0000000000
10
312.9908050432
20
134.5719895373
30
0.0000000000
11
311.1016438131
21
133.4435371893
31
0.0000000000
11
311.2579866789
21
133.9599822825
31
0.0000000000
11
311.5959611620
21
134.3849726100
31
0.0000000000
11
312.0542033104
21
134.6397019552
31
0.0000000000
11
312.5691628804
21
134.6928389619
31
0.0000000000
11
312.9908050432
21
134.5719895373
31
0.0000000000
0
SPLINE
5
582
100
AcDbEntity
8
0
100
AcDbSpline
62
7
6
CONTINUOUS
70
0
71
3
72
10
73
6
74
4
42
0.0000001000
43
0.0000001000
44
0.0000000001
40
0.0000000000
40
0.0000000000
40
0.0000000000
40
0.0000000000
40
0.4538343784
40
0.9102398380
40
1.0000000000
40
1.0000000000
40
1.0000000000
40
1.0000000000
10
315.0403987899
20
123.1888413341
30
0.0000000000
10
315.0340035620
20
123.3413177587
30
0.0000000000
10
315.0792064877
20
123.6530362771
30
0.0000000000
10
315.2555592507
20
123.9492514923
30
0.0000000000
10
315.3838178973
20
124.0822571123
30
0.0000000000
10
315.4056837294
20
124.1033011494
30
0.0000000000
11
315.0403987899
21
123.1888413341
31
0.0000000000
11
315.1077462647
21
123.6416922461
31
0.0000000000
11
315.3425230035
21
124.0377619615
31
0.0000000000
11
315.4056837294
21
124.1033011494
31
0.0000000000
0
SPLINE
5
583
100
AcDbEntity
8
0
100
AcDbSpline
62
7
6
CONTINUOUS
70
0
71
3
72
10
73
6
74
4
42
0.0000001000
43
0.0000001000
44
0.0000000001
40
0.0000000000
40
0.0000000000
40
0.0000000000
40
0.0000000000
40
0.4952597910
40
0.9767086932
40
1.0000000000
40
1.0000000000
40
1.0000000000
40
1.0000000000
10
311.1016438131
20
120.3480035186
30
0.0000000000
10
311.0835798389
20
120.4951865347
30
0.0000000000
10
311.1030020782
20
120.7969830853
30
0.0000000000
10
311.2546657258
20
121.0671825870
30
0.0000000000
10
311.3583794313
20
121.1784826479
30
0.0000000000
10
311.3632215773
20
121.1835647338
30
0.0000000000
11
311.1016438131
21
120.3480035186
31
0.0000000000
11
311.1363703753
21
120.7915081887
31
0.0000000000
11
311.3488655049
21
121.1681573287
31
0.0000000000
11
311.3632215773
21
121.1835647338
31
0.0000000000
0
SPLINE
5
584
100
AcDbEntity
8
0
100
AcDbSpline
62
7
6
CONTINUOUS
70
0
71
3
72
9
73
5
74
3
42
0.0000001000
43
0.0000001000
44
0.0000000001
40
0.0000000000
40
0.0000000000
40
0.0000000000
40
0.0000000000
40
0.6986939295
40
1.0000000000
40
1.0000000000
40
1.0000000000
40
1.0000000000
10
315.0566525055
20
117.0678089414
30
0.0000000000
10
315.0340880550
20
117.2062550185
30
0.0000000000
10
315.0471735752
20
117.4158637069
30
0.0000000000
10
315.1299154275
20
117.6017444303
30
0.0000000000
10
315.1601416802
20
117.6547772096
30
0.0000000000
11
315.0566525055
21
117.0678089414
31
0.0000000000
11
315.0863779571
21
117.4875762980
31
0.0000000000
11
315.1601416802
21
117.6547772096
31
0.0000000000
0
SPLINE
5
585
100
AcDbEntity
8
0
100
AcDbSpline
62
7
6
CONTINUOUS
70
0
71
3
72
10
73
6
74
4
42
0.0000001000
43
0.0000001000
44
0.0000000001
40
0.0000000000
40
0.0000000000
40
0.0000000000
40
0.0000000000
40
0.3540467089
40
0.6904126058
40
1.0000000000
40
1.0000000000
40
1.0000000000
40
1.0000000000
10
315.8031373365
20
116.1496527758
30
0.0000000000
10
315.6739749942
20
116.2139886708
30
0.0000000000
10
315.4367263047
20
116.3728208363
30
0.0000000000
10
315.1719628039
20
116.6904432689
30
0.0000000000
10
315.0769496656
20
116.9432740147
30
0.0000000000
10
315.0566525055
20
117.0678089414
30
0.0000000000
11
315.8031373365
21
116.1496527758
31
0.0000000000
11
315.4449699165
21
116.3927870221
31
0.0000000000
11
315.1854839838
21
116.7118724945
31
0.0000000000
11
315.0566525055
21
117.0678089414
31
0.0000000000
0
SPLINE
5
586
100
AcDbEntity
8
0
100
AcDbSpline
62
7
6
CONTINUOUS
70
0
71
3
72
10
73
6
74
4
42
0.0000001000
43
0.0000001000
44
0.0000000001
40
0.0000000000
40
0.0000000000
40
0.0000000000
40
0.0000000000
40
0.3307916294
40
0.6667626219
40
1.0000000000
40
1.0000000000
40
1.0000000000
40
1.0000000000
10
315.0566525055
20
136.7111094475
30
0.0000000000
10
315.0763981475
20
136.8574809295
30
0.0000000000
10
315.1650338510
20
137.1480697004
30
0.0000000000
10
315.4267752647
20
137.5183629181
30
0.0000000000
10
315.6712837001
20
137.7001887307
30
0.0000000000
10
315.8031373365
20
137.7691299275
30
0.0000000000
11
315.0566525055
21
136.7111094475
31
0.0000000000
11
315.1854839838
21
137.1350586901
31
0.0000000000
11
315.4449699165
21
137.5027457506
31
0.0000000000
11
315.8031373365
21
137.7691299275
31
0.0000000000
0
SPLINE
5
587
100
AcDbEntity
8
0
100
AcDbSpline
62
7
6
CONTINUOUS
70
0
71
3
72
37
73
33
74
31
42
0.0000001000
43
0.0000001000
44
0.0000000001
40
0.0000000000
40
0.0000000000
40
0.0000000000
40
0.0000000000
40
0.0103136022
40
0.0207386513
40
0.0311449701
40
0.0414848805
40
0.0518643099
40
0.0627701283
40
0.0747354297
40
0.0882919237
40
0.1036461926
40
0.1207246762
40
0.1394968349
40
0.1601077969
40
0.1827628665
40
0.2076783222
40
0.2351001200
40
0.2654753225
40
0.2993661263
40
0.3372713151
40
0.3790977338
40
0.4244368956
40
0.4732566182
40
0.5269690538
40
0.5867884649
40
0.6496730139
40
0.7110399089
40
0.7702488318
40
0.8283553169
40
0.8858734022
40
0.9430168809
40
1.0000000000
40
1.0000000000
40
1.0000000000
40
1.0000000000
10
270.8149020939
20
126.2853835571
30
0.0000000000
10
270.8149020939
20
126.3278420349
30
0.0000000000
10
270.8149217758
20
126.4132177903
30
0.0000000000
10
270.8150105607
20
126.5414336864
30
0.0000000000
10
270.8151587567
20
126.6697578318
30
0.0000000000
10
270.8153655445
20
126.7978940913
30
0.0000000000
10
270.8156351316
20
126.9280865511
30
0.0000000000
10
270.8159826156
20
127.0649701715
30
0.0000000000
10
270.8164384441
20
127.2149327086
30
0.0000000000
10
270.8170437026
20
127.3832079928
30
0.0000000000
10
270.8178437231
20
127.5725323502
30
0.0000000000
10
270.8188825620
20
127.7833274087
30
0.0000000000
10
270.8202077590
20
128.0157617243
30
0.0000000000
10
270.8218797750
20
128.2711517388
30
0.0000000000
10
270.8239768549
20
128.5518297945
30
0.0000000000
10
270.8265957307
20
128.8605430690
30
0.0000000000
10
270.8298613661
20
129.2010336343
30
0.0000000000
10
270.8339408623
20
129.5784670658
30
0.0000000000
10
270.8390535033
20
129.9990489629
30
0.0000000000
10
270.8454401303
20
130.4667601300
30
0.0000000000
10
270.8533237637
20
130.9815845845
30
0.0000000000
10
270.8629066774
20
131.5413198021
30
0.0000000000
10
270.8745127127
20
132.1499581912
30
0.0000000000
10
270.8886718063
20
132.8181688716
30
0.0000000000
10
270.9057641348
20
133.5442299029
30
0.0000000000
10
270.9255300084
20
134.3017458515
30
0.0000000000
10
270.9471934945
20
135.0566956133
30
0.0000000000
10
270.9701658424
20
135.7919271963
30
0.0000000000
10
270.9944475588
20
136.5112632717
30
0.0000000000
10
271.0202244824
20
137.2220388999
30
0.0000000000
10
271.0476187215
20
137.9281259252
30
0.0000000000
10
271.0670370738
20
138.3975552739
30
0.0000000000
10
271.0770393011
20
138.6319269514
30
0.0000000000
11
270.8149020939
21
126.2853835571
31
0.0000000000
11
270.8149314237
21
126.4127589873
31
0.0000000000
11
270.8150205453
21
126.5415107851
31
0.0000000000
11
270.8151689347
21
126.6700312047
31
0.0000000000
11
270.8153749871
21
126.7977313836
31
0.0000000000
11
270.8156403927
21
126.9259195241
31
0.0000000000
11
270.8159822706
21
127.0606085328
31
0.0000000000
11
270.8164314010
21
127.2083821613
31
0.0000000000
11
270.8170335381
21
127.3758069940
31
0.0000000000
11
270.8178347513
21
127.5654341638
31
0.0000000000
11
270.8188740964
21
127.7763549261
31
0.0000000000
11
270.8201957450
21
128.0081917707
31
0.0000000000
11
270.8218620523
21
128.2627365860
31
0.0000000000
11
270.8239522645
21
128.5425242609
31
0.0000000000
11
270.8265622897
21
128.8502249783
31
0.0000000000
11
270.8298099621
21
129.1888751120
31
0.0000000000
11
270.8338640729
21
129.5639941601
31
0.0000000000
11
270.8389513192
21
129.9825227077
31
0.0000000000
11
270.8453426958
21
130.4506171466
31
0.0000000000
11
270.8532516040
21
130.9671227892
31
0.0000000000
11
270.8628364295
21
131.5269901499
31
0.0000000000
11
270.8743315129
21
132.1298157145
31
0.0000000000
11
270.8883850265
21
132.7930281520
31
0.0000000000
11
270.9057732434
21
133.5316074108
31
0.0000000000
11
270.9260335432
21
134.3079821925
31
0.0000000000
11
270.9477757146
21
135.0655659712
31
0.0000000000
11
270.9706159514
21
135.7964534193
31
0.0000000000
11
270.9948304817
21
136.5136736458
31
0.0000000000
11
271.0205804139
21
137.2235687821
31
0.0000000000
11
271.0479461398
21
137.9287735272
31
0.0000000000
11
271.0770393011
21
138.6319269514
31
0.0000000000
0
SPLINE
5
588
100
AcDbEntity
8
0
100
AcDbSpline
62
7
6
CONTINUOUS
70
0
71
3
72
12
73
8
74
6
42
0.0000001000
43
0.0000001000
44
0.0000000001
40
0.0000000000
40
0.0000000000
40
0.0000000000
40
0.0000000000
40
0.2073218283
40
0.4103721166
40
0.6111326184
40
0.8093092971
40
1.0000000000
40
1.0000000000
40
1.0000000000
40
1.0000000000
10
316.0996119832
20
137.8837632691
30
0.0000000000
10
316.2617447390
20
137.9261391813
30
0.0000000000
10
316.6013010997
20
137.9519374559
30
0.0000000000
10
317.0846025807
20
137.8056613874
30
0.0000000000
10
317.4761220496
20
137.4974327205
30
0.0000000000
10
317.7227298038
20
137.0772122371
30
0.0000000000
10
317.7772343815
20
136.7600772744
30
0.0000000000
10
317.7771279474
20
136.6059412366
30
0.0000000000
11
316.0996119832
21
137.8837632691
31
0.0000000000
11
316.6010013998
21
137.9205517032
31
0.0000000000
11
317.0720732427
21
137.7772738952
31
0.0000000000
11
317.4543498146
21
137.4758360686
31
0.0000000000
11
317.6977757661
21
137.0614899130
31
0.0000000000
11
317.7771279474
21
136.6059412366
31
0.0000000000
0
SPLINE
5
589
100
AcDbEntity
8
0
100
AcDbSpline
62
7
6
CONTINUOUS
70
0
71
3
72
11
73
7
74
5
42
0.0000001000
43
0.0000001000
44
0.0000000001
40
0.0000000000
40
0.0000000000
40
0.0000000000
40
0.0000000000
40
0.2639201208
40
0.5198780898
40
0.7657018749
40
1.0000000000
40
1.0000000000
40
1.0000000000
40
1.0000000000
10
317.5651434846
20
115.5925081150
30
0.0000000000
10
317.7564822425
20
116.1023874085
30
0.0000000000
10
318.1230735716
20
117.1106547989
30
0.0000000000
10
318.6379805990
20
118.6044823481
30
0.0000000000
10
319.1127826548
20
120.0473074348
30
0.0000000000
10
319.4111979471
20
120.9920511837
30
0.0000000000
10
319.5543587247
20
121.4538429255
30
0.0000000000
11
317.5651434846
21
115.5925081150
31
0.0000000000
11
318.1243089627
21
117.1276370009
31
0.0000000000
11
318.6412150745
21
118.6254573985
31
0.0000000000
11
319.1172593129
21
120.0708520745
31
0.0000000000
11
319.5543587247
21
121.4538429255
31
0.0000000000
0
SPLINE
5
58A
100
AcDbEntity
8
0
100
AcDbSpline
62
7
6
CONTINUOUS
70
0
71
3
72
12
73
8
74
6
42
0.0000001000
43
0.0000001000
44
0.0000000001
40
0.0000000000
40
0.0000000000
40
0.0000000000
40
0.0000000000
40
0.1704084437
40
0.3534982595
40
0.5535355653
40
0.7706195196
40
1.0000000000
40
1.0000000000
40
1.0000000000
40
1.0000000000
10
317.7771279474
20
116.9626407305
30
0.0000000000
10
317.7772336120
20
116.8374288606
30
0.0000000000
10
317.7208788560
20
116.5739003505
30
0.0000000000
10
317.4633358736
20
116.2429684813
30
0.0000000000
10
317.0683412626
20
116.0245398051
30
0.0000000000
10
316.5924312477
20
115.9446324094
30
0.0000000000
10
316.2617374084
20
115.9889528896
30
0.0000000000
10
316.0996119832
20
116.0350194342
30
0.0000000000
11
317.7771279474
21
116.9626407305
31
0.0000000000
11
317.6977757661
21
116.5954821227
31
0.0000000000
11
317.4543498146
21
116.2735684887
31
0.0000000000
11
317.0720732427
21
116.0537976027
31
0.0000000000
11
316.6010013998
21
115.9696766982
31
0.0000000000
11
316.0996119832
21
116.0350194342
31
0.0000000000
0
SPLINE
5
58B
100
AcDbEntity
8
0
100
AcDbSpline
62
7
6
CONTINUOUS
70
0
71
3
72
10
73
6
74
4
42
0.0000001000
43
0.0000001000
44
0.0000000001
40
0.0000000000
40
0.0000000000
40
0.0000000000
40
0.0000000000
40
0.3065940424
40
0.6395793683
40
1.0000000000
40
1.0000000000
40
1.0000000000
40
1.0000000000
10
319.9285484758
20
123.8723093239
30
0.0000000000
10
319.9262689097
20
123.6214277263
30
0.0000000000
10
319.8988108177
20
123.0979737353
30
0.0000000000
10
319.7806271883
20
122.2870644636
30
0.0000000000
10
319.6416928638
20
121.7355554508
30
0.0000000000
10
319.5543587247
20
121.4538429255
30
0.0000000000
11
319.9285484758
21
123.8723093239
31
0.0000000000
11
319.8888839179
21
123.1206793122
31
0.0000000000
11
319.7707283536
21
122.3117980365
31
0.0000000000
11
319.5543587247
21
121.4538429255
31
0.0000000000
0
SPLINE
5
58C
100
AcDbEntity
8
0
100
AcDbSpline
62
7
6
CONTINUOUS
70
0
71
3
72
13
73
9
74
7
42
0.0000001000
43
0.0000001000
44
0.0000000001
40
0.0000000000
40
0.0000000000
40
0.0000000000
40
0.0000000000
40
0.0485939593
40
0.2075427169
40
0.3875827911
40
0.5839942600
40
0.7913312479
40
1.0000000000
40
1.0000000000
40
1.0000000000
40
1.0000000000
10
278.1916153167
20
131.9260583846
30
0.0000000000
10
278.2305197959
20
131.9208516160
30
0.0000000000
10
278.3977216200
20
131.9062999327
30
0.0000000000
10
278.7127993457
20
131.9420398083
30
0.0000000000
10
279.1105503269
20
132.1298664841
30
0.0000000000
10
279.4466352931
20
132.4733612762
30
0.0000000000
10
279.6495663068
20
132.9341907156
30
0.0000000000
10
279.6708882013
20
133.2764925072
30
0.0000000000
10
279.6526161728
20
133.4435371893
30
0.0000000000
11
278.1916153167
21
131.9260583846
31
0.0000000000
11
278.3089000209
21
131.9158842788
31
0.0000000000
11
278.6904345530
21
131.9593685262
31
0.0000000000
11
279.0839905216
21
132.1445794698
31
0.0000000000
11
279.4169996595
21
132.4826110709
31
0.0000000000
11
279.6201797142
21
132.9404586549
31
0.0000000000
11
279.6526161728
21
133.4435371893
31
0.0000000000
0
SPLINE
5
58D
100
AcDbEntity
8
0
100
AcDbSpline
62
7
6
CONTINUOUS
70
0
71
3
72
15
73
11
74
9
42
0.0000001000
43
0.0000001000
44
0.0000000001
40
0.0000000000
40
0.0000000000
40
0.0000000000
40
0.0000000000
40
0.1234396311
40
0.2472898899
40
0.3716279484
40
0.4964879734
40
0.6218389183
40
0.7476199345
40
0.8737190161
40
1.0000000000
40
1.0000000000
40
1.0000000000
40
1.0000000000
10
313.3219808206
20
98.4997245993
30
0.0000000000
10
313.2936522797
20
98.3967107333
30
0.0000000000
10
313.2193181223
20
98.1947310769
30
0.0000000000
10
313.0587532219
20
97.9143896510
30
0.0000000000
10
312.8533155466
20
97.6633791140
30
0.0000000000
10
312.6086841743
20
97.4484835318
30
0.0000000000
10
312.3314989103
20
97.2753004683
30
0.0000000000
10
312.0291704175
20
97.1483230274
30
0.0000000000
10
311.7098232106
20
97.0708071230
30
0.0000000000
10
311.4909894320
20
97.0534362451
30
0.0000000000
10
311.3816921963
20
97.0534362451
30
0.0000000000
11
313.3219808206
21
98.4997245993
31
0.0000000000
11
313.2113411573
21
98.1989121491
31
0.0000000000
11
313.0516315183
21
97.9197944305
31
0.0000000000
11
312.8472479917
21
97.6698795156
31
0.0000000000
11
312.6037663202
21
97.4558147796
31
0.0000000000
11
312.3277971732
21
97.2832569577
31
0.0000000000
11
312.0267223890
21
97.1566974564
31
0.0000000000
11
311.7085525348
21
97.0794226021
31
0.0000000000
11
311.3816921963
21
97.0534362451
31
0.0000000000
0
SPLINE
5
58E
100
AcDbEntity
8
0
100
AcDbSpline
62
7
6
CONTINUOUS
70
0
71
3
72
12
73
8
74
6
42
0.0000001000
43
0.0000001000
44
0.0000000001
40
0.0000000000
40
0.0000000000
40
0.0000000000
40
0.0000000000
40
0.0209449308
40
0.2566748307
40
0.4987801661
40
0.7485168401
40
1.0000000000
40
1.0000000000
40
1.0000000000
40
1.0000000000
10
316.1747384316
20
135.2211905462
30
0.0000000000
10
316.1604610490
20
135.2232733530
30
0.0000000000
10
315.9859007794
20
135.2516131434
30
0.0000000000
10
315.6584516541
20
135.3739312084
30
0.0000000000
10
315.2788988921
20
135.7162543231
30
0.0000000000
10
315.0529960587
20
136.1872213095
30
0.0000000000
10
315.0336114518
20
136.5403095730
30
0.0000000000
10
315.0566525055
20
136.7111094475
30
0.0000000000
11
316.1747384316
21
135.2211905462
31
0.0000000000
11
316.1320127602
21
135.2281288953
31
0.0000000000
11
315.6783167609
21
135.3985644823
31
0.0000000000
11
315.3088315933
21
135.7321004202
31
0.0000000000
11
315.0865307103
21
136.1949324639
31
0.0000000000
11
315.0566525055
21
136.7111094475
31
0.0000000000
0
SPLINE
5
58F
100
AcDbEntity
8
0
100
AcDbSpline
62
7
6
CONTINUOUS
70
0
71
3
72
21
73
17
74
15
42
0.0000001000
43
0.0000001000
44
0.0000000001
40
0.0000000000
40
0.0000000000
40
0.0000000000
40
0.0000000000
40
0.0075067721
40
0.0566625247
40
0.1051829533
40
0.1537443755
40
0.2045536690
40
0.2593242828
40
0.3198433879
40
0.3890997469
40
0.4671062576
40
0.5548486497
40
0.6536068548
40
0.7632124531
40
0.8805773306
40
1.0000000000
40
1.0000000000
40
1.0000000000
40
1.0000000000
10
272.9885953684
20
129.4642115124
30
0.0000000000
10
272.9899321896
20
129.4538190754
30
0.0000000000
10
273.0009145436
20
129.3754911130
30
0.0000000000
10
273.0337883415
20
129.2320542024
30
0.0000000000
10
273.1086277792
20
129.0416032872
30
0.0000000000
10
273.2121307593
20
128.8624083443
30
0.0000000000
10
273.3474098868
20
128.6943046724
30
0.0000000000
10
273.5209779944
20
128.5393379217
30
0.0000000000
10
273.7417747126
20
128.4043312750
30
0.0000000000
10
274.0164096296
20
128.3053290114
30
0.0000000000
10
274.3449921928
20
128.2668337357
30
0.0000000000
10
274.7146024730
20
128.3186821021
30
0.0000000000
10
275.0965417083
20
128.4909421567
30
0.0000000000
10
275.4388125510
20
128.8018510002
30
0.0000000000
10
275.6730107034
20
129.2350459855
30
0.0000000000
10
275.7204397033
20
129.5702541873
30
0.0000000000
10
275.7138611959
20
129.7366081695
30
0.0000000000
11
272.9885953684
21
129.4642115124
31
0.0000000000
11
272.9929601884
21
129.4330835314
31
0.0000000000
11
273.0389153263
21
129.2327054988
31
0.0000000000
11
273.1131680543
21
129.0438554446
31
0.0000000000
11
273.2147763366
21
128.8680055742
31
0.0000000000
11
273.3480249539
21
128.7024784471
31
0.0000000000
11
273.5189120666
21
128.5499419903
31
0.0000000000
11
273.7348578442
21
128.4179222982
31
0.0000000000
11
274.0073340725
21
128.3196819334
31
0.0000000000
11
274.3313488093
21
128.2816385115
31
0.0000000000
11
274.6947726133
21
128.3324457821
31
0.0000000000
11
275.0713586480
21
128.5020795929
31
0.0000000000
11
275.4108276652
21
128.8101163256
31
0.0000000000
11
275.6439407810
21
129.2420745985
31
0.0000000000
11
275.7138611959
21
129.7366081695
31
0.0000000000
0
SPLINE
5
590
100
AcDbEntity
8
0
100
AcDbSpline
62
7
6
CONTINUOUS
70
0
71
3
72
17
73
13
74
11
42
0.0000001000
43
0.0000001000
44
0.0000000001
40
0.0000000000
40
0.0000000000
40
0.0000000000
40
0.0000000000
40
0.1006568708
40
0.2025691401
40
0.3034258732
40
0.4043126493
40
0.5055722558
40
0.6068024403
40
0.7076597433
40
0.8074838231
40
0.9052514339
40
1.0000000000
40
1.0000000000
40
1.0000000000
40
1.0000000000
10
270.8149020939
20
126.2853835571
30
0.0000000000
10
270.8149020939
20
126.2044183023
30
0.0000000000
10
270.8149737224
20
126.0414779801
30
0.0000000000
10
270.8152984388
20
125.7974118337
30
0.0000000000
10
270.8158428134
20
125.5531611476
30
0.0000000000
10
270.8166055150
20
125.3094360300
30
0.0000000000
10
270.8175911189
20
125.0654113157
30
0.0000000000
10
270.8188008004
20
124.8214113163
30
0.0000000000
10
270.8202293620
20
124.5785672131
30
0.0000000000
10
270.8218640106
20
124.3385096599
30
0.0000000000
10
270.8236817525
20
124.1033672485
30
0.0000000000
10
270.8250190521
20
123.9485189763
30
0.0000000000
10
270.8257115100
20
123.8723093239
30
0.0000000000
11
270.8149020939
21
126.2853835571
31
0.0000000000
11
270.8150091187
21
126.0424878163
31
0.0000000000
11
270.8153365794
21
125.7965628594
31
0.0000000000
11
270.8158792847
21
125.5531854111
31
0.0000000000
11
270.8166414148
21
125.3097360536
31
0.0000000000
11
270.8176286353
21
125.0653878181
31
0.0000000000
11
270.8188400115
21
124.8211115901
31
0.0000000000
11
270.8202720351
21
124.5777363744
31
0.0000000000
11
270.8219126314
21
124.3368558105
31
0.0000000000
11
270.8237366964
21
124.1009391901
31
0.0000000000
11
270.8257115100
21
123.8723093239
31
0.0000000000
0
SPLINE
5
591
100
AcDbEntity
8
0
100
AcDbSpline
62
7
6
CONTINUOUS
70
0
71
3
72
13
73
9
74
7
42
0.0000001000
43
0.0000001000
44
0.0000000001
40
0.0000000000
40
0.0000000000
40
0.0000000000
40
0.0000000000
40
0.0485939593
40
0.2075427169
40
0.3875827911
40
0.5839942600
40
0.7913312479
40
1.0000000000
40
1.0000000000
40
1.0000000000
40
1.0000000000
10
312.5626446691
20
131.9260583846
30
0.0000000000
10
312.5237401899
20
131.9208516160
30
0.0000000000
10
312.3565383658
20
131.9062999327
30
0.0000000000
10
312.0414606401
20
131.9420398083
30
0.0000000000
10
311.6437096589
20
132.1298664841
30
0.0000000000
10
311.3076246927
20
132.4733612762
30
0.0000000000
10
311.1046936791
20
132.9341907156
30
0.0000000000
10
311.0833717845
20
133.2764925072
30
0.0000000000
10
311.1016438131
20
133.4435371893
30
0.0000000000
11
312.5626446691
21
131.9260583846
31
0.0000000000
11
312.4453599650
21
131.9158842788
31
0.0000000000
11
312.0638254328
21
131.9593685262
31
0.0000000000
11
311.6702694642
21
132.1445794698
31
0.0000000000
11
311.3372603263
21
132.4826110709
31
0.0000000000
11
311.1340802716
21
132.9404586549
31
0.0000000000
11
311.1016438131
21
133.4435371893
31
0.0000000000
0
SPLINE
5
592
100
AcDbEntity
8
0
100
AcDbSpline
62
7
6
CONTINUOUS
70
0
71
3
72
13
73
9
74
7
42
0.0000001000
43
0.0000001000
44
0.0000000001
40
0.0000000000
40
0.0000000000
40
0.0000000000
40
0.0000000000
40
0.0919989900
40
0.2615072248
40
0.4427435006
40
0.6303512979
40
0.8172758373
40
1.0000000000
40
1.0000000000
40
1.0000000000
40
1.0000000000
10
277.8406898885
20
125.3153958733
30
0.0000000000
10
277.9184255386
20
125.2831755671
30
0.0000000000
10
278.1489912731
20
125.2145714206
30
0.0000000000
10
278.5608274343
20
125.2157181935
30
0.0000000000
10
279.0283802337
20
125.3937748501
30
0.0000000000
10
279.4183811137
20
125.7314118902
30
0.0000000000
10
279.6743675017
20
126.1797365889
30
0.0000000000
10
279.7353982876
20
126.5185506367
30
0.0000000000
10
279.7353982876
20
126.6847878810
30
0.0000000000
11
277.8406898885
21
125.3153958733
31
0.0000000000
11
278.0822229970
21
125.2434799382
31
0.0000000000
11
278.5448634099
21
125.2425702062
31
0.0000000000
11
279.0079965514
21
125.4163146407
31
0.0000000000
11
279.3960844697
21
125.7503407697
31
0.0000000000
11
279.6484819065
21
126.1937085235
31
0.0000000000
11
279.7353982876
21
126.6847878810
31
0.0000000000
0
SPLINE
5
593
100
AcDbEntity
8
0
100
AcDbSpline
62
7
6
CONTINUOUS
70
0
71
3
72
15
73
11
74
9
42
0.0000001000
43
0.0000001000
44
0.0000000001
40
0.0000000000
40
0.0000000000
40
0.0000000000
40
0.0000000000
40
0.2055674463
40
0.3976690555
40
0.5702317648
40
0.7173055984
40
0.8383441860
40
0.9311823884
40
0.9880629482
40
1.0000000000
40
1.0000000000
40
1.0000000000
40
1.0000000000
10
269.8521980118
20
171.0670247329
30
0.0000000000
10
269.8521980118
20
170.7449932155
30
0.0000000000
10
269.8566522834
20
170.1218252869
30
0.0000000000
10
269.8786279625
20
169.2295077413
30
0.0000000000
10
269.9121873324
20
168.4261694699
30
0.0000000000
10
269.9644487296
20
167.7444025781
30
0.0000000000
10
270.0105534096
20
167.1623902330
30
0.0000000000
10
270.1106580992
20
166.7911613619
30
0.0000000000
10
270.1264924861
20
166.4634748841
30
0.0000000000
10
270.2385227933
20
166.4435295833
30
0.0000000000
10
270.2582049314
20
166.4433834511
30
0.0000000000
11
269.8521980118
21
171.0670247329
31
0.0000000000
11
269.8597080788
21
170.1009593713
31
0.0000000000
11
269.8821174336
21
169.1984276702
31
0.0000000000
11
269.9187978171
21
168.3882736926
31
0.0000000000
11
269.9682735314
21
167.6988515140
31
0.0000000000
11
270.0307315308
21
167.1334521227
31
0.0000000000
11
270.1083072935
21
166.7040971947
31
0.0000000000
11
270.2028253690
21
166.4540460812
31
0.0000000000
11
270.2582049314
21
166.4433834511
31
0.0000000000
0
SPLINE
5
594
100
AcDbEntity
8
0
100
AcDbSpline
62
7
6
CONTINUOUS
70
0
71
3
72
21
73
17
74
15
42
0.0000001000
43
0.0000001000
44
0.0000000001
40
0.0000000000
40
0.0000000000
40
0.0000000000
40
0.0000000000
40
0.0075067721
40
0.0566625247
40
0.1051829533
40
0.1537443755
40
0.2045536690
40
0.2593242828
40
0.3198433879
40
0.3890997469
40
0.4671062576
40
0.5548486497
40
0.6536068548
40
0.7632124531
40
0.8805773306
40
1.0000000000
40
1.0000000000
40
1.0000000000
40
1.0000000000
10
317.7656646175
20
129.4642115124
30
0.0000000000
10
317.7643277962
20
129.4538190754
30
0.0000000000
10
317.7533454422
20
129.3754911130
30
0.0000000000
10
317.7204716443
20
129.2320542024
30
0.0000000000
10
317.6456322066
20
129.0416032872
30
0.0000000000
10
317.5421292265
20
128.8624083443
30
0.0000000000
10
317.4068500990
20
128.6943046724
30
0.0000000000
10
317.2332819914
20
128.5393379217
30
0.0000000000
10
317.0124852732
20
128.4043312750
30
0.0000000000
10
316.7378503562
20
128.3053290114
30
0.0000000000
10
316.4092677931
20
128.2668337357
30
0.0000000000
10
316.0396575128
20
128.3186821021
30
0.0000000000
10
315.6577182775
20
128.4909421567
30
0.0000000000
10
315.3154474348
20
128.8018510002
30
0.0000000000
10
315.0812492824
20
129.2350459855
30
0.0000000000
10
315.0338202825
20
129.5702541873
30
0.0000000000
10
315.0403987899
20
129.7366081695
30
0.0000000000
11
317.7656646175
21
129.4642115124
31
0.0000000000
11
317.7612997974
21
129.4330835314
31
0.0000000000
11
317.7153446595
21
129.2327054988
31
0.0000000000
11
317.6410919316
21
129.0438554446
31
0.0000000000
11
317.5394836492
21
128.8680055742
31
0.0000000000
11
317.4062350320
21
128.7024784471
31
0.0000000000
11
317.2353479192
21
128.5499419903
31
0.0000000000
11
317.0194021416
21
128.4179222982
31
0.0000000000
11
316.7469259133
21
128.3196819334
31
0.0000000000
11
316.4229111765
21
128.2816385115
31
0.0000000000
11
316.0594873725
21
128.3324457821
31
0.0000000000
11
315.6829013378
21
128.5020795929
31
0.0000000000
11
315.3434323206
21
128.8101163256
31
0.0000000000
11
315.1103192049
21
129.2420745985
31
0.0000000000
11
315.0403987899
21
129.7366081695
31
0.0000000000
0
SPLINE
5
595
100
AcDbEntity
8
0
100
AcDbSpline
62
7
6
CONTINUOUS
70
0
71
3
72
17
73
13
74
11
42
0.0000001000
43
0.0000001000
44
0.0000000001
40
0.0000000000
40
0.0000000000
40
0.0000000000
40
0.0000000000
40
0.0076683297
40
0.0532783412
40
0.1332186682
40
0.2332588446
40
0.3453988638
40
0.4652058235
40
0.5926104997
40
0.7273364999
40
0.8645649501
40
1.0000000000
40
1.0000000000
40
1.0000000000
40
1.0000000000
10
270.4960550544
20
178.3900786669
30
0.0000000000
10
270.4760967634
20
178.3902268495
30
0.0000000000
10
270.3356476429
20
178.3675837127
30
0.0000000000
10
270.3208132333
20
177.9353950925
30
0.0000000000
10
270.1754992588
20
177.4551788180
30
0.0000000000
10
270.1056416740
20
176.7108860660
30
0.0000000000
10
270.0246561260
20
175.9020939347
30
0.0000000000
10
269.9648749622
20
175.0129254233
30
0.0000000000
10
269.9153840598
20
174.0704699338
30
0.0000000000
10
269.8795373168
20
173.0833235289
30
0.0000000000
10
269.8573488726
20
172.0761995663
30
0.0000000000
10
269.8521980118
20
171.4019303966
30
0.0000000000
10
269.8521980118
20
171.0670247329
30
0.0000000000
11
270.4960550544
21
178.3900786669
31
0.0000000000
11
270.4384537999
21
178.3805972568
31
0.0000000000
11
270.3158080318
21
178.0652525917
31
0.0000000000
11
270.2028269910
21
177.4830816608
31
0.0000000000
11
270.1083087167
21
176.7469829374
31
0.0000000000
11
270.0307327250
21
175.9187036896
31
0.0000000000
11
269.9682744365
21
175.0321200876
31
0.0000000000
11
269.9187983899
21
174.0882718195
31
0.0000000000
11
269.8821176865
21
173.0894882018
31
0.0000000000
11
269.8597081343
21
172.0717136550
31
0.0000000000
11
269.8521980118
21
171.0670247329
31
0.0000000000
0
SPLINE
5
596
100
AcDbEntity
8
0
100
AcDbSpline
62
7
6
CONTINUOUS
70
0
71
3
72
10
73
6
74
4
42
0.0000001000
43
0.0000001000
44
0.0000000001
40
0.0000000000
40
0.0000000000
40
0.0000000000
40
0.0000000000
40
0.3492140457
40
0.6830800081
40
1.0000000000
40
1.0000000000
40
1.0000000000
40
1.0000000000
10
272.1390884098
20
183.8587951917
30
0.0000000000
10
272.1269417240
20
184.2968650659
30
0.0000000000
10
272.0999266370
20
185.1536662210
30
0.0000000000
10
272.0498162635
20
186.4076070694
30
0.0000000000
10
272.0096383425
20
187.2233231863
30
0.0000000000
10
271.9879506802
20
187.6204429715
30
0.0000000000
11
272.1390884098
21
183.8587951917
31
0.0000000000
11
272.0974341003
21
185.1728498818
31
0.0000000000
11
272.0469755967
21
186.4287692049
31
0.0000000000
11
271.9879506802
21
187.6204429715
31
0.0000000000
0
SPLINE
5
597
100
AcDbEntity
8
0
100
AcDbSpline
62
7
6
CONTINUOUS
70
0
71
3
72
15
73
11
74
9
42
0.0000001000
43
0.0000001000
44
0.0000000001
40
0.0000000000
40
0.0000000000
40
0.0000000000
40
0.0000000000
40
0.1261537555
40
0.2538343478
40
0.3821064538
40
0.5100322019
40
0.6366803726
40
0.7611447623
40
0.8825383666
40
1.0000000000
40
1.0000000000
40
1.0000000000
40
1.0000000000
10
271.0770393011
20
145.9596076150
30
0.0000000000
10
271.0770393011
20
147.3593442583
30
0.0000000000
10
271.0879142102
20
150.1757691554
30
0.0000000000
10
271.1356879447
20
154.4151909400
30
0.0000000000
10
271.2146933822
20
158.6738122659
30
0.0000000000
10
271.3243211215
20
162.9202959016
30
0.0000000000
10
271.4637334720
20
167.1236355831
30
0.0000000000
10
271.6318776912
20
171.2533905768
30
0.0000000000
10
271.8275021520
20
175.2798882953
30
0.0000000000
10
271.9781014003
20
177.9258591019
30
0.0000000000
10
272.0580970687
20
179.2266950966
30
0.0000000000
11
271.0770393011
21
145.9596076150
31
0.0000000000
11
271.0930015719
21
150.1587872064
31
0.0000000000
11
271.1407591659
21
154.4085517676
31
0.0000000000
11
271.2199372277
21
158.6775398473
31
0.0000000000
11
271.3299232628
21
162.9343124420
31
0.0000000000
11
271.4698753945
21
167.1476559842
31
0.0000000000
11
271.6387487678
21
171.2871897462
31
0.0000000000
11
271.8352994939
21
175.3231680287
31
0.0000000000
11
272.0580970687
21
179.2266950966
31
0.0000000000
0
SPLINE
5
598
100
AcDbEntity
8
0
100
AcDbSpline
62
7
6
CONTINUOUS
70
0
71
3
72
13
73
9
74
7
42
0.0000001000
43
0.0000001000
44
0.0000000001
40
0.0000000000
40
0.0000000000
40
0.0000000000
40
0.0000000000
40
0.0919989900
40
0.2615072248
40
0.4427435006
40
0.6303512979
40
0.8172758373
40
1.0000000000
40
1.0000000000
40
1.0000000000
40
1.0000000000
10
312.9135700974
20
125.3153958733
30
0.0000000000
10
312.8358344472
20
125.2831755671
30
0.0000000000
10
312.6052687127
20
125.2145714206
30
0.0000000000
10
312.1934325516
20
125.2157181935
30
0.0000000000
10
311.7258797521
20
125.3937748501
30
0.0000000000
10
311.3358788721
20
125.7314118902
30
0.0000000000
10
311.0798924841
20
126.1797365889
30
0.0000000000
10
311.0188616982
20
126.5185506367
30
0.0000000000
10
311.0188616982
20
126.6847878810
30
0.0000000000
11
312.9135700974
21
125.3153958733
31
0.0000000000
11
312.6720369888
21
125.2434799382
31
0.0000000000
11
312.2093965759
21
125.2425702062
31
0.0000000000
11
311.7462634344
21
125.4163146407
31
0.0000000000
11
311.3581755162
21
125.7503407697
31
0.0000000000
11
311.1057780793
21
126.1937085235
31
0.0000000000
11
311.0188616982
21
126.6847878810
31
0.0000000000
0
SPLINE
5
599
100
AcDbEntity
8
0
100
AcDbSpline
62
7
6
CONTINUOUS
70
0
71
3
72
14
73
10
74
8
42
0.0000001000
43
0.0000001000
44
0.0000000001
40
0.0000000000
40
0.0000000000
40
0.0000000000
40
0.0000000000
40
0.0944030602
40
0.2258859214
40
0.3709635134
40
0.5280957791
40
0.6879208728
40
0.8486867548
40
1.0000000000
40
1.0000000000
40
1.0000000000
40
1.0000000000
10
313.6490396586
20
119.6334560703
30
0.0000000000
10
313.6036845502
20
119.5352198743
30
0.0000000000
10
313.4561435032
20
119.3181416419
30
0.0000000000
10
313.0890158999
20
119.0833785704
30
0.0000000000
10
312.5886193828
20
119.0093281247
30
0.0000000000
10
312.0657264256
20
119.1258924333
30
0.0000000000
10
311.5944025132
20
119.4139988942
30
0.0000000000
10
311.2434670938
20
119.8325092760
30
0.0000000000
10
311.1225931211
20
120.1773111602
30
0.0000000000
10
311.1016438131
20
120.3480035186
30
0.0000000000
11
313.6490396586
21
119.6334560703
31
0.0000000000
11
313.4670870109
21
119.3667226778
31
0.0000000000
11
313.0922094020
21
119.1208679104
31
0.0000000000
11
312.6040663711
21
119.0408483617
31
0.0000000000
11
312.0800780357
21
119.1525397437
31
0.0000000000
11
311.6146881904
21
119.4360419290
31
0.0000000000
11
311.2659487982
21
119.8589466053
31
0.0000000000
11
311.1016438131
21
120.3480035186
31
0.0000000000
0
SPLINE
5
59A
100
AcDbEntity
8
0
100
AcDbSpline
62
7
6
CONTINUOUS
70
0
71
3
72
22
73
18
74
16
42
0.0000001000
43
0.0000001000
44
0.0000000001
40
0.0000000000
40
0.0000000000
40
0.0000000000
40
0.0000000000
40
0.1161798888
40
0.2219920979
40
0.3186613420
40
0.4073379175
40
0.4891724920
40
0.5651668729
40
0.6356518696
40
0.7008791907
40
0.7611917762
40
0.8165762790
40
0.8668650253
40
0.9114491610
40
0.9504912091
40
0.9807766537
40
1.0000000000
40
1.0000000000
40
1.0000000000
40
1.0000000000
10
307.6792030767
20
68.5090725615
30
0.0000000000
10
307.9142630773
20
69.3878262190
30
0.0000000000
10
308.3651886200
20
71.0664388334
30
0.0000000000
10
309.0161708588
20
73.4750271872
30
0.0000000000
10
309.6127533986
20
75.6752490877
30
0.0000000000
10
310.1602913854
20
77.6942536197
30
0.0000000000
10
310.6639666914
20
79.5574290333
30
0.0000000000
10
311.1274201410
20
81.2839292789
30
0.0000000000
10
311.5524834431
20
82.8860971382
30
0.0000000000
10
311.9396214986
20
84.3712839680
30
0.0000000000
10
312.2885029934
20
85.7442397872
30
0.0000000000
10
312.5977516249
20
87.0065417879
30
0.0000000000
10
312.8639570664
20
88.1525421908
30
0.0000000000
10
313.0835944895
20
89.1778318810
30
0.0000000000
10
313.2480375087
20
90.0546662842
30
0.0000000000
10
313.3474289872
20
90.7409360168
30
0.0000000000
10
313.3771299929
20
91.1282352752
30
0.0000000000
10
313.3771299929
20
91.2787475262
30
0.0000000000
11
307.6792030767
21
68.5090725615
31
0.0000000000
11
308.3869532912
21
71.1446446784
31
0.0000000000
11
309.0351878678
21
73.5440420199
31
0.0000000000
11
309.6291465226
21
75.7356436651
31
0.0000000000
11
310.1740334612
21
77.7460323648
31
0.0000000000
11
310.6753325872
21
79.6017242532
31
0.0000000000
11
311.1377322106
21
81.3258239695
31
0.0000000000
11
311.5618371971
21
82.9262033792
31
0.0000000000
11
311.9477479911
21
84.4089285837
31
0.0000000000
11
312.2959552294
21
85.7821498723
31
0.0000000000
11
312.6045912679
21
87.0459340996
31
0.0000000000
11
312.8705574408
21
88.1968334168
31
0.0000000000
11
313.0880129353
21
89.2212434248
31
0.0000000000
11
313.2536168979
21
90.1232247639
31
0.0000000000
11
313.3501652490
21
90.8280166290
31
0.0000000000
11
313.3771299929
21
91.2787475262
31
0.0000000000
0
SPLINE
5
59B
100
AcDbEntity
8
0
100
AcDbSpline
62
7
6
CONTINUOUS
70
0
71
3
72
9
73
5
74
3
42
0.0000001000
43
0.0000001000
44
0.0000000001
40
0.0000000000
40
0.0000000000
40
0.0000000000
40
0.0000000000
40
0.4965493041
40
1.0000000000
40
1.0000000000
40
1.0000000000
40
1.0000000000
10
282.8770525997
20
105.7399743263
30
0.0000000000
10
282.7368125401
20
105.5420242743
30
0.0000000000
10
282.4619801439
20
105.1379536355
30
0.0000000000
10
282.2008103701
20
104.7249563763
30
0.0000000000
10
282.0725295121
20
104.5150925954
30
0.0000000000
11
282.8770525997
21
105.7399743263
31
0.0000000000
11
282.4672455427
21
105.1385413269
31
0.0000000000
11
282.0725295121
21
104.5150925954
31
0.0000000000
0
SPLINE
5
59C
100
AcDbEntity
8
0
100
AcDbSpline
62
7
6
CONTINUOUS
70
0
71
3
72
9
73
5
74
3
42
0.0000001000
43
0.0000001000
44
0.0000000001
40
0.0000000000
40
0.0000000000
40
0.0000000000
40
0.0000000000
40
0.6167387677
40
1.0000000000
40
1.0000000000
40
1.0000000000
40
1.0000000000
10
282.8770525997
20
105.7399743263
30
0.0000000000
10
282.9548238308
20
105.8087109564
30
0.0000000000
10
283.0878779318
20
105.9111554829
30
0.0000000000
10
283.2424309290
20
105.9884583010
30
0.0000000000
10
283.3074995083
20
105.9962343398
30
0.0000000000
11
282.8770525997
21
105.7399743263
31
0.0000000000
11
283.1271205398
21
105.9255109096
31
0.0000000000
11
283.3074995083
21
105.9962343398
31
0.0000000000
0
SPLINE
5
59D
100
AcDbEntity
8
0
100
AcDbSpline
62
7
6
CONTINUOUS
70
0
71
3
72
16
73
12
74
10
42
0.0000001000
43
0.0000001000
44
0.0000000001
40
0.0000000000
40
0.0000000000
40
0.0000000000
40
0.0000000000
40
0.1490986542
40
0.2906102695
40
0.4239730164
40
0.5482596031
40
0.6616139566
40
0.7643950686
40
0.8553608280
40
0.9345667920
40
1.0000000000
40
1.0000000000
40
1.0000000000
40
1.0000000000
10
280.5747426671
20
101.8316444026
30
0.0000000000
10
280.3645096748
20
101.4542370017
30
0.0000000000
10
279.9626157681
20
100.7141995081
30
0.0000000000
10
279.4017206260
20
99.6211344998
30
0.0000000000
10
278.9002464198
20
98.5787812696
30
0.0000000000
10
278.4625679477
20
97.5967472785
30
0.0000000000
10
278.0919739302
20
96.6823860009
30
0.0000000000
10
277.7923750827
20
95.8442098795
30
0.0000000000
10
277.5665493578
20
95.0856167276
30
0.0000000000
10
277.4208796324
20
94.4181175725
30
0.0000000000
10
277.3771299929
20
93.9993177455
30
0.0000000000
10
277.3771299929
20
93.8097256743
30
0.0000000000
11
280.5747426671
21
101.8316444026
31
0.0000000000
11
279.9567116821
21
100.6924578431
31
0.0000000000
11
279.3957942511
21
99.5977058227
31
0.0000000000
11
278.8941320027
21
98.5526223262
31
0.0000000000
11
278.4555916536
21
97.5652750745
31
0.0000000000
11
278.0871850073
21
96.6514094049
31
0.0000000000
11
277.7889303798
21
95.8092415981
31
0.0000000000
11
277.5669859032
21
95.0503119103
31
0.0000000000
11
277.4260619671
21
94.3763931632
31
0.0000000000
11
277.3771299929
21
93.8097256743
31
0.0000000000
0
SPLINE
5
59E
100
AcDbEntity
8
0
100
AcDbSpline
62
7
6
CONTINUOUS
70
0
71
3
72
22
73
18
74
16
42
0.0000001000
43
0.0000001000
44
0.0000000001
40
0.0000000000
40
0.0000000000
40
0.0000000000
40
0.0000000000
40
0.1161798888
40
0.2219920979
40
0.3186613420
40
0.4073379175
40
0.4891724920
40
0.5651668729
40
0.6356518696
40
0.7008791907
40
0.7611917762
40
0.8165762790
40
0.8668650253
40
0.9114491610
40
0.9504912091
40
0.9807766537
40
1.0000000000
40
1.0000000000
40
1.0000000000
40
1.0000000000
10
283.0750569091
20
68.5090725615
30
0.0000000000
10
282.8399969085
20
69.3878262190
30
0.0000000000
10
282.3890713658
20
71.0664388334
30
0.0000000000
10
281.7380891270
20
73.4750271872
30
0.0000000000
10
281.1415065872
20
75.6752490877
30
0.0000000000
10
280.5939686004
20
77.6942536197
30
0.0000000000
10
280.0902932944
20
79.5574290333
30
0.0000000000
10
279.6268398448
20
81.2839292789
30
0.0000000000
10
279.2017765427
20
82.8860971382
30
0.0000000000
10
278.8146384872
20
84.3712839680
30
0.0000000000
10
278.4657569924
20
85.7442397872
30
0.0000000000
10
278.1565083609
20
87.0065417879
30
0.0000000000
10
277.8903029194
20
88.1525421908
30
0.0000000000
10
277.6706654963
20
89.1778318810
30
0.0000000000
10
277.5062224771
20
90.0546662842
30
0.0000000000
10
277.4068309986
20
90.7409360168
30
0.0000000000
10
277.3771299929
20
91.1282352752
30
0.0000000000
10
277.3771299929
20
91.2787475262
30
0.0000000000
11
283.0750569091
21
68.5090725615
31
0.0000000000
11
282.3673066946
21
71.1446446784
31
0.0000000000
11
281.7190721180
21
73.5440420199
31
0.0000000000
11
281.1251134632
21
75.7356436651
31
0.0000000000
11
280.5802265246
21
77.7460323648
31
0.0000000000
11
280.0789273986
21
79.6017242532
31
0.0000000000
11
279.6165277753
21
81.3258239695
31
0.0000000000
11
279.1924227887
21
82.9262033792
31
0.0000000000
11
278.8065119947
21
84.4089285837
31
0.0000000000
11
278.4583047565
21
85.7821498723
31
0.0000000000
11
278.1496687179
21
87.0459340996
31
0.0000000000
11
277.8837025450
21
88.1968334168
31
0.0000000000
11
277.6662470505
21
89.2212434248
31
0.0000000000
11
277.5006430879
21
90.1232247639
31
0.0000000000
11
277.4040947368
21
90.8280166290
31
0.0000000000
11
277.3771299929
21
91.2787475262
31
0.0000000000
0
SPLINE
5
59F
100
AcDbEntity
8
0
100
AcDbSpline
62
7
6
CONTINUOUS
70
0
71
3
72
10
73
6
74
4
42
0.0000001000
43
0.0000001000
44
0.0000000001
40
0.0000000000
40
0.0000000000
40
0.0000000000
40
0.0000000000
40
0.3560271909
40
0.6911554031
40
1.0000000000
40
1.0000000000
40
1.0000000000
40
1.0000000000
10
282.0725295121
20
104.5150925954
30
0.0000000000
10
281.8822686582
20
104.2038313299
30
0.0000000000
10
281.5204802322
20
103.5949059759
30
0.0000000000
10
281.0209337659
20
102.7001373832
30
0.0000000000
10
280.7160954533
20
102.1147801077
30
0.0000000000
10
280.5747426671
20
101.8316444026
30
0.0000000000
11
282.0725295121
21
104.5150925954
31
0.0000000000
11
281.5139252179
21
103.5739729676
31
0.0000000000
11
281.0123688935
21
102.6741414205
31
0.0000000000
11
280.5747426671
21
101.8316444026
31
0.0000000000
0
SPLINE
5
5A0
100
AcDbEntity
8
0
100
AcDbSpline
62
7
6
CONTINUOUS
70
0
71
3
72
11
73
7
74
5
42
0.0000001000
43
0.0000001000
44
0.0000000001
40
0.0000000000
40
0.0000000000
40
0.0000000000
40
0.0000000000
40
0.0272595391
40
0.2963588506
40
0.5858882001
40
1.0000000000
40
1.0000000000
40
1.0000000000
40
1.0000000000
10
283.3074995083
20
105.9962343398
30
0.0000000000
10
283.3123484132
20
105.9968138096
30
0.0000000000
10
283.3654167292
20
106.0017944363
30
0.0000000000
10
283.4781599399
20
105.9815310826
30
0.0000000000
10
283.5628724211
20
105.8142316988
30
0.0000000000
10
283.5702139432
20
105.6909474842
30
0.0000000000
10
283.5702139432
20
105.6179285984
30
0.0000000000
11
283.3074995083
21
105.9962343398
31
0.0000000000
11
283.3221445298
21
105.9976012025
31
0.0000000000
11
283.4605728203
21
105.9644263961
31
0.0000000000
11
283.5428910643
21
105.8352745884
31
0.0000000000
11
283.5702139432
21
105.6179285984
31
0.0000000000
0
SPLINE
5
5A1
100
AcDbEntity
8
0
100
AcDbSpline
62
7
6
CONTINUOUS
70
0
71
3
72
11
73
7
74
5
42
0.0000001000
43
0.0000001000
44
0.0000000001
40
0.0000000000
40
0.0000000000
40
0.0000000000
40
0.0000000000
40
0.0272595391
40
0.2963588506
40
0.5858882001
40
1.0000000000
40
1.0000000000
40
1.0000000000
40
1.0000000000
10
307.4467604775
20
105.9962343398
30
0.0000000000
10
307.4419115726
20
105.9968138096
30
0.0000000000
10
307.3888432567
20
106.0017944363
30
0.0000000000
10
307.2761000459
20
105.9815310826
30
0.0000000000
10
307.1913875647
20
105.8142316988
30
0.0000000000
10
307.1840460426
20
105.6909474842
30
0.0000000000
10
307.1840460426
20
105.6179285984
30
0.0000000000
11
307.4467604775
21
105.9962343398
31
0.0000000000
11
307.4321154560
21
105.9976012025
31
0.0000000000
11
307.2936871655
21
105.9644263961
31
0.0000000000
11
307.2113689215
21
105.8352745884
31
0.0000000000
11
307.1840460426
21
105.6179285984
31
0.0000000000
0
SPLINE
5
5A2
100
AcDbEntity
8
0
100
AcDbSpline
62
7
6
CONTINUOUS
70
0
71
3
72
15
73
11
74
9
42
0.0000001000
43
0.0000001000
44
0.0000000001
40
0.0000000000
40
0.0000000000
40
0.0000000000
40
0.0000000000
40
0.1405489412
40
0.2775775247
40
0.4106049580
40
0.5391873166
40
0.6628797656
40
0.7812214306
40
0.8937546724
40
1.0000000000
40
1.0000000000
40
1.0000000000
40
1.0000000000
10
285.7854062272
20
65.9919986942
30
0.0000000000
10
285.8379419051
20
64.9128087866
30
0.0000000000
10
285.9262253971
20
62.7806690857
30
0.0000000000
10
286.0087335125
20
59.6251057150
30
0.0000000000
10
286.0397839156
20
56.5605965629
30
0.0000000000
10
286.0193857294
20
53.5985082795
30
0.0000000000
10
285.9475672689
20
50.7501333901
30
0.0000000000
10
285.8243901826
20
48.0269813363
30
0.0000000000
10
285.6499810938
20
45.4410317542
30
0.0000000000
10
285.4950296811
20
43.7660854722
30
0.0000000000
10
285.4078089232
20
42.9539965563
30
0.0000000000
11
285.7854062272
21
65.9919986942
31
0.0000000000
11
285.9190110391
21
62.7533496793
31
0.0000000000
11
286.0009818069
21
59.5941973829
31
0.0000000000
11
286.0312801723
21
56.5264077759
31
0.0000000000
11
286.0098965510
21
53.5610599906
31
0.0000000000
11
285.9368195306
21
50.7093445958
31
0.0000000000
11
285.8120633308
21
47.9829480928
31
0.0000000000
11
285.6356776235
21
45.3936560955
31
0.0000000000
11
285.4078089232
21
42.9539965563
31
0.0000000000
0
SPLINE
5
5A3
100
AcDbEntity
8
0
100
AcDbSpline
62
7
6
CONTINUOUS
70
0
71
3
72
10
73
6
74
4
42
0.0000001000
43
0.0000001000
44
0.0000000001
40
0.0000000000
40
0.0000000000
40
0.0000000000
40
0.0000000000
40
0.3275135607
40
0.6610285220
40
1.0000000000
40
1.0000000000
40
1.0000000000
40
1.0000000000
10
285.5503144016
20
72.9849597314
30
0.0000000000
10
285.5638027978
20
72.2211905812
30
0.0000000000
10
285.5995835968
20
70.6797959348
30
0.0000000000
10
285.6782443564
20
68.3486990569
30
0.0000000000
10
285.7469642095
20
66.7816760948
30
0.0000000000
10
285.7854062272
20
65.9919986942
30
0.0000000000
11
285.5503144016
21
72.9849597314
31
0.0000000000
11
285.6032395204
21
70.6939062191
31
0.0000000000
11
285.6817066052
21
68.3615682881
31
0.0000000000
11
285.7854062272
21
65.9919986942
31
0.0000000000
0
SPLINE
5
5A4
100
AcDbEntity
8
0
100
AcDbSpline
62
7
6
CONTINUOUS
70
0
71
3
72
12
73
8
74
6
42
0.0000001000
43
0.0000001000
44
0.0000000001
40
0.0000000000
40
0.0000000000
40
0.0000000000
40
0.0000000000
40
0.1842991509
40
0.3738801159
40
0.5690629406
40
0.7775260519
40
1.0000000000
40
1.0000000000
40
1.0000000000
40
1.0000000000
10
320.0028678531
20
194.0183058309
30
0.0000000000
10
320.1984494987
20
194.0445298011
30
0.0000000000
10
320.5911423736
20
194.1356391183
30
0.0000000000
10
321.1512814129
20
194.3840619072
30
0.0000000000
10
321.6772813343
20
194.7464836804
30
0.0000000000
10
322.1544441515
20
195.2221987359
30
0.0000000000
10
322.4217403323
20
195.6013911130
30
0.0000000000
10
322.5434777844
20
195.8061402284
30
0.0000000000
11
320.0028678531
21
194.0183058309
31
0.0000000000
11
320.5795988950
21
194.1518730265
31
0.0000000000
11
321.1366465766
21
194.3979058690
31
0.0000000000
11
321.6537480186
21
194.7524188563
31
0.0000000000
11
322.1294642769
21
195.2236690418
31
0.0000000000
11
322.5434777844
21
195.8061402284
31
0.0000000000
0
SPLINE
5
5A5
100
AcDbEntity
8
0
100
AcDbSpline
62
7
6
CONTINUOUS
70
0
71
3
72
11
73
7
74
5
42
0.0000001000
43
0.0000001000
44
0.0000000001
40
0.0000000000
40
0.0000000000
40
0.0000000000
40
0.0000000000
40
0.2198909743
40
0.4551924920
40
0.7133413437
40
1.0000000000
40
1.0000000000
40
1.0000000000
40
1.0000000000
10
322.5434777844
20
195.8061402284
30
0.0000000000
10
322.6682656266
20
196.0160197669
30
0.0000000000
10
322.8960511813
20
196.4692387403
30
0.0000000000
10
323.1572669538
20
197.2192610558
30
0.0000000000
10
323.3346133894
20
198.0696030042
30
0.0000000000
10
323.3771299929
20
198.6754881212
30
0.0000000000
10
323.3771299929
20
198.9938043916
30
0.0000000000
11
322.5434777844
21
195.8061402284
31
0.0000000000
11
322.8740811851
21
196.4598176929
31
0.0000000000
11
323.1333210473
21
197.1995708608
31
0.0000000000
11
323.3098702485
21
198.0412271724
31
0.0000000000
11
323.3771299929
21
198.9938043916
31
0.0000000000
0
SPLINE
5
5A6
100
AcDbEntity
8
0
100
AcDbSpline
62
7
6
CONTINUOUS
70
0
71
3
72
11
73
7
74
5
42
0.0000001000
43
0.0000001000
44
0.0000000001
40
0.0000000000
40
0.0000000000
40
0.0000000000
40
0.0000000000
40
0.3080473687
40
0.5793785902
40
0.8108713526
40
1.0000000000
40
1.0000000000
40
1.0000000000
40
1.0000000000
10
305.3464510686
20
42.9539965684
30
0.0000000000
10
305.4837633210
20
41.6755193235
30
0.0000000000
10
305.7485208763
20
39.2716368657
30
0.0000000000
10
306.1392747793
20
35.9095645908
30
0.0000000000
10
306.4903867845
20
33.0426665759
30
0.0000000000
10
306.7143515091
20
31.3012693268
30
0.0000000000
10
306.8175165923
20
30.5185914744
30
0.0000000000
11
305.3464510686
21
42.9539965684
31
0.0000000000
11
305.7693814259
21
39.1197615215
31
0.0000000000
11
306.1622103801
21
35.7448305668
31
0.0000000000
11
306.5150734072
21
32.8675437971
31
0.0000000000
11
306.8175165923
21
30.5185914744
31
0.0000000000
0
SPLINE
5
5A7
100
AcDbEntity
8
0
100
AcDbSpline
62
7
6
CONTINUOUS
70
0
71
3
72
10
73
6
74
4
42
0.0000001000
43
0.0000001000
44
0.0000000001
40
0.0000000000
40
0.0000000000
40
0.0000000000
40
0.0000000000
40
0.3275135607
40
0.6610285220
40
1.0000000000
40
1.0000000000
40
1.0000000000
40
1.0000000000
10
305.2039455842
20
72.9849597314
30
0.0000000000
10
305.1904571880
20
72.2211905812
30
0.0000000000
10
305.1546763890
20
70.6797959348
30
0.0000000000
10
305.0760156295
20
68.3486990569
30
0.0000000000
10
305.0072957763
20
66.7816760948
30
0.0000000000
10
304.9688537586
20
65.9919986942
30
0.0000000000
11
305.2039455842
21
72.9849597314
31
0.0000000000
11
305.1510204654
21
70.6939062191
31
0.0000000000
11
305.0725533806
21
68.3615682881
31
0.0000000000
11
304.9688537586
21
65.9919986942
31
0.0000000000
0
SPLINE
5
5A8
100
AcDbEntity
8
0
100
AcDbSpline
62
7
6
CONTINUOUS
70
0
71
3
72
15
73
11
74
9
42
0.0000001000
43
0.0000001000
44
0.0000000001
40
0.0000000000
40
0.0000000000
40
0.0000000000
40
0.0000000000
40
0.1405489412
40
0.2775775247
40
0.4106049580
40
0.5391873166
40
0.6628797656
40
0.7812214306
40
0.8937546724
40
1.0000000000
40
1.0000000000
40
1.0000000000
40
1.0000000000
10
304.9688537586
20
65.9919986942
30
0.0000000000
10
304.9163180807
20
64.9128087866
30
0.0000000000
10
304.8280345887
20
62.7806690857
30
0.0000000000
10
304.7455264734
20
59.6251057150
30
0.0000000000
10
304.7144760702
20
56.5605965629
30
0.0000000000
10
304.7348742564
20
53.5985082795
30
0.0000000000
10
304.8066927170
20
50.7501333901
30
0.0000000000
10
304.9298698032
20
48.0269813363
30
0.0000000000
10
305.1042788921
20
45.4410317542
30
0.0000000000
10
305.2592303047
20
43.7660854722
30
0.0000000000
10
305.3464510626
20
42.9539965563
30
0.0000000000
11
304.9688537586
21
65.9919986942
31
0.0000000000
11
304.8352489467
21
62.7533496793
31
0.0000000000
11
304.7532781789
21
59.5941973829
31
0.0000000000
11
304.7229798135
21
56.5264077759
31
0.0000000000
11
304.7443634348
21
53.5610599906
31
0.0000000000
11
304.8174404552
21
50.7093445958
31
0.0000000000
11
304.9421966550
21
47.9829480928
31
0.0000000000
11
305.1185823623
21
45.3936560955
31
0.0000000000
11
305.3464510626
21
42.9539965563
31
0.0000000000
0
SPLINE
5
5A9
100
AcDbEntity
8
0
100
AcDbSpline
62
7
6
CONTINUOUS
70
0
71
3
72
10
73
6
74
4
42
0.0000001000
43
0.0000001000
44
0.0000000001
40
0.0000000000
40
0.0000000000
40
0.0000000000
40
0.0000000000
40
0.3352917898
40
0.6686401403
40
1.0000000000
40
1.0000000000
40
1.0000000000
40
1.0000000000
10
282.8143527540
20
66.3221517769
30
0.0000000000
10
282.8432341484
20
66.5666010524
30
0.0000000000
10
282.9009980302
20
67.0540628219
30
0.0000000000
10
282.9878984103
20
67.7830367134
30
0.0000000000
10
283.0460043483
20
68.2675507004
30
0.0000000000
10
283.0750569091
20
68.5090725615
30
0.0000000000
11
282.8143527540
21
66.3221517769
31
0.0000000000
11
282.9012517208
21
67.0554694561
31
0.0000000000
11
282.9881573595
21
67.7844759740
31
0.0000000000
11
283.0750569091
21
68.5090725615
31
0.0000000000
0
SPLINE
5
5AA
100
AcDbEntity
8
0
100
AcDbSpline
62
7
6
CONTINUOUS
70
0
71
3
72
9
73
5
74
3
42
0.0000001000
43
0.0000001000
44
0.0000000001
40
0.0000000000
40
0.0000000000
40
0.0000000000
40
0.0000000000
40
0.6833539909
40
1.0000000000
40
1.0000000000
40
1.0000000000
40
1.0000000000
10
277.3771299929
20
36.6514829054
30
0.0000000000
10
277.3771299929
20
36.5832303751
30
0.0000000000
10
277.3787320702
20
36.4833382756
30
0.0000000000
10
277.3834418621
20
36.3835546193
30
0.0000000000
10
277.3853101553
20
36.3519811778
30
0.0000000000
11
277.3771299929
21
36.6514829054
31
0.0000000000
11
277.3807707825
21
36.4467576854
31
0.0000000000
11
277.3853101553
21
36.3519811778
31
0.0000000000
0
SPLINE
5
5AB
100
AcDbEntity
8
0
100
AcDbSpline
62
7
6
CONTINUOUS
70
0
71
3
72
36
73
32
74
30
42
0.0000001000
43
0.0000001000
44
0.0000000001
40
0.0000000000
40
0.0000000000
40
0.0000000000
40
0.0000000000
40
0.0028028110
40
0.0078304052
40
0.0119796908
40
0.0153324004
40
0.0179536481
40
0.0199267527
40
0.0214557895
40
0.0229406040
40
0.0248475860
40
0.0275235270
40
0.0312373928
40
0.0362559432
40
0.0428786220
40
0.0514523011
40
0.0623774329
40
0.0761073299
40
0.0931450253
40
0.1141329223
40
0.1399780986
40
0.1717156033
40
0.2105111717
40
0.2576481196
40
0.3145614014
40
0.3833200005
40
0.4666362002
40
0.5671985888
40
0.6876345785
40
0.8307829279
40
1.0000000000
40
1.0000000000
40
1.0000000000
40
1.0000000000
10
277.3853101553
20
36.3519811778
30
0.0000000000
10
277.3870686668
20
36.3222630053
30
0.0000000000
10
277.3929145418
20
36.2392933820
30
0.0000000000
10
277.4064967496
20
36.1127156297
30
0.0000000000
10
277.4294033822
20
35.9815076667
30
0.0000000000
10
277.4573434978
20
35.8774655136
30
0.0000000000
10
277.4902068744
20
35.7993276453
30
0.0000000000
10
277.5279372718
20
35.7453922286
30
0.0000000000
10
277.5752768473
20
35.7161552981
30
0.0000000000
10
277.6303621276
20
35.7208918781
30
0.0000000000
10
277.6854151821
20
35.7570748511
30
0.0000000000
10
277.7449730658
20
35.8225182901
30
0.0000000000
10
277.8118448519
20
35.9239924076
30
0.0000000000
10
277.8876683587
20
36.0685413701
30
0.0000000000
10
277.9739240781
20
36.2652985198
30
0.0000000000
10
278.0721261763
20
36.5248571822
30
0.0000000000
10
278.1838666441
20
36.8596901321
30
0.0000000000
10
278.3107831261
20
37.2839783091
30
0.0000000000
10
278.4547869349
20
37.8145112586
30
0.0000000000
10
278.6184906306
20
38.4728589867
30
0.0000000000
10
278.8051173247
20
39.2862376446
30
0.0000000000
10
279.0182766178
20
40.2874399800
30
0.0000000000
10
279.2615440249
20
41.5133095705
30
0.0000000000
10
279.5384906313
20
43.0049755800
30
0.0000000000
10
279.8535570123
20
44.8131163250
30
0.0000000000
10
280.2126059631
20
47.0035190217
30
0.0000000000
10
280.6220869311
20
49.6553110440
30
0.0000000000
10
281.0876466271
20
52.8536785093
30
0.0000000000
10
281.6134595487
20
56.6853049682
30
0.0000000000
10
282.2029105508
20
61.2440540793
30
0.0000000000
10
282.6034818006
20
64.5373608133
30
0.0000000000
10
282.8143527540
20
66.3221517769
30
0.0000000000
11
277.3853101553
21
36.3519811778
31
0.0000000000
11
277.3916420672
21
36.2628966976
31
0.0000000000
11
277.4094052897
21
36.1036948035
31
0.0000000000
11
277.4329980881
21
35.9736119411
31
0.0000000000
11
277.4619500899
21
35.8707856738
31
0.0000000000
11
277.4959176499
21
35.7944866157
31
0.0000000000
11
277.5343763640
21
35.7447550986
31
0.0000000000
11
277.5770166431
21
35.7211906206
31
0.0000000000
11
277.6242574611
21
35.7237359288
31
0.0000000000
11
277.6769349374
21
35.7540166209
31
0.0000000000
11
277.7360467701
21
35.8154597307
31
0.0000000000
11
277.8027383552
21
35.9132074078
31
0.0000000000
11
277.8782953111
21
36.0541318035
31
0.0000000000
11
277.9641345366
21
36.2468957479
31
0.0000000000
11
278.0617906508
21
36.5020196134
31
0.0000000000
11
278.1728921052
21
36.8319113894
31
0.0000000000
11
278.2991104447
21
37.2507709744
31
0.0000000000
11
278.4421215162
21
37.7744518431
31
0.0000000000
11
278.6042751077
21
38.4232130975
31
0.0000000000
11
278.7892238646
21
39.2256573193
31
0.0000000000
11
279.0006052481
21
40.2145416599
31
0.0000000000
11
279.2420470889
21
41.4268417081
31
0.0000000000
11
279.5170685290
21
42.9033294272
31
0.0000000000
11
279.8292497871
21
44.6896334031
31
0.0000000000
11
280.1845734153
21
46.8514212295
31
0.0000000000
11
280.5906999214
21
49.4748017903
31
0.0000000000
11
281.0533117881
21
52.6453608677
31
0.0000000000
11
281.5761505840
21
56.4469215080
31
0.0000000000
11
282.1621870179
21
60.9701252509
31
0.0000000000
11
282.8143527540
21
66.3221517769
31
0.0000000000
0
SPLINE
5
5AC
100
AcDbEntity
8
0
100
AcDbSpline
62
7
6
CONTINUOUS
70
0
71
3
72
9
73
5
74
3
42
0.0000001000
43
0.0000001000
44
0.0000000001
40
0.0000000000
40
0.0000000000
40
0.0000000000
40
0.0000000000
40
0.6833539909
40
1.0000000000
40
1.0000000000
40
1.0000000000
40
1.0000000000
10
313.3771299929
20
36.6514829054
30
0.0000000000
10
313.3771299929
20
36.5832303751
30
0.0000000000
10
313.3755279156
20
36.4833382756
30
0.0000000000
10
313.3708181238
20
36.3835546193
30
0.0000000000
10
313.3689498305
20
36.3519811778
30
0.0000000000
11
313.3771299929
21
36.6514829054
31
0.0000000000
11
313.3734892033
21
36.4467576854
31
0.0000000000
11
313.3689498305
21
36.3519811778
31
0.0000000000
0
SPLINE
5
5AD
100
AcDbEntity
8
0
100
AcDbSpline
62
7
6
CONTINUOUS
70
0
71
3
72
36
73
32
74
30
42
0.0000001000
43
0.0000001000
44
0.0000000001
40
0.0000000000
40
0.0000000000
40
0.0000000000
40
0.0000000000
40
0.0028028110
40
0.0078304052
40
0.0119796908
40
0.0153324004
40
0.0179536481
40
0.0199267527
40
0.0214557895
40
0.0229406040
40
0.0248475860
40
0.0275235270
40
0.0312373928
40
0.0362559432
40
0.0428786220
40
0.0514523011
40
0.0623774329
40
0.0761073299
40
0.0931450253
40
0.1141329223
40
0.1399780986
40
0.1717156033
40
0.2105111717
40
0.2576481196
40
0.3145614014
40
0.3833200005
40
0.4666362002
40
0.5671985888
40
0.6876345785
40
0.8307829279
40
1.0000000000
40
1.0000000000
40
1.0000000000
40
1.0000000000
10
313.3689498305
20
36.3519811778
30
0.0000000000
10
313.3671913190
20
36.3222630053
30
0.0000000000
10
313.3613454440
20
36.2392933820
30
0.0000000000
10
313.3477632362
20
36.1127156297
30
0.0000000000
10
313.3248566036
20
35.9815076667
30
0.0000000000
10
313.2969164881
20
35.8774655136
30
0.0000000000
10
313.2640531114
20
35.7993276453
30
0.0000000000
10
313.2263227140
20
35.7453922286
30
0.0000000000
10
313.1789831385
20
35.7161552981
30
0.0000000000
10
313.1238978582
20
35.7208918781
30
0.0000000000
10
313.0688448037
20
35.7570748511
30
0.0000000000
10
313.0092869200
20
35.8225182901
30
0.0000000000
10
312.9424151339
20
35.9239924076
30
0.0000000000
10
312.8665916271
20
36.0685413701
30
0.0000000000
10
312.7803359078
20
36.2652985198
30
0.0000000000
10
312.6821338095
20
36.5248571822
30
0.0000000000
10
312.5703933417
20
36.8596901321
30
0.0000000000
10
312.4434768597
20
37.2839783091
30
0.0000000000
10
312.2994730509
20
37.8145112586
30
0.0000000000
10
312.1357693552
20
38.4728589867
30
0.0000000000
10
311.9491426611
20
39.2862376446
30
0.0000000000
10
311.7359833680
20
40.2874399800
30
0.0000000000
10
311.4927159609
20
41.5133095705
30
0.0000000000
10
311.2157693545
20
43.0049755800
30
0.0000000000
10
310.9007029735
20
44.8131163250
30
0.0000000000
10
310.5416540227
20
47.0035190217
30
0.0000000000
10
310.1321730547
20
49.6553110440
30
0.0000000000
10
309.6666133587
20
52.8536785093
30
0.0000000000
10
309.1408004371
20
56.6853049682
30
0.0000000000
10
308.5513494350
20
61.2440540793
30
0.0000000000
10
308.1507781852
20
64.5373608133
30
0.0000000000
10
307.9399072318
20
66.3221517769
30
0.0000000000
11
313.3689498305
21
36.3519811778
31
0.0000000000
11
313.3626179187
21
36.2628966976
31
0.0000000000
11
313.3448546962
21
36.1036948035
31
0.0000000000
11
313.3212618977
21
35.9736119411
31
0.0000000000
11
313.2923098960
21
35.8707856738
31
0.0000000000
11
313.2583423359
21
35.7944866157
31
0.0000000000
11
313.2198836218
21
35.7447550986
31
0.0000000000
11
313.1772433427
21
35.7211906206
31
0.0000000000
11
313.1300025248
21
35.7237359288
31
0.0000000000
11
313.0773250485
21
35.7540166209
31
0.0000000000
11
313.0182132158
21
35.8154597307
31
0.0000000000
11
312.9515216306
21
35.9132074078
31
0.0000000000
11
312.8759646747
21
36.0541318035
31
0.0000000000
11
312.7901254493
21
36.2468957479
31
0.0000000000
11
312.6924693350
21
36.5020196134
31
0.0000000000
11
312.5813678806
21
36.8319113894
31
0.0000000000
11
312.4551495412
21
37.2507709744
31
0.0000000000
11
312.3121384696
21
37.7744518431
31
0.0000000000
11
312.1499848781
21
38.4232130975
31
0.0000000000
11
311.9650361212
21
39.2256573193
31
0.0000000000
11
311.7536547377
21
40.2145416599
31
0.0000000000
11
311.5122128970
21
41.4268417081
31
0.0000000000
11
311.2371914569
21
42.9033294272
31
0.0000000000
11
310.9250101988
21
44.6896334031
31
0.0000000000
11
310.5696865705
21
46.8514212295
31
0.0000000000
11
310.1635600645
21
49.4748017903
31
0.0000000000
11
309.7009481977
21
52.6453608677
31
0.0000000000
11
309.1781094019
21
56.4469215080
31
0.0000000000
11
308.5920729679
21
60.9701252509
31
0.0000000000
11
307.9399072318
21
66.3221517769
31
0.0000000000
0
SPLINE
5
5AE
100
AcDbEntity
8
0
100
AcDbSpline
62
7
6
CONTINUOUS
70
0
71
3
72
11
73
7
74
5
42
0.0000001000
43
0.0000001000
44
0.0000000001
40
0.0000000000
40
0.0000000000
40
0.0000000000
40
0.0000000000
40
0.5168243310
40
0.8372578360
40
0.9733799635
40
1.0000000000
40
1.0000000000
40
1.0000000000
40
1.0000000000
10
283.9367433935
20
30.5185914744
30
0.0000000000
10
283.8523633219
20
29.8784290166
30
0.0000000000
10
283.6439843071
20
28.7967197951
30
0.0000000000
10
283.5003236175
20
27.7324613065
30
0.0000000000
10
283.0627262207
20
27.0304663998
30
0.0000000000
10
282.9170214405
20
27.0748242411
30
0.0000000000
10
282.8934270864
20
27.0880520197
30
0.0000000000
11
283.9367433935
21
30.5185914744
31
0.0000000000
11
283.6274212319
21
28.6063489374
31
0.0000000000
11
283.3026319087
21
27.4500887236
31
0.0000000000
11
282.9647329459
21
27.0678259268
31
0.0000000000
11
282.8934270864
21
27.0880520197
31
0.0000000000
0
SPLINE
5
5AF
100
AcDbEntity
8
0
100
AcDbSpline
62
7
6
CONTINUOUS
70
0
71
3
72
11
73
7
74
5
42
0.0000001000
43
0.0000001000
44
0.0000000001
40
0.0000000000
40
0.0000000000
40
0.0000000000
40
0.0000000000
40
0.3080473687
40
0.5793785902
40
0.8108713526
40
1.0000000000
40
1.0000000000
40
1.0000000000
40
1.0000000000
10
285.4078089172
20
42.9539965684
30
0.0000000000
10
285.2704966648
20
41.6755193235
30
0.0000000000
10
285.0057391095
20
39.2716368657
30
0.0000000000
10
284.6149852065
20
35.9095645908
30
0.0000000000
10
284.2638732013
20
33.0426665759
30
0.0000000000
10
284.0399084767
20
31.3012693268
30
0.0000000000
10
283.9367433935
20
30.5185914744
30
0.0000000000
11
285.4078089172
21
42.9539965684
31
0.0000000000
11
284.9848785599
21
39.1197615215
31
0.0000000000
11
284.5920496057
21
35.7448305668
31
0.0000000000
11
284.2391865787
21
32.8675437971
31
0.0000000000
11
283.9367433935
21
30.5185914744
31
0.0000000000
0
SPLINE
5
5B0
100
AcDbEntity
8
0
100
AcDbSpline
62
7
6
CONTINUOUS
70
0
71
3
72
10
73
6
74
4
42
0.0000001000
43
0.0000001000
44
0.0000000001
40
0.0000000000
40
0.0000000000
40
0.0000000000
40
0.0000000000
40
0.3352917898
40
0.6686401403
40
1.0000000000
40
1.0000000000
40
1.0000000000
40
1.0000000000
10
307.9399072318
20
66.3221517769
30
0.0000000000
10
307.9110258374
20
66.5666010524
30
0.0000000000
10
307.8532619556
20
67.0540628219
30
0.0000000000
10
307.7663615755
20
67.7830367134
30
0.0000000000
10
307.7082556376
20
68.2675507004
30
0.0000000000
10
307.6792030767
20
68.5090725615
30
0.0000000000
11
307.9399072318
21
66.3221517769
31
0.0000000000
11
307.8530082650
21
67.0554694561
31
0.0000000000
11
307.7661026263
21
67.7844759740
31
0.0000000000
11
307.6792030767
21
68.5090725615
31
0.0000000000
0
SPLINE
5
5B1
100
AcDbEntity
8
0
100
AcDbSpline
62
7
6
CONTINUOUS
70
0
71
3
72
12
73
8
74
6
42
0.0000001000
43
0.0000001000
44
0.0000000001
40
0.0000000000
40
0.0000000000
40
0.0000000000
40
0.0000000000
40
0.1842991509
40
0.3738801159
40
0.5690629406
40
0.7775260519
40
1.0000000000
40
1.0000000000
40
1.0000000000
40
1.0000000000
10
270.7513921327
20
194.0183058309
30
0.0000000000
10
270.5558104871
20
194.0445298011
30
0.0000000000
10
270.1631176122
20
194.1356391183
30
0.0000000000
10
269.6029785729
20
194.3840619072
30
0.0000000000
10
269.0769786516
20
194.7464836804
30
0.0000000000
10
268.5998158343
20
195.2221987359
30
0.0000000000
10
268.3325196536
20
195.6013911130
30
0.0000000000
10
268.2107822014
20
195.8061402284
30
0.0000000000
11
270.7513921327
21
194.0183058309
31
0.0000000000
11
270.1746610908
21
194.1518730265
31
0.0000000000
11
269.6176134093
21
194.3979058690
31
0.0000000000
11
269.1005119673
21
194.7524188563
31
0.0000000000
11
268.6247957089
21
195.2236690418
31
0.0000000000
11
268.2107822014
21
195.8061402284
31
0.0000000000
0
SPLINE
5
5B2
100
AcDbEntity
8
0
100
AcDbSpline
62
7
6
CONTINUOUS
70
0
71
3
72
11
73
7
74
5
42
0.0000001000
43
0.0000001000
44
0.0000000001
40
0.0000000000
40
0.0000000000
40
0.0000000000
40
0.0000000000
40
0.2198909743
40
0.4551924920
40
0.7133413437
40
1.0000000000
40
1.0000000000
40
1.0000000000
40
1.0000000000
10
268.2107822014
20
195.8061402284
30
0.0000000000
10
268.0859943592
20
196.0160197669
30
0.0000000000
10
267.8582088045
20
196.4692387403
30
0.0000000000
10
267.5969930320
20
197.2192610558
30
0.0000000000
10
267.4196465964
20
198.0696030042
30
0.0000000000
10
267.3771299929
20
198.6754881212
30
0.0000000000
10
267.3771299929
20
198.9938043916
30
0.0000000000
11
268.2107822014
21
195.8061402284
31
0.0000000000
11
267.8801788007
21
196.4598176929
31
0.0000000000
11
267.6209389386
21
197.1995708608
31
0.0000000000
11
267.4443897373
21
198.0412271724
31
0.0000000000
11
267.3771299929
21
198.9938043916
31
0.0000000000
0
SPLINE
5
5B3
100
AcDbEntity
8
0
100
AcDbSpline
62
7
6
CONTINUOUS
70
0
71
3
72
11
73
7
74
5
42
0.0000001000
43
0.0000001000
44
0.0000000001
40
0.0000000000
40
0.0000000000
40
0.0000000000
40
0.0000000000
40
0.5168243310
40
0.8372578360
40
0.9733799635
40
1.0000000000
40
1.0000000000
40
1.0000000000
40
1.0000000000
10
306.8175165923
20
30.5185914744
30
0.0000000000
10
306.9018966639
20
29.8784290166
30
0.0000000000
10
307.1102756788
20
28.7967197951
30
0.0000000000
10
307.2539363683
20
27.7324613065
30
0.0000000000
10
307.6915337651
20
27.0304663998
30
0.0000000000
10
307.8372385453
20
27.0748242411
30
0.0000000000
10
307.8608328994
20
27.0880520197
30
0.0000000000
11
306.8175165923
21
30.5185914744
31
0.0000000000
11
307.1268387540
21
28.6063489374
31
0.0000000000
11
307.4516280771
21
27.4500887236
31
0.0000000000
11
307.7895270399
21
27.0678259268
31
0.0000000000
11
307.8608328994
21
27.0880520197
31
0.0000000000
0
SPLINE
5
5B4
100
AcDbEntity
8
0
100
AcDbSpline
62
7
6
CONTINUOUS
70
0
71
3
72
10
73
6
74
4
42
0.0000001000
43
0.0000001000
44
0.0000000001
40
0.0000000000
40
0.0000000000
40
0.0000000000
40
0.0000000000
40
0.3399250711
40
0.6732632312
40
1.0000000000
40
1.0000000000
40
1.0000000000
40
1.0000000000
10
320.0028678531
20
194.0183058309
30
0.0000000000
10
318.5724178360
20
193.8265082907
30
0.0000000000
10
315.7391427053
20
193.4473280896
30
0.0000000000
10
311.5305707761
20
192.8863728057
30
0.0000000000
10
308.7523865137
20
192.5176895858
30
0.0000000000
10
307.3771299929
20
192.3356198030
30
0.0000000000
11
320.0028678531
21
194.0183058309
31
0.0000000000
11
315.7113717965
21
193.4440031869
31
0.0000000000
11
311.5027344223
21
192.8830750322
31
0.0000000000
11
307.3771299929
21
192.3356198030
31
0.0000000000
0
SPLINE
5
5B5
100
AcDbEntity
8
0
100
AcDbSpline
62
7
6
CONTINUOUS
70
0
71
3
72
10
73
6
74
4
42
0.0000001000
43
0.0000001000
44
0.0000000001
40
0.0000000000
40
0.0000000000
40
0.0000000000
40
0.0000000000
40
0.3399250711
40
0.6732632312
40
1.0000000000
40
1.0000000000
40
1.0000000000
40
1.0000000000
10
270.7513921327
20
194.0183058309
30
0.0000000000
10
272.1818421498
20
193.8265082907
30
0.0000000000
10
275.0151172805
20
193.4473280896
30
0.0000000000
10
279.2236892097
20
192.8863728057
30
0.0000000000
10
282.0018734721
20
192.5176895858
30
0.0000000000
10
283.3771299929
20
192.3356198030
30
0.0000000000
11
270.7513921327
21
194.0183058309
31
0.0000000000
11
275.0428881893
21
193.4440031869
31
0.0000000000
11
279.2515255636
21
192.8830750322
31
0.0000000000
11
283.3771299929
21
192.3356198030
31
0.0000000000
0
ENDSEC
0
SECTION
2
OBJECTS
0
DICTIONARY
5
5B6
100
AcDbDictionary
3
ACAD_GROUP
350
5B7
3
ACAD_MLINESTYLE
350
5B8
0
DICTIONARY
5
5B7
102
{ACAD_REACTORS
330
5B6
102
}
100
AcDbDictionary
0
DICTIONARY
5
5B8
102
{ACAD_REACTORS
330
5B6
102
}
100
AcDbDictionary
3
STANDARD
350
5B9
0
MLINESTYLE
5
5B9
102
{ACAD_REACTORS
330
5B8
102
}
100
AcDbMlineStyle
2
STANDARD
70
0
3

62
256
51
90.0
52
90.0
71
2
49
0.5
62
256
6
BYLAYER
49
-0.5
62
256
6
BYLAYER
0
ENDSEC
0
EOF
