999
DXF file: C:\Aktuell-Internet\CAD-Daten\2vcoeh13.dxf
999
Pro/ENGINEER 2001400 by Parametric Technology Corporation
0
SECTION
2
HEADER
9
$ACADVER
1
AC1014
9
$EXTMAX
10
420.0000000000
20
297.0000000000
9
$EXTMIN
10
0.0000000000
20
0.0000000000
9
$LIMMIN
10
0.0000000000
20
0.0000000000
9
$LIMMAX
10
420.0000000000
20
297.0000000000
9
$VIEWCTR
10
210.0000000000
20
148.5000000000
9
$VIEWSIZE
40
297.0000000000
9
$CLAYER
8
0
9
$LTSCALE
40
23.1000000000
9
$CELTYPE
6
BYLAYER
9
$DIMSCALE
40
1
9
$DIMASZ
40
3.5000000000
9
$DIMEXO
40
2.6250000000
9
$DIMDLI
40
15.9600000000
9
$DIMEXE
40
7.5600000000
9
$DIMCEN
40
3.7800000000
9
$DIMLFAC
40
1.0000000000
9
$DIMTXT
40
3.5000000000
9
$DIMTOL
70
1
9
$DIMTFAC
40
0.6000000000
9
$DIMTP
40
0.0050000000
9
$DIMTM
40
0.0050000000
9
$HANDSEED
5
568
0
ENDSEC
0
SECTION
2
CLASSES
0
ENDSEC
0
SECTION
2
TABLES
0
TABLE
2
VPORT
5
8
100
AcDbSymbolTable
70
2
0
VPORT
5
1F4
100
AcDbSymbolTableRecord
100
AcDbViewportTableRecord
2
*ACTIVE
70
0
10
0.0
20
0.0
11
1.0
21
1.0
12
210.0000000000
22
148.5000000000
13
0.0
23
0.0
14
1.0
24
1.0
15
0.0
25
0.0
16
0.0
26
0.0
36
1.0
17
0.0
27
0.0
37
0.0
40
297.0000000000
41
1.4141414141
42
50.0
43
0.0
44
0.0
50
0.0
51
0.0
71
0
72
100
73
1
74
1
75
0
76
0
77
0
78
0
0
ENDTAB
0
TABLE
2
LTYPE
5
5
100
AcDbSymbolTable
70
6
0
LTYPE
5
14
100
AcDbSymbolTableRecord
100
AcDbLinetypeTableRecord
2
BYBLOCK
70
0
3

72
65
73
0
40
0.0
0
LTYPE
5
15
100
AcDbSymbolTableRecord
100
AcDbLinetypeTableRecord
2
BYLAYER
70
0
3

72
65
73
0
40
0.0
0
LTYPE
5
16
100
AcDbSymbolTableRecord
100
AcDbLinetypeTableRecord
2
CONTINUOUS
70
64
3
Solid line
72
65
73
0
40
0
0
LTYPE
5
1F5
100
AcDbSymbolTableRecord
100
AcDbLinetypeTableRecord
2
CENTER
70
64
3
____ _ ____ _ ____ _ ____ _ ____ _ ____ _ ____
72
65
73
4
40
0.6
49
0.375
74
0
49
-0.075
74
0
49
0.075
74
0
49
-0.075
74
0
0
LTYPE
5
1F6
100
AcDbSymbolTableRecord
100
AcDbLinetypeTableRecord
2
HIDDEN
70
64
3
- - - - - - - - - - - - - - - - - - - -
72
65
73
2
40
0.2
49
0.1
74
0
49
-0.1
74
0
0
LTYPE
5
1F7
100
AcDbSymbolTableRecord
100
AcDbLinetypeTableRecord
2
PHANTOM
70
64
3
_____ _ _ _____ _ _ _____ _ _ _____
72
65
73
6
40
0.8
49
0.45
74
0
49
-0.05
74
0
49
0.1
74
0
49
-0.05
74
0
49
0.1
74
0
49
-0.05
74
0
0
LTYPE
5
1F8
100
AcDbSymbolTableRecord
100
AcDbLinetypeTableRecord
2
DOT
70
64
3
. . . . . . . . . . . . . . . . . . . .
72
65
73
2
40
0.2
49
0.1
74
0
49
-0.1
74
0
0
LTYPE
5
1F9
100
AcDbSymbolTableRecord
100
AcDbLinetypeTableRecord
2
DASHED
70
64
3
- - - - - - - - - - - - - - - - - - - -
72
65
73
2
40
0.2
49
0.1
74
0
49
-0.1
74
0
0
ENDTAB
0
TABLE
2
LAYER
5
2
100
AcDbSymbolTable
70
36
0
LAYER
5
10
100
AcDbSymbolTableRecord
100
AcDbLayerTableRecord
2
0
70
0
62
7
6
CONTINUOUS
0
LAYER
5
1FA
100
AcDbSymbolTableRecord
100
AcDbLayerTableRecord
2
DEFAULT_1
70
0
62
7
6
CENTER
0
LAYER
5
1FB
100
AcDbSymbolTableRecord
100
AcDbLayerTableRecord
2
DEFAULT_2
70
0
62
8
6
HIDDEN
0
LAYER
5
1FC
100
AcDbSymbolTableRecord
100
AcDbLayerTableRecord
2
DEFAULT_3
70
0
62
7
6
PHANTOM
0
LAYER
5
1FD
100
AcDbSymbolTableRecord
100
AcDbLayerTableRecord
2
ZEICHNUNGSBEMASSUNGEN
70
0
62
7
6
CONTINUOUS
0
ENDTAB
0
TABLE
2
STYLE
5
3
100
AcDbSymbolTable
70
1
0
STYLE
5
11
100
AcDbSymbolTableRecord
100
AcDbTextStyleTableRecord
2
STANDARD
70
0
40
0.0
41
1.0
50
0.0
71
0
42
0.0
3
txt
4

0
STYLE
5
1FE
100
AcDbSymbolTableRecord
100
AcDbTextStyleTableRecord
2
TEXTSTYLE_0
70
0
40
0.0
41
0.80
50
0.0
71
0
42
0.2
3
txt
4

0
ENDTAB
0
TABLE
2
VIEW
5
6
100
AcDbSymbolTable
70
0
0
ENDTAB
0
TABLE
2
UCS
5
7
100
AcDbSymbolTable
70
0
0
ENDTAB
0
TABLE
2
APPID
5
9
100
AcDbSymbolTable
70
1
0
APPID
5
1FF
100
AcDbSymbolTableRecord
100
AcDbRegAppTableRecord
2
ACAD
70
0
0
ENDTAB
0
TABLE
2
DIMSTYLE
5
A
100
AcDbSymbolTable
70
1
0
DIMSTYLE
105
200
100
AcDbSymbolTableRecord
100
AcDbDimStyleTableRecord
2
STANDARD
70
0
3

4

5

6

7

40
1.0
41
0.18
42
0.0625
43
0.38
44
0.18
45
0.0
46
0.0
47
0.0050000000
48
0.0050000000
140
3.5000000000
141
0.09
142
0.0
143
25.4
144
1.0000000000
145
0.0
146
0.6000000000
147
0.09
71
1
72
0
73
1
74
1
75
0
76
0
77
0
78
0
170
0
171
2
172
0
173
0
174
0
175
0
176
0
177
0
178
0
270
2
271
3
272
4
273
2
274
2
340
11
275
0
280
0
281
0
282
0
283
1
284
0
285
0
286
0
287
3
288
0
0
ENDTAB
0
TABLE
2
BLOCK_RECORD
5
1
100
AcDbSymbolTable
70
0
0
BLOCK_RECORD
5
1B
100
AcDbSymbolTableRecord
100
AcDbBlockTableRecord
2
*MODEL_SPACE
0
BLOCK_RECORD
5
1C
100
AcDbSymbolTableRecord
100
AcDbBlockTableRecord
2
*PAPER_SPACE
0
ENDTAB
0
ENDSEC
0
SECTION
2
BLOCKS
0
BLOCK
5
1E
100
AcDbEntity
8
0
100
AcDbBlockBegin
2
*MODEL_SPACE
70
0
10
0.0
20
0.0
30
0.0
3
*MODEL_SPACE
1

0
ENDBLK
5
1F
100
AcDbEntity
8
0
100
AcDbBlockEnd
0
BLOCK
5
20
100
AcDbEntity
8
0
100
AcDbBlockBegin
2
*PAPER_SPACE
70
0
10
0.0
20
0.0
30
0.0
3
*PAPER_SPACE
1

0
ENDBLK
5
21
100
AcDbEntity
8
0
100
AcDbBlockEnd
0
ENDSEC
0
SECTION
2
ENTITIES
0
TEXT
5
201
100
AcDbEntity
8
0
100
AcDbText
62
2
6
CONTINUOUS
10
169.3845214280
20
57.1048786100
7
TEXTSTYLE_0
40
8.0000000000
1
VCÖH 13/VIP
50
90.0000000000
72
5
11
169.3845214280
21
123.0858302663
100
AcDbText
0
TEXT
5
202
100
AcDbEntity
8
0
100
AcDbText
62
2
6
CONTINUOUS
10
293.3482054717
20
213.3970497522
7
TEXTSTYLE_0
40
6.0000000000
1
VCÖH
50
90.0000000000
72
5
11
293.3482054717
21
232.3113354665
100
AcDbText
0
TEXT
5
203
100
AcDbEntity
8
0
100
AcDbText
62
2
6
CONTINUOUS
10
303.8978583155
20
209.4667869280
7
TEXTSTYLE_0
40
6.0000000000
1
13/VIP
50
90.0000000000
72
5
11
303.8978583155
21
235.3239297852
100
AcDbText
0
TEXT
5
204
100
AcDbEntity
8
0
100
AcDbText
62
2
6
CONTINUOUS
10
124.2857142857
20
149.6934523810
7
TEXTSTYLE_0
40
8.0000000000
1
RUD
50
90.0000000000
72
5
11
124.2857142857
21
169.5029761905
100
AcDbText
0
LINE
5
205
100
AcDbEntity
8
0
100
AcDbLine
62
7
6
CONTINUOUS
10
0.0000000000
20
0.0000000000
11
0.0000000000
21
297.0000000000
0
LINE
5
206
100
AcDbEntity
8
0
100
AcDbLine
62
7
6
CONTINUOUS
10
0.0000000000
20
0.0000000000
11
420.0000000000
21
0.0000000000
0
LINE
5
207
100
AcDbEntity
8
0
100
AcDbLine
62
7
6
CONTINUOUS
10
0.0000000000
20
297.0000000000
11
420.0000000000
21
297.0000000000
0
LINE
5
208
100
AcDbEntity
8
0
100
AcDbLine
62
7
6
CONTINUOUS
10
420.0000000000
20
0.0000000000
11
420.0000000000
21
297.0000000000
0
LINE
5
209
100
AcDbEntity
8
0
100
AcDbLine
62
7
6
CONTINUOUS
10
57.0417573236
20
78.8041684516
11
53.7100310193
21
105.4711847858
0
LINE
5
20A
100
AcDbEntity
8
0
100
AcDbLine
62
7
6
CONTINUOUS
10
58.4676559111
20
80.5062889624
11
58.5953045184
21
78.9982656835
0
LINE
5
20B
100
AcDbEntity
8
0
100
AcDbLine
62
7
6
CONTINUOUS
10
62.2207200850
20
118.8541757754
11
62.2746310355
21
118.7607992701
0
LINE
5
20C
100
AcDbEntity
8
0
100
AcDbLine
62
7
6
CONTINUOUS
10
57.0723296478
20
92.7171340003
11
58.2773014343
21
82.3992788869
0
LINE
5
20D
100
AcDbEntity
8
0
100
AcDbLine
62
7
6
CONTINUOUS
10
85.7876843062
20
82.2114791044
11
76.6350447909
21
101.8393778859
0
LINE
5
20E
100
AcDbEntity
8
0
100
AcDbLine
62
7
6
CONTINUOUS
10
64.7039886158
20
131.5239904067
11
68.5749302101
21
148.2908805332
0
LINE
5
20F
100
AcDbEntity
8
0
100
AcDbLine
62
7
6
CONTINUOUS
10
68.8394726501
20
149.4367397294
11
69.7653711897
21
153.4472469160
0
LINE
5
210
100
AcDbEntity
8
0
100
AcDbLine
62
7
6
CONTINUOUS
10
68.0724281915
20
143.8738177755
11
63.9751211362
21
126.1264311159
0
LINE
5
211
100
AcDbEntity
8
0
100
AcDbLine
62
7
6
CONTINUOUS
10
63.5370253980
20
124.2288299954
11
60.3999983053
21
110.6408728260
0
LINE
5
212
100
AcDbEntity
8
0
100
AcDbLine
62
7
6
CONTINUOUS
10
68.5105239297
20
145.7714188959
11
69.1730894247
21
148.6413053527
0
LINE
5
213
100
AcDbEntity
8
0
100
AcDbLine
62
7
6
CONTINUOUS
10
63.3231084996
20
109.9660196630
11
63.0981574453
21
108.9916495982
0
LINE
5
214
100
AcDbEntity
8
0
100
AcDbLine
62
7
6
CONTINUOUS
10
66.9956377044
20
108.0918453808
11
67.6704908674
21
111.0149555752
0
LINE
5
215
100
AcDbEntity
8
0
100
AcDbLine
62
7
6
CONTINUOUS
10
66.9956377044
20
108.0918453808
11
63.0981574453
21
108.9916495982
0
LINE
5
216
100
AcDbEntity
8
0
100
AcDbLine
62
7
6
CONTINUOUS
10
60.3999983053
20
110.6408728260
11
63.3231084996
21
109.9660196630
0
LINE
5
217
100
AcDbEntity
8
0
100
AcDbLine
62
7
6
CONTINUOUS
10
67.6704908674
20
111.0149555752
11
92.5663345377
21
166.5144778069
0
LINE
5
218
100
AcDbEntity
8
0
100
AcDbLine
62
7
6
CONTINUOUS
10
65.1950711285
20
131.4106150753
11
64.7039886158
21
131.5239904067
0
LINE
5
219
100
AcDbEntity
8
0
100
AcDbLine
62
7
6
CONTINUOUS
10
65.4946897840
20
132.7084060533
11
65.0036072714
21
132.8217813847
0
LINE
5
21A
100
AcDbEntity
8
0
100
AcDbLine
62
7
6
CONTINUOUS
10
97.0760653597
20
161.9492041201
11
95.4830172137
21
173.3614147161
0
LINE
5
21B
100
AcDbEntity
8
DEFAULT_1
100
AcDbLine
62
2
6
CENTER
10
111.6174562368
20
215.7560995640
11
111.6174562368
21
63.2029159388
0
LINE
5
21C
100
AcDbEntity
8
DEFAULT_1
100
AcDbLine
62
2
6
CENTER
10
111.6174562368
20
215.7560995640
11
111.6174562368
21
245.5257791403
0
LINE
5
21D
100
AcDbEntity
8
0
100
AcDbLine
62
7
6
CONTINUOUS
10
68.8014702829
20
147.0316460056
11
68.3103877702
21
147.1450213370
0
LINE
5
21E
100
AcDbEntity
8
0
100
AcDbLine
62
7
6
CONTINUOUS
10
69.0660127228
20
148.1775052018
11
68.5749302101
21
148.2908805332
0
LINE
5
21F
100
AcDbEntity
8
0
100
AcDbLine
62
7
6
CONTINUOUS
10
69.3245866868
20
149.3247423292
11
68.8394726501
21
149.4367397294
0
LINE
5
220
100
AcDbEntity
8
0
100
AcDbLine
62
7
6
CONTINUOUS
10
69.3426996654
20
149.4104386521
11
68.8591726184
21
149.5220696668
0
LINE
5
221
100
AcDbEntity
8
0
100
AcDbLine
62
7
6
CONTINUOUS
10
134.0757627145
20
111.8024516108
11
97.5501283746
21
158.5531316448
0
LINE
5
222
100
AcDbEntity
8
0
100
AcDbLine
62
7
6
CONTINUOUS
10
60.2922813601
20
116.1823492920
11
61.4193948219
21
116.8435724507
0
LINE
5
223
100
AcDbEntity
8
0
100
AcDbLine
62
7
6
CONTINUOUS
10
59.6174562368
20
117.3511806918
11
62.2207200850
21
118.8541757754
0
LINE
5
224
100
AcDbEntity
8
0
100
AcDbLine
62
7
6
CONTINUOUS
10
62.3052935028
20
118.8936130078
11
62.2207200850
21
118.8541757754
0
LINE
5
225
100
AcDbEntity
8
0
100
AcDbLine
62
7
6
CONTINUOUS
10
69.3783649141
20
149.5819607555
11
68.8985725567
21
149.6927295492
0
LINE
5
226
100
AcDbEntity
8
0
100
AcDbLine
62
7
6
CONTINUOUS
10
69.4474513056
20
149.9255230392
11
68.9773724299
21
150.0340492989
0
LINE
5
227
100
AcDbEntity
8
0
100
AcDbLine
62
7
6
CONTINUOUS
10
69.5135437179
20
150.2697765690
11
69.0561723100
21
150.3753690786
0
LINE
5
228
100
AcDbEntity
8
0
100
AcDbLine
62
7
6
CONTINUOUS
10
69.5919443944
20
150.7010664747
11
69.1546721429
21
150.8020187284
0
LINE
5
229
100
AcDbEntity
8
0
100
AcDbLine
62
7
6
CONTINUOUS
10
69.7989688602
20
152.0014416209
11
69.4501716692
21
152.0819677975
0
LINE
5
22A
100
AcDbEntity
8
0
100
AcDbLine
62
7
6
CONTINUOUS
10
69.8585488114
20
152.4370768853
11
69.5486715573
21
152.5086176864
0
LINE
5
22B
100
AcDbEntity
8
0
100
AcDbLine
62
7
6
CONTINUOUS
10
69.9028033124
20
152.7863720312
11
69.6274714237
21
152.8499374063
0
LINE
5
22C
100
AcDbEntity
8
0
100
AcDbLine
62
7
6
CONTINUOUS
10
69.9440184679
20
153.1363688652
11
69.7062712900
21
153.1912571261
0
LINE
5
22D
100
AcDbEntity
8
0
100
AcDbLine
62
7
6
CONTINUOUS
10
69.9634835520
20
153.3116310477
11
69.7456712231
21
153.3619169861
0
LINE
5
22E
100
AcDbEntity
8
0
100
AcDbLine
62
7
6
CONTINUOUS
10
69.9729299629
20
153.3993281975
11
69.7653711897
21
153.4472469160
0
LINE
5
22F
100
AcDbEntity
8
0
100
AcDbLine
62
7
6
CONTINUOUS
10
146.2013401870
20
121.2759910031
11
134.0427535635
21
136.8382722112
0
LINE
5
230
100
AcDbEntity
8
0
100
AcDbLine
62
7
6
CONTINUOUS
10
151.3158977080
20
144.3894175130
11
163.9012186750
21
135.7198685303
0
LINE
5
231
100
AcDbEntity
8
0
100
AcDbLine
62
7
6
CONTINUOUS
10
152.1459275097
20
145.5748229199
11
164.6641602361
21
136.8094619999
0
LINE
5
232
100
AcDbEntity
8
0
100
AcDbLine
62
7
6
CONTINUOUS
10
143.6174562368
20
175.1112966982
11
143.6174562368
21
161.9578638057
0
LINE
5
233
100
AcDbEntity
8
0
100
AcDbLine
62
7
6
CONTINUOUS
10
86.5710859135
20
184.5202324510
11
77.1244694682
21
188.0939188749
0
LINE
5
234
100
AcDbEntity
8
0
100
AcDbLine
62
7
6
CONTINUOUS
10
70.6756879819
20
186.2676551301
11
84.3168688889
21
183.1183403693
0
LINE
5
235
100
AcDbEntity
8
0
100
AcDbLine
62
7
6
CONTINUOUS
10
153.2557836255
20
200.7560995640
11
132.5378373479
21
200.7560995640
0
LINE
5
236
100
AcDbEntity
8
DEFAULT_1
100
AcDbLine
62
2
6
CENTER
10
111.6174562368
20
215.7560995640
11
80.0930218949
21
215.7560995640
0
LINE
5
237
100
AcDbEntity
8
DEFAULT_1
100
AcDbLine
62
2
6
CENTER
10
111.6174562368
20
215.7560995640
11
139.4121506267
21
215.7560995640
0
LINE
5
238
100
AcDbEntity
8
0
100
AcDbLine
62
7
6
CONTINUOUS
10
153.2557836255
20
230.7560995640
11
132.5378373479
21
230.7560995640
0
LINE
5
239
100
AcDbEntity
8
0
100
AcDbLine
62
7
6
CONTINUOUS
10
304.2187920293
20
30.6564812572
11
295.3771299929
21
29.2560995640
0
LINE
5
23A
100
AcDbEntity
8
0
100
AcDbLine
62
7
6
CONTINUOUS
10
295.3771299929
20
29.2560995640
11
286.5354679566
21
30.6564812572
0
LINE
5
23B
100
AcDbEntity
8
DEFAULT_2
100
AcDbLine
62
8
6
HIDDEN
10
295.3771299929
20
65.7560995640
11
287.1256542726
21
64.4491942002
0
LINE
5
23C
100
AcDbEntity
8
DEFAULT_2
100
AcDbLine
62
8
6
HIDDEN
10
303.6286057132
20
64.4491942002
11
295.3771299929
21
65.7560995640
0
LINE
5
23D
100
AcDbEntity
8
0
100
AcDbLine
62
7
6
CONTINUOUS
10
280.9243734580
20
53.6396950922
11
280.9243248300
21
53.6398196959
0
LINE
5
23E
100
AcDbEntity
8
0
100
AcDbLine
62
7
6
CONTINUOUS
10
277.6019712823
20
186.2676551301
11
276.3771299929
21
183.1183403693
0
POLYLINE
5
23F
100
AcDbEntity
8
0
100
AcDb2dPolyline
62
7
6
CONTINUOUS
66
1
70
0
0
VERTEX
5
240
100
AcDbEntity
8
0
100
AcDbVertex
62
7
6
CONTINUOUS
100
AcDb2dVertex
10
281.7292706174
20
110.6408728260
0
VERTEX
5
241
100
AcDbEntity
8
0
100
AcDbVertex
62
7
6
CONTINUOUS
100
AcDb2dVertex
10
282.0159572260
20
110.6685123851
0
VERTEX
5
242
100
AcDbEntity
8
0
100
AcDbVertex
62
7
6
CONTINUOUS
100
AcDb2dVertex
10
282.2830798383
20
110.7441353121
0
VERTEX
5
243
100
AcDbEntity
8
0
100
AcDbVertex
62
7
6
CONTINUOUS
100
AcDb2dVertex
10
282.5348383311
20
110.8703486477
0
VERTEX
5
244
100
AcDbEntity
8
0
100
AcDbVertex
62
7
6
CONTINUOUS
100
AcDb2dVertex
10
282.7586330742
20
111.0393312698
0
VERTEX
5
245
100
AcDbEntity
8
0
100
AcDbVertex
62
7
6
CONTINUOUS
100
AcDb2dVertex
10
282.9418644376
20
111.2432620566
0
VERTEX
5
246
100
AcDbEntity
8
0
100
AcDbVertex
62
7
6
CONTINUOUS
100
AcDb2dVertex
10
283.0887322979
20
111.4847480486
0
SEQEND
5
247
100
AcDbEntity
8
0
0
LINE
5
248
100
AcDbEntity
8
0
100
AcDbLine
62
7
6
CONTINUOUS
10
309.9307246162
20
110.6408728260
11
309.0249893684
21
110.6408728260
0
LINE
5
249
100
AcDbEntity
8
0
100
AcDbLine
62
7
6
CONTINUOUS
10
280.8235353696
20
110.6408728260
11
281.7292706174
21
110.6408728260
0
POLYLINE
5
24A
100
AcDbEntity
8
0
100
AcDb2dPolyline
62
7
6
CONTINUOUS
66
1
70
0
0
VERTEX
5
24B
100
AcDbEntity
8
0
100
AcDbVertex
62
7
6
CONTINUOUS
100
AcDb2dVertex
10
309.0249893684
20
110.6408728260
0
VERTEX
5
24C
100
AcDbEntity
8
0
100
AcDbVertex
62
7
6
CONTINUOUS
100
AcDb2dVertex
10
308.7383027598
20
110.6685123851
0
VERTEX
5
24D
100
AcDbEntity
8
0
100
AcDbVertex
62
7
6
CONTINUOUS
100
AcDb2dVertex
10
308.4711801475
20
110.7441353121
0
VERTEX
5
24E
100
AcDbEntity
8
0
100
AcDbVertex
62
7
6
CONTINUOUS
100
AcDb2dVertex
10
308.2194216547
20
110.8703486477
0
VERTEX
5
24F
100
AcDbEntity
8
0
100
AcDbVertex
62
7
6
CONTINUOUS
100
AcDb2dVertex
10
307.9956269116
20
111.0393312698
0
VERTEX
5
250
100
AcDbEntity
8
0
100
AcDbVertex
62
7
6
CONTINUOUS
100
AcDb2dVertex
10
307.8123955483
20
111.2432620566
0
VERTEX
5
251
100
AcDbEntity
8
0
100
AcDbVertex
62
7
6
CONTINUOUS
100
AcDb2dVertex
10
307.6655276879
20
111.4847480486
0
SEQEND
5
252
100
AcDbEntity
8
0
0
LINE
5
253
100
AcDbEntity
8
0
100
AcDbLine
62
7
6
CONTINUOUS
10
272.3771299929
20
146.2056744916
11
272.3771299929
21
197.6867916121
0
LINE
5
254
100
AcDbEntity
8
0
100
AcDbLine
62
7
6
CONTINUOUS
10
293.6638469244
20
119.2560995640
11
297.0904130614
21
119.2560995640
0
LINE
5
255
100
AcDbEntity
8
0
100
AcDbLine
62
7
6
CONTINUOUS
10
293.3771299929
20
122.3333136035
11
297.3771299929
21
122.3333136035
0
LINE
5
256
100
AcDbEntity
8
0
100
AcDbLine
62
7
6
CONTINUOUS
10
273.3993552042
20
138.4411031386
11
276.0518493817
21
128.5418601015
0
LINE
5
257
100
AcDbEntity
8
0
100
AcDbLine
62
7
6
CONTINUOUS
10
285.1114907743
20
80.5062889624
11
285.4921607991
21
78.9982656835
0
LINE
5
258
100
AcDbEntity
8
0
100
AcDbLine
62
7
6
CONTINUOUS
10
279.7939890655
20
111.0149555752
11
276.2734931879
21
126.4612024469
0
LINE
5
259
100
AcDbEntity
8
0
100
AcDbLine
62
7
6
CONTINUOUS
10
286.4191176334
20
30.9999179612
11
283.2959982071
21
50.3685208832
0
LINE
5
25A
100
AcDbEntity
8
0
100
AcDbLine
62
7
6
CONTINUOUS
10
277.9771299929
20
137.6666400166
11
277.9986146917
21
137.4223162541
0
LINE
5
25B
100
AcDbEntity
8
0
100
AcDbLine
62
7
6
CONTINUOUS
10
277.9790696355
20
131.0452063145
11
277.9771299929
21
131.1188731813
0
LINE
5
25C
100
AcDbEntity
8
0
100
AcDbLine
62
7
6
CONTINUOUS
10
276.0577109380
20
128.2260253006
11
275.3471181910
21
166.5144778069
0
LINE
5
25D
100
AcDbEntity
8
0
100
AcDbLine
62
7
6
CONTINUOUS
10
276.9895506376
20
146.6773283658
11
276.9895506376
21
148.6413053527
0
LINE
5
25E
100
AcDbEntity
8
0
100
AcDbLine
62
7
6
CONTINUOUS
10
280.3771299929
20
108.7363246500
11
280.3771299929
21
58.3929157533
0
LINE
5
25F
100
AcDbEntity
8
0
100
AcDbLine
62
7
6
CONTINUOUS
10
280.6176430120
20
102.3698166481
11
280.6176430120
21
103.5295098589
0
LINE
5
260
100
AcDbEntity
8
0
100
AcDbLine
62
7
6
CONTINUOUS
10
277.9925009129
20
125.1589558238
11
277.9833663757
21
124.9832158078
0
LINE
5
261
100
AcDbEntity
8
0
100
AcDbLine
62
7
6
CONTINUOUS
10
279.7939890655
20
111.0149555752
11
280.1409820913
21
109.2755838327
0
LINE
5
262
100
AcDbEntity
8
0
100
AcDbLine
62
7
6
CONTINUOUS
10
278.2510717104
20
123.4511325373
11
280.7648652264
21
110.8502412131
0
LINE
5
263
100
AcDbEntity
8
0
100
AcDbLine
62
7
6
CONTINUOUS
10
283.8496252043
20
87.8708626493
11
284.8257027680
21
82.0111449320
0
LINE
5
264
100
AcDbEntity
8
0
100
AcDbLine
62
7
6
CONTINUOUS
10
283.8495834931
20
87.8711132156
11
283.8496252079
21
87.8708626278
0
POLYLINE
5
265
100
AcDbEntity
8
0
100
AcDb2dPolyline
62
7
6
CONTINUOUS
66
1
70
0
0
VERTEX
5
266
100
AcDbEntity
8
0
100
AcDbVertex
62
7
6
CONTINUOUS
100
AcDb2dVertex
10
288.9091299929
20
134.5405701790
0
VERTEX
5
267
100
AcDbEntity
8
0
100
AcDbVertex
62
7
6
CONTINUOUS
100
AcDb2dVertex
10
288.9452544166
20
134.1991770840
0
VERTEX
5
268
100
AcDbEntity
8
0
100
AcDbVertex
62
7
6
CONTINUOUS
100
AcDb2dVertex
10
289.0434064976
20
133.8828181837
0
VERTEX
5
269
100
AcDbEntity
8
0
100
AcDbVertex
62
7
6
CONTINUOUS
100
AcDb2dVertex
10
289.2072246716
20
133.5861877367
0
VERTEX
5
26A
100
AcDbEntity
8
0
100
AcDbVertex
62
7
6
CONTINUOUS
100
AcDb2dVertex
10
289.4257936309
20
133.3252029671
0
VERTEX
5
26B
100
AcDbEntity
8
0
100
AcDbVertex
62
7
6
CONTINUOUS
100
AcDb2dVertex
10
289.6936433720
20
133.1122359160
0
VERTEX
5
26C
100
AcDbEntity
8
0
100
AcDbVertex
62
7
6
CONTINUOUS
100
AcDb2dVertex
10
289.9980764182
20
132.9526163912
0
VERTEX
5
26D
100
AcDbEntity
8
0
100
AcDbVertex
62
7
6
CONTINUOUS
100
AcDb2dVertex
10
290.3227568571
20
132.8569799418
0
VERTEX
5
26E
100
AcDbEntity
8
0
100
AcDbVertex
62
7
6
CONTINUOUS
100
AcDb2dVertex
10
290.6731299929
20
132.8217813847
0
SEQEND
5
26F
100
AcDbEntity
8
0
0
POLYLINE
5
270
100
AcDbEntity
8
0
100
AcDb2dPolyline
62
7
6
CONTINUOUS
66
1
70
0
0
VERTEX
5
271
100
AcDbEntity
8
0
100
AcDbVertex
62
7
6
CONTINUOUS
100
AcDb2dVertex
10
288.9091299929
20
134.4271948476
0
VERTEX
5
272
100
AcDbEntity
8
0
100
AcDbVertex
62
7
6
CONTINUOUS
100
AcDb2dVertex
10
288.9317704691
20
134.1551284753
0
VERTEX
5
273
100
AcDbEntity
8
0
100
AcDbVertex
62
7
6
CONTINUOUS
100
AcDb2dVertex
10
288.9954662982
20
133.8960599004
0
VERTEX
5
274
100
AcDbEntity
8
0
100
AcDbVertex
62
7
6
CONTINUOUS
100
AcDb2dVertex
10
289.1017503760
20
133.6470577522
0
VERTEX
5
275
100
AcDbEntity
8
0
100
AcDbVertex
62
7
6
CONTINUOUS
100
AcDb2dVertex
10
289.2460240148
20
133.4169161425
0
VERTEX
5
276
100
AcDbEntity
8
0
100
AcDbVertex
62
7
6
CONTINUOUS
100
AcDb2dVertex
10
289.4260760682
20
133.2121028342
0
VERTEX
5
277
100
AcDbEntity
8
0
100
AcDbVertex
62
7
6
CONTINUOUS
100
AcDb2dVertex
10
289.6362768079
20
133.0366655033
0
VERTEX
5
278
100
AcDbEntity
8
0
100
AcDbVertex
62
7
6
CONTINUOUS
100
AcDb2dVertex
10
289.8724720873
20
132.8960895884
0
VERTEX
5
279
100
AcDbEntity
8
0
100
AcDbVertex
62
7
6
CONTINUOUS
100
AcDb2dVertex
10
290.1280240148
20
132.7925295646
0
VERTEX
5
27A
100
AcDbEntity
8
0
100
AcDbVertex
62
7
6
CONTINUOUS
100
AcDb2dVertex
10
290.3939071575
20
132.7304662555
0
VERTEX
5
27B
100
AcDbEntity
8
0
100
AcDbVertex
62
7
6
CONTINUOUS
100
AcDb2dVertex
10
290.6731299929
20
132.7084060533
0
SEQEND
5
27C
100
AcDbEntity
8
0
0
LINE
5
27D
100
AcDbEntity
8
0
100
AcDbLine
62
7
6
CONTINUOUS
10
281.9808535133
20
128.0353903300
11
281.9771299929
21
128.1374261342
0
LINE
5
27E
100
AcDbEntity
8
0
100
AcDbLine
62
7
6
CONTINUOUS
10
284.3771299929
20
198.4535037374
11
284.3771299929
21
260.0137045775
0
LINE
5
27F
100
AcDbEntity
8
0
100
AcDbLine
62
7
6
CONTINUOUS
10
285.3771299929
20
155.3666528377
11
285.3771299929
21
177.7749086554
0
LINE
5
280
100
AcDbEntity
8
0
100
AcDbLine
62
7
6
CONTINUOUS
10
286.3771299929
20
158.8515134695
11
286.3771299929
21
177.7749086554
0
LINE
5
281
100
AcDbEntity
8
0
100
AcDbLine
62
7
6
CONTINUOUS
10
287.1451299929
20
147.0316460056
11
287.1451299929
21
148.2908805332
0
LINE
5
282
100
AcDbEntity
8
0
100
AcDbLine
62
7
6
CONTINUOUS
10
292.0696299929
20
151.9966378675
11
291.8981299111
21
151.8259780076
0
LINE
5
283
100
AcDbEntity
8
0
100
AcDbLine
62
7
6
CONTINUOUS
10
291.8981299111
20
151.8259780076
11
291.6408799111
21
151.7406480776
0
POLYLINE
5
284
100
AcDbEntity
8
0
100
AcDb2dPolyline
62
7
6
CONTINUOUS
66
1
70
0
0
VERTEX
5
285
100
AcDbEntity
8
0
100
AcDbVertex
62
7
6
CONTINUOUS
100
AcDb2dVertex
10
300.0811299929
20
132.8217813847
0
VERTEX
5
286
100
AcDbEntity
8
0
100
AcDbVertex
62
7
6
CONTINUOUS
100
AcDb2dVertex
10
300.4315031287
20
132.8569799418
0
VERTEX
5
287
100
AcDbEntity
8
0
100
AcDbVertex
62
7
6
CONTINUOUS
100
AcDb2dVertex
10
300.7561835676
20
132.9526163912
0
VERTEX
5
288
100
AcDbEntity
8
0
100
AcDbVertex
62
7
6
CONTINUOUS
100
AcDb2dVertex
10
301.0606166138
20
133.1122359160
0
VERTEX
5
289
100
AcDbEntity
8
0
100
AcDbVertex
62
7
6
CONTINUOUS
100
AcDb2dVertex
10
301.3284663549
20
133.3252029671
0
VERTEX
5
28A
100
AcDbEntity
8
0
100
AcDbVertex
62
7
6
CONTINUOUS
100
AcDb2dVertex
10
301.5470353143
20
133.5861877367
0
VERTEX
5
28B
100
AcDbEntity
8
0
100
AcDbVertex
62
7
6
CONTINUOUS
100
AcDb2dVertex
10
301.7108534883
20
133.8828181837
0
VERTEX
5
28C
100
AcDbEntity
8
0
100
AcDbVertex
62
7
6
CONTINUOUS
100
AcDb2dVertex
10
301.8090055692
20
134.1991770840
0
VERTEX
5
28D
100
AcDbEntity
8
0
100
AcDbVertex
62
7
6
CONTINUOUS
100
AcDb2dVertex
10
301.8451299929
20
134.5405701790
0
SEQEND
5
28E
100
AcDbEntity
8
0
0
POLYLINE
5
28F
100
AcDbEntity
8
0
100
AcDb2dPolyline
62
7
6
CONTINUOUS
66
1
70
0
0
VERTEX
5
290
100
AcDbEntity
8
0
100
AcDbVertex
62
7
6
CONTINUOUS
100
AcDb2dVertex
10
297.0235299929
20
132.7084060533
0
VERTEX
5
291
100
AcDbEntity
8
0
100
AcDbVertex
62
7
6
CONTINUOUS
100
AcDb2dVertex
10
296.8133061114
20
132.6872869190
0
VERTEX
5
292
100
AcDbEntity
8
0
100
AcDbVertex
62
7
6
CONTINUOUS
100
AcDb2dVertex
10
296.6184978481
20
132.6299050494
0
VERTEX
5
293
100
AcDbEntity
8
0
100
AcDbVertex
62
7
6
CONTINUOUS
100
AcDb2dVertex
10
296.4358380203
20
132.5341333345
0
VERTEX
5
294
100
AcDbEntity
8
0
100
AcDbVertex
62
7
6
CONTINUOUS
100
AcDb2dVertex
10
296.2751281757
20
132.4063531038
0
VERTEX
5
295
100
AcDbEntity
8
0
100
AcDbVertex
62
7
6
CONTINUOUS
100
AcDb2dVertex
10
296.1439868001
20
132.2497622421
0
VERTEX
5
296
100
AcDbEntity
8
0
100
AcDbVertex
62
7
6
CONTINUOUS
100
AcDb2dVertex
10
296.0456958957
20
132.0717839739
0
VERTEX
5
297
100
AcDbEntity
8
0
100
AcDbVertex
62
7
6
CONTINUOUS
100
AcDb2dVertex
10
295.9868046472
20
131.8819686337
0
VERTEX
5
298
100
AcDbEntity
8
0
100
AcDbVertex
62
7
6
CONTINUOUS
100
AcDb2dVertex
10
295.9769939371
20
131.7892527279
0
SEQEND
5
299
100
AcDbEntity
8
0
0
POLYLINE
5
29A
100
AcDbEntity
8
0
100
AcDb2dPolyline
62
7
6
CONTINUOUS
66
1
70
0
0
VERTEX
5
29B
100
AcDbEntity
8
0
100
AcDbVertex
62
7
6
CONTINUOUS
100
AcDb2dVertex
10
300.0811299929
20
132.7084060533
0
VERTEX
5
29C
100
AcDbEntity
8
0
100
AcDbVertex
62
7
6
CONTINUOUS
100
AcDb2dVertex
10
300.3603528283
20
132.7304662555
0
VERTEX
5
29D
100
AcDbEntity
8
0
100
AcDbVertex
62
7
6
CONTINUOUS
100
AcDb2dVertex
10
300.6262359710
20
132.7925295646
0
VERTEX
5
29E
100
AcDbEntity
8
0
100
AcDbVertex
62
7
6
CONTINUOUS
100
AcDb2dVertex
10
300.8817878985
20
132.8960895884
0
VERTEX
5
29F
100
AcDbEntity
8
0
100
AcDbVertex
62
7
6
CONTINUOUS
100
AcDb2dVertex
10
301.1179831780
20
133.0366655033
0
VERTEX
5
2A0
100
AcDbEntity
8
0
100
AcDbVertex
62
7
6
CONTINUOUS
100
AcDb2dVertex
10
301.3281839176
20
133.2121028342
0
VERTEX
5
2A1
100
AcDbEntity
8
0
100
AcDbVertex
62
7
6
CONTINUOUS
100
AcDb2dVertex
10
301.5082359710
20
133.4169161425
0
VERTEX
5
2A2
100
AcDbEntity
8
0
100
AcDbVertex
62
7
6
CONTINUOUS
100
AcDb2dVertex
10
301.6525096098
20
133.6470577522
0
VERTEX
5
2A3
100
AcDbEntity
8
0
100
AcDbVertex
62
7
6
CONTINUOUS
100
AcDb2dVertex
10
301.7587936877
20
133.8960599004
0
VERTEX
5
2A4
100
AcDbEntity
8
0
100
AcDbVertex
62
7
6
CONTINUOUS
100
AcDb2dVertex
10
301.8224895167
20
134.1551284753
0
VERTEX
5
2A5
100
AcDbEntity
8
0
100
AcDbVertex
62
7
6
CONTINUOUS
100
AcDb2dVertex
10
301.8451299929
20
134.4271948476
0
SEQEND
5
2A6
100
AcDbEntity
8
0
0
POLYLINE
5
2A7
100
AcDbEntity
8
0
100
AcDb2dPolyline
62
7
6
CONTINUOUS
66
1
70
0
0
VERTEX
5
2A8
100
AcDbEntity
8
0
100
AcDbVertex
62
7
6
CONTINUOUS
100
AcDb2dVertex
10
297.0235299929
20
133.9676405809
0
VERTEX
5
2A9
100
AcDbEntity
8
0
100
AcDbVertex
62
7
6
CONTINUOUS
100
AcDb2dVertex
10
296.7131747116
20
133.9462409600
0
VERTEX
5
2AA
100
AcDbEntity
8
0
100
AcDbVertex
62
7
6
CONTINUOUS
100
AcDb2dVertex
10
296.4143577699
20
133.8851663871
0
VERTEX
5
2AB
100
AcDbEntity
8
0
100
AcDbVertex
62
7
6
CONTINUOUS
100
AcDb2dVertex
10
296.1244131308
20
133.7832748421
0
VERTEX
5
2AC
100
AcDbEntity
8
0
100
AcDbVertex
62
7
6
CONTINUOUS
100
AcDb2dVertex
10
295.8513389055
20
133.6439923852
0
VERTEX
5
2AD
100
AcDbEntity
8
0
100
AcDbVertex
62
7
6
CONTINUOUS
100
AcDb2dVertex
10
295.6031332053
20
133.4707450764
0
VERTEX
5
2AE
100
AcDbEntity
8
0
100
AcDbVertex
62
7
6
CONTINUOUS
100
AcDb2dVertex
10
295.3771299929
20
133.2623908959
0
SEQEND
5
2AF
100
AcDbEntity
8
0
0
LINE
5
2B0
100
AcDbEntity
8
0
100
AcDbLine
62
7
6
CONTINUOUS
10
294.7891299929
20
131.4106150753
11
295.9651299929
21
131.4106150753
0
LINE
5
2B1
100
AcDbEntity
8
0
100
AcDbLine
62
7
6
CONTINUOUS
10
294.7891299929
20
131.5239904067
11
295.9651299929
21
131.5239904067
0
LINE
5
2B2
100
AcDbEntity
8
0
100
AcDbLine
62
7
6
CONTINUOUS
10
290.6731299929
20
132.7084060533
11
293.7307299929
21
132.7084060533
0
LINE
5
2B3
100
AcDbEntity
8
0
100
AcDbLine
62
7
6
CONTINUOUS
10
297.0235299929
20
132.7084060533
11
300.0811299929
21
132.7084060533
0
LINE
5
2B4
100
AcDbEntity
8
0
100
AcDbLine
62
7
6
CONTINUOUS
10
290.6731299929
20
132.8217813847
11
293.7307299929
21
132.8217813847
0
LINE
5
2B5
100
AcDbEntity
8
0
100
AcDbLine
62
7
6
CONTINUOUS
10
297.0235299929
20
132.8217813847
11
300.0811299929
21
132.8217813847
0
LINE
5
2B6
100
AcDbEntity
8
0
100
AcDbLine
62
7
6
CONTINUOUS
10
300.0811299929
20
133.9676405809
11
297.0235299929
21
133.9676405809
0
LINE
5
2B7
100
AcDbEntity
8
0
100
AcDbLine
62
7
6
CONTINUOUS
10
293.7307299929
20
133.9676405809
11
290.6731299929
21
133.9676405809
0
LINE
5
2B8
100
AcDbEntity
8
0
100
AcDbLine
62
7
6
CONTINUOUS
10
293.2603299929
20
135.0001244457
11
297.4939299929
21
135.0001244457
0
LINE
5
2B9
100
AcDbEntity
8
0
100
AcDbLine
62
7
6
CONTINUOUS
10
293.2603299929
20
135.1134997771
11
297.4939299929
21
135.1134997771
0
LINE
5
2BA
100
AcDbEntity
8
0
100
AcDbLine
62
7
6
CONTINUOUS
10
296.5531299929
20
136.0301871340
11
294.2011299929
21
136.0301871340
0
LINE
5
2BB
100
AcDbEntity
8
0
100
AcDbLine
62
7
6
CONTINUOUS
10
294.9067299929
20
137.7501865165
11
295.8475299929
21
137.7501865165
0
LINE
5
2BC
100
AcDbEntity
8
0
100
AcDbLine
62
7
6
CONTINUOUS
10
294.9067299929
20
137.8635618479
11
295.8475299929
21
137.8635618479
0
LINE
5
2BD
100
AcDbEntity
8
0
100
AcDbLine
62
7
6
CONTINUOUS
10
294.2011299929
20
138.6668738735
11
294.9067299929
21
138.6668738735
0
LINE
5
2BE
100
AcDbEntity
8
0
100
AcDbLine
62
7
6
CONTINUOUS
10
295.8475299929
20
138.6668738735
11
296.5531299929
21
138.6668738735
0
POLYLINE
5
2BF
100
AcDbEntity
8
0
100
AcDb2dPolyline
62
7
6
CONTINUOUS
66
1
70
0
0
VERTEX
5
2C0
100
AcDbEntity
8
0
100
AcDbVertex
62
7
6
CONTINUOUS
100
AcDb2dVertex
10
293.7307299929
20
132.8217813847
0
VERTEX
5
2C1
100
AcDbEntity
8
0
100
AcDbVertex
62
7
6
CONTINUOUS
100
AcDb2dVertex
10
294.0130548320
20
132.7826126488
0
VERTEX
5
2C2
100
AcDbEntity
8
0
100
AcDbVertex
62
7
6
CONTINUOUS
100
AcDb2dVertex
10
294.2599299929
20
132.6836169639
0
VERTEX
5
2C3
100
AcDbEntity
8
0
100
AcDbVertex
62
7
6
CONTINUOUS
100
AcDb2dVertex
10
294.4778432171
20
132.5184728687
0
VERTEX
5
2C4
100
AcDbEntity
8
0
100
AcDbVertex
62
7
6
CONTINUOUS
100
AcDb2dVertex
10
294.6473312803
20
132.3061447464
0
VERTEX
5
2C5
100
AcDbEntity
8
0
100
AcDbVertex
62
7
6
CONTINUOUS
100
AcDb2dVertex
10
294.7489309584
20
132.0655969799
0
VERTEX
5
2C6
100
AcDbEntity
8
0
100
AcDbVertex
62
7
6
CONTINUOUS
100
AcDb2dVertex
10
294.7891299929
20
131.7905081081
0
SEQEND
5
2C7
100
AcDbEntity
8
0
0
POLYLINE
5
2C8
100
AcDbEntity
8
0
100
AcDb2dPolyline
62
7
6
CONTINUOUS
66
1
70
0
0
VERTEX
5
2C9
100
AcDbEntity
8
0
100
AcDbVertex
62
7
6
CONTINUOUS
100
AcDb2dVertex
10
290.6731299929
20
133.9676405809
0
VERTEX
5
2CA
100
AcDbEntity
8
0
100
AcDbVertex
62
7
6
CONTINUOUS
100
AcDb2dVertex
10
290.5162828601
20
133.9894009897
0
VERTEX
5
2CB
100
AcDbEntity
8
0
100
AcDbVertex
62
7
6
CONTINUOUS
100
AcDb2dVertex
10
290.3791299929
20
134.0443985924
0
VERTEX
5
2CC
100
AcDbEntity
8
0
100
AcDbVertex
62
7
6
CONTINUOUS
100
AcDb2dVertex
10
290.2580670906
20
134.1361453120
0
VERTEX
5
2CD
100
AcDbEntity
8
0
100
AcDbVertex
62
7
6
CONTINUOUS
100
AcDb2dVertex
10
290.1639070555
20
134.2541053799
0
VERTEX
5
2CE
100
AcDbEntity
8
0
100
AcDbVertex
62
7
6
CONTINUOUS
100
AcDb2dVertex
10
290.1074627898
20
134.3877430280
0
SEQEND
5
2CF
100
AcDbEntity
8
0
0
POLYLINE
5
2D0
100
AcDbEntity
8
0
100
AcDb2dPolyline
62
7
6
CONTINUOUS
66
1
70
0
0
VERTEX
5
2D1
100
AcDbEntity
8
0
100
AcDbVertex
62
7
6
CONTINUOUS
100
AcDb2dVertex
10
295.3771299929
20
133.2623908959
0
VERTEX
5
2D2
100
AcDbEntity
8
0
100
AcDbVertex
62
7
6
CONTINUOUS
100
AcDb2dVertex
10
295.1511267806
20
133.4707450764
0
VERTEX
5
2D3
100
AcDbEntity
8
0
100
AcDbVertex
62
7
6
CONTINUOUS
100
AcDb2dVertex
10
294.9029210803
20
133.6439923852
0
VERTEX
5
2D4
100
AcDbEntity
8
0
100
AcDbVertex
62
7
6
CONTINUOUS
100
AcDb2dVertex
10
294.6298468550
20
133.7832748421
0
VERTEX
5
2D5
100
AcDbEntity
8
0
100
AcDbVertex
62
7
6
CONTINUOUS
100
AcDb2dVertex
10
294.3399022160
20
133.8851663871
0
VERTEX
5
2D6
100
AcDbEntity
8
0
100
AcDbVertex
62
7
6
CONTINUOUS
100
AcDb2dVertex
10
294.0410852743
20
133.9462409600
0
VERTEX
5
2D7
100
AcDbEntity
8
0
100
AcDbVertex
62
7
6
CONTINUOUS
100
AcDb2dVertex
10
293.7307299929
20
133.9676405809
0
SEQEND
5
2D8
100
AcDbEntity
8
0
0
POLYLINE
5
2D9
100
AcDbEntity
8
0
100
AcDb2dPolyline
62
7
6
CONTINUOUS
66
1
70
0
0
VERTEX
5
2DA
100
AcDbEntity
8
0
100
AcDbVertex
62
7
6
CONTINUOUS
100
AcDb2dVertex
10
290.0851299929
20
145.9991621408
0
VERTEX
5
2DB
100
AcDbEntity
8
0
100
AcDbVertex
62
7
6
CONTINUOUS
100
AcDb2dVertex
10
290.0760612387
20
146.1996499511
0
VERTEX
5
2DC
100
AcDbEntity
8
0
100
AcDbVertex
62
7
6
CONTINUOUS
100
AcDb2dVertex
10
290.0493978280
20
146.3971148634
0
VERTEX
5
2DD
100
AcDbEntity
8
0
100
AcDbVertex
62
7
6
CONTINUOUS
100
AcDb2dVertex
10
290.0049382531
20
146.5922896398
0
VERTEX
5
2DE
100
AcDbEntity
8
0
100
AcDbVertex
62
7
6
CONTINUOUS
100
AcDb2dVertex
10
289.9432870370
20
146.7829759939
0
VERTEX
5
2DF
100
AcDbEntity
8
0
100
AcDbVertex
62
7
6
CONTINUOUS
100
AcDb2dVertex
10
289.8650487027
20
146.9669756388
0
VERTEX
5
2E0
100
AcDbEntity
8
0
100
AcDbVertex
62
7
6
CONTINUOUS
100
AcDb2dVertex
10
289.7700217426
20
147.1450213370
0
SEQEND
5
2E1
100
AcDbEntity
8
0
0
LINE
5
2E2
100
AcDbEntity
8
0
100
AcDbLine
62
7
6
CONTINUOUS
10
288.9091299929
20
145.9991621408
11
288.9091299929
21
134.5405701790
0
LINE
5
2E3
100
AcDbEntity
8
0
100
AcDbLine
62
7
6
CONTINUOUS
10
289.4971299929
20
149.3247423287
11
289.4971299929
21
153.4472469160
0
LINE
5
2E4
100
AcDbEntity
8
0
100
AcDbLine
62
7
6
CONTINUOUS
10
290.0116299929
20
149.3247423287
11
290.0116299929
21
151.2286684978
0
LINE
5
2E5
100
AcDbEntity
8
0
100
AcDbLine
62
7
6
CONTINUOUS
10
290.0116299929
20
151.7406480776
11
290.0116299929
21
153.0205972662
0
LINE
5
2E6
100
AcDbEntity
8
0
100
AcDbLine
62
7
6
CONTINUOUS
10
290.0851299929
20
134.5405701790
11
290.0851299929
21
145.9991621408
0
LINE
5
2E7
100
AcDbEntity
8
0
100
AcDbLine
62
7
6
CONTINUOUS
10
291.4693799520
20
151.1334392718
11
291.4693799520
21
151.2286684978
0
LINE
5
2E8
100
AcDbEntity
8
0
100
AcDbLine
62
7
6
CONTINUOUS
10
291.6408799111
20
152.9612826134
11
291.6408799111
21
153.0205972662
0
LINE
5
2E9
100
AcDbEntity
8
0
100
AcDbLine
62
7
6
CONTINUOUS
10
291.8981299111
20
152.8738053795
11
291.8981299111
21
152.9352673362
0
LINE
5
2EA
100
AcDbEntity
8
0
100
AcDbLine
62
7
6
CONTINUOUS
10
292.1553799111
20
152.5086176864
11
292.1553799111
21
152.2526276574
0
LINE
5
2EB
100
AcDbEntity
8
0
100
AcDbLine
62
7
6
CONTINUOUS
10
292.1553799111
20
149.3247423287
11
292.1553799111
21
149.4367397294
0
LINE
5
2EC
100
AcDbEntity
8
0
100
AcDbLine
62
7
6
CONTINUOUS
10
292.3268799929
20
151.4801183860
11
292.3268799929
21
151.5699882177
0
LINE
5
2ED
100
AcDbEntity
8
0
100
AcDbLine
62
7
6
CONTINUOUS
10
292.5841299929
20
151.8274930360
11
292.5841299929
21
151.9113079376
0
LINE
5
2EE
100
AcDbEntity
8
0
100
AcDbLine
62
7
6
CONTINUOUS
10
292.6698799111
20
152.1672977275
11
292.6698799111
21
152.5086176864
0
LINE
5
2EF
100
AcDbEntity
8
0
100
AcDbLine
62
7
6
CONTINUOUS
10
292.7556300747
20
149.3247423287
11
292.7556300747
21
149.4367397294
0
LINE
5
2F0
100
AcDbEntity
8
0
100
AcDbLine
62
7
6
CONTINUOUS
10
293.2603299929
20
135.0001244457
11
293.2603299929
21
139.6969365618
0
LINE
5
2F1
100
AcDbEntity
8
0
100
AcDbLine
62
7
6
CONTINUOUS
10
293.2603299929
20
140.7294204266
11
293.2603299929
21
145.4262325427
0
LINE
5
2F2
100
AcDbEntity
8
0
100
AcDbLine
62
7
6
CONTINUOUS
10
293.4416299111
20
153.4472469160
11
293.4416299111
21
150.8020187284
0
LINE
5
2F3
100
AcDbEntity
8
0
100
AcDbLine
62
7
6
CONTINUOUS
10
293.5273800747
20
150.2697765690
11
293.5273800747
21
150.3753690786
0
LINE
5
2F4
100
AcDbEntity
8
0
100
AcDbLine
62
7
6
CONTINUOUS
10
293.6988801565
20
149.9255230392
11
293.6988801565
21
150.0340492989
0
LINE
5
2F5
100
AcDbEntity
8
0
100
AcDbLine
62
7
6
CONTINUOUS
10
293.9561301565
20
150.8020187284
11
293.9561301565
21
153.4472469160
0
LINE
5
2F6
100
AcDbEntity
8
0
100
AcDbLine
62
7
6
CONTINUOUS
10
294.0418798294
20
149.5819607413
11
294.0418798294
21
149.6927295492
0
LINE
5
2F7
100
AcDbEntity
8
0
100
AcDbLine
62
7
6
CONTINUOUS
10
294.2011299929
20
136.0301871340
11
294.2011299929
21
138.7802492049
0
LINE
5
2F8
100
AcDbEntity
8
0
100
AcDbLine
62
7
6
CONTINUOUS
10
294.2011299929
20
141.7594831149
11
294.2011299929
21
144.5095451858
0
LINE
5
2F9
100
AcDbEntity
8
0
100
AcDbLine
62
7
6
CONTINUOUS
10
294.3848799929
20
149.4104386436
11
294.3848799929
21
149.5220696668
0
LINE
5
2FA
100
AcDbEntity
8
0
100
AcDbLine
62
7
6
CONTINUOUS
10
294.7891299929
20
131.4106150753
11
294.7891299929
21
131.7905081081
0
LINE
5
2FB
100
AcDbEntity
8
0
100
AcDbLine
62
7
6
CONTINUOUS
10
294.8136298294
20
149.3247423287
11
294.8136298294
21
149.4367397294
0
LINE
5
2FC
100
AcDbEntity
8
0
100
AcDbLine
62
7
6
CONTINUOUS
10
294.9067299929
20
142.6761704719
11
294.9067299929
21
141.7594831149
0
LINE
5
2FD
100
AcDbEntity
8
0
100
AcDbLine
62
7
6
CONTINUOUS
10
294.9067299929
20
140.8427957580
11
294.9067299929
21
139.6969365618
0
LINE
5
2FE
100
AcDbEntity
8
0
100
AcDbLine
62
7
6
CONTINUOUS
10
294.9067299929
20
137.7501865165
11
294.9067299929
21
138.7802492049
0
LINE
5
2FF
100
AcDbEntity
8
0
100
AcDbLine
62
7
6
CONTINUOUS
10
295.1566299929
20
149.3247423292
11
295.1566299929
21
149.4367397294
0
LINE
5
300
100
AcDbEntity
8
DEFAULT_1
100
AcDbLine
62
2
6
CENTER
10
295.3771299929
20
266.5946828551
11
295.3771299929
21
189.2740440107
0
LINE
5
301
100
AcDbEntity
8
DEFAULT_1
100
AcDbLine
62
2
6
CENTER
10
295.3771299929
20
156.8543680397
11
295.3771299929
21
24.5871670124
0
LINE
5
302
100
AcDbEntity
8
DEFAULT_1
100
AcDbLine
62
2
6
CENTER
10
295.3771299929
20
186.3445449358
11
295.3771299929
21
157.4258995919
0
LINE
5
303
100
AcDbEntity
8
0
100
AcDbLine
62
7
6
CONTINUOUS
10
295.3771299929
20
156.8543680397
11
295.3771299929
21
157.4258995919
0
LINE
5
304
100
AcDbEntity
8
0
100
AcDbLine
62
7
6
CONTINUOUS
10
295.3771299929
20
186.3445449358
11
295.3771299929
21
189.2740440107
0
LINE
5
305
100
AcDbEntity
8
0
100
AcDbLine
62
7
6
CONTINUOUS
10
295.5853798294
20
149.4104386521
11
295.5853798294
21
149.5220696668
0
LINE
5
306
100
AcDbEntity
8
0
100
AcDbLine
62
7
6
CONTINUOUS
10
295.8475299929
20
137.7501865165
11
295.8475299929
21
138.7802492049
0
LINE
5
307
100
AcDbEntity
8
0
100
AcDbLine
62
7
6
CONTINUOUS
10
295.8475299929
20
139.6969365618
11
295.8475299929
21
140.8427957580
0
LINE
5
308
100
AcDbEntity
8
0
100
AcDbLine
62
7
6
CONTINUOUS
10
295.8475299929
20
141.7594831149
11
295.8475299929
21
142.6761704719
0
LINE
5
309
100
AcDbEntity
8
0
100
AcDbLine
62
7
6
CONTINUOUS
10
295.9283799929
20
149.5819607555
11
295.9283799929
21
149.6927295492
0
LINE
5
30A
100
AcDbEntity
8
0
100
AcDbLine
62
7
6
CONTINUOUS
10
295.9651299929
20
131.4106150753
11
295.9651299929
21
131.7905081081
0
LINE
5
30B
100
AcDbEntity
8
0
100
AcDbLine
62
7
6
CONTINUOUS
10
296.0141301565
20
153.4472469160
11
296.0141301565
21
150.8020187284
0
LINE
5
30C
100
AcDbEntity
8
0
100
AcDbLine
62
7
6
CONTINUOUS
10
296.2713801565
20
149.9255230392
11
296.2713801565
21
150.0340492989
0
LINE
5
30D
100
AcDbEntity
8
0
100
AcDbLine
62
7
6
CONTINUOUS
10
296.4428799929
20
150.3753690786
11
296.5286301565
21
150.8020187284
0
LINE
5
30E
100
AcDbEntity
8
0
100
AcDbLine
62
7
6
CONTINUOUS
10
296.0141301565
20
150.8020187284
11
295.9283799929
21
150.4606990086
0
LINE
5
30F
100
AcDbEntity
8
0
100
AcDbLine
62
7
6
CONTINUOUS
10
280.8189527746
20
104.7824832376
11
280.8193998739
21
104.7838419772
0
LINE
5
310
100
AcDbEntity
8
0
100
AcDbLine
62
7
6
CONTINUOUS
10
292.1553799111
20
152.2526276574
11
292.0696299929
21
151.9966378675
0
LINE
5
311
100
AcDbEntity
8
0
100
AcDbLine
62
7
6
CONTINUOUS
10
292.5841299929
20
151.9113079376
11
292.6698799111
21
152.1672977275
0
LINE
5
312
100
AcDbEntity
8
0
100
AcDbLine
62
7
6
CONTINUOUS
10
280.8235353696
20
110.6408728260
11
280.5561568831
21
109.9660196630
0
LINE
5
313
100
AcDbEntity
8
0
100
AcDbLine
62
7
6
CONTINUOUS
10
296.2713801565
20
150.0340492989
11
296.4428799929
21
150.3753690786
0
LINE
5
314
100
AcDbEntity
8
0
100
AcDbLine
62
7
6
CONTINUOUS
10
295.9283799929
20
150.4606990086
11
295.7568801565
21
150.2047092186
0
LINE
5
315
100
AcDbEntity
8
0
100
AcDbLine
62
7
6
CONTINUOUS
10
292.3268799929
20
151.5699882177
11
292.5841299929
21
151.9113079376
0
LINE
5
316
100
AcDbEntity
8
0
100
AcDbLine
62
7
6
CONTINUOUS
10
295.9283799929
20
149.6927295492
11
296.2713801565
21
150.0340492989
0
LINE
5
317
100
AcDbEntity
8
0
100
AcDbLine
62
7
6
CONTINUOUS
10
300.0443799929
20
149.6927295492
11
300.3873796658
21
150.0340492989
0
LINE
5
318
100
AcDbEntity
8
0
100
AcDbLine
62
7
6
CONTINUOUS
10
295.7568801565
20
150.2047092186
11
295.4996301565
21
150.0340492989
0
LINE
5
319
100
AcDbEntity
8
0
100
AcDbLine
62
7
6
CONTINUOUS
10
299.8728796658
20
150.2047092186
11
299.6156296658
21
150.0340492989
0
LINE
5
31A
100
AcDbEntity
8
0
100
AcDbLine
62
7
6
CONTINUOUS
10
291.9838800747
20
151.3993283577
11
292.3268799929
21
151.5699882177
0
LINE
5
31B
100
AcDbEntity
8
0
100
AcDbLine
62
7
6
CONTINUOUS
10
295.5853798294
20
149.5220696668
11
295.9283799929
21
149.6927295492
0
LINE
5
31C
100
AcDbEntity
8
0
100
AcDbLine
62
7
6
CONTINUOUS
10
299.7013803200
20
149.5220696668
11
300.0443799929
21
149.6927295492
0
POLYLINE
5
31D
100
AcDbEntity
8
0
100
AcDb2dPolyline
62
7
6
CONTINUOUS
66
1
70
0
0
VERTEX
5
31E
100
AcDbEntity
8
0
100
AcDbVertex
62
7
6
CONTINUOUS
100
AcDb2dVertex
10
303.0211299929
20
147.0316460056
0
VERTEX
5
31F
100
AcDbEntity
8
0
100
AcDbVertex
62
7
6
CONTINUOUS
100
AcDb2dVertex
10
302.7875479024
20
147.0081803009
0
VERTEX
5
320
100
AcDbEntity
8
0
100
AcDbVertex
62
7
6
CONTINUOUS
100
AcDb2dVertex
10
302.5710942764
20
146.9444226679
0
VERTEX
5
321
100
AcDbEntity
8
0
100
AcDbVertex
62
7
6
CONTINUOUS
100
AcDb2dVertex
10
302.3681389123
20
146.8380096514
0
VERTEX
5
322
100
AcDbEntity
8
0
100
AcDbVertex
62
7
6
CONTINUOUS
100
AcDb2dVertex
10
302.1895724182
20
146.6960316174
0
VERTEX
5
323
100
AcDbEntity
8
0
100
AcDbVertex
62
7
6
CONTINUOUS
100
AcDb2dVertex
10
302.0438597787
20
146.5220417710
0
VERTEX
5
324
100
AcDbEntity
8
0
100
AcDbVertex
62
7
6
CONTINUOUS
100
AcDb2dVertex
10
301.9346476627
20
146.3242881396
0
VERTEX
5
325
100
AcDbEntity
8
0
100
AcDbVertex
62
7
6
CONTINUOUS
100
AcDb2dVertex
10
301.8692129421
20
146.1133822061
0
VERTEX
5
326
100
AcDbEntity
8
0
100
AcDbVertex
62
7
6
CONTINUOUS
100
AcDb2dVertex
10
301.8569939371
20
145.9979067606
0
SEQEND
5
327
100
AcDbEntity
8
0
0
POLYLINE
5
328
100
AcDbEntity
8
0
100
AcDb2dPolyline
62
7
6
CONTINUOUS
66
1
70
0
0
VERTEX
5
329
100
AcDbEntity
8
0
100
AcDbVertex
62
7
6
CONTINUOUS
100
AcDb2dVertex
10
313.7647093482
20
146.6773283658
0
VERTEX
5
32A
100
AcDbEntity
8
0
100
AcDbVertex
62
7
6
CONTINUOUS
100
AcDb2dVertex
10
312.9769942087
20
146.6132132967
0
VERTEX
5
32B
100
AcDbEntity
8
0
100
AcDbVertex
62
7
6
CONTINUOUS
100
AcDb2dVertex
10
312.1929603951
20
146.4972536918
0
VERTEX
5
32C
100
AcDbEntity
8
0
100
AcDbVertex
62
7
6
CONTINUOUS
100
AcDb2dVertex
10
311.4091650832
20
146.3288605962
0
VERTEX
5
32D
100
AcDbEntity
8
0
100
AcDbVertex
62
7
6
CONTINUOUS
100
AcDb2dVertex
10
310.6359367456
20
146.1098008742
0
VERTEX
5
32E
100
AcDbEntity
8
0
100
AcDbVertex
62
7
6
CONTINUOUS
100
AcDb2dVertex
10
309.8802995771
20
145.8400455517
0
VERTEX
5
32F
100
AcDbEntity
8
0
100
AcDbVertex
62
7
6
CONTINUOUS
100
AcDb2dVertex
10
309.1487235862
20
145.5243931886
0
VERTEX
5
330
100
AcDbEntity
8
0
100
AcDbVertex
62
7
6
CONTINUOUS
100
AcDb2dVertex
10
308.4519563083
20
145.1682718410
0
VERTEX
5
331
100
AcDbEntity
8
0
100
AcDbVertex
62
7
6
CONTINUOUS
100
AcDb2dVertex
10
307.7841893572
20
144.7697640467
0
VERTEX
5
332
100
AcDbEntity
8
0
100
AcDbVertex
62
7
6
CONTINUOUS
100
AcDb2dVertex
10
307.1462690365
20
144.3331174511
0
VERTEX
5
333
100
AcDbEntity
8
0
100
AcDbVertex
62
7
6
CONTINUOUS
100
AcDb2dVertex
10
306.5289788124
20
143.8452647877
0
VERTEX
5
334
100
AcDbEntity
8
0
100
AcDbVertex
62
7
6
CONTINUOUS
100
AcDb2dVertex
10
305.9221918875
20
143.2994775564
0
VERTEX
5
335
100
AcDbEntity
8
0
100
AcDbVertex
62
7
6
CONTINUOUS
100
AcDb2dVertex
10
305.3294853573
20
142.6809871031
0
VERTEX
5
336
100
AcDbEntity
8
0
100
AcDbVertex
62
7
6
CONTINUOUS
100
AcDb2dVertex
10
304.7459598958
20
141.9777475468
0
VERTEX
5
337
100
AcDbEntity
8
0
100
AcDbVertex
62
7
6
CONTINUOUS
100
AcDb2dVertex
10
304.1869179708
20
141.1748620677
0
VERTEX
5
338
100
AcDbEntity
8
0
100
AcDbVertex
62
7
6
CONTINUOUS
100
AcDb2dVertex
10
303.6545231926
20
140.2470480309
0
VERTEX
5
339
100
AcDbEntity
8
0
100
AcDbVertex
62
7
6
CONTINUOUS
100
AcDb2dVertex
10
303.1832928080
20
139.2134170011
0
VERTEX
5
33A
100
AcDbEntity
8
0
100
AcDbVertex
62
7
6
CONTINUOUS
100
AcDb2dVertex
10
302.8024077664
20
138.0701567927
0
VERTEX
5
33B
100
AcDbEntity
8
0
100
AcDbVertex
62
7
6
CONTINUOUS
100
AcDb2dVertex
10
302.5300405702
20
136.8607560216
0
VERTEX
5
33C
100
AcDbEntity
8
0
100
AcDbVertex
62
7
6
CONTINUOUS
100
AcDb2dVertex
10
302.3968213633
20
135.6188635116
0
VERTEX
5
33D
100
AcDbEntity
8
0
100
AcDbVertex
62
7
6
CONTINUOUS
100
AcDb2dVertex
10
302.3945581708
20
134.3701864529
0
VERTEX
5
33E
100
AcDbEntity
8
0
100
AcDbVertex
62
7
6
CONTINUOUS
100
AcDb2dVertex
10
302.5342054886
20
133.1394326056
0
VERTEX
5
33F
100
AcDbEntity
8
0
100
AcDbVertex
62
7
6
CONTINUOUS
100
AcDb2dVertex
10
302.7889540491
20
131.9632490849
0
VERTEX
5
340
100
AcDbEntity
8
0
100
AcDbVertex
62
7
6
CONTINUOUS
100
AcDb2dVertex
10
303.1454581291
20
130.8867823163
0
VERTEX
5
341
100
AcDbEntity
8
0
100
AcDbVertex
62
7
6
CONTINUOUS
100
AcDb2dVertex
10
303.5742815914
20
129.9092421302
0
VERTEX
5
342
100
AcDbEntity
8
0
100
AcDbVertex
62
7
6
CONTINUOUS
100
AcDb2dVertex
10
304.0431718300
20
129.0531930966
0
VERTEX
5
343
100
AcDbEntity
8
0
100
AcDbVertex
62
7
6
CONTINUOUS
100
AcDb2dVertex
10
304.5472325283
20
128.2937174232
0
VERTEX
5
344
100
AcDbEntity
8
0
100
AcDbVertex
62
7
6
CONTINUOUS
100
AcDb2dVertex
10
305.0696291192
20
127.6175790255
0
VERTEX
5
345
100
AcDbEntity
8
0
100
AcDbVertex
62
7
6
CONTINUOUS
100
AcDb2dVertex
10
305.6139237478
20
127.0122973508
0
VERTEX
5
346
100
AcDbEntity
8
0
100
AcDbVertex
62
7
6
CONTINUOUS
100
AcDb2dVertex
10
306.1749542119
20
126.4635573484
0
VERTEX
5
347
100
AcDbEntity
8
0
100
AcDbVertex
62
7
6
CONTINUOUS
100
AcDb2dVertex
10
306.7620589860
20
125.9636264279
0
VERTEX
5
348
100
AcDbEntity
8
0
100
AcDbVertex
62
7
6
CONTINUOUS
100
AcDb2dVertex
10
307.3829826711
20
125.4985635859
0
VERTEX
5
349
100
AcDbEntity
8
0
100
AcDbVertex
62
7
6
CONTINUOUS
100
AcDb2dVertex
10
308.0373446860
20
125.0726790110
0
VERTEX
5
34A
100
AcDbEntity
8
0
100
AcDbVertex
62
7
6
CONTINUOUS
100
AcDb2dVertex
10
308.7307125949
20
124.6834679272
0
VERTEX
5
34B
100
AcDbEntity
8
0
100
AcDbVertex
62
7
6
CONTINUOUS
100
AcDb2dVertex
10
309.4529865626
20
124.3374342255
0
VERTEX
5
34C
100
AcDbEntity
8
0
100
AcDbVertex
62
7
6
CONTINUOUS
100
AcDb2dVertex
10
310.1982520439
20
124.0400155795
0
VERTEX
5
34D
100
AcDbEntity
8
0
100
AcDbVertex
62
7
6
CONTINUOUS
100
AcDb2dVertex
10
310.9595207333
20
123.7919058657
0
VERTEX
5
34E
100
AcDbEntity
8
0
100
AcDbVertex
62
7
6
CONTINUOUS
100
AcDb2dVertex
10
311.7267128329
20
123.5959248226
0
VERTEX
5
34F
100
AcDbEntity
8
0
100
AcDbVertex
62
7
6
CONTINUOUS
100
AcDb2dVertex
10
312.5031882754
20
123.4511325373
0
SEQEND
5
350
100
AcDbEntity
8
0
0
LINE
5
351
100
AcDbEntity
8
0
100
AcDbLine
62
7
6
CONTINUOUS
10
294.2011299929
20
138.7802492049
11
294.9067299929
21
138.7802492049
0
LINE
5
352
100
AcDbEntity
8
0
100
AcDbLine
62
7
6
CONTINUOUS
10
295.8475299929
20
138.7802492049
11
296.5531299929
21
138.7802492049
0
LINE
5
353
100
AcDbEntity
8
0
100
AcDbLine
62
7
6
CONTINUOUS
10
297.4939299929
20
139.6969365618
11
295.8475299929
21
139.6969365618
0
LINE
5
354
100
AcDbEntity
8
0
100
AcDbLine
62
7
6
CONTINUOUS
10
294.9067299929
20
139.6969365618
11
293.2603299929
21
139.6969365618
0
LINE
5
355
100
AcDbEntity
8
0
100
AcDbLine
62
7
6
CONTINUOUS
10
293.2603299929
20
140.7294204266
11
294.9067299929
21
140.7294204266
0
LINE
5
356
100
AcDbEntity
8
0
100
AcDbLine
62
7
6
CONTINUOUS
10
295.8475299929
20
140.7294204266
11
297.4939299929
21
140.7294204266
0
LINE
5
357
100
AcDbEntity
8
0
100
AcDbLine
62
7
6
CONTINUOUS
10
293.2603299929
20
140.8427957580
11
294.9067299929
21
140.8427957580
0
LINE
5
358
100
AcDbEntity
8
0
100
AcDbLine
62
7
6
CONTINUOUS
10
295.8475299929
20
140.8427957580
11
297.4939299929
21
140.8427957580
0
LINE
5
359
100
AcDbEntity
8
0
100
AcDbLine
62
7
6
CONTINUOUS
10
296.5531299929
20
141.7594831149
11
295.8475299929
21
141.7594831149
0
LINE
5
35A
100
AcDbEntity
8
0
100
AcDbLine
62
7
6
CONTINUOUS
10
294.9067299929
20
141.7594831149
11
294.2011299929
21
141.7594831149
0
LINE
5
35B
100
AcDbEntity
8
0
100
AcDbLine
62
7
6
CONTINUOUS
10
295.8475299929
20
142.6761704719
11
294.9067299929
21
142.6761704719
0
LINE
5
35C
100
AcDbEntity
8
0
100
AcDbLine
62
7
6
CONTINUOUS
10
294.2011299929
20
144.3961698544
11
296.5531299929
21
144.3961698544
0
LINE
5
35D
100
AcDbEntity
8
0
100
AcDbLine
62
7
6
CONTINUOUS
10
294.2011299929
20
144.5095451858
11
296.5531299929
21
144.5095451858
0
LINE
5
35E
100
AcDbEntity
8
0
100
AcDbLine
62
7
6
CONTINUOUS
10
297.4939299929
20
145.4262325427
11
293.2603299929
21
145.4262325427
0
POLYLINE
5
35F
100
AcDbEntity
8
0
100
AcDb2dPolyline
62
7
6
CONTINUOUS
66
1
70
0
0
VERTEX
5
360
100
AcDbEntity
8
0
100
AcDbVertex
62
7
6
CONTINUOUS
100
AcDb2dVertex
10
276.9895506376
20
146.6773283658
0
VERTEX
5
361
100
AcDbEntity
8
0
100
AcDbVertex
62
7
6
CONTINUOUS
100
AcDb2dVertex
10
277.7772657771
20
146.6132132967
0
VERTEX
5
362
100
AcDbEntity
8
0
100
AcDbVertex
62
7
6
CONTINUOUS
100
AcDb2dVertex
10
278.5612995907
20
146.4972536918
0
VERTEX
5
363
100
AcDbEntity
8
0
100
AcDbVertex
62
7
6
CONTINUOUS
100
AcDb2dVertex
10
279.3450949026
20
146.3288605962
0
VERTEX
5
364
100
AcDbEntity
8
0
100
AcDbVertex
62
7
6
CONTINUOUS
100
AcDb2dVertex
10
280.1183232402
20
146.1098008742
0
VERTEX
5
365
100
AcDbEntity
8
0
100
AcDbVertex
62
7
6
CONTINUOUS
100
AcDb2dVertex
10
280.8739604087
20
145.8400455517
0
VERTEX
5
366
100
AcDbEntity
8
0
100
AcDbVertex
62
7
6
CONTINUOUS
100
AcDb2dVertex
10
281.6055363996
20
145.5243931886
0
VERTEX
5
367
100
AcDbEntity
8
0
100
AcDbVertex
62
7
6
CONTINUOUS
100
AcDb2dVertex
10
282.3023036775
20
145.1682718410
0
VERTEX
5
368
100
AcDbEntity
8
0
100
AcDbVertex
62
7
6
CONTINUOUS
100
AcDb2dVertex
10
282.9700706286
20
144.7697640467
0
VERTEX
5
369
100
AcDbEntity
8
0
100
AcDbVertex
62
7
6
CONTINUOUS
100
AcDb2dVertex
10
283.6079909494
20
144.3331174511
0
VERTEX
5
36A
100
AcDbEntity
8
0
100
AcDbVertex
62
7
6
CONTINUOUS
100
AcDb2dVertex
10
284.2252811734
20
143.8452647877
0
VERTEX
5
36B
100
AcDbEntity
8
0
100
AcDbVertex
62
7
6
CONTINUOUS
100
AcDb2dVertex
10
284.8320680984
20
143.2994775564
0
VERTEX
5
36C
100
AcDbEntity
8
0
100
AcDbVertex
62
7
6
CONTINUOUS
100
AcDb2dVertex
10
285.4247746285
20
142.6809871031
0
VERTEX
5
36D
100
AcDbEntity
8
0
100
AcDbVertex
62
7
6
CONTINUOUS
100
AcDb2dVertex
10
286.0083000900
20
141.9777475468
0
VERTEX
5
36E
100
AcDbEntity
8
0
100
AcDbVertex
62
7
6
CONTINUOUS
100
AcDb2dVertex
10
286.5673420150
20
141.1748620677
0
VERTEX
5
36F
100
AcDbEntity
8
0
100
AcDbVertex
62
7
6
CONTINUOUS
100
AcDb2dVertex
10
287.0997367932
20
140.2470480309
0
VERTEX
5
370
100
AcDbEntity
8
0
100
AcDbVertex
62
7
6
CONTINUOUS
100
AcDb2dVertex
10
287.5709671778
20
139.2134170011
0
VERTEX
5
371
100
AcDbEntity
8
0
100
AcDbVertex
62
7
6
CONTINUOUS
100
AcDb2dVertex
10
287.9518522194
20
138.0701567927
0
VERTEX
5
372
100
AcDbEntity
8
0
100
AcDbVertex
62
7
6
CONTINUOUS
100
AcDb2dVertex
10
288.2242194156
20
136.8607560216
0
VERTEX
5
373
100
AcDbEntity
8
0
100
AcDbVertex
62
7
6
CONTINUOUS
100
AcDb2dVertex
10
288.3574386226
20
135.6188635116
0
VERTEX
5
374
100
AcDbEntity
8
0
100
AcDbVertex
62
7
6
CONTINUOUS
100
AcDb2dVertex
10
288.3597018150
20
134.3701864529
0
VERTEX
5
375
100
AcDbEntity
8
0
100
AcDbVertex
62
7
6
CONTINUOUS
100
AcDb2dVertex
10
288.2200544972
20
133.1394326056
0
VERTEX
5
376
100
AcDbEntity
8
0
100
AcDbVertex
62
7
6
CONTINUOUS
100
AcDb2dVertex
10
287.9653059367
20
131.9632490849
0
VERTEX
5
377
100
AcDbEntity
8
0
100
AcDbVertex
62
7
6
CONTINUOUS
100
AcDb2dVertex
10
287.6088018567
20
130.8867823163
0
VERTEX
5
378
100
AcDbEntity
8
0
100
AcDbVertex
62
7
6
CONTINUOUS
100
AcDb2dVertex
10
287.1799783944
20
129.9092421302
0
VERTEX
5
379
100
AcDbEntity
8
0
100
AcDbVertex
62
7
6
CONTINUOUS
100
AcDb2dVertex
10
286.7110881558
20
129.0531930966
0
VERTEX
5
37A
100
AcDbEntity
8
0
100
AcDbVertex
62
7
6
CONTINUOUS
100
AcDb2dVertex
10
286.2070274576
20
128.2937174232
0
VERTEX
5
37B
100
AcDbEntity
8
0
100
AcDbVertex
62
7
6
CONTINUOUS
100
AcDb2dVertex
10
285.6846308667
20
127.6175790255
0
VERTEX
5
37C
100
AcDbEntity
8
0
100
AcDbVertex
62
7
6
CONTINUOUS
100
AcDb2dVertex
10
285.1403362381
20
127.0122973508
0
VERTEX
5
37D
100
AcDbEntity
8
0
100
AcDbVertex
62
7
6
CONTINUOUS
100
AcDb2dVertex
10
284.5793057740
20
126.4635573484
0
VERTEX
5
37E
100
AcDbEntity
8
0
100
AcDbVertex
62
7
6
CONTINUOUS
100
AcDb2dVertex
10
283.9922009998
20
125.9636264279
0
VERTEX
5
37F
100
AcDbEntity
8
0
100
AcDbVertex
62
7
6
CONTINUOUS
100
AcDb2dVertex
10
283.3712773147
20
125.4985635859
0
VERTEX
5
380
100
AcDbEntity
8
0
100
AcDbVertex
62
7
6
CONTINUOUS
100
AcDb2dVertex
10
282.7169152998
20
125.0726790110
0
VERTEX
5
381
100
AcDbEntity
8
0
100
AcDbVertex
62
7
6
CONTINUOUS
100
AcDb2dVertex
10
282.0235473909
20
124.6834679272
0
VERTEX
5
382
100
AcDbEntity
8
0
100
AcDbVertex
62
7
6
CONTINUOUS
100
AcDb2dVertex
10
281.3012734232
20
124.3374342255
0
VERTEX
5
383
100
AcDbEntity
8
0
100
AcDbVertex
62
7
6
CONTINUOUS
100
AcDb2dVertex
10
280.5560079420
20
124.0400155795
0
VERTEX
5
384
100
AcDbEntity
8
0
100
AcDbVertex
62
7
6
CONTINUOUS
100
AcDb2dVertex
10
279.7947392525
20
123.7919058657
0
VERTEX
5
385
100
AcDbEntity
8
0
100
AcDbVertex
62
7
6
CONTINUOUS
100
AcDb2dVertex
10
279.0275471529
20
123.5959248226
0
VERTEX
5
386
100
AcDbEntity
8
0
100
AcDbVertex
62
7
6
CONTINUOUS
100
AcDb2dVertex
10
278.2510717104
20
123.4511325373
0
SEQEND
5
387
100
AcDbEntity
8
0
0
POLYLINE
5
388
100
AcDbEntity
8
0
100
AcDb2dPolyline
62
7
6
CONTINUOUS
66
1
70
0
0
VERTEX
5
389
100
AcDbEntity
8
0
100
AcDbVertex
62
7
6
CONTINUOUS
100
AcDb2dVertex
10
287.7331299929
20
147.1450213370
0
VERTEX
5
38A
100
AcDbEntity
8
0
100
AcDbVertex
62
7
6
CONTINUOUS
100
AcDb2dVertex
10
288.0468242586
20
147.1015005194
0
VERTEX
5
38B
100
AcDbEntity
8
0
100
AcDbVertex
62
7
6
CONTINUOUS
100
AcDb2dVertex
10
288.3211299929
20
146.9915053139
0
VERTEX
5
38C
100
AcDbEntity
8
0
100
AcDbVertex
62
7
6
CONTINUOUS
100
AcDb2dVertex
10
288.5632557975
20
146.8080118748
0
VERTEX
5
38D
100
AcDbEntity
8
0
100
AcDbVertex
62
7
6
CONTINUOUS
100
AcDb2dVertex
10
288.7515758678
20
146.5720917389
0
VERTEX
5
38E
100
AcDbEntity
8
0
100
AcDbVertex
62
7
6
CONTINUOUS
100
AcDb2dVertex
10
288.8644643990
20
146.3048164428
0
VERTEX
5
38F
100
AcDbEntity
8
0
100
AcDbVertex
62
7
6
CONTINUOUS
100
AcDb2dVertex
10
288.9091299929
20
145.9991621408
0
SEQEND
5
390
100
AcDbEntity
8
0
0
POLYLINE
5
391
100
AcDbEntity
8
0
100
AcDb2dPolyline
62
7
6
CONTINUOUS
66
1
70
0
0
VERTEX
5
392
100
AcDbEntity
8
0
100
AcDbVertex
62
7
6
CONTINUOUS
100
AcDb2dVertex
10
304.6275922892
20
117.8326457497
0
VERTEX
5
393
100
AcDbEntity
8
0
100
AcDbVertex
62
7
6
CONTINUOUS
100
AcDb2dVertex
10
304.1947974846
20
118.6157777432
0
VERTEX
5
394
100
AcDbEntity
8
0
100
AcDbVertex
62
7
6
CONTINUOUS
100
AcDb2dVertex
10
303.6812160218
20
119.3374099780
0
VERTEX
5
395
100
AcDbEntity
8
0
100
AcDbVertex
62
7
6
CONTINUOUS
100
AcDb2dVertex
10
303.0827806770
20
120.0015752129
0
VERTEX
5
396
100
AcDbEntity
8
0
100
AcDbVertex
62
7
6
CONTINUOUS
100
AcDb2dVertex
10
302.4116931213
20
120.5961751717
0
VERTEX
5
397
100
AcDbEntity
8
0
100
AcDbVertex
62
7
6
CONTINUOUS
100
AcDb2dVertex
10
301.6752610092
20
121.1121495005
0
VERTEX
5
398
100
AcDbEntity
8
0
100
AcDbVertex
62
7
6
CONTINUOUS
100
AcDb2dVertex
10
300.8840991672
20
121.5444171901
0
VERTEX
5
399
100
AcDbEntity
8
0
100
AcDbVertex
62
7
6
CONTINUOUS
100
AcDb2dVertex
10
300.0474197025
20
121.8857518356
0
VERTEX
5
39A
100
AcDbEntity
8
0
100
AcDbVertex
62
7
6
CONTINUOUS
100
AcDb2dVertex
10
299.1767384277
20
122.1335292704
0
VERTEX
5
39B
100
AcDbEntity
8
0
100
AcDbVertex
62
7
6
CONTINUOUS
100
AcDb2dVertex
10
298.2884651722
20
122.2820874053
0
VERTEX
5
39C
100
AcDbEntity
8
0
100
AcDbVertex
62
7
6
CONTINUOUS
100
AcDb2dVertex
10
297.3771299929
20
122.3333136035
0
SEQEND
5
39D
100
AcDbEntity
8
0
0
LINE
5
39E
100
AcDbEntity
8
0
100
AcDbLine
62
7
6
CONTINUOUS
10
293.5273800747
20
150.3753690786
11
293.6988801565
21
150.0340492989
0
LINE
5
39F
100
AcDbEntity
8
0
100
AcDbLine
62
7
6
CONTINUOUS
10
307.6655276879
20
111.4847480486
11
304.6275922892
21
117.8326457497
0
LINE
5
3A0
100
AcDbEntity
8
0
100
AcDbLine
62
7
6
CONTINUOUS
10
309.9307246162
20
110.6408728260
11
310.1981031027
21
109.9660196630
0
LINE
5
3A1
100
AcDbEntity
8
0
100
AcDbLine
62
7
6
CONTINUOUS
10
292.7556300747
20
149.4367397294
11
291.9838800747
21
151.3993283577
0
LINE
5
3A2
100
AcDbEntity
8
0
100
AcDbLine
62
7
6
CONTINUOUS
10
291.4693799520
20
151.2286684978
11
292.1553799111
21
149.4367397294
0
LINE
5
3A3
100
AcDbEntity
8
0
100
AcDbLine
62
7
6
CONTINUOUS
10
292.0696299929
20
152.7646074763
11
292.1553799111
21
152.5086176864
0
LINE
5
3A4
100
AcDbEntity
8
0
100
AcDbLine
62
7
6
CONTINUOUS
10
292.6698799111
20
152.5086176864
11
292.5841299929
21
152.7646074763
0
POLYLINE
5
3A5
100
AcDbEntity
8
0
100
AcDb2dPolyline
62
7
6
CONTINUOUS
66
1
70
0
0
VERTEX
5
3A6
100
AcDbEntity
8
0
100
AcDbVertex
62
7
6
CONTINUOUS
100
AcDb2dVertex
10
288.8850470437
20
146.1133822061
0
VERTEX
5
3A7
100
AcDbEntity
8
0
100
AcDbVertex
62
7
6
CONTINUOUS
100
AcDb2dVertex
10
288.8196123231
20
146.3242881396
0
VERTEX
5
3A8
100
AcDbEntity
8
0
100
AcDbVertex
62
7
6
CONTINUOUS
100
AcDb2dVertex
10
288.7104002071
20
146.5220417710
0
VERTEX
5
3A9
100
AcDbEntity
8
0
100
AcDbVertex
62
7
6
CONTINUOUS
100
AcDb2dVertex
10
288.5646875676
20
146.6960316174
0
VERTEX
5
3AA
100
AcDbEntity
8
0
100
AcDbVertex
62
7
6
CONTINUOUS
100
AcDb2dVertex
10
288.3861210735
20
146.8380096514
0
VERTEX
5
3AB
100
AcDbEntity
8
0
100
AcDbVertex
62
7
6
CONTINUOUS
100
AcDb2dVertex
10
288.1831657094
20
146.9444226679
0
VERTEX
5
3AC
100
AcDbEntity
8
0
100
AcDbVertex
62
7
6
CONTINUOUS
100
AcDb2dVertex
10
287.9667120834
20
147.0081803009
0
VERTEX
5
3AD
100
AcDbEntity
8
0
100
AcDbVertex
62
7
6
CONTINUOUS
100
AcDb2dVertex
10
287.7331299929
20
147.0316460056
0
SEQEND
5
3AE
100
AcDbEntity
8
0
0
POLYLINE
5
3AF
100
AcDbEntity
8
0
100
AcDb2dPolyline
62
7
6
CONTINUOUS
66
1
70
0
0
VERTEX
5
3B0
100
AcDbEntity
8
0
100
AcDbVertex
62
7
6
CONTINUOUS
100
AcDb2dVertex
10
294.7674553387
20
131.8819686337
0
VERTEX
5
3B1
100
AcDbEntity
8
0
100
AcDbVertex
62
7
6
CONTINUOUS
100
AcDb2dVertex
10
294.7085640901
20
132.0717839739
0
VERTEX
5
3B2
100
AcDbEntity
8
0
100
AcDbVertex
62
7
6
CONTINUOUS
100
AcDb2dVertex
10
294.6102731857
20
132.2497622421
0
VERTEX
5
3B3
100
AcDbEntity
8
0
100
AcDbVertex
62
7
6
CONTINUOUS
100
AcDb2dVertex
10
294.4791318101
20
132.4063531038
0
VERTEX
5
3B4
100
AcDbEntity
8
0
100
AcDbVertex
62
7
6
CONTINUOUS
100
AcDb2dVertex
10
294.3184219655
20
132.5341333345
0
VERTEX
5
3B5
100
AcDbEntity
8
0
100
AcDbVertex
62
7
6
CONTINUOUS
100
AcDb2dVertex
10
294.1357621377
20
132.6299050494
0
VERTEX
5
3B6
100
AcDbEntity
8
0
100
AcDbVertex
62
7
6
CONTINUOUS
100
AcDb2dVertex
10
293.9409538744
20
132.6872869190
0
VERTEX
5
3B7
100
AcDbEntity
8
0
100
AcDbVertex
62
7
6
CONTINUOUS
100
AcDb2dVertex
10
293.7307299929
20
132.7084060533
0
SEQEND
5
3B8
100
AcDbEntity
8
0
0
LINE
5
3B9
100
AcDbEntity
8
0
100
AcDbLine
62
7
6
CONTINUOUS
10
294.0418798294
20
150.4606990086
11
293.9561301565
21
150.8020187284
0
LINE
5
3BA
100
AcDbEntity
8
0
100
AcDbLine
62
7
6
CONTINUOUS
10
293.4416299111
20
150.8020187284
11
293.5273800747
21
150.3753690786
0
LINE
5
3BB
100
AcDbEntity
8
0
100
AcDbLine
62
7
6
CONTINUOUS
10
306.9300366075
20
69.6544704710
11
306.9300584227
21
69.6543576952
0
LINE
5
3BC
100
AcDbEntity
8
0
100
AcDbLine
62
7
6
CONTINUOUS
10
290.1074627898
20
134.3877430280
11
290.0851299929
21
134.5405701790
0
LINE
5
3BD
100
AcDbEntity
8
0
100
AcDbLine
62
7
6
CONTINUOUS
10
296.4428799929
20
150.2697765690
11
296.4428799929
21
150.3753690786
0
LINE
5
3BE
100
AcDbEntity
8
0
100
AcDbLine
62
7
6
CONTINUOUS
10
296.5286301565
20
150.8020187284
11
296.5286301565
21
153.4472469160
0
LINE
5
3BF
100
AcDbEntity
8
0
100
AcDbLine
62
7
6
CONTINUOUS
10
296.5531299929
20
144.5095451858
11
296.5531299929
21
141.7594831149
0
LINE
5
3C0
100
AcDbEntity
8
0
100
AcDbLine
62
7
6
CONTINUOUS
10
296.5531299929
20
138.7802492049
11
296.5531299929
21
136.0301871340
0
LINE
5
3C1
100
AcDbEntity
8
0
100
AcDbLine
62
7
6
CONTINUOUS
10
297.2146299929
20
149.3247423287
11
297.2146299929
21
153.4472469160
0
LINE
5
3C2
100
AcDbEntity
8
0
100
AcDbLine
62
7
6
CONTINUOUS
10
297.4939299929
20
135.0001244457
11
297.4939299929
21
139.6969365618
0
LINE
5
3C3
100
AcDbEntity
8
0
100
AcDbLine
62
7
6
CONTINUOUS
10
297.4939299929
20
140.7294204266
11
297.4939299929
21
145.4262325427
0
LINE
5
3C4
100
AcDbEntity
8
0
100
AcDbLine
62
7
6
CONTINUOUS
10
297.7291299929
20
149.9487193690
11
297.7291299929
21
152.9352673362
0
LINE
5
3C5
100
AcDbEntity
8
0
100
AcDbLine
62
7
6
CONTINUOUS
10
299.2726299929
20
149.3247423292
11
299.2726299929
21
149.4367397294
0
LINE
5
3C6
100
AcDbEntity
8
0
100
AcDbLine
62
7
6
CONTINUOUS
10
299.2726299929
20
152.8738053795
11
299.2726299929
21
152.9352673362
0
LINE
5
3C7
100
AcDbEntity
8
0
100
AcDbLine
62
7
6
CONTINUOUS
10
299.6156296658
20
152.7863720312
11
299.6156296658
21
152.8499374063
0
LINE
5
3C8
100
AcDbEntity
8
0
100
AcDbLine
62
7
6
CONTINUOUS
10
299.7013803200
20
149.4104386521
11
299.7013803200
21
149.5220696668
0
LINE
5
3C9
100
AcDbEntity
8
0
100
AcDbLine
62
7
6
CONTINUOUS
10
299.8728796658
20
152.6116368683
11
299.8728796658
21
152.6792775463
0
LINE
5
3CA
100
AcDbEntity
8
0
100
AcDbLine
62
7
6
CONTINUOUS
10
300.0443799929
20
149.5819607555
11
300.0443799929
21
149.6927295492
0
LINE
5
3CB
100
AcDbEntity
8
0
100
AcDbLine
62
7
6
CONTINUOUS
10
300.1301296658
20
152.0819677975
11
300.1301296658
21
150.8020187284
0
LINE
5
3CC
100
AcDbEntity
8
0
100
AcDbLine
62
7
6
CONTINUOUS
10
300.3873796658
20
149.9255230392
11
300.3873796658
21
150.0340492989
0
LINE
5
3CD
100
AcDbEntity
8
0
100
AcDbLine
62
7
6
CONTINUOUS
10
300.5588799929
20
150.2697765690
11
300.5588799929
21
150.3753690786
0
LINE
5
3CE
100
AcDbEntity
8
0
100
AcDbLine
62
7
6
CONTINUOUS
10
300.6446296658
20
150.8020187284
11
300.6446296658
21
152.0819677975
0
LINE
5
3CF
100
AcDbEntity
8
0
100
AcDbLine
62
7
6
CONTINUOUS
10
300.6691299929
20
145.9991621408
11
300.6691299929
21
134.5405701790
0
LINE
5
3D0
100
AcDbEntity
8
0
100
AcDbLine
62
7
6
CONTINUOUS
10
301.8451299929
20
134.5405701790
11
301.8451299929
21
145.9991621408
0
LINE
5
3D1
100
AcDbEntity
8
0
100
AcDbLine
62
7
6
CONTINUOUS
10
303.6091299929
20
147.0316460056
11
303.6091299929
21
148.2908805332
0
POLYLINE
5
3D2
100
AcDbEntity
8
0
100
AcDb2dPolyline
62
7
6
CONTINUOUS
66
1
70
0
0
VERTEX
5
3D3
100
AcDbEntity
8
0
100
AcDbVertex
62
7
6
CONTINUOUS
100
AcDb2dVertex
10
295.9651299929
20
131.7905081081
0
VERTEX
5
3D4
100
AcDbEntity
8
0
100
AcDbVertex
62
7
6
CONTINUOUS
100
AcDb2dVertex
10
296.0053290274
20
132.0655969799
0
VERTEX
5
3D5
100
AcDbEntity
8
0
100
AcDbVertex
62
7
6
CONTINUOUS
100
AcDb2dVertex
10
296.1069287055
20
132.3061447464
0
VERTEX
5
3D6
100
AcDbEntity
8
0
100
AcDbVertex
62
7
6
CONTINUOUS
100
AcDb2dVertex
10
296.2764167688
20
132.5184728687
0
VERTEX
5
3D7
100
AcDbEntity
8
0
100
AcDbVertex
62
7
6
CONTINUOUS
100
AcDb2dVertex
10
296.4943299929
20
132.6836169639
0
VERTEX
5
3D8
100
AcDbEntity
8
0
100
AcDbVertex
62
7
6
CONTINUOUS
100
AcDb2dVertex
10
296.7412051538
20
132.7826126488
0
VERTEX
5
3D9
100
AcDbEntity
8
0
100
AcDbVertex
62
7
6
CONTINUOUS
100
AcDb2dVertex
10
297.0235299929
20
132.8217813847
0
SEQEND
5
3DA
100
AcDbEntity
8
0
0
POLYLINE
5
3DB
100
AcDbEntity
8
0
100
AcDb2dPolyline
62
7
6
CONTINUOUS
66
1
70
0
0
VERTEX
5
3DC
100
AcDbEntity
8
0
100
AcDbVertex
62
7
6
CONTINUOUS
100
AcDb2dVertex
10
301.8451299929
20
145.9991621408
0
VERTEX
5
3DD
100
AcDbEntity
8
0
100
AcDbVertex
62
7
6
CONTINUOUS
100
AcDb2dVertex
10
301.8897955868
20
146.3048164428
0
VERTEX
5
3DE
100
AcDbEntity
8
0
100
AcDbVertex
62
7
6
CONTINUOUS
100
AcDb2dVertex
10
302.0026841181
20
146.5720917389
0
VERTEX
5
3DF
100
AcDbEntity
8
0
100
AcDbVertex
62
7
6
CONTINUOUS
100
AcDb2dVertex
10
302.1910041883
20
146.8080118748
0
VERTEX
5
3E0
100
AcDbEntity
8
0
100
AcDbVertex
62
7
6
CONTINUOUS
100
AcDb2dVertex
10
302.4331299929
20
146.9915053139
0
VERTEX
5
3E1
100
AcDbEntity
8
0
100
AcDbVertex
62
7
6
CONTINUOUS
100
AcDb2dVertex
10
302.7074357273
20
147.1015005194
0
VERTEX
5
3E2
100
AcDbEntity
8
0
100
AcDbVertex
62
7
6
CONTINUOUS
100
AcDb2dVertex
10
303.0211299929
20
147.1450213370
0
SEQEND
5
3E3
100
AcDbEntity
8
0
0
POLYLINE
5
3E4
100
AcDbEntity
8
0
100
AcDb2dPolyline
62
7
6
CONTINUOUS
66
1
70
0
0
VERTEX
5
3E5
100
AcDbEntity
8
0
100
AcDbVertex
62
7
6
CONTINUOUS
100
AcDb2dVertex
10
300.6691299929
20
134.5405701790
0
VERTEX
5
3E6
100
AcDbEntity
8
0
100
AcDbVertex
62
7
6
CONTINUOUS
100
AcDb2dVertex
10
300.6467971960
20
134.3877430280
0
VERTEX
5
3E7
100
AcDbEntity
8
0
100
AcDbVertex
62
7
6
CONTINUOUS
100
AcDb2dVertex
10
300.5903529303
20
134.2541053799
0
VERTEX
5
3E8
100
AcDbEntity
8
0
100
AcDbVertex
62
7
6
CONTINUOUS
100
AcDb2dVertex
10
300.4961928952
20
134.1361453120
0
VERTEX
5
3E9
100
AcDbEntity
8
0
100
AcDbVertex
62
7
6
CONTINUOUS
100
AcDb2dVertex
10
300.3751299929
20
134.0443985924
0
VERTEX
5
3EA
100
AcDbEntity
8
0
100
AcDbVertex
62
7
6
CONTINUOUS
100
AcDb2dVertex
10
300.2379771257
20
133.9894009897
0
VERTEX
5
3EB
100
AcDbEntity
8
0
100
AcDbVertex
62
7
6
CONTINUOUS
100
AcDb2dVertex
10
300.0811299929
20
133.9676405809
0
SEQEND
5
3EC
100
AcDbEntity
8
0
0
LINE
5
3ED
100
AcDbEntity
8
0
100
AcDbLine
62
7
6
CONTINUOUS
10
283.8242233784
20
69.6544704710
11
283.8242015628
21
69.6543576939
0
LINE
5
3EE
100
AcDbEntity
8
0
100
AcDbLine
62
7
6
CONTINUOUS
10
300.5588799929
20
150.3753690786
11
300.6446296658
21
150.8020187284
0
LINE
5
3EF
100
AcDbEntity
8
0
100
AcDbLine
62
7
6
CONTINUOUS
10
300.1301296658
20
150.8020187284
11
300.0443799929
21
150.4606990086
0
LINE
5
3F0
100
AcDbEntity
8
0
100
AcDbLine
62
7
6
CONTINUOUS
10
283.0887322979
20
111.4847480486
11
286.1266676966
21
117.8326457497
0
LINE
5
3F1
100
AcDbEntity
8
0
100
AcDbLine
62
7
6
CONTINUOUS
10
300.3873796658
20
150.0340492989
11
300.5588799929
21
150.3753690786
0
POLYLINE
5
3F2
100
AcDbEntity
8
0
100
AcDb2dPolyline
62
7
6
CONTINUOUS
66
1
70
0
0
VERTEX
5
3F3
100
AcDbEntity
8
0
100
AcDbVertex
62
7
6
CONTINUOUS
100
AcDb2dVertex
10
300.9842382432
20
147.1450213370
0
VERTEX
5
3F4
100
AcDbEntity
8
0
100
AcDbVertex
62
7
6
CONTINUOUS
100
AcDb2dVertex
10
300.8892112831
20
146.9669756388
0
VERTEX
5
3F5
100
AcDbEntity
8
0
100
AcDbVertex
62
7
6
CONTINUOUS
100
AcDb2dVertex
10
300.8109729488
20
146.7829759939
0
VERTEX
5
3F6
100
AcDbEntity
8
0
100
AcDbVertex
62
7
6
CONTINUOUS
100
AcDb2dVertex
10
300.7493217327
20
146.5922896398
0
VERTEX
5
3F7
100
AcDbEntity
8
0
100
AcDbVertex
62
7
6
CONTINUOUS
100
AcDb2dVertex
10
300.7048621578
20
146.3971148634
0
VERTEX
5
3F8
100
AcDbEntity
8
0
100
AcDbVertex
62
7
6
CONTINUOUS
100
AcDb2dVertex
10
300.6781987471
20
146.1996499511
0
VERTEX
5
3F9
100
AcDbEntity
8
0
100
AcDbVertex
62
7
6
CONTINUOUS
100
AcDb2dVertex
10
300.6691299929
20
145.9991621408
0
SEQEND
5
3FA
100
AcDbEntity
8
0
0
POLYLINE
5
3FB
100
AcDbEntity
8
0
100
AcDb2dPolyline
62
7
6
CONTINUOUS
66
1
70
0
0
VERTEX
5
3FC
100
AcDbEntity
8
0
100
AcDbVertex
62
7
6
CONTINUOUS
100
AcDb2dVertex
10
286.1266676966
20
117.8326457497
0
VERTEX
5
3FD
100
AcDbEntity
8
0
100
AcDbVertex
62
7
6
CONTINUOUS
100
AcDb2dVertex
10
286.5594625012
20
118.6157777432
0
VERTEX
5
3FE
100
AcDbEntity
8
0
100
AcDbVertex
62
7
6
CONTINUOUS
100
AcDb2dVertex
10
287.0730439641
20
119.3374099780
0
VERTEX
5
3FF
100
AcDbEntity
8
0
100
AcDbVertex
62
7
6
CONTINUOUS
100
AcDb2dVertex
10
287.6714793089
20
120.0015752129
0
VERTEX
5
400
100
AcDbEntity
8
0
100
AcDbVertex
62
7
6
CONTINUOUS
100
AcDb2dVertex
10
288.3425668645
20
120.5961751717
0
VERTEX
5
401
100
AcDbEntity
8
0
100
AcDbVertex
62
7
6
CONTINUOUS
100
AcDb2dVertex
10
289.0789989766
20
121.1121495005
0
VERTEX
5
402
100
AcDbEntity
8
0
100
AcDbVertex
62
7
6
CONTINUOUS
100
AcDb2dVertex
10
289.8701608186
20
121.5444171901
0
VERTEX
5
403
100
AcDbEntity
8
0
100
AcDbVertex
62
7
6
CONTINUOUS
100
AcDb2dVertex
10
290.7068402833
20
121.8857518356
0
VERTEX
5
404
100
AcDbEntity
8
0
100
AcDbVertex
62
7
6
CONTINUOUS
100
AcDb2dVertex
10
291.5775215582
20
122.1335292704
0
VERTEX
5
405
100
AcDbEntity
8
0
100
AcDbVertex
62
7
6
CONTINUOUS
100
AcDb2dVertex
10
292.4657948136
20
122.2820874053
0
VERTEX
5
406
100
AcDbEntity
8
0
100
AcDbVertex
62
7
6
CONTINUOUS
100
AcDb2dVertex
10
293.3771299929
20
122.3333136035
0
SEQEND
5
407
100
AcDbEntity
8
0
0
LINE
5
408
100
AcDbEntity
8
0
100
AcDbLine
62
7
6
CONTINUOUS
10
300.0443799929
20
150.4606990086
11
299.8728796658
21
150.2047092186
0
LINE
5
409
100
AcDbEntity
8
0
100
AcDbLine
62
7
6
CONTINUOUS
10
299.6156296658
20
150.0340492989
11
299.2726299929
21
149.9487193690
0
LINE
5
40A
100
AcDbEntity
8
0
100
AcDbLine
62
7
6
CONTINUOUS
10
295.4996301565
20
150.0340492989
11
295.1566299929
21
149.9487193690
0
LINE
5
40B
100
AcDbEntity
8
0
100
AcDbLine
62
7
6
CONTINUOUS
10
299.2726299929
20
149.4367397294
11
299.7013803200
21
149.5220696668
0
LINE
5
40C
100
AcDbEntity
8
0
100
AcDbLine
62
7
6
CONTINUOUS
10
295.1566299929
20
149.4367397294
11
295.5853798294
21
149.5220696668
0
LINE
5
40D
100
AcDbEntity
8
0
100
AcDbLine
62
7
6
CONTINUOUS
10
287.1451299929
20
147.0316460056
11
287.7331299929
21
147.0316460056
0
LINE
5
40E
100
AcDbEntity
8
0
100
AcDbLine
62
7
6
CONTINUOUS
10
289.8305326856
20
147.0316460056
11
300.9237273002
21
147.0316460056
0
LINE
5
40F
100
AcDbEntity
8
0
100
AcDbLine
62
7
6
CONTINUOUS
10
303.0211299929
20
147.0316460056
11
303.6091299929
21
147.0316460056
0
LINE
5
410
100
AcDbEntity
8
0
100
AcDbLine
62
7
6
CONTINUOUS
10
287.1451299929
20
147.1450213370
11
287.7331299929
21
147.1450213370
0
LINE
5
411
100
AcDbEntity
8
0
100
AcDbLine
62
7
6
CONTINUOUS
10
289.7700217426
20
147.1450213370
11
300.9842382432
21
147.1450213370
0
LINE
5
412
100
AcDbEntity
8
0
100
AcDbLine
62
7
6
CONTINUOUS
10
303.0211299929
20
147.1450213370
11
303.6091299929
21
147.1450213370
0
LINE
5
413
100
AcDbEntity
8
0
100
AcDbLine
62
7
6
CONTINUOUS
10
303.6091299929
20
148.2908805332
11
287.1451299929
21
148.2908805332
0
LINE
5
414
100
AcDbEntity
8
0
100
AcDbLine
62
7
6
CONTINUOUS
10
289.4971299929
20
149.3247423287
11
290.0116299929
21
149.3247423287
0
LINE
5
415
100
AcDbEntity
8
0
100
AcDbLine
62
7
6
CONTINUOUS
10
292.1553799111
20
149.3247423287
11
292.7556300747
21
149.3247423287
0
LINE
5
416
100
AcDbEntity
8
0
100
AcDbLine
62
7
6
CONTINUOUS
10
294.8136298294
20
149.3247423287
11
295.1566299929
21
149.3247423287
0
LINE
5
417
100
AcDbEntity
8
0
100
AcDbLine
62
7
6
CONTINUOUS
10
297.2146299929
20
149.3247423287
11
299.2726299929
21
149.3247423287
0
LINE
5
418
100
AcDbEntity
8
0
100
AcDbLine
62
7
6
CONTINUOUS
10
289.4971299929
20
149.4367397294
11
290.0116299929
21
149.4367397294
0
LINE
5
419
100
AcDbEntity
8
0
100
AcDbLine
62
7
6
CONTINUOUS
10
292.1553799111
20
149.4367397294
11
292.7556300747
21
149.4367397294
0
LINE
5
41A
100
AcDbEntity
8
0
100
AcDbLine
62
7
6
CONTINUOUS
10
294.8136298294
20
149.4367397294
11
295.1566299929
21
149.4367397294
0
LINE
5
41B
100
AcDbEntity
8
0
100
AcDbLine
62
7
6
CONTINUOUS
10
297.2146299929
20
149.4367397294
11
299.2726299929
21
149.4367397294
0
LINE
5
41C
100
AcDbEntity
8
0
100
AcDbLine
62
7
6
CONTINUOUS
10
299.2726299929
20
149.9487193690
11
297.7291299929
21
149.9487193690
0
LINE
5
41D
100
AcDbEntity
8
0
100
AcDbLine
62
7
6
CONTINUOUS
10
295.1566299929
20
149.9487193690
11
294.8136298294
21
149.9487193690
0
LINE
5
41E
100
AcDbEntity
8
0
100
AcDbLine
62
7
6
CONTINUOUS
10
290.0116299929
20
151.1334392718
11
291.4693799520
21
151.1334392718
0
LINE
5
41F
100
AcDbEntity
8
0
100
AcDbLine
62
7
6
CONTINUOUS
10
290.0116299929
20
151.2286684978
11
291.4693799520
21
151.2286684978
0
LINE
5
420
100
AcDbEntity
8
0
100
AcDbLine
62
7
6
CONTINUOUS
10
291.6408799111
20
151.7406480776
11
290.0116299929
21
151.7406480776
0
LINE
5
421
100
AcDbEntity
8
0
100
AcDbLine
62
7
6
CONTINUOUS
10
297.7291299929
20
152.8738053795
11
299.2726299929
21
152.8738053795
0
LINE
5
422
100
AcDbEntity
8
0
100
AcDbLine
62
7
6
CONTINUOUS
10
297.7291299929
20
152.9352673362
11
299.2726299929
21
152.9352673362
0
LINE
5
423
100
AcDbEntity
8
0
100
AcDbLine
62
7
6
CONTINUOUS
10
290.0116299929
20
152.9612826134
11
291.6408799111
21
152.9612826134
0
LINE
5
424
100
AcDbEntity
8
0
100
AcDbLine
62
7
6
CONTINUOUS
10
290.0116299929
20
153.0205972662
11
291.6408799111
21
153.0205972662
0
LINE
5
425
100
AcDbEntity
8
0
100
AcDbLine
62
7
6
CONTINUOUS
10
299.2726299929
20
153.4472469160
11
297.2146299929
21
153.4472469160
0
LINE
5
426
100
AcDbEntity
8
0
100
AcDbLine
62
7
6
CONTINUOUS
10
296.5286301565
20
153.4472469160
11
296.0141301565
21
153.4472469160
0
LINE
5
427
100
AcDbEntity
8
0
100
AcDbLine
62
7
6
CONTINUOUS
10
293.9561301565
20
153.4472469160
11
293.4416299111
21
153.4472469160
0
LINE
5
428
100
AcDbEntity
8
0
100
AcDbLine
62
7
6
CONTINUOUS
10
291.5551299929
20
153.4472469160
11
289.4971299929
21
153.4472469160
0
LINE
5
429
100
AcDbEntity
8
0
100
AcDbLine
62
7
6
CONTINUOUS
10
294.3848799929
20
149.5220696668
11
294.8136298294
21
149.4367397294
0
LINE
5
42A
100
AcDbEntity
8
0
100
AcDbLine
62
7
6
CONTINUOUS
10
291.9838800747
20
153.3619169861
11
291.5551299929
21
153.4472469160
0
LINE
5
42B
100
AcDbEntity
8
0
100
AcDbLine
62
7
6
CONTINUOUS
10
299.7013803200
20
153.3619169861
11
299.2726299929
21
153.4472469160
0
LINE
5
42C
100
AcDbEntity
8
0
100
AcDbLine
62
7
6
CONTINUOUS
10
294.8136298294
20
149.9487193690
11
294.4706301565
21
150.0340492989
0
LINE
5
42D
100
AcDbEntity
8
0
100
AcDbLine
62
7
6
CONTINUOUS
10
299.2726299929
20
152.9352673362
11
299.6156296658
21
152.8499374063
0
LINE
5
42E
100
AcDbEntity
8
0
100
AcDbLine
62
7
6
CONTINUOUS
10
291.6408799111
20
153.0205972662
11
291.8981299111
21
152.9352673362
0
LINE
5
42F
100
AcDbEntity
8
0
100
AcDbLine
62
7
6
CONTINUOUS
10
294.0418798294
20
149.6927295492
11
294.3848799929
21
149.5220696668
0
LINE
5
430
100
AcDbEntity
8
0
100
AcDbLine
62
7
6
CONTINUOUS
10
294.4706301565
20
150.0340492989
11
294.2133801565
21
150.2047092186
0
LINE
5
431
100
AcDbEntity
8
0
100
AcDbLine
62
7
6
CONTINUOUS
10
299.6156296658
20
152.8499374063
11
299.8728796658
21
152.6792775463
0
LINE
5
432
100
AcDbEntity
8
0
100
AcDbLine
62
7
6
CONTINUOUS
10
292.3268799929
20
153.1059271962
11
291.9838800747
21
153.3619169861
0
LINE
5
433
100
AcDbEntity
8
0
100
AcDbLine
62
7
6
CONTINUOUS
10
293.6988801565
20
150.0340492989
11
294.0418798294
21
149.6927295492
0
LINE
5
434
100
AcDbEntity
8
0
100
AcDbLine
62
7
6
CONTINUOUS
10
291.8981299111
20
152.9352673362
11
292.0696299929
21
152.7646074763
0
LINE
5
435
100
AcDbEntity
8
0
100
AcDbLine
62
7
6
CONTINUOUS
10
300.3873796658
20
152.8499374063
11
300.0443799929
21
153.1912571261
0
LINE
5
436
100
AcDbEntity
8
0
100
AcDbLine
62
7
6
CONTINUOUS
10
292.5841299929
20
152.7646074763
11
292.3268799929
21
153.1059271962
0
LINE
5
437
100
AcDbEntity
8
0
100
AcDbLine
62
7
6
CONTINUOUS
10
294.2133801565
20
150.2047092186
11
294.0418798294
21
150.4606990086
0
LINE
5
438
100
AcDbEntity
8
0
100
AcDbLine
62
7
6
CONTINUOUS
10
299.8728796658
20
152.6792775463
11
300.0443799929
21
152.4232875174
0
LINE
5
439
100
AcDbEntity
8
0
100
AcDbLine
62
7
6
CONTINUOUS
10
300.5588799929
20
152.5086176864
11
300.3873796658
21
152.8499374063
0
LINE
5
43A
100
AcDbEntity
8
0
100
AcDbLine
62
7
6
CONTINUOUS
10
309.9353072112
20
104.7824832376
11
309.9348601119
21
104.7838419772
0
LINE
5
43B
100
AcDbEntity
8
0
100
AcDbLine
62
7
6
CONTINUOUS
10
300.0443799929
20
152.4232875174
11
300.1301296658
21
152.0819677975
0
LINE
5
43C
100
AcDbEntity
8
0
100
AcDbLine
62
7
6
CONTINUOUS
10
300.6446296658
20
152.0819677975
11
300.5588799929
21
152.5086176864
0
LINE
5
43D
100
AcDbEntity
8
0
100
AcDbLine
62
7
6
CONTINUOUS
10
312.7617590729
20
125.1589558238
11
312.7708936101
21
124.9832158078
0
LINE
5
43E
100
AcDbEntity
8
0
100
AcDbLine
62
7
6
CONTINUOUS
10
304.3771299929
20
158.8515134695
11
304.3771299929
21
177.7749086554
0
LINE
5
43F
100
AcDbEntity
8
0
100
AcDbLine
62
7
6
CONTINUOUS
10
305.3771299929
20
155.3666528377
11
305.3771299929
21
177.7749086554
0
LINE
5
440
100
AcDbEntity
8
0
100
AcDbLine
62
7
6
CONTINUOUS
10
306.3771299929
20
198.4535037374
11
306.3771299929
21
260.0137045775
0
LINE
5
441
100
AcDbEntity
8
0
100
AcDbLine
62
7
6
CONTINUOUS
10
310.1366169738
20
103.5295098589
11
310.1366169738
21
102.3698166481
0
LINE
5
442
100
AcDbEntity
8
0
100
AcDbLine
62
7
6
CONTINUOUS
10
310.3771299929
20
108.7363246500
11
310.3771299929
21
58.3929157533
0
LINE
5
443
100
AcDbEntity
8
0
100
AcDbLine
62
7
6
CONTINUOUS
10
308.7734064725
20
128.0353903300
11
308.7771299929
21
128.1374261342
0
LINE
5
444
100
AcDbEntity
8
0
100
AcDbLine
62
7
6
CONTINUOUS
10
304.3771299929
20
158.8513595548
11
295.3771299929
21
157.4258995919
0
LINE
5
445
100
AcDbEntity
8
0
100
AcDbLine
62
7
6
CONTINUOUS
10
305.3771299929
20
155.3666528377
11
285.3771299929
21
155.3666528377
0
LINE
5
446
100
AcDbEntity
8
0
100
AcDbLine
62
7
6
CONTINUOUS
10
305.3771299929
20
156.8543680397
11
285.3771299929
21
156.8543680397
0
LINE
5
447
100
AcDbEntity
8
0
100
AcDbLine
62
7
6
CONTINUOUS
10
295.3771299929
20
157.4258995919
11
286.3771299929
21
158.8513595548
0
LINE
5
448
100
AcDbEntity
8
0
100
AcDbLine
62
7
6
CONTINUOUS
10
300.0443799929
20
153.1912571261
11
299.7013803200
21
153.3619169861
0
LINE
5
449
100
AcDbEntity
8
0
100
AcDbLine
62
7
6
CONTINUOUS
10
313.7647093482
20
146.6773283658
11
313.7647093482
21
148.6413053527
0
LINE
5
44A
100
AcDbEntity
8
0
100
AcDbLine
62
7
6
CONTINUOUS
10
318.3771299929
20
146.2056744916
11
318.3771299929
21
197.6867916121
0
LINE
5
44B
100
AcDbEntity
8
0
100
AcDbLine
62
7
6
CONTINUOUS
10
314.6965490478
20
128.2260253006
11
315.4071417948
21
166.5144778069
0
LINE
5
44C
100
AcDbEntity
8
0
100
AcDbLine
62
7
6
CONTINUOUS
10
312.7751903503
20
131.0452063145
11
312.7771299929
21
131.1188731813
0
LINE
5
44D
100
AcDbEntity
8
0
100
AcDbLine
62
7
6
CONTINUOUS
10
312.7771299929
20
137.6666400166
11
312.7556452941
21
137.4223162541
0
LINE
5
44E
100
AcDbEntity
8
0
100
AcDbLine
62
7
6
CONTINUOUS
10
305.9285572178
20
82.0111449320
11
306.9046347815
21
87.8708626493
0
LINE
5
44F
100
AcDbEntity
8
0
100
AcDbLine
62
7
6
CONTINUOUS
10
312.5031882754
20
123.4511325373
11
309.9893947595
21
110.8502412131
0
LINE
5
450
100
AcDbEntity
8
0
100
AcDbLine
62
7
6
CONTINUOUS
10
310.9602709203
20
111.0149555752
11
310.6132778945
21
109.2755838327
0
LINE
5
451
100
AcDbEntity
8
0
100
AcDbLine
62
7
6
CONTINUOUS
10
310.9602709203
20
111.0149555752
11
314.4807667979
21
126.4612024469
0
LINE
5
452
100
AcDbEntity
8
0
100
AcDbLine
62
7
6
CONTINUOUS
10
317.3549047816
20
138.4411031386
11
314.7024106041
21
128.5418601015
0
LINE
5
453
100
AcDbEntity
8
0
100
AcDbLine
62
7
6
CONTINUOUS
10
285.3771299929
20
166.4258995919
11
286.3771299929
21
166.4258995919
0
LINE
5
454
100
AcDbEntity
8
0
100
AcDbLine
62
7
6
CONTINUOUS
10
304.3771299929
20
166.4258995919
11
305.3771299929
21
166.4258995919
0
LINE
5
455
100
AcDbEntity
8
0
100
AcDbLine
62
7
6
CONTINUOUS
10
307.4582617788
20
50.3685208832
11
304.3351423524
21
30.9999179612
0
LINE
5
456
100
AcDbEntity
8
0
100
AcDbLine
62
7
6
CONTINUOUS
10
305.6427692115
20
80.5062889624
11
305.2620991868
21
78.9982656835
0
LINE
5
457
100
AcDbEntity
8
0
100
AcDbLine
62
7
6
CONTINUOUS
10
285.3771299929
20
176.4258995919
11
286.3771299929
21
176.4258995919
0
LINE
5
458
100
AcDbEntity
8
0
100
AcDbLine
62
7
6
CONTINUOUS
10
304.3771299929
20
176.4258995919
11
305.3771299929
21
176.4258995919
0
LINE
5
459
100
AcDbEntity
8
0
100
AcDbLine
62
7
6
CONTINUOUS
10
285.3771299929
20
177.7749086554
11
305.3771299929
21
177.7749086554
0
LINE
5
45A
100
AcDbEntity
8
0
100
AcDbLine
62
7
6
CONTINUOUS
10
313.1522887035
20
186.2676551301
11
314.3771299929
21
183.1183403693
0
LINE
5
45B
100
AcDbEntity
8
0
100
AcDbLine
62
7
6
CONTINUOUS
10
309.8298819462
20
53.6396833531
11
309.8299351558
21
53.6398196959
0
LINE
5
45C
100
AcDbEntity
8
DEFAULT_2
100
AcDbLine
62
8
6
HIDDEN
10
278.0898137428
20
189.0180576550
11
295.3771299929
21
191.7560995640
0
LINE
5
45D
100
AcDbEntity
8
0
100
AcDbLine
62
7
6
CONTINUOUS
10
313.0934618744
20
186.3445449358
11
277.6607981114
21
186.3445449358
0
LINE
5
45E
100
AcDbEntity
8
DEFAULT_2
100
AcDbLine
62
8
6
HIDDEN
10
295.3771299929
20
191.7560995640
11
312.6644462430
21
189.0180576550
0
LINE
5
45F
100
AcDbEntity
8
0
100
AcDbLine
62
7
6
CONTINUOUS
10
284.3771299929
20
203.9714898732
11
275.3418538125
21
201.5504949173
0
LINE
5
460
100
AcDbEntity
8
0
100
AcDbLine
62
7
6
CONTINUOUS
10
306.3771299929
20
203.9714898732
11
315.4124061733
21
201.5504949173
0
LINE
5
461
100
AcDbEntity
8
DEFAULT_2
100
AcDbLine
62
8
6
HIDDEN
10
295.3771299929
20
239.7560995640
11
306.3771299929
21
241.4983284076
0
LINE
5
462
100
AcDbEntity
8
DEFAULT_2
100
AcDbLine
62
8
6
HIDDEN
10
284.3771299929
20
241.4983284076
11
295.3771299929
21
239.7560995640
0
LINE
5
463
100
AcDbEntity
8
0
100
AcDbLine
62
7
6
CONTINUOUS
10
295.3771299929
20
261.7560995640
11
284.3771299929
21
260.0138707204
0
LINE
5
464
100
AcDbEntity
8
0
100
AcDbLine
62
7
6
CONTINUOUS
10
306.3771299929
20
260.0138707204
11
295.3771299929
21
261.7560995640
0
ARC
5
465
100
AcDbEntity
8
0
100
AcDbCircle
62
7
6
CONTINUOUS
10
64.7306381008
20
124.9535231383
40
1.4000000000
100
AcDbArc
50
65.8820318276
51
222.3846210317
0
ARC
5
466
100
AcDbEntity
8
0
100
AcDbCircle
62
7
6
CONTINUOUS
10
65.8762216694
20
128.1374261342
40
1.4000000000
100
AcDbArc
50
75.7444056065
51
227.4542829352
0
ARC
5
467
100
AcDbEntity
8
0
100
AcDbCircle
62
7
6
CONTINUOUS
10
67.8987382962
20
131.1188731813
40
1.4000000000
100
AcDbArc
50
75.1091272942
51
243.7982710701
0
ARC
5
468
100
AcDbEntity
8
0
100
AcDbCircle
62
7
6
CONTINUOUS
10
69.2656513564
20
144.5968236444
40
1.4000000000
100
AcDbArc
50
111.6153789683
51
268.1179681724
0
ARC
5
469
100
AcDbEntity
8
0
100
AcDbCircle
62
7
6
CONTINUOUS
10
70.0008348189
20
183.3445449358
40
3.0000000000
100
AcDbArc
50
77.0000000000
51
138.9275130641
0
ARC
5
46A
100
AcDbEntity
8
0
100
AcDbCircle
62
7
6
CONTINUOUS
10
68.8995638397
20
141.2329598049
40
1.4000000000
100
AcDbArc
50
106.5549996621
51
258.2577066871
0
ARC
5
46B
100
AcDbEntity
8
0
100
AcDbCircle
62
7
6
CONTINUOUS
10
67.3651818751
20
179.2639148736
40
3.0000000000
100
AcDbArc
50
155.3561677678
51
210.1918441469
0
ARC
5
46C
100
AcDbEntity
8
0
100
AcDbCircle
62
7
6
CONTINUOUS
10
69.4104093814
20
137.6666400166
40
1.4000000000
100
AcDbArc
50
90.2036493673
51
258.8888868747
0
ARC
5
46D
100
AcDbEntity
8
0
100
AcDbCircle
62
7
6
CONTINUOUS
10
68.1673888064
20
134.5052321261
40
1.4000000000
100
AcDbArc
50
85.9752053111
51
248.0404335021
0
CIRCLE
5
46E
100
AcDbEntity
8
0
100
AcDbCircle
62
7
6
CONTINUOUS
10
81.6174562368
20
171.4258995919
40
5.0000000000
0
ARC
5
46F
100
AcDbEntity
8
0
100
AcDbCircle
62
7
6
CONTINUOUS
10
30.1982868333
20
157.6393475264
40
40.0000000000
100
AcDbArc
50
347.0000000000
51
30.1918441469
0
ARC
5
470
100
AcDbEntity
8
0
100
AcDbCircle
62
7
6
CONTINUOUS
10
82.8167773559
20
172.1753186023
40
20.0000000000
100
AcDbArc
50
138.9275130641
51
155.3561677678
0
ARC
5
471
100
AcDbEntity
8
0
100
AcDbCircle
62
7
6
CONTINUOUS
10
81.6174562368
20
171.4258995919
40
12.0000000000
100
AcDbArc
50
335.8400631278
51
77.0000000000
0
ARC
5
472
100
AcDbEntity
8
0
100
AcDbCircle
62
7
6
CONTINUOUS
10
13.1934996984
20
72.2560995640
40
70.0000000000
100
AcDbArc
50
25.0000000000
51
36.9204798983
0
ARC
5
473
100
AcDbEntity
8
0
100
AcDbCircle
62
7
6
CONTINUOUS
10
92.8220638529
20
154.8591627929
40
6.0000000000
100
AcDbArc
50
38.0000000000
51
122.4268193753
0
ARC
5
474
100
AcDbEntity
8
0
100
AcDbCircle
62
7
6
CONTINUOUS
10
81.6174562368
20
171.4258995919
40
14.0000000000
100
AcDbArc
50
178.8412936622
51
211.2692589417
0
ARC
5
475
100
AcDbEntity
8
0
100
AcDbCircle
62
7
6
CONTINUOUS
10
69.9166325091
20
186.3955597114
40
5.0000000000
100
AcDbArc
50
347.5297664987
51
35.1484483349
0
ARC
5
476
100
AcDbEntity
8
0
100
AcDbCircle
62
7
6
CONTINUOUS
10
163.6174562368
20
175.1112966982
40
20.0000000000
100
AcDbArc
50
141.9877204556
51
180.0000000000
0
ARC
5
477
100
AcDbEntity
8
0
100
AcDbCircle
62
7
6
CONTINUOUS
10
163.6174562368
20
161.9578638057
40
20.0000000000
100
AcDbArc
50
180.0000000000
51
235.0000000000
0
ARC
5
478
100
AcDbEntity
8
0
100
AcDbCircle
62
7
6
CONTINUOUS
10
133.1174562368
20
91.7560995640
40
55.0000000000
100
AcDbArc
50
324.3146652873
51
55.0000000000
0
ARC
5
479
100
AcDbEntity
8
0
100
AcDbCircle
62
7
6
CONTINUOUS
10
118.4972647195
20
102.2560995640
40
73.0000000000
100
AcDbArc
50
247.5292593938
51
324.3146652873
0
ARC
5
47A
100
AcDbEntity
8
0
100
AcDbCircle
62
7
6
CONTINUOUS
10
111.6174562368
20
85.6227524793
40
55.0000000000
100
AcDbArc
50
187.1215241727
51
247.5292593938
0
ARC
5
47B
100
AcDbEntity
8
0
100
AcDbCircle
62
7
6
CONTINUOUS
10
65.6174562368
20
106.9588758464
40
12.0000000000
100
AcDbArc
50
120.0000000000
51
187.1215241727
0
CIRCLE
5
47C
100
AcDbEntity
8
0
100
AcDbCircle
62
7
6
CONTINUOUS
10
111.6174562368
20
215.7560995640
40
24.0000000000
0
ARC
5
47D
100
AcDbEntity
8
0
100
AcDbCircle
62
7
6
CONTINUOUS
10
157.6830761717
20
155.3081164710
40
30.0000000000
100
AcDbArc
50
139.9276671432
51
218.0000000000
0
ARC
5
47E
100
AcDbEntity
8
0
100
AcDbCircle
62
7
6
CONTINUOUS
10
111.6174562368
20
94.2560995640
40
28.5000000000
100
AcDbArc
50
205.0000000000
51
38.0000000000
0
ARC
5
47F
100
AcDbEntity
8
0
100
AcDbCircle
62
7
6
CONTINUOUS
10
111.6174562368
20
215.7560995640
40
46.0000000000
100
AcDbArc
50
321.9877204556
51
215.1484483350
0
ARC
5
480
100
AcDbEntity
8
0
100
AcDbCircle
62
7
6
CONTINUOUS
10
111.6174562368
20
94.2560995640
40
43.8875786808
100
AcDbArc
50
246.6396409662
51
38.0000000000
0
ARC
5
481
100
AcDbEntity
8
0
100
AcDbCircle
62
7
6
CONTINUOUS
10
111.6174562368
20
215.7560995640
40
25.7422288436
100
AcDbArc
50
35.6406801048
51
212.0527242081
0
ARC
5
482
100
AcDbEntity
8
0
100
AcDbCircle
62
7
6
CONTINUOUS
10
111.6174562368
20
215.7560995640
40
44.2577711564
100
AcDbArc
50
19.8113032326
51
203.0136524985
0
ARC
5
483
100
AcDbEntity
8
0
100
AcDbCircle
62
7
6
CONTINUOUS
10
111.6174562368
20
215.7560995640
40
44.2577711564
100
AcDbArc
50
321.9877204557
51
340.1886967674
0
ARC
5
484
100
AcDbEntity
8
0
100
AcDbCircle
62
7
6
CONTINUOUS
10
163.6174562368
20
175.1112966982
40
21.7422288436
100
AcDbArc
50
141.9877204556
51
152.1318159197
0
ARC
5
485
100
AcDbEntity
8
0
100
AcDbCircle
62
7
6
CONTINUOUS
10
111.6174562368
20
215.7560995640
40
25.7422288436
100
AcDbArc
50
323.9272297863
51
324.3593198952
0
ARC
5
486
100
AcDbEntity
8
0
100
AcDbCircle
62
7
6
CONTINUOUS
10
111.6174562368
20
215.7560995640
40
45.0671156465
100
AcDbArc
50
347.1798586771
51
12.8201413229
0
ARC
5
487
100
AcDbEntity
8
0
100
AcDbCircle
62
7
6
CONTINUOUS
10
111.6174562368
20
215.7560995640
40
24.9328843535
100
AcDbArc
50
336.3544919709
51
23.6455080291
0
ARC
5
488
100
AcDbEntity
8
0
100
AcDbCircle
62
7
6
CONTINUOUS
10
81.6174562368
20
171.4258995919
40
14.0000000000
100
AcDbArc
50
7.9466564197
51
69.2782028422
0
ARC
5
489
100
AcDbEntity
8
0
100
AcDbCircle
62
7
6
CONTINUOUS
10
288.3771299929
20
56.5476874754
40
8.0000000000
100
AcDbArc
50
201.3137811389
51
230.5695219382
0
ARC
5
48A
100
AcDbEntity
8
0
100
AcDbCircle
62
7
6
CONTINUOUS
10
288.3771299929
20
146.2056744916
40
30.0000000000
100
AcDbArc
50
345.0000000000
51
360.0000000000
0
ARC
5
48B
100
AcDbEntity
8
0
100
AcDbCircle
62
7
6
CONTINUOUS
10
302.3771299929
20
56.5476874754
40
8.0000000000
100
AcDbArc
50
309.4304780618
51
338.6862188611
0
ARC
5
48C
100
AcDbEntity
8
0
100
AcDbCircle
62
7
6
CONTINUOUS
10
314.3771299929
20
197.6867916121
40
4.0000000000
100
AcDbArc
50
0.0000000000
51
75.0000000000
0
ARC
5
48D
100
AcDbEntity
8
0
100
AcDbCircle
62
7
6
CONTINUOUS
10
276.3771299929
20
197.6867916121
40
4.0000000000
100
AcDbArc
50
105.0000000000
51
180.0000000000
0
ARC
5
48E
100
AcDbEntity
8
0
100
AcDbCircle
62
7
6
CONTINUOUS
10
302.3771299929
20
146.2056744916
40
30.0000000000
100
AcDbArc
50
180.0000000000
51
195.0000000000
0
SPLINE
5
48F
100
AcDbEntity
8
0
100
AcDbSpline
62
7
6
CONTINUOUS
70
0
71
3
72
17
73
13
74
11
42
0.0000001000
43
0.0000001000
44
0.0000000001
40
0.0000000000
40
0.0000000000
40
0.0000000000
40
0.0000000000
40
0.0049071576
40
0.0467926781
40
0.1241428103
40
0.2249686484
40
0.3374836586
40
0.4561059612
40
0.5803266195
40
0.7135312803
40
0.8550848027
40
1.0000000000
40
1.0000000000
40
1.0000000000
40
1.0000000000
10
68.2593110712
20
132.4707285428
30
0.0000000000
10
68.2611332708
20
132.4705459805
30
0.0000000000
10
68.2774825518
20
132.4664225858
30
0.0000000000
10
68.2895074394
20
132.3872533424
30
0.0000000000
10
68.2764590420
20
132.2961698596
30
0.0000000000
10
68.2523255210
20
132.1556167155
30
0.0000000000
10
68.2151366400
20
132.0045436548
30
0.0000000000
10
68.1705377496
20
131.8418962707
30
0.0000000000
10
68.1189658682
20
131.6716837188
30
0.0000000000
10
68.0605924751
20
131.4920600821
30
0.0000000000
10
67.9956721207
20
131.3043556206
30
0.0000000000
10
67.9491134368
20
131.1770151972
30
0.0000000000
10
67.9250084384
20
131.1128082410
30
0.0000000000
11
68.2593110712
21
132.4707285428
31
0.0000000000
11
68.2644324174
21
132.4693983024
31
0.0000000000
11
68.2837745626
21
132.4131634111
31
0.0000000000
11
68.2770542830
21
132.3035488675
31
0.0000000000
11
68.2519138172
21
132.1626230227
31
0.0000000000
11
68.2150826741
21
132.0071800547
31
0.0000000000
11
68.1705660296
21
131.8447520945
31
0.0000000000
11
68.1196485703
21
131.6758956915
31
0.0000000000
11
68.0612724433
21
131.4960090081
31
0.0000000000
11
67.9956442114
21
131.3060512100
31
0.0000000000
11
67.9250084384
21
131.1128082410
31
0.0000000000
0
SPLINE
5
490
100
AcDbEntity
8
0
100
AcDbSpline
62
7
6
CONTINUOUS
70
0
71
3
72
12
73
8
74
6
42
0.0000001000
43
0.0000001000
44
0.0000000001
40
0.0000000000
40
0.0000000000
40
0.0000000000
40
0.0000000000
40
0.0506881655
40
0.2148653775
40
0.4507172348
40
0.7204855125
40
1.0000000000
40
1.0000000000
40
1.0000000000
40
1.0000000000
10
69.4010647197
20
139.0614374490
30
0.0000000000
10
69.4171901260
20
139.0526132525
30
0.0000000000
10
69.4915397560
20
138.9424348764
30
0.0000000000
10
69.4679834121
20
138.7411316778
30
0.0000000000
10
69.4905935194
20
138.4194306143
30
0.0000000000
10
69.4677272498
20
138.0509098790
30
0.0000000000
10
69.4491478568
20
137.7919249770
30
0.0000000000
10
69.4366795236
20
137.6605750764
30
0.0000000000
11
69.4010647197
21
139.0614374490
31
0.0000000000
11
69.4475066081
21
139.0014206362
31
0.0000000000
11
69.4775255471
21
138.7708750877
31
0.0000000000
11
69.4825307630
21
138.4369222883
31
0.0000000000
11
69.4673882840
21
138.0552030957
31
0.0000000000
11
69.4366795236
21
137.6605750764
31
0.0000000000
0
SPLINE
5
491
100
AcDbEntity
8
0
100
AcDbSpline
62
7
6
CONTINUOUS
70
0
71
3
72
12
73
8
74
6
42
0.0000001000
43
0.0000001000
44
0.0000000001
40
0.0000000000
40
0.0000000000
40
0.0000000000
40
0.0000000000
40
0.0112467193
40
0.1141732417
40
0.3340374832
40
0.6491729886
40
1.0000000000
40
1.0000000000
40
1.0000000000
40
1.0000000000
10
68.7465940213
20
145.8904129538
30
0.0000000000
10
68.7495510230
20
145.8929679805
30
0.0000000000
10
68.7799841629
20
145.9114926788
30
0.0000000000
10
68.8735680875
20
145.6965852929
30
0.0000000000
10
68.9435897636
20
145.4816833217
30
0.0000000000
10
69.0505448388
20
145.0681732494
30
0.0000000000
10
69.1083513414
20
144.7817539889
30
0.0000000000
10
69.1370382748
20
144.6265163139
30
0.0000000000
11
68.7465940213
21
145.8904129538
31
0.0000000000
11
68.7555617762
21
145.8957250461
31
0.0000000000
11
68.8352145096
21
145.7818774972
31
0.0000000000
11
68.9341240908
21
145.5020378987
31
0.0000000000
11
69.0411743493
21
145.0903106551
31
0.0000000000
11
69.1370382748
21
144.6265163139
31
0.0000000000
0
SPLINE
5
492
100
AcDbEntity
8
0
100
AcDbSpline
62
7
6
CONTINUOUS
70
0
71
3
72
15
73
11
74
9
42
0.0000001000
43
0.0000001000
44
0.0000000001
40
0.0000000000
40
0.0000000000
40
0.0000000000
40
0.0000000000
40
0.0223255567
40
0.0894546939
40
0.1795261984
40
0.2967490858
40
0.4455152906
40
0.6177863762
40
0.8065309977
40
1.0000000000
40
1.0000000000
40
1.0000000000
40
1.0000000000
10
68.2668567745
20
135.9000667961
30
0.0000000000
10
68.2782038780
20
135.8995408029
30
0.0000000000
10
68.3223327503
20
135.8912412503
30
0.0000000000
10
68.3856091147
20
135.8136500661
30
0.0000000000
10
68.4266461148
20
135.6829396992
30
0.0000000000
10
68.4513071009
20
135.5038414732
30
0.0000000000
10
68.4543217146
20
135.2830128913
30
0.0000000000
10
68.4364461600
20
135.0265090140
30
0.0000000000
10
68.3978145857
20
134.7497146829
30
0.0000000000
10
68.3598513488
20
134.5608214454
30
0.0000000000
10
68.3379277944
20
134.4658600984
30
0.0000000000
11
68.2668567745
21
135.9000667961
31
0.0000000000
11
68.2994459274
21
135.8935068911
31
0.0000000000
11
68.3717057417
21
135.8223013186
31
0.0000000000
11
68.4194440768
21
135.6948275629
31
0.0000000000
11
68.4458996848
21
135.5196624716
31
0.0000000000
11
68.4512685569
21
135.2949054809
31
0.0000000000
11
68.4341790150
21
135.0351244173
31
0.0000000000
11
68.3953798572
21
134.7525375433
31
0.0000000000
11
68.3379277944
21
134.4658600984
31
0.0000000000
0
SPLINE
5
493
100
AcDbEntity
8
0
100
AcDbSpline
62
7
6
CONTINUOUS
70
0
71
3
72
16
73
12
74
10
42
0.0000001000
43
0.0000001000
44
0.0000000001
40
0.0000000000
40
0.0000000000
40
0.0000000000
40
0.0000000000
40
0.0863958983
40
0.1725580689
40
0.2638351781
40
0.3628476979
40
0.4702614279
40
0.5869894654
40
0.7137234660
40
0.8511414993
40
1.0000000000
40
1.0000000000
40
1.0000000000
40
1.0000000000
10
68.9445421418
20
134.3258121413
30
0.0000000000
10
68.9157261963
20
134.2009965684
30
0.0000000000
10
68.8562903188
20
133.9521332225
30
0.0000000000
10
68.7596922883
20
133.5730461760
30
0.0000000000
10
68.6523312771
20
133.1774444051
30
0.0000000000
10
68.5296528242
20
132.7534088920
30
0.0000000000
10
68.3882090695
20
132.2955934832
30
0.0000000000
10
68.2249290010
20
131.8016013328
30
0.0000000000
10
68.0363217898
20
131.2692489845
30
0.0000000000
10
67.8185390330
20
130.6968561902
30
0.0000000000
10
67.6577027942
20
130.3039855569
30
0.0000000000
10
67.5714331091
20
130.1008324218
30
0.0000000000
11
68.9445421418
21
134.3258121413
31
0.0000000000
11
68.8552715657
21
133.9520283297
31
0.0000000000
11
68.7606352191
21
133.5806396431
31
0.0000000000
11
68.6542963982
21
133.1888045410
31
0.0000000000
11
68.5318983533
21
132.7657383895
31
0.0000000000
11
68.3908624874
21
132.3092434141
31
0.0000000000
11
68.2279153922
21
131.8162590236
31
0.0000000000
11
68.0396595113
21
131.2848986248
31
0.0000000000
11
67.8222948911
21
130.7136058384
31
0.0000000000
11
67.5714331091
21
130.1008324218
31
0.0000000000
0
SPLINE
5
494
100
AcDbEntity
8
0
100
AcDbSpline
62
7
6
CONTINUOUS
70
0
71
3
72
37
73
33
74
31
42
0.0000001000
43
0.0000001000
44
0.0000000001
40
0.0000000000
40
0.0000000000
40
0.0000000000
40
0.0000000000
40
0.0103944360
40
0.0209173890
40
0.0313960449
40
0.0417901675
40
0.0522221043
40
0.0631789943
40
0.0752001237
40
0.0888233191
40
0.1042305853
40
0.1213332408
40
0.1400902444
40
0.1606405369
40
0.1831776707
40
0.2079023245
40
0.2350458687
40
0.2650482919
40
0.2984532592
40
0.3357377317
40
0.3768345626
40
0.4214146258
40
0.4695324496
40
0.5227207728
40
0.5823537986
40
0.6453848232
40
0.7070122904
40
0.7665344244
40
0.8251115290
40
0.8833540855
40
0.9415516853
40
1.0000000000
40
1.0000000000
40
1.0000000000
40
1.0000000000
10
68.9445421418
20
134.3258121413
30
0.0000000000
10
68.9542675950
20
134.3679377074
30
0.0000000000
10
68.9736229147
20
134.4527596757
30
0.0000000000
10
69.0020215538
20
134.5802206621
30
0.0000000000
10
69.0297637577
20
134.7078248273
30
0.0000000000
10
69.0567745639
20
134.8351988340
30
0.0000000000
10
69.0835378577
20
134.9646569364
30
0.0000000000
10
69.1109577481
20
135.1008877609
30
0.0000000000
10
69.1401561610
20
135.2502979848
30
0.0000000000
10
69.1718514434
20
135.4180778533
30
0.0000000000
10
69.2061282948
20
135.6068751163
30
0.0000000000
10
69.2425474157
20
135.8169793968
30
0.0000000000
10
69.2805876047
20
136.0485047178
30
0.0000000000
10
69.3198463381
20
136.3027255220
30
0.0000000000
10
69.3599484873
20
136.5819170867
30
0.0000000000
10
69.4003997874
20
136.8887441974
30
0.0000000000
10
69.4406158959
20
137.2268961670
30
0.0000000000
10
69.4798551696
20
137.6014891926
30
0.0000000000
10
69.5170124427
20
138.0186646512
30
0.0000000000
10
69.5502357848
20
138.4824554167
30
0.0000000000
10
69.5769754109
20
138.9932245471
30
0.0000000000
10
69.5943955881
20
139.5494893534
30
0.0000000000
10
69.5996054616
20
140.1563085150
30
0.0000000000
10
69.5887282020
20
140.8256910064
30
0.0000000000
10
69.5566180361
20
141.5565145641
30
0.0000000000
10
69.4999471163
20
142.3210651307
30
0.0000000000
10
69.4199795218
20
143.0830607891
30
0.0000000000
10
69.3198856891
20
143.8239748106
30
0.0000000000
10
69.2006559827
20
144.5477805530
30
0.0000000000
10
69.0617769476
20
145.2624627517
30
0.0000000000
10
68.9026475064
20
145.9723548486
30
0.0000000000
10
68.7829920087
20
146.4426156896
30
0.0000000000
10
68.7196696103
20
146.6773283658
30
0.0000000000
11
68.9445421418
21
134.3258121413
31
0.0000000000
11
68.9733965944
21
134.4522627261
31
0.0000000000
11
69.0019514281
21
134.5804247571
31
0.0000000000
11
69.0297290623
21
134.7081918897
31
0.0000000000
11
69.0566341867
21
134.8350675369
31
0.0000000000
11
69.0829871633
21
134.9625408749
31
0.0000000000
11
69.1099643265
21
135.0965720911
31
0.0000000000
11
69.1387335247
21
135.2437859997
31
0.0000000000
11
69.1702880483
21
135.4108207664
31
0.0000000000
11
69.2046304610
21
135.5999791564
31
0.0000000000
11
69.2410783061
21
135.8102491720
31
0.0000000000
11
69.2790242605
21
136.0412009861
31
0.0000000000
11
69.3181594574
21
136.2946218857
31
0.0000000000
11
69.3581421055
21
136.5729815772
31
0.0000000000
11
69.3984666128
21
136.8788471045
31
0.0000000000
11
69.4384653846
21
137.2151718800
31
0.0000000000
11
69.4774676181
21
137.5875024707
31
0.0000000000
11
69.5144471618
21
138.0026833261
31
0.0000000000
11
69.5476884982
21
138.4667268514
31
0.0000000000
11
69.5744977210
21
138.9788284864
31
0.0000000000
11
69.5919091890
21
139.5348223202
31
0.0000000000
11
69.5970635350
21
140.1352104773
31
0.0000000000
11
69.5862798681
21
140.7988024242
31
0.0000000000
11
69.5536173025
21
141.5421812414
31
0.0000000000
11
69.4954783888
21
142.3265254272
31
0.0000000000
11
69.4152175578
21
143.0913079466
31
0.0000000000
11
69.3157832936
21
143.8273340603
31
0.0000000000
11
69.1969818217
21
144.5485349668
31
0.0000000000
11
69.0583509836
21
145.2619360139
31
0.0000000000
11
68.8995100361
21
145.9705360911
31
0.0000000000
11
68.7196696103
21
146.6773283658
31
0.0000000000
0
SPLINE
5
495
100
AcDbEntity
8
0
100
AcDbSpline
62
7
6
CONTINUOUS
70
0
71
3
72
12
73
8
74
6
42
0.0000001000
43
0.0000001000
44
0.0000000001
40
0.0000000000
40
0.0000000000
40
0.0000000000
40
0.0000000000
40
0.0519819532
40
0.1796893341
40
0.3870246007
40
0.6734083771
40
1.0000000000
40
1.0000000000
40
1.0000000000
40
1.0000000000
10
66.2238031954
20
129.4860089486
30
0.0000000000
10
66.2493984580
20
129.4778642603
30
0.0000000000
10
66.3310910558
20
129.4304820615
30
0.0000000000
10
66.3291887881
20
129.2103524111
30
0.0000000000
10
66.2757395226
20
128.9234150906
30
0.0000000000
10
66.1349832448
20
128.5369162028
30
0.0000000000
10
66.0041010881
20
128.2667488831
30
0.0000000000
10
65.9273421013
20
128.1256240526
30
0.0000000000
11
66.2238031954
21
129.4860089486
31
0.0000000000
11
66.2897532596
21
129.4458622764
31
0.0000000000
11
66.3256326084
21
129.2608529224
31
0.0000000000
11
66.2750872590
21
128.9590945833
31
0.0000000000
11
66.1362722059
21
128.5599299932
31
0.0000000000
11
65.9273421013
21
128.1256240526
31
0.0000000000
0
SPLINE
5
496
100
AcDbEntity
8
0
100
AcDbSpline
62
7
6
CONTINUOUS
70
0
71
3
72
12
73
8
74
6
42
0.0000001000
43
0.0000001000
44
0.0000000001
40
0.0000000000
40
0.0000000000
40
0.0000000000
40
0.0000000000
40
0.0188003533
40
0.1343714413
40
0.3516595988
40
0.6519115196
40
1.0000000000
40
1.0000000000
40
1.0000000000
40
1.0000000000
10
65.3029194386
20
126.2129219313
30
0.0000000000
10
65.3113595972
20
126.2085736117
30
0.0000000000
10
65.3650389144
20
126.1695312836
30
0.0000000000
10
65.2218060099
20
125.9744065900
30
0.0000000000
10
65.1243176633
20
125.7324952984
30
0.0000000000
10
64.8760330077
20
125.3702707527
30
0.0000000000
10
64.7017439936
20
125.1181270026
30
0.0000000000
10
64.6020250192
20
124.9832158078
30
0.0000000000
11
65.3029194386
21
126.2129219313
31
0.0000000000
11
65.3242583026
21
126.1969532751
31
0.0000000000
11
65.2734010362
21
126.0377788608
31
0.0000000000
11
65.1249736820
21
125.7608792414
31
0.0000000000
11
64.8922570100
21
125.3943964624
31
0.0000000000
11
64.6020250192
21
124.9832158078
31
0.0000000000
0
SPLINE
5
497
100
AcDbEntity
8
0
100
AcDbSpline
62
7
6
CONTINUOUS
70
0
71
3
72
12
73
8
74
6
42
0.0000001000
43
0.0000001000
44
0.0000000001
40
0.0000000000
40
0.0000000000
40
0.0000000000
40
0.0000000000
40
0.0461748977
40
0.1880673893
40
0.4123148104
40
0.6937719451
40
1.0000000000
40
1.0000000000
40
1.0000000000
40
1.0000000000
10
68.4963295421
20
142.5633013031
30
0.0000000000
10
68.5195628625
20
142.5701088777
30
0.0000000000
10
68.6156797477
20
142.5790179019
30
0.0000000000
10
68.7396064960
20
142.3610861814
30
0.0000000000
10
68.8402854248
20
142.0748413266
30
0.0000000000
10
68.9180329054
20
141.6658206813
30
0.0000000000
10
68.9438815081
20
141.3743803775
30
0.0000000000
10
68.9506842717
20
141.2211577233
30
0.0000000000
11
68.4963295421
21
142.5633013031
31
0.0000000000
11
68.5643741113
21
142.5679543210
31
0.0000000000
11
68.7068748963
21
142.4093744503
31
0.0000000000
11
68.8254538418
21
142.0939881520
31
0.0000000000
11
68.9086821933
21
141.6793574174
31
0.0000000000
11
68.9506842717
21
141.2211577233
31
0.0000000000
0
SPLINE
5
498
100
AcDbEntity
8
0
100
AcDbSpline
62
7
6
CONTINUOUS
70
0
71
3
72
10
73
6
74
4
42
0.0000001000
43
0.0000001000
44
0.0000000001
40
0.0000000000
40
0.0000000000
40
0.0000000000
40
0.0000000000
40
0.3201312056
40
0.6537406901
40
1.0000000000
40
1.0000000000
40
1.0000000000
40
1.0000000000
10
67.5714331091
20
130.1008324218
30
0.0000000000
10
67.4904151932
20
129.9100464743
30
0.0000000000
10
67.3200279351
20
129.5225178069
30
0.0000000000
10
67.0440418579
20
128.9367362059
30
0.0000000000
10
66.8454545437
20
128.5437999289
30
0.0000000000
10
66.7414262089
20
128.3452035617
30
0.0000000000
11
67.5714331091
21
130.1008324218
31
0.0000000000
11
67.3211342107
21
129.5316056782
31
0.0000000000
11
67.0448957347
21
128.9454268123
31
0.0000000000
11
66.7414262089
21
128.3452035617
31
0.0000000000
0
SPLINE
5
499
100
AcDbEntity
8
0
100
AcDbSpline
62
7
6
CONTINUOUS
70
0
71
3
72
12
73
8
74
6
42
0.0000001000
43
0.0000001000
44
0.0000000001
40
0.0000000000
40
0.0000000000
40
0.0000000000
40
0.0000000000
40
0.3508270114
40
0.6659625168
40
0.8858267583
40
0.9887532807
40
1.0000000000
40
1.0000000000
40
1.0000000000
40
1.0000000000
10
64.6020250192
20
124.9832158078
30
0.0000000000
10
64.5081896566
20
124.8562646336
30
0.0000000000
10
64.3306755766
20
124.6241734103
30
0.0000000000
10
64.0532741072
20
124.2993990382
30
0.0000000000
10
63.8961322180
20
124.1369419084
30
0.0000000000
10
63.7178103466
20
123.9848089219
30
0.0000000000
10
63.6985779148
20
124.0147998208
30
0.0000000000
10
63.6970402293
20
124.0183925279
30
0.0000000000
11
64.6020250192
21
124.9832158078
31
0.0000000000
11
64.3125490366
21
124.6083841942
31
0.0000000000
11
64.0358435575
21
124.2852539434
31
0.0000000000
11
63.8242706091
21
124.0770948849
31
0.0000000000
11
63.7027717260
21
124.0096868459
31
0.0000000000
11
63.6970402293
21
124.0183925279
31
0.0000000000
0
SPLINE
5
49A
100
AcDbEntity
8
0
100
AcDbSpline
62
7
6
CONTINUOUS
70
0
71
3
72
12
73
8
74
6
42
0.0000001000
43
0.0000001000
44
0.0000000001
40
0.0000000000
40
0.0000000000
40
0.0000000000
40
0.0000000000
40
0.3069131536
40
0.5884976254
40
0.8133620555
40
0.9553285587
40
1.0000000000
40
1.0000000000
40
1.0000000000
40
1.0000000000
10
65.9273421013
20
128.1256240526
30
0.0000000000
10
65.8538792061
20
127.9905592338
30
0.0000000000
10
65.7027467179
20
127.7395364406
30
0.0000000000
10
65.4524639697
20
127.4054978650
30
0.0000000000
10
65.2372612350
20
127.1920337569
30
0.0000000000
10
65.0278344824
20
127.0517273803
30
0.0000000000
10
64.9477338055
20
127.1023788464
30
0.0000000000
10
64.9307157465
20
127.1183350446
30
0.0000000000
11
65.9273421013
21
128.1256240526
31
0.0000000000
11
65.6880944224
21
127.7312710782
31
0.0000000000
11
65.4312253630
21
127.3949600901
31
0.0000000000
11
65.1853447590
21
127.1631230711
31
0.0000000000
11
64.9869304437
21
127.0846794437
31
0.0000000000
11
64.9307157465
21
127.1183350446
31
0.0000000000
0
SPLINE
5
49B
100
AcDbEntity
8
0
100
AcDbSpline
62
7
6
CONTINUOUS
70
0
71
3
72
12
73
8
74
6
42
0.0000001000
43
0.0000001000
44
0.0000000001
40
0.0000000000
40
0.0000000000
40
0.0000000000
40
0.0000000000
40
0.2798059431
40
0.5498524406
40
0.7858176686
40
0.9498223286
40
1.0000000000
40
1.0000000000
40
1.0000000000
40
1.0000000000
10
67.9250084384
20
131.1128082410
30
0.0000000000
10
67.8785889169
20
130.9891635045
30
0.0000000000
10
67.7816456158
20
130.7480513905
30
0.0000000000
10
67.6405621139
20
130.4063529660
30
0.0000000000
10
67.4789979750
20
130.1275797679
30
0.0000000000
10
67.4121833630
20
129.9355591971
30
0.0000000000
10
67.2972077230
20
129.8704965167
30
0.0000000000
10
67.2788850786
20
129.8696127743
30
0.0000000000
11
67.9250084384
21
131.1128082410
31
0.0000000000
11
67.7794651345
21
130.7442946288
31
0.0000000000
11
67.6255659975
21
130.3942373483
31
0.0000000000
11
67.4745513937
21
130.0961770347
31
0.0000000000
11
67.3465140670
21
129.9024252640
31
0.0000000000
11
67.2788850786
21
129.8696127743
31
0.0000000000
0
SPLINE
5
49C
100
AcDbEntity
8
0
100
AcDbSpline
62
7
6
CONTINUOUS
70
0
71
3
72
12
73
8
74
6
42
0.0000001000
43
0.0000001000
44
0.0000000001
40
0.0000000000
40
0.0000000000
40
0.0000000000
40
0.0000000000
40
0.3480884804
40
0.6483404012
40
0.8656285587
40
0.9811996467
40
1.0000000000
40
1.0000000000
40
1.0000000000
40
1.0000000000
10
69.1370382748
20
144.6265163139
30
0.0000000000
10
69.1675239201
20
144.4615450140
30
0.0000000000
10
69.2136413034
20
144.1585164377
30
0.0000000000
10
69.2780092841
20
143.7241103434
30
0.0000000000
10
69.2595842994
20
143.4639458364
30
0.0000000000
10
69.3027841455
20
143.2257797509
30
0.0000000000
10
69.2374224646
20
143.2142202027
30
0.0000000000
10
69.2279303224
20
143.2140118810
30
0.0000000000
11
69.1370382748
21
144.6265163139
31
0.0000000000
11
69.2176473250
21
144.1297202590
31
0.0000000000
11
69.2661562082
21
143.6983114447
31
0.0000000000
11
69.2781770268
21
143.3843694459
31
0.0000000000
11
69.2541097645
21
143.2190100717
31
0.0000000000
11
69.2279303224
21
143.2140118810
31
0.0000000000
0
SPLINE
5
49D
100
AcDbEntity
8
0
100
AcDbSpline
62
7
6
CONTINUOUS
70
0
71
3
72
12
73
8
74
6
42
0.0000001000
43
0.0000001000
44
0.0000000001
40
0.0000000000
40
0.0000000000
40
0.0000000000
40
0.0000000000
40
0.3223413329
40
0.6048357518
40
0.8143123334
40
0.9454460993
40
1.0000000000
40
1.0000000000
40
1.0000000000
40
1.0000000000
10
68.9506842717
20
141.2211577233
30
0.0000000000
10
68.9577146563
20
141.0628082263
30
0.0000000000
10
68.9569680598
20
140.7666604908
30
0.0000000000
10
68.9158376069
20
140.3608185746
30
0.0000000000
10
68.8384806119
20
140.0782638983
30
0.0000000000
10
68.7466208556
20
139.8745122005
30
0.0000000000
10
68.6485337531
20
139.8649104973
30
0.0000000000
10
68.6206405762
20
139.8685388340
30
0.0000000000
11
68.9506842717
21
141.2211577233
31
0.0000000000
11
68.9484539775
21
140.7456464919
31
0.0000000000
11
68.9002045894
21
140.3317145889
31
0.0000000000
11
68.8148008212
21
140.0347316355
31
0.0000000000
11
68.7014279329
21
139.8779876062
31
0.0000000000
11
68.6206405762
21
139.8685388340
31
0.0000000000
0
SPLINE
5
49E
100
AcDbEntity
8
0
100
AcDbSpline
62
7
6
CONTINUOUS
70
0
71
3
72
17
73
13
74
11
42
0.0000001000
43
0.0000001000
44
0.0000000001
40
0.0000000000
40
0.0000000000
40
0.0000000000
40
0.0000000000
40
0.1444991010
40
0.2856542106
40
0.4184908032
40
0.5422274411
40
0.6604754621
40
0.7730744873
40
0.8743199473
40
0.9522762547
40
0.9947673936
40
1.0000000000
40
1.0000000000
40
1.0000000000
40
1.0000000000
10
69.4366795236
20
137.6605750764
30
0.0000000000
10
69.4302167405
20
137.5924917253
30
0.0000000000
10
69.4162833568
20
137.4580048533
30
0.0000000000
10
69.3924298494
20
137.2613816815
30
0.0000000000
10
69.3662620471
20
137.0749194487
30
0.0000000000
10
69.3381269555
20
136.8998860047
30
0.0000000000
10
69.3070627428
20
136.7344759064
30
0.0000000000
10
69.2743033222
20
136.5823458338
30
0.0000000000
10
69.2345202055
20
136.4447204245
30
0.0000000000
10
69.2059662223
20
136.3567924982
30
0.0000000000
10
69.1606636573
20
136.2893085035
30
0.0000000000
10
69.1438005842
20
136.2929920034
30
0.0000000000
10
69.1419632680
20
136.2937005599
30
0.0000000000
11
69.4366795236
21
137.6605750764
31
0.0000000000
11
69.4155192727
21
137.4565009816
31
0.0000000000
11
69.3913161808
21
137.2575475403
31
0.0000000000
11
69.3650258296
21
137.0707797441
31
0.0000000000
11
69.3369212310
21
136.8973537800
31
0.0000000000
11
69.3058992731
21
136.7323492250
31
0.0000000000
11
69.2709486922
21
136.5763416825
31
0.0000000000
11
69.2317761628
21
136.4380276331
31
0.0000000000
11
69.1897099066
21
136.3356459108
31
0.0000000000
11
69.1475025228
21
136.2925366011
31
0.0000000000
11
69.1419632680
21
136.2937005599
31
0.0000000000
0
SPLINE
5
49F
100
AcDbEntity
8
0
100
AcDbSpline
62
7
6
CONTINUOUS
70
0
71
3
72
12
73
8
74
6
42
0.0000001000
43
0.0000001000
44
0.0000000001
40
0.0000000000
40
0.0000000000
40
0.0000000000
40
0.0000000000
40
0.3342839788
40
0.6196857327
40
0.8315933957
40
0.9642728328
40
1.0000000000
40
1.0000000000
40
1.0000000000
40
1.0000000000
10
68.3379277944
20
134.4658600984
30
0.0000000000
10
68.3001172917
20
134.3020848182
30
0.0000000000
10
68.2167228113
20
134.0037258147
30
0.0000000000
10
68.0554614038
20
133.6070702440
30
0.0000000000
10
67.9064360069
20
133.3505613617
30
0.0000000000
10
67.7430753222
20
133.1826184041
30
0.0000000000
10
67.6645837712
20
133.2059491196
30
0.0000000000
10
67.6483931263
20
133.2140142198
30
0.0000000000
11
68.3379277944
21
134.4658600984
31
0.0000000000
11
68.1994433225
21
133.9809994587
31
0.0000000000
11
68.0342265475
21
133.5834503820
31
0.0000000000
11
67.8625450389
21
133.3138162720
31
0.0000000000
11
67.6976104918
21
133.2004470329
31
0.0000000000
11
67.6483931263
21
133.2140142198
31
0.0000000000
0
SPLINE
5
4A0
100
AcDbEntity
8
0
100
AcDbSpline
62
7
6
CONTINUOUS
70
0
71
3
72
10
73
6
74
4
42
0.0000001000
43
0.0000001000
44
0.0000000001
40
0.0000000000
40
0.0000000000
40
0.0000000000
40
0.0000000000
40
0.3554331093
40
0.6880345799
40
1.0000000000
40
1.0000000000
40
1.0000000000
40
1.0000000000
10
63.3574797926
20
123.4511325373
30
0.0000000000
10
63.8272950068
20
123.9788044448
30
0.0000000000
10
64.6927497084
20
125.0404903628
30
0.0000000000
10
65.8155823387
20
126.6831418848
30
0.0000000000
10
66.4536862479
20
127.7958906163
30
0.0000000000
10
66.7414262089
20
128.3452035617
30
0.0000000000
11
63.3574797926
21
123.4511325373
31
0.0000000000
11
64.6966749912
21
125.0940056355
31
0.0000000000
11
65.8159511709
21
126.7314046499
31
0.0000000000
11
66.7414262089
21
128.3452035617
31
0.0000000000
0
SPLINE
5
4A1
100
AcDbEntity
8
0
100
AcDbSpline
62
7
6
CONTINUOUS
70
0
71
3
72
10
73
6
74
4
42
0.0000001000
43
0.0000001000
44
0.0000000001
40
0.0000000000
40
0.0000000000
40
0.0000000000
40
0.0000000000
40
0.3363527101
40
0.6697198484
40
1.0000000000
40
1.0000000000
40
1.0000000000
40
1.0000000000
10
142.4531432998
20
180.2722001310
30
0.0000000000
10
142.6045052281
20
180.8557874544
30
0.0000000000
10
142.9521477410
20
182.0063554982
30
0.0000000000
10
143.6036677441
20
183.6779457349
30
0.0000000000
10
144.1200456509
20
184.7511086158
30
0.0000000000
10
144.3967751701
20
185.2744622690
30
0.0000000000
11
142.4531432998
21
180.2722001310
31
0.0000000000
11
142.9760689877
21
182.0036475318
31
0.0000000000
11
143.6268743989
21
183.6739756991
31
0.0000000000
11
144.3967751701
21
185.2744622690
31
0.0000000000
0
SPLINE
5
4A2
100
AcDbEntity
8
0
100
AcDbSpline
62
7
6
CONTINUOUS
70
0
71
3
72
29
73
25
74
23
42
0.0000001000
43
0.0000001000
44
0.0000000001
40
0.0000000000
40
0.0000000000
40
0.0000000000
40
0.0000000000
40
0.0148203807
40
0.0312345586
40
0.0500211256
40
0.0712688973
40
0.0940101039
40
0.1179361099
40
0.1441660341
40
0.1728542194
40
0.2041153854
40
0.2382279974
40
0.2754528472
40
0.3160655168
40
0.3603962568
40
0.4087777643
40
0.4616088665
40
0.5193205676
40
0.5823972842
40
0.6513867060
40
0.7269015159
40
0.8096330569
40
0.9003658245
40
1.0000000000
40
1.0000000000
40
1.0000000000
40
1.0000000000
10
85.8292735632
20
60.8574765346
30
0.0000000000
10
85.8097894692
20
60.8055197308
30
0.0000000000
10
85.7888227206
20
60.6881756153
30
0.0000000000
10
85.8054547239
20
60.5003333461
30
0.0000000000
10
85.8618339926
20
60.2957729985
30
0.0000000000
10
85.9532699977
20
60.0787439030
30
0.0000000000
10
86.0736553953
20
59.8544515180
30
0.0000000000
10
86.2195058314
20
59.6235438440
30
0.0000000000
10
86.3912287169
20
59.3832573218
30
0.0000000000
10
86.5914835251
20
59.1301068138
30
0.0000000000
10
86.8216652803
20
58.8634285654
30
0.0000000000
10
87.0837627949
20
58.5824651749
30
0.0000000000
10
87.3804770829
20
58.2862807193
30
0.0000000000
10
87.7149195047
20
57.9741036604
30
0.0000000000
10
88.0906498383
20
57.6453163130
30
0.0000000000
10
88.5118188474
20
57.2993833701
30
0.0000000000
10
88.9831186615
20
56.9359835631
30
0.0000000000
10
89.5099511549
20
56.5549849807
30
0.0000000000
10
90.0984442907
20
56.1565687922
30
0.0000000000
10
90.7555833835
20
55.7413080805
30
0.0000000000
10
91.4893012066
20
55.3102699057
30
0.0000000000
10
92.3086131742
20
54.8651807889
30
0.0000000000
10
93.2237901509
20
54.4086386280
30
0.0000000000
10
93.8729988474
20
54.1139370861
30
0.0000000000
10
94.2154680814
20
53.9660217445
30
0.0000000000
11
85.8292735632
21
60.8574765346
31
0.0000000000
11
85.7969511491
21
60.6941746181
31
0.0000000000
11
85.8097655403
21
60.5102481612
31
0.0000000000
11
85.8634115196
21
60.3061608603
31
0.0000000000
11
85.9543382608
21
60.0854945247
31
0.0000000000
11
86.0740839142
21
59.8598600356
31
0.0000000000
11
86.2169190843
21
59.6322109362
31
0.0000000000
11
86.3876998677
21
59.3921288297
31
0.0000000000
11
86.5871991740
21
59.1390700642
31
0.0000000000
11
86.8162938517
21
58.8729577867
31
0.0000000000
11
87.0773753999
21
58.5925015431
31
0.0000000000
11
87.3730492672
21
58.2968527512
31
0.0000000000
11
87.7063061231
21
57.9853373447
31
0.0000000000
11
88.0808369476
21
57.6571970032
31
0.0000000000
11
88.5006030779
21
57.3120457836
31
0.0000000000
11
88.9703832753
21
56.9494710324
31
0.0000000000
11
89.4955065672
21
56.5693795125
31
0.0000000000
11
90.0820596882
21
56.1719614977
31
0.0000000000
11
90.7370070214
21
55.7577742271
31
0.0000000000
11
91.4682262904
21
55.3278949497
31
0.0000000000
11
92.2846669895
21
54.8840591149
31
0.0000000000
11
93.1965214630
21
54.4288661129
31
0.0000000000
11
94.2154680814
21
53.9660217445
31
0.0000000000
0
SPLINE
5
4A3
100
AcDbEntity
8
0
100
AcDbSpline
62
7
6
CONTINUOUS
70
0
71
3
72
9
73
5
74
3
42
0.0000001000
43
0.0000001000
44
0.0000000001
40
0.0000000000
40
0.0000000000
40
0.0000000000
40
0.0000000000
40
0.4991854848
40
1.0000000000
40
1.0000000000
40
1.0000000000
40
1.0000000000
10
141.9175866979
20
175.1112957406
30
0.0000000000
10
141.9027053778
20
175.9760993395
30
0.0000000000
10
141.9773945758
20
177.7118957756
30
0.0000000000
10
142.2604749111
20
179.4261054047
30
0.0000000000
10
142.4531432998
20
180.2722001310
30
0.0000000000
11
141.9175866979
21
175.1112957406
31
0.0000000000
11
142.0292010896
21
177.7036889770
31
0.0000000000
11
142.4531432998
21
180.2722001310
31
0.0000000000
0
SPLINE
5
4A4
100
AcDbEntity
8
0
100
AcDbSpline
62
7
6
CONTINUOUS
70
0
71
3
72
16
73
12
74
10
42
0.0000001000
43
0.0000001000
44
0.0000000001
40
0.0000000000
40
0.0000000000
40
0.0000000000
40
0.0000000000
40
0.1578971385
40
0.3164855204
40
0.4674626575
40
0.6068103279
40
0.7307346274
40
0.8332360116
40
0.9126397007
40
0.9677409659
40
1.0000000000
40
1.0000000000
40
1.0000000000
40
1.0000000000
10
155.5611123511
20
205.7560995640
30
0.0000000000
10
155.4956930411
20
205.4686231980
30
0.0000000000
10
155.3512624941
20
204.8953473080
30
0.0000000000
10
155.0988995119
20
204.0594585800
30
0.0000000000
10
154.8182802737
20
203.2692267179
30
0.0000000000
10
154.5229459745
20
202.5540528656
30
0.0000000000
10
154.2267052525
20
201.9378808922
30
0.0000000000
10
153.9464509351
20
201.4407342634
30
0.0000000000
10
153.6923373500
20
201.0745281777
30
0.0000000000
10
153.4862311534
20
200.8464274546
30
0.0000000000
10
153.3345356226
20
200.7560995640
30
0.0000000000
10
153.2743014675
20
200.7560995640
30
0.0000000000
11
155.5611123511
21
205.7560995640
31
0.0000000000
11
155.3450001827
21
204.8984302484
31
0.0000000000
11
155.0878644110
21
204.0481086387
31
0.0000000000
11
154.8041147892
21
203.2514157339
31
0.0000000000
11
154.5047984541
21
202.5305129192
31
0.0000000000
11
154.2021333373
21
201.9057943840
31
0.0000000000
11
153.9162857079
21
201.4078332579
31
0.0000000000
11
153.6586056565
21
201.0452899333
31
0.0000000000
11
153.4406048420
21
200.8267859741
31
0.0000000000
11
153.2743014675
21
200.7560995640
31
0.0000000000
0
SPLINE
5
4A5
100
AcDbEntity
8
0
100
AcDbSpline
62
7
6
CONTINUOUS
70
0
71
3
72
21
73
17
74
15
42
0.0000001000
43
0.0000001000
44
0.0000000001
40
0.0000000000
40
0.0000000000
40
0.0000000000
40
0.0000000000
40
0.0714229295
40
0.1431894140
40
0.2148324500
40
0.2860300970
40
0.3575285479
40
0.4292087993
40
0.5006070658
40
0.5718246595
40
0.6430406258
40
0.7142129597
40
0.7853787732
40
0.8569454722
40
0.9286401400
40
1.0000000000
40
1.0000000000
40
1.0000000000
40
1.0000000000
10
176.8507661338
20
60.3474991104
30
0.0000000000
10
178.0326289596
20
61.9801808609
30
0.0000000000
10
180.2187221192
20
65.3906856024
30
0.0000000000
10
182.8970037183
20
70.8434506335
30
0.0000000000
10
184.9383737534
20
76.5592390247
30
0.0000000000
10
186.3197506382
20
82.4611404554
30
0.0000000000
10
187.0271274049
20
88.4823758911
30
0.0000000000
10
187.0488626569
20
94.5507136994
30
0.0000000000
10
186.3853442031
20
100.5746040817
30
0.0000000000
10
185.0501101244
20
106.4724810263
30
0.0000000000
10
183.0615454534
20
112.1765370642
30
0.0000000000
10
180.4441978151
20
117.6191922231
30
0.0000000000
10
177.2256817183
20
122.7410415592
30
0.0000000000
10
173.4399892682
20
127.4785739426
30
0.0000000000
10
169.1383946336
20
131.7598983141
30
0.0000000000
10
165.9648917795
20
134.2716033688
30
0.0000000000
10
164.3176614890
20
135.4300119066
30
0.0000000000
11
176.8507661338
21
60.3474991104
31
0.0000000000
11
180.1137140254
21
65.4381980792
31
0.0000000000
11
182.7924267120
21
70.8915573324
31
0.0000000000
11
184.8323922129
21
76.6034993838
31
0.0000000000
11
186.2060853545
21
82.4724624566
31
0.0000000000
11
186.9123322922
21
88.4841694745
31
0.0000000000
11
186.9340643101
21
94.5525710823
31
0.0000000000
11
186.2722597809
21
100.5607999109
31
0.0000000000
11
184.9409511968
21
106.4412538185
31
0.0000000000
11
182.9561835457
21
112.1343335285
31
0.0000000000
11
180.3448154163
21
117.5644981002
31
0.0000000000
11
177.1391590043
21
122.6657769327
31
0.0000000000
11
173.3568807617
21
127.3990377821
31
0.0000000000
11
169.0547503106
21
131.6806798023
31
0.0000000000
11
164.3176614890
21
135.4300119066
31
0.0000000000
0
SPLINE
5
4A6
100
AcDbEntity
8
0
100
AcDbSpline
62
7
6
CONTINUOUS
70
0
71
3
72
20
73
16
74
14
42
0.0000001000
43
0.0000001000
44
0.0000000001
40
0.0000000000
40
0.0000000000
40
0.0000000000
40
0.0000000000
40
0.0768743695
40
0.1540262829
40
0.2311008264
40
0.3079019197
40
0.3848621051
40
0.4619198645
40
0.5387630829
40
0.6155826125
40
0.6925146270
40
0.7693727873
40
0.8463160712
40
0.9231801792
40
1.0000000000
40
1.0000000000
40
1.0000000000
40
1.0000000000
10
91.1542192136
20
36.1486828548
30
0.0000000000
10
93.4263428422
20
35.2051602458
30
0.0000000000
10
98.0795364590
20
33.5475409956
30
0.0000000000
10
105.2771070983
20
31.7922275214
30
0.0000000000
10
112.6155514407
20
30.7872537833
30
0.0000000000
10
120.0119537683
20
30.5416779145
30
0.0000000000
10
127.3940783554
20
31.0566327601
30
0.0000000000
10
134.6854621053
20
32.3282682842
30
0.0000000000
10
141.8031379896
20
34.3412578626
30
0.0000000000
10
148.6729121865
20
37.0725378280
30
0.0000000000
10
155.2263861345
20
40.4950633799
30
0.0000000000
10
161.3968969762
20
44.5747496865
30
0.0000000000
10
167.1141492331
20
49.2655438766
30
0.0000000000
10
172.3179207335
20
54.5172911872
30
0.0000000000
10
175.4091744096
20
58.3560154556
30
0.0000000000
10
176.8507661338
20
60.3474991104
30
0.0000000000
11
91.1542192136
21
36.1486828548
31
0.0000000000
11
98.1070001888
21
33.6720191745
31
0.0000000000
11
105.3034322821
21
31.9168981413
31
0.0000000000
11
112.6349490355
21
30.9129290281
31
0.0000000000
11
120.0045726662
21
30.6682400884
31
0.0000000000
11
127.3756181313
21
31.1824435562
31
0.0000000000
11
134.6639323636
21
32.4535536510
31
0.0000000000
11
141.7632035876
21
34.4613470836
31
0.0000000000
11
148.6168433761
21
37.1862239163
31
0.0000000000
11
155.1640231856
21
40.6054622373
31
0.0000000000
11
161.3194514230
21
44.6751992619
31
0.0000000000
11
167.0305708633
21
49.3609066169
31
0.0000000000
11
172.2247649589
21
54.6031229259
31
0.0000000000
11
176.8507661338
21
60.3474991104
31
0.0000000000
0
SPLINE
5
4A7
100
AcDbEntity
8
0
100
AcDbSpline
62
7
6
CONTINUOUS
70
0
71
3
72
12
73
8
74
6
42
0.0000001000
43
0.0000001000
44
0.0000000001
40
0.0000000000
40
0.0000000000
40
0.0000000000
40
0.0000000000
40
0.2178974883
40
0.4202922205
40
0.6149629475
40
0.8070663445
40
1.0000000000
40
1.0000000000
40
1.0000000000
40
1.0000000000
10
141.9175866966
20
175.1112962820
30
0.0000000000
10
141.9340252568
20
174.1559951352
30
0.0000000000
10
141.9643082723
20
172.3133346252
30
0.0000000000
10
142.0035911599
20
169.6171135668
30
0.0000000000
10
142.0356835529
20
167.0339076533
30
0.0000000000
10
142.0609503571
20
164.4921127142
30
0.0000000000
10
142.0729155393
20
162.8038315353
30
0.0000000000
10
142.0775653589
20
161.9578638057
30
0.0000000000
11
141.9175866966
21
175.1112962820
31
0.0000000000
11
141.9645019058
21
172.2453525407
31
0.0000000000
11
142.0031139887
21
169.5832354962
31
0.0000000000
11
142.0347568487
21
167.0226392096
31
0.0000000000
11
142.0597151532
21
164.4957425563
31
0.0000000000
11
142.0775653589
21
161.9578638057
31
0.0000000000
0
SPLINE
5
4A8
100
AcDbEntity
8
0
100
AcDbSpline
62
7
6
CONTINUOUS
70
0
71
3
72
15
73
11
74
9
42
0.0000001000
43
0.0000001000
44
0.0000000001
40
0.0000000000
40
0.0000000000
40
0.0000000000
40
0.0000000000
40
0.1247424191
40
0.2495340236
40
0.3746112043
40
0.4995230171
40
0.6241589478
40
0.7493985979
40
0.8749265773
40
1.0000000000
40
1.0000000000
40
1.0000000000
40
1.0000000000
10
61.1653723328
20
68.0727436000
30
0.0000000000
10
61.7750172043
20
66.2986958590
30
0.0000000000
10
63.1831565209
20
62.8115271921
30
0.0000000000
10
65.8361843635
20
57.8306488013
30
0.0000000000
10
69.0017998612
20
53.1548378704
30
0.0000000000
10
72.6418105416
20
48.8413658379
30
0.0000000000
10
76.7178280838
20
44.9338422564
30
0.0000000000
10
81.1909850858
20
41.4724092582
30
0.0000000000
10
86.0105517987
20
38.5008164015
30
0.0000000000
10
89.4171801698
20
36.8700061094
30
0.0000000000
10
91.1542192136
20
36.1486828548
30
0.0000000000
11
61.1653723328
21
68.0727436000
31
0.0000000000
11
63.2726139490
21
62.8545309674
31
0.0000000000
11
65.9192036339
21
57.8855518816
31
0.0000000000
11
69.0826625854
21
53.2129778970
31
0.0000000000
11
72.7169658315
21
48.9062248669
31
0.0000000000
11
76.7759194823
21
45.0150737456
31
0.0000000000
11
81.2443317561
21
41.5572588089
31
0.0000000000
11
86.0648215162
21
38.5851840295
31
0.0000000000
11
91.1542192136
21
36.1486828548
31
0.0000000000
0
SPLINE
5
4A9
100
AcDbEntity
8
0
100
AcDbSpline
62
7
6
CONTINUOUS
70
0
71
3
72
13
73
9
74
7
42
0.0000001000
43
0.0000001000
44
0.0000000001
40
0.0000000000
40
0.0000000000
40
0.0000000000
40
0.0000000000
40
0.1665785101
40
0.3333120109
40
0.4995388198
40
0.6666723015
40
0.8337898870
40
1.0000000000
40
1.0000000000
40
1.0000000000
40
1.0000000000
10
148.0551892077
20
147.1681486848
30
0.0000000000
10
147.4289412985
20
147.8237784461
30
0.0000000000
10
146.2572276690
20
149.2162326160
30
0.0000000000
10
144.7785302614
20
151.5060950043
30
0.0000000000
10
143.5977255578
20
153.9666125555
30
0.0000000000
10
142.7353393233
20
156.5582788118
30
0.0000000000
10
142.2069596337
20
159.2375584120
30
0.0000000000
10
142.0825376880
20
161.0532201358
30
0.0000000000
10
142.0775653589
20
161.9578638057
30
0.0000000000
11
148.0551892077
21
147.1681486848
31
0.0000000000
11
146.3039965930
21
149.2494117331
31
0.0000000000
11
144.8270396113
21
151.5364848152
31
0.0000000000
11
143.6527518849
21
153.9835590300
31
0.0000000000
11
142.7910820150
21
156.5730058913
31
0.0000000000
11
142.2631867966
21
159.2502470078
31
0.0000000000
11
142.0775653589
21
161.9578638057
31
0.0000000000
0
SPLINE
5
4AA
100
AcDbEntity
8
0
100
AcDbSpline
62
7
6
CONTINUOUS
70
0
71
3
72
8
73
4
74
2
42
0.0000001000
43
0.0000001000
44
0.0000000001
40
0.0000000000
40
0.0000000000
40
0.0000000000
40
0.0000000000
40
1.0000000000
40
1.0000000000
40
1.0000000000
40
1.0000000000
10
153.2743014675
20
230.7560995640
30
0.0000000000
10
153.3003745743
20
230.7560995640
30
0.0000000000
10
153.3256645877
20
230.7498246660
30
0.0000000000
10
153.3500215061
20
230.7396893488
30
0.0000000000
11
153.2743014675
21
230.7560995640
31
0.0000000000
11
153.3500215061
21
230.7396893488
31
0.0000000000
0
SPLINE
5
4AB
100
AcDbEntity
8
0
100
AcDbSpline
62
7
6
CONTINUOUS
70
0
71
3
72
16
73
12
74
10
42
0.0000001000
43
0.0000001000
44
0.0000000001
40
0.0000000000
40
0.0000000000
40
0.0000000000
40
0.0000000000
40
0.0181290706
40
0.0738729357
40
0.1548053537
40
0.2587046589
40
0.3838659888
40
0.5253588246
40
0.6788934108
40
0.8398480805
40
1.0000000000
40
1.0000000000
40
1.0000000000
40
1.0000000000
10
153.3500215061
20
230.7396893488
30
0.0000000000
10
153.3812027382
20
230.7267143217
30
0.0000000000
10
153.5020297689
20
230.6480630614
30
0.0000000000
10
153.6910706449
20
230.4393667335
30
0.0000000000
10
153.9455414210
20
230.0730000433
30
0.0000000000
10
154.2257291962
20
229.5761279598
30
0.0000000000
10
154.5217997393
20
228.9607015414
30
0.0000000000
10
154.8173592075
20
228.2454609695
30
0.0000000000
10
155.0985063277
20
227.4540168336
30
0.0000000000
10
155.3511887286
20
226.6171411292
30
0.0000000000
10
155.4956848163
20
226.0436120731
30
0.0000000000
10
155.5611123511
20
225.7560995640
30
0.0000000000
11
153.3500215061
21
230.7396893488
31
0.0000000000
11
153.4386628578
21
230.6868498698
31
0.0000000000
11
153.6565967785
21
230.4693508435
31
0.0000000000
11
153.9157938868
21
230.1051416588
31
0.0000000000
11
154.2015698561
21
229.6074752664
31
0.0000000000
11
154.5031347305
21
228.9853956777
31
0.0000000000
11
154.8029974368
21
228.2636848601
31
0.0000000000
11
155.0876192566
21
227.4648356968
31
0.0000000000
11
155.3449705177
21
226.6138760818
31
0.0000000000
11
155.5611123511
21
225.7560995640
31
0.0000000000
0
SPLINE
5
4AC
100
AcDbEntity
8
0
100
AcDbSpline
62
7
6
CONTINUOUS
70
0
71
3
72
10
73
6
74
4
42
0.0000001000
43
0.0000001000
44
0.0000000001
40
0.0000000000
40
0.0000000000
40
0.0000000000
40
0.0000000000
40
0.3192144842
40
0.6525498821
40
1.0000000000
40
1.0000000000
40
1.0000000000
40
1.0000000000
10
55.7856851517
20
104.1638578591
30
0.0000000000
10
55.8178458751
20
103.8345517803
30
0.0000000000
10
55.8855683190
20
103.1615642688
30
0.0000000000
10
55.9947935374
20
102.1308094038
30
0.0000000000
10
56.0725298173
20
101.4294522403
30
0.0000000000
10
56.1129705455
20
101.0715903789
30
0.0000000000
11
55.7856851517
21
104.1638578591
31
0.0000000000
11
55.8849529268
21
103.1762156364
31
0.0000000000
11
55.9940615391
21
102.1454459219
31
0.0000000000
11
56.1129705455
21
101.0715903789
31
0.0000000000
0
SPLINE
5
4AD
100
AcDbEntity
8
0
100
AcDbSpline
62
7
6
CONTINUOUS
70
0
71
3
72
9
73
5
74
3
42
0.0000001000
43
0.0000001000
44
0.0000000001
40
0.0000000000
40
0.0000000000
40
0.0000000000
40
0.0000000000
40
0.4994815613
40
1.0000000000
40
1.0000000000
40
1.0000000000
40
1.0000000000
10
57.0723296478
20
92.7171340003
30
0.0000000000
10
56.9099217617
20
94.1077898284
30
0.0000000000
10
56.5876194526
20
96.8923218736
30
0.0000000000
10
56.2705174664
20
99.6774504393
30
0.0000000000
10
56.1129705455
20
101.0715903789
30
0.0000000000
11
57.0723296478
21
92.7171340003
31
0.0000000000
11
56.5892510267
21
96.8895834763
31
0.0000000000
11
56.1129705455
21
101.0715903789
31
0.0000000000
0
SPLINE
5
4AE
100
AcDbEntity
8
0
100
AcDbSpline
62
7
6
CONTINUOUS
70
0
71
3
72
9
73
5
74
3
42
0.0000001000
43
0.0000001000
44
0.0000000001
40
0.0000000000
40
0.0000000000
40
0.0000000000
40
0.0000000000
40
0.8592032054
40
1.0000000000
40
1.0000000000
40
1.0000000000
40
1.0000000000
10
134.0425251387
20
136.8381040011
30
0.0000000000
10
133.3836958800
20
137.7062643330
30
0.0000000000
10
132.6669151824
20
138.7553375591
30
0.0000000000
10
132.0074691423
20
139.8397945730
30
0.0000000000
10
131.9157793139
20
139.9931697477
30
0.0000000000
11
134.0425251387
21
136.8381040011
31
0.0000000000
11
132.1943015068
21
139.5351198691
31
0.0000000000
11
131.9157793139
21
139.9931697477
31
0.0000000000
0
SPLINE
5
4AF
100
AcDbEntity
8
0
100
AcDbSpline
62
7
6
CONTINUOUS
70
0
71
3
72
8
73
4
74
2
42
0.0000001000
43
0.0000001000
44
0.0000000001
40
0.0000000000
40
0.0000000000
40
0.0000000000
40
0.0000000000
40
1.0000000000
40
1.0000000000
40
1.0000000000
40
1.0000000000
10
131.9157793139
20
139.9931697477
30
0.0000000000
10
131.4681686661
20
140.7419154103
30
0.0000000000
10
131.0481567835
20
141.5070360441
30
0.0000000000
10
130.6582418917
20
142.2868638133
30
0.0000000000
11
131.9157793139
21
139.9931697477
31
0.0000000000
11
130.6582418917
21
142.2868638133
31
0.0000000000
0
SPLINE
5
4B0
100
AcDbEntity
8
0
100
AcDbSpline
62
7
6
CONTINUOUS
70
0
71
3
72
8
73
4
74
2
42
0.0000001000
43
0.0000001000
44
0.0000000001
40
0.0000000000
40
0.0000000000
40
0.0000000000
40
0.0000000000
40
1.0000000000
40
1.0000000000
40
1.0000000000
40
1.0000000000
10
130.6582418917
20
142.2868638133
30
0.0000000000
10
130.6406543442
20
142.3220388174
30
0.0000000000
10
130.6231280310
20
142.3572437441
30
0.0000000000
10
130.6056631811
20
142.3924784403
30
0.0000000000
11
130.6582418917
21
142.2868638133
31
0.0000000000
11
130.6056631811
21
142.3924784403
31
0.0000000000
0
SPLINE
5
4B1
100
AcDbEntity
8
0
100
AcDbSpline
62
7
6
CONTINUOUS
70
0
71
3
72
15
73
11
74
9
42
0.0000001000
43
0.0000001000
44
0.0000000001
40
0.0000000000
40
0.0000000000
40
0.0000000000
40
0.0000000000
40
0.1190004441
40
0.2390028226
40
0.3605431828
40
0.4840366963
40
0.6097571174
40
0.7378014326
40
0.8680644716
40
1.0000000000
40
1.0000000000
40
1.0000000000
40
1.0000000000
10
60.2922813601
20
116.1823492920
30
0.0000000000
10
59.9008977503
20
115.9527433868
30
0.0000000000
10
59.1456713451
20
115.4365736565
30
0.0000000000
10
58.1256455185
20
114.5085340413
30
0.0000000000
10
57.2338228647
20
113.4337775765
30
0.0000000000
10
56.4914806912
20
112.2249841023
30
0.0000000000
10
55.9205586507
20
110.8990879743
30
0.0000000000
10
55.5427826847
20
109.4787147407
30
0.0000000000
10
55.3774184171
20
107.9945156708
30
0.0000000000
10
55.4179234436
20
106.9909759280
30
0.0000000000
10
55.4762176320
20
106.4912797328
30
0.0000000000
11
60.2922813601
21
116.1823492920
31
0.0000000000
11
59.1684357136
21
115.4141885159
31
0.0000000000
11
58.1530114127
21
114.4904193156
31
0.0000000000
11
57.2651721420
21
113.4204707868
31
0.0000000000
11
56.5258579307
21
112.2166891255
31
0.0000000000
11
55.9570629629
21
110.8957911677
31
0.0000000000
11
55.5805080541
21
109.4802786561
31
0.0000000000
11
55.4155478541
21
107.9993147712
31
0.0000000000
11
55.4762176320
21
106.4912797328
31
0.0000000000
0
SPLINE
5
4B2
100
AcDbEntity
8
0
100
AcDbSpline
62
7
6
CONTINUOUS
70
0
71
3
72
11
73
7
74
5
42
0.0000001000
43
0.0000001000
44
0.0000000001
40
0.0000000000
40
0.0000000000
40
0.0000000000
40
0.0000000000
40
0.2492782793
40
0.4999210370
40
0.7506505826
40
1.0000000000
40
1.0000000000
40
1.0000000000
40
1.0000000000
10
77.1244694682
20
188.0939188749
30
0.0000000000
10
76.9605076069
20
188.1559512126
30
0.0000000000
10
76.6419981712
20
188.3098550377
30
0.0000000000
10
76.2128182679
20
188.6218918108
30
0.0000000000
10
75.8459703797
20
189.0053489721
30
0.0000000000
10
75.6506585720
20
189.3004224736
30
0.0000000000
10
75.5671751810
20
189.4546287280
30
0.0000000000
11
77.1244694682
21
188.0939188749
31
0.0000000000
11
76.6509936222
21
188.3228384008
31
0.0000000000
11
76.2232782414
21
188.6337712637
31
0.0000000000
11
75.8576279833
21
189.0160189026
31
0.0000000000
11
75.5671751810
21
189.4546287280
31
0.0000000000
0
SPLINE
5
4B3
100
AcDbEntity
8
0
100
AcDbSpline
62
7
6
CONTINUOUS
70
0
71
3
72
11
73
7
74
5
42
0.0000001000
43
0.0000001000
44
0.0000000001
40
0.0000000000
40
0.0000000000
40
0.0000000000
40
0.0000000000
40
0.2493912776
40
0.5000724022
40
0.7506663564
40
1.0000000000
40
1.0000000000
40
1.0000000000
40
1.0000000000
10
97.9603053813
20
160.2197532134
30
0.0000000000
10
97.8416759567
20
160.3334623319
30
0.0000000000
10
97.6223298489
20
160.5817400773
30
0.0000000000
10
97.3599374969
20
161.0036666914
30
0.0000000000
10
97.1715836359
20
161.4634005345
30
0.0000000000
10
97.0987793302
20
161.7864948689
30
0.0000000000
10
97.0760653597
20
161.9492041201
30
0.0000000000
11
97.9603053813
21
160.2197532134
31
0.0000000000
11
97.6339751970
21
160.5892568627
31
0.0000000000
11
97.3722691459
21
161.0100354438
31
0.0000000000
11
97.1844950557
21
161.4684182792
31
0.0000000000
11
97.0760653597
21
161.9492041201
31
0.0000000000
0
SPLINE
5
4B4
100
AcDbEntity
8
0
100
AcDbSpline
62
7
6
CONTINUOUS
70
0
71
3
72
17
73
13
74
11
42
0.0000001000
43
0.0000001000
44
0.0000000001
40
0.0000000000
40
0.0000000000
40
0.0000000000
40
0.0000000000
40
0.1852910258
40
0.3722331645
40
0.5344700281
40
0.6622537492
40
0.7622873522
40
0.8415250413
40
0.9048564464
40
0.9512450080
40
0.9794819282
40
1.0000000000
40
1.0000000000
40
1.0000000000
40
1.0000000000
10
134.4570867545
20
225.7560995640
30
0.0000000000
10
134.3207864835
20
226.0674043468
30
0.0000000000
10
134.0425816807
20
226.6908827246
30
0.0000000000
10
133.6314076851
20
227.5807253532
30
0.0000000000
10
133.2582577708
20
228.3720132028
30
0.0000000000
10
132.9544972527
20
229.0194783311
30
0.0000000000
10
132.7223084215
20
229.5331876458
30
0.0000000000
10
132.5519040269
20
229.9427629949
30
0.0000000000
10
132.4356287608
20
230.2736043208
30
0.0000000000
10
132.3828713872
20
230.5131371446
30
0.0000000000
10
132.3828072553
20
230.7080214178
30
0.0000000000
10
132.4787642496
20
230.7560995640
30
0.0000000000
10
132.5163957385
20
230.7560995640
30
0.0000000000
11
134.4570867545
21
225.7560995640
31
0.0000000000
11
134.0417941440
21
226.6871892119
31
0.0000000000
11
133.6110970835
21
227.6212675815
31
0.0000000000
11
133.2316284975
21
228.4292551556
31
0.0000000000
11
132.9345052024
21
229.0664795556
31
0.0000000000
11
132.7095848433
21
229.5688300411
31
0.0000000000
11
132.5445650446
21
229.9723745912
31
0.0000000000
11
132.4337178959
21
230.3027358608
31
0.0000000000
11
132.3869378460
21
230.5536513224
31
0.0000000000
11
132.4149995279
21
230.7064611808
31
0.0000000000
11
132.5163957385
21
230.7560995640
31
0.0000000000
0
SPLINE
5
4B5
100
AcDbEntity
8
0
100
AcDbSpline
62
7
6
CONTINUOUS
70
0
71
3
72
8
73
4
74
2
42
0.0000001000
43
0.0000001000
44
0.0000000001
40
0.0000000000
40
0.0000000000
40
0.0000000000
40
0.0000000000
40
1.0000000000
40
1.0000000000
40
1.0000000000
40
1.0000000000
10
132.5163957385
20
200.7560995640
30
0.0000000000
10
132.4787961900
20
200.7560995640
30
0.0000000000
10
132.4384324982
20
200.7762737322
30
0.0000000000
10
132.4150606226
20
200.8056447831
30
0.0000000000
11
132.5163957385
21
200.7560995640
31
0.0000000000
11
132.4150606226
21
200.8056447831
31
0.0000000000
0
SPLINE
5
4B6
100
AcDbEntity
8
0
100
AcDbSpline
62
7
6
CONTINUOUS
70
0
71
3
72
16
73
12
74
10
42
0.0000001000
43
0.0000001000
44
0.0000000001
40
0.0000000000
40
0.0000000000
40
0.0000000000
40
0.0000000000
40
0.0286884699
40
0.0755537924
40
0.1395988692
40
0.2204251483
40
0.3232580827
40
0.4550736402
40
0.6224219295
40
0.8138583037
40
1.0000000000
40
1.0000000000
40
1.0000000000
40
1.0000000000
10
132.4150606226
20
200.8056447831
30
0.0000000000
10
132.3830244916
20
200.8459040610
30
0.0000000000
10
132.3827321830
20
200.9974381204
30
0.0000000000
10
132.4346343559
20
201.2350110030
30
0.0000000000
10
132.5497737805
20
201.5639605748
30
0.0000000000
10
132.7199463305
20
201.9736925968
30
0.0000000000
10
132.9535324213
20
202.4907088505
30
0.0000000000
10
133.2602028187
20
203.1443098648
30
0.0000000000
10
133.6361441353
20
203.9415475987
30
0.0000000000
10
134.0466239137
20
204.8302738012
30
0.0000000000
10
134.3229669583
20
205.4497749051
30
0.0000000000
10
134.4570867545
20
205.7560995640
30
0.0000000000
11
132.4150606226
21
200.8056447831
31
0.0000000000
11
132.3868947183
21
200.9576722248
31
0.0000000000
11
132.4327762109
21
201.2060474768
31
0.0000000000
11
132.5421453622
21
201.5334285395
31
0.0000000000
11
132.7067282693
21
201.9367479705
31
0.0000000000
11
132.9330842037
21
202.4426263548
31
0.0000000000
11
133.2332947167
21
203.0864876824
31
0.0000000000
11
133.6166699773
21
203.9028632483
31
0.0000000000
11
134.0485359016
21
204.8398613592
31
0.0000000000
11
134.4570867545
21
205.7560995640
31
0.0000000000
0
SPLINE
5
4B7
100
AcDbEntity
8
0
100
AcDbSpline
62
7
6
CONTINUOUS
70
0
71
3
72
28
73
24
74
22
42
0.0000001000
43
0.0000001000
44
0.0000000001
40
0.0000000000
40
0.0000000000
40
0.0000000000
40
0.0000000000
40
0.0983020294
40
0.1883539416
40
0.2708599212
40
0.3465831501
40
0.4161696957
40
0.4801665333
40
0.5390496309
40
0.5932371297
40
0.6430985529
40
0.6889623060
40
0.7311209568
40
0.7698329596
40
0.8053229459
40
0.8377802687
40
0.8673652493
40
0.8941685555
40
0.9183365416
40
0.9395719762
40
0.9586259794
40
0.9780112941
40
1.0000000000
40
1.0000000000
40
1.0000000000
40
1.0000000000
10
134.7254723627
20
174.6199941654
30
0.0000000000
10
134.8799183891
20
174.8036073242
30
0.0000000000
10
135.1727291524
20
175.1580567319
30
0.0000000000
10
135.5863369082
20
175.6738186419
30
0.0000000000
10
135.9598264487
20
176.1510516446
30
0.0000000000
10
136.2979366801
20
176.5925004844
30
0.0000000000
10
136.6045439497
20
177.0011404272
30
0.0000000000
10
136.8826510386
20
177.3797481975
30
0.0000000000
10
137.1346435199
20
177.7308715677
30
0.0000000000
10
137.3624289461
20
178.0568650404
30
0.0000000000
10
137.5675200396
20
178.3599051473
30
0.0000000000
10
137.7510757809
20
178.6420094151
30
0.0000000000
10
137.9139041899
20
178.9050518561
30
0.0000000000
10
138.0564222057
20
179.1507707528
30
0.0000000000
10
138.1785503660
20
179.3807653891
30
0.0000000000
10
138.2795167377
20
179.5964966128
30
0.0000000000
10
138.3574870746
20
179.7991068932
30
0.0000000000
10
138.4088837990
20
179.9894359353
30
0.0000000000
10
138.4270582978
20
180.1658446016
30
0.0000000000
10
138.4009264797
20
180.3242191348
30
0.0000000000
10
138.3193167545
20
180.4504018364
30
0.0000000000
10
138.1924175541
20
180.5319310807
30
0.0000000000
10
138.0940323969
20
180.5590716917
30
0.0000000000
10
138.0412292958
20
180.5686747564
30
0.0000000000
11
134.7254723627
21
174.6199941654
31
0.0000000000
11
135.1841406563
21
175.1747280663
31
0.0000000000
11
135.5967921317
21
175.6890324524
31
0.0000000000
11
135.9691623475
21
176.1647601080
31
0.0000000000
11
136.3062840625
21
176.6049681670
31
0.0000000000
11
136.6120105174
21
177.0125894528
31
0.0000000000
11
136.8893129585
21
177.3903361090
31
0.0000000000
11
137.1405562253
21
177.7407287895
31
0.0000000000
11
137.3676312317
21
178.0661033702
31
0.0000000000
11
137.5720324430
21
178.3686228364
31
0.0000000000
11
137.7548984923
21
178.6502968817
31
0.0000000000
11
137.9170136806
21
178.9130002349
31
0.0000000000
11
138.0587575396
21
179.1584764060
31
0.0000000000
11
138.1799871108
21
179.3883345429
31
0.0000000000
11
138.2798138940
21
179.6040144314
31
0.0000000000
11
138.3562095824
21
179.8067264900
31
0.0000000000
11
138.4051201637
21
179.9967958679
31
0.0000000000
11
138.4193430046
21
180.1731884051
31
0.0000000000
11
138.3892729887
21
180.3257451577
31
0.0000000000
11
138.3128521252
21
180.4424729959
31
0.0000000000
11
138.1953602325
21
180.5221222974
31
0.0000000000
11
138.0412292958
21
180.5686747564
31
0.0000000000
0
SPLINE
5
4B8
100
AcDbEntity
8
0
100
AcDbSpline
62
7
6
CONTINUOUS
70
0
71
3
72
10
73
6
74
4
42
0.0000001000
43
0.0000001000
44
0.0000000001
40
0.0000000000
40
0.0000000000
40
0.0000000000
40
0.0000000000
40
0.3331516950
40
0.6662951099
40
1.0000000000
40
1.0000000000
40
1.0000000000
40
1.0000000000
10
148.0551892314
20
147.1681487033
30
0.0000000000
10
148.3843124959
20
146.8235838691
30
0.0000000000
10
149.0663415891
20
146.1567262597
30
0.0000000000
10
150.1556507630
20
145.2283267558
30
0.0000000000
10
150.9228443168
20
144.6601770460
30
0.0000000000
10
151.3158977080
20
144.3894175130
30
0.0000000000
11
148.0551892314
21
147.1681487033
31
0.0000000000
11
149.0772934073
21
146.1687856626
31
0.0000000000
11
150.1652193725
21
145.2415645692
31
0.0000000000
11
151.3158977080
21
144.3894175130
31
0.0000000000
0
SPLINE
5
4B9
100
AcDbEntity
8
0
100
AcDbSpline
62
7
6
CONTINUOUS
70
0
71
3
72
9
73
5
74
3
42
0.0000001000
43
0.0000001000
44
0.0000000001
40
0.0000000000
40
0.0000000000
40
0.0000000000
40
0.0000000000
40
0.5000225813
40
1.0000000000
40
1.0000000000
40
1.0000000000
40
1.0000000000
10
163.9012186750
20
135.7198685303
30
0.0000000000
10
163.9708623968
20
135.6718936190
30
0.0000000000
10
164.1099113219
20
135.5756105737
30
0.0000000000
10
164.2484921392
20
135.4786549889
30
0.0000000000
10
164.3176614862
20
135.4300119044
30
0.0000000000
11
163.9012186750
21
135.7198685303
31
0.0000000000
11
164.1098005642
21
135.5754380752
31
0.0000000000
11
164.3176614862
21
135.4300119044
31
0.0000000000
0
SPLINE
5
4BA
100
AcDbEntity
8
0
100
AcDbSpline
62
7
6
CONTINUOUS
70
0
71
3
72
10
73
6
74
4
42
0.0000001000
43
0.0000001000
44
0.0000000001
40
0.0000000000
40
0.0000000000
40
0.0000000000
40
0.0000000000
40
0.3334507721
40
0.6667654004
40
1.0000000000
40
1.0000000000
40
1.0000000000
40
1.0000000000
10
58.8840287511
20
76.3580057026
30
0.0000000000
10
58.8447609591
20
76.6506239502
30
0.0000000000
10
58.7710153506
20
77.2363935148
30
0.0000000000
10
58.6747660180
20
78.1165939295
30
0.0000000000
10
58.6201904055
20
78.7042672002
30
0.0000000000
10
58.5953045184
20
78.9982656835
30
0.0000000000
11
58.8840287511
21
76.3580057026
31
0.0000000000
11
58.7733937408
21
77.2367926389
31
0.0000000000
11
58.6771537168
21
78.1169085204
31
0.0000000000
11
58.5953045184
21
78.9982656835
31
0.0000000000
0
SPLINE
5
4BB
100
AcDbEntity
8
0
100
AcDbSpline
62
7
6
CONTINUOUS
70
0
71
3
72
9
73
5
74
3
42
0.0000001000
43
0.0000001000
44
0.0000000001
40
0.0000000000
40
0.0000000000
40
0.0000000000
40
0.0000000000
40
0.5000765376
40
1.0000000000
40
1.0000000000
40
1.0000000000
40
1.0000000000
10
60.7862513935
20
69.1679602188
30
0.0000000000
10
60.4682328915
20
70.0804064263
30
0.0000000000
10
59.8818046850
20
71.9226545084
30
0.0000000000
10
59.3963763351
20
73.7940525066
30
0.0000000000
10
59.1793272464
20
74.7353346193
30
0.0000000000
11
60.7862513935
21
69.1679602188
31
0.0000000000
11
59.9069726124
21
71.9302262212
31
0.0000000000
11
59.1793272464
21
74.7353346193
31
0.0000000000
0
SPLINE
5
4BC
100
AcDbEntity
8
0
100
AcDbSpline
62
7
6
CONTINUOUS
70
0
71
3
72
10
73
6
74
4
42
0.0000001000
43
0.0000001000
44
0.0000000001
40
0.0000000000
40
0.0000000000
40
0.0000000000
40
0.0000000000
40
0.3289071238
40
0.6652685243
40
1.0000000000
40
1.0000000000
40
1.0000000000
40
1.0000000000
10
59.1793272464
20
74.7353346193
30
0.0000000000
10
59.1386843779
20
74.9115915453
30
0.0000000000
10
59.0620633023
20
75.2694130053
30
0.0000000000
10
58.9634413749
20
75.8105262501
30
0.0000000000
10
58.9085125266
20
76.1755559366
30
0.0000000000
10
58.8840287511
20
76.3580057026
30
0.0000000000
11
59.1793272464
21
74.7353346193
31
0.0000000000
11
59.0656132446
21
75.2659326274
31
0.0000000000
11
58.9661082199
21
75.8118836356
31
0.0000000000
11
58.8840287511
21
76.3580057026
31
0.0000000000
0
SPLINE
5
4BD
100
AcDbEntity
8
0
100
AcDbSpline
62
7
6
CONTINUOUS
70
0
71
3
72
9
73
5
74
3
42
0.0000001000
43
0.0000001000
44
0.0000000001
40
0.0000000000
40
0.0000000000
40
0.0000000000
40
0.0000000000
40
0.4955383269
40
1.0000000000
40
1.0000000000
40
1.0000000000
40
1.0000000000
10
61.1653602104
20
68.0727785333
30
0.0000000000
10
61.1031768440
20
68.2537304798
30
0.0000000000
10
60.9772316223
20
68.6187352773
30
0.0000000000
10
60.8505327578
20
68.9834790700
30
0.0000000000
10
60.7864260948
20
69.1674113921
30
0.0000000000
11
61.1653602104
21
68.0727785333
31
0.0000000000
11
60.9781704119
21
68.6154141213
31
0.0000000000
11
60.7864260948
21
69.1674113921
31
0.0000000000
0
SPLINE
5
4BE
100
AcDbEntity
8
0
100
AcDbSpline
62
7
6
CONTINUOUS
70
0
71
3
72
10
73
6
74
4
42
0.0000001000
43
0.0000001000
44
0.0000000001
40
0.0000000000
40
0.0000000000
40
0.0000000000
40
0.0000000000
40
0.3408263767
40
0.6756739308
40
1.0000000000
40
1.0000000000
40
1.0000000000
40
1.0000000000
10
58.4676559111
20
80.5062889624
30
0.0000000000
10
58.4494245621
20
80.7216716395
30
0.0000000000
10
58.4109761497
20
81.1484671814
30
0.0000000000
10
58.3474122618
20
81.7794866126
30
0.0000000000
10
58.3011606187
20
82.1949789939
30
0.0000000000
10
58.2773014343
20
82.3992788869
30
0.0000000000
11
58.4676559111
21
80.5062889624
31
0.0000000000
11
58.4094909217
21
81.1521337976
31
0.0000000000
11
58.3456204643
21
81.7860074358
31
0.0000000000
11
58.2773014343
21
82.3992788869
31
0.0000000000
0
SPLINE
5
4BF
100
AcDbEntity
8
0
100
AcDbSpline
62
7
6
CONTINUOUS
70
0
71
3
72
10
73
6
74
4
42
0.0000001000
43
0.0000001000
44
0.0000000001
40
0.0000000000
40
0.0000000000
40
0.0000000000
40
0.0000000000
40
0.3247006234
40
0.6615177703
40
1.0000000000
40
1.0000000000
40
1.0000000000
40
1.0000000000
10
55.7856851517
20
104.1638578591
30
0.0000000000
10
55.7693287434
20
104.3313442958
30
0.0000000000
10
55.7322644763
20
104.6722117464
30
0.0000000000
10
55.6655405701
20
105.1862041203
30
0.0000000000
10
55.6132680194
20
105.5322989712
30
0.0000000000
10
55.5852009036
20
105.7054649564
30
0.0000000000
11
55.7856851517
21
104.1638578591
31
0.0000000000
11
55.7312388573
21
104.6657629779
31
0.0000000000
11
55.6638570690
21
105.1850985468
31
0.0000000000
11
55.5852009036
21
105.7054649564
31
0.0000000000
0
SPLINE
5
4C0
100
AcDbEntity
8
0
100
AcDbSpline
62
7
6
CONTINUOUS
70
0
71
3
72
9
73
5
74
3
42
0.0000001000
43
0.0000001000
44
0.0000000001
40
0.0000000000
40
0.0000000000
40
0.0000000000
40
0.0000000000
40
0.5109523216
40
1.0000000000
40
1.0000000000
40
1.0000000000
40
1.0000000000
10
55.5852009034
20
105.7054649563
30
0.0000000000
10
55.5635533778
20
105.8390239281
30
0.0000000000
10
55.5244070280
20
106.1009474608
30
0.0000000000
10
55.4911373815
20
106.3636731717
30
0.0000000000
10
55.4761277138
20
106.4923019072
30
0.0000000000
11
55.5852009034
21
105.7054649563
31
0.0000000000
11
55.5250837855
21
106.1068942288
31
0.0000000000
11
55.4761277138
21
106.4923019072
31
0.0000000000
0
SPLINE
5
4C1
100
AcDbEntity
8
0
100
AcDbSpline
62
7
6
CONTINUOUS
70
0
71
3
72
8
73
4
74
2
42
0.0000001000
43
0.0000001000
44
0.0000000001
40
0.0000000000
40
0.0000000000
40
0.0000000000
40
0.0000000000
40
1.0000000000
40
1.0000000000
40
1.0000000000
40
1.0000000000
10
61.4193948219
20
116.8435724507
30
0.0000000000
10
61.5805813848
20
116.9381328405
30
0.0000000000
10
61.7405429027
20
117.0348051703
30
0.0000000000
10
61.8991068817
20
117.1337153863
30
0.0000000000
11
61.4193948219
21
116.8435724507
31
0.0000000000
11
61.8991068817
21
117.1337153863
31
0.0000000000
0
SPLINE
5
4C2
100
AcDbEntity
8
0
100
AcDbSpline
62
7
6
CONTINUOUS
70
0
71
3
72
15
73
11
74
9
42
0.0000001000
43
0.0000001000
44
0.0000000001
40
0.0000000000
40
0.0000000000
40
0.0000000000
40
0.0000000000
40
0.2059348509
40
0.3982506429
40
0.5709704722
40
0.7181884352
40
0.8392957653
40
0.9318897189
40
0.9882800200
40
1.0000000000
40
1.0000000000
40
1.0000000000
40
1.0000000000
10
276.8145733105
20
172.5506548636
30
0.0000000000
10
276.8145733105
20
172.8195131508
30
0.0000000000
10
276.8108476641
20
173.3396193314
30
0.0000000000
10
276.7924809512
20
174.0842199349
30
0.0000000000
10
276.7644122641
20
174.7544275200
30
0.0000000000
10
276.7207720324
20
175.3229610295
30
0.0000000000
10
276.6820717447
20
175.8082688638
30
0.0000000000
10
276.5989439844
20
176.1161391369
30
0.0000000000
10
276.5847288935
20
176.3885870651
30
0.0000000000
10
276.4925111107
20
176.4039888144
30
0.0000000000
10
276.4764119035
20
176.4039544884
30
0.0000000000
11
276.8145733105
21
172.5506548636
31
0.0000000000
11
276.8082909850
21
173.3572052586
31
0.0000000000
11
276.7895580346
21
174.1102060445
31
0.0000000000
11
276.7588979372
21
174.7859941136
31
0.0000000000
11
276.7175196902
21
175.3611088239
31
0.0000000000
11
276.6652500243
21
175.8325551823
31
0.0000000000
11
276.6004227034
21
176.1893721714
31
0.0000000000
11
276.5216954806
21
176.3957253958
31
0.0000000000
11
276.4764119035
21
176.4039544884
31
0.0000000000
0
SPLINE
5
4C3
100
AcDbEntity
8
0
100
AcDbSpline
62
7
6
CONTINUOUS
70
0
71
3
72
18
73
14
74
12
42
0.0000001000
43
0.0000001000
44
0.0000000001
40
0.0000000000
40
0.0000000000
40
0.0000000000
40
0.0000000000
40
0.1089235583
40
0.2225500022
40
0.3382023091
40
0.4525078894
40
0.5630154448
40
0.6664069444
40
0.7605570873
40
0.8426453339
40
0.9109978158
40
0.9637654206
40
1.0000000000
40
1.0000000000
40
1.0000000000
40
1.0000000000
10
275.3471181910
20
166.5144778069
30
0.0000000000
10
275.3358855620
20
167.1197189704
30
0.0000000000
10
275.3233170373
20
168.3565408582
30
0.0000000000
10
275.3314369483
20
170.2361477061
30
0.0000000000
10
275.3658295256
20
172.1453768455
30
0.0000000000
10
275.4256231151
20
174.0366353910
30
0.0000000000
10
275.5091224307
20
175.8587998319
30
0.0000000000
10
275.6141975634
20
177.5676278771
30
0.0000000000
10
275.7376635830
20
179.1169155662
30
0.0000000000
10
275.8764232846
20
180.4691471205
30
0.0000000000
10
276.0251616618
20
181.5892580999
30
0.0000000000
10
276.1809245849
20
182.4493497298
30
0.0000000000
10
276.3041369515
20
182.9306604920
30
0.0000000000
10
276.3771299929
20
183.1183403693
30
0.0000000000
11
275.3471181910
21
166.5144778069
31
0.0000000000
11
275.3278733128
21
168.3304119953
31
0.0000000000
11
275.3356730501
21
170.2248413146
31
0.0000000000
11
275.3703571537
21
172.1527510739
31
0.0000000000
11
275.4308692379
21
174.0575584654
31
0.0000000000
11
275.5158819289
21
175.8980415995
31
0.0000000000
11
275.6227847419
21
177.6185260803
31
0.0000000000
11
275.7493156538
21
179.1831434200
31
0.0000000000
11
275.8915901093
21
180.5443507207
31
0.0000000000
11
276.0465185164
21
181.6733823333
31
0.0000000000
11
276.2096319379
21
182.5379009793
31
0.0000000000
11
276.3771299929
21
183.1183403693
31
0.0000000000
0
SPLINE
5
4C4
100
AcDbEntity
8
0
100
AcDbSpline
62
7
6
CONTINUOUS
70
0
71
3
72
14
73
10
74
8
42
0.0000001000
43
0.0000001000
44
0.0000000001
40
0.0000000000
40
0.0000000000
40
0.0000000000
40
0.0000000000
40
0.1000770266
40
0.2613310961
40
0.4228236253
40
0.5837492139
40
0.7435589666
40
0.9024724303
40
1.0000000000
40
1.0000000000
40
1.0000000000
40
1.0000000000
10
312.7618103354
20
125.1589441568
30
0.0000000000
10
312.7449154828
20
125.2722593982
30
0.0000000000
10
312.6646621645
20
125.5638725235
30
0.0000000000
10
312.3895937455
20
125.9732086226
30
0.0000000000
10
311.9183918849
20
126.2847101276
30
0.0000000000
10
311.3653823657
20
126.3900385117
30
0.0000000000
10
310.8173743889
20
126.2760964036
30
0.0000000000
10
310.4154909635
20
126.0033409759
30
0.0000000000
10
310.2343756651
20
125.7699316526
30
0.0000000000
10
310.1768857489
20
125.6742312534
30
0.0000000000
11
312.7618103354
21
125.1589441568
31
0.0000000000
11
312.6702864459
21
125.4899431120
31
0.0000000000
11
312.3636719113
21
125.9468685179
31
0.0000000000
11
311.9038812342
21
126.2506480859
31
0.0000000000
11
311.3644468146
21
126.3534656860
31
0.0000000000
11
310.8305361283
21
126.2424122519
31
0.0000000000
11
310.3817509256
21
125.9380131140
31
0.0000000000
11
310.1768857489
21
125.6742312534
31
0.0000000000
0
SPLINE
5
4C5
100
AcDbEntity
8
0
100
AcDbSpline
62
7
6
CONTINUOUS
70
0
71
3
72
13
73
9
74
7
42
0.0000001000
43
0.0000001000
44
0.0000000001
40
0.0000000000
40
0.0000000000
40
0.0000000000
40
0.0000000000
40
0.1825746232
40
0.3662539922
40
0.5502049831
40
0.7335101900
40
0.9155443838
40
1.0000000000
40
1.0000000000
40
1.0000000000
40
1.0000000000
10
308.7771299929
20
128.1374261342
30
0.0000000000
10
308.7771299929
20
128.3197451257
30
0.0000000000
10
308.7038300146
20
128.6894888756
30
0.0000000000
10
308.3895937455
20
129.1571116185
30
0.0000000000
10
307.9183918849
20
129.4686131235
30
0.0000000000
10
307.3653823657
20
129.5739415077
30
0.0000000000
10
306.9142245787
20
129.4801365422
30
0.0000000000
10
306.6773297835
20
129.3528256415
30
0.0000000000
10
306.6064749460
20
129.3060854572
30
0.0000000000
11
308.7771299929
21
128.1374261342
31
0.0000000000
11
308.6702864459
21
128.6738461079
31
0.0000000000
11
308.3636719113
21
129.1307715138
31
0.0000000000
11
307.9038812342
21
129.4345510818
31
0.0000000000
11
307.3644468146
21
129.5373686820
31
0.0000000000
11
306.8305361283
21
129.4263152478
31
0.0000000000
11
306.6064749460
21
129.3060854572
31
0.0000000000
0
SPLINE
5
4C6
100
AcDbEntity
8
0
100
AcDbSpline
62
7
6
CONTINUOUS
70
0
71
3
72
14
73
10
74
8
42
0.0000001000
43
0.0000001000
44
0.0000000001
40
0.0000000000
40
0.0000000000
40
0.0000000000
40
0.0000000000
40
0.1543161791
40
0.3095661141
40
0.4650456301
40
0.6199793149
40
0.7738387108
40
0.9268351903
40
1.0000000000
40
1.0000000000
40
1.0000000000
40
1.0000000000
10
312.7771299929
20
131.1188731813
30
0.0000000000
10
312.7771299929
20
131.3011921727
30
0.0000000000
10
312.7038300146
20
131.6709359226
30
0.0000000000
10
312.3895937455
20
132.1385586655
30
0.0000000000
10
311.9183918849
20
132.4500601705
30
0.0000000000
10
311.3653823657
20
132.5553885547
30
0.0000000000
10
310.8173743889
20
132.4414464466
30
0.0000000000
10
310.4362809064
20
132.1828010056
30
0.0000000000
10
310.2652606310
20
131.9740192223
30
0.0000000000
10
310.2166121549
20
131.9019296427
30
0.0000000000
11
312.7771299929
21
131.1188731813
31
0.0000000000
11
312.6702864459
21
131.6552931550
31
0.0000000000
11
312.3636719113
21
132.1122185609
31
0.0000000000
11
311.9038812342
21
132.4159981289
31
0.0000000000
11
311.3644468146
21
132.5188157290
31
0.0000000000
11
310.8305361283
21
132.4077622948
31
0.0000000000
11
310.3817509256
21
132.1033631570
31
0.0000000000
11
310.2166121549
21
131.9019296427
31
0.0000000000
0
SPLINE
5
4C7
100
AcDbEntity
8
0
100
AcDbSpline
62
7
6
CONTINUOUS
70
0
71
3
72
8
73
4
74
2
42
0.0000001000
43
0.0000001000
44
0.0000000001
40
0.0000000000
40
0.0000000000
40
0.0000000000
40
0.0000000000
40
1.0000000000
40
1.0000000000
40
1.0000000000
40
1.0000000000
10
308.6815620914
20
141.7412899327
30
0.0000000000
10
308.7444920202
20
141.5793828383
30
0.0000000000
10
308.7771299929
20
141.4052820514
30
0.0000000000
10
308.7771299929
20
141.2329598049
30
0.0000000000
11
308.6815620914
21
141.7412899327
31
0.0000000000
11
308.7771299929
21
141.2329598049
31
0.0000000000
0
SPLINE
5
4C8
100
AcDbEntity
8
0
100
AcDbSpline
62
7
6
CONTINUOUS
70
0
71
3
72
9
73
5
74
3
42
0.0000001000
43
0.0000001000
44
0.0000000001
40
0.0000000000
40
0.0000000000
40
0.0000000000
40
0.0000000000
40
0.5605494629
40
1.0000000000
40
1.0000000000
40
1.0000000000
40
1.0000000000
10
308.7771299929
20
141.2329598049
30
0.0000000000
10
308.7771299929
20
141.0506408135
30
0.0000000000
10
308.7119449507
20
140.7218308669
30
0.0000000000
10
308.5393029412
20
140.4392550697
30
0.0000000000
10
308.4465151915
20
140.3294024112
30
0.0000000000
11
308.7771299929
21
141.2329598049
31
0.0000000000
11
308.6702864459
21
140.6965398312
31
0.0000000000
11
308.4465151915
21
140.3294024112
31
0.0000000000
0
SPLINE
5
4C9
100
AcDbEntity
8
0
100
AcDbSpline
62
7
6
CONTINUOUS
70
0
71
3
72
11
73
7
74
5
42
0.0000001000
43
0.0000001000
44
0.0000000001
40
0.0000000000
40
0.0000000000
40
0.0000000000
40
0.0000000000
40
0.2356711427
40
0.4903857412
40
0.7447723811
40
1.0000000000
40
1.0000000000
40
1.0000000000
40
1.0000000000
10
311.4336758333
20
139.0654906211
30
0.0000000000
10
311.6018440877
20
139.0586424703
30
0.0000000000
10
311.9492218534
20
138.9808407522
30
0.0000000000
10
312.3978385666
20
138.6763677739
30
0.0000000000
10
312.7051344157
20
138.2133381109
30
0.0000000000
10
312.7771299929
20
137.8477638988
30
0.0000000000
10
312.7771299929
20
137.6666400166
30
0.0000000000
11
311.4336758333
21
139.0654906211
31
0.0000000000
11
311.9237238575
21
138.9555291302
31
0.0000000000
11
312.3725090603
21
138.6511299923
31
0.0000000000
11
312.6716825835
21
138.1996818445
31
0.0000000000
11
312.7771299929
21
137.6666400166
31
0.0000000000
0
SPLINE
5
4CA
100
AcDbEntity
8
0
100
AcDbSpline
62
7
6
CONTINUOUS
70
0
71
3
72
12
73
8
74
6
42
0.0000001000
43
0.0000001000
44
0.0000000001
40
0.0000000000
40
0.0000000000
40
0.0000000000
40
0.0000000000
40
0.1299214671
40
0.3483203168
40
0.5654942823
40
0.7823886247
40
1.0000000000
40
1.0000000000
40
1.0000000000
40
1.0000000000
10
307.0659252765
20
135.8701254126
30
0.0000000000
10
307.1720556125
20
135.8942956616
30
0.0000000000
10
307.4641213078
20
135.9261027922
30
0.0000000000
10
307.9368855969
20
135.8278053914
30
0.0000000000
10
308.3978385666
20
135.5149598834
30
0.0000000000
10
308.7051344157
20
135.0519302204
30
0.0000000000
10
308.7771299929
20
134.6863560083
30
0.0000000000
10
308.7771299929
20
134.5052321261
30
0.0000000000
11
307.0659252765
21
135.8701254126
31
0.0000000000
11
307.3898131712
21
135.9051746739
31
0.0000000000
11
307.9237238575
21
135.7941212397
31
0.0000000000
11
308.3725090603
21
135.4897221018
31
0.0000000000
11
308.6716825835
21
135.0382739540
31
0.0000000000
11
308.7771299929
21
134.5052321261
31
0.0000000000
0
SPLINE
5
4CB
100
AcDbEntity
8
0
100
AcDbSpline
62
7
6
CONTINUOUS
70
0
71
3
72
9
73
5
74
3
42
0.0000001000
43
0.0000001000
44
0.0000000001
40
0.0000000000
40
0.0000000000
40
0.0000000000
40
0.0000000000
40
0.8657358125
40
1.0000000000
40
1.0000000000
40
1.0000000000
40
1.0000000000
10
308.7771299929
20
134.5052321261
30
0.0000000000
10
308.7771299929
20
134.3229131347
30
0.0000000000
10
308.7349237680
20
134.1100141922
30
0.0000000000
10
308.6476678647
20
133.9164982047
30
0.0000000000
10
308.6351700802
20
133.8909071326
30
0.0000000000
11
308.7771299929
21
134.5052321261
31
0.0000000000
11
308.6702864459
21
133.9688121524
31
0.0000000000
11
308.6351700802
21
133.8909071326
31
0.0000000000
0
SPLINE
5
4CC
100
AcDbEntity
8
0
100
AcDbSpline
62
7
6
CONTINUOUS
70
0
71
3
72
17
73
13
74
11
42
0.0000001000
43
0.0000001000
44
0.0000000001
40
0.0000000000
40
0.0000000000
40
0.0000000000
40
0.0000000000
40
0.0077419020
40
0.0530806133
40
0.1324851369
40
0.2321693109
40
0.3443055444
40
0.4643452276
40
0.5919713527
40
0.7268817266
40
0.8643027785
40
1.0000000000
40
1.0000000000
40
1.0000000000
40
1.0000000000
10
314.4764119035
20
166.4478446954
30
0.0000000000
10
314.4596261096
20
166.4478804854
30
0.0000000000
10
314.3428165880
20
166.4681353699
30
0.0000000000
10
314.3305006873
20
166.8240841405
30
0.0000000000
10
314.2097545509
20
167.2235264465
30
0.0000000000
10
314.1515365793
20
167.8413368745
30
0.0000000000
10
314.0838836425
20
168.5152082638
30
0.0000000000
10
314.0338985668
20
169.2570606407
30
0.0000000000
10
313.9925109142
20
170.0437621806
30
0.0000000000
10
313.9625453270
20
170.8676114833
30
0.0000000000
10
313.9439943794
20
171.7081986001
30
0.0000000000
10
313.9396866753
20
172.2710265567
30
0.0000000000
10
313.9396866753
20
172.5506548636
30
0.0000000000
11
314.4764119035
21
166.4478446954
31
0.0000000000
11
314.4279322465
21
166.4563917801
31
0.0000000000
11
314.3263335154
21
166.7176151516
31
0.0000000000
11
314.2325690868
21
167.1994583750
31
0.0000000000
11
314.1538404125
21
167.8106597406
31
0.0000000000
11
314.0890117400
21
168.5008518754
31
0.0000000000
11
314.0367411355
21
169.2410981690
31
0.0000000000
11
313.9953624413
21
170.0290014884
31
0.0000000000
11
313.9647021473
21
170.8624583322
31
0.0000000000
11
313.9459690710
21
171.7117934677
31
0.0000000000
11
313.9396866753
21
172.5506548636
31
0.0000000000
0
SPLINE
5
4CD
100
AcDbEntity
8
0
100
AcDbSpline
62
7
6
CONTINUOUS
70
0
71
3
72
14
73
10
74
8
42
0.0000001000
43
0.0000001000
44
0.0000000001
40
0.0000000000
40
0.0000000000
40
0.0000000000
40
0.0000000000
40
0.1000770266
40
0.2613310961
40
0.4228236253
40
0.5837492139
40
0.7435589666
40
0.9024724303
40
1.0000000000
40
1.0000000000
40
1.0000000000
40
1.0000000000
10
277.9924496504
20
125.1589441568
30
0.0000000000
10
278.0093445030
20
125.2722593982
30
0.0000000000
10
278.0895978213
20
125.5638725235
30
0.0000000000
10
278.3646662404
20
125.9732086226
30
0.0000000000
10
278.8358681009
20
126.2847101276
30
0.0000000000
10
279.3888776202
20
126.3900385117
30
0.0000000000
10
279.9368855969
20
126.2760964036
30
0.0000000000
10
280.3387690224
20
126.0033409759
30
0.0000000000
10
280.5198843207
20
125.7699316526
30
0.0000000000
10
280.5773742369
20
125.6742312534
30
0.0000000000
11
277.9924496504
21
125.1589441568
31
0.0000000000
11
278.0839735400
21
125.4899431120
31
0.0000000000
11
278.3905880745
21
125.9468685179
31
0.0000000000
11
278.8503787516
21
126.2506480859
31
0.0000000000
11
279.3898131712
21
126.3534656860
31
0.0000000000
11
279.9237238575
21
126.2424122519
31
0.0000000000
11
280.3725090603
21
125.9380131140
31
0.0000000000
11
280.5773742369
21
125.6742312534
31
0.0000000000
0
SPLINE
5
4CE
100
AcDbEntity
8
0
100
AcDbSpline
62
7
6
CONTINUOUS
70
0
71
3
72
13
73
9
74
7
42
0.0000001000
43
0.0000001000
44
0.0000000001
40
0.0000000000
40
0.0000000000
40
0.0000000000
40
0.0000000000
40
0.1825746232
40
0.3662539922
40
0.5502049831
40
0.7335101900
40
0.9155443838
40
1.0000000000
40
1.0000000000
40
1.0000000000
40
1.0000000000
10
281.9771299929
20
128.1374261342
30
0.0000000000
10
281.9771299929
20
128.3197451257
30
0.0000000000
10
282.0504299712
20
128.6894888756
30
0.0000000000
10
282.3646662404
20
129.1571116185
30
0.0000000000
10
282.8358681009
20
129.4686131235
30
0.0000000000
10
283.3888776202
20
129.5739415077
30
0.0000000000
10
283.8400354071
20
129.4801365422
30
0.0000000000
10
284.0769302023
20
129.3528256415
30
0.0000000000
10
284.1477850398
20
129.3060854572
30
0.0000000000
11
281.9771299929
21
128.1374261342
31
0.0000000000
11
282.0839735400
21
128.6738461079
31
0.0000000000
11
282.3905880745
21
129.1307715138
31
0.0000000000
11
282.8503787516
21
129.4345510818
31
0.0000000000
11
283.3898131712
21
129.5373686820
31
0.0000000000
11
283.9237238575
21
129.4263152478
31
0.0000000000
11
284.1477850398
21
129.3060854572
31
0.0000000000
0
SPLINE
5
4CF
100
AcDbEntity
8
0
100
AcDbSpline
62
7
6
CONTINUOUS
70
0
71
3
72
14
73
10
74
8
42
0.0000001000
43
0.0000001000
44
0.0000000001
40
0.0000000000
40
0.0000000000
40
0.0000000000
40
0.0000000000
40
0.1543161791
40
0.3095661141
40
0.4650456301
40
0.6199793149
40
0.7738387108
40
0.9268351903
40
1.0000000000
40
1.0000000000
40
1.0000000000
40
1.0000000000
10
277.9771299929
20
131.1188731813
30
0.0000000000
10
277.9771299929
20
131.3011921727
30
0.0000000000
10
278.0504299712
20
131.6709359226
30
0.0000000000
10
278.3646662404
20
132.1385586655
30
0.0000000000
10
278.8358681009
20
132.4500601705
30
0.0000000000
10
279.3888776202
20
132.5553885547
30
0.0000000000
10
279.9368855969
20
132.4414464466
30
0.0000000000
10
280.3179790794
20
132.1828010056
30
0.0000000000
10
280.4889993548
20
131.9740192223
30
0.0000000000
10
280.5376478309
20
131.9019296427
30
0.0000000000
11
277.9771299929
21
131.1188731813
31
0.0000000000
11
278.0839735400
21
131.6552931550
31
0.0000000000
11
278.3905880745
21
132.1122185609
31
0.0000000000
11
278.8503787516
21
132.4159981289
31
0.0000000000
11
279.3898131712
21
132.5188157290
31
0.0000000000
11
279.9237238575
21
132.4077622948
31
0.0000000000
11
280.3725090603
21
132.1033631570
31
0.0000000000
11
280.5376478309
21
131.9019296427
31
0.0000000000
0
SPLINE
5
4D0
100
AcDbEntity
8
0
100
AcDbSpline
62
7
6
CONTINUOUS
70
0
71
3
72
8
73
4
74
2
42
0.0000001000
43
0.0000001000
44
0.0000000001
40
0.0000000000
40
0.0000000000
40
0.0000000000
40
0.0000000000
40
1.0000000000
40
1.0000000000
40
1.0000000000
40
1.0000000000
10
282.0726978944
20
141.7412899327
30
0.0000000000
10
282.0097679656
20
141.5793828383
30
0.0000000000
10
281.9771299929
20
141.4052820514
30
0.0000000000
10
281.9771299929
20
141.2329598049
30
0.0000000000
11
282.0726978944
21
141.7412899327
31
0.0000000000
11
281.9771299929
21
141.2329598049
31
0.0000000000
0
SPLINE
5
4D1
100
AcDbEntity
8
0
100
AcDbSpline
62
7
6
CONTINUOUS
70
0
71
3
72
9
73
5
74
3
42
0.0000001000
43
0.0000001000
44
0.0000000001
40
0.0000000000
40
0.0000000000
40
0.0000000000
40
0.0000000000
40
0.5605494629
40
1.0000000000
40
1.0000000000
40
1.0000000000
40
1.0000000000
10
281.9771299929
20
141.2329598049
30
0.0000000000
10
281.9771299929
20
141.0506408135
30
0.0000000000
10
282.0423150351
20
140.7218308669
30
0.0000000000
10
282.2149570446
20
140.4392550697
30
0.0000000000
10
282.3077447944
20
140.3294024112
30
0.0000000000
11
281.9771299929
21
141.2329598049
31
0.0000000000
11
282.0839735400
21
140.6965398312
31
0.0000000000
11
282.3077447944
21
140.3294024112
31
0.0000000000
0
SPLINE
5
4D2
100
AcDbEntity
8
0
100
AcDbSpline
62
7
6
CONTINUOUS
70
0
71
3
72
11
73
7
74
5
42
0.0000001000
43
0.0000001000
44
0.0000000001
40
0.0000000000
40
0.0000000000
40
0.0000000000
40
0.0000000000
40
0.2356711427
40
0.4903857412
40
0.7447723811
40
1.0000000000
40
1.0000000000
40
1.0000000000
40
1.0000000000
10
279.3205841525
20
139.0654906211
30
0.0000000000
10
279.1524158982
20
139.0586424703
30
0.0000000000
10
278.8050381324
20
138.9808407522
30
0.0000000000
10
278.3564214192
20
138.6763677739
30
0.0000000000
10
278.0491255701
20
138.2133381109
30
0.0000000000
10
277.9771299929
20
137.8477638988
30
0.0000000000
10
277.9771299929
20
137.6666400166
30
0.0000000000
11
279.3205841525
21
139.0654906211
31
0.0000000000
11
278.8305361283
21
138.9555291302
31
0.0000000000
11
278.3817509256
21
138.6511299923
31
0.0000000000
11
278.0825774023
21
138.1996818445
31
0.0000000000
11
277.9771299929
21
137.6666400166
31
0.0000000000
0
SPLINE
5
4D3
100
AcDbEntity
8
0
100
AcDbSpline
62
7
6
CONTINUOUS
70
0
71
3
72
12
73
8
74
6
42
0.0000001000
43
0.0000001000
44
0.0000000001
40
0.0000000000
40
0.0000000000
40
0.0000000000
40
0.0000000000
40
0.1299214671
40
0.3483203168
40
0.5654942823
40
0.7823886247
40
1.0000000000
40
1.0000000000
40
1.0000000000
40
1.0000000000
10
283.6883347093
20
135.8701254126
30
0.0000000000
10
283.5822043733
20
135.8942956616
30
0.0000000000
10
283.2901386780
20
135.9261027922
30
0.0000000000
10
282.8173743889
20
135.8278053914
30
0.0000000000
10
282.3564214192
20
135.5149598834
30
0.0000000000
10
282.0491255701
20
135.0519302204
30
0.0000000000
10
281.9771299929
20
134.6863560083
30
0.0000000000
10
281.9771299929
20
134.5052321261
30
0.0000000000
11
283.6883347093
21
135.8701254126
31
0.0000000000
11
283.3644468146
21
135.9051746739
31
0.0000000000
11
282.8305361283
21
135.7941212397
31
0.0000000000
11
282.3817509256
21
135.4897221018
31
0.0000000000
11
282.0825774023
21
135.0382739540
31
0.0000000000
11
281.9771299929
21
134.5052321261
31
0.0000000000
0
SPLINE
5
4D4
100
AcDbEntity
8
0
100
AcDbSpline
62
7
6
CONTINUOUS
70
0
71
3
72
9
73
5
74
3
42
0.0000001000
43
0.0000001000
44
0.0000000001
40
0.0000000000
40
0.0000000000
40
0.0000000000
40
0.0000000000
40
0.8657358125
40
1.0000000000
40
1.0000000000
40
1.0000000000
40
1.0000000000
10
281.9771299929
20
134.5052321261
30
0.0000000000
10
281.9771299929
20
134.3229131347
30
0.0000000000
10
282.0193362178
20
134.1100141922
30
0.0000000000
10
282.1065921211
20
133.9164982047
30
0.0000000000
10
282.1190899056
20
133.8909071326
30
0.0000000000
11
281.9771299929
21
134.5052321261
31
0.0000000000
11
282.0839735400
21
133.9688121524
31
0.0000000000
11
282.1190899056
21
133.8909071326
31
0.0000000000
0
SPLINE
5
4D5
100
AcDbEntity
8
0
100
AcDbSpline
62
7
6
CONTINUOUS
70
0
71
3
72
17
73
13
74
11
42
0.0000001000
43
0.0000001000
44
0.0000000001
40
0.0000000000
40
0.0000000000
40
0.0000000000
40
0.0000000000
40
0.0077419020
40
0.0530806133
40
0.1324851369
40
0.2321693109
40
0.3443055444
40
0.4643452276
40
0.5919713527
40
0.7268817266
40
0.8643027785
40
1.0000000000
40
1.0000000000
40
1.0000000000
40
1.0000000000
10
276.2778480823
20
166.4478446954
30
0.0000000000
10
276.2946338762
20
166.4478804854
30
0.0000000000
10
276.4114433978
20
166.4681353699
30
0.0000000000
10
276.4237592985
20
166.8240841405
30
0.0000000000
10
276.5445054350
20
167.2235264465
30
0.0000000000
10
276.6027234065
20
167.8413368745
30
0.0000000000
10
276.6703763433
20
168.5152082638
30
0.0000000000
10
276.7203614191
20
169.2570606407
30
0.0000000000
10
276.7617490716
20
170.0437621806
30
0.0000000000
10
276.7917146588
20
170.8676114833
30
0.0000000000
10
276.8102656065
20
171.7081986001
30
0.0000000000
10
276.8145733105
20
172.2710265567
30
0.0000000000
10
276.8145733105
20
172.5506548636
30
0.0000000000
11
276.2778480823
21
166.4478446954
31
0.0000000000
11
276.3263277393
21
166.4563917801
31
0.0000000000
11
276.4279264704
21
166.7176151516
31
0.0000000000
11
276.5216908990
21
167.1994583750
31
0.0000000000
11
276.6004195733
21
167.8106597406
31
0.0000000000
11
276.6652482458
21
168.5008518754
31
0.0000000000
11
276.7175188503
21
169.2410981690
31
0.0000000000
11
276.7588975445
21
170.0290014884
31
0.0000000000
11
276.7895578385
21
170.8624583322
31
0.0000000000
11
276.8082909149
21
171.7117934677
31
0.0000000000
11
276.8145733105
21
172.5506548636
31
0.0000000000
0
SPLINE
5
4D6
100
AcDbEntity
8
0
100
AcDbSpline
62
7
6
CONTINUOUS
70
0
71
3
72
8
73
4
74
2
42
0.0000001000
43
0.0000001000
44
0.0000000001
40
0.0000000000
40
0.0000000000
40
0.0000000000
40
0.0000000000
40
1.0000000000
40
1.0000000000
40
1.0000000000
40
1.0000000000
10
277.6633968473
20
186.3391492796
30
0.0000000000
10
277.6404087244
20
186.3294369152
30
0.0000000000
10
277.6128657515
20
186.2956670146
30
0.0000000000
10
277.6019712823
20
186.2676551301
30
0.0000000000
11
277.6633968473
21
186.3391492796
31
0.0000000000
11
277.6019712823
21
186.2676551301
31
0.0000000000
0
SPLINE
5
4D7
100
AcDbEntity
8
0
100
AcDbSpline
62
7
6
CONTINUOUS
70
0
71
3
72
8
73
4
74
2
42
0.0000001000
43
0.0000001000
44
0.0000000001
40
0.0000000000
40
0.0000000000
40
0.0000000000
40
0.0000000000
40
1.0000000000
40
1.0000000000
40
1.0000000000
40
1.0000000000
10
313.0908631385
20
186.3391492796
30
0.0000000000
10
313.1138512614
20
186.3294369152
30
0.0000000000
10
313.1413942343
20
186.2956670146
30
0.0000000000
10
313.1522887035
20
186.2676551301
30
0.0000000000
11
313.0908631385
21
186.3391492796
31
0.0000000000
11
313.1522887035
21
186.2676551301
31
0.0000000000
0
SPLINE
5
4D8
100
AcDbEntity
8
0
100
AcDbSpline
62
7
6
CONTINUOUS
70
0
71
3
72
16
73
12
74
10
42
0.0000001000
43
0.0000001000
44
0.0000000001
40
0.0000000000
40
0.0000000000
40
0.0000000000
40
0.0000000000
40
0.1123698470
40
0.2233655675
40
0.3325413583
40
0.4401632903
40
0.5481014827
40
0.6569357857
40
0.7686785794
40
0.8838325701
40
1.0000000000
40
1.0000000000
40
1.0000000000
40
1.0000000000
10
277.9833663757
20
144.6265163139
30
0.0000000000
10
277.9769476461
20
144.4591712438
30
0.0000000000
10
278.0282313709
20
144.1208685609
30
0.0000000000
10
278.2791639081
20
143.6815244399
30
0.0000000000
10
278.6610453943
20
143.3608764892
30
0.0000000000
10
279.1245292979
20
143.1909590934
30
0.0000000000
10
279.6181172403
20
143.1895725093
30
0.0000000000
10
280.0872991907
20
143.3640069767
30
0.0000000000
10
280.4692537028
20
143.7061751493
30
0.0000000000
10
280.6977165115
20
144.1781251989
30
0.0000000000
10
280.7169670810
20
144.5328648114
30
0.0000000000
10
280.6930331201
20
144.7043302361
30
0.0000000000
11
277.9833663757
21
144.6265163139
31
0.0000000000
11
278.0582251289
21
144.1297202590
31
0.0000000000
11
278.3035026962
21
143.6983114447
31
0.0000000000
11
278.6772743476
21
143.3843694459
31
0.0000000000
11
279.1291450119
21
143.2190100717
31
0.0000000000
11
279.6117350444
21
143.2183440234
31
0.0000000000
11
280.0675450844
21
143.3886785213
31
0.0000000000
11
280.4394127575
21
143.7223181727
31
0.0000000000
11
280.6636368998
21
144.1857794676
31
0.0000000000
11
280.6930331201
21
144.7043302361
31
0.0000000000
0
SPLINE
5
4D9
100
AcDbEntity
8
0
100
AcDbSpline
62
7
6
CONTINUOUS
70
0
71
3
72
10
73
6
74
4
42
0.0000001000
43
0.0000001000
44
0.0000000001
40
0.0000000000
40
0.0000000000
40
0.0000000000
40
0.0000000000
40
0.3344410174
40
0.6677215802
40
1.0000000000
40
1.0000000000
40
1.0000000000
40
1.0000000000
10
276.2734931879
20
126.4612024469
30
0.0000000000
10
276.2293782443
20
126.6547576543
30
0.0000000000
10
276.1544128767
20
127.0443286756
30
0.0000000000
10
276.0823185834
20
127.6339407577
30
0.0000000000
10
276.0613707822
20
128.0288240605
30
0.0000000000
10
276.0577109380
20
128.2260253006
30
0.0000000000
11
276.2734931879
21
126.4612024469
31
0.0000000000
11
276.1610125365
21
127.0460407342
31
0.0000000000
11
276.0890255044
21
127.6351489094
31
0.0000000000
11
276.0577109380
21
128.2260253006
31
0.0000000000
0
SPLINE
5
4DA
100
AcDbEntity
8
0
100
AcDbSpline
62
7
6
CONTINUOUS
70
0
71
3
72
11
73
7
74
5
42
0.0000001000
43
0.0000001000
44
0.0000000001
40
0.0000000000
40
0.0000000000
40
0.0000000000
40
0.0000000000
40
0.2536840079
40
0.5049530575
40
0.7534924671
40
1.0000000000
40
1.0000000000
40
1.0000000000
40
1.0000000000
10
281.6194715701
20
108.0918453808
30
0.0000000000
10
281.4468723845
20
108.0918453808
30
0.0000000000
10
281.1005231219
20
108.1501178644
30
0.0000000000
10
280.6433582375
20
108.4025658774
30
0.0000000000
10
280.2999339395
20
108.7898783347
30
0.0000000000
10
280.1737938705
20
109.1111082455
30
0.0000000000
10
280.1409820913
20
109.2755838327
30
0.0000000000
11
281.6194715701
21
108.0918453808
31
0.0000000000
11
281.1089575662
21
108.1783887891
31
0.0000000000
11
280.6602167194
21
108.4267143865
31
0.0000000000
11
280.3246231139
21
108.8071444455
31
0.0000000000
11
280.1409820913
21
109.2755838327
31
0.0000000000
0
SPLINE
5
4DB
100
AcDbEntity
8
0
100
AcDbSpline
62
7
6
CONTINUOUS
70
0
71
3
72
15
73
11
74
9
42
0.0000001000
43
0.0000001000
44
0.0000000001
40
0.0000000000
40
0.0000000000
40
0.0000000000
40
0.0000000000
40
0.2059348509
40
0.3982506429
40
0.5709704722
40
0.7181884352
40
0.8392957653
40
0.9318897189
40
0.9882800200
40
1.0000000000
40
1.0000000000
40
1.0000000000
40
1.0000000000
10
313.9396866753
20
172.5506548636
30
0.0000000000
10
313.9396866753
20
172.8195131508
30
0.0000000000
10
313.9434123217
20
173.3396193314
30
0.0000000000
10
313.9617790346
20
174.0842199349
30
0.0000000000
10
313.9898477217
20
174.7544275200
30
0.0000000000
10
314.0334879534
20
175.3229610295
30
0.0000000000
10
314.0721882411
20
175.8082688638
30
0.0000000000
10
314.1553160014
20
176.1161391369
30
0.0000000000
10
314.1695310923
20
176.3885870651
30
0.0000000000
10
314.2617488751
20
176.4039888144
30
0.0000000000
10
314.2778480823
20
176.4039544884
30
0.0000000000
11
313.9396866753
21
172.5506548636
31
0.0000000000
11
313.9459690008
21
173.3572052586
31
0.0000000000
11
313.9647019513
21
174.1102060445
31
0.0000000000
11
313.9953620486
21
174.7859941136
31
0.0000000000
11
314.0367402956
21
175.3611088239
31
0.0000000000
11
314.0890099615
21
175.8325551823
31
0.0000000000
11
314.1538372824
21
176.1893721714
31
0.0000000000
11
314.2325645053
21
176.3957253958
31
0.0000000000
11
314.2778480823
21
176.4039544884
31
0.0000000000
0
SPLINE
5
4DC
100
AcDbEntity
8
0
100
AcDbSpline
62
7
6
CONTINUOUS
70
0
71
3
72
18
73
14
74
12
42
0.0000001000
43
0.0000001000
44
0.0000000001
40
0.0000000000
40
0.0000000000
40
0.0000000000
40
0.0000000000
40
0.1089235583
40
0.2225500022
40
0.3382023091
40
0.4525078894
40
0.5630154448
40
0.6664069444
40
0.7605570873
40
0.8426453339
40
0.9109978158
40
0.9637654206
40
1.0000000000
40
1.0000000000
40
1.0000000000
40
1.0000000000
10
315.4071417948
20
166.5144778069
30
0.0000000000
10
315.4183744238
20
167.1197189704
30
0.0000000000
10
315.4309429485
20
168.3565408582
30
0.0000000000
10
315.4228230375
20
170.2361477061
30
0.0000000000
10
315.3884304602
20
172.1453768455
30
0.0000000000
10
315.3286368707
20
174.0366353910
30
0.0000000000
10
315.2451375551
20
175.8587998319
30
0.0000000000
10
315.1400624224
20
177.5676278771
30
0.0000000000
10
315.0165964028
20
179.1169155662
30
0.0000000000
10
314.8778367012
20
180.4691471205
30
0.0000000000
10
314.7290983240
20
181.5892580999
30
0.0000000000
10
314.5733354009
20
182.4493497298
30
0.0000000000
10
314.4501230344
20
182.9306604920
30
0.0000000000
10
314.3771299929
20
183.1183403693
30
0.0000000000
11
315.4071417948
21
166.5144778069
31
0.0000000000
11
315.4263866730
21
168.3304119953
31
0.0000000000
11
315.4185869357
21
170.2248413146
31
0.0000000000
11
315.3839028321
21
172.1527510739
31
0.0000000000
11
315.3233907479
21
174.0575584654
31
0.0000000000
11
315.2383780569
21
175.8980415995
31
0.0000000000
11
315.1314752439
21
177.6185260803
31
0.0000000000
11
315.0049443320
21
179.1831434200
31
0.0000000000
11
314.8626698765
21
180.5443507207
31
0.0000000000
11
314.7077414694
21
181.6733823333
31
0.0000000000
11
314.5446280479
21
182.5379009793
31
0.0000000000
11
314.3771299929
21
183.1183403693
31
0.0000000000
0
SPLINE
5
4DD
100
AcDbEntity
8
0
100
AcDbSpline
62
7
6
CONTINUOUS
70
0
71
3
72
16
73
12
74
10
42
0.0000001000
43
0.0000001000
44
0.0000000001
40
0.0000000000
40
0.0000000000
40
0.0000000000
40
0.0000000000
40
0.1123698470
40
0.2233655675
40
0.3325413583
40
0.4401632903
40
0.5481014827
40
0.6569357857
40
0.7686785794
40
0.8838325701
40
1.0000000000
40
1.0000000000
40
1.0000000000
40
1.0000000000
10
312.7708936101
20
144.6265163139
30
0.0000000000
10
312.7773123397
20
144.4591712438
30
0.0000000000
10
312.7260286149
20
144.1208685609
30
0.0000000000
10
312.4750960777
20
143.6815244399
30
0.0000000000
10
312.0932145915
20
143.3608764892
30
0.0000000000
10
311.6297306880
20
143.1909590934
30
0.0000000000
10
311.1361427455
20
143.1895725093
30
0.0000000000
10
310.6669607951
20
143.3640069767
30
0.0000000000
10
310.2850062830
20
143.7061751493
30
0.0000000000
10
310.0565434743
20
144.1781251989
30
0.0000000000
10
310.0372929048
20
144.5328648114
30
0.0000000000
10
310.0612268657
20
144.7043302361
30
0.0000000000
11
312.7708936101
21
144.6265163139
31
0.0000000000
11
312.6960348569
21
144.1297202590
31
0.0000000000
11
312.4507572896
21
143.6983114447
31
0.0000000000
11
312.0769856382
21
143.3843694459
31
0.0000000000
11
311.6251149739
21
143.2190100717
31
0.0000000000
11
311.1425249414
21
143.2183440234
31
0.0000000000
11
310.6867149014
21
143.3886785213
31
0.0000000000
11
310.3148472283
21
143.7223181727
31
0.0000000000
11
310.0906230860
21
144.1857794676
31
0.0000000000
11
310.0612268657
21
144.7043302361
31
0.0000000000
0
SPLINE
5
4DE
100
AcDbEntity
8
0
100
AcDbSpline
62
7
6
CONTINUOUS
70
0
71
3
72
10
73
6
74
4
42
0.0000001000
43
0.0000001000
44
0.0000000001
40
0.0000000000
40
0.0000000000
40
0.0000000000
40
0.0000000000
40
0.3344410174
40
0.6677215802
40
1.0000000000
40
1.0000000000
40
1.0000000000
40
1.0000000000
10
314.4807667979
20
126.4612024469
30
0.0000000000
10
314.5248817416
20
126.6547576543
30
0.0000000000
10
314.5998471091
20
127.0443286756
30
0.0000000000
10
314.6719414024
20
127.6339407577
30
0.0000000000
10
314.6928892036
20
128.0288240605
30
0.0000000000
10
314.6965490478
20
128.2260253006
30
0.0000000000
11
314.4807667979
21
126.4612024469
31
0.0000000000
11
314.5932474493
21
127.0460407342
31
0.0000000000
11
314.6652344814
21
127.6351489094
31
0.0000000000
11
314.6965490478
21
128.2260253006
31
0.0000000000
0
SPLINE
5
4DF
100
AcDbEntity
8
0
100
AcDbSpline
62
7
6
CONTINUOUS
70
0
71
3
72
11
73
7
74
5
42
0.0000001000
43
0.0000001000
44
0.0000000001
40
0.0000000000
40
0.0000000000
40
0.0000000000
40
0.0000000000
40
0.2536840079
40
0.5049530575
40
0.7534924671
40
1.0000000000
40
1.0000000000
40
1.0000000000
40
1.0000000000
10
309.1347884158
20
108.0918453808
30
0.0000000000
10
309.3073876013
20
108.0918453808
30
0.0000000000
10
309.6537368639
20
108.1501178644
30
0.0000000000
10
310.1109017483
20
108.4025658774
30
0.0000000000
10
310.4543260463
20
108.7898783347
30
0.0000000000
10
310.5804661153
20
109.1111082455
30
0.0000000000
10
310.6132778945
20
109.2755838327
30
0.0000000000
11
309.1347884158
21
108.0918453808
31
0.0000000000
11
309.6453024196
21
108.1783887891
31
0.0000000000
11
310.0940432664
21
108.4267143865
31
0.0000000000
11
310.4296368719
21
108.8071444455
31
0.0000000000
11
310.6132778945
21
109.2755838327
31
0.0000000000
0
SPLINE
5
4E0
100
AcDbEntity
8
0
100
AcDbSpline
62
7
6
CONTINUOUS
70
0
71
3
72
10
73
6
74
4
42
0.0000001000
43
0.0000001000
44
0.0000000001
40
0.0000000000
40
0.0000000000
40
0.0000000000
40
0.0000000000
40
0.3330440981
40
0.6663607209
40
1.0000000000
40
1.0000000000
40
1.0000000000
40
1.0000000000
10
280.7648652264
20
110.8502412131
30
0.0000000000
10
280.7695916724
20
110.8265489597
30
0.0000000000
10
280.7802578972
20
110.7793768093
30
0.0000000000
10
280.7998399756
20
110.7095004159
30
0.0000000000
10
280.8152512510
20
110.6636131761
30
0.0000000000
10
280.8235353696
20
110.6408728260
30
0.0000000000
11
280.7648652264
21
110.8502412131
31
0.0000000000
11
280.7808486737
21
110.7795482936
31
0.0000000000
11
280.8004208120
21
110.7097020968
31
0.0000000000
11
280.8235353696
21
110.6408728260
31
0.0000000000
0
SPLINE
5
4E1
100
AcDbEntity
8
0
100
AcDbSpline
62
7
6
CONTINUOUS
70
0
71
3
72
10
73
6
74
4
42
0.0000001000
43
0.0000001000
44
0.0000000001
40
0.0000000000
40
0.0000000000
40
0.0000000000
40
0.0000000000
40
0.3292510890
40
0.6629928718
40
1.0000000000
40
1.0000000000
40
1.0000000000
40
1.0000000000
10
280.5561568831
20
109.9660196630
30
0.0000000000
10
280.6245610010
20
109.7782466892
30
0.0000000000
10
280.8455988675
20
109.4254691632
30
0.0000000000
10
281.3595530578
20
109.0742791328
30
0.0000000000
10
281.7714240884
20
108.9916495982
30
0.0000000000
10
281.9759762187
20
108.9916495982
30
0.0000000000
11
280.5561568831
21
109.9660196630
31
0.0000000000
11
280.8736251743
21
109.4574390879
31
0.0000000000
11
281.3744960039
21
109.1132872451
31
0.0000000000
11
281.9759762187
21
108.9916495982
31
0.0000000000
0
SPLINE
5
4E2
100
AcDbEntity
8
0
100
AcDbSpline
62
7
6
CONTINUOUS
70
0
71
3
72
10
73
6
74
4
42
0.0000001000
43
0.0000001000
44
0.0000000001
40
0.0000000000
40
0.0000000000
40
0.0000000000
40
0.0000000000
40
0.3532078587
40
0.6875415125
40
1.0000000000
40
1.0000000000
40
1.0000000000
40
1.0000000000
10
278.0034062520
20
180.5148436273
30
0.0000000000
10
277.9924204012
20
181.0803356863
30
0.0000000000
10
277.9657641033
20
182.1810102007
30
0.0000000000
10
277.9097079539
20
183.7813791131
30
0.0000000000
10
277.8608433554
20
184.8159833736
30
0.0000000000
10
277.8335589210
20
185.3155848770
30
0.0000000000
11
278.0034062520
21
180.5148436273
31
0.0000000000
11
277.9618958179
21
182.2111320767
31
0.0000000000
11
277.9051129241
21
183.8162533768
31
0.0000000000
11
277.8335589210
21
185.3155848770
31
0.0000000000
0
SPLINE
5
4E3
100
AcDbEntity
8
0
100
AcDbSpline
62
7
6
CONTINUOUS
70
0
71
3
72
15
73
11
74
9
42
0.0000001000
43
0.0000001000
44
0.0000000001
40
0.0000000000
40
0.0000000000
40
0.0000000000
40
0.0000000000
40
0.1273810321
40
0.2563595841
40
0.3857848061
40
0.5145044548
40
0.6413772345
40
0.7652956196
40
0.8851820880
40
1.0000000000
40
1.0000000000
40
1.0000000000
40
1.0000000000
10
276.9895506376
20
148.6413053527
30
0.0000000000
10
276.9895506376
20
149.8783752551
30
0.0000000000
10
277.0001658024
20
152.3680408010
30
0.0000000000
10
277.0466785270
20
156.1143669234
30
0.0000000000
10
277.1234965671
20
159.8731993255
30
0.0000000000
10
277.2299016669
20
163.6108518433
30
0.0000000000
10
277.3649049482
20
167.2940667782
30
0.0000000000
10
277.5272619973
20
170.8903120855
30
0.0000000000
10
277.7154935543
20
174.3680586143
30
0.0000000000
10
277.8606309084
20
176.6428281744
30
0.0000000000
10
277.9376965600
20
177.7552241284
30
0.0000000000
11
276.9895506376
21
148.6413053527
31
0.0000000000
11
277.0051099246
21
152.3524824436
31
0.0000000000
11
277.0516375439
21
156.1099473742
31
0.0000000000
11
277.1286934962
21
159.8799265595
31
0.0000000000
11
277.2355569357
21
163.6286136132
31
0.0000000000
11
277.3712363659
21
167.3225245817
31
0.0000000000
11
277.5344995594
21
170.9291576998
31
0.0000000000
11
277.7238802605
21
174.4168776143
31
0.0000000000
11
277.9376965600
21
177.7552241284
31
0.0000000000
0
SPLINE
5
4E4
100
AcDbEntity
8
0
100
AcDbSpline
62
7
6
CONTINUOUS
70
0
71
3
72
15
73
11
74
9
42
0.0000001000
43
0.0000001000
44
0.0000000001
40
0.0000000000
40
0.0000000000
40
0.0000000000
40
0.0000000000
40
0.2059348509
40
0.3982506429
40
0.5709704722
40
0.7181884352
40
0.8392957653
40
0.9318897189
40
0.9882800200
40
1.0000000000
40
1.0000000000
40
1.0000000000
40
1.0000000000
10
314.8145733105
20
170.3011443202
30
0.0000000000
10
314.8145733105
20
170.0322860330
30
0.0000000000
10
314.8108476641
20
169.5121798524
30
0.0000000000
10
314.7924809512
20
168.7675792488
30
0.0000000000
10
314.7644122641
20
168.0973716637
30
0.0000000000
10
314.7207720324
20
167.5288381542
30
0.0000000000
10
314.6820717447
20
167.0435303199
30
0.0000000000
10
314.5989439844
20
166.7356600469
30
0.0000000000
10
314.5847288935
20
166.4632121187
30
0.0000000000
10
314.4925111107
20
166.4478103693
30
0.0000000000
10
314.4764119035
20
166.4478446954
30
0.0000000000
11
314.8145733105
21
170.3011443202
31
0.0000000000
11
314.8082909850
21
169.4945939251
31
0.0000000000
11
314.7895580346
21
168.7415931393
31
0.0000000000
11
314.7588979372
21
168.0658050702
31
0.0000000000
11
314.7175196902
21
167.4906903599
31
0.0000000000
11
314.6652500243
21
167.0192440015
31
0.0000000000
11
314.6004227034
21
166.6624270124
31
0.0000000000
11
314.5216954806
21
166.4560737879
31
0.0000000000
11
314.4764119035
21
166.4478446954
31
0.0000000000
0
SPLINE
5
4E5
100
AcDbEntity
8
0
100
AcDbSpline
62
7
6
CONTINUOUS
70
0
71
3
72
16
73
12
74
10
42
0.0000001000
43
0.0000001000
44
0.0000000001
40
0.0000000000
40
0.0000000000
40
0.0000000000
40
0.0000000000
40
0.0884661508
40
0.1763655927
40
0.2691046064
40
0.3692359889
40
0.4772803650
40
0.5939627733
40
0.7197306600
40
0.8549536706
40
1.0000000000
40
1.0000000000
40
1.0000000000
40
1.0000000000
10
314.0269649864
20
134.3258121413
30
0.0000000000
10
314.0269649864
20
134.2012175087
30
0.0000000000
10
314.0267970202
20
133.9528263554
30
0.0000000000
10
314.0260242427
20
133.5738234327
30
0.0000000000
10
314.0246596520
20
133.1783928783
30
0.0000000000
10
314.0225499287
20
132.7545933066
30
0.0000000000
10
314.0195067844
20
132.2970769687
30
0.0000000000
10
314.0153162476
20
131.8034620932
30
0.0000000000
10
314.0097245907
20
131.2715806653
30
0.0000000000
10
314.0024379576
20
130.6997687948
30
0.0000000000
10
313.9964370576
20
130.3050860103
30
0.0000000000
10
313.9930628935
20
130.1008324218
30
0.0000000000
11
314.0269649864
21
134.3258121413
31
0.0000000000
11
314.0267113117
21
133.9520283297
31
0.0000000000
11
314.0259530871
21
133.5806396431
31
0.0000000000
11
314.0245996686
21
133.1888045410
31
0.0000000000
11
314.0224919080
21
132.7657383895
31
0.0000000000
11
314.0194532430
21
132.3092434141
31
0.0000000000
11
314.0152648621
21
131.8162590236
31
0.0000000000
11
314.0096742653
21
131.2848986248
31
0.0000000000
11
314.0023881513
21
130.7136058384
31
0.0000000000
11
313.9930628935
21
130.1008324218
31
0.0000000000
0
SPLINE
5
4E6
100
AcDbEntity
8
0
100
AcDbSpline
62
7
6
CONTINUOUS
70
0
71
3
72
37
73
33
74
31
42
0.0000001000
43
0.0000001000
44
0.0000000001
40
0.0000000000
40
0.0000000000
40
0.0000000000
40
0.0000000000
40
0.0102345949
40
0.0206077122
40
0.0309488717
40
0.0412178831
40
0.0515352787
40
0.0623834652
40
0.0742986458
40
0.0878181093
40
0.1031282525
40
0.1201471872
40
0.1388401514
40
0.1593518418
40
0.1818822033
40
0.2066390776
40
0.2338616046
40
0.2639988546
40
0.2976050115
40
0.3351669960
40
0.3766200230
40
0.4216272864
40
0.4702299282
40
0.5239513199
40
0.5841350527
40
0.6476393657
40
0.7095643118
40
0.7691654104
40
0.8275707936
40
0.8853496102
40
0.9427450624
40
1.0000000000
40
1.0000000000
40
1.0000000000
40
1.0000000000
10
314.0269649864
20
134.3258121413
30
0.0000000000
10
314.0269649864
20
134.3679623374
30
0.0000000000
10
314.0269455698
20
134.4528332218
30
0.0000000000
10
314.0268578994
20
134.5802931513
30
0.0000000000
10
314.0267114558
20
134.7078947679
30
0.0000000000
10
314.0265071945
20
134.8352668200
30
0.0000000000
10
314.0262408102
20
134.9647269040
30
0.0000000000
10
314.0258970848
20
135.1009664192
30
0.0000000000
10
314.0254455549
20
135.2503930965
30
0.0000000000
10
314.0248452986
20
135.4181955250
30
0.0000000000
10
314.0240514317
20
135.6070166838
30
0.0000000000
10
314.0230208123
20
135.8171435546
30
0.0000000000
10
314.0217067577
20
136.0486913031
30
0.0000000000
10
314.0200498575
20
136.3029356702
30
0.0000000000
10
314.0179733490
20
136.5821513563
30
0.0000000000
10
314.0153826554
20
136.8890017770
30
0.0000000000
10
314.0121553519
20
137.2271759927
30
0.0000000000
10
314.0081275314
20
137.6017889007
30
0.0000000000
10
314.0030841964
20
138.0189750781
30
0.0000000000
10
313.9967883540
20
138.4827519997
30
0.0000000000
10
313.9890158767
20
138.9934669375
30
0.0000000000
10
313.9795545659
20
139.5496305014
30
0.0000000000
10
313.9680589188
20
140.1562917967
30
0.0000000000
10
313.9539634702
20
140.8254165230
30
0.0000000000
10
313.9368530849
20
141.5558606367
30
0.0000000000
10
313.9169873202
20
142.3200326383
30
0.0000000000
10
313.8951848070
20
143.0817512922
30
0.0000000000
10
313.8720817140
20
143.8224221554
30
0.0000000000
10
313.8476858818
20
144.5459666186
30
0.0000000000
10
313.8217965959
20
145.2603695641
30
0.0000000000
10
313.7942772597
20
145.9699699990
30
0.0000000000
10
313.7747638612
20
146.4417438658
30
0.0000000000
10
313.7647093482
20
146.6773283658
30
0.0000000000
11
314.0269649864
21
134.3258121413
31
0.0000000000
11
314.0269360908
21
134.4522627261
31
0.0000000000
11
314.0268479715
21
134.5804247571
31
0.0000000000
11
314.0267013706
21
134.7081918897
31
0.0000000000
11
314.0264979364
21
134.8350675369
31
0.0000000000
11
314.0262356708
21
134.9625408749
31
0.0000000000
11
314.0258975513
21
135.0965720911
31
0.0000000000
11
314.0254527521
21
135.2437859997
31
0.0000000000
11
314.0248553039
21
135.4108207664
31
0.0000000000
11
314.0240601054
21
135.5999791564
31
0.0000000000
11
314.0230288964
21
135.8102491720
31
0.0000000000
11
314.0217183642
21
136.0412009861
31
0.0000000000
11
314.0200670039
21
136.2946218857
31
0.0000000000
11
314.0179970737
21
136.5729815772
31
0.0000000000
11
314.0154149526
21
136.8788471045
31
0.0000000000
11
314.0122056053
21
137.2151718800
31
0.0000000000
11
314.0082026883
21
137.5875024707
31
0.0000000000
11
314.0031840227
21
138.0026833261
31
0.0000000000
11
313.9968850386
21
138.4667268514
31
0.0000000000
11
313.9890919248
21
138.9788284864
31
0.0000000000
11
313.9796338591
21
139.5348223202
31
0.0000000000
11
313.9682572088
21
140.1352104773
31
0.0000000000
11
313.9542780085
21
140.7988024242
31
0.0000000000
11
313.9368634534
21
141.5421812414
31
0.0000000000
11
313.9164709073
21
142.3265254272
31
0.0000000000
11
313.8945775355
21
143.0913079466
31
0.0000000000
11
313.8716156440
21
143.8273340603
31
0.0000000000
11
313.8472945390
21
144.5485349668
31
0.0000000000
11
313.8214365596
21
145.2619360139
31
0.0000000000
11
313.7939502288
21
145.9705360911
31
0.0000000000
11
313.7647093482
21
146.6773283658
31
0.0000000000
0
SPLINE
5
4E7
100
AcDbEntity
8
0
100
AcDbSpline
62
7
6
CONTINUOUS
70
0
71
3
72
15
73
11
74
9
42
0.0000001000
43
0.0000001000
44
0.0000000001
40
0.0000000000
40
0.0000000000
40
0.0000000000
40
0.0000000000
40
0.1273810321
40
0.2563595841
40
0.3857848061
40
0.5145044548
40
0.6413772345
40
0.7652956196
40
0.8851820880
40
1.0000000000
40
1.0000000000
40
1.0000000000
40
1.0000000000
10
313.7647093482
20
148.6413053527
30
0.0000000000
10
313.7647093482
20
149.8783752551
30
0.0000000000
10
313.7540941834
20
152.3680408010
30
0.0000000000
10
313.7075814588
20
156.1143669234
30
0.0000000000
10
313.6307634187
20
159.8731993255
30
0.0000000000
10
313.5243583189
20
163.6108518433
30
0.0000000000
10
313.3893550376
20
167.2940667782
30
0.0000000000
10
313.2269979885
20
170.8903120855
30
0.0000000000
10
313.0387664315
20
174.3680586143
30
0.0000000000
10
312.8936290774
20
176.6428281744
30
0.0000000000
10
312.8165634258
20
177.7552241284
30
0.0000000000
11
313.7647093482
21
148.6413053527
31
0.0000000000
11
313.7491500612
21
152.3524824436
31
0.0000000000
11
313.7026224420
21
156.1099473742
31
0.0000000000
11
313.6255664897
21
159.8799265595
31
0.0000000000
11
313.5187030501
21
163.6286136132
31
0.0000000000
11
313.3830236200
21
167.3225245817
31
0.0000000000
11
313.2197604264
21
170.9291576998
31
0.0000000000
11
313.0303797253
21
174.4168776143
31
0.0000000000
11
312.8165634258
21
177.7552241284
31
0.0000000000
0
SPLINE
5
4E8
100
AcDbEntity
8
0
100
AcDbSpline
62
7
6
CONTINUOUS
70
0
71
3
72
10
73
6
74
4
42
0.0000001000
43
0.0000001000
44
0.0000000001
40
0.0000000000
40
0.0000000000
40
0.0000000000
40
0.0000000000
40
0.3532078587
40
0.6875415125
40
1.0000000000
40
1.0000000000
40
1.0000000000
40
1.0000000000
10
312.7508537339
20
180.5148436273
30
0.0000000000
10
312.7618395846
20
181.0803356863
30
0.0000000000
10
312.7884958825
20
182.1810102007
30
0.0000000000
10
312.8445520319
20
183.7813791131
30
0.0000000000
10
312.8934166305
20
184.8159833736
30
0.0000000000
10
312.9207010648
20
185.3155848770
30
0.0000000000
11
312.7508537339
21
180.5148436273
31
0.0000000000
11
312.7923641679
21
182.2111320767
31
0.0000000000
11
312.8491470617
21
183.8162533768
31
0.0000000000
11
312.9207010648
21
185.3155848770
31
0.0000000000
0
SPLINE
5
4E9
100
AcDbEntity
8
0
100
AcDbSpline
62
7
6
CONTINUOUS
70
0
71
3
72
15
73
11
74
9
42
0.0000001000
43
0.0000001000
44
0.0000000001
40
0.0000000000
40
0.0000000000
40
0.0000000000
40
0.0000000000
40
0.0845771353
40
0.1948033633
40
0.3135448646
40
0.4467876400
40
0.5880123601
40
0.7303202585
40
0.8694993979
40
1.0000000000
40
1.0000000000
40
1.0000000000
40
1.0000000000
10
308.7733408599
20
128.0354828664
30
0.0000000000
10
308.7656745237
20
127.9315988392
30
0.0000000000
10
308.7125956094
20
127.6934211363
30
0.0000000000
10
308.4910753694
20
127.3654783964
30
0.0000000000
10
308.1011574806
20
127.1270827232
30
0.0000000000
10
307.6126549063
20
127.0544820016
30
0.0000000000
10
307.1033066099
20
127.1626042243
30
0.0000000000
10
306.6499695670
20
127.4316884184
30
0.0000000000
10
306.3142182960
20
127.8208695263
30
0.0000000000
10
306.1951324711
20
128.1391759098
30
0.0000000000
10
306.1708687624
20
128.2972734226
30
0.0000000000
11
308.7733408599
21
128.0354828664
31
0.0000000000
11
308.7036465625
21
127.7312710782
31
0.0000000000
11
308.4774583352
21
127.3949600901
31
0.0000000000
11
308.1074878750
21
127.1631230711
31
0.0000000000
11
307.6238799098
21
127.0846794437
31
0.0000000000
11
307.1151583771
21
127.1888522971
31
0.0000000000
11
306.6651395549
21
127.4558445627
31
0.0000000000
11
306.3339646513
21
127.8459955801
31
0.0000000000
11
306.1708687624
21
128.2972734226
31
0.0000000000
0
SPLINE
5
4EA
100
AcDbEntity
8
0
100
AcDbSpline
62
7
6
CONTINUOUS
70
0
71
3
72
17
73
13
74
11
42
0.0000001000
43
0.0000001000
44
0.0000000001
40
0.0000000000
40
0.0000000000
40
0.0000000000
40
0.0000000000
40
0.0077419020
40
0.0530806133
40
0.1324851369
40
0.2321693109
40
0.3443055444
40
0.4643452276
40
0.5919713527
40
0.7268817266
40
0.8643027785
40
1.0000000000
40
1.0000000000
40
1.0000000000
40
1.0000000000
10
314.2778480823
20
176.4039544884
30
0.0000000000
10
314.2946338762
20
176.4039186984
30
0.0000000000
10
314.4114433978
20
176.3836638138
30
0.0000000000
10
314.4237592985
20
176.0277150433
30
0.0000000000
10
314.5445054350
20
175.6282727373
30
0.0000000000
10
314.6027234065
20
175.0104623092
30
0.0000000000
10
314.6703763433
20
174.3365909199
30
0.0000000000
10
314.7203614191
20
173.5947385431
30
0.0000000000
10
314.7617490716
20
172.8080370032
30
0.0000000000
10
314.7917146588
20
171.9841877005
30
0.0000000000
10
314.8102656065
20
171.1436005837
30
0.0000000000
10
314.8145733105
20
170.5807726270
30
0.0000000000
10
314.8145733105
20
170.3011443202
30
0.0000000000
11
314.2778480823
21
176.4039544884
31
0.0000000000
11
314.3263277393
21
176.3954074036
31
0.0000000000
11
314.4279264704
21
176.1341840322
31
0.0000000000
11
314.5216908990
21
175.6523408088
31
0.0000000000
11
314.6004195733
21
175.0411394432
31
0.0000000000
11
314.6652482458
21
174.3509473083
31
0.0000000000
11
314.7175188503
21
173.6107010147
31
0.0000000000
11
314.7588975445
21
172.8227976954
31
0.0000000000
11
314.7895578385
21
171.9893408515
31
0.0000000000
11
314.8082909149
21
171.1400057161
31
0.0000000000
11
314.8145733105
21
170.3011443202
31
0.0000000000
0
SPLINE
5
4EB
100
AcDbEntity
8
0
100
AcDbSpline
62
7
6
CONTINUOUS
70
0
71
3
72
9
73
5
74
3
42
0.0000001000
43
0.0000001000
44
0.0000000001
40
0.0000000000
40
0.0000000000
40
0.0000000000
40
0.0000000000
40
0.4997543660
40
1.0000000000
40
1.0000000000
40
1.0000000000
40
1.0000000000
10
296.4428799929
20
150.2697765690
30
0.0000000000
10
296.4571819167
20
150.3416194753
30
0.0000000000
10
296.4857825399
20
150.4853793520
30
0.0000000000
10
296.5143486772
20
150.6291460853
30
0.0000000000
10
296.5286301565
20
150.7010664747
30
0.0000000000
11
296.4428799929
21
150.2697765690
31
0.0000000000
11
296.4857598763
21
150.4853104399
31
0.0000000000
11
296.5286301565
21
150.7010664747
31
0.0000000000
0
SPLINE
5
4EC
100
AcDbEntity
8
0
100
AcDbSpline
62
7
6
CONTINUOUS
70
0
71
3
72
9
73
5
74
3
42
0.0000001000
43
0.0000001000
44
0.0000000001
40
0.0000000000
40
0.0000000000
40
0.0000000000
40
0.0000000000
40
0.4998284847
40
1.0000000000
40
1.0000000000
40
1.0000000000
40
1.0000000000
10
296.2713801565
20
149.9255230392
30
0.0000000000
10
296.2999766631
20
149.9828674807
30
0.0000000000
10
296.3571662702
20
150.0976072060
30
0.0000000000
10
296.4143098772
20
150.2123698477
30
0.0000000000
10
296.4428799929
20
150.2697765690
30
0.0000000000
11
296.2713801565
21
149.9255230392
31
0.0000000000
11
296.3571351603
21
150.0975735719
31
0.0000000000
11
296.4428799929
21
150.2697765690
31
0.0000000000
0
SPLINE
5
4ED
100
AcDbEntity
8
0
100
AcDbSpline
62
7
6
CONTINUOUS
70
0
71
3
72
9
73
5
74
3
42
0.0000001000
43
0.0000001000
44
0.0000000001
40
0.0000000000
40
0.0000000000
40
0.0000000000
40
0.0000000000
40
0.4998965408
40
1.0000000000
40
1.0000000000
40
1.0000000000
40
1.0000000000
10
295.9283799929
20
149.5819607555
30
0.0000000000
10
295.9855636463
20
149.6391805359
30
0.0000000000
10
296.0999258229
20
149.7536725663
30
0.0000000000
10
296.2142304229
20
149.8682220791
30
0.0000000000
10
296.2713801565
20
149.9255230392
30
0.0000000000
11
295.9283799929
21
149.5819607555
31
0.0000000000
11
296.0998877711
21
149.7536632404
31
0.0000000000
11
296.2713801565
21
149.9255230392
31
0.0000000000
0
SPLINE
5
4EE
100
AcDbEntity
8
0
100
AcDbSpline
62
7
6
CONTINUOUS
70
0
71
3
72
9
73
5
74
3
42
0.0000001000
43
0.0000001000
44
0.0000000001
40
0.0000000000
40
0.0000000000
40
0.0000000000
40
0.0000000000
40
0.4997342439
40
1.0000000000
40
1.0000000000
40
1.0000000000
40
1.0000000000
10
295.5853798294
20
149.4104386521
30
0.0000000000
10
295.6425218887
20
149.4389989715
30
0.0000000000
10
295.7568610344
20
149.4961614893
30
0.0000000000
10
295.8711886746
20
149.5533470149
30
0.0000000000
10
295.9283799929
20
149.5819607413
30
0.0000000000
11
295.5853798294
21
149.4104386521
31
0.0000000000
11
295.7567973884
21
149.4961368526
31
0.0000000000
11
295.9283799929
21
149.5819607413
31
0.0000000000
0
SPLINE
5
4EF
100
AcDbEntity
8
0
100
AcDbSpline
62
7
6
CONTINUOUS
70
0
71
3
72
9
73
5
74
3
42
0.0000001000
43
0.0000001000
44
0.0000000001
40
0.0000000000
40
0.0000000000
40
0.0000000000
40
0.0000000000
40
0.4999456825
40
1.0000000000
40
1.0000000000
40
1.0000000000
40
1.0000000000
10
295.1566299929
20
149.3247423292
30
0.0000000000
10
295.2280812271
20
149.3390200394
30
0.0000000000
10
295.3709985305
20
149.3675820192
30
0.0000000000
10
295.5139144517
20
149.3961509144
30
0.0000000000
10
295.5853798294
20
149.4104386436
30
0.0000000000
11
295.1566299929
21
149.3247423292
31
0.0000000000
11
295.3709826592
21
149.3675806448
31
0.0000000000
11
295.5853798294
21
149.4104386436
31
0.0000000000
0
SPLINE
5
4F0
100
AcDbEntity
8
0
100
AcDbSpline
62
7
6
CONTINUOUS
70
0
71
3
72
9
73
5
74
3
42
0.0000001000
43
0.0000001000
44
0.0000000001
40
0.0000000000
40
0.0000000000
40
0.0000000000
40
0.0000000000
40
0.4999456825
40
1.0000000000
40
1.0000000000
40
1.0000000000
40
1.0000000000
10
294.8136298294
20
149.3247423292
30
0.0000000000
10
294.7421785952
20
149.3390200394
30
0.0000000000
10
294.5992612917
20
149.3675820192
30
0.0000000000
10
294.4563453705
20
149.3961509144
30
0.0000000000
10
294.3848799929
20
149.4104386436
30
0.0000000000
11
294.8136298294
21
149.3247423292
31
0.0000000000
11
294.5992771630
21
149.3675806448
31
0.0000000000
11
294.3848799929
21
149.4104386436
31
0.0000000000
0
SPLINE
5
4F1
100
AcDbEntity
8
0
100
AcDbSpline
62
7
6
CONTINUOUS
70
0
71
3
72
9
73
5
74
3
42
0.0000001000
43
0.0000001000
44
0.0000000001
40
0.0000000000
40
0.0000000000
40
0.0000000000
40
0.0000000000
40
0.4997342439
40
1.0000000000
40
1.0000000000
40
1.0000000000
40
1.0000000000
10
294.3848799929
20
149.4104386521
30
0.0000000000
10
294.3277379336
20
149.4389989715
30
0.0000000000
10
294.2133987879
20
149.4961614893
30
0.0000000000
10
294.0990711477
20
149.5533470149
30
0.0000000000
10
294.0418798294
20
149.5819607413
30
0.0000000000
11
294.3848799929
21
149.4104386521
31
0.0000000000
11
294.2134624338
21
149.4961368526
31
0.0000000000
11
294.0418798294
21
149.5819607413
31
0.0000000000
0
SPLINE
5
4F2
100
AcDbEntity
8
0
100
AcDbSpline
62
7
6
CONTINUOUS
70
0
71
3
72
11
73
7
74
5
42
0.0000001000
43
0.0000001000
44
0.0000000001
40
0.0000000000
40
0.0000000000
40
0.0000000000
40
0.0000000000
40
0.5042606189
40
0.8396305153
40
0.9888135115
40
1.0000000000
40
1.0000000000
40
1.0000000000
40
1.0000000000
10
312.9207010648
20
185.3155848770
30
0.0000000000
10
312.9303969112
20
185.4931241796
30
0.0000000000
10
312.9521273119
20
185.8170638870
30
0.0000000000
10
312.9957884056
20
186.0848338097
30
0.0000000000
10
313.0457212962
20
186.3527567032
30
0.0000000000
10
313.0878462854
20
186.3404238847
30
0.0000000000
10
313.0908631385
20
186.3391492796
30
0.0000000000
11
312.9207010648
21
185.3155848770
31
0.0000000000
11
312.9620326035
21
185.8473927601
31
0.0000000000
11
313.0171401311
21
186.1978438645
31
0.0000000000
11
313.0820958439
21
186.3416626974
31
0.0000000000
11
313.0908631385
21
186.3391492796
31
0.0000000000
0
SPLINE
5
4F3
100
AcDbEntity
8
0
100
AcDbSpline
62
7
6
CONTINUOUS
70
0
71
3
72
9
73
5
74
3
42
0.0000001000
43
0.0000001000
44
0.0000000001
40
0.0000000000
40
0.0000000000
40
0.0000000000
40
0.0000000000
40
0.4998965406
40
1.0000000000
40
1.0000000000
40
1.0000000000
40
1.0000000000
10
294.0418798294
20
149.5819607555
30
0.0000000000
10
293.9846962578
20
149.6391805359
30
0.0000000000
10
293.8703342447
20
149.7536725663
30
0.0000000000
10
293.7560298083
20
149.8682220791
30
0.0000000000
10
293.6988801565
20
149.9255230392
30
0.0000000000
11
294.0418798294
21
149.5819607555
31
0.0000000000
11
293.8703722965
21
149.7536632404
31
0.0000000000
11
293.6988801565
21
149.9255230392
31
0.0000000000
0
SPLINE
5
4F4
100
AcDbEntity
8
0
100
AcDbSpline
62
7
6
CONTINUOUS
70
0
71
3
72
8
73
4
74
2
42
0.0000001000
43
0.0000001000
44
0.0000000001
40
0.0000000000
40
0.0000000000
40
0.0000000000
40
0.0000000000
40
1.0000000000
40
1.0000000000
40
1.0000000000
40
1.0000000000
10
312.5031882754
20
123.4511325373
30
0.0000000000
10
312.6591913469
20
123.9973596676
30
0.0000000000
10
312.8099098312
20
124.5451054854
30
0.0000000000
10
312.9562636657
20
125.0940056355
30
0.0000000000
11
312.5031882754
21
123.4511325373
31
0.0000000000
11
312.9562636657
21
125.0940056355
31
0.0000000000
0
SPLINE
5
4F5
100
AcDbEntity
8
0
100
AcDbSpline
62
7
6
CONTINUOUS
70
0
71
3
72
9
73
5
74
3
42
0.0000001000
43
0.0000001000
44
0.0000000001
40
0.0000000000
40
0.0000000000
40
0.0000000000
40
0.0000000000
40
0.5044791390
40
1.0000000000
40
1.0000000000
40
1.0000000000
40
1.0000000000
10
312.9562636657
20
125.0940056355
30
0.0000000000
10
313.1015062342
20
125.6387379817
30
0.0000000000
10
313.3808913226
20
126.7207831511
30
0.0000000000
10
313.6457518970
20
127.8064756298
30
0.0000000000
10
313.7738307702
20
128.3452035617
30
0.0000000000
11
312.9562636657
21
125.0940056355
31
0.0000000000
11
313.3796976547
21
126.7314046499
31
0.0000000000
11
313.7738307702
21
128.3452035617
31
0.0000000000
0
SPLINE
5
4F6
100
AcDbEntity
8
0
100
AcDbSpline
62
7
6
CONTINUOUS
70
0
71
3
72
9
73
5
74
3
42
0.0000001000
43
0.0000001000
44
0.0000000001
40
0.0000000000
40
0.0000000000
40
0.0000000000
40
0.0000000000
40
0.4998284848
40
1.0000000000
40
1.0000000000
40
1.0000000000
40
1.0000000000
10
293.6988801565
20
149.9255230392
30
0.0000000000
10
293.6702836089
20
149.9828674807
30
0.0000000000
10
293.6130939200
20
150.0976072060
30
0.0000000000
10
293.5559502313
20
150.2123698476
30
0.0000000000
10
293.5273800747
20
150.2697765690
30
0.0000000000
11
293.6988801565
21
149.9255230392
31
0.0000000000
11
293.6131250300
21
150.0975735720
31
0.0000000000
11
293.5273800747
21
150.2697765690
31
0.0000000000
0
SPLINE
5
4F7
100
AcDbEntity
8
0
100
AcDbSpline
62
7
6
CONTINUOUS
70
0
71
3
72
11
73
7
74
5
42
0.0000001000
43
0.0000001000
44
0.0000000001
40
0.0000000000
40
0.0000000000
40
0.0000000000
40
0.0000000000
40
0.2907423734
40
0.5686207643
40
0.8212292540
40
1.0000000000
40
1.0000000000
40
1.0000000000
40
1.0000000000
10
306.1028172939
20
134.6356508140
30
0.0000000000
10
306.1028172939
20
134.7988449724
30
0.0000000000
10
306.1613154558
20
135.1215863398
30
0.0000000000
10
306.4116980918
20
135.5215780972
30
0.0000000000
10
306.7370971852
20
135.7652637854
30
0.0000000000
10
306.9677175547
20
135.8477697717
30
0.0000000000
10
307.0659264998
20
135.8701836641
30
0.0000000000
11
306.1028172939
21
134.6356508140
31
0.0000000000
11
306.1926697116
21
135.1169174170
31
0.0000000000
11
306.4418039843
21
135.5130006731
31
0.0000000000
11
306.7821891222
21
135.7681015216
31
0.0000000000
11
307.0659264998
21
135.8701836641
31
0.0000000000
0
SPLINE
5
4F8
100
AcDbEntity
8
0
100
AcDbSpline
62
7
6
CONTINUOUS
70
0
71
3
72
12
73
8
74
6
42
0.0000001000
43
0.0000001000
44
0.0000000001
40
0.0000000000
40
0.0000000000
40
0.0000000000
40
0.0000000000
40
0.2355070040
40
0.4702557465
40
0.7023415998
40
0.9364358835
40
1.0000000000
40
1.0000000000
40
1.0000000000
40
1.0000000000
10
310.0101807565
20
137.7346667125
30
0.0000000000
10
310.0150272350
20
137.9039041417
30
0.0000000000
10
310.0880014545
20
138.2433823192
30
0.0000000000
10
310.3730350394
20
138.6738876655
30
0.0000000000
10
310.7941807219
20
138.9713160950
30
0.0000000000
10
311.1723220422
20
139.0654024061
30
0.0000000000
10
311.3877600331
20
139.0673296114
30
0.0000000000
10
311.4336752238
20
139.0654550757
30
0.0000000000
11
310.0101807565
21
137.7346667125
31
0.0000000000
11
310.1176820299
21
138.2310804898
31
0.0000000000
11
310.3971350105
21
138.6532541651
31
0.0000000000
11
310.8060279365
21
138.9419562018
31
0.0000000000
11
311.2958828357
21
139.0641835709
31
0.0000000000
11
311.4336752238
21
139.0654550757
31
0.0000000000
0
SPLINE
5
4F9
100
AcDbEntity
8
0
100
AcDbSpline
62
7
6
CONTINUOUS
70
0
71
3
72
9
73
5
74
3
42
0.0000001000
43
0.0000001000
44
0.0000000001
40
0.0000000000
40
0.0000000000
40
0.0000000000
40
0.0000000000
40
0.4997543660
40
1.0000000000
40
1.0000000000
40
1.0000000000
40
1.0000000000
10
293.5273800747
20
150.2697765690
30
0.0000000000
10
293.5130781509
20
150.3416194753
30
0.0000000000
10
293.4844775277
20
150.4853793520
30
0.0000000000
10
293.4559113904
20
150.6291460853
30
0.0000000000
10
293.4416299111
20
150.7010664747
30
0.0000000000
11
293.5273800747
21
150.2697765690
31
0.0000000000
11
293.4845001913
21
150.4853104399
31
0.0000000000
11
293.4416299111
21
150.7010664747
31
0.0000000000
0
SPLINE
5
4FA
100
AcDbEntity
8
0
100
AcDbSpline
62
7
6
CONTINUOUS
70
0
71
3
72
14
73
10
74
8
42
0.0000001000
43
0.0000001000
44
0.0000000001
40
0.0000000000
40
0.0000000000
40
0.0000000000
40
0.0000000000
40
0.1519583774
40
0.3044272485
40
0.4508213124
40
0.5969042177
40
0.7425634067
40
0.8825077450
40
1.0000000000
40
1.0000000000
40
1.0000000000
40
1.0000000000
10
306.1708687624
20
141.3928070933
30
0.0000000000
10
306.1947167954
20
141.5664097009
30
0.0000000000
10
306.3088676690
20
141.9086321087
30
0.0000000000
10
306.6528667939
20
142.3151874417
30
0.0000000000
10
307.1192561716
20
142.5589092197
30
0.0000000000
10
307.6365467160
20
142.6025683100
30
0.0000000000
10
308.1219699453
20
142.4410581104
30
0.0000000000
10
308.4821581532
20
142.1299247686
30
0.0000000000
10
308.6321098176
20
141.8682546549
30
0.0000000000
10
308.6815883797
20
141.7413001667
30
0.0000000000
11
306.1708687624
21
141.3928070933
31
0.0000000000
11
306.3381128478
21
141.8911932510
31
0.0000000000
11
306.6796817989
21
142.2931260028
31
0.0000000000
11
307.1292889078
21
142.5262445334
31
0.0000000000
11
307.6329375145
21
142.5679543210
31
0.0000000000
11
308.1112413967
21
142.4093744503
31
0.0000000000
11
308.4785553847
21
142.0939881520
31
0.0000000000
11
308.6815883797
21
141.7413001667
31
0.0000000000
0
SPLINE
5
4FB
100
AcDbEntity
8
0
100
AcDbSpline
62
7
6
CONTINUOUS
70
0
71
3
72
15
73
11
74
9
42
0.0000001000
43
0.0000001000
44
0.0000000001
40
0.0000000000
40
0.0000000000
40
0.0000000000
40
0.0000000000
40
0.1247338968
40
0.2506636404
40
0.3775332539
40
0.5065552732
40
0.6338360815
40
0.7572859234
40
0.8811851435
40
1.0000000000
40
1.0000000000
40
1.0000000000
40
1.0000000000
10
310.0612268657
20
144.7043302361
30
0.0000000000
10
310.0842105151
20
144.8689875289
30
0.0000000000
10
310.1933502730
20
145.1941854432
30
0.0000000000
10
310.5202363746
20
145.5906885447
30
0.0000000000
10
310.9716995524
20
145.8492777424
30
0.0000000000
10
311.4884564527
20
145.9284755531
30
0.0000000000
10
311.9939283119
20
145.8133729495
30
0.0000000000
10
312.4153741832
20
145.5239425071
30
0.0000000000
10
312.6934832392
20
145.1088105924
30
0.0000000000
10
312.7648238107
20
144.7847642967
30
0.0000000000
10
312.7708936101
20
144.6265163139
30
0.0000000000
11
310.0612268657
21
144.7043302361
31
0.0000000000
11
310.2195470006
21
145.1772966036
31
0.0000000000
11
310.5392797987
21
145.5663031786
31
0.0000000000
11
310.9796108754
21
145.8182210912
31
0.0000000000
11
311.4896634043
21
145.8957250461
31
0.0000000000
11
311.9857115295
21
145.7818774972
31
0.0000000000
11
312.3923525428
21
145.5020378987
31
0.0000000000
11
312.6678974559
21
145.0903106551
31
0.0000000000
11
312.7708936101
21
144.6265163139
31
0.0000000000
0
SPLINE
5
4FC
100
AcDbEntity
8
0
100
AcDbSpline
62
7
6
CONTINUOUS
70
0
71
3
72
9
73
5
74
3
42
0.0000001000
43
0.0000001000
44
0.0000000001
40
0.0000000000
40
0.0000000000
40
0.0000000000
40
0.0000000000
40
0.6439288289
40
1.0000000000
40
1.0000000000
40
1.0000000000
40
1.0000000000
10
310.0101807565
20
131.1868998772
30
0.0000000000
10
310.0052782302
20
131.3481243889
30
0.0000000000
10
310.0483187257
20
131.6031437862
30
0.0000000000
10
310.1664672290
20
131.8275394833
30
0.0000000000
10
310.2166530319
20
131.9019123997
30
0.0000000000
11
310.0101807565
21
131.1868998772
31
0.0000000000
11
310.0918513720
21
131.6638551288
31
0.0000000000
11
310.2166530319
21
131.9019123997
31
0.0000000000
0
SPLINE
5
4FD
100
AcDbEntity
8
0
100
AcDbSpline
62
7
6
CONTINUOUS
70
0
71
3
72
11
73
7
74
5
42
0.0000001000
43
0.0000001000
44
0.0000000001
40
0.0000000000
40
0.0000000000
40
0.0000000000
40
0.0000000000
40
0.5042606189
40
0.8396305153
40
0.9888135115
40
1.0000000000
40
1.0000000000
40
1.0000000000
40
1.0000000000
10
277.8335589210
20
185.3155848770
30
0.0000000000
10
277.8238630746
20
185.4931241796
30
0.0000000000
10
277.8021326739
20
185.8170638870
30
0.0000000000
10
277.7584715802
20
186.0848338097
30
0.0000000000
10
277.7085386896
20
186.3527567032
30
0.0000000000
10
277.6664137005
20
186.3404238847
30
0.0000000000
10
277.6633968473
20
186.3391492796
30
0.0000000000
11
277.8335589210
21
185.3155848770
31
0.0000000000
11
277.7922273823
21
185.8473927601
31
0.0000000000
11
277.7371198547
21
186.1978438645
31
0.0000000000
11
277.6721641419
21
186.3416626974
31
0.0000000000
11
277.6633968473
21
186.3391492796
31
0.0000000000
0
SPLINE
5
4FE
100
AcDbEntity
8
0
100
AcDbSpline
62
7
6
CONTINUOUS
70
0
71
3
72
10
73
6
74
4
42
0.0000001000
43
0.0000001000
44
0.0000000001
40
0.0000000000
40
0.0000000000
40
0.0000000000
40
0.0000000000
40
0.3930096656
40
0.7768026902
40
1.0000000000
40
1.0000000000
40
1.0000000000
40
1.0000000000
10
306.1708687624
20
128.2972734226
30
0.0000000000
10
306.1479393895
20
128.4466766678
30
0.0000000000
10
306.1613015044
20
128.7561716221
30
0.0000000000
10
306.3536675190
20
129.1051766097
30
0.0000000000
10
306.5343068091
20
129.2584369300
30
0.0000000000
10
306.6065405585
20
129.3060725427
30
0.0000000000
11
306.1708687624
21
128.2972734226
31
0.0000000000
11
306.1962891278
21
128.7500179171
31
0.0000000000
11
306.4100971765
21
129.1378047553
31
0.0000000000
11
306.6065405585
21
129.3060725427
31
0.0000000000
0
SPLINE
5
4FF
100
AcDbEntity
8
0
100
AcDbSpline
62
7
6
CONTINUOUS
70
0
71
3
72
9
73
5
74
3
42
0.0000001000
43
0.0000001000
44
0.0000000001
40
0.0000000000
40
0.0000000000
40
0.0000000000
40
0.0000000000
40
0.6721636343
40
1.0000000000
40
1.0000000000
40
1.0000000000
40
1.0000000000
10
310.0612268657
20
125.0610297301
30
0.0000000000
10
310.0376745601
20
125.2005847639
30
0.0000000000
10
310.0517016894
20
125.4206317691
30
0.0000000000
10
310.1411851608
20
125.6145534010
30
0.0000000000
10
310.1771023344
20
125.6742268687
30
0.0000000000
11
310.0612268657
21
125.0610297301
31
0.0000000000
11
310.0906230860
21
125.4845964065
31
0.0000000000
11
310.1771023344
21
125.6742268687
31
0.0000000000
0
SPLINE
5
500
100
AcDbEntity
8
0
100
AcDbSpline
62
7
6
CONTINUOUS
70
0
71
3
72
15
73
11
74
9
42
0.0000001000
43
0.0000001000
44
0.0000000001
40
0.0000000000
40
0.0000000000
40
0.0000000000
40
0.0000000000
40
0.1057649701
40
0.2213079200
40
0.3456011419
40
0.4818072999
40
0.6227363080
40
0.7578424429
40
0.8839620160
40
1.0000000000
40
1.0000000000
40
1.0000000000
40
1.0000000000
10
312.7708936101
20
124.9832158078
30
0.0000000000
10
312.7648228879
20
124.8537831727
30
0.0000000000
10
312.6895972009
20
124.5821972960
30
0.0000000000
10
312.4010283818
20
124.2550856356
30
0.0000000000
10
311.9790729968
20
124.0470157908
30
0.0000000000
10
311.4830844669
20
123.9838845741
30
0.0000000000
10
310.9783149943
20
124.0733729515
30
0.0000000000
10
310.5329897861
20
124.3017555819
30
0.0000000000
10
310.2029136714
20
124.6377546124
30
0.0000000000
10
310.0848843621
20
124.9208514064
30
0.0000000000
10
310.0612268657
20
125.0610297301
30
0.0000000000
11
312.7708936101
21
124.9832158078
31
0.0000000000
11
312.6678974559
21
124.6083841942
31
0.0000000000
11
312.3923525428
21
124.2852539434
31
0.0000000000
11
311.9857115295
21
124.0770948849
31
0.0000000000
11
311.4896634043
21
124.0096868459
31
0.0000000000
11
310.9796108754
21
124.0998787760
31
0.0000000000
11
310.5392797987
21
124.3294099925
31
0.0000000000
11
310.2195470006
21
124.6650227973
31
0.0000000000
11
310.0612268657
21
125.0610297301
31
0.0000000000
0
SPLINE
5
501
100
AcDbEntity
8
0
100
AcDbSpline
62
7
6
CONTINUOUS
70
0
71
3
72
9
73
5
74
3
42
0.0000001000
43
0.0000001000
44
0.0000000001
40
0.0000000000
40
0.0000000000
40
0.0000000000
40
0.0000000000
40
0.6666148509
40
1.0000000000
40
1.0000000000
40
1.0000000000
40
1.0000000000
10
292.1553799111
20
152.4370768853
30
0.0000000000
10
292.1410807683
20
152.4807178617
30
0.0000000000
10
292.1196376744
20
152.5461868028
30
0.0000000000
10
292.0982055022
20
152.6116593197
30
0.0000000000
10
292.0910615476
20
152.6334872816
30
0.0000000000
11
292.1553799111
21
152.4370768853
31
0.0000000000
11
292.1124970520
21
152.5680045875
31
0.0000000000
11
292.0910615476
21
152.6334872816
31
0.0000000000
0
SPLINE
5
502
100
AcDbEntity
8
0
100
AcDbSpline
62
7
6
CONTINUOUS
70
0
71
3
72
8
73
4
74
2
42
0.0000001000
43
0.0000001000
44
0.0000000001
40
0.0000000000
40
0.0000000000
40
0.0000000000
40
0.0000000000
40
1.0000000000
40
1.0000000000
40
1.0000000000
40
1.0000000000
10
292.0910615476
20
152.6334872816
30
0.0000000000
10
292.0839164826
20
152.6553186365
30
0.0000000000
10
292.0767726312
20
152.6771503886
30
0.0000000000
10
292.0696299929
20
152.6989825375
30
0.0000000000
11
292.0910615476
21
152.6334872816
31
0.0000000000
11
292.0696299929
21
152.6989825375
31
0.0000000000
0
SPLINE
5
503
100
AcDbEntity
8
0
100
AcDbSpline
62
7
6
CONTINUOUS
70
0
71
3
72
10
73
6
74
4
42
0.0000001000
43
0.0000001000
44
0.0000000001
40
0.0000000000
40
0.0000000000
40
0.0000000000
40
0.0000000000
40
0.3215852262
40
0.6547699460
40
1.0000000000
40
1.0000000000
40
1.0000000000
40
1.0000000000
10
313.9930628935
20
130.1008324218
30
0.0000000000
10
313.9899248276
20
129.9108709400
30
0.0000000000
10
313.9703320405
20
129.5241757039
30
0.0000000000
10
313.8988662964
20
128.9372630406
30
0.0000000000
10
313.8210051369
20
128.5436293316
30
0.0000000000
10
313.7738307702
20
128.3452035617
30
0.0000000000
11
313.9930628935
21
130.1008324218
31
0.0000000000
11
313.9641177277
21
129.5316056782
31
0.0000000000
11
313.8926411768
21
128.9454268123
31
0.0000000000
11
313.7738307702
21
128.3452035617
31
0.0000000000
0
SPLINE
5
504
100
AcDbEntity
8
0
100
AcDbSpline
62
7
6
CONTINUOUS
70
0
71
3
72
15
73
11
74
9
42
0.0000001000
43
0.0000001000
44
0.0000000001
40
0.0000000000
40
0.0000000000
40
0.0000000000
40
0.0000000000
40
0.0845771353
40
0.1948033633
40
0.3135448646
40
0.4467876400
40
0.5880123601
40
0.7303202585
40
0.8694993979
40
1.0000000000
40
1.0000000000
40
1.0000000000
40
1.0000000000
10
281.9809191259
20
128.0354828664
30
0.0000000000
10
281.9885854621
20
127.9315988392
30
0.0000000000
10
282.0416643764
20
127.6934211363
30
0.0000000000
10
282.2631846164
20
127.3654783964
30
0.0000000000
10
282.6531025052
20
127.1270827232
30
0.0000000000
10
283.1416050795
20
127.0544820016
30
0.0000000000
10
283.6509533759
20
127.1626042243
30
0.0000000000
10
284.1042904188
20
127.4316884184
30
0.0000000000
10
284.4400416898
20
127.8208695263
30
0.0000000000
10
284.5591275147
20
128.1391759098
30
0.0000000000
10
284.5833912234
20
128.2972734226
30
0.0000000000
11
281.9809191259
21
128.0354828664
31
0.0000000000
11
282.0506134233
21
127.7312710782
31
0.0000000000
11
282.2768016507
21
127.3949600901
31
0.0000000000
11
282.6467721109
21
127.1631230711
31
0.0000000000
11
283.1303800760
21
127.0846794437
31
0.0000000000
11
283.6391016087
21
127.1888522971
31
0.0000000000
11
284.0891204309
21
127.4558445627
31
0.0000000000
11
284.4202953345
21
127.8459955801
31
0.0000000000
11
284.5833912234
21
128.2972734226
31
0.0000000000
0
SPLINE
5
505
100
AcDbEntity
8
0
100
AcDbSpline
62
7
6
CONTINUOUS
70
0
71
3
72
10
73
6
74
4
42
0.0000001000
43
0.0000001000
44
0.0000000001
40
0.0000000000
40
0.0000000000
40
0.0000000000
40
0.0000000000
40
0.3228243747
40
0.6675939122
40
1.0000000000
40
1.0000000000
40
1.0000000000
40
1.0000000000
10
312.8165634258
20
177.7552241284
30
0.0000000000
10
312.7960285421
20
178.0516327241
30
0.0000000000
10
312.7649525430
20
178.6654044379
30
0.0000000000
10
312.7432207425
20
179.5856019705
30
0.0000000000
10
312.7449113813
20
180.2089635243
30
0.0000000000
10
312.7508537339
20
180.5148436273
30
0.0000000000
11
312.8165634258
21
177.7552241284
31
0.0000000000
11
312.7698482335
21
178.6453563233
31
0.0000000000
11
312.7472049242
21
179.5970374238
31
0.0000000000
11
312.7508537339
21
180.5148436273
31
0.0000000000
0
SPLINE
5
506
100
AcDbEntity
8
0
100
AcDbSpline
62
7
6
CONTINUOUS
70
0
71
3
72
10
73
6
74
4
42
0.0000001000
43
0.0000001000
44
0.0000000001
40
0.0000000000
40
0.0000000000
40
0.0000000000
40
0.0000000000
40
0.3292510890
40
0.6629928718
40
1.0000000000
40
1.0000000000
40
1.0000000000
40
1.0000000000
10
310.1981031027
20
109.9660196630
30
0.0000000000
10
310.1296989849
20
109.7782466892
30
0.0000000000
10
309.9086611183
20
109.4254691632
30
0.0000000000
10
309.3947069281
20
109.0742791328
30
0.0000000000
10
308.9828358974
20
108.9916495982
30
0.0000000000
10
308.7782837672
20
108.9916495982
30
0.0000000000
11
310.1981031027
21
109.9660196630
31
0.0000000000
11
309.8806348115
21
109.4574390879
31
0.0000000000
11
309.3797639820
21
109.1132872451
31
0.0000000000
11
308.7782837672
21
108.9916495982
31
0.0000000000
0
SPLINE
5
507
100
AcDbEntity
8
0
100
AcDbSpline
62
7
6
CONTINUOUS
70
0
71
3
72
10
73
6
74
4
42
0.0000001000
43
0.0000001000
44
0.0000000001
40
0.0000000000
40
0.0000000000
40
0.0000000000
40
0.0000000000
40
0.3330440981
40
0.6663607209
40
1.0000000000
40
1.0000000000
40
1.0000000000
40
1.0000000000
10
309.9893947595
20
110.8502412131
30
0.0000000000
10
309.9846683134
20
110.8265489597
30
0.0000000000
10
309.9740020886
20
110.7793768093
30
0.0000000000
10
309.9544200102
20
110.7095004159
30
0.0000000000
10
309.9390087348
20
110.6636131761
30
0.0000000000
10
309.9307246162
20
110.6408728260
30
0.0000000000
11
309.9893947595
21
110.8502412131
31
0.0000000000
11
309.9734113122
21
110.7795482936
31
0.0000000000
11
309.9538391739
21
110.7097020968
31
0.0000000000
11
309.9307246162
21
110.6408728260
31
0.0000000000
0
SPLINE
5
508
100
AcDbEntity
8
0
100
AcDbSpline
62
7
6
CONTINUOUS
70
0
71
3
72
9
73
5
74
3
42
0.0000001000
43
0.0000001000
44
0.0000000001
40
0.0000000000
40
0.0000000000
40
0.0000000000
40
0.0000000000
40
0.5000082259
40
1.0000000000
40
1.0000000000
40
1.0000000000
40
1.0000000000
10
292.0696299929
20
152.6989825375
30
0.0000000000
10
292.0410388683
20
152.7281129873
30
0.0000000000
10
291.9838648662
20
152.7863801001
30
0.0000000000
10
291.9267054797
20
152.8446615506
30
0.0000000000
10
291.8981299111
20
152.8738053795
30
0.0000000000
11
292.0696299929
21
152.6989825375
31
0.0000000000
11
291.9838675796
21
152.7863846433
31
0.0000000000
11
291.8981299111
21
152.8738053795
31
0.0000000000
0
SPLINE
5
509
100
AcDbEntity
8
0
100
AcDbSpline
62
7
6
CONTINUOUS
70
0
71
3
72
16
73
12
74
10
42
0.0000001000
43
0.0000001000
44
0.0000000001
40
0.0000000000
40
0.0000000000
40
0.0000000000
40
0.0000000000
40
0.0744151650
40
0.1700903552
40
0.2748460854
40
0.3916445094
40
0.5144312993
40
0.6387308242
40
0.7620710164
40
0.8827951419
40
1.0000000000
40
1.0000000000
40
1.0000000000
40
1.0000000000
10
277.9790918776
20
131.0452307775
30
0.0000000000
10
277.9844932028
20
130.9434042635
30
0.0000000000
10
278.0261025824
20
130.7111923331
30
0.0000000000
10
278.1993061609
20
130.3703877083
30
0.0000000000
10
278.5189408512
20
130.0644790545
30
0.0000000000
10
278.9596960869
20
129.8720585686
30
0.0000000000
10
279.4664135853
20
129.8413963734
30
0.0000000000
10
279.9624062093
20
129.9847243240
30
0.0000000000
10
280.3800041450
20
130.2840255228
30
0.0000000000
10
280.6641808597
20
130.7006162225
30
0.0000000000
10
280.7392087509
20
131.0267292935
30
0.0000000000
10
280.7440792293
20
131.1868998772
30
0.0000000000
11
277.9790918776
21
131.0452307775
31
0.0000000000
11
278.0334541313
21
130.7442946288
31
0.0000000000
11
278.2108196548
21
130.3942373483
31
0.0000000000
11
278.5202997510
21
130.0961770347
31
0.0000000000
11
278.9584381428
21
129.9024252640
31
0.0000000000
11
279.4610398945
21
129.8702747085
31
0.0000000000
11
279.9508806498
21
130.0116481941
31
0.0000000000
11
280.3613378763
21
130.3073820881
31
0.0000000000
11
280.6380815906
21
130.7179973952
31
0.0000000000
11
280.7440792293
21
131.1868998772
31
0.0000000000
0
SPLINE
5
50A
100
AcDbEntity
8
0
100
AcDbSpline
62
7
6
CONTINUOUS
70
0
71
3
72
10
73
6
74
4
42
0.0000001000
43
0.0000001000
44
0.0000000001
40
0.0000000000
40
0.0000000000
40
0.0000000000
40
0.0000000000
40
0.3228243747
40
0.6675939122
40
1.0000000000
40
1.0000000000
40
1.0000000000
40
1.0000000000
10
277.9376965600
20
177.7552241284
30
0.0000000000
10
277.9582314437
20
178.0516327241
30
0.0000000000
10
277.9893074428
20
178.6654044379
30
0.0000000000
10
278.0110392433
20
179.5856019705
30
0.0000000000
10
278.0093486045
20
180.2089635243
30
0.0000000000
10
278.0034062520
20
180.5148436273
30
0.0000000000
11
277.9376965600
21
177.7552241284
31
0.0000000000
11
277.9844117523
21
178.6453563233
31
0.0000000000
11
278.0070550617
21
179.5970374238
31
0.0000000000
11
278.0034062520
21
180.5148436273
31
0.0000000000
0
SPLINE
5
50B
100
AcDbEntity
8
0
100
AcDbSpline
62
7
6
CONTINUOUS
70
0
71
3
72
14
73
10
74
8
42
0.0000001000
43
0.0000001000
44
0.0000000001
40
0.0000000000
40
0.0000000000
40
0.0000000000
40
0.0000000000
40
0.1353852983
40
0.2701643641
40
0.4058443460
40
0.5450245850
40
0.6913331916
40
0.8453414969
40
1.0000000000
40
1.0000000000
40
1.0000000000
40
1.0000000000
10
282.3077458197
20
140.3294028396
30
0.0000000000
10
282.4067081384
20
140.2123384254
30
0.0000000000
10
282.6438135966
20
140.0118518449
30
0.0000000000
10
283.0820235711
20
139.8502358433
30
0.0000000000
10
283.5541409527
20
139.8541783580
30
0.0000000000
10
284.0052415423
20
140.0348375831
30
0.0000000000
10
284.3726914627
20
140.3850649803
30
0.0000000000
10
284.5899749988
20
140.8631016433
30
0.0000000000
10
284.6071122342
20
141.2201291488
30
0.0000000000
10
284.5833912234
20
141.3928070933
30
0.0000000000
11
282.3077458197
21
140.3294028396
31
0.0000000000
11
282.6580580322
21
140.0347316355
31
0.0000000000
11
283.0859384701
21
139.8779876062
31
0.0000000000
11
283.5446515384
21
139.8822292722
31
0.0000000000
11
283.9816612727
21
140.0567451929
31
0.0000000000
11
284.3407007790
21
140.3970201079
31
0.0000000000
11
284.5572331963
21
140.8705629094
31
0.0000000000
11
284.5833912234
21
141.3928070933
31
0.0000000000
0
SPLINE
5
50C
100
AcDbEntity
8
0
100
AcDbSpline
62
7
6
CONTINUOUS
70
0
71
3
72
16
73
12
74
10
42
0.0000001000
43
0.0000001000
44
0.0000000001
40
0.0000000000
40
0.0000000000
40
0.0000000000
40
0.0000000000
40
0.0744151650
40
0.1700903552
40
0.2748460854
40
0.3916445094
40
0.5144312993
40
0.6387308242
40
0.7620710164
40
0.8827951419
40
1.0000000000
40
1.0000000000
40
1.0000000000
40
1.0000000000
10
312.7751681082
20
131.0452307775
30
0.0000000000
10
312.7697667830
20
130.9434042635
30
0.0000000000
10
312.7281574034
20
130.7111923331
30
0.0000000000
10
312.5549538249
20
130.3703877083
30
0.0000000000
10
312.2353191346
20
130.0644790545
30
0.0000000000
10
311.7945638989
20
129.8720585686
30
0.0000000000
10
311.2878464005
20
129.8413963734
30
0.0000000000
10
310.7918537765
20
129.9847243240
30
0.0000000000
10
310.3742558408
20
130.2840255228
30
0.0000000000
10
310.0900791261
20
130.7006162225
30
0.0000000000
10
310.0150512349
20
131.0267292935
30
0.0000000000
10
310.0101807565
20
131.1868998772
30
0.0000000000
11
312.7751681082
21
131.0452307775
31
0.0000000000
11
312.7208058545
21
130.7442946288
31
0.0000000000
11
312.5434403310
21
130.3942373483
31
0.0000000000
11
312.2339602349
21
130.0961770347
31
0.0000000000
11
311.7958218431
21
129.9024252640
31
0.0000000000
11
311.2932200913
21
129.8702747085
31
0.0000000000
11
310.8033793360
21
130.0116481941
31
0.0000000000
11
310.3929221095
21
130.3073820881
31
0.0000000000
11
310.1161783952
21
130.7179973952
31
0.0000000000
11
310.0101807565
21
131.1868998772
31
0.0000000000
0
SPLINE
5
50D
100
AcDbEntity
8
0
100
AcDbSpline
62
7
6
CONTINUOUS
70
0
71
3
72
20
73
16
74
14
42
0.0000001000
43
0.0000001000
44
0.0000000001
40
0.0000000000
40
0.0000000000
40
0.0000000000
40
0.0000000000
40
0.0409703986
40
0.0894274567
40
0.1376684624
40
0.1884566932
40
0.2443009585
40
0.3071449477
40
0.3776768552
40
0.4561456726
40
0.5442043459
40
0.6433672596
40
0.7544335035
40
0.8749678852
40
1.0000000000
40
1.0000000000
40
1.0000000000
40
1.0000000000
10
277.9986141507
20
137.4223167919
30
0.0000000000
10
278.0084765863
20
137.3666401330
30
0.0000000000
10
278.0374611723
20
137.2464665872
30
0.0000000000
10
278.1065427934
20
137.0689495883
30
0.0000000000
10
278.2074303821
20
136.8915809017
30
0.0000000000
10
278.3400789295
20
136.7231851763
30
0.0000000000
10
278.5131986053
20
136.5645995735
30
0.0000000000
10
278.7354175153
20
136.4249302653
30
0.0000000000
10
279.0110115474
20
136.3216651575
30
0.0000000000
10
279.3379895617
20
136.2779057858
30
0.0000000000
10
279.7060122610
20
136.3212734465
30
0.0000000000
10
280.0908947922
20
136.4823015056
30
0.0000000000
10
280.4438152980
20
136.7840740602
30
0.0000000000
10
280.6943305386
20
137.2187763684
30
0.0000000000
10
280.7490136705
20
137.5623576576
30
0.0000000000
10
280.7440792293
20
137.7346667125
30
0.0000000000
11
277.9986141507
21
137.4223167919
31
0.0000000000
11
278.0383698219
21
137.2575475403
31
0.0000000000
11
278.1110767283
21
137.0707797441
31
0.0000000000
11
278.2097405215
21
136.8973537800
31
0.0000000000
11
278.3397398282
21
136.7323492250
31
0.0000000000
11
278.5100658322
21
136.5763416825
31
0.0000000000
11
278.7301355692
21
136.4380276331
31
0.0000000000
11
279.0033032521
21
136.3356459108
31
0.0000000000
11
279.3249784147
21
136.2925366011
31
0.0000000000
11
279.6867026507
21
136.3350595507
31
0.0000000000
11
280.0650903291
21
136.4932994306
31
0.0000000000
11
280.4142964027
21
136.7917638470
31
0.0000000000
11
280.6627866519
21
137.2239570602
31
0.0000000000
11
280.7440792293
21
137.7346667125
31
0.0000000000
0
SPLINE
5
50E
100
AcDbEntity
8
0
100
AcDbSpline
62
7
6
CONTINUOUS
70
0
71
3
72
37
73
33
74
31
42
0.0000001000
43
0.0000001000
44
0.0000000001
40
0.0000000000
40
0.0000000000
40
0.0000000000
40
0.0000000000
40
0.0102345949
40
0.0206077122
40
0.0309488717
40
0.0412178831
40
0.0515352787
40
0.0623834652
40
0.0742986458
40
0.0878181093
40
0.1031282525
40
0.1201471872
40
0.1388401514
40
0.1593518418
40
0.1818822033
40
0.2066390776
40
0.2338616046
40
0.2639988546
40
0.2976050115
40
0.3351669960
40
0.3766200230
40
0.4216272864
40
0.4702299282
40
0.5239513199
40
0.5841350527
40
0.6476393657
40
0.7095643118
40
0.7691654104
40
0.8275707936
40
0.8853496102
40
0.9427450624
40
1.0000000000
40
1.0000000000
40
1.0000000000
40
1.0000000000
10
276.7272949995
20
134.3258121413
30
0.0000000000
10
276.7272949995
20
134.3679623374
30
0.0000000000
10
276.7273144160
20
134.4528332218
30
0.0000000000
10
276.7274020864
20
134.5802931513
30
0.0000000000
10
276.7275485301
20
134.7078947679
30
0.0000000000
10
276.7277527913
20
134.8352668200
30
0.0000000000
10
276.7280191756
20
134.9647269040
30
0.0000000000
10
276.7283629010
20
135.1009664192
30
0.0000000000
10
276.7288144309
20
135.2503930965
30
0.0000000000
10
276.7294146872
20
135.4181955250
30
0.0000000000
10
276.7302085541
20
135.6070166838
30
0.0000000000
10
276.7312391735
20
135.8171435546
30
0.0000000000
10
276.7325532281
20
136.0486913031
30
0.0000000000
10
276.7342101283
20
136.3029356702
30
0.0000000000
10
276.7362866369
20
136.5821513563
30
0.0000000000
10
276.7388773304
20
136.8890017770
30
0.0000000000
10
276.7421046339
20
137.2271759927
30
0.0000000000
10
276.7461324544
20
137.6017889007
30
0.0000000000
10
276.7511757894
20
138.0189750781
30
0.0000000000
10
276.7574716318
20
138.4827519997
30
0.0000000000
10
276.7652441092
20
138.9934669375
30
0.0000000000
10
276.7747054199
20
139.5496305014
30
0.0000000000
10
276.7862010671
20
140.1562917967
30
0.0000000000
10
276.8002965157
20
140.8254165230
30
0.0000000000
10
276.8174069009
20
141.5558606367
30
0.0000000000
10
276.8372726656
20
142.3200326383
30
0.0000000000
10
276.8590751788
20
143.0817512922
30
0.0000000000
10
276.8821782718
20
143.8224221554
30
0.0000000000
10
276.9065741040
20
144.5459666186
30
0.0000000000
10
276.9324633899
20
145.2603695641
30
0.0000000000
10
276.9599827261
20
145.9699699990
30
0.0000000000
10
276.9794961246
20
146.4417438658
30
0.0000000000
10
276.9895506376
20
146.6773283658
30
0.0000000000
11
276.7272949995
21
134.3258121413
31
0.0000000000
11
276.7273238950
21
134.4522627261
31
0.0000000000
11
276.7274120144
21
134.5804247571
31
0.0000000000
11
276.7275586153
21
134.7081918897
31
0.0000000000
11
276.7277620494
21
134.8350675369
31
0.0000000000
11
276.7280243151
21
134.9625408749
31
0.0000000000
11
276.7283624345
21
135.0965720911
31
0.0000000000
11
276.7288072337
21
135.2437859997
31
0.0000000000
11
276.7294046819
21
135.4108207664
31
0.0000000000
11
276.7301998804
21
135.5999791564
31
0.0000000000
11
276.7312310894
21
135.8102491720
31
0.0000000000
11
276.7325416216
21
136.0412009861
31
0.0000000000
11
276.7341929819
21
136.2946218857
31
0.0000000000
11
276.7362629121
21
136.5729815772
31
0.0000000000
11
276.7388450333
21
136.8788471045
31
0.0000000000
11
276.7420543805
21
137.2151718800
31
0.0000000000
11
276.7460572975
21
137.5875024707
31
0.0000000000
11
276.7510759631
21
138.0026833261
31
0.0000000000
11
276.7573749472
21
138.4667268514
31
0.0000000000
11
276.7651680610
21
138.9788284864
31
0.0000000000
11
276.7746261267
21
139.5348223202
31
0.0000000000
11
276.7860027771
21
140.1352104773
31
0.0000000000
11
276.7999819773
21
140.7988024242
31
0.0000000000
11
276.8173965324
21
141.5421812414
31
0.0000000000
11
276.8377890785
21
142.3265254272
31
0.0000000000
11
276.8596824503
21
143.0913079466
31
0.0000000000
11
276.8826443418
21
143.8273340603
31
0.0000000000
11
276.9069654468
21
144.5485349668
31
0.0000000000
11
276.9328234262
21
145.2619360139
31
0.0000000000
11
276.9603097570
21
145.9705360911
31
0.0000000000
11
276.9895506376
21
146.6773283658
31
0.0000000000
0
SPLINE
5
50F
100
AcDbEntity
8
0
100
AcDbSpline
62
7
6
CONTINUOUS
70
0
71
3
72
14
73
10
74
8
42
0.0000001000
43
0.0000001000
44
0.0000000001
40
0.0000000000
40
0.0000000000
40
0.0000000000
40
0.0000000000
40
0.1037948240
40
0.2325485563
40
0.3689468963
40
0.5184377082
40
0.6773692703
40
0.8400839468
40
1.0000000000
40
1.0000000000
40
1.0000000000
40
1.0000000000
10
282.1191198985
20
133.8909221237
30
0.0000000000
10
282.1741141370
20
133.7784245573
30
0.0000000000
10
282.3348835167
20
133.5450531440
30
0.0000000000
10
282.7033003017
20
133.2811190117
30
0.0000000000
10
283.1998190165
20
133.1650769536
30
0.0000000000
10
283.7395852675
20
133.2573129158
30
0.0000000000
10
284.2284954342
20
133.5687803574
30
0.0000000000
10
284.5680869024
20
134.0534017942
30
0.0000000000
10
284.6514426919
20
134.4440131160
30
0.0000000000
10
284.6514426919
20
134.6356508140
30
0.0000000000
11
282.1191198985
21
133.8909221237
31
0.0000000000
11
282.3318614968
21
133.5834503820
31
0.0000000000
11
282.7081019366
21
133.3138162720
31
0.0000000000
11
283.1851815739
21
133.2004470329
31
0.0000000000
11
283.7153969861
21
133.2882323166
31
0.0000000000
11
284.1984551105
21
133.5933926321
31
0.0000000000
11
284.5333926953
21
134.0729881585
31
0.0000000000
11
284.6514426919
21
134.6356508140
31
0.0000000000
0
SPLINE
5
510
100
AcDbEntity
8
0
100
AcDbSpline
62
7
6
CONTINUOUS
70
0
71
3
72
14
73
10
74
8
42
0.0000001000
43
0.0000001000
44
0.0000000001
40
0.0000000000
40
0.0000000000
40
0.0000000000
40
0.0000000000
40
0.1353852983
40
0.2701643641
40
0.4058443460
40
0.5450245850
40
0.6913331916
40
0.8453414969
40
1.0000000000
40
1.0000000000
40
1.0000000000
40
1.0000000000
10
308.4465141661
20
140.3294028396
30
0.0000000000
10
308.3475518474
20
140.2123384254
30
0.0000000000
10
308.1104463892
20
140.0118518449
30
0.0000000000
10
307.6722364147
20
139.8502358433
30
0.0000000000
10
307.2001190331
20
139.8541783580
30
0.0000000000
10
306.7490184436
20
140.0348375831
30
0.0000000000
10
306.3815685231
20
140.3850649803
30
0.0000000000
10
306.1642849870
20
140.8631016433
30
0.0000000000
10
306.1471477516
20
141.2201291488
30
0.0000000000
10
306.1708687624
20
141.3928070933
30
0.0000000000
11
308.4465141661
21
140.3294028396
31
0.0000000000
11
308.0962019536
21
140.0347316355
31
0.0000000000
11
307.6683215157
21
139.8779876062
31
0.0000000000
11
307.2096084474
21
139.8822292722
31
0.0000000000
11
306.7725987131
21
140.0567451929
31
0.0000000000
11
306.4135592069
21
140.3970201079
31
0.0000000000
11
306.1970267895
21
140.8705629094
31
0.0000000000
11
306.1708687624
21
141.3928070933
31
0.0000000000
0
SPLINE
5
511
100
AcDbEntity
8
0
100
AcDbSpline
62
7
6
CONTINUOUS
70
0
71
3
72
16
73
12
74
10
42
0.0000001000
43
0.0000001000
44
0.0000000001
40
0.0000000000
40
0.0000000000
40
0.0000000000
40
0.0000000000
40
0.0884661508
40
0.1763655927
40
0.2691046064
40
0.3692359889
40
0.4772803650
40
0.5939627733
40
0.7197306600
40
0.8549536706
40
1.0000000000
40
1.0000000000
40
1.0000000000
40
1.0000000000
10
276.7272949995
20
134.3258121413
30
0.0000000000
10
276.7272949995
20
134.2012175087
30
0.0000000000
10
276.7274629656
20
133.9528263554
30
0.0000000000
10
276.7282357431
20
133.5738234327
30
0.0000000000
10
276.7296003339
20
133.1783928783
30
0.0000000000
10
276.7317100571
20
132.7545933066
30
0.0000000000
10
276.7347532014
20
132.2970769687
30
0.0000000000
10
276.7389437382
20
131.8034620932
30
0.0000000000
10
276.7445353951
20
131.2715806653
30
0.0000000000
10
276.7518220282
20
130.6997687948
30
0.0000000000
10
276.7578229282
20
130.3050860103
30
0.0000000000
10
276.7611970923
20
130.1008324218
30
0.0000000000
11
276.7272949995
21
134.3258121413
31
0.0000000000
11
276.7275486741
21
133.9520283297
31
0.0000000000
11
276.7283068987
21
133.5806396431
31
0.0000000000
11
276.7296603172
21
133.1888045410
31
0.0000000000
11
276.7317680778
21
132.7657383895
31
0.0000000000
11
276.7348067428
21
132.3092434141
31
0.0000000000
11
276.7389951238
21
131.8162590236
31
0.0000000000
11
276.7445857205
21
131.2848986248
31
0.0000000000
11
276.7518718345
21
130.7136058384
31
0.0000000000
11
276.7611970923
21
130.1008324218
31
0.0000000000
0
SPLINE
5
512
100
AcDbEntity
8
0
100
AcDbSpline
62
7
6
CONTINUOUS
70
0
71
3
72
17
73
13
74
11
42
0.0000001000
43
0.0000001000
44
0.0000000001
40
0.0000000000
40
0.0000000000
40
0.0000000000
40
0.0000000000
40
0.0077419020
40
0.0530806133
40
0.1324851369
40
0.2321693109
40
0.3443055444
40
0.4643452276
40
0.5919713527
40
0.7268817266
40
0.8643027785
40
1.0000000000
40
1.0000000000
40
1.0000000000
40
1.0000000000
10
276.4764119035
20
176.4039544884
30
0.0000000000
10
276.4596261096
20
176.4039186984
30
0.0000000000
10
276.3428165880
20
176.3836638138
30
0.0000000000
10
276.3305006873
20
176.0277150433
30
0.0000000000
10
276.2097545509
20
175.6282727373
30
0.0000000000
10
276.1515365793
20
175.0104623092
30
0.0000000000
10
276.0838836425
20
174.3365909199
30
0.0000000000
10
276.0338985668
20
173.5947385431
30
0.0000000000
10
275.9925109142
20
172.8080370032
30
0.0000000000
10
275.9625453270
20
171.9841877005
30
0.0000000000
10
275.9439943794
20
171.1436005837
30
0.0000000000
10
275.9396866753
20
170.5807726270
30
0.0000000000
10
275.9396866753
20
170.3011443202
30
0.0000000000
11
276.4764119035
21
176.4039544884
31
0.0000000000
11
276.4279322465
21
176.3954074036
31
0.0000000000
11
276.3263335154
21
176.1341840322
31
0.0000000000
11
276.2325690868
21
175.6523408088
31
0.0000000000
11
276.1538404125
21
175.0411394432
31
0.0000000000
11
276.0890117400
21
174.3509473083
31
0.0000000000
11
276.0367411355
21
173.6107010147
31
0.0000000000
11
275.9953624413
21
172.8227976954
31
0.0000000000
11
275.9647021473
21
171.9893408515
31
0.0000000000
11
275.9459690710
21
171.1400057161
31
0.0000000000
11
275.9396866753
21
170.3011443202
31
0.0000000000
0
SPLINE
5
513
100
AcDbEntity
8
0
100
AcDbSpline
62
7
6
CONTINUOUS
70
0
71
3
72
15
73
11
74
9
42
0.0000001000
43
0.0000001000
44
0.0000000001
40
0.0000000000
40
0.0000000000
40
0.0000000000
40
0.0000000000
40
0.2059348509
40
0.3982506429
40
0.5709704722
40
0.7181884352
40
0.8392957653
40
0.9318897189
40
0.9882800200
40
1.0000000000
40
1.0000000000
40
1.0000000000
40
1.0000000000
10
275.9396866753
20
170.3011443202
30
0.0000000000
10
275.9396866753
20
170.0322860330
30
0.0000000000
10
275.9434123217
20
169.5121798524
30
0.0000000000
10
275.9617790346
20
168.7675792488
30
0.0000000000
10
275.9898477217
20
168.0973716637
30
0.0000000000
10
276.0334879534
20
167.5288381542
30
0.0000000000
10
276.0721882411
20
167.0435303199
30
0.0000000000
10
276.1553160014
20
166.7356600469
30
0.0000000000
10
276.1695310923
20
166.4632121187
30
0.0000000000
10
276.2617488751
20
166.4478103693
30
0.0000000000
10
276.2778480823
20
166.4478446954
30
0.0000000000
11
275.9396866753
21
170.3011443202
31
0.0000000000
11
275.9459690008
21
169.4945939251
31
0.0000000000
11
275.9647019513
21
168.7415931393
31
0.0000000000
11
275.9953620486
21
168.0658050702
31
0.0000000000
11
276.0367402956
21
167.4906903599
31
0.0000000000
11
276.0890099615
21
167.0192440015
31
0.0000000000
11
276.1538372824
21
166.6624270124
31
0.0000000000
11
276.2325645053
21
166.4560737879
31
0.0000000000
11
276.2778480823
21
166.4478446954
31
0.0000000000
0
SPLINE
5
514
100
AcDbEntity
8
0
100
AcDbSpline
62
7
6
CONTINUOUS
70
0
71
3
72
20
73
16
74
14
42
0.0000001000
43
0.0000001000
44
0.0000000001
40
0.0000000000
40
0.0000000000
40
0.0000000000
40
0.0000000000
40
0.0409703986
40
0.0894274567
40
0.1376684624
40
0.1884566932
40
0.2443009585
40
0.3071449477
40
0.3776768552
40
0.4561456726
40
0.5442043459
40
0.6433672596
40
0.7544335035
40
0.8749678852
40
1.0000000000
40
1.0000000000
40
1.0000000000
40
1.0000000000
10
312.7556458351
20
137.4223167919
30
0.0000000000
10
312.7457833995
20
137.3666401330
30
0.0000000000
10
312.7167988135
20
137.2464665872
30
0.0000000000
10
312.6477171925
20
137.0689495883
30
0.0000000000
10
312.5468296037
20
136.8915809017
30
0.0000000000
10
312.4141810563
20
136.7231851763
30
0.0000000000
10
312.2410613805
20
136.5645995735
30
0.0000000000
10
312.0188424705
20
136.4249302653
30
0.0000000000
10
311.7432484385
20
136.3216651575
30
0.0000000000
10
311.4162704241
20
136.2779057858
30
0.0000000000
10
311.0482477248
20
136.3212734465
30
0.0000000000
10
310.6633651936
20
136.4823015056
30
0.0000000000
10
310.3104446878
20
136.7840740602
30
0.0000000000
10
310.0599294473
20
137.2187763684
30
0.0000000000
10
310.0052463153
20
137.5623576576
30
0.0000000000
10
310.0101807565
20
137.7346667125
30
0.0000000000
11
312.7556458351
21
137.4223167919
31
0.0000000000
11
312.7158901639
21
137.2575475403
31
0.0000000000
11
312.6431832575
21
137.0707797441
31
0.0000000000
11
312.5445194643
21
136.8973537800
31
0.0000000000
11
312.4145201576
21
136.7323492250
31
0.0000000000
11
312.2441941537
21
136.5763416825
31
0.0000000000
11
312.0241244166
21
136.4380276331
31
0.0000000000
11
311.7509567337
21
136.3356459108
31
0.0000000000
11
311.4292815711
21
136.2925366011
31
0.0000000000
11
311.0675573351
21
136.3350595507
31
0.0000000000
11
310.6891696567
21
136.4932994306
31
0.0000000000
11
310.3399635831
21
136.7917638470
31
0.0000000000
11
310.0914733339
21
137.2239570602
31
0.0000000000
11
310.0101807565
21
137.7346667125
31
0.0000000000
0
SPLINE
5
515
100
AcDbEntity
8
0
100
AcDbSpline
62
7
6
CONTINUOUS
70
0
71
3
72
8
73
4
74
2
42
0.0000001000
43
0.0000001000
44
0.0000000001
40
0.0000000000
40
0.0000000000
40
0.0000000000
40
0.0000000000
40
1.0000000000
40
1.0000000000
40
1.0000000000
40
1.0000000000
10
300.1301296658
20
152.0014416209
30
0.0000000000
10
300.1158282767
20
152.0594932287
30
0.0000000000
10
300.1015336488
20
152.1175465024
30
0.0000000000
10
300.0872457711
20
152.1756014374
30
0.0000000000
11
300.1301296658
21
152.0014416209
31
0.0000000000
11
300.0872457711
21
152.1756014374
31
0.0000000000
0
SPLINE
5
516
100
AcDbEntity
8
0
100
AcDbSpline
62
7
6
CONTINUOUS
70
0
71
3
72
8
73
4
74
2
42
0.0000001000
43
0.0000001000
44
0.0000000001
40
0.0000000000
40
0.0000000000
40
0.0000000000
40
0.0000000000
40
1.0000000000
40
1.0000000000
40
1.0000000000
40
1.0000000000
10
300.0872457711
20
152.1756014374
30
0.0000000000
10
300.0729504245
20
152.2336867200
30
0.0000000000
10
300.0586618353
20
152.2917736658
30
0.0000000000
10
300.0443799929
20
152.3498622701
30
0.0000000000
11
300.0872457711
21
152.1756014374
31
0.0000000000
11
300.0443799929
21
152.3498622701
31
0.0000000000
0
SPLINE
5
517
100
AcDbEntity
8
0
100
AcDbSpline
62
7
6
CONTINUOUS
70
0
71
3
72
9
73
5
74
3
42
0.0000001000
43
0.0000001000
44
0.0000000001
40
0.0000000000
40
0.0000000000
40
0.0000000000
40
0.0000000000
40
0.4999609008
40
1.0000000000
40
1.0000000000
40
1.0000000000
40
1.0000000000
10
300.0443799929
20
152.3498622701
30
0.0000000000
10
300.0157837979
20
152.3934781003
30
0.0000000000
10
299.9586019811
20
152.4807264485
30
0.0000000000
10
299.9014502477
20
152.5679945055
30
0.0000000000
10
299.8728796658
20
152.6116368683
30
0.0000000000
11
300.0443799929
21
152.3498622701
31
0.0000000000
11
299.9586139723
21
152.4807245522
31
0.0000000000
11
299.8728796658
21
152.6116368683
31
0.0000000000
0
SPLINE
5
518
100
AcDbEntity
8
0
100
AcDbSpline
62
7
6
CONTINUOUS
70
0
71
3
72
9
73
5
74
3
42
0.0000001000
43
0.0000001000
44
0.0000000001
40
0.0000000000
40
0.0000000000
40
0.0000000000
40
0.0000000000
40
0.5000365851
40
1.0000000000
40
1.0000000000
40
1.0000000000
40
1.0000000000
10
299.8728796658
20
152.6116368683
30
0.0000000000
10
299.8299947396
20
152.6407515295
30
0.0000000000
10
299.7442379490
20
152.6989865882
30
0.0000000000
10
299.6584947379
20
152.7572416393
30
0.0000000000
10
299.6156296658
20
152.7863720312
30
0.0000000000
11
299.8728796658
21
152.6116368683
31
0.0000000000
11
299.7442350695
21
152.6989958481
31
0.0000000000
11
299.6156296658
21
152.7863720312
31
0.0000000000
0
SPLINE
5
519
100
AcDbEntity
8
0
100
AcDbSpline
62
7
6
CONTINUOUS
70
0
71
3
72
9
73
5
74
3
42
0.0000001000
43
0.0000001000
44
0.0000000001
40
0.0000000000
40
0.0000000000
40
0.0000000000
40
0.0000000000
40
0.5000393303
40
1.0000000000
40
1.0000000000
40
1.0000000000
40
1.0000000000
10
299.6156296658
20
152.7863720312
30
0.0000000000
10
299.5584576819
20
152.8009419694
30
0.0000000000
10
299.4441235825
20
152.8300829860
30
0.0000000000
10
299.3297912332
20
152.8592308682
30
0.0000000000
10
299.2726299929
20
152.8738053795
30
0.0000000000
11
299.6156296658
21
152.7863720312
31
0.0000000000
11
299.4441150265
21
152.8300869949
31
0.0000000000
11
299.2726299929
21
152.8738053795
31
0.0000000000
0
SPLINE
5
51A
100
AcDbEntity
8
0
100
AcDbSpline
62
7
6
CONTINUOUS
70
0
71
3
72
9
73
5
74
3
42
0.0000001000
43
0.0000001000
44
0.0000000001
40
0.0000000000
40
0.0000000000
40
0.0000000000
40
0.0000000000
40
0.4997543658
40
1.0000000000
40
1.0000000000
40
1.0000000000
40
1.0000000000
10
300.5588799929
20
150.2697765690
30
0.0000000000
10
300.5731818348
20
150.3416194753
30
0.0000000000
10
300.6017822944
20
150.4853793521
30
0.0000000000
10
300.6303482683
20
150.6291460854
30
0.0000000000
10
300.6446296658
20
150.7010664747
30
0.0000000000
11
300.5588799929
21
150.2697765690
31
0.0000000000
11
300.6017596309
21
150.4853104398
31
0.0000000000
11
300.6446296658
21
150.7010664747
31
0.0000000000
0
SPLINE
5
51B
100
AcDbEntity
8
0
100
AcDbSpline
62
7
6
CONTINUOUS
70
0
71
3
72
9
73
5
74
3
42
0.0000001000
43
0.0000001000
44
0.0000000001
40
0.0000000000
40
0.0000000000
40
0.0000000000
40
0.0000000000
40
0.4998284850
40
1.0000000000
40
1.0000000000
40
1.0000000000
40
1.0000000000
10
300.3873796658
20
149.9255230392
30
0.0000000000
10
300.4159762543
20
149.9828674807
30
0.0000000000
10
300.4731660250
20
150.0976072060
30
0.0000000000
10
300.5303097954
20
150.2123698476
30
0.0000000000
10
300.5588799929
20
150.2697765690
30
0.0000000000
11
300.3873796658
21
149.9255230392
31
0.0000000000
11
300.4731349150
21
150.0975735720
31
0.0000000000
11
300.5588799929
21
150.2697765690
31
0.0000000000
0
SPLINE
5
51C
100
AcDbEntity
8
0
100
AcDbSpline
62
7
6
CONTINUOUS
70
0
71
3
72
8
73
4
74
2
42
0.0000001000
43
0.0000001000
44
0.0000000001
40
0.0000000000
40
0.0000000000
40
0.0000000000
40
0.0000000000
40
1.0000000000
40
1.0000000000
40
1.0000000000
40
1.0000000000
10
278.2510717104
20
123.4511325373
30
0.0000000000
10
278.0950686389
20
123.9973596676
30
0.0000000000
10
277.9443501547
20
124.5451054854
30
0.0000000000
10
277.7979963201
20
125.0940056355
30
0.0000000000
11
278.2510717104
21
123.4511325373
31
0.0000000000
11
277.7979963201
21
125.0940056355
31
0.0000000000
0
SPLINE
5
51D
100
AcDbEntity
8
0
100
AcDbSpline
62
7
6
CONTINUOUS
70
0
71
3
72
9
73
5
74
3
42
0.0000001000
43
0.0000001000
44
0.0000000001
40
0.0000000000
40
0.0000000000
40
0.0000000000
40
0.0000000000
40
0.5044791390
40
1.0000000000
40
1.0000000000
40
1.0000000000
40
1.0000000000
10
277.7979963201
20
125.0940056355
30
0.0000000000
10
277.6527537516
20
125.6387379817
30
0.0000000000
10
277.3733686632
20
126.7207831511
30
0.0000000000
10
277.1085080888
20
127.8064756298
30
0.0000000000
10
276.9804292156
20
128.3452035617
30
0.0000000000
11
277.7979963201
21
125.0940056355
31
0.0000000000
11
277.3745623311
21
126.7314046499
31
0.0000000000
11
276.9804292156
21
128.3452035617
31
0.0000000000
0
SPLINE
5
51E
100
AcDbEntity
8
0
100
AcDbSpline
62
7
6
CONTINUOUS
70
0
71
3
72
9
73
5
74
3
42
0.0000001000
43
0.0000001000
44
0.0000000001
40
0.0000000000
40
0.0000000000
40
0.0000000000
40
0.0000000000
40
0.4998965406
40
1.0000000000
40
1.0000000000
40
1.0000000000
40
1.0000000000
10
300.0443799929
20
149.5819607555
30
0.0000000000
10
300.1015635645
20
149.6391805359
30
0.0000000000
10
300.2159255776
20
149.7536725663
30
0.0000000000
10
300.3302300140
20
149.8682220791
30
0.0000000000
10
300.3873796658
20
149.9255230392
30
0.0000000000
11
300.0443799929
21
149.5819607555
31
0.0000000000
11
300.2158875257
21
149.7536632404
31
0.0000000000
11
300.3873796658
21
149.9255230392
31
0.0000000000
0
SPLINE
5
51F
100
AcDbEntity
8
0
100
AcDbSpline
62
7
6
CONTINUOUS
70
0
71
3
72
11
73
7
74
5
42
0.0000001000
43
0.0000001000
44
0.0000000001
40
0.0000000000
40
0.0000000000
40
0.0000000000
40
0.0000000000
40
0.2907423734
40
0.5686207643
40
0.8212292540
40
1.0000000000
40
1.0000000000
40
1.0000000000
40
1.0000000000
10
284.6514426919
20
134.6356508140
30
0.0000000000
10
284.6514426919
20
134.7988449724
30
0.0000000000
10
284.5929445300
20
135.1215863398
30
0.0000000000
10
284.3425618940
20
135.5215780972
30
0.0000000000
10
284.0171628007
20
135.7652637854
30
0.0000000000
10
283.7865424311
20
135.8477697717
30
0.0000000000
10
283.6883334860
20
135.8701836641
30
0.0000000000
11
284.6514426919
21
134.6356508140
31
0.0000000000
11
284.5615902743
21
135.1169174170
31
0.0000000000
11
284.3124560015
21
135.5130006731
31
0.0000000000
11
283.9720708637
21
135.7681015216
31
0.0000000000
11
283.6883334860
21
135.8701836641
31
0.0000000000
0
SPLINE
5
520
100
AcDbEntity
8
0
100
AcDbSpline
62
7
6
CONTINUOUS
70
0
71
3
72
12
73
8
74
6
42
0.0000001000
43
0.0000001000
44
0.0000000001
40
0.0000000000
40
0.0000000000
40
0.0000000000
40
0.0000000000
40
0.2355070040
40
0.4702557465
40
0.7023415998
40
0.9364358835
40
1.0000000000
40
1.0000000000
40
1.0000000000
40
1.0000000000
10
280.7440792293
20
137.7346667125
30
0.0000000000
10
280.7392327508
20
137.9039041417
30
0.0000000000
10
280.6662585313
20
138.2433823192
30
0.0000000000
10
280.3812249464
20
138.6738876655
30
0.0000000000
10
279.9600792639
20
138.9713160950
30
0.0000000000
10
279.5819379436
20
139.0654024061
30
0.0000000000
10
279.3664999527
20
139.0673296114
30
0.0000000000
10
279.3205847620
20
139.0654550757
30
0.0000000000
11
280.7440792293
21
137.7346667125
31
0.0000000000
11
280.6365779559
21
138.2310804898
31
0.0000000000
11
280.3571249753
21
138.6532541651
31
0.0000000000
11
279.9482320494
21
138.9419562018
31
0.0000000000
11
279.4583771501
21
139.0641835709
31
0.0000000000
11
279.3205847620
21
139.0654550757
31
0.0000000000
0
SPLINE
5
521
100
AcDbEntity
8
0
100
AcDbSpline
62
7
6
CONTINUOUS
70
0
71
3
72
9
73
5
74
3
42
0.0000001000
43
0.0000001000
44
0.0000000001
40
0.0000000000
40
0.0000000000
40
0.0000000000
40
0.0000000000
40
0.5000369105
40
1.0000000000
40
1.0000000000
40
1.0000000000
40
1.0000000000
10
291.8981299111
20
152.8738053795
30
0.0000000000
10
291.8552506311
20
152.8883827155
30
0.0000000000
10
291.7694995159
20
152.9175385142
30
0.0000000000
10
291.6837506308
20
152.9467008714
30
0.0000000000
10
291.6408799111
20
152.9612826134
30
0.0000000000
11
291.8981299111
21
152.8738053795
31
0.0000000000
11
291.7694937432
21
152.9175423064
31
0.0000000000
11
291.6408799111
21
152.9612826134
31
0.0000000000
0
SPLINE
5
522
100
AcDbEntity
8
0
100
AcDbSpline
62
7
6
CONTINUOUS
70
0
71
3
72
9
73
5
74
3
42
0.0000001000
43
0.0000001000
44
0.0000000001
40
0.0000000000
40
0.0000000000
40
0.0000000000
40
0.0000000000
40
0.4997342433
40
1.0000000000
40
1.0000000000
40
1.0000000000
40
1.0000000000
10
299.7013803200
20
149.4104386521
30
0.0000000000
10
299.7585222976
20
149.4389989715
30
0.0000000000
10
299.8728612797
20
149.4961614893
30
0.0000000000
10
299.9871887563
20
149.5533470149
30
0.0000000000
10
300.0443799929
20
149.5819607413
30
0.0000000000
11
299.7013803200
21
149.4104386521
31
0.0000000000
11
299.8727976337
21
149.4961368525
31
0.0000000000
11
300.0443799929
21
149.5819607413
31
0.0000000000
0
SPLINE
5
523
100
AcDbEntity
8
0
100
AcDbSpline
62
7
6
CONTINUOUS
70
0
71
3
72
14
73
10
74
8
42
0.0000001000
43
0.0000001000
44
0.0000000001
40
0.0000000000
40
0.0000000000
40
0.0000000000
40
0.0000000000
40
0.1519583774
40
0.3044272485
40
0.4508213124
40
0.5969042177
40
0.7425634067
40
0.8825077450
40
1.0000000000
40
1.0000000000
40
1.0000000000
40
1.0000000000
10
284.5833912234
20
141.3928070933
30
0.0000000000
10
284.5595431904
20
141.5664097009
30
0.0000000000
10
284.4453923168
20
141.9086321087
30
0.0000000000
10
284.1013931919
20
142.3151874417
30
0.0000000000
10
283.6350038142
20
142.5589092197
30
0.0000000000
10
283.1177132698
20
142.6025683100
30
0.0000000000
10
282.6322900405
20
142.4410581104
30
0.0000000000
10
282.2721018326
20
142.1299247686
30
0.0000000000
10
282.1221501683
20
141.8682546549
30
0.0000000000
10
282.0726716061
20
141.7413001667
30
0.0000000000
11
284.5833912234
21
141.3928070933
31
0.0000000000
11
284.4161471380
21
141.8911932510
31
0.0000000000
11
284.0745781869
21
142.2931260028
31
0.0000000000
11
283.6249710780
21
142.5262445334
31
0.0000000000
11
283.1213224714
21
142.5679543210
31
0.0000000000
11
282.6430185891
21
142.4093744503
31
0.0000000000
11
282.2757046011
21
142.0939881520
31
0.0000000000
11
282.0726716061
21
141.7413001667
31
0.0000000000
0
SPLINE
5
524
100
AcDbEntity
8
0
100
AcDbSpline
62
7
6
CONTINUOUS
70
0
71
3
72
15
73
11
74
9
42
0.0000001000
43
0.0000001000
44
0.0000000001
40
0.0000000000
40
0.0000000000
40
0.0000000000
40
0.0000000000
40
0.1247338968
40
0.2506636404
40
0.3775332539
40
0.5065552732
40
0.6338360815
40
0.7572859234
40
0.8811851435
40
1.0000000000
40
1.0000000000
40
1.0000000000
40
1.0000000000
10
280.6930331201
20
144.7043302361
30
0.0000000000
10
280.6700494707
20
144.8689875289
30
0.0000000000
10
280.5609097128
20
145.1941854432
30
0.0000000000
10
280.2340236113
20
145.5906885447
30
0.0000000000
10
279.7825604334
20
145.8492777424
30
0.0000000000
10
279.2658035331
20
145.9284755531
30
0.0000000000
10
278.7603316739
20
145.8133729495
30
0.0000000000
10
278.3388858026
20
145.5239425071
30
0.0000000000
10
278.0607767466
20
145.1088105924
30
0.0000000000
10
277.9894361751
20
144.7847642967
30
0.0000000000
10
277.9833663757
20
144.6265163139
30
0.0000000000
11
280.6930331201
21
144.7043302361
31
0.0000000000
11
280.5347129852
21
145.1772966036
31
0.0000000000
11
280.2149801871
21
145.5663031786
31
0.0000000000
11
279.7746491104
21
145.8182210912
31
0.0000000000
11
279.2645965815
21
145.8957250461
31
0.0000000000
11
278.7685484563
21
145.7818774972
31
0.0000000000
11
278.3619074430
21
145.5020378987
31
0.0000000000
11
278.0863625299
21
145.0903106551
31
0.0000000000
11
277.9833663757
21
144.6265163139
31
0.0000000000
0
SPLINE
5
525
100
AcDbEntity
8
0
100
AcDbSpline
62
7
6
CONTINUOUS
70
0
71
3
72
9
73
5
74
3
42
0.0000001000
43
0.0000001000
44
0.0000000001
40
0.0000000000
40
0.0000000000
40
0.0000000000
40
0.0000000000
40
0.6439288289
40
1.0000000000
40
1.0000000000
40
1.0000000000
40
1.0000000000
10
280.7440792293
20
131.1868998772
30
0.0000000000
10
280.7489817557
20
131.3481243889
30
0.0000000000
10
280.7059412601
20
131.6031437862
30
0.0000000000
10
280.5877927569
20
131.8275394833
30
0.0000000000
10
280.5376069540
20
131.9019123997
30
0.0000000000
11
280.7440792293
21
131.1868998772
31
0.0000000000
11
280.6624086139
21
131.6638551288
31
0.0000000000
11
280.5376069540
21
131.9019123997
31
0.0000000000
0
SPLINE
5
526
100
AcDbEntity
8
0
100
AcDbSpline
62
7
6
CONTINUOUS
70
0
71
3
72
10
73
6
74
4
42
0.0000001000
43
0.0000001000
44
0.0000000001
40
0.0000000000
40
0.0000000000
40
0.0000000000
40
0.0000000000
40
0.3930096656
40
0.7768026902
40
1.0000000000
40
1.0000000000
40
1.0000000000
40
1.0000000000
10
284.5833912234
20
128.2972734226
30
0.0000000000
10
284.6063205963
20
128.4466766678
30
0.0000000000
10
284.5929584815
20
128.7561716221
30
0.0000000000
10
284.4005924668
20
129.1051766097
30
0.0000000000
10
284.2199531767
20
129.2584369300
30
0.0000000000
10
284.1477194274
20
129.3060725427
30
0.0000000000
11
284.5833912234
21
128.2972734226
31
0.0000000000
11
284.5579708581
21
128.7500179171
31
0.0000000000
11
284.3441628093
21
129.1378047553
31
0.0000000000
11
284.1477194274
21
129.3060725427
31
0.0000000000
0
SPLINE
5
527
100
AcDbEntity
8
0
100
AcDbSpline
62
7
6
CONTINUOUS
70
0
71
3
72
9
73
5
74
3
42
0.0000001000
43
0.0000001000
44
0.0000000001
40
0.0000000000
40
0.0000000000
40
0.0000000000
40
0.0000000000
40
0.4999456827
40
1.0000000000
40
1.0000000000
40
1.0000000000
40
1.0000000000
10
299.2726299929
20
149.3247423292
30
0.0000000000
10
299.3440813089
20
149.3390200394
30
0.0000000000
10
299.4869987759
20
149.3675820192
30
0.0000000000
10
299.6299148606
20
149.3961509144
30
0.0000000000
10
299.7013803200
20
149.4104386436
30
0.0000000000
11
299.2726299929
21
149.3247423292
31
0.0000000000
11
299.4869829046
21
149.3675806449
31
0.0000000000
11
299.7013803200
21
149.4104386436
31
0.0000000000
0
SPLINE
5
528
100
AcDbEntity
8
0
100
AcDbSpline
62
7
6
CONTINUOUS
70
0
71
3
72
9
73
5
74
3
42
0.0000001000
43
0.0000001000
44
0.0000000001
40
0.0000000000
40
0.0000000000
40
0.0000000000
40
0.0000000000
40
0.6721636343
40
1.0000000000
40
1.0000000000
40
1.0000000000
40
1.0000000000
10
280.6930331201
20
125.0610297301
30
0.0000000000
10
280.7165854257
20
125.2005847639
30
0.0000000000
10
280.7025582964
20
125.4206317691
30
0.0000000000
10
280.6130748250
20
125.6145534010
30
0.0000000000
10
280.5771576514
20
125.6742268687
30
0.0000000000
11
280.6930331201
21
125.0610297301
31
0.0000000000
11
280.6636368998
21
125.4845964065
31
0.0000000000
11
280.5771576514
21
125.6742268687
31
0.0000000000
0
SPLINE
5
529
100
AcDbEntity
8
0
100
AcDbSpline
62
7
6
CONTINUOUS
70
0
71
3
72
15
73
11
74
9
42
0.0000001000
43
0.0000001000
44
0.0000000001
40
0.0000000000
40
0.0000000000
40
0.0000000000
40
0.0000000000
40
0.1057649701
40
0.2213079200
40
0.3456011419
40
0.4818072999
40
0.6227363080
40
0.7578424429
40
0.8839620160
40
1.0000000000
40
1.0000000000
40
1.0000000000
40
1.0000000000
10
277.9833663757
20
124.9832158078
30
0.0000000000
10
277.9894370979
20
124.8537831727
30
0.0000000000
10
278.0646627849
20
124.5821972960
30
0.0000000000
10
278.3532316040
20
124.2550856356
30
0.0000000000
10
278.7751869890
20
124.0470157908
30
0.0000000000
10
279.2711755190
20
123.9838845741
30
0.0000000000
10
279.7759449915
20
124.0733729515
30
0.0000000000
10
280.2212701997
20
124.3017555819
30
0.0000000000
10
280.5513463144
20
124.6377546124
30
0.0000000000
10
280.6693756237
20
124.9208514064
30
0.0000000000
10
280.6930331201
20
125.0610297301
30
0.0000000000
11
277.9833663757
21
124.9832158078
31
0.0000000000
11
278.0863625299
21
124.6083841942
31
0.0000000000
11
278.3619074430
21
124.2852539434
31
0.0000000000
11
278.7685484563
21
124.0770948849
31
0.0000000000
11
279.2645965815
21
124.0096868459
31
0.0000000000
11
279.7746491104
21
124.0998787760
31
0.0000000000
11
280.2149801871
21
124.3294099925
31
0.0000000000
11
280.5347129852
21
124.6650227973
31
0.0000000000
11
280.6930331201
21
125.0610297301
31
0.0000000000
0
SPLINE
5
52A
100
AcDbEntity
8
0
100
AcDbSpline
62
7
6
CONTINUOUS
70
0
71
3
72
9
73
5
74
3
42
0.0000001000
43
0.0000001000
44
0.0000000001
40
0.0000000000
40
0.0000000000
40
0.0000000000
40
0.0000000000
40
0.4999081486
40
1.0000000000
40
1.0000000000
40
1.0000000000
40
1.0000000000
10
292.5841299929
20
151.8274930360
30
0.0000000000
10
292.5984287181
20
151.8709799039
30
0.0000000000
10
292.6270217181
20
151.9579728114
30
0.0000000000
10
292.6555953266
20
152.0449720900
30
0.0000000000
10
292.6698799111
20
152.0884813106
30
0.0000000000
11
292.5841299929
21
151.8274930360
31
0.0000000000
11
292.6270116194
21
151.9579584227
31
0.0000000000
11
292.6698799111
21
152.0884813106
31
0.0000000000
0
SPLINE
5
52B
100
AcDbEntity
8
0
100
AcDbSpline
62
7
6
CONTINUOUS
70
0
71
3
72
9
73
5
74
3
42
0.0000001000
43
0.0000001000
44
0.0000000001
40
0.0000000000
40
0.0000000000
40
0.0000000000
40
0.0000000000
40
0.4999370066
40
1.0000000000
40
1.0000000000
40
1.0000000000
40
1.0000000000
10
292.3268799929
20
151.4801183860
30
0.0000000000
10
292.3697773404
20
151.5379863093
30
0.0000000000
10
292.4555550865
20
151.6537573196
30
0.0000000000
10
292.5412773376
20
151.7695694268
30
0.0000000000
10
292.5841299929
20
151.8274930360
30
0.0000000000
11
292.3268799929
21
151.4801183860
31
0.0000000000
11
292.4555304094
21
151.6537530056
31
0.0000000000
11
292.5841299929
21
151.8274930360
31
0.0000000000
0
SPLINE
5
52C
100
AcDbEntity
8
0
100
AcDbSpline
62
7
6
CONTINUOUS
70
0
71
3
72
9
73
5
74
3
42
0.0000001000
43
0.0000001000
44
0.0000000001
40
0.0000000000
40
0.0000000000
40
0.0000000000
40
0.0000000000
40
0.6220437107
40
1.0000000000
40
1.0000000000
40
1.0000000000
40
1.0000000000
10
292.0142684722
20
151.3220498277
30
0.0000000000
10
292.0613137768
20
151.3458269038
30
0.0000000000
10
292.1369408272
20
151.3840573058
30
0.0000000000
10
292.2125627747
20
151.4222978003
30
0.0000000000
10
292.2411438361
20
151.4367524774
30
0.0000000000
11
292.0142684722
21
151.3220498277
31
0.0000000000
11
292.1553984644
21
151.3933927712
31
0.0000000000
11
292.2411438361
21
151.4367524774
31
0.0000000000
0
SPLINE
5
52D
100
AcDbEntity
8
0
100
AcDbSpline
62
7
6
CONTINUOUS
70
0
71
3
72
8
73
4
74
2
42
0.0000001000
43
0.0000001000
44
0.0000000001
40
0.0000000000
40
0.0000000000
40
0.0000000000
40
0.0000000000
40
1.0000000000
40
1.0000000000
40
1.0000000000
40
1.0000000000
10
292.2411438361
20
151.4367524774
30
0.0000000000
10
292.2697232842
20
151.4512063387
30
0.0000000000
10
292.2983020032
20
151.4656616415
30
0.0000000000
10
292.3268799929
20
151.4801183860
30
0.0000000000
11
292.2411438361
21
151.4367524774
31
0.0000000000
11
292.3268799929
21
151.4801183860
31
0.0000000000
0
SPLINE
5
52E
100
AcDbEntity
8
0
100
AcDbSpline
62
7
6
CONTINUOUS
70
0
71
3
72
9
73
5
74
3
42
0.0000001000
43
0.0000001000
44
0.0000000001
40
0.0000000000
40
0.0000000000
40
0.0000000000
40
0.0000000000
40
0.4990523492
40
1.0000000000
40
1.0000000000
40
1.0000000000
40
1.0000000000
10
292.1553799111
20
149.3247423287
30
0.0000000000
10
292.0407354682
20
149.6254198952
30
0.0000000000
10
291.8115428349
20
150.2281197832
30
0.0000000000
10
291.5834037775
20
150.8312192604
30
0.0000000000
10
291.4693799520
20
151.1334392718
30
0.0000000000
11
292.1553799111
21
149.3247423287
31
0.0000000000
11
291.8122396206
21
150.2270770041
31
0.0000000000
11
291.4693799520
21
151.1334392718
31
0.0000000000
0
SPLINE
5
52F
100
AcDbEntity
8
0
100
AcDbSpline
62
7
6
CONTINUOUS
70
0
71
3
72
14
73
10
74
8
42
0.0000001000
43
0.0000001000
44
0.0000000001
40
0.0000000000
40
0.0000000000
40
0.0000000000
40
0.0000000000
40
0.1037948240
40
0.2325485563
40
0.3689468963
40
0.5184377082
40
0.6773692703
40
0.8400839468
40
1.0000000000
40
1.0000000000
40
1.0000000000
40
1.0000000000
10
308.6351400873
20
133.8909221237
30
0.0000000000
10
308.5801458488
20
133.7784245573
30
0.0000000000
10
308.4193764691
20
133.5450531440
30
0.0000000000
10
308.0509596842
20
133.2811190117
30
0.0000000000
10
307.5544409693
20
133.1650769536
30
0.0000000000
10
307.0146747183
20
133.2573129158
30
0.0000000000
10
306.5257645516
20
133.5687803574
30
0.0000000000
10
306.1861730835
20
134.0534017942
30
0.0000000000
10
306.1028172939
20
134.4440131160
30
0.0000000000
10
306.1028172939
20
134.6356508140
30
0.0000000000
11
308.6351400873
21
133.8909221237
31
0.0000000000
11
308.4223984890
21
133.5834503820
31
0.0000000000
11
308.0461580492
21
133.3138162720
31
0.0000000000
11
307.5690784119
21
133.2004470329
31
0.0000000000
11
307.0388629997
21
133.2882323166
31
0.0000000000
11
306.5558048753
21
133.5933926321
31
0.0000000000
11
306.2208672905
21
134.0729881585
31
0.0000000000
11
306.1028172939
21
134.6356508140
31
0.0000000000
0
SPLINE
5
530
100
AcDbEntity
8
0
100
AcDbSpline
62
7
6
CONTINUOUS
70
0
71
3
72
10
73
6
74
4
42
0.0000001000
43
0.0000001000
44
0.0000000001
40
0.0000000000
40
0.0000000000
40
0.0000000000
40
0.0000000000
40
0.3215852262
40
0.6547699460
40
1.0000000000
40
1.0000000000
40
1.0000000000
40
1.0000000000
10
276.7611970923
20
130.1008324218
30
0.0000000000
10
276.7643351582
20
129.9108709400
30
0.0000000000
10
276.7839279454
20
129.5241757039
30
0.0000000000
10
276.8553936895
20
128.9372630406
30
0.0000000000
10
276.9332548489
20
128.5436293316
30
0.0000000000
10
276.9804292156
20
128.3452035617
30
0.0000000000
11
276.7611970923
21
130.1008324218
31
0.0000000000
11
276.7901422581
21
129.5316056782
31
0.0000000000
11
276.8616188090
21
128.9454268123
31
0.0000000000
11
276.9804292156
21
128.3452035617
31
0.0000000000
0
SPLINE
5
531
100
AcDbEntity
8
0
100
AcDbSpline
62
7
6
CONTINUOUS
70
0
71
3
72
9
73
5
74
3
42
0.0000001000
43
0.0000001000
44
0.0000000001
40
0.0000000000
40
0.0000000000
40
0.0000000000
40
0.0000000000
40
0.2071140040
40
1.0000000000
40
1.0000000000
40
1.0000000000
40
1.0000000000
10
280.6176315132
20
102.3702483244
30
0.0000000000
10
280.6176280603
20
102.3199728518
30
0.0000000000
10
280.6221943940
20
102.0772028342
30
0.0000000000
10
280.6489348525
20
101.8350560566
30
0.0000000000
10
280.6837310758
20
101.6458303466
30
0.0000000000
11
280.6176315132
21
102.3702483244
31
0.0000000000
11
280.6204707496
21
102.2194374456
31
0.0000000000
11
280.6837310758
21
101.6458303466
31
0.0000000000
0
SPLINE
5
532
100
AcDbEntity
8
0
100
AcDbSpline
62
7
6
CONTINUOUS
70
0
71
3
72
8
73
4
74
2
42
0.0000001000
43
0.0000001000
44
0.0000000001
40
0.0000000000
40
0.0000000000
40
0.0000000000
40
0.0000000000
40
1.0000000000
40
1.0000000000
40
1.0000000000
40
1.0000000000
10
280.6837310758
20
101.6458303466
30
0.0000000000
10
280.6937420874
20
101.5913893587
30
0.0000000000
10
280.7048783303
20
101.5371775773
30
0.0000000000
10
280.7171315628
20
101.4832516155
30
0.0000000000
11
280.6837310758
21
101.6458303466
31
0.0000000000
11
280.7171315628
21
101.4832516155
31
0.0000000000
0
SPLINE
5
533
100
AcDbEntity
8
0
100
AcDbSpline
62
7
6
CONTINUOUS
70
0
71
3
72
9
73
5
74
3
42
0.0000001000
43
0.0000001000
44
0.0000000001
40
0.0000000000
40
0.0000000000
40
0.0000000000
40
0.0000000000
40
0.5029844496
40
1.0000000000
40
1.0000000000
40
1.0000000000
40
1.0000000000
10
280.6176430120
20
103.5295098589
30
0.0000000000
10
280.6176430120
20
103.7431920388
30
0.0000000000
10
280.6518451101
20
104.1688340973
30
0.0000000000
10
280.7530898237
20
104.5830936807
30
0.0000000000
10
280.8193992576
20
104.7838421808
30
0.0000000000
11
280.6176430120
21
103.5295098589
31
0.0000000000
11
280.6690105953
21
104.1684950213
31
0.0000000000
11
280.8193992576
21
104.7838421808
31
0.0000000000
0
SPLINE
5
534
100
AcDbEntity
8
0
100
AcDbSpline
62
7
6
CONTINUOUS
70
0
71
3
72
11
73
7
74
5
42
0.0000001000
43
0.0000001000
44
0.0000000001
40
0.0000000000
40
0.0000000000
40
0.0000000000
40
0.0000000000
40
0.1312936323
40
0.4956936188
40
0.8393933565
40
1.0000000000
40
1.0000000000
40
1.0000000000
40
1.0000000000
10
282.1620285911
20
108.0921433006
30
0.0000000000
10
282.1028253567
20
107.9627368605
30
0.0000000000
10
281.8811684377
20
107.4733148730
30
0.0000000000
10
281.5184420161
20
106.6388503790
30
0.0000000000
10
281.1679490578
20
105.7648355401
30
0.0000000000
10
280.9801101231
20
105.2513385700
30
0.0000000000
10
280.9225502545
20
105.0870302364
30
0.0000000000
11
282.1620285911
21
108.0921433006
31
0.0000000000
11
281.9859283613
21
107.7032361227
31
0.0000000000
11
281.5148720608
21
106.6160246067
31
0.0000000000
11
281.1013377690
21
105.5777861338
31
0.0000000000
11
280.9225502545
21
105.0870302364
31
0.0000000000
0
SPLINE
5
535
100
AcDbEntity
8
0
100
AcDbSpline
62
7
6
CONTINUOUS
70
0
71
3
72
8
73
4
74
2
42
0.0000001000
43
0.0000001000
44
0.0000000001
40
0.0000000000
40
0.0000000000
40
0.0000000000
40
0.0000000000
40
1.0000000000
40
1.0000000000
40
1.0000000000
40
1.0000000000
10
280.9225502545
20
105.0870302364
30
0.0000000000
10
280.8870725999
20
104.9857569976
30
0.0000000000
10
280.8524540027
20
104.8841894270
30
0.0000000000
10
280.8188527277
20
104.7822911891
30
0.0000000000
11
280.9225502545
21
105.0870302364
31
0.0000000000
11
280.8188527277
21
104.7822911891
31
0.0000000000
0
SPLINE
5
536
100
AcDbEntity
8
0
100
AcDbSpline
62
7
6
CONTINUOUS
70
0
71
3
72
9
73
5
74
3
42
0.0000001000
43
0.0000001000
44
0.0000000001
40
0.0000000000
40
0.0000000000
40
0.0000000000
40
0.0000000000
40
0.3286186599
40
1.0000000000
40
1.0000000000
40
1.0000000000
40
1.0000000000
10
287.0604499702
20
117.2877132468
30
0.0000000000
10
287.0946710112
20
117.3475043453
30
0.0000000000
10
287.2122004047
20
117.5218243163
30
0.0000000000
10
287.3575112592
20
117.6741706882
30
0.0000000000
10
287.4616099051
20
117.7684438671
30
0.0000000000
11
287.0604499702
21
117.2877132468
31
0.0000000000
11
287.1749158409
21
117.4597010020
31
0.0000000000
11
287.4616099051
21
117.7684438671
31
0.0000000000
0
SPLINE
5
537
100
AcDbEntity
8
0
100
AcDbSpline
62
7
6
CONTINUOUS
70
0
71
3
72
8
73
4
74
2
42
0.0000001000
43
0.0000001000
44
0.0000000001
40
0.0000000000
40
0.0000000000
40
0.0000000000
40
0.0000000000
40
1.0000000000
40
1.0000000000
40
1.0000000000
40
1.0000000000
10
287.0604972438
20
117.2875491262
30
0.0000000000
10
286.9845607624
20
117.1548255685
30
0.0000000000
10
286.9087430471
20
117.0220339937
30
0.0000000000
10
286.8330425480
20
116.8891756329
30
0.0000000000
11
287.0604972438
21
117.2875491262
31
0.0000000000
11
286.8330425480
21
116.8891756329
31
0.0000000000
0
SPLINE
5
538
100
AcDbEntity
8
0
100
AcDbSpline
62
7
6
CONTINUOUS
70
0
71
3
72
10
73
6
74
4
42
0.0000001000
43
0.0000001000
44
0.0000000001
40
0.0000000000
40
0.0000000000
40
0.0000000000
40
0.0000000000
40
0.1074765733
40
0.5658458728
40
1.0000000000
40
1.0000000000
40
1.0000000000
40
1.0000000000
10
286.8330425480
20
116.8891756329
30
0.0000000000
10
286.7384803370
20
116.7232139747
30
0.0000000000
10
286.2415893480
20
115.8489054145
30
0.0000000000
10
285.3722627137
20
114.2987824545
30
0.0000000000
10
284.6080108346
20
112.9087939992
30
0.0000000000
10
284.2388666172
20
112.2312357584
30
0.0000000000
11
286.8330425480
21
116.8891756329
31
0.0000000000
11
286.5499016089
21
116.3909804177
31
0.0000000000
11
285.3542825261
21
114.2595401860
31
0.0000000000
11
284.2388666172
21
112.2312357584
31
0.0000000000
0
SPLINE
5
539
100
AcDbEntity
8
0
100
AcDbSpline
62
7
6
CONTINUOUS
70
0
71
3
72
13
73
9
74
7
42
0.0000001000
43
0.0000001000
44
0.0000000001
40
0.0000000000
40
0.0000000000
40
0.0000000000
40
0.0000000000
40
0.0525134940
40
0.2432888287
40
0.4421362643
40
0.6477176434
40
0.8592584206
40
1.0000000000
40
1.0000000000
40
1.0000000000
40
1.0000000000
10
280.7171185613
20
101.4832882544
30
0.0000000000
10
280.7263392909
20
101.4427192869
30
0.0000000000
10
280.7693550771
20
101.2548355640
30
0.0000000000
10
280.8497423587
20
100.9139012815
30
0.0000000000
10
280.9614057636
20
100.4557638846
30
0.0000000000
10
281.0797263712
20
99.9823259989
30
0.0000000000
10
281.1888617103
20
99.5540481236
30
0.0000000000
10
281.2586004238
20
99.2838083175
30
0.0000000000
10
281.2865761391
20
99.1758734635
30
0.0000000000
11
280.7171185613
21
101.4832882544
31
0.0000000000
11
280.7449658082
21
101.3616236419
31
0.0000000000
11
280.8488155389
21
100.9202557700
31
0.0000000000
11
280.9605807525
21
100.4610555040
31
0.0000000000
11
281.0789405663
21
99.9869971504
31
0.0000000000
11
281.2030084090
21
99.4997709430
31
0.0000000000
11
281.2865761391
21
99.1758734635
31
0.0000000000
0
SPLINE
5
53A
100
AcDbEntity
8
0
100
AcDbSpline
62
7
6
CONTINUOUS
70
0
71
3
72
8
73
4
74
2
42
0.0000001000
43
0.0000001000
44
0.0000000001
40
0.0000000000
40
0.0000000000
40
0.0000000000
40
0.0000000000
40
1.0000000000
40
1.0000000000
40
1.0000000000
40
1.0000000000
10
285.4643270502
20
79.1099365273
30
0.0000000000
10
285.4588060403
20
79.0750792840
30
0.0000000000
10
285.4532805094
20
79.0402227555
30
0.0000000000
10
285.4477504347
20
79.0053669468
30
0.0000000000
11
285.4643270502
21
79.1099365273
31
0.0000000000
11
285.4477504347
21
79.0053669468
31
0.0000000000
0
SPLINE
5
53B
100
AcDbEntity
8
0
100
AcDbSpline
62
7
6
CONTINUOUS
70
0
71
3
72
11
73
7
74
5
42
0.0000001000
43
0.0000001000
44
0.0000000001
40
0.0000000000
40
0.0000000000
40
0.0000000000
40
0.0000000000
40
0.1345597699
40
0.4548006107
40
0.7496949543
40
1.0000000000
40
1.0000000000
40
1.0000000000
40
1.0000000000
10
285.4477504347
20
79.0053669468
30
0.0000000000
10
285.3810431699
20
78.5849140950
30
0.0000000000
10
285.1533436400
20
77.1641731235
30
0.0000000000
10
284.7647989717
20
74.8243539726
30
0.0000000000
10
284.2910964195
20
72.1275842243
30
0.0000000000
10
283.9746250571
20
70.4319540472
30
0.0000000000
10
283.8242127491
20
69.6544725232
30
0.0000000000
11
285.4477504347
21
79.0053669468
31
0.0000000000
11
285.2456051610
21
77.7443312654
31
0.0000000000
11
284.7468137887
21
74.7460739715
31
0.0000000000
11
284.2614082869
21
71.9895911330
31
0.0000000000
11
283.8242127491
21
69.6544725232
31
0.0000000000
0
SPLINE
5
53C
100
AcDbEntity
8
0
100
AcDbSpline
62
7
6
CONTINUOUS
70
0
71
3
72
8
73
4
74
2
42
0.0000001000
43
0.0000001000
44
0.0000000001
40
0.0000000000
40
0.0000000000
40
0.0000000000
40
0.0000000000
40
1.0000000000
40
1.0000000000
40
1.0000000000
40
1.0000000000
10
283.8242014342
20
69.6543577187
30
0.0000000000
10
283.8081428533
20
69.5713292951
30
0.0000000000
10
283.7920342928
20
69.4883104168
30
0.0000000000
10
283.7758737999
20
69.4053015931
30
0.0000000000
11
283.8242014342
21
69.6543577187
31
0.0000000000
11
283.7758737999
21
69.4053015931
31
0.0000000000
0
SPLINE
5
53D
100
AcDbEntity
8
0
100
AcDbSpline
62
7
6
CONTINUOUS
70
0
71
3
72
18
73
14
74
12
42
0.0000001000
43
0.0000001000
44
0.0000000001
40
0.0000000000
40
0.0000000000
40
0.0000000000
40
0.0000000000
40
0.1325665982
40
0.3008467401
40
0.4539259406
40
0.5892360053
40
0.7049516913
40
0.8002756343
40
0.8752464504
40
0.9317280091
40
0.9721434329
40
0.9975141315
40
1.0000000000
40
1.0000000000
40
1.0000000000
40
1.0000000000
10
283.7758737999
20
69.4053015931
30
0.0000000000
10
283.7030732641
20
69.0313596042
30
0.0000000000
10
283.5354679600
20
68.1831984241
30
0.0000000000
10
283.2730036392
20
66.9054165300
30
0.0000000000
10
282.9961062408
20
65.6225126599
30
0.0000000000
10
282.7376360579
20
64.4905527605
30
0.0000000000
10
282.5021521995
20
63.5227588169
30
0.0000000000
10
282.2954242165
20
62.7291750292
30
0.0000000000
10
282.1160258463
20
62.0974043048
30
0.0000000000
10
281.9764424903
20
61.6365127562
30
0.0000000000
10
281.8504073240
20
61.2783909582
30
0.0000000000
10
281.8030309046
20
61.1371021460
30
0.0000000000
10
281.7568680304
20
61.0333037795
30
0.0000000000
10
281.7529216760
20
61.0244455243
30
0.0000000000
11
283.7758737999
21
69.4053015931
31
0.0000000000
11
283.5541319859
21
68.2841343109
31
0.0000000000
11
283.2617353630
21
66.8631283869
31
0.0000000000
11
282.9826286710
21
65.5732533632
31
0.0000000000
11
282.7221646394
21
64.4361680692
31
0.0000000000
11
282.4855660871
21
63.4670224734
31
0.0000000000
11
282.2770695854
21
62.6721037851
31
0.0000000000
11
282.1004982438
21
62.0503514466
31
0.0000000000
11
281.9561953525
21
61.5852857191
31
0.0000000000
11
281.8432633536
21
61.2556655283
31
0.0000000000
11
281.7648933326
21
61.0514618209
31
0.0000000000
11
281.7529216760
21
61.0244455243
31
0.0000000000
0
SPLINE
5
53E
100
AcDbEntity
8
0
100
AcDbSpline
62
7
6
CONTINUOUS
70
0
71
3
72
10
73
6
74
4
42
0.0000001000
43
0.0000001000
44
0.0000000001
40
0.0000000000
40
0.0000000000
40
0.0000000000
40
0.0000000000
40
0.3420408221
40
0.7138942262
40
1.0000000000
40
1.0000000000
40
1.0000000000
40
1.0000000000
10
281.2865759410
20
99.1758716526
30
0.0000000000
10
281.3988844616
20
98.7425646680
30
0.0000000000
10
281.6309450618
20
97.8375733787
30
0.0000000000
10
281.9487555605
20
96.5680538215
30
0.0000000000
10
282.1530855760
20
95.7315800190
30
0.0000000000
10
282.2409499802
20
95.3676119312
30
0.0000000000
11
281.2865759410
21
99.1758716526
31
0.0000000000
11
281.6200655649
21
97.8750652326
31
0.0000000000
11
281.9744814637
21
96.4588180649
31
0.0000000000
11
282.2409499802
21
95.3676119312
31
0.0000000000
0
SPLINE
5
53F
100
AcDbEntity
8
0
100
AcDbSpline
62
7
6
CONTINUOUS
70
0
71
3
72
13
73
9
74
7
42
0.0000001000
43
0.0000001000
44
0.0000000001
40
0.0000000000
40
0.0000000000
40
0.0000000000
40
0.0000000000
40
0.2031691562
40
0.4181341700
40
0.6146775698
40
0.7914936948
40
0.9465396939
40
1.0000000000
40
1.0000000000
40
1.0000000000
40
1.0000000000
10
282.2409502777
20
95.3676123531
30
0.0000000000
10
282.3567453043
20
94.8879557130
30
0.0000000000
10
282.5916219844
20
93.8999603090
30
0.0000000000
10
282.9252843365
20
92.4448435152
30
0.0000000000
10
283.2315965248
20
91.0491807549
30
0.0000000000
10
283.4932345380
20
89.7927659564
30
0.0000000000
10
283.6719254778
20
88.8741306193
30
0.0000000000
10
283.7622893873
20
88.3758322343
30
0.0000000000
10
283.7848827961
20
88.2479702111
30
0.0000000000
11
282.2409502777
21
95.3676123531
31
0.0000000000
11
282.5831301013
21
93.9273962361
31
0.0000000000
11
282.9327941221
21
92.4006748499
31
0.0000000000
11
283.2392286629
21
91.0018153612
31
0.0000000000
11
283.5010555967
21
89.7404065260
31
0.0000000000
11
283.7155352858
21
88.6312770391
31
0.0000000000
11
283.7848827961
21
88.2479702111
31
0.0000000000
0
SPLINE
5
540
100
AcDbEntity
8
0
100
AcDbSpline
62
7
6
CONTINUOUS
70
0
71
3
72
8
73
4
74
2
42
0.0000001000
43
0.0000001000
44
0.0000000001
40
0.0000000000
40
0.0000000000
40
0.0000000000
40
0.0000000000
40
1.0000000000
40
1.0000000000
40
1.0000000000
40
1.0000000000
10
283.7848827961
20
88.2479702111
30
0.0000000000
10
283.7913162360
20
88.2115616883
30
0.0000000000
10
283.7977030061
20
88.1751450560
30
0.0000000000
10
283.8040394242
20
88.1387198340
30
0.0000000000
11
283.7848827961
21
88.2479702111
31
0.0000000000
11
283.8040394242
21
88.1387198340
31
0.0000000000
0
SPLINE
5
541
100
AcDbEntity
8
0
100
AcDbSpline
62
7
6
CONTINUOUS
70
0
71
3
72
8
73
4
74
2
42
0.0000001000
43
0.0000001000
44
0.0000000001
40
0.0000000000
40
0.0000000000
40
0.0000000000
40
0.0000000000
40
1.0000000000
40
1.0000000000
40
1.0000000000
40
1.0000000000
10
283.8040394242
20
88.1387198340
30
0.0000000000
10
283.8195472052
20
88.0495725657
30
0.0000000000
10
283.8347533884
20
87.9603738466
30
0.0000000000
10
283.8496039951
20
87.8711166352
30
0.0000000000
11
283.8040394242
21
88.1387198340
31
0.0000000000
11
283.8496039951
21
87.8711166352
31
0.0000000000
0
SPLINE
5
542
100
AcDbEntity
8
0
100
AcDbSpline
62
7
6
CONTINUOUS
70
0
71
3
72
16
73
12
74
10
42
0.0000001000
43
0.0000001000
44
0.0000000001
40
0.0000000000
40
0.0000000000
40
0.0000000000
40
0.0000000000
40
0.1253908484
40
0.2578125639
40
0.3799249750
40
0.4926898275
40
0.5979419498
40
0.6986300236
40
0.7991251908
40
0.9055625306
40
1.0000000000
40
1.0000000000
40
1.0000000000
40
1.0000000000
10
280.3771299787
20
58.3932417997
30
0.0000000000
10
280.3771253053
20
58.1921993476
30
0.0000000000
10
280.3795074652
20
57.7788407039
30
0.0000000000
10
280.3919790257
20
57.1698001830
30
0.0000000000
10
280.4152142635
20
56.5813209903
30
0.0000000000
10
280.4494466021
20
56.0370022196
30
0.0000000000
10
280.4963989376
20
55.5280895711
30
0.0000000000
10
280.5598456834
20
55.0407445573
30
0.0000000000
10
280.6476654199
20
54.5551497888
30
0.0000000000
10
280.7654532212
20
54.0860408846
30
0.0000000000
10
280.8693473381
20
53.7807365967
30
0.0000000000
10
280.9244119757
20
53.6396072301
30
0.0000000000
11
280.3771299787
21
58.3932417997
31
0.0000000000
11
280.3808809378
21
57.7901302994
31
0.0000000000
11
280.3944140755
21
57.1533340436
31
0.0000000000
11
280.4181790350
21
56.5664620764
31
0.0000000000
11
280.4529251826
21
56.0251843772
31
0.0000000000
11
280.5002840994
21
55.5211483715
31
0.0000000000
11
280.5638380425
21
55.0410332549
31
0.0000000000
11
280.6511111318
21
54.5656017052
31
0.0000000000
11
280.7772700975
21
54.0694326547
31
0.0000000000
11
280.9244119757
21
53.6396072301
31
0.0000000000
0
SPLINE
5
543
100
AcDbEntity
8
0
100
AcDbSpline
62
7
6
CONTINUOUS
70
0
71
3
72
9
73
5
74
3
42
0.0000001000
43
0.0000001000
44
0.0000000001
40
0.0000000000
40
0.0000000000
40
0.0000000000
40
0.0000000000
40
0.2071140040
40
1.0000000000
40
1.0000000000
40
1.0000000000
40
1.0000000000
10
310.1366284727
20
102.3702483244
30
0.0000000000
10
310.1366319255
20
102.3199728518
30
0.0000000000
10
310.1320655918
20
102.0772028342
30
0.0000000000
10
310.1053251334
20
101.8350560566
30
0.0000000000
10
310.0705289100
20
101.6458303466
30
0.0000000000
11
310.1366284727
21
102.3702483244
31
0.0000000000
11
310.1337892363
21
102.2194374456
31
0.0000000000
11
310.0705289100
21
101.6458303466
31
0.0000000000
0
SPLINE
5
544
100
AcDbEntity
8
0
100
AcDbSpline
62
7
6
CONTINUOUS
70
0
71
3
72
8
73
4
74
2
42
0.0000001000
43
0.0000001000
44
0.0000000001
40
0.0000000000
40
0.0000000000
40
0.0000000000
40
0.0000000000
40
1.0000000000
40
1.0000000000
40
1.0000000000
40
1.0000000000
10
310.0705289100
20
101.6458303466
30
0.0000000000
10
310.0605178984
20
101.5913893587
30
0.0000000000
10
310.0493816556
20
101.5371775773
30
0.0000000000
10
310.0371284230
20
101.4832516155
30
0.0000000000
11
310.0705289100
21
101.6458303466
31
0.0000000000
11
310.0371284230
21
101.4832516155
31
0.0000000000
0
SPLINE
5
545
100
AcDbEntity
8
0
100
AcDbSpline
62
7
6
CONTINUOUS
70
0
71
3
72
9
73
5
74
3
42
0.0000001000
43
0.0000001000
44
0.0000000001
40
0.0000000000
40
0.0000000000
40
0.0000000000
40
0.0000000000
40
0.5029844496
40
1.0000000000
40
1.0000000000
40
1.0000000000
40
1.0000000000
10
310.1366169738
20
103.5295098589
30
0.0000000000
10
310.1366169738
20
103.7431920388
30
0.0000000000
10
310.1024148757
20
104.1688340973
30
0.0000000000
10
310.0011701621
20
104.5830936807
30
0.0000000000
10
309.9348607282
20
104.7838421808
30
0.0000000000
11
310.1366169738
21
103.5295098589
31
0.0000000000
11
310.0852493905
21
104.1684950213
31
0.0000000000
11
309.9348607282
21
104.7838421808
31
0.0000000000
0
SPLINE
5
546
100
AcDbEntity
8
0
100
AcDbSpline
62
7
6
CONTINUOUS
70
0
71
3
72
8
73
4
74
2
42
0.0000001000
43
0.0000001000
44
0.0000000001
40
0.0000000000
40
0.0000000000
40
0.0000000000
40
0.0000000000
40
1.0000000000
40
1.0000000000
40
1.0000000000
40
1.0000000000
10
309.9354072581
20
104.7822911891
30
0.0000000000
10
309.9018059801
20
104.8841894362
30
0.0000000000
10
309.8671873797
20
104.9857570159
30
0.0000000000
10
309.8317097217
20
105.0870302637
30
0.0000000000
11
309.9354072581
21
104.7822911891
31
0.0000000000
11
309.8317097217
21
105.0870302637
31
0.0000000000
0
SPLINE
5
547
100
AcDbEntity
8
0
100
AcDbSpline
62
7
6
CONTINUOUS
70
0
71
3
72
11
73
7
74
5
42
0.0000001000
43
0.0000001000
44
0.0000000001
40
0.0000000000
40
0.0000000000
40
0.0000000000
40
0.0000000000
40
0.1606066360
40
0.5043063768
40
0.8687063666
40
1.0000000000
40
1.0000000000
40
1.0000000000
40
1.0000000000
10
309.8317097217
20
105.0870302637
30
0.0000000000
10
309.7741498560
20
105.2513385881
30
0.0000000000
10
309.5863109245
20
105.7648355490
30
0.0000000000
10
309.2358179697
20
106.6388503790
30
0.0000000000
10
308.8730915482
20
107.4733148730
30
0.0000000000
10
308.6514346291
20
107.9627368605
30
0.0000000000
10
308.5922313947
20
108.0921433006
30
0.0000000000
11
309.8317097217
21
105.0870302637
31
0.0000000000
11
309.6529222168
21
105.5777861338
31
0.0000000000
11
309.2393879250
21
106.6160246067
31
0.0000000000
11
308.7683316245
21
107.7032361227
31
0.0000000000
11
308.5922313947
21
108.0921433006
31
0.0000000000
0
SPLINE
5
548
100
AcDbEntity
8
0
100
AcDbSpline
62
7
6
CONTINUOUS
70
0
71
3
72
9
73
5
74
3
42
0.0000001000
43
0.0000001000
44
0.0000000001
40
0.0000000000
40
0.0000000000
40
0.0000000000
40
0.0000000000
40
0.3286186599
40
1.0000000000
40
1.0000000000
40
1.0000000000
40
1.0000000000
10
303.6938100157
20
117.2877132468
30
0.0000000000
10
303.6595889746
20
117.3475043453
30
0.0000000000
10
303.5420595811
20
117.5218243163
30
0.0000000000
10
303.3967487267
20
117.6741706882
30
0.0000000000
10
303.2926500807
20
117.7684438671
30
0.0000000000
11
303.6938100157
21
117.2877132468
31
0.0000000000
11
303.5793441449
21
117.4597010020
31
0.0000000000
11
303.2926500807
21
117.7684438671
31
0.0000000000
0
SPLINE
5
549
100
AcDbEntity
8
0
100
AcDbSpline
62
7
6
CONTINUOUS
70
0
71
3
72
10
73
6
74
4
42
0.0000001000
43
0.0000001000
44
0.0000000001
40
0.0000000000
40
0.0000000000
40
0.0000000000
40
0.0000000000
40
0.4341541272
40
0.8925234267
40
1.0000000000
40
1.0000000000
40
1.0000000000
40
1.0000000000
10
306.5153933686
20
112.2312357584
30
0.0000000000
10
306.1462491512
20
112.9087939992
30
0.0000000000
10
305.3819972722
20
114.2987824545
30
0.0000000000
10
304.5126706378
20
115.8489054145
30
0.0000000000
10
304.0157796488
20
116.7232139747
30
0.0000000000
10
303.9212174378
20
116.8891756329
30
0.0000000000
11
306.5153933686
21
112.2312357584
31
0.0000000000
11
305.3999774598
21
114.2595401860
31
0.0000000000
11
304.2043583769
21
116.3909804177
31
0.0000000000
11
303.9212174378
21
116.8891756329
31
0.0000000000
0
SPLINE
5
54A
100
AcDbEntity
8
0
100
AcDbSpline
62
7
6
CONTINUOUS
70
0
71
3
72
13
73
9
74
7
42
0.0000001000
43
0.0000001000
44
0.0000000001
40
0.0000000000
40
0.0000000000
40
0.0000000000
40
0.0000000000
40
0.1412877332
40
0.3533145036
40
0.5593282448
40
0.7585649214
40
0.9496719801
40
1.0000000000
40
1.0000000000
40
1.0000000000
40
1.0000000000
10
309.4676838514
20
99.1758734746
30
0.0000000000
10
309.4957681337
20
99.2842271923
30
0.0000000000
10
309.5657100732
20
99.5552591040
30
0.0000000000
10
309.6751255890
20
99.9846629937
30
0.0000000000
10
309.7936829431
20
100.4591096092
30
0.0000000000
10
309.9055380909
20
100.9181408538
30
0.0000000000
10
309.9856285587
20
101.2579531404
30
0.0000000000
10
310.0283043603
20
101.4444080999
30
0.0000000000
10
310.0371413858
20
101.4832886958
30
0.0000000000
11
309.4676838514
21
99.1758734746
31
0.0000000000
11
309.5515744077
21
99.5010282871
31
0.0000000000
11
309.6759196111
21
99.9893758855
31
0.0000000000
11
309.7945131829
21
100.4644351100
31
0.0000000000
11
309.9064713036
21
100.9245406302
31
0.0000000000
11
310.0104601852
21
101.3666857831
31
0.0000000000
11
310.0371413858
21
101.4832886958
31
0.0000000000
0
SPLINE
5
54B
100
AcDbEntity
8
0
100
AcDbSpline
62
7
6
CONTINUOUS
70
0
71
3
72
12
73
8
74
6
42
0.0000001000
43
0.0000001000
44
0.0000000001
40
0.0000000000
40
0.0000000000
40
0.0000000000
40
0.0000000000
40
0.2655013975
40
0.5093960631
40
0.7329540120
40
0.9372305052
40
1.0000000000
40
1.0000000000
40
1.0000000000
40
1.0000000000
10
299.0825522331
20
119.1932954273
30
0.0000000000
10
298.9060447879
20
119.2027709479
30
0.0000000000
10
298.5673132627
20
119.2194958394
30
0.0000000000
10
298.0797041666
20
119.2386295777
30
0.0000000000
10
297.6326490655
20
119.2509819681
30
0.0000000000
10
297.3060430412
20
119.2555755049
30
0.0000000000
10
297.1282499071
20
119.2561007673
30
0.0000000000
10
297.0864594666
20
119.2561019072
30
0.0000000000
11
299.0825522331
21
119.1932954273
31
0.0000000000
11
298.5529041664
21
119.2192742427
31
0.0000000000
11
298.0661413501
21
119.2381785829
31
0.0000000000
11
297.6197940921
21
119.2502821565
31
0.0000000000
11
297.2118300970
21
119.2557447179
31
0.0000000000
11
297.0864594666
21
119.2561019072
31
0.0000000000
0
SPLINE
5
54C
100
AcDbEntity
8
0
100
AcDbSpline
62
7
6
CONTINUOUS
70
0
71
3
72
9
73
5
74
3
42
0.0000001000
43
0.0000001000
44
0.0000000001
40
0.0000000000
40
0.0000000000
40
0.0000000000
40
0.0000000000
40
0.4995515216
40
1.0000000000
40
1.0000000000
40
1.0000000000
40
1.0000000000
10
300.2738052608
20
118.9643757548
30
0.0000000000
10
300.0754430435
20
119.0025045428
30
0.0000000000
10
299.6783605696
20
119.0788208258
30
0.0000000000
10
299.2812743572
20
119.1551176540
30
0.0000000000
10
299.0825522331
20
119.1932954273
30
0.0000000000
11
300.2738052608
21
118.9643757548
31
0.0000000000
11
299.6787158025
21
119.0787475184
31
0.0000000000
11
299.0825522331
21
119.1932954273
31
0.0000000000
0
SPLINE
5
54D
100
AcDbEntity
8
0
100
AcDbSpline
62
7
6
CONTINUOUS
70
0
71
3
72
11
73
7
74
5
42
0.0000001000
43
0.0000001000
44
0.0000000001
40
0.0000000000
40
0.0000000000
40
0.0000000000
40
0.0000000000
40
0.2503050457
40
0.5451993893
40
0.8654402301
40
1.0000000000
40
1.0000000000
40
1.0000000000
40
1.0000000000
10
306.9300472368
20
69.6544725232
30
0.0000000000
10
306.7796349287
20
70.4319540472
30
0.0000000000
10
306.4631635663
20
72.1275842243
30
0.0000000000
10
305.9894610141
20
74.8243539726
30
0.0000000000
10
305.6009163458
20
77.1641731235
30
0.0000000000
10
305.3732168159
20
78.5849140950
30
0.0000000000
10
305.3065095511
20
79.0053669468
30
0.0000000000
11
306.9300472368
21
69.6544725232
31
0.0000000000
11
306.4928516989
21
71.9895911330
31
0.0000000000
11
306.0074461972
21
74.7460739715
31
0.0000000000
11
305.5086548248
21
77.7443312654
31
0.0000000000
11
305.3065095511
21
79.0053669468
31
0.0000000000
0
SPLINE
5
54E
100
AcDbEntity
8
0
100
AcDbSpline
62
7
6
CONTINUOUS
70
0
71
3
72
8
73
4
74
2
42
0.0000001000
43
0.0000001000
44
0.0000000001
40
0.0000000000
40
0.0000000000
40
0.0000000000
40
0.0000000000
40
1.0000000000
40
1.0000000000
40
1.0000000000
40
1.0000000000
10
305.3065095511
20
79.0053669468
30
0.0000000000
10
305.3009794764
20
79.0402227555
30
0.0000000000
10
305.2954539456
20
79.0750792840
30
0.0000000000
10
305.2899329356
20
79.1099365273
30
0.0000000000
11
305.3065095511
21
79.0053669468
31
0.0000000000
11
305.2899329356
21
79.1099365273
31
0.0000000000
0
SPLINE
5
54F
100
AcDbEntity
8
0
100
AcDbSpline
62
7
6
CONTINUOUS
70
0
71
3
72
18
73
14
74
12
42
0.0000001000
43
0.0000001000
44
0.0000000001
40
0.0000000000
40
0.0000000000
40
0.0000000000
40
0.0000000000
40
0.0080573294
40
0.0331093838
40
0.0732563683
40
0.1294846685
40
0.2041528048
40
0.2989898095
40
0.4140171902
40
0.5484725550
40
0.7006023171
40
0.8679440592
40
1.0000000000
40
1.0000000000
40
1.0000000000
40
1.0000000000
10
309.0212740676
20
60.9786170253
30
0.0000000000
10
309.0179711288
20
60.9875029857
30
0.0000000000
10
308.9569969501
20
61.1209723676
30
0.0000000000
10
308.9048944958
20
61.2752550361
30
0.0000000000
10
308.7792797771
20
61.6320536627
30
0.0000000000
10
308.6392499875
20
62.0938447083
30
0.0000000000
10
308.4596184073
20
62.7262823928
30
0.0000000000
10
308.2526621249
20
63.5205285493
30
0.0000000000
10
308.0171407706
20
64.4883615501
30
0.0000000000
10
307.7586993846
20
65.6200539797
30
0.0000000000
10
307.4817942006
20
66.9028541140
30
0.0000000000
10
307.2191374439
20
68.1814654812
30
0.0000000000
10
307.0513390424
20
69.0305772839
30
0.0000000000
10
306.9783861806
20
69.4053016501
30
0.0000000000
11
309.0212740676
21
60.9786170253
31
0.0000000000
11
308.9905108096
21
61.0486891138
31
0.0000000000
11
308.9125189267
21
61.2514759089
31
0.0000000000
11
308.7995247723
21
61.5808116985
31
0.0000000000
11
308.6548996964
21
62.0465201279
31
0.0000000000
11
308.4779183905
21
62.6694366573
31
0.0000000000
11
308.2692049421
21
63.4650024610
31
0.0000000000
11
308.0325783311
21
64.4341243991
31
0.0000000000
11
307.7721854830
21
65.5707629495
31
0.0000000000
11
307.4931250155
21
66.8602808278
31
0.0000000000
11
307.2005993630
21
68.2817899903
31
0.0000000000
11
306.9783861806
21
69.4053016501
31
0.0000000000
0
SPLINE
5
550
100
AcDbEntity
8
0
100
AcDbSpline
62
7
6
CONTINUOUS
70
0
71
3
72
8
73
4
74
2
42
0.0000001000
43
0.0000001000
44
0.0000000001
40
0.0000000000
40
0.0000000000
40
0.0000000000
40
0.0000000000
40
1.0000000000
40
1.0000000000
40
1.0000000000
40
1.0000000000
10
306.9783861806
20
69.4053016501
30
0.0000000000
10
306.9622256894
20
69.4883104544
30
0.0000000000
10
306.9461171308
20
69.5713293137
30
0.0000000000
10
306.9300585522
20
69.6543577202
30
0.0000000000
11
306.9783861806
21
69.4053016501
31
0.0000000000
11
306.9300585522
21
69.6543577202
31
0.0000000000
0
SPLINE
5
551
100
AcDbEntity
8
0
100
AcDbSpline
62
7
6
CONTINUOUS
70
0
71
3
72
9
73
5
74
3
42
0.0000001000
43
0.0000001000
44
0.0000000001
40
0.0000000000
40
0.0000000000
40
0.0000000000
40
0.0000000000
40
0.7886414786
40
1.0000000000
40
1.0000000000
40
1.0000000000
40
1.0000000000
10
305.6427692115
20
80.5062889624
30
0.0000000000
10
305.6967031273
20
80.7199480250
30
0.0000000000
10
305.7564922061
20
80.9931335387
30
0.0000000000
10
305.8048429761
20
81.2684010629
30
0.0000000000
10
305.8145428338
20
81.3266668449
30
0.0000000000
11
305.6427692115
21
80.5062889624
31
0.0000000000
11
305.7838933046
21
81.1521337976
31
0.0000000000
11
305.8145428338
21
81.3266668449
31
0.0000000000
0
SPLINE
5
552
100
AcDbEntity
8
0
100
AcDbSpline
62
7
6
CONTINUOUS
70
0
71
3
72
10
73
6
74
4
42
0.0000001000
43
0.0000001000
44
0.0000000001
40
0.0000000000
40
0.0000000000
40
0.0000000000
40
0.0000000000
40
0.2861057738
40
0.6579591779
40
1.0000000000
40
1.0000000000
40
1.0000000000
40
1.0000000000
10
308.5133100057
20
95.3676119312
30
0.0000000000
10
308.6011744098
20
95.7315800190
30
0.0000000000
10
308.8055044253
20
96.5680538215
30
0.0000000000
10
309.1233149240
20
97.8375733787
30
0.0000000000
10
309.3553755242
20
98.7425646680
30
0.0000000000
10
309.4676840448
20
99.1758716526
30
0.0000000000
11
308.5133100057
21
95.3676119312
31
0.0000000000
11
308.7797785221
21
96.4588180649
31
0.0000000000
11
309.1341944209
21
97.8750652326
31
0.0000000000
11
309.4676840448
21
99.1758716526
31
0.0000000000
0
SPLINE
5
553
100
AcDbEntity
8
0
100
AcDbSpline
62
7
6
CONTINUOUS
70
0
71
3
72
8
73
4
74
2
42
0.0000001000
43
0.0000001000
44
0.0000000001
40
0.0000000000
40
0.0000000000
40
0.0000000000
40
0.0000000000
40
1.0000000000
40
1.0000000000
40
1.0000000000
40
1.0000000000
10
306.9046555959
20
87.8711146630
30
0.0000000000
10
306.9195348307
20
87.9605443395
30
0.0000000000
10
306.9347709872
20
88.0499153020
30
0.0000000000
10
306.9503098205
20
88.1392346278
30
0.0000000000
11
306.9046555959
21
87.8711146630
31
0.0000000000
11
306.9503098205
21
88.1392346278
31
0.0000000000
0
SPLINE
5
554
100
AcDbEntity
8
0
100
AcDbSpline
62
7
6
CONTINUOUS
70
0
71
3
72
8
73
4
74
2
42
0.0000001000
43
0.0000001000
44
0.0000000001
40
0.0000000000
40
0.0000000000
40
0.0000000000
40
0.0000000000
40
1.0000000000
40
1.0000000000
40
1.0000000000
40
1.0000000000
10
306.9503098205
20
88.1392346278
30
0.0000000000
10
306.9566167620
20
88.1754877841
30
0.0000000000
10
306.9629735666
20
88.2117324337
30
0.0000000000
10
306.9693766073
20
88.2479690499
30
0.0000000000
11
306.9503098205
21
88.1392346278
31
0.0000000000
11
306.9693766073
21
88.2479690499
31
0.0000000000
0
SPLINE
5
555
100
AcDbEntity
8
0
100
AcDbSpline
62
7
6
CONTINUOUS
70
0
71
3
72
13
73
9
74
7
42
0.0000001000
43
0.0000001000
44
0.0000000001
40
0.0000000000
40
0.0000000000
40
0.0000000000
40
0.0000000000
40
0.0536615874
40
0.2091455442
40
0.3864177288
40
0.5831503551
40
0.7978265322
40
1.0000000000
40
1.0000000000
40
1.0000000000
40
1.0000000000
10
306.9693766073
20
88.2479690499
30
0.0000000000
10
306.9920550064
20
88.3763125171
30
0.0000000000
10
307.0827044316
20
88.8761372324
30
0.0000000000
10
307.2619440152
20
89.7973761513
30
0.0000000000
10
307.5241935641
20
91.0563512350
30
0.0000000000
10
307.8307754316
20
92.4528413151
30
0.0000000000
10
308.1639103589
20
93.9053499779
30
0.0000000000
10
308.3980821644
20
94.8903062918
30
0.0000000000
10
308.5133097022
20
95.3676123099
30
0.0000000000
11
306.9693766073
21
88.2479690499
31
0.0000000000
11
307.0389906737
21
88.6327181522
31
0.0000000000
11
307.2541216506
21
89.7449719775
31
0.0000000000
11
307.5166981863
21
91.0096191292
31
0.0000000000
11
307.8235133558
21
92.4098068680
31
0.0000000000
11
308.1727804437
21
93.9344604300
31
0.0000000000
11
308.5133097022
21
95.3676123099
31
0.0000000000
0
SPLINE
5
556
100
AcDbEntity
8
0
100
AcDbSpline
62
7
6
CONTINUOUS
70
0
71
3
72
16
73
12
74
10
42
0.0000001000
43
0.0000001000
44
0.0000000001
40
0.0000000000
40
0.0000000000
40
0.0000000000
40
0.0000000000
40
0.0958029875
40
0.2019275593
40
0.3022335126
40
0.4027992974
40
0.5079609601
40
0.6206471748
40
0.7426814445
40
0.8750199191
40
1.0000000000
40
1.0000000000
40
1.0000000000
40
1.0000000000
10
309.8298440522
20
53.6395953715
30
0.0000000000
10
309.8857057775
20
53.7827653449
30
0.0000000000
10
309.9899478517
20
54.0897427785
30
0.0000000000
10
310.1076615366
20
54.5602950790
30
0.0000000000
10
310.1950444062
20
55.0449502578
30
0.0000000000
10
310.2582457434
20
55.5316775142
30
0.0000000000
10
310.3050470962
20
56.0401358298
30
0.0000000000
10
310.3391795735
20
56.5840649799
30
0.0000000000
10
310.3623469026
20
57.1721632697
30
0.0000000000
10
310.3747646959
20
57.7802890164
30
0.0000000000
10
310.3771346825
20
58.1928567838
30
0.0000000000
10
310.3771300209
20
58.3932412282
30
0.0000000000
11
309.8298440522
21
53.6395953715
31
0.0000000000
11
309.9788580604
21
54.0757187975
31
0.0000000000
11
310.1042078540
21
54.5705426705
31
0.0000000000
11
310.1910575456
21
55.0451279962
31
0.0000000000
11
310.2543699012
21
55.5246831645
31
0.0000000000
11
310.3015775933
21
56.0282978386
31
0.0000000000
11
310.3362224494
21
56.5692046089
31
0.0000000000
11
310.3599178172
21
57.1557049548
31
0.0000000000
11
310.3734045008
21
57.7921035942
31
0.0000000000
11
310.3771300209
21
58.3932412282
31
0.0000000000
0
SPLINE
5
557
100
AcDbEntity
8
0
100
AcDbSpline
62
7
6
CONTINUOUS
70
0
71
3
72
12
73
8
74
6
42
0.0000001000
43
0.0000001000
44
0.0000000001
40
0.0000000000
40
0.0000000000
40
0.0000000000
40
0.0000000000
40
0.1432546659
40
0.3137096757
40
0.5149912813
40
0.7458899166
40
1.0000000000
40
1.0000000000
40
1.0000000000
40
1.0000000000
10
303.2926500807
20
117.7684438671
30
0.0000000000
10
303.1731468973
20
117.8694055723
30
0.0000000000
10
302.8906808359
20
118.0659870371
30
0.0000000000
10
302.3916705135
20
118.3274127614
30
0.0000000000
10
301.7803155102
20
118.5736686710
30
0.0000000000
10
301.0633121010
20
118.7943624592
30
0.0000000000
10
300.5463197686
20
118.9119935966
30
0.0000000000
10
300.2738052608
20
118.9643757548
30
0.0000000000
11
303.2926500807
21
117.7684438671
31
0.0000000000
11
302.9106870429
21
118.0411575055
31
0.0000000000
11
302.4179841672
21
118.3040264131
31
0.0000000000
11
301.8075222361
21
118.5534051626
31
0.0000000000
11
301.0852327926
21
118.7782097335
31
0.0000000000
11
300.2738052608
21
118.9643757548
31
0.0000000000
0
SPLINE
5
558
100
AcDbEntity
8
0
100
AcDbSpline
62
7
6
CONTINUOUS
70
0
71
3
72
12
73
8
74
6
42
0.0000001000
43
0.0000001000
44
0.0000000001
40
0.0000000000
40
0.0000000000
40
0.0000000000
40
0.0000000000
40
0.1432546659
40
0.3137096757
40
0.5149912813
40
0.7458899166
40
1.0000000000
40
1.0000000000
40
1.0000000000
40
1.0000000000
10
287.4616099051
20
117.7684438671
30
0.0000000000
10
287.5811130885
20
117.8694055723
30
0.0000000000
10
287.8635791499
20
118.0659870371
30
0.0000000000
10
288.3625894724
20
118.3274127614
30
0.0000000000
10
288.9739444756
20
118.5736686710
30
0.0000000000
10
289.6909478848
20
118.7943624592
30
0.0000000000
10
290.2079402173
20
118.9119935966
30
0.0000000000
10
290.4804547250
20
118.9643757548
30
0.0000000000
11
287.4616099051
21
117.7684438671
31
0.0000000000
11
287.8435729429
21
118.0411575055
31
0.0000000000
11
288.3362758187
21
118.3040264131
31
0.0000000000
11
288.9467377497
21
118.5534051626
31
0.0000000000
11
289.6690271933
21
118.7782097335
31
0.0000000000
11
290.4804547250
21
118.9643757548
31
0.0000000000
0
SPLINE
5
559
100
AcDbEntity
8
0
100
AcDbSpline
62
7
6
CONTINUOUS
70
0
71
3
72
9
73
5
74
3
42
0.0000001000
43
0.0000001000
44
0.0000000001
40
0.0000000000
40
0.0000000000
40
0.0000000000
40
0.0000000000
40
0.7886414786
40
1.0000000000
40
1.0000000000
40
1.0000000000
40
1.0000000000
10
285.1114907743
20
80.5062889624
30
0.0000000000
10
285.0575568585
20
80.7199480250
30
0.0000000000
10
284.9977677797
20
80.9931335387
30
0.0000000000
10
284.9494170097
20
81.2684010629
30
0.0000000000
10
284.9397171520
20
81.3266668449
30
0.0000000000
11
285.1114907743
21
80.5062889624
31
0.0000000000
11
284.9703666812
21
81.1521337976
31
0.0000000000
11
284.9397171520
21
81.3266668449
31
0.0000000000
0
SPLINE
5
55A
100
AcDbEntity
8
0
100
AcDbSpline
62
7
6
CONTINUOUS
70
0
71
3
72
12
73
8
74
6
42
0.0000001000
43
0.0000001000
44
0.0000000001
40
0.0000000000
40
0.0000000000
40
0.0000000000
40
0.0000000000
40
0.2655013975
40
0.5093960631
40
0.7329540120
40
0.9372305052
40
1.0000000000
40
1.0000000000
40
1.0000000000
40
1.0000000000
10
291.6717077527
20
119.1932954273
30
0.0000000000
10
291.8482151980
20
119.2027709479
30
0.0000000000
10
292.1869467232
20
119.2194958394
30
0.0000000000
10
292.6745558192
20
119.2386295777
30
0.0000000000
10
293.1216109203
20
119.2509819681
30
0.0000000000
10
293.4482169446
20
119.2555755049
30
0.0000000000
10
293.6260100787
20
119.2561007673
30
0.0000000000
10
293.6678005192
20
119.2561019072
30
0.0000000000
11
291.6717077527
21
119.1932954273
31
0.0000000000
11
292.2013558194
21
119.2192742427
31
0.0000000000
11
292.6881186357
21
119.2381785829
31
0.0000000000
11
293.1344658937
21
119.2502821565
31
0.0000000000
11
293.5424298888
21
119.2557447179
31
0.0000000000
11
293.6678005192
21
119.2561019072
31
0.0000000000
0
SPLINE
5
55B
100
AcDbEntity
8
0
100
AcDbSpline
62
7
6
CONTINUOUS
70
0
71
3
72
9
73
5
74
3
42
0.0000001000
43
0.0000001000
44
0.0000000001
40
0.0000000000
40
0.0000000000
40
0.0000000000
40
0.0000000000
40
0.4995515216
40
1.0000000000
40
1.0000000000
40
1.0000000000
40
1.0000000000
10
290.4804547250
20
118.9643757548
30
0.0000000000
10
290.6788169423
20
119.0025045428
30
0.0000000000
10
291.0758994162
20
119.0788208258
30
0.0000000000
10
291.4729856286
20
119.1551176540
30
0.0000000000
10
291.6717077527
20
119.1932954273
30
0.0000000000
11
290.4804547250
21
118.9643757548
31
0.0000000000
11
291.0755441833
21
119.0787475184
31
0.0000000000
11
291.6717077527
21
119.1932954273
31
0.0000000000
0
SPLINE
5
55C
100
AcDbEntity
8
0
100
AcDbSpline
62
7
6
CONTINUOUS
70
0
71
3
72
9
73
5
74
3
42
0.0000001000
43
0.0000001000
44
0.0000000001
40
0.0000000000
40
0.0000000000
40
0.0000000000
40
0.0000000000
40
0.4298027465
40
1.0000000000
40
1.0000000000
40
1.0000000000
40
1.0000000000
10
284.9397171520
20
81.3266668449
30
0.0000000000
10
284.9143178404
20
81.4792372029
30
0.0000000000
10
284.8635100137
20
81.8355811293
30
0.0000000000
10
284.8328115295
20
82.1943883018
30
0.0000000000
10
284.8223459515
20
82.3992788869
30
0.0000000000
11
284.9397171520
21
81.3266668449
31
0.0000000000
11
284.8743579604
21
81.7860074358
31
0.0000000000
11
284.8223459515
21
82.3992788869
31
0.0000000000
0
SPLINE
5
55D
100
AcDbEntity
8
0
100
AcDbSpline
62
7
6
CONTINUOUS
70
0
71
3
72
9
73
5
74
3
42
0.0000001000
43
0.0000001000
44
0.0000000001
40
0.0000000000
40
0.0000000000
40
0.0000000000
40
0.0000000000
40
0.4298027465
40
1.0000000000
40
1.0000000000
40
1.0000000000
40
1.0000000000
10
305.8145428338
20
81.3266668449
30
0.0000000000
10
305.8399421454
20
81.4792372029
30
0.0000000000
10
305.8907499721
20
81.8355811293
30
0.0000000000
10
305.9214484564
20
82.1943883018
30
0.0000000000
10
305.9319140343
20
82.3992788869
30
0.0000000000
11
305.8145428338
21
81.3266668449
31
0.0000000000
11
305.8799020254
21
81.7860074358
31
0.0000000000
11
305.9319140343
21
82.3992788869
31
0.0000000000
0
SPLINE
5
55E
100
AcDbEntity
8
0
100
AcDbSpline
62
7
6
CONTINUOUS
70
0
71
3
72
8
73
4
74
2
42
0.0000001000
43
0.0000001000
44
0.0000000001
40
0.0000000000
40
0.0000000000
40
0.0000000000
40
0.0000000000
40
1.0000000000
40
1.0000000000
40
1.0000000000
40
1.0000000000
10
309.0928843438
20
108.0901299896
30
0.0000000000
10
309.0138895144
20
107.9052434796
30
0.0000000000
10
308.9300917099
20
107.7223966550
30
0.0000000000
10
308.8414189676
20
107.5419617000
30
0.0000000000
11
309.0928843438
21
108.0901299896
31
0.0000000000
11
308.8414189676
21
107.5419617000
31
0.0000000000
0
SPLINE
5
55F
100
AcDbEntity
8
0
100
AcDbSpline
62
7
6
CONTINUOUS
70
0
71
3
72
9
73
5
74
3
42
0.0000001000
43
0.0000001000
44
0.0000000001
40
0.0000000000
40
0.0000000000
40
0.0000000000
40
0.0000000000
40
0.6666352711
40
1.0000000000
40
1.0000000000
40
1.0000000000
40
1.0000000000
10
303.8411616983
20
116.8435724507
30
0.0000000000
10
303.8321430047
20
116.9476005790
30
0.0000000000
10
303.7901626774
20
117.1017174828
30
0.0000000000
10
303.7198045068
20
117.2422955994
30
0.0000000000
10
303.6938100157
20
117.2877132468
30
0.0000000000
11
303.8411616983
21
116.8435724507
31
0.0000000000
11
303.7635606840
21
117.1470634349
31
0.0000000000
11
303.6938100157
21
117.2877132468
31
0.0000000000
0
SPLINE
5
560
100
AcDbEntity
8
0
100
AcDbSpline
62
7
6
CONTINUOUS
70
0
71
3
72
14
73
10
74
8
42
0.0000001000
43
0.0000001000
44
0.0000000001
40
0.0000000000
40
0.0000000000
40
0.0000000000
40
0.0000000000
40
0.1423080494
40
0.3369989347
40
0.5120050099
40
0.6672178708
40
0.8019562262
40
0.9142174998
40
1.0000000000
40
1.0000000000
40
1.0000000000
40
1.0000000000
10
297.0864594666
20
119.2561019072
30
0.0000000000
10
297.0044138646
20
119.2561041449
30
0.0000000000
10
296.8101226491
20
119.2549929239
30
0.0000000000
10
296.5149924374
20
119.2484364052
30
0.0000000000
10
296.2126521759
20
119.2339488042
30
0.0000000000
10
295.9454948105
20
119.2118450244
30
0.0000000000
10
295.7153080726
20
119.1812626669
30
0.0000000000
10
295.5279436298
20
119.1408863122
30
0.0000000000
10
295.4191781760
20
119.1012125504
30
0.0000000000
10
295.3771299929
20
119.0751774264
30
0.0000000000
11
297.0864594666
21
119.2561019072
31
0.0000000000
11
296.8403299095
21
119.2545942679
31
0.0000000000
11
296.5036903499
21
119.2466674595
31
0.0000000000
11
296.2013814633
21
119.2315531878
31
0.0000000000
11
295.9339201937
21
119.2085040505
31
0.0000000000
11
295.7031262642
21
119.1762244873
31
0.0000000000
11
295.5139152137
21
119.1326465469
31
0.0000000000
11
295.3771299929
21
119.0751774264
31
0.0000000000
0
SPLINE
5
561
100
AcDbEntity
8
0
100
AcDbSpline
62
7
6
CONTINUOUS
70
0
71
3
72
14
73
10
74
8
42
0.0000001000
43
0.0000001000
44
0.0000000001
40
0.0000000000
40
0.0000000000
40
0.0000000000
40
0.0000000000
40
0.1423080494
40
0.3369989347
40
0.5120050099
40
0.6672178708
40
0.8019562262
40
0.9142174998
40
1.0000000000
40
1.0000000000
40
1.0000000000
40
1.0000000000
10
293.6678005192
20
119.2561019072
30
0.0000000000
10
293.7498461212
20
119.2561041449
30
0.0000000000
10
293.9441373367
20
119.2549929239
30
0.0000000000
10
294.2392675484
20
119.2484364052
30
0.0000000000
10
294.5416078100
20
119.2339488042
30
0.0000000000
10
294.8087651754
20
119.2118450244
30
0.0000000000
10
295.0389519132
20
119.1812626669
30
0.0000000000
10
295.2263163560
20
119.1408863122
30
0.0000000000
10
295.3350818098
20
119.1012125504
30
0.0000000000
10
295.3771299929
20
119.0751774264
30
0.0000000000
11
293.6678005192
21
119.2561019072
31
0.0000000000
11
293.9139300763
21
119.2545942679
31
0.0000000000
11
294.2505696360
21
119.2466674595
31
0.0000000000
11
294.5528785226
21
119.2315531878
31
0.0000000000
11
294.8203397921
21
119.2085040505
31
0.0000000000
11
295.0511337216
21
119.1762244873
31
0.0000000000
11
295.2403447721
21
119.1326465469
31
0.0000000000
11
295.3771299929
21
119.0751774264
31
0.0000000000
0
SPLINE
5
562
100
AcDbEntity
8
0
100
AcDbSpline
62
7
6
CONTINUOUS
70
0
71
3
72
9
73
5
74
3
42
0.0000001000
43
0.0000001000
44
0.0000000001
40
0.0000000000
40
0.0000000000
40
0.0000000000
40
0.0000000000
40
0.6666352711
40
1.0000000000
40
1.0000000000
40
1.0000000000
40
1.0000000000
10
286.9130982875
20
116.8435724507
30
0.0000000000
10
286.9221169812
20
116.9476005790
30
0.0000000000
10
286.9640973084
20
117.1017174828
30
0.0000000000
10
287.0344554791
20
117.2422955994
30
0.0000000000
10
287.0604499702
20
117.2877132468
30
0.0000000000
11
286.9130982875
21
116.8435724507
31
0.0000000000
11
286.9906993018
21
117.1470634349
31
0.0000000000
11
287.0604499702
21
117.2877132468
31
0.0000000000
0
SPLINE
5
563
100
AcDbEntity
8
0
100
AcDbSpline
62
7
6
CONTINUOUS
70
0
71
3
72
8
73
4
74
2
42
0.0000001000
43
0.0000001000
44
0.0000000001
40
0.0000000000
40
0.0000000000
40
0.0000000000
40
0.0000000000
40
1.0000000000
40
1.0000000000
40
1.0000000000
40
1.0000000000
10
281.6613756420
20
108.0901299896
30
0.0000000000
10
281.7403704714
20
107.9052434796
30
0.0000000000
10
281.8241682759
20
107.7223966550
30
0.0000000000
10
281.9128410182
20
107.5419617000
30
0.0000000000
11
281.6613756420
21
108.0901299896
31
0.0000000000
11
281.9128410182
21
107.5419617000
31
0.0000000000
0
ENDSEC
0
SECTION
2
OBJECTS
0
DICTIONARY
5
564
100
AcDbDictionary
3
ACAD_GROUP
350
565
3
ACAD_MLINESTYLE
350
566
0
DICTIONARY
5
565
102
{ACAD_REACTORS
330
564
102
}
100
AcDbDictionary
0
DICTIONARY
5
566
102
{ACAD_REACTORS
330
564
102
}
100
AcDbDictionary
3
STANDARD
350
567
0
MLINESTYLE
5
567
102
{ACAD_REACTORS
330
566
102
}
100
AcDbMlineStyle
2
STANDARD
70
0
3

62
256
51
90.0
52
90.0
71
2
49
0.5
62
256
6
BYLAYER
49
-0.5
62
256
6
BYLAYER
0
ENDSEC
0
EOF
