999
DXF file: C:\Aktuell-Internet\CAD-Daten\2vcoeh10.dxf
999
Pro/ENGINEER 2001400 by Parametric Technology Corporation
0
SECTION
2
HEADER
9
$ACADVER
1
AC1014
9
$EXTMAX
10
420.0000000000
20
297.0000000000
9
$EXTMIN
10
0.0000000000
20
0.0000000000
9
$LIMMIN
10
0.0000000000
20
0.0000000000
9
$LIMMAX
10
420.0000000000
20
297.0000000000
9
$VIEWCTR
10
210.0000000000
20
148.5000000000
9
$VIEWSIZE
40
297.0000000000
9
$CLAYER
8
0
9
$LTSCALE
40
23.1000000000
9
$CELTYPE
6
BYLAYER
9
$DIMSCALE
40
1
9
$DIMASZ
40
3.5000000000
9
$DIMEXO
40
2.6250000000
9
$DIMDLI
40
15.9600000000
9
$DIMEXE
40
7.5600000000
9
$DIMCEN
40
3.7800000000
9
$DIMLFAC
40
1.0000000000
9
$DIMTXT
40
3.5000000000
9
$DIMTOL
70
1
9
$DIMTFAC
40
0.6000000000
9
$DIMTP
40
0.0050000000
9
$DIMTM
40
0.0050000000
9
$HANDSEED
5
50A
0
ENDSEC
0
SECTION
2
CLASSES
0
ENDSEC
0
SECTION
2
TABLES
0
TABLE
2
VPORT
5
8
100
AcDbSymbolTable
70
2
0
VPORT
5
1F4
100
AcDbSymbolTableRecord
100
AcDbViewportTableRecord
2
*ACTIVE
70
0
10
0.0
20
0.0
11
1.0
21
1.0
12
210.0000000000
22
148.5000000000
13
0.0
23
0.0
14
1.0
24
1.0
15
0.0
25
0.0
16
0.0
26
0.0
36
1.0
17
0.0
27
0.0
37
0.0
40
297.0000000000
41
1.4141414141
42
50.0
43
0.0
44
0.0
50
0.0
51
0.0
71
0
72
100
73
1
74
1
75
0
76
0
77
0
78
0
0
ENDTAB
0
TABLE
2
LTYPE
5
5
100
AcDbSymbolTable
70
6
0
LTYPE
5
14
100
AcDbSymbolTableRecord
100
AcDbLinetypeTableRecord
2
BYBLOCK
70
0
3

72
65
73
0
40
0.0
0
LTYPE
5
15
100
AcDbSymbolTableRecord
100
AcDbLinetypeTableRecord
2
BYLAYER
70
0
3

72
65
73
0
40
0.0
0
LTYPE
5
16
100
AcDbSymbolTableRecord
100
AcDbLinetypeTableRecord
2
CONTINUOUS
70
64
3
Solid line
72
65
73
0
40
0
0
LTYPE
5
1F5
100
AcDbSymbolTableRecord
100
AcDbLinetypeTableRecord
2
CENTER
70
64
3
____ _ ____ _ ____ _ ____ _ ____ _ ____ _ ____
72
65
73
4
40
0.6
49
0.375
74
0
49
-0.075
74
0
49
0.075
74
0
49
-0.075
74
0
0
LTYPE
5
1F6
100
AcDbSymbolTableRecord
100
AcDbLinetypeTableRecord
2
HIDDEN
70
64
3
- - - - - - - - - - - - - - - - - - - -
72
65
73
2
40
0.2
49
0.1
74
0
49
-0.1
74
0
0
LTYPE
5
1F7
100
AcDbSymbolTableRecord
100
AcDbLinetypeTableRecord
2
PHANTOM
70
64
3
_____ _ _ _____ _ _ _____ _ _ _____
72
65
73
6
40
0.8
49
0.45
74
0
49
-0.05
74
0
49
0.1
74
0
49
-0.05
74
0
49
0.1
74
0
49
-0.05
74
0
0
LTYPE
5
1F8
100
AcDbSymbolTableRecord
100
AcDbLinetypeTableRecord
2
DOT
70
64
3
. . . . . . . . . . . . . . . . . . . .
72
65
73
2
40
0.2
49
0.1
74
0
49
-0.1
74
0
0
LTYPE
5
1F9
100
AcDbSymbolTableRecord
100
AcDbLinetypeTableRecord
2
DASHED
70
64
3
- - - - - - - - - - - - - - - - - - - -
72
65
73
2
40
0.2
49
0.1
74
0
49
-0.1
74
0
0
ENDTAB
0
TABLE
2
LAYER
5
2
100
AcDbSymbolTable
70
36
0
LAYER
5
10
100
AcDbSymbolTableRecord
100
AcDbLayerTableRecord
2
0
70
0
62
7
6
CONTINUOUS
0
LAYER
5
1FA
100
AcDbSymbolTableRecord
100
AcDbLayerTableRecord
2
DEFAULT_1
70
0
62
7
6
CENTER
0
LAYER
5
1FB
100
AcDbSymbolTableRecord
100
AcDbLayerTableRecord
2
DEFAULT_2
70
0
62
8
6
HIDDEN
0
LAYER
5
1FC
100
AcDbSymbolTableRecord
100
AcDbLayerTableRecord
2
DEFAULT_3
70
0
62
7
6
PHANTOM
0
ENDTAB
0
TABLE
2
STYLE
5
3
100
AcDbSymbolTable
70
1
0
STYLE
5
11
100
AcDbSymbolTableRecord
100
AcDbTextStyleTableRecord
2
STANDARD
70
0
40
0.0
41
1.0
50
0.0
71
0
42
0.0
3
txt
4

0
STYLE
5
1FD
100
AcDbSymbolTableRecord
100
AcDbTextStyleTableRecord
2
TEXTSTYLE_0
70
0
40
0.0
41
0.80
50
0.0
71
0
42
0.2
3
txt
4

0
ENDTAB
0
TABLE
2
VIEW
5
6
100
AcDbSymbolTable
70
0
0
ENDTAB
0
TABLE
2
UCS
5
7
100
AcDbSymbolTable
70
0
0
ENDTAB
0
TABLE
2
APPID
5
9
100
AcDbSymbolTable
70
1
0
APPID
5
1FE
100
AcDbSymbolTableRecord
100
AcDbRegAppTableRecord
2
ACAD
70
0
0
ENDTAB
0
TABLE
2
DIMSTYLE
5
A
100
AcDbSymbolTable
70
1
0
DIMSTYLE
105
1FF
100
AcDbSymbolTableRecord
100
AcDbDimStyleTableRecord
2
STANDARD
70
0
3

4

5

6

7

40
1.0
41
0.18
42
0.0625
43
0.38
44
0.18
45
0.0
46
0.0
47
0.0050000000
48
0.0050000000
140
3.5000000000
141
0.09
142
0.0
143
25.4
144
1.0000000000
145
0.0
146
0.6000000000
147
0.09
71
1
72
0
73
1
74
1
75
0
76
0
77
0
78
0
170
0
171
2
172
0
173
0
174
0
175
0
176
0
177
0
178
0
270
2
271
3
272
4
273
2
274
2
340
11
275
0
280
0
281
0
282
0
283
1
284
0
285
0
286
0
287
3
288
0
0
ENDTAB
0
TABLE
2
BLOCK_RECORD
5
1
100
AcDbSymbolTable
70
0
0
BLOCK_RECORD
5
1B
100
AcDbSymbolTableRecord
100
AcDbBlockTableRecord
2
*MODEL_SPACE
0
BLOCK_RECORD
5
1C
100
AcDbSymbolTableRecord
100
AcDbBlockTableRecord
2
*PAPER_SPACE
0
ENDTAB
0
ENDSEC
0
SECTION
2
BLOCKS
0
BLOCK
5
1E
100
AcDbEntity
8
0
100
AcDbBlockBegin
2
*MODEL_SPACE
70
0
10
0.0
20
0.0
30
0.0
3
*MODEL_SPACE
1

0
ENDBLK
5
1F
100
AcDbEntity
8
0
100
AcDbBlockEnd
0
BLOCK
5
20
100
AcDbEntity
8
0
100
AcDbBlockBegin
2
*PAPER_SPACE
70
0
10
0.0
20
0.0
30
0.0
3
*PAPER_SPACE
1

0
ENDBLK
5
21
100
AcDbEntity
8
0
100
AcDbBlockEnd
0
ENDSEC
0
SECTION
2
ENTITIES
0
TEXT
5
200
100
AcDbEntity
8
0
100
AcDbText
62
2
6
CONTINUOUS
10
122.8898033090
20
168.4382627010
7
TEXTSTYLE_0
40
5.0000000000
1
VCÖH 10/VIP
50
90.0000000000
72
5
11
122.8898033090
21
210.0335007962
100
AcDbText
0
TEXT
5
201
100
AcDbEntity
8
0
100
AcDbText
62
2
6
CONTINUOUS
10
293.9043770671
20
234.9176575385
7
TEXTSTYLE_0
40
5.0000000000
1
VCÖH
50
90.0000000000
72
5
11
293.9043770671
21
250.6795623005
100
AcDbText
0
TEXT
5
202
100
AcDbEntity
8
0
100
AcDbText
62
2
6
CONTINUOUS
10
302.4428154671
20
234.0276791944
7
TEXTSTYLE_0
40
4.0000000000
1
10/VIP
50
90.0000000000
72
5
11
302.4428154671
21
251.5514887182
100
AcDbText
0
LINE
5
203
100
AcDbEntity
8
0
100
AcDbLine
62
7
6
CONTINUOUS
10
0.0000000000
20
0.0000000000
11
0.0000000000
21
297.0000000000
0
LINE
5
204
100
AcDbEntity
8
0
100
AcDbLine
62
7
6
CONTINUOUS
10
0.0000000000
20
0.0000000000
11
420.0000000000
21
0.0000000000
0
LINE
5
205
100
AcDbEntity
8
0
100
AcDbLine
62
7
6
CONTINUOUS
10
0.0000000000
20
297.0000000000
11
420.0000000000
21
297.0000000000
0
LINE
5
206
100
AcDbEntity
8
0
100
AcDbLine
62
7
6
CONTINUOUS
10
420.0000000000
20
0.0000000000
11
420.0000000000
21
297.0000000000
0
LINE
5
207
100
AcDbEntity
8
0
100
AcDbLine
62
7
6
CONTINUOUS
10
58.5593103064
20
138.1730243934
11
60.7582798801
21
120.2638544004
0
LINE
5
208
100
AcDbEntity
8
0
100
AcDbLine
62
7
6
CONTINUOUS
10
71.6096488018
20
163.5825592078
11
74.9976115385
21
175.3977893909
0
LINE
5
209
100
AcDbEntity
8
0
100
AcDbLine
62
7
6
CONTINUOUS
10
75.2291469174
20
176.2052492155
11
76.0395207435
21
179.0313586015
0
LINE
5
20A
100
AcDbEntity
8
0
100
AcDbLine
62
7
6
CONTINUOUS
10
74.5165981403
20
172.4142324180
11
74.1218106804
21
171.0374449282
0
LINE
5
20B
100
AcDbEntity
8
0
100
AcDbLine
62
7
6
CONTINUOUS
10
73.8859796383
20
170.2150043456
11
71.4760371738
21
161.8105361862
0
LINE
5
20C
100
AcDbEntity
8
0
100
AcDbLine
62
7
6
CONTINUOUS
10
71.2402071033
20
160.9880989918
11
70.8454196434
21
159.6113115021
0
LINE
5
20D
100
AcDbEntity
8
0
100
AcDbLine
62
7
6
CONTINUOUS
10
70.5484894706
20
158.5757929286
11
66.8197125379
21
145.5720023956
0
LINE
5
20E
100
AcDbEntity
8
0
100
AcDbLine
62
7
6
CONTINUOUS
10
74.8135283131
20
173.4497509915
11
75.7130198058
21
176.5866506154
0
LINE
5
20F
100
AcDbEntity
8
0
100
AcDbLine
62
7
6
CONTINUOUS
10
68.6738600842
20
141.1543174941
11
69.6817543293
21
144.6692624422
0
LINE
5
210
100
AcDbEntity
8
0
100
AcDbLine
62
7
6
CONTINUOUS
10
71.5576451721
20
140.3274054267
11
68.6738600842
21
141.1543174941
0
LINE
5
211
100
AcDbEntity
8
0
100
AcDbLine
62
7
6
CONTINUOUS
10
71.5576451721
20
140.3274054267
11
72.2191748260
21
142.6344334969
0
LINE
5
212
100
AcDbEntity
8
0
100
AcDbLine
62
7
6
CONTINUOUS
10
72.2191748260
20
142.6344334969
11
95.9229289357
21
189.6566839865
0
LINE
5
213
100
AcDbEntity
8
0
100
AcDbLine
62
7
6
CONTINUOUS
10
98.9933370978
20
192.1302336237
11
98.9933370978
21
194.1580603992
0
LINE
5
214
100
AcDbEntity
8
0
100
AcDbLine
62
7
6
CONTINUOUS
10
71.9557030123
20
163.4833297597
11
71.6096488018
21
163.5825592078
0
LINE
5
215
100
AcDbEntity
8
0
100
AcDbLine
62
7
6
CONTINUOUS
10
72.2179381341
20
164.3978523109
11
71.8718839235
21
164.4970817590
0
LINE
5
216
100
AcDbEntity
8
0
100
AcDbLine
62
7
6
CONTINUOUS
10
64.5274767691
20
149.3575009407
11
63.9773179745
21
149.0398666125
0
LINE
5
217
100
AcDbEntity
8
DEFAULT_1
100
AcDbLine
62
2
6
CENTER
10
110.9933370978
20
233.6580603992
11
110.9933370978
21
63.8281249041
0
LINE
5
218
100
AcDbEntity
8
DEFAULT_1
100
AcDbLine
62
2
6
CENTER
10
110.9933370978
20
233.6580603992
11
110.9933370978
21
255.6580603992
0
LINE
5
219
100
AcDbEntity
8
0
100
AcDbLine
62
7
6
CONTINUOUS
10
137.3959052335
20
208.3886498605
11
141.7498528173
21
215.9299082892
0
LINE
5
21A
100
AcDbEntity
8
0
100
AcDbLine
62
7
6
CONTINUOUS
10
75.1121303702
20
174.4911001182
11
74.7660761596
21
174.5903295663
0
LINE
5
21B
100
AcDbEntity
8
0
100
AcDbLine
62
7
6
CONTINUOUS
10
75.3436657490
20
175.2985599428
11
74.9976115385
21
175.3977893909
0
LINE
5
21C
100
AcDbEntity
8
0
100
AcDbLine
62
7
6
CONTINUOUS
10
75.5752011279
20
176.1060197674
11
75.2291469174
21
176.2052492155
0
LINE
5
21D
100
AcDbEntity
8
0
100
AcDbLine
62
7
6
CONTINUOUS
10
75.5924431237
20
176.1661497524
11
75.2463889131
21
176.2653792005
0
LINE
5
21E
100
AcDbEntity
8
0
100
AcDbLine
62
7
6
CONTINUOUS
10
75.6269271167
20
176.2864097278
11
75.2808729062
21
176.3856391759
0
LINE
5
21F
100
AcDbEntity
8
0
100
AcDbLine
62
7
6
CONTINUOUS
10
75.6958950997
20
176.5269296679
11
75.3498408892
21
176.6261591160
0
LINE
5
220
100
AcDbEntity
8
0
100
AcDbLine
62
7
6
CONTINUOUS
10
75.7642963142
20
176.7676121491
11
75.4188088782
21
176.8666790772
0
LINE
5
221
100
AcDbEntity
8
0
100
AcDbLine
62
7
6
CONTINUOUS
10
75.8470538768
20
177.0692520102
11
75.5050188495
21
177.1673289760
0
LINE
5
222
100
AcDbEntity
8
0
100
AcDbLine
62
7
6
CONTINUOUS
10
76.0765019409
20
177.9795695586
11
75.7636487873
21
178.0692787568
0
LINE
5
223
100
AcDbEntity
8
0
100
AcDbLine
62
7
6
CONTINUOUS
10
76.1466991865
20
178.2848112149
11
75.8498588068
21
178.3699288241
0
LINE
5
224
100
AcDbEntity
8
0
100
AcDbLine
62
7
6
CONTINUOUS
10
76.2005887885
20
178.5296547884
11
75.9188267838
21
178.6104487432
0
LINE
5
225
100
AcDbEntity
8
0
100
AcDbLine
62
7
6
CONTINUOUS
10
76.2524588390
20
178.7750774590
11
75.9877947608
21
178.8509686622
0
LINE
5
226
100
AcDbEntity
8
0
100
AcDbLine
62
7
6
CONTINUOUS
10
76.2776354231
20
178.8980062738
11
76.0222787493
21
178.9712286218
0
LINE
5
227
100
AcDbEntity
8
0
100
AcDbLine
62
7
6
CONTINUOUS
10
76.2900338943
20
178.9595251115
11
76.0395207435
21
179.0313586015
0
LINE
5
228
100
AcDbEntity
8
0
100
AcDbLine
62
7
6
CONTINUOUS
10
99.4416853317
20
185.6745007978
11
131.4816166916
21
144.6652587577
0
LINE
5
229
100
AcDbEntity
8
0
100
AcDbLine
62
7
6
CONTINUOUS
10
100.3153458270
20
186.3570791852
11
100.2822460780
21
186.3994449319
0
LINE
5
22A
100
AcDbEntity
8
0
100
AcDbLine
62
7
6
CONTINUOUS
10
144.3041729709
20
180.3541205740
11
144.3310967596
21
180.3385761173
0
LINE
5
22B
100
AcDbEntity
8
0
100
AcDbLine
62
7
6
CONTINUOUS
10
78.4045158373
20
207.0238596234
11
89.7497106560
21
203.7706773586
0
LINE
5
22C
100
AcDbEntity
8
0
100
AcDbLine
62
7
6
CONTINUOUS
10
144.7433370978
20
181.0525973282
11
144.7164133092
21
181.0681417848
0
LINE
5
22D
100
AcDbEntity
8
0
100
AcDbLine
62
7
6
CONTINUOUS
10
143.6713590434
20
223.4580603992
11
128.8172392626
21
223.4580603992
0
LINE
5
22E
100
AcDbEntity
8
DEFAULT_1
100
AcDbLine
62
2
6
CENTER
10
110.9933370978
20
233.6580603992
11
88.9933370978
21
233.6580603992
0
LINE
5
22F
100
AcDbEntity
8
DEFAULT_1
100
AcDbLine
62
2
6
CENTER
10
110.9933370978
20
233.6580603992
11
132.9933370978
21
233.6580603992
0
LINE
5
230
100
AcDbEntity
8
0
100
AcDbLine
62
7
6
CONTINUOUS
10
129.0402617216
20
243.4580603992
11
143.7935370709
21
243.4580603992
0
LINE
5
231
100
AcDbEntity
8
0
100
AcDbLine
62
7
6
CONTINUOUS
10
300.5826961134
20
68.9825410758
11
295.3771299929
21
68.1580603992
0
LINE
5
232
100
AcDbEntity
8
0
100
AcDbLine
62
7
6
CONTINUOUS
10
295.3771299929
20
68.1580603992
11
290.1715638724
21
68.9825410758
0
LINE
5
233
100
AcDbEntity
8
0
100
AcDbLine
62
7
6
CONTINUOUS
10
279.6866569459
20
217.6885108371
11
284.8176030399
21
220.0811102943
0
LINE
5
234
100
AcDbEntity
8
0
100
AcDbLine
62
7
6
CONTINUOUS
10
279.9097061752
20
207.0238596234
11
278.8771299929
21
203.7706773586
0
LINE
5
235
100
AcDbEntity
8
0
100
AcDbLine
62
7
6
CONTINUOUS
10
289.8771299929
20
140.3274054267
11
285.0761643404
21
140.3274054267
0
LINE
5
236
100
AcDbEntity
8
0
100
AcDbLine
62
7
6
CONTINUOUS
10
300.8771299929
20
140.3274054267
11
305.6780956455
21
140.3274054267
0
LINE
5
237
100
AcDbEntity
8
0
100
AcDbLine
62
7
6
CONTINUOUS
10
305.4087257212
20
141.1543174941
11
300.8771299929
21
141.1543174941
0
LINE
5
238
100
AcDbEntity
8
0
100
AcDbLine
62
7
6
CONTINUOUS
10
285.3455342646
20
141.1543174941
11
289.8771299929
21
141.1543174941
0
LINE
5
239
100
AcDbEntity
8
0
100
AcDbLine
62
7
6
CONTINUOUS
10
290.1715638724
20
68.9825410758
11
285.6458308736
21
87.1342646978
0
LINE
5
23A
100
AcDbEntity
8
0
100
AcDbLine
62
7
6
CONTINUOUS
10
278.5389662849
20
161.1344285619
11
278.0176044347
21
189.6566839865
0
LINE
5
23B
100
AcDbEntity
8
0
100
AcDbLine
62
7
6
CONTINUOUS
10
277.3771299929
20
209.9081463487
11
277.3771299929
21
173.1580603992
0
LINE
5
23C
100
AcDbEntity
8
0
100
AcDbLine
62
7
6
CONTINUOUS
10
277.3771299929
20
209.9838297300
11
277.3771299929
21
214.0632796890
0
LINE
5
23D
100
AcDbEntity
8
0
100
AcDbLine
62
7
6
CONTINUOUS
10
279.4020619741
20
176.1277139370
11
279.4020619741
21
176.5866506154
0
LINE
5
23E
100
AcDbEntity
8
0
100
AcDbLine
62
7
6
CONTINUOUS
10
282.3771299929
20
92.5518270994
11
282.3771299929
21
146.1023349804
0
LINE
5
23F
100
AcDbEntity
8
0
100
AcDbLine
62
7
6
CONTINUOUS
10
288.9350976929
20
148.7391070489
11
295.3771299929
21
149.7594247293
0
LINE
5
240
100
AcDbEntity
8
0
100
AcDbLine
62
7
6
CONTINUOUS
10
295.3771299929
20
149.7594247293
11
301.8191622929
21
148.7391070489
0
LINE
5
241
100
AcDbEntity
8
0
100
AcDbLine
62
7
6
CONTINUOUS
10
277.3771299929
20
173.1580603992
11
278.3753415728
21
170.0858810533
0
LINE
5
242
100
AcDbEntity
8
0
100
AcDbLine
62
7
6
CONTINUOUS
10
283.3230463342
20
142.6344334969
11
278.8314516423
21
159.1014372003
0
LINE
5
243
100
AcDbEntity
8
0
100
AcDbLine
62
7
6
CONTINUOUS
10
283.3230463342
20
142.6344334969
11
283.6084323337
21
141.4461769922
0
LINE
5
244
100
AcDbEntity
8
0
100
AcDbLine
62
7
6
CONTINUOUS
10
283.8778022579
20
142.2730890597
11
283.3023083869
21
144.6692624422
0
LINE
5
245
100
AcDbEntity
8
0
100
AcDbLine
62
7
6
CONTINUOUS
10
281.0254100588
20
156.0980254045
11
283.5534665725
21
145.5720023956
0
LINE
5
246
100
AcDbEntity
8
0
100
AcDbLine
62
7
6
CONTINUOUS
10
287.5106038074
20
128.2962711456
11
288.3132739902
21
120.4002029901
0
LINE
5
247
100
AcDbEntity
8
0
100
AcDbLine
62
7
6
CONTINUOUS
10
284.3738812263
20
163.1325675252
11
284.3580649524
21
163.3029049983
0
LINE
5
248
100
AcDbEntity
8
0
100
AcDbLine
62
7
6
CONTINUOUS
10
284.3770804519
20
158.8628960292
11
284.3769967090
21
158.8749316303
0
LINE
5
249
100
AcDbEntity
8
0
100
AcDbLine
62
7
6
CONTINUOUS
10
287.1271299929
20
223.7063414425
11
287.1271299929
21
267.8512256023
0
LINE
5
24A
100
AcDbEntity
8
0
100
AcDbLine
62
7
6
CONTINUOUS
10
287.3771299929
20
181.3865052673
11
287.3771299929
21
200.1974246144
0
LINE
5
24B
100
AcDbEntity
8
0
100
AcDbLine
62
7
6
CONTINUOUS
10
288.3771299929
20
183.2667760739
11
288.3771299929
21
200.1974246144
0
LINE
5
24C
100
AcDbEntity
8
0
100
AcDbLine
62
7
6
CONTINUOUS
10
288.9612256681
20
148.4774637519
11
288.9612256681
21
148.1598294238
0
LINE
5
24D
100
AcDbEntity
8
0
100
AcDbLine
62
7
6
CONTINUOUS
10
284.3734621563
20
172.6160628934
11
284.3770804519
21
172.7050644507
0
LINE
5
24E
100
AcDbEntity
8
0
100
AcDbLine
62
7
6
CONTINUOUS
10
293.1983799929
20
177.7084988782
11
293.3821299929
21
177.9490187973
0
LINE
5
24F
100
AcDbEntity
8
0
100
AcDbLine
62
7
6
CONTINUOUS
10
293.0146299929
20
178.0091487770
11
292.8921299345
21
177.8888888175
0
LINE
5
250
100
AcDbEntity
8
0
100
AcDbLine
62
7
6
CONTINUOUS
10
295.6483801097
20
176.7464191176
11
295.4646301097
21
176.6261591160
0
LINE
5
251
100
AcDbEntity
8
0
100
AcDbLine
62
7
6
CONTINUOUS
10
292.9533800513
20
177.5882389186
11
293.1983799929
21
177.7084988782
0
LINE
5
252
100
AcDbEntity
8
0
100
AcDbLine
62
7
6
CONTINUOUS
10
295.5258798761
20
176.2653792005
11
295.7708799929
21
176.3856391759
0
LINE
5
253
100
AcDbEntity
8
0
100
AcDbLine
62
7
6
CONTINUOUS
10
295.5258798761
20
176.1661497524
11
295.7708799929
21
176.2864097278
0
LINE
5
254
100
AcDbEntity
8
0
100
AcDbLine
62
7
6
CONTINUOUS
10
292.8921299345
20
177.8888888175
11
292.7083799345
21
177.8287588377
0
POLYLINE
5
255
100
AcDbEntity
8
0
100
AcDb2dPolyline
62
7
6
CONTINUOUS
66
1
70
0
0
VERTEX
5
256
100
AcDbEntity
8
0
100
AcDbVertex
62
7
6
CONTINUOUS
100
AcDb2dVertex
10
290.7571299929
20
165.7082714958
0
VERTEX
5
257
100
AcDbEntity
8
0
100
AcDbVertex
62
7
6
CONTINUOUS
100
AcDb2dVertex
10
290.7829331527
20
165.4676998711
0
VERTEX
5
258
100
AcDbEntity
8
0
100
AcDbVertex
62
7
6
CONTINUOUS
100
AcDb2dVertex
10
290.8530417819
20
165.2447692501
0
VERTEX
5
259
100
AcDbEntity
8
0
100
AcDbVertex
62
7
6
CONTINUOUS
100
AcDb2dVertex
10
290.9700547634
20
165.0357408027
0
VERTEX
5
25A
100
AcDbEntity
8
0
100
AcDbVertex
62
7
6
CONTINUOUS
100
AcDb2dVertex
10
291.1261754486
20
164.8518310196
0
VERTEX
5
25B
100
AcDbEntity
8
0
100
AcDbVertex
62
7
6
CONTINUOUS
100
AcDb2dVertex
10
291.3174966922
20
164.7017581849
0
VERTEX
5
25C
100
AcDbEntity
8
0
100
AcDbVertex
62
7
6
CONTINUOUS
100
AcDb2dVertex
10
291.5349488681
20
164.5892780880
0
VERTEX
5
25D
100
AcDbEntity
8
0
100
AcDbVertex
62
7
6
CONTINUOUS
100
AcDb2dVertex
10
291.7668634674
20
164.5218853481
0
VERTEX
5
25E
100
AcDbEntity
8
0
100
AcDbVertex
62
7
6
CONTINUOUS
100
AcDb2dVertex
10
292.0171299929
20
164.4970817590
0
SEQEND
5
25F
100
AcDbEntity
8
0
0
POLYLINE
5
260
100
AcDbEntity
8
0
100
AcDb2dPolyline
62
7
6
CONTINUOUS
66
1
70
0
0
VERTEX
5
261
100
AcDbEntity
8
0
100
AcDbVertex
62
7
6
CONTINUOUS
100
AcDb2dVertex
10
290.7571299929
20
165.6090420478
0
VERTEX
5
262
100
AcDbEntity
8
0
100
AcDbVertex
62
7
6
CONTINUOUS
100
AcDb2dVertex
10
290.7733017616
20
165.4173233218
0
VERTEX
5
263
100
AcDbEntity
8
0
100
AcDbVertex
62
7
6
CONTINUOUS
100
AcDb2dVertex
10
290.8187987824
20
165.2347638356
0
VERTEX
5
264
100
AcDbEntity
8
0
100
AcDbVertex
62
7
6
CONTINUOUS
100
AcDb2dVertex
10
290.8947159808
20
165.0592979219
0
VERTEX
5
265
100
AcDbEntity
8
0
100
AcDbVertex
62
7
6
CONTINUOUS
100
AcDb2dVertex
10
290.9977685800
20
164.8971225827
0
VERTEX
5
266
100
AcDbEntity
8
0
100
AcDbVertex
62
7
6
CONTINUOUS
100
AcDb2dVertex
10
291.1263771895
20
164.7527954973
0
VERTEX
5
267
100
AcDbEntity
8
0
100
AcDbVertex
62
7
6
CONTINUOUS
100
AcDb2dVertex
10
291.2765205750
20
164.6291689672
0
VERTEX
5
268
100
AcDbEntity
8
0
100
AcDbVertex
62
7
6
CONTINUOUS
100
AcDb2dVertex
10
291.4452314889
20
164.5301084510
0
VERTEX
5
269
100
AcDbEntity
8
0
100
AcDbVertex
62
7
6
CONTINUOUS
100
AcDb2dVertex
10
291.6277685800
20
164.4571321560
0
VERTEX
5
26A
100
AcDbEntity
8
0
100
AcDbVertex
62
7
6
CONTINUOUS
100
AcDb2dVertex
10
291.8176851105
20
164.4133976127
0
VERTEX
5
26B
100
AcDbEntity
8
0
100
AcDbVertex
62
7
6
CONTINUOUS
100
AcDb2dVertex
10
292.0171299929
20
164.3978523109
0
SEQEND
5
26C
100
AcDbEntity
8
0
0
POLYLINE
5
26D
100
AcDbEntity
8
0
100
AcDb2dPolyline
62
7
6
CONTINUOUS
66
1
70
0
0
VERTEX
5
26E
100
AcDbEntity
8
0
100
AcDbVertex
62
7
6
CONTINUOUS
100
AcDb2dVertex
10
291.5971299929
20
173.7828697417
0
VERTEX
5
26F
100
AcDbEntity
8
0
100
AcDbVertex
62
7
6
CONTINUOUS
100
AcDb2dVertex
10
291.5906523113
20
173.9241487511
0
VERTEX
5
270
100
AcDbEntity
8
0
100
AcDbVertex
62
7
6
CONTINUOUS
100
AcDb2dVertex
10
291.5716070180
20
174.0632975959
0
VERTEX
5
271
100
AcDbEntity
8
0
100
AcDbVertex
62
7
6
CONTINUOUS
100
AcDb2dVertex
10
291.5398501788
20
174.2008326362
0
VERTEX
5
272
100
AcDbEntity
8
0
100
AcDbVertex
62
7
6
CONTINUOUS
100
AcDb2dVertex
10
291.4958135958
20
174.3352047916
0
VERTEX
5
273
100
AcDbEntity
8
0
100
AcDbVertex
62
7
6
CONTINUOUS
100
AcDb2dVertex
10
291.4399290714
20
174.4648649816
0
VERTEX
5
274
100
AcDbEntity
8
0
100
AcDbVertex
62
7
6
CONTINUOUS
100
AcDb2dVertex
10
291.3720526713
20
174.5903295663
0
SEQEND
5
275
100
AcDbEntity
8
0
0
LINE
5
276
100
AcDbEntity
8
0
100
AcDbLine
62
7
6
CONTINUOUS
10
289.4971299929
20
174.4911001182
11
289.4971299929
21
175.3977893909
0
LINE
5
277
100
AcDbEntity
8
0
100
AcDbLine
62
7
6
CONTINUOUS
10
290.1715638724
20
68.9825410758
11
290.1715638724
21
94.1708058009
0
LINE
5
278
100
AcDbEntity
8
0
100
AcDbLine
62
7
6
CONTINUOUS
10
290.7571299929
20
173.7828697417
11
290.7571299929
21
165.7082714958
0
LINE
5
279
100
AcDbEntity
8
0
100
AcDbLine
62
7
6
CONTINUOUS
10
291.1771299929
20
176.1060197674
11
291.1771299929
21
179.0313586015
0
LINE
5
27A
100
AcDbEntity
8
0
100
AcDbLine
62
7
6
CONTINUOUS
10
291.5446299929
20
176.1060197674
11
291.5446299929
21
177.4679789591
0
LINE
5
27B
100
AcDbEntity
8
0
100
AcDbLine
62
7
6
CONTINUOUS
10
291.5446299929
20
177.8287588377
11
291.5446299929
21
178.7307087027
0
LINE
5
27C
100
AcDbEntity
8
0
100
AcDbLine
62
7
6
CONTINUOUS
10
291.5971299929
20
165.7082714958
11
291.5971299929
21
173.7828697417
0
LINE
5
27D
100
AcDbEntity
8
0
100
AcDbLine
62
7
6
CONTINUOUS
10
292.5858799637
20
177.3717911438
11
292.5858799637
21
177.4679789591
0
LINE
5
27E
100
AcDbEntity
8
0
100
AcDbLine
62
7
6
CONTINUOUS
10
292.7083799345
20
178.6522936749
11
292.7083799345
21
178.7307087027
0
LINE
5
27F
100
AcDbEntity
8
0
100
AcDbLine
62
7
6
CONTINUOUS
10
292.8921299345
20
178.5909561275
11
292.8921299345
21
178.6705787229
0
LINE
5
280
100
AcDbEntity
8
0
100
AcDbLine
62
7
6
CONTINUOUS
10
293.0758799345
20
178.3699288241
11
293.0758799345
21
178.1895387163
0
LINE
5
281
100
AcDbEntity
8
0
100
AcDbLine
62
7
6
CONTINUOUS
10
293.0758799345
20
176.1060197674
11
293.0758799345
21
176.2052492155
0
LINE
5
282
100
AcDbEntity
8
0
100
AcDbLine
62
7
6
CONTINUOUS
10
293.1983799929
20
177.6144702007
11
293.1983799929
21
177.7084988782
0
LINE
5
283
100
AcDbEntity
8
0
100
AcDbLine
62
7
6
CONTINUOUS
10
293.3821299929
20
177.8577255767
11
293.3821299929
21
177.9490187973
0
LINE
5
284
100
AcDbEntity
8
0
100
AcDbLine
62
7
6
CONTINUOUS
10
293.4433799345
20
178.1294087366
11
293.4433799345
21
178.3699288241
0
LINE
5
285
100
AcDbEntity
8
0
100
AcDbLine
62
7
6
CONTINUOUS
10
293.5046300513
20
176.1060197674
11
293.5046300513
21
176.2052492155
0
LINE
5
286
100
AcDbEntity
8
0
100
AcDbLine
62
7
6
CONTINUOUS
10
293.8651299929
20
166.0127719600
11
293.8651299929
21
169.3418407065
0
LINE
5
287
100
AcDbEntity
8
0
100
AcDbLine
62
7
6
CONTINUOUS
10
293.8651299929
20
170.0500710830
11
293.8651299929
21
173.3791398294
0
LINE
5
288
100
AcDbEntity
8
0
100
AcDbLine
62
7
6
CONTINUOUS
10
293.9946299345
20
179.0313586015
11
293.9946299345
21
177.1673289760
0
LINE
5
289
100
AcDbEntity
8
0
100
AcDbLine
62
7
6
CONTINUOUS
10
294.0558800513
20
176.7676121452
11
294.0558800513
21
176.8666790772
0
LINE
5
28A
100
AcDbEntity
8
0
100
AcDbLine
62
7
6
CONTINUOUS
10
294.1783801097
20
176.5269296679
11
294.1783801097
21
176.6261591160
0
LINE
5
28B
100
AcDbEntity
8
0
100
AcDbLine
62
7
6
CONTINUOUS
10
294.3621301097
20
177.1673289760
11
294.3621301097
21
179.0313586015
0
LINE
5
28C
100
AcDbEntity
8
0
100
AcDbLine
62
7
6
CONTINUOUS
10
294.4233798761
20
176.2864097278
11
294.4233798761
21
176.3856391759
0
LINE
5
28D
100
AcDbEntity
8
0
100
AcDbLine
62
7
6
CONTINUOUS
10
294.5371299929
20
166.7579692678
11
294.5371299929
21
168.6958728468
0
LINE
5
28E
100
AcDbEntity
8
0
100
AcDbLine
62
7
6
CONTINUOUS
10
294.5371299929
20
170.7952683907
11
294.5371299929
21
172.7331719698
0
LINE
5
28F
100
AcDbEntity
8
0
100
AcDbLine
62
7
6
CONTINUOUS
10
294.6683799929
20
176.1661497524
11
294.6683799929
21
176.2653792005
0
LINE
5
290
100
AcDbEntity
8
0
100
AcDbLine
62
7
6
CONTINUOUS
10
294.9571299929
20
163.4833297597
11
294.9571299929
21
163.7703679168
0
LINE
5
291
100
AcDbEntity
8
0
100
AcDbLine
62
7
6
CONTINUOUS
10
294.9746298761
20
176.1060197674
11
294.9746298761
21
176.2052492155
0
LINE
5
292
100
AcDbEntity
8
0
100
AcDbLine
62
7
6
CONTINUOUS
10
295.0411299929
20
171.4412362504
11
295.0411299929
21
170.7952683907
0
LINE
5
293
100
AcDbEntity
8
0
100
AcDbLine
62
7
6
CONTINUOUS
10
295.0411299929
20
170.1493005311
11
295.0411299929
21
169.3418407065
0
LINE
5
294
100
AcDbEntity
8
0
100
AcDbLine
62
7
6
CONTINUOUS
10
295.0411299929
20
167.9506755391
11
295.0411299929
21
168.6958728468
0
LINE
5
295
100
AcDbEntity
8
0
100
AcDbLine
62
7
6
CONTINUOUS
10
295.2196299929
20
176.1060197674
11
295.2196299929
21
176.2052492155
0
LINE
5
296
100
AcDbEntity
8
DEFAULT_1
100
AcDbLine
62
2
6
CENTER
10
295.3771299929
20
271.5696027470
11
295.3771299929
21
182.1580603992
0
LINE
5
297
100
AcDbEntity
8
DEFAULT_1
100
AcDbLine
62
2
6
CENTER
10
295.3771299929
20
181.6268135105
11
295.3771299929
21
149.3575009407
0
LINE
5
298
100
AcDbEntity
8
DEFAULT_1
100
AcDbLine
62
2
6
CENTER
10
295.3771299929
20
149.0398666125
11
295.3771299929
21
85.3098827209
0
LINE
5
299
100
AcDbEntity
8
0
100
AcDbLine
62
7
6
CONTINUOUS
10
295.3771299929
20
182.1580603992
11
295.3771299929
21
181.6268135105
0
LINE
5
29A
100
AcDbEntity
8
0
100
AcDbLine
62
7
6
CONTINUOUS
10
295.3771299929
20
149.3575009407
11
295.3771299929
21
149.0398666125
0
LINE
5
29B
100
AcDbEntity
8
0
100
AcDbLine
62
7
6
CONTINUOUS
10
295.5258798761
20
176.1661497524
11
295.5258798761
21
176.2653792005
0
LINE
5
29C
100
AcDbEntity
8
0
100
AcDbLine
62
7
6
CONTINUOUS
10
295.7131299929
20
167.9506755391
11
295.7131299929
21
168.6958728468
0
LINE
5
29D
100
AcDbEntity
8
0
100
AcDbLine
62
7
6
CONTINUOUS
10
295.7131299929
20
169.3418407065
11
295.7131299929
21
170.1493005311
0
LINE
5
29E
100
AcDbEntity
8
0
100
AcDbLine
62
7
6
CONTINUOUS
10
295.7131299929
20
170.7952683907
11
295.7131299929
21
171.4412362504
0
LINE
5
29F
100
AcDbEntity
8
0
100
AcDbLine
62
7
6
CONTINUOUS
10
295.7708799929
20
176.2864097278
11
295.7708799929
21
176.3856391759
0
LINE
5
2A0
100
AcDbEntity
8
0
100
AcDbLine
62
7
6
CONTINUOUS
10
295.7971299929
20
163.4833297597
11
295.7971299929
21
163.7703679168
0
LINE
5
2A1
100
AcDbEntity
8
0
100
AcDbLine
62
7
6
CONTINUOUS
10
295.8321301097
20
179.0313586015
11
295.8321301097
21
177.1673289760
0
LINE
5
2A2
100
AcDbEntity
8
0
100
AcDbLine
62
7
6
CONTINUOUS
10
296.0158801097
20
176.5269296679
11
296.0158801097
21
176.6261591160
0
LINE
5
2A3
100
AcDbEntity
8
0
100
AcDbLine
62
7
6
CONTINUOUS
10
296.1383799929
20
176.7676121491
11
296.1383799929
21
176.8666790772
0
LINE
5
2A4
100
AcDbEntity
8
0
100
AcDbLine
62
7
6
CONTINUOUS
10
296.1996301097
20
177.1673289760
11
296.1996301097
21
179.0313586015
0
LINE
5
2A5
100
AcDbEntity
8
0
100
AcDbLine
62
7
6
CONTINUOUS
10
296.2171299929
20
172.7331719698
11
296.2171299929
21
170.7952683907
0
LINE
5
2A6
100
AcDbEntity
8
0
100
AcDbLine
62
7
6
CONTINUOUS
10
296.2171299929
20
168.6958728468
11
296.2171299929
21
166.7579692678
0
LINE
5
2A7
100
AcDbEntity
8
0
100
AcDbLine
62
7
6
CONTINUOUS
10
287.5106038074
20
128.2962711456
11
288.3876323862
21
138.3079371283
0
LINE
5
2A8
100
AcDbEntity
8
0
100
AcDbLine
62
7
6
CONTINUOUS
10
286.6527493498
20
122.0920842645
11
287.5106038074
21
128.2962711456
0
LINE
5
2A9
100
AcDbEntity
8
0
100
AcDbLine
62
7
6
CONTINUOUS
10
296.1383799929
20
176.8666790772
11
296.1996301097
21
177.1673289760
0
LINE
5
2AA
100
AcDbEntity
8
0
100
AcDbLine
62
7
6
CONTINUOUS
10
295.8321301097
20
177.1673289760
11
295.7708799929
21
176.9268090569
0
LINE
5
2AB
100
AcDbEntity
8
0
100
AcDbLine
62
7
6
CONTINUOUS
10
293.0758799345
20
178.1895387163
11
293.0146299929
21
178.0091487770
0
LINE
5
2AC
100
AcDbEntity
8
0
100
AcDbLine
62
7
6
CONTINUOUS
10
293.3821299929
20
177.9490187973
11
293.4433799345
21
178.1294087366
0
LINE
5
2AD
100
AcDbEntity
8
0
100
AcDbLine
62
7
6
CONTINUOUS
10
296.0158801097
20
176.6261591160
11
296.1383799929
21
176.8666790772
0
LINE
5
2AE
100
AcDbEntity
8
0
100
AcDbLine
62
7
6
CONTINUOUS
10
296.0158801097
20
176.5269296679
11
296.0462967498
21
176.5866506154
0
LINE
5
2AF
100
AcDbEntity
8
0
100
AcDbLine
62
7
6
CONTINUOUS
10
298.9558797593
20
176.6261591160
11
299.0783799929
21
176.8666790772
0
LINE
5
2B0
100
AcDbEntity
8
0
100
AcDbLine
62
7
6
CONTINUOUS
10
298.9558797593
20
176.5269296679
11
298.9862963727
21
176.5866503923
0
POLYLINE
5
2B1
100
AcDbEntity
8
0
100
AcDb2dPolyline
62
7
6
CONTINUOUS
66
1
70
0
0
VERTEX
5
2B2
100
AcDbEntity
8
0
100
AcDbVertex
62
7
6
CONTINUOUS
100
AcDb2dVertex
10
299.3822073146
20
174.5903295663
0
VERTEX
5
2B3
100
AcDbEntity
8
0
100
AcDbVertex
62
7
6
CONTINUOUS
100
AcDb2dVertex
10
299.3143309145
20
174.4648649816
0
VERTEX
5
2B4
100
AcDbEntity
8
0
100
AcDbVertex
62
7
6
CONTINUOUS
100
AcDb2dVertex
10
299.2584463900
20
174.3352047916
0
VERTEX
5
2B5
100
AcDbEntity
8
0
100
AcDbVertex
62
7
6
CONTINUOUS
100
AcDb2dVertex
10
299.2144098071
20
174.2008326362
0
VERTEX
5
2B6
100
AcDbEntity
8
0
100
AcDbVertex
62
7
6
CONTINUOUS
100
AcDb2dVertex
10
299.1826529678
20
174.0632975959
0
VERTEX
5
2B7
100
AcDbEntity
8
0
100
AcDbVertex
62
7
6
CONTINUOUS
100
AcDb2dVertex
10
299.1636076745
20
173.9241487511
0
VERTEX
5
2B8
100
AcDbEntity
8
0
100
AcDbVertex
62
7
6
CONTINUOUS
100
AcDb2dVertex
10
299.1571299929
20
173.7828697417
0
SEQEND
5
2B9
100
AcDbEntity
8
0
0
LINE
5
2BA
100
AcDbEntity
8
0
100
AcDbLine
62
7
6
CONTINUOUS
10
295.7708799929
20
176.9268090569
11
295.6483801097
21
176.7464191176
0
LINE
5
2BB
100
AcDbEntity
8
0
100
AcDbLine
62
7
6
CONTINUOUS
10
298.7108799929
20
176.9268090569
11
298.5883797593
21
176.7464191176
0
LINE
5
2BC
100
AcDbEntity
8
0
100
AcDbLine
62
7
6
CONTINUOUS
10
295.7708799929
20
176.3856391759
11
296.0158801097
21
176.6261591160
0
LINE
5
2BD
100
AcDbEntity
8
0
100
AcDbLine
62
7
6
CONTINUOUS
10
295.7708799929
20
176.2864097278
11
296.0158801097
21
176.5269296679
0
LINE
5
2BE
100
AcDbEntity
8
0
100
AcDbLine
62
7
6
CONTINUOUS
10
298.7108799929
20
176.3856391759
11
298.9558797593
21
176.6261591160
0
LINE
5
2BF
100
AcDbEntity
8
0
100
AcDbLine
62
7
6
CONTINUOUS
10
298.7108799929
20
176.2864097278
11
298.9558797593
21
176.5269296679
0
LINE
5
2C0
100
AcDbEntity
8
0
100
AcDbLine
62
7
6
CONTINUOUS
10
298.5883797593
20
176.7464191176
11
298.4046297593
21
176.6261591160
0
LINE
5
2C1
100
AcDbEntity
8
0
100
AcDbLine
62
7
6
CONTINUOUS
10
298.4658802266
20
176.2653792005
11
298.7108799929
21
176.3856391759
0
LINE
5
2C2
100
AcDbEntity
8
0
100
AcDbLine
62
7
6
CONTINUOUS
10
298.4658802266
20
176.1661497524
11
298.7108799929
21
176.2864097278
0
POLYLINE
5
2C3
100
AcDbEntity
8
0
100
AcDb2dPolyline
62
7
6
CONTINUOUS
66
1
70
0
0
VERTEX
5
2C4
100
AcDbEntity
8
0
100
AcDbVertex
62
7
6
CONTINUOUS
100
AcDb2dVertex
10
298.7371299929
20
164.4970817590
0
VERTEX
5
2C5
100
AcDbEntity
8
0
100
AcDbVertex
62
7
6
CONTINUOUS
100
AcDb2dVertex
10
298.9873965185
20
164.5218853481
0
VERTEX
5
2C6
100
AcDbEntity
8
0
100
AcDbVertex
62
7
6
CONTINUOUS
100
AcDb2dVertex
10
299.2193111177
20
164.5892780880
0
VERTEX
5
2C7
100
AcDbEntity
8
0
100
AcDbVertex
62
7
6
CONTINUOUS
100
AcDb2dVertex
10
299.4367632936
20
164.7017581849
0
VERTEX
5
2C8
100
AcDbEntity
8
0
100
AcDbVertex
62
7
6
CONTINUOUS
100
AcDb2dVertex
10
299.6280845372
20
164.8518310196
0
VERTEX
5
2C9
100
AcDbEntity
8
0
100
AcDbVertex
62
7
6
CONTINUOUS
100
AcDb2dVertex
10
299.7842052224
20
165.0357408027
0
VERTEX
5
2CA
100
AcDbEntity
8
0
100
AcDbVertex
62
7
6
CONTINUOUS
100
AcDb2dVertex
10
299.9012182039
20
165.2447692501
0
VERTEX
5
2CB
100
AcDbEntity
8
0
100
AcDbVertex
62
7
6
CONTINUOUS
100
AcDb2dVertex
10
299.9713268331
20
165.4676998711
0
VERTEX
5
2CC
100
AcDbEntity
8
0
100
AcDbVertex
62
7
6
CONTINUOUS
100
AcDb2dVertex
10
299.9971299929
20
165.7082714958
0
SEQEND
5
2CD
100
AcDbEntity
8
0
0
POLYLINE
5
2CE
100
AcDbEntity
8
0
100
AcDb2dPolyline
62
7
6
CONTINUOUS
66
1
70
0
0
VERTEX
5
2CF
100
AcDbEntity
8
0
100
AcDbVertex
62
7
6
CONTINUOUS
100
AcDb2dVertex
10
296.5531299929
20
164.3978523109
0
VERTEX
5
2D0
100
AcDbEntity
8
0
100
AcDbVertex
62
7
6
CONTINUOUS
100
AcDb2dVertex
10
296.4029700776
20
164.3829701574
0
VERTEX
5
2D1
100
AcDbEntity
8
0
100
AcDbVertex
62
7
6
CONTINUOUS
100
AcDb2dVertex
10
296.2638213180
20
164.3425345135
0
VERTEX
5
2D2
100
AcDbEntity
8
0
100
AcDbVertex
62
7
6
CONTINUOUS
100
AcDb2dVertex
10
296.1333500125
20
164.2750464553
0
VERTEX
5
2D3
100
AcDbEntity
8
0
100
AcDbVertex
62
7
6
CONTINUOUS
100
AcDb2dVertex
10
296.0185572663
20
164.1850027545
0
VERTEX
5
2D4
100
AcDbEntity
8
0
100
AcDbVertex
62
7
6
CONTINUOUS
100
AcDb2dVertex
10
295.9248848552
20
164.0746568846
0
VERTEX
5
2D5
100
AcDbEntity
8
0
100
AcDbVertex
62
7
6
CONTINUOUS
100
AcDb2dVertex
10
295.8546770663
20
163.9492398162
0
VERTEX
5
2D6
100
AcDbEntity
8
0
100
AcDbVertex
62
7
6
CONTINUOUS
100
AcDb2dVertex
10
295.8126118888
20
163.8154814436
0
SEQEND
5
2D7
100
AcDbEntity
8
0
0
POLYLINE
5
2D8
100
AcDbEntity
8
0
100
AcDb2dPolyline
62
7
6
CONTINUOUS
66
1
70
0
0
VERTEX
5
2D9
100
AcDbEntity
8
0
100
AcDbVertex
62
7
6
CONTINUOUS
100
AcDb2dVertex
10
298.7371299929
20
164.3978523109
0
VERTEX
5
2DA
100
AcDbEntity
8
0
100
AcDbVertex
62
7
6
CONTINUOUS
100
AcDb2dVertex
10
298.9365748754
20
164.4133976127
0
VERTEX
5
2DB
100
AcDbEntity
8
0
100
AcDbVertex
62
7
6
CONTINUOUS
100
AcDb2dVertex
10
299.1264914058
20
164.4571321560
0
VERTEX
5
2DC
100
AcDbEntity
8
0
100
AcDbVertex
62
7
6
CONTINUOUS
100
AcDb2dVertex
10
299.3090284969
20
164.5301084510
0
VERTEX
5
2DD
100
AcDbEntity
8
0
100
AcDbVertex
62
7
6
CONTINUOUS
100
AcDb2dVertex
10
299.4777394108
20
164.6291689672
0
VERTEX
5
2DE
100
AcDbEntity
8
0
100
AcDbVertex
62
7
6
CONTINUOUS
100
AcDb2dVertex
10
299.6278827963
20
164.7527954973
0
VERTEX
5
2DF
100
AcDbEntity
8
0
100
AcDbVertex
62
7
6
CONTINUOUS
100
AcDb2dVertex
10
299.7564914058
20
164.8971225827
0
VERTEX
5
2E0
100
AcDbEntity
8
0
100
AcDbVertex
62
7
6
CONTINUOUS
100
AcDb2dVertex
10
299.8595440050
20
165.0592979219
0
VERTEX
5
2E1
100
AcDbEntity
8
0
100
AcDbVertex
62
7
6
CONTINUOUS
100
AcDb2dVertex
10
299.9354612034
20
165.2347638356
0
VERTEX
5
2E2
100
AcDbEntity
8
0
100
AcDbVertex
62
7
6
CONTINUOUS
100
AcDb2dVertex
10
299.9809582242
20
165.4173233218
0
VERTEX
5
2E3
100
AcDbEntity
8
0
100
AcDbVertex
62
7
6
CONTINUOUS
100
AcDb2dVertex
10
299.9971299929
20
165.6090420478
0
SEQEND
5
2E4
100
AcDbEntity
8
0
0
POLYLINE
5
2E5
100
AcDbEntity
8
0
100
AcDb2dPolyline
62
7
6
CONTINUOUS
66
1
70
0
0
VERTEX
5
2E6
100
AcDbEntity
8
0
100
AcDbVertex
62
7
6
CONTINUOUS
100
AcDb2dVertex
10
296.5531299929
20
165.3045415836
0
VERTEX
5
2E7
100
AcDbEntity
8
0
100
AcDbVertex
62
7
6
CONTINUOUS
100
AcDb2dVertex
10
296.3314476491
20
165.2894617778
0
VERTEX
5
2E8
100
AcDbEntity
8
0
100
AcDbVertex
62
7
6
CONTINUOUS
100
AcDb2dVertex
10
296.1180069765
20
165.2464239734
0
VERTEX
5
2E9
100
AcDbEntity
8
0
100
AcDbVertex
62
7
6
CONTINUOUS
100
AcDb2dVertex
10
295.9109036628
20
165.1746234160
0
VERTEX
5
2EA
100
AcDbEntity
8
0
100
AcDbVertex
62
7
6
CONTINUOUS
100
AcDb2dVertex
10
295.7158506448
20
165.0764743688
0
VERTEX
5
2EB
100
AcDbEntity
8
0
100
AcDbVertex
62
7
6
CONTINUOUS
100
AcDb2dVertex
10
295.5385608589
20
164.9543910954
0
VERTEX
5
2EC
100
AcDbEntity
8
0
100
AcDbVertex
62
7
6
CONTINUOUS
100
AcDb2dVertex
10
295.3771299929
20
164.8075688413
0
SEQEND
5
2ED
100
AcDbEntity
8
0
0
LINE
5
2EE
100
AcDbEntity
8
0
100
AcDbLine
62
7
6
CONTINUOUS
10
294.9571299929
20
163.4833297597
11
295.7971299929
21
163.4833297597
0
LINE
5
2EF
100
AcDbEntity
8
0
100
AcDbLine
62
7
6
CONTINUOUS
10
294.9571299929
20
163.5825592078
11
295.7971299929
21
163.5825592078
0
LINE
5
2F0
100
AcDbEntity
8
0
100
AcDbLine
62
7
6
CONTINUOUS
10
292.0171299929
20
164.3978523109
11
294.2011299929
21
164.3978523109
0
LINE
5
2F1
100
AcDbEntity
8
0
100
AcDbLine
62
7
6
CONTINUOUS
10
296.5531299929
20
164.3978523109
11
298.7371299929
21
164.3978523109
0
LINE
5
2F2
100
AcDbEntity
8
0
100
AcDbLine
62
7
6
CONTINUOUS
10
292.0171299929
20
164.4970817590
11
294.2011299929
21
164.4970817590
0
LINE
5
2F3
100
AcDbEntity
8
0
100
AcDbLine
62
7
6
CONTINUOUS
10
296.5531299929
20
164.4970817590
11
298.7371299929
21
164.4970817590
0
LINE
5
2F4
100
AcDbEntity
8
0
100
AcDbLine
62
7
6
CONTINUOUS
10
298.7371299929
20
165.3045415836
11
296.5531299929
21
165.3045415836
0
LINE
5
2F5
100
AcDbEntity
8
0
100
AcDbLine
62
7
6
CONTINUOUS
10
294.2011299929
20
165.3045415836
11
292.0171299929
21
165.3045415836
0
LINE
5
2F6
100
AcDbEntity
8
0
100
AcDbLine
62
7
6
CONTINUOUS
10
293.8651299929
20
166.0127719600
11
296.8891299929
21
166.0127719600
0
LINE
5
2F7
100
AcDbEntity
8
0
100
AcDbLine
62
7
6
CONTINUOUS
10
293.8651299929
20
166.1120014081
11
296.8891299929
21
166.1120014081
0
LINE
5
2F8
100
AcDbEntity
8
0
100
AcDbLine
62
7
6
CONTINUOUS
10
296.2171299929
20
166.7579692678
11
294.5371299929
21
166.7579692678
0
LINE
5
2F9
100
AcDbEntity
8
0
100
AcDbLine
62
7
6
CONTINUOUS
10
295.0411299929
20
167.9506755391
11
295.7131299929
21
167.9506755391
0
LINE
5
2FA
100
AcDbEntity
8
0
100
AcDbLine
62
7
6
CONTINUOUS
10
295.0411299929
20
168.0499049871
11
295.7131299929
21
168.0499049871
0
LINE
5
2FB
100
AcDbEntity
8
0
100
AcDbLine
62
7
6
CONTINUOUS
10
294.5371299929
20
168.5966433987
11
295.0411299929
21
168.5966433987
0
LINE
5
2FC
100
AcDbEntity
8
0
100
AcDbLine
62
7
6
CONTINUOUS
10
295.7131299929
20
168.5966433987
11
296.2171299929
21
168.5966433987
0
LINE
5
2FD
100
AcDbEntity
8
0
100
AcDbLine
62
7
6
CONTINUOUS
10
294.5371299929
20
168.6958728468
11
295.0411299929
21
168.6958728468
0
LINE
5
2FE
100
AcDbEntity
8
0
100
AcDbLine
62
7
6
CONTINUOUS
10
295.7131299929
20
168.6958728468
11
296.2171299929
21
168.6958728468
0
LINE
5
2FF
100
AcDbEntity
8
0
100
AcDbLine
62
7
6
CONTINUOUS
10
296.8891299929
20
169.3418407065
11
295.7131299929
21
169.3418407065
0
LINE
5
300
100
AcDbEntity
8
0
100
AcDbLine
62
7
6
CONTINUOUS
10
295.0411299929
20
169.3418407065
11
293.8651299929
21
169.3418407065
0
POLYLINE
5
301
100
AcDbEntity
8
0
100
AcDb2dPolyline
62
7
6
CONTINUOUS
66
1
70
0
0
VERTEX
5
302
100
AcDbEntity
8
0
100
AcDbVertex
62
7
6
CONTINUOUS
100
AcDb2dVertex
10
294.2011299929
20
164.4970817590
0
VERTEX
5
303
100
AcDbEntity
8
0
100
AcDbVertex
62
7
6
CONTINUOUS
100
AcDb2dVertex
10
294.4027905923
20
164.4694804789
0
VERTEX
5
304
100
AcDbEntity
8
0
100
AcDbVertex
62
7
6
CONTINUOUS
100
AcDb2dVertex
10
294.5791299929
20
164.3997205654
0
VERTEX
5
305
100
AcDbEntity
8
0
100
AcDbVertex
62
7
6
CONTINUOUS
100
AcDb2dVertex
10
294.7347822959
20
164.2833474346
0
VERTEX
5
306
100
AcDbEntity
8
0
100
AcDbVertex
62
7
6
CONTINUOUS
100
AcDb2dVertex
10
294.8558451982
20
164.1337248379
0
VERTEX
5
307
100
AcDbEntity
8
0
100
AcDbVertex
62
7
6
CONTINUOUS
100
AcDb2dVertex
10
294.9284163969
20
163.9642165266
0
VERTEX
5
308
100
AcDbEntity
8
0
100
AcDbVertex
62
7
6
CONTINUOUS
100
AcDb2dVertex
10
294.9571299929
20
163.7703679168
0
SEQEND
5
309
100
AcDbEntity
8
0
0
POLYLINE
5
30A
100
AcDbEntity
8
0
100
AcDb2dPolyline
62
7
6
CONTINUOUS
66
1
70
0
0
VERTEX
5
30B
100
AcDbEntity
8
0
100
AcDbVertex
62
7
6
CONTINUOUS
100
AcDb2dVertex
10
292.0171299929
20
165.3045415836
0
VERTEX
5
30C
100
AcDbEntity
8
0
100
AcDbVertex
62
7
6
CONTINUOUS
100
AcDb2dVertex
10
291.9050963266
20
165.3198756280
0
VERTEX
5
30D
100
AcDbEntity
8
0
100
AcDbVertex
62
7
6
CONTINUOUS
100
AcDb2dVertex
10
291.8071299929
20
165.3586311355
0
VERTEX
5
30E
100
AcDbEntity
8
0
100
AcDbVertex
62
7
6
CONTINUOUS
100
AcDb2dVertex
10
291.7206564913
20
165.4232828749
0
VERTEX
5
30F
100
AcDbEntity
8
0
100
AcDbVertex
62
7
6
CONTINUOUS
100
AcDb2dVertex
10
291.6533993233
20
165.5064065397
0
VERTEX
5
310
100
AcDbEntity
8
0
100
AcDbVertex
62
7
6
CONTINUOUS
100
AcDb2dVertex
10
291.6130819907
20
165.6005778238
0
SEQEND
5
311
100
AcDbEntity
8
0
0
POLYLINE
5
312
100
AcDbEntity
8
0
100
AcDb2dPolyline
62
7
6
CONTINUOUS
66
1
70
0
0
VERTEX
5
313
100
AcDbEntity
8
0
100
AcDbVertex
62
7
6
CONTINUOUS
100
AcDb2dVertex
10
295.3771299929
20
164.8075688413
0
VERTEX
5
314
100
AcDbEntity
8
0
100
AcDbVertex
62
7
6
CONTINUOUS
100
AcDb2dVertex
10
295.2156991269
20
164.9543910954
0
VERTEX
5
315
100
AcDbEntity
8
0
100
AcDbVertex
62
7
6
CONTINUOUS
100
AcDb2dVertex
10
295.0384093410
20
165.0764743688
0
VERTEX
5
316
100
AcDbEntity
8
0
100
AcDbVertex
62
7
6
CONTINUOUS
100
AcDb2dVertex
10
294.8433563230
20
165.1746234160
0
VERTEX
5
317
100
AcDbEntity
8
0
100
AcDbVertex
62
7
6
CONTINUOUS
100
AcDb2dVertex
10
294.6362530094
20
165.2464239734
0
VERTEX
5
318
100
AcDbEntity
8
0
100
AcDbVertex
62
7
6
CONTINUOUS
100
AcDb2dVertex
10
294.4228123367
20
165.2894617778
0
VERTEX
5
319
100
AcDbEntity
8
0
100
AcDbVertex
62
7
6
CONTINUOUS
100
AcDb2dVertex
10
294.2011299929
20
165.3045415836
0
SEQEND
5
31A
100
AcDbEntity
8
0
0
LINE
5
31B
100
AcDbEntity
8
0
100
AcDbLine
62
7
6
CONTINUOUS
10
292.8893720118
20
176.5866506154
11
293.0758799345
21
176.1060197674
0
LINE
5
31C
100
AcDbEntity
8
0
100
AcDbLine
62
7
6
CONTINUOUS
10
292.5858799637
20
177.4679789591
11
293.0758799345
21
176.2052492155
0
POLYLINE
5
31D
100
AcDbEntity
8
0
100
AcDb2dPolyline
62
7
6
CONTINUOUS
66
1
70
0
0
VERTEX
5
31E
100
AcDbEntity
8
0
100
AcDbVertex
62
7
6
CONTINUOUS
100
AcDb2dVertex
10
290.7399278864
20
173.8440213768
0
VERTEX
5
31F
100
AcDbEntity
8
0
100
AcDbVertex
62
7
6
CONTINUOUS
100
AcDb2dVertex
10
290.6931888002
20
173.9926417908
0
VERTEX
5
320
100
AcDbEntity
8
0
100
AcDbVertex
62
7
6
CONTINUOUS
100
AcDb2dVertex
10
290.6151801459
20
174.1319940891
0
VERTEX
5
321
100
AcDbEntity
8
0
100
AcDbVertex
62
7
6
CONTINUOUS
100
AcDb2dVertex
10
290.5110996891
20
174.2546006111
0
VERTEX
5
322
100
AcDbEntity
8
0
100
AcDbVertex
62
7
6
CONTINUOUS
100
AcDb2dVertex
10
290.3835521934
20
174.3546491676
0
VERTEX
5
323
100
AcDbEntity
8
0
100
AcDbVertex
62
7
6
CONTINUOUS
100
AcDb2dVertex
10
290.2385840761
20
174.4296358989
0
VERTEX
5
324
100
AcDbEntity
8
0
100
AcDbVertex
62
7
6
CONTINUOUS
100
AcDb2dVertex
10
290.0839743433
20
174.4745643921
0
VERTEX
5
325
100
AcDbEntity
8
0
100
AcDbVertex
62
7
6
CONTINUOUS
100
AcDb2dVertex
10
289.9171299929
20
174.4911001182
0
SEQEND
5
326
100
AcDbEntity
8
0
0
POLYLINE
5
327
100
AcDbEntity
8
0
100
AcDb2dPolyline
62
7
6
CONTINUOUS
66
1
70
0
0
VERTEX
5
328
100
AcDbEntity
8
0
100
AcDbVertex
62
7
6
CONTINUOUS
100
AcDb2dVertex
10
294.9416480970
20
163.8154814436
0
VERTEX
5
329
100
AcDbEntity
8
0
100
AcDbVertex
62
7
6
CONTINUOUS
100
AcDb2dVertex
10
294.8995829195
20
163.9492398162
0
VERTEX
5
32A
100
AcDbEntity
8
0
100
AcDbVertex
62
7
6
CONTINUOUS
100
AcDb2dVertex
10
294.8293751306
20
164.0746568846
0
VERTEX
5
32B
100
AcDbEntity
8
0
100
AcDbVertex
62
7
6
CONTINUOUS
100
AcDb2dVertex
10
294.7357027195
20
164.1850027545
0
VERTEX
5
32C
100
AcDbEntity
8
0
100
AcDbVertex
62
7
6
CONTINUOUS
100
AcDb2dVertex
10
294.6209099733
20
164.2750464553
0
VERTEX
5
32D
100
AcDbEntity
8
0
100
AcDbVertex
62
7
6
CONTINUOUS
100
AcDb2dVertex
10
294.4904386678
20
164.3425345135
0
VERTEX
5
32E
100
AcDbEntity
8
0
100
AcDbVertex
62
7
6
CONTINUOUS
100
AcDb2dVertex
10
294.3512899082
20
164.3829701574
0
VERTEX
5
32F
100
AcDbEntity
8
0
100
AcDbVertex
62
7
6
CONTINUOUS
100
AcDb2dVertex
10
294.2011299929
20
164.3978523109
0
SEQEND
5
330
100
AcDbEntity
8
0
0
LINE
5
331
100
AcDbEntity
8
0
100
AcDbLine
62
7
6
CONTINUOUS
10
293.9946299345
20
177.1673289760
11
294.0558800513
21
176.8666790772
0
LINE
5
332
100
AcDbEntity
8
0
100
AcDbLine
62
7
6
CONTINUOUS
10
291.6130819907
20
165.6005778238
11
291.5971299929
21
165.7082714958
0
LINE
5
333
100
AcDbEntity
8
0
100
AcDbLine
62
7
6
CONTINUOUS
10
303.2436561784
20
128.2962711456
11
302.3666275996
21
138.3079371283
0
LINE
5
334
100
AcDbEntity
8
0
100
AcDbLine
62
7
6
CONTINUOUS
10
296.6896299929
20
176.1060197674
11
296.6896299929
21
179.0313586015
0
LINE
5
335
100
AcDbEntity
8
0
100
AcDbLine
62
7
6
CONTINUOUS
10
296.8891299929
20
166.0127719600
11
296.8891299929
21
169.3418407065
0
LINE
5
336
100
AcDbEntity
8
0
100
AcDbLine
62
7
6
CONTINUOUS
10
296.8891299929
20
170.0500710830
11
296.8891299929
21
173.3791398294
0
LINE
5
337
100
AcDbEntity
8
0
100
AcDbLine
62
7
6
CONTINUOUS
10
297.0571299929
20
176.5660291362
11
297.0571299929
21
178.6705787229
0
LINE
5
338
100
AcDbEntity
8
0
100
AcDbLine
62
7
6
CONTINUOUS
10
298.1596299929
20
176.1060197674
11
298.1596299929
21
176.2052492155
0
LINE
5
339
100
AcDbEntity
8
0
100
AcDbLine
62
7
6
CONTINUOUS
10
298.1596299929
20
178.5909561275
11
298.1596299929
21
178.6705787229
0
LINE
5
33A
100
AcDbEntity
8
0
100
AcDbLine
62
7
6
CONTINUOUS
10
298.4046297593
20
178.5296547884
11
298.4046297593
21
178.6104487432
0
LINE
5
33B
100
AcDbEntity
8
0
100
AcDbLine
62
7
6
CONTINUOUS
10
298.4658802266
20
176.1661497524
11
298.4658802266
21
176.2653792005
0
LINE
5
33C
100
AcDbEntity
8
0
100
AcDbLine
62
7
6
CONTINUOUS
10
298.5883797593
20
178.4071606743
11
298.5883797593
21
178.4901887836
0
LINE
5
33D
100
AcDbEntity
8
0
100
AcDbLine
62
7
6
CONTINUOUS
10
298.7108799929
20
176.2864097278
11
298.7108799929
21
176.3856391759
0
LINE
5
33E
100
AcDbEntity
8
0
100
AcDbLine
62
7
6
CONTINUOUS
10
298.7721297593
20
178.0692787568
11
298.7721297593
21
177.1673289760
0
LINE
5
33F
100
AcDbEntity
8
0
100
AcDbLine
62
7
6
CONTINUOUS
10
298.9558797593
20
176.5269296679
11
298.9558797593
21
176.6261591160
0
LINE
5
340
100
AcDbEntity
8
0
100
AcDbLine
62
7
6
CONTINUOUS
10
299.0783799929
20
176.7676121491
11
299.0783799929
21
176.8666790772
0
LINE
5
341
100
AcDbEntity
8
0
100
AcDbLine
62
7
6
CONTINUOUS
10
299.1396297593
20
177.1673289760
11
299.1396297593
21
178.0692787568
0
LINE
5
342
100
AcDbEntity
8
0
100
AcDbLine
62
7
6
CONTINUOUS
10
299.1571299929
20
173.7828697417
11
299.1571299929
21
165.7082714958
0
LINE
5
343
100
AcDbEntity
8
0
100
AcDbLine
62
7
6
CONTINUOUS
10
299.9971299929
20
165.7082714958
11
299.9971299929
21
173.7828697417
0
LINE
5
344
100
AcDbEntity
8
0
100
AcDbLine
62
7
6
CONTINUOUS
10
300.5826961134
20
68.9825410758
11
300.5826961134
21
94.1708058009
0
LINE
5
345
100
AcDbEntity
8
0
100
AcDbLine
62
7
6
CONTINUOUS
10
301.2571299929
20
174.4911001182
11
301.2571299929
21
175.3977893909
0
LINE
5
346
100
AcDbEntity
8
0
100
AcDbLine
62
7
6
CONTINUOUS
10
301.7930343177
20
148.4774637519
11
301.7930343177
21
148.1598294238
0
LINE
5
347
100
AcDbEntity
8
0
100
AcDbLine
62
7
6
CONTINUOUS
10
302.3771299929
20
183.2667760739
11
302.3771299929
21
200.1974246144
0
POLYLINE
5
348
100
AcDbEntity
8
0
100
AcDb2dPolyline
62
7
6
CONTINUOUS
66
1
70
0
0
VERTEX
5
349
100
AcDbEntity
8
0
100
AcDbVertex
62
7
6
CONTINUOUS
100
AcDb2dVertex
10
295.7971299929
20
163.7703679168
0
VERTEX
5
34A
100
AcDbEntity
8
0
100
AcDbVertex
62
7
6
CONTINUOUS
100
AcDb2dVertex
10
295.8258435890
20
163.9642165266
0
VERTEX
5
34B
100
AcDbEntity
8
0
100
AcDbVertex
62
7
6
CONTINUOUS
100
AcDb2dVertex
10
295.8984147876
20
164.1337248379
0
VERTEX
5
34C
100
AcDbEntity
8
0
100
AcDbVertex
62
7
6
CONTINUOUS
100
AcDb2dVertex
10
296.0194776899
20
164.2833474346
0
VERTEX
5
34D
100
AcDbEntity
8
0
100
AcDbVertex
62
7
6
CONTINUOUS
100
AcDb2dVertex
10
296.1751299929
20
164.3997205654
0
VERTEX
5
34E
100
AcDbEntity
8
0
100
AcDbVertex
62
7
6
CONTINUOUS
100
AcDb2dVertex
10
296.3514693936
20
164.4694804789
0
VERTEX
5
34F
100
AcDbEntity
8
0
100
AcDbVertex
62
7
6
CONTINUOUS
100
AcDb2dVertex
10
296.5531299929
20
164.4970817590
0
SEQEND
5
350
100
AcDbEntity
8
0
0
POLYLINE
5
351
100
AcDbEntity
8
0
100
AcDb2dPolyline
62
7
6
CONTINUOUS
66
1
70
0
0
VERTEX
5
352
100
AcDbEntity
8
0
100
AcDbVertex
62
7
6
CONTINUOUS
100
AcDb2dVertex
10
299.9971299929
20
173.7828697417
0
VERTEX
5
353
100
AcDbEntity
8
0
100
AcDbVertex
62
7
6
CONTINUOUS
100
AcDb2dVertex
10
300.0290339885
20
173.9982570859
0
VERTEX
5
354
100
AcDbEntity
8
0
100
AcDbVertex
62
7
6
CONTINUOUS
100
AcDb2dVertex
10
300.1096686537
20
174.1865996540
0
VERTEX
5
355
100
AcDbEntity
8
0
100
AcDbVertex
62
7
6
CONTINUOUS
100
AcDb2dVertex
10
300.2441829896
20
174.3528469837
0
VERTEX
5
356
100
AcDbEntity
8
0
100
AcDbVertex
62
7
6
CONTINUOUS
100
AcDb2dVertex
10
300.4171299929
20
174.4821504624
0
VERTEX
5
357
100
AcDbEntity
8
0
100
AcDbVertex
62
7
6
CONTINUOUS
100
AcDb2dVertex
10
300.6130626603
20
174.5596614774
0
VERTEX
5
358
100
AcDbEntity
8
0
100
AcDbVertex
62
7
6
CONTINUOUS
100
AcDb2dVertex
10
300.8371299929
20
174.5903295663
0
SEQEND
5
359
100
AcDbEntity
8
0
0
POLYLINE
5
35A
100
AcDbEntity
8
0
100
AcDb2dPolyline
62
7
6
CONTINUOUS
66
1
70
0
0
VERTEX
5
35B
100
AcDbEntity
8
0
100
AcDbVertex
62
7
6
CONTINUOUS
100
AcDb2dVertex
10
299.1571299929
20
165.7082714958
0
VERTEX
5
35C
100
AcDbEntity
8
0
100
AcDbVertex
62
7
6
CONTINUOUS
100
AcDb2dVertex
10
299.1411779951
20
165.6005778238
0
VERTEX
5
35D
100
AcDbEntity
8
0
100
AcDbVertex
62
7
6
CONTINUOUS
100
AcDb2dVertex
10
299.1008606625
20
165.5064065397
0
VERTEX
5
35E
100
AcDbEntity
8
0
100
AcDbVertex
62
7
6
CONTINUOUS
100
AcDb2dVertex
10
299.0336034946
20
165.4232828749
0
VERTEX
5
35F
100
AcDbEntity
8
0
100
AcDbVertex
62
7
6
CONTINUOUS
100
AcDb2dVertex
10
298.9471299929
20
165.3586311355
0
VERTEX
5
360
100
AcDbEntity
8
0
100
AcDbVertex
62
7
6
CONTINUOUS
100
AcDb2dVertex
10
298.8491636592
20
165.3198756280
0
VERTEX
5
361
100
AcDbEntity
8
0
100
AcDbVertex
62
7
6
CONTINUOUS
100
AcDb2dVertex
10
298.7371299929
20
165.3045415836
0
SEQEND
5
362
100
AcDbEntity
8
0
0
LINE
5
363
100
AcDbEntity
8
0
100
AcDbLine
62
7
6
CONTINUOUS
10
299.0783799929
20
176.8666790772
11
299.1396297593
21
177.1673289760
0
LINE
5
364
100
AcDbEntity
8
0
100
AcDbLine
62
7
6
CONTINUOUS
10
298.7721297593
20
177.1673289760
11
298.7108799929
21
176.9268090569
0
LINE
5
365
100
AcDbEntity
8
0
100
AcDbLine
62
7
6
CONTINUOUS
10
298.4046297593
20
176.6261591160
11
298.1596299929
21
176.5660291362
0
LINE
5
366
100
AcDbEntity
8
0
100
AcDbLine
62
7
6
CONTINUOUS
10
295.4646301097
20
176.6261591160
11
295.2196299929
21
176.5660291362
0
LINE
5
367
100
AcDbEntity
8
0
100
AcDbLine
62
7
6
CONTINUOUS
10
298.1596299929
20
176.1060197674
11
298.4658802266
21
176.1661497524
0
LINE
5
368
100
AcDbEntity
8
0
100
AcDbLine
62
7
6
CONTINUOUS
10
298.1596299929
20
176.2052492155
11
298.4658802266
21
176.2653792005
0
LINE
5
369
100
AcDbEntity
8
0
100
AcDbLine
62
7
6
CONTINUOUS
10
295.2196299929
20
176.1060197674
11
295.5258798761
21
176.1661497524
0
LINE
5
36A
100
AcDbEntity
8
0
100
AcDbLine
62
7
6
CONTINUOUS
10
295.2196299929
20
176.2052492155
11
295.5258798761
21
176.2653792005
0
POLYLINE
5
36B
100
AcDbEntity
8
0
100
AcDb2dPolyline
62
7
6
CONTINUOUS
66
1
70
0
0
VERTEX
5
36C
100
AcDbEntity
8
0
100
AcDbVertex
62
7
6
CONTINUOUS
100
AcDb2dVertex
10
300.8371299929
20
174.4911001182
0
VERTEX
5
36D
100
AcDbEntity
8
0
100
AcDbVertex
62
7
6
CONTINUOUS
100
AcDb2dVertex
10
300.6702856425
20
174.4745643921
0
VERTEX
5
36E
100
AcDbEntity
8
0
100
AcDbVertex
62
7
6
CONTINUOUS
100
AcDb2dVertex
10
300.5156759097
20
174.4296358989
0
VERTEX
5
36F
100
AcDbEntity
8
0
100
AcDbVertex
62
7
6
CONTINUOUS
100
AcDb2dVertex
10
300.3707077925
20
174.3546491676
0
VERTEX
5
370
100
AcDbEntity
8
0
100
AcDbVertex
62
7
6
CONTINUOUS
100
AcDb2dVertex
10
300.2431602967
20
174.2546006111
0
VERTEX
5
371
100
AcDbEntity
8
0
100
AcDbVertex
62
7
6
CONTINUOUS
100
AcDb2dVertex
10
300.1390798399
20
174.1319940891
0
VERTEX
5
372
100
AcDbEntity
8
0
100
AcDbVertex
62
7
6
CONTINUOUS
100
AcDb2dVertex
10
300.0610711856
20
173.9926417908
0
VERTEX
5
373
100
AcDbEntity
8
0
100
AcDbVertex
62
7
6
CONTINUOUS
100
AcDb2dVertex
10
300.0143320995
20
173.8440213768
0
VERTEX
5
374
100
AcDbEntity
8
0
100
AcDbVertex
62
7
6
CONTINUOUS
100
AcDb2dVertex
10
300.0076520673
20
173.7817411682
0
SEQEND
5
375
100
AcDbEntity
8
0
0
POLYLINE
5
376
100
AcDbEntity
8
0
100
AcDb2dPolyline
62
7
6
CONTINUOUS
66
1
70
0
0
VERTEX
5
377
100
AcDbEntity
8
0
100
AcDbVertex
62
7
6
CONTINUOUS
100
AcDb2dVertex
10
311.3521980118
20
176.1277139370
0
VERTEX
5
378
100
AcDbEntity
8
0
100
AcDbVertex
62
7
6
CONTINUOUS
100
AcDb2dVertex
10
310.6664400202
20
176.0735184826
0
VERTEX
5
379
100
AcDbEntity
8
0
100
AcDbVertex
62
7
6
CONTINUOUS
100
AcDb2dVertex
10
309.9848781913
20
175.9756075620
0
VERTEX
5
37A
100
AcDbEntity
8
0
100
AcDbVertex
62
7
6
CONTINUOUS
100
AcDb2dVertex
10
309.3049103090
20
175.8335257561
0
VERTEX
5
37B
100
AcDbEntity
8
0
100
AcDbVertex
62
7
6
CONTINUOUS
100
AcDb2dVertex
10
308.6343430215
20
175.6486393227
0
VERTEX
5
37C
100
AcDbEntity
8
0
100
AcDbVertex
62
7
6
CONTINUOUS
100
AcDb2dVertex
10
307.9784322495
20
175.4210085084
0
VERTEX
5
37D
100
AcDbEntity
8
0
100
AcDbVertex
62
7
6
CONTINUOUS
100
AcDb2dVertex
10
307.3422279595
20
175.1540959286
0
VERTEX
5
37E
100
AcDbEntity
8
0
100
AcDbVertex
62
7
6
CONTINUOUS
100
AcDb2dVertex
10
306.7341146669
20
174.8520461452
0
VERTEX
5
37F
100
AcDbEntity
8
0
100
AcDbVertex
62
7
6
CONTINUOUS
100
AcDb2dVertex
10
306.1493446459
20
174.5128735651
0
VERTEX
5
380
100
AcDbEntity
8
0
100
AcDbVertex
62
7
6
CONTINUOUS
100
AcDb2dVertex
10
305.5881275733
20
174.1393186330
0
VERTEX
5
381
100
AcDbEntity
8
0
100
AcDbVertex
62
7
6
CONTINUOUS
100
AcDb2dVertex
10
305.0439757574
20
173.7213477971
0
VERTEX
5
382
100
AcDbEntity
8
0
100
AcDbVertex
62
7
6
CONTINUOUS
100
AcDb2dVertex
10
304.5093386317
20
173.2535667922
0
VERTEX
5
383
100
AcDbEntity
8
0
100
AcDbVertex
62
7
6
CONTINUOUS
100
AcDb2dVertex
10
303.9876144976
20
172.7247982031
0
VERTEX
5
384
100
AcDbEntity
8
0
100
AcDbVertex
62
7
6
CONTINUOUS
100
AcDb2dVertex
10
303.4756208617
20
172.1258302508
0
VERTEX
5
385
100
AcDbEntity
8
0
100
AcDbVertex
62
7
6
CONTINUOUS
100
AcDb2dVertex
10
302.9855495423
20
171.4453717615
0
VERTEX
5
386
100
AcDbEntity
8
0
100
AcDbVertex
62
7
6
CONTINUOUS
100
AcDb2dVertex
10
302.5193734815
20
170.6637774793
0
VERTEX
5
387
100
AcDbEntity
8
0
100
AcDbVertex
62
7
6
CONTINUOUS
100
AcDb2dVertex
10
302.1045668141
20
169.7968978714
0
VERTEX
5
388
100
AcDbEntity
8
0
100
AcDbVertex
62
7
6
CONTINUOUS
100
AcDb2dVertex
10
301.7644881083
20
168.8429442368
0
VERTEX
5
389
100
AcDbEntity
8
0
100
AcDbVertex
62
7
6
CONTINUOUS
100
AcDb2dVertex
10
301.5134570071
20
167.8351888244
0
VERTEX
5
38A
100
AcDbEntity
8
0
100
AcDbVertex
62
7
6
CONTINUOUS
100
AcDb2dVertex
10
301.3754794044
20
166.7997732750
0
VERTEX
5
38B
100
AcDbEntity
8
0
100
AcDbVertex
62
7
6
CONTINUOUS
100
AcDb2dVertex
10
301.3448551161
20
165.7563007124
0
VERTEX
5
38C
100
AcDbEntity
8
0
100
AcDbVertex
62
7
6
CONTINUOUS
100
AcDb2dVertex
10
301.4303855668
20
164.7232833317
0
VERTEX
5
38D
100
AcDbEntity
8
0
100
AcDbVertex
62
7
6
CONTINUOUS
100
AcDb2dVertex
10
301.6125718241
20
163.7301355595
0
VERTEX
5
38E
100
AcDbEntity
8
0
100
AcDbVertex
62
7
6
CONTINUOUS
100
AcDb2dVertex
10
301.8826390850
20
162.8118689080
0
VERTEX
5
38F
100
AcDbEntity
8
0
100
AcDbVertex
62
7
6
CONTINUOUS
100
AcDb2dVertex
10
302.2172163856
20
161.9702043151
0
VERTEX
5
390
100
AcDbEntity
8
0
100
AcDbVertex
62
7
6
CONTINUOUS
100
AcDb2dVertex
10
302.5917139216
20
161.2249056839
0
VERTEX
5
391
100
AcDbEntity
8
0
100
AcDbVertex
62
7
6
CONTINUOUS
100
AcDb2dVertex
10
303.0010134112
20
160.5568556310
0
VERTEX
5
392
100
AcDbEntity
8
0
100
AcDbVertex
62
7
6
CONTINUOUS
100
AcDb2dVertex
10
303.4312471510
20
159.9567165236
0
VERTEX
5
393
100
AcDbEntity
8
0
100
AcDbVertex
62
7
6
CONTINUOUS
100
AcDb2dVertex
10
303.8840736017
20
159.4149130123
0
VERTEX
5
394
100
AcDbEntity
8
0
100
AcDbVertex
62
7
6
CONTINUOUS
100
AcDb2dVertex
10
304.3543319761
20
158.9209085471
0
VERTEX
5
395
100
AcDbEntity
8
0
100
AcDbVertex
62
7
6
CONTINUOUS
100
AcDb2dVertex
10
304.8486123147
20
158.4682490974
0
VERTEX
5
396
100
AcDbEntity
8
0
100
AcDbVertex
62
7
6
CONTINUOUS
100
AcDb2dVertex
10
305.3717061788
20
158.0460555389
0
VERTEX
5
397
100
AcDbEntity
8
0
100
AcDbVertex
62
7
6
CONTINUOUS
100
AcDb2dVertex
10
305.9238482197
20
157.6570666027
0
VERTEX
5
398
100
AcDbEntity
8
0
100
AcDbVertex
62
7
6
CONTINUOUS
100
AcDb2dVertex
10
306.5094090766
20
157.2986134147
0
VERTEX
5
399
100
AcDbEntity
8
0
100
AcDbVertex
62
7
6
CONTINUOUS
100
AcDb2dVertex
10
307.1207723478
20
156.9760396667
0
VERTEX
5
39A
100
AcDbEntity
8
0
100
AcDbVertex
62
7
6
CONTINUOUS
100
AcDb2dVertex
10
307.7535063183
20
156.6935187014
0
VERTEX
5
39B
100
AcDbEntity
8
0
100
AcDbVertex
62
7
6
CONTINUOUS
100
AcDb2dVertex
10
308.4024275677
20
156.4518926922
0
VERTEX
5
39C
100
AcDbEntity
8
0
100
AcDbVertex
62
7
6
CONTINUOUS
100
AcDb2dVertex
10
309.0600428549
20
156.2536740875
0
VERTEX
5
39D
100
AcDbEntity
8
0
100
AcDbVertex
62
7
6
CONTINUOUS
100
AcDb2dVertex
10
309.7288499270
20
156.0980254045
0
SEQEND
5
39E
100
AcDbEntity
8
0
0
LINE
5
39F
100
AcDbEntity
8
0
100
AcDbLine
62
7
6
CONTINUOUS
10
293.8651299929
20
170.0500710830
11
295.0411299929
21
170.0500710830
0
LINE
5
3A0
100
AcDbEntity
8
0
100
AcDbLine
62
7
6
CONTINUOUS
10
295.7131299929
20
170.0500710830
11
296.8891299929
21
170.0500710830
0
LINE
5
3A1
100
AcDbEntity
8
0
100
AcDbLine
62
7
6
CONTINUOUS
10
293.8651299929
20
170.1493005311
11
295.0411299929
21
170.1493005311
0
LINE
5
3A2
100
AcDbEntity
8
0
100
AcDbLine
62
7
6
CONTINUOUS
10
295.7131299929
20
170.1493005311
11
296.8891299929
21
170.1493005311
0
LINE
5
3A3
100
AcDbEntity
8
0
100
AcDbLine
62
7
6
CONTINUOUS
10
296.2171299929
20
170.7952683907
11
295.7131299929
21
170.7952683907
0
LINE
5
3A4
100
AcDbEntity
8
0
100
AcDbLine
62
7
6
CONTINUOUS
10
295.0411299929
20
170.7952683907
11
294.5371299929
21
170.7952683907
0
LINE
5
3A5
100
AcDbEntity
8
0
100
AcDbLine
62
7
6
CONTINUOUS
10
295.7131299929
20
171.4412362504
11
295.0411299929
21
171.4412362504
0
LINE
5
3A6
100
AcDbEntity
8
0
100
AcDbLine
62
7
6
CONTINUOUS
10
294.5371299929
20
172.6339425217
11
296.2171299929
21
172.6339425217
0
LINE
5
3A7
100
AcDbEntity
8
0
100
AcDbLine
62
7
6
CONTINUOUS
10
294.5371299929
20
172.7331719698
11
296.2171299929
21
172.7331719698
0
LINE
5
3A8
100
AcDbEntity
8
0
100
AcDbLine
62
7
6
CONTINUOUS
10
296.8891299929
20
173.3791398294
11
293.8651299929
21
173.3791398294
0
LINE
5
3A9
100
AcDbEntity
8
0
100
AcDbLine
62
7
6
CONTINUOUS
10
289.4971299929
20
174.4911001182
11
289.9171299929
21
174.4911001182
0
LINE
5
3AA
100
AcDbEntity
8
0
100
AcDbLine
62
7
6
CONTINUOUS
10
291.4257358499
20
174.4911001182
11
299.3285241359
21
174.4911001182
0
LINE
5
3AB
100
AcDbEntity
8
0
100
AcDbLine
62
7
6
CONTINUOUS
10
300.8371299929
20
174.4911001182
11
301.2571299929
21
174.4911001182
0
LINE
5
3AC
100
AcDbEntity
8
0
100
AcDbLine
62
7
6
CONTINUOUS
10
289.4971299929
20
174.5903295663
11
289.9171299929
21
174.5903295663
0
LINE
5
3AD
100
AcDbEntity
8
0
100
AcDbLine
62
7
6
CONTINUOUS
10
291.3720526713
20
174.5903295663
11
299.3822073146
21
174.5903295663
0
LINE
5
3AE
100
AcDbEntity
8
0
100
AcDbLine
62
7
6
CONTINUOUS
10
300.8371299929
20
174.5903295663
11
301.2571299929
21
174.5903295663
0
LINE
5
3AF
100
AcDbEntity
8
0
100
AcDbLine
62
7
6
CONTINUOUS
10
301.2571299929
20
175.3977893909
11
289.4971299929
21
175.3977893909
0
LINE
5
3B0
100
AcDbEntity
8
0
100
AcDbLine
62
7
6
CONTINUOUS
10
291.1771299929
20
176.1060197674
11
291.5446299929
21
176.1060197674
0
LINE
5
3B1
100
AcDbEntity
8
0
100
AcDbLine
62
7
6
CONTINUOUS
10
293.0758799345
20
176.1060197674
11
293.5046300513
21
176.1060197674
0
LINE
5
3B2
100
AcDbEntity
8
0
100
AcDbLine
62
7
6
CONTINUOUS
10
294.9746298761
20
176.1060197674
11
295.2196299929
21
176.1060197674
0
LINE
5
3B3
100
AcDbEntity
8
0
100
AcDbLine
62
7
6
CONTINUOUS
10
296.6896299929
20
176.1060197674
11
298.1596299929
21
176.1060197674
0
LINE
5
3B4
100
AcDbEntity
8
0
100
AcDbLine
62
7
6
CONTINUOUS
10
291.1771299929
20
176.2052492155
11
291.5446299929
21
176.2052492155
0
LINE
5
3B5
100
AcDbEntity
8
0
100
AcDbLine
62
7
6
CONTINUOUS
10
293.0758799345
20
176.2052492155
11
293.5046300513
21
176.2052492155
0
LINE
5
3B6
100
AcDbEntity
8
0
100
AcDbLine
62
7
6
CONTINUOUS
10
294.9746298761
20
176.2052492155
11
295.2196299929
21
176.2052492155
0
LINE
5
3B7
100
AcDbEntity
8
0
100
AcDbLine
62
7
6
CONTINUOUS
10
296.6896299929
20
176.2052492155
11
298.1596299929
21
176.2052492155
0
POLYLINE
5
3B8
100
AcDbEntity
8
0
100
AcDb2dPolyline
62
7
6
CONTINUOUS
66
1
70
0
0
VERTEX
5
3B9
100
AcDbEntity
8
0
100
AcDbVertex
62
7
6
CONTINUOUS
100
AcDb2dVertex
10
279.4020619741
20
176.1277139370
0
VERTEX
5
3BA
100
AcDbEntity
8
0
100
AcDbVertex
62
7
6
CONTINUOUS
100
AcDb2dVertex
10
280.0878199656
20
176.0735184826
0
VERTEX
5
3BB
100
AcDbEntity
8
0
100
AcDbVertex
62
7
6
CONTINUOUS
100
AcDb2dVertex
10
280.7693817945
20
175.9756075620
0
VERTEX
5
3BC
100
AcDbEntity
8
0
100
AcDbVertex
62
7
6
CONTINUOUS
100
AcDb2dVertex
10
281.4493496768
20
175.8335257561
0
VERTEX
5
3BD
100
AcDbEntity
8
0
100
AcDbVertex
62
7
6
CONTINUOUS
100
AcDb2dVertex
10
282.1199169643
20
175.6486393227
0
VERTEX
5
3BE
100
AcDbEntity
8
0
100
AcDbVertex
62
7
6
CONTINUOUS
100
AcDb2dVertex
10
282.7758277363
20
175.4210085084
0
VERTEX
5
3BF
100
AcDbEntity
8
0
100
AcDbVertex
62
7
6
CONTINUOUS
100
AcDb2dVertex
10
283.4120320263
20
175.1540959286
0
VERTEX
5
3C0
100
AcDbEntity
8
0
100
AcDbVertex
62
7
6
CONTINUOUS
100
AcDb2dVertex
10
284.0201453190
20
174.8520461452
0
VERTEX
5
3C1
100
AcDbEntity
8
0
100
AcDbVertex
62
7
6
CONTINUOUS
100
AcDb2dVertex
10
284.6049153399
20
174.5128735651
0
VERTEX
5
3C2
100
AcDbEntity
8
0
100
AcDbVertex
62
7
6
CONTINUOUS
100
AcDb2dVertex
10
285.1661324125
20
174.1393186330
0
VERTEX
5
3C3
100
AcDbEntity
8
0
100
AcDbVertex
62
7
6
CONTINUOUS
100
AcDb2dVertex
10
285.7102842284
20
173.7213477971
0
VERTEX
5
3C4
100
AcDbEntity
8
0
100
AcDbVertex
62
7
6
CONTINUOUS
100
AcDb2dVertex
10
286.2449213542
20
173.2535667922
0
VERTEX
5
3C5
100
AcDbEntity
8
0
100
AcDbVertex
62
7
6
CONTINUOUS
100
AcDb2dVertex
10
286.7666454883
20
172.7247982031
0
VERTEX
5
3C6
100
AcDbEntity
8
0
100
AcDbVertex
62
7
6
CONTINUOUS
100
AcDb2dVertex
10
287.2786391241
20
172.1258302508
0
VERTEX
5
3C7
100
AcDbEntity
8
0
100
AcDbVertex
62
7
6
CONTINUOUS
100
AcDb2dVertex
10
287.7687104435
20
171.4453717615
0
VERTEX
5
3C8
100
AcDbEntity
8
0
100
AcDbVertex
62
7
6
CONTINUOUS
100
AcDb2dVertex
10
288.2348865043
20
170.6637774793
0
VERTEX
5
3C9
100
AcDbEntity
8
0
100
AcDbVertex
62
7
6
CONTINUOUS
100
AcDb2dVertex
10
288.6496931717
20
169.7968978714
0
VERTEX
5
3CA
100
AcDbEntity
8
0
100
AcDbVertex
62
7
6
CONTINUOUS
100
AcDb2dVertex
10
288.9897718775
20
168.8429442368
0
VERTEX
5
3CB
100
AcDbEntity
8
0
100
AcDbVertex
62
7
6
CONTINUOUS
100
AcDb2dVertex
10
289.2408029788
20
167.8351888244
0
VERTEX
5
3CC
100
AcDbEntity
8
0
100
AcDbVertex
62
7
6
CONTINUOUS
100
AcDb2dVertex
10
289.3787805814
20
166.7997732750
0
VERTEX
5
3CD
100
AcDbEntity
8
0
100
AcDbVertex
62
7
6
CONTINUOUS
100
AcDb2dVertex
10
289.4094048697
20
165.7563007124
0
VERTEX
5
3CE
100
AcDbEntity
8
0
100
AcDbVertex
62
7
6
CONTINUOUS
100
AcDb2dVertex
10
289.3238744190
20
164.7232833317
0
VERTEX
5
3CF
100
AcDbEntity
8
0
100
AcDbVertex
62
7
6
CONTINUOUS
100
AcDb2dVertex
10
289.1416881617
20
163.7301355595
0
VERTEX
5
3D0
100
AcDbEntity
8
0
100
AcDbVertex
62
7
6
CONTINUOUS
100
AcDb2dVertex
10
288.8716209008
20
162.8118689080
0
VERTEX
5
3D1
100
AcDbEntity
8
0
100
AcDbVertex
62
7
6
CONTINUOUS
100
AcDb2dVertex
10
288.5370436002
20
161.9702043151
0
VERTEX
5
3D2
100
AcDbEntity
8
0
100
AcDbVertex
62
7
6
CONTINUOUS
100
AcDb2dVertex
10
288.1625460642
20
161.2249056839
0
VERTEX
5
3D3
100
AcDbEntity
8
0
100
AcDbVertex
62
7
6
CONTINUOUS
100
AcDb2dVertex
10
287.7532465746
20
160.5568556310
0
VERTEX
5
3D4
100
AcDbEntity
8
0
100
AcDbVertex
62
7
6
CONTINUOUS
100
AcDb2dVertex
10
287.3230128348
20
159.9567165236
0
VERTEX
5
3D5
100
AcDbEntity
8
0
100
AcDbVertex
62
7
6
CONTINUOUS
100
AcDb2dVertex
10
286.8701863841
20
159.4149130123
0
VERTEX
5
3D6
100
AcDbEntity
8
0
100
AcDbVertex
62
7
6
CONTINUOUS
100
AcDb2dVertex
10
286.3999280097
20
158.9209085471
0
VERTEX
5
3D7
100
AcDbEntity
8
0
100
AcDbVertex
62
7
6
CONTINUOUS
100
AcDb2dVertex
10
285.9056476711
20
158.4682490974
0
VERTEX
5
3D8
100
AcDbEntity
8
0
100
AcDbVertex
62
7
6
CONTINUOUS
100
AcDb2dVertex
10
285.3825538071
20
158.0460555389
0
VERTEX
5
3D9
100
AcDbEntity
8
0
100
AcDbVertex
62
7
6
CONTINUOUS
100
AcDb2dVertex
10
284.8304117661
20
157.6570666027
0
VERTEX
5
3DA
100
AcDbEntity
8
0
100
AcDbVertex
62
7
6
CONTINUOUS
100
AcDb2dVertex
10
284.2448509092
20
157.2986134147
0
VERTEX
5
3DB
100
AcDbEntity
8
0
100
AcDbVertex
62
7
6
CONTINUOUS
100
AcDb2dVertex
10
283.6334876380
20
156.9760396667
0
VERTEX
5
3DC
100
AcDbEntity
8
0
100
AcDbVertex
62
7
6
CONTINUOUS
100
AcDb2dVertex
10
283.0007536675
20
156.6935187014
0
VERTEX
5
3DD
100
AcDbEntity
8
0
100
AcDbVertex
62
7
6
CONTINUOUS
100
AcDb2dVertex
10
282.3518324181
20
156.4518926922
0
VERTEX
5
3DE
100
AcDbEntity
8
0
100
AcDbVertex
62
7
6
CONTINUOUS
100
AcDb2dVertex
10
281.6942171309
20
156.2536740875
0
VERTEX
5
3DF
100
AcDbEntity
8
0
100
AcDbVertex
62
7
6
CONTINUOUS
100
AcDb2dVertex
10
281.0254100588
20
156.0980254045
0
SEQEND
5
3E0
100
AcDbEntity
8
0
0
POLYLINE
5
3E1
100
AcDbEntity
8
0
100
AcDb2dPolyline
62
7
6
CONTINUOUS
66
1
70
0
0
VERTEX
5
3E2
100
AcDbEntity
8
0
100
AcDbVertex
62
7
6
CONTINUOUS
100
AcDb2dVertex
10
289.9171299929
20
174.5903295663
0
VERTEX
5
3E3
100
AcDbEntity
8
0
100
AcDbVertex
62
7
6
CONTINUOUS
100
AcDb2dVertex
10
290.1411973255
20
174.5596614774
0
VERTEX
5
3E4
100
AcDbEntity
8
0
100
AcDbVertex
62
7
6
CONTINUOUS
100
AcDb2dVertex
10
290.3371299929
20
174.4821504624
0
VERTEX
5
3E5
100
AcDbEntity
8
0
100
AcDbVertex
62
7
6
CONTINUOUS
100
AcDb2dVertex
10
290.5100769962
20
174.3528469837
0
VERTEX
5
3E6
100
AcDbEntity
8
0
100
AcDbVertex
62
7
6
CONTINUOUS
100
AcDb2dVertex
10
290.6445913321
20
174.1865996540
0
VERTEX
5
3E7
100
AcDbEntity
8
0
100
AcDbVertex
62
7
6
CONTINUOUS
100
AcDb2dVertex
10
290.7252259973
20
173.9982570859
0
VERTEX
5
3E8
100
AcDbEntity
8
0
100
AcDbVertex
62
7
6
CONTINUOUS
100
AcDb2dVertex
10
290.7571299929
20
173.7828697417
0
SEQEND
5
3E9
100
AcDbEntity
8
0
0
LINE
5
3EA
100
AcDbEntity
8
0
100
AcDbLine
62
7
6
CONTINUOUS
10
294.6683799929
20
176.1661497524
11
294.9746298761
21
176.1060197674
0
LINE
5
3EB
100
AcDbEntity
8
0
100
AcDbLine
62
7
6
CONTINUOUS
10
294.6683799929
20
176.2653792005
11
294.9746298761
21
176.2052492155
0
LINE
5
3EC
100
AcDbEntity
8
0
100
AcDbLine
62
7
6
CONTINUOUS
10
294.9746298761
20
176.5660291362
11
294.7296301097
21
176.6261591160
0
LINE
5
3ED
100
AcDbEntity
8
0
100
AcDbLine
62
7
6
CONTINUOUS
10
294.4233798761
20
176.2864097278
11
294.6683799929
21
176.1661497524
0
LINE
5
3EE
100
AcDbEntity
8
0
100
AcDbLine
62
7
6
CONTINUOUS
10
294.4233798761
20
176.3856391759
11
294.6683799929
21
176.2653792005
0
LINE
5
3EF
100
AcDbEntity
8
0
100
AcDbLine
62
7
6
CONTINUOUS
10
294.7296301097
20
176.6261591160
11
294.5458801097
21
176.7464191176
0
LINE
5
3F0
100
AcDbEntity
8
0
100
AcDbLine
62
7
6
CONTINUOUS
10
293.1983799929
20
178.7908386825
11
292.9533800513
21
178.9712286218
0
LINE
5
3F1
100
AcDbEntity
8
0
100
AcDbLine
62
7
6
CONTINUOUS
10
294.1783801097
20
176.5269296679
11
294.4233798761
21
176.2864097278
0
LINE
5
3F2
100
AcDbEntity
8
0
100
AcDbLine
62
7
6
CONTINUOUS
10
294.1783801097
20
176.6261591160
11
294.4233798761
21
176.3856391759
0
LINE
5
3F3
100
AcDbEntity
8
0
100
AcDbLine
62
7
6
CONTINUOUS
10
292.8921299345
20
178.6705787229
11
293.0146299929
21
178.5503187634
0
LINE
5
3F4
100
AcDbEntity
8
0
100
AcDbLine
62
7
6
CONTINUOUS
10
293.3821299929
20
178.5503187634
11
293.1983799929
21
178.7908386825
0
LINE
5
3F5
100
AcDbEntity
8
0
100
AcDbLine
62
7
6
CONTINUOUS
10
294.5458801097
20
176.7464191176
11
294.4233798761
21
176.9268090569
0
LINE
5
3F6
100
AcDbEntity
8
0
100
AcDbLine
62
7
6
CONTINUOUS
10
294.1479635393
20
176.5866503933
11
294.1783801097
21
176.5269296679
0
LINE
5
3F7
100
AcDbEntity
8
0
100
AcDbLine
62
7
6
CONTINUOUS
10
294.0558800513
20
176.8666790772
11
294.1783801097
21
176.6261591160
0
LINE
5
3F8
100
AcDbEntity
8
0
100
AcDbLine
62
7
6
CONTINUOUS
10
299.0783799929
20
178.3699288241
11
298.9558797593
21
178.6104487432
0
LINE
5
3F9
100
AcDbEntity
8
0
100
AcDbLine
62
7
6
CONTINUOUS
10
293.5046300513
20
176.2052492155
11
292.9533800513
21
177.5882389186
0
LINE
5
3FA
100
AcDbEntity
8
0
100
AcDbLine
62
7
6
CONTINUOUS
10
293.0146299929
20
178.5503187634
11
293.0758799345
21
178.3699288241
0
LINE
5
3FB
100
AcDbEntity
8
0
100
AcDbLine
62
7
6
CONTINUOUS
10
293.4433799345
20
178.3699288241
11
293.3821299929
21
178.5503187634
0
LINE
5
3FC
100
AcDbEntity
8
0
100
AcDbLine
62
7
6
CONTINUOUS
10
294.4233798761
20
176.9268090569
11
294.3621301097
21
177.1673289760
0
LINE
5
3FD
100
AcDbEntity
8
0
100
AcDbLine
62
7
6
CONTINUOUS
10
298.7108799929
20
178.3097986759
11
298.7721297593
21
178.0692787568
0
LINE
5
3FE
100
AcDbEntity
8
0
100
AcDbLine
62
7
6
CONTINUOUS
10
299.1396297593
20
178.0692787568
11
299.0783799929
21
178.3699288241
0
LINE
5
3FF
100
AcDbEntity
8
0
100
AcDbLine
62
7
6
CONTINUOUS
10
304.1015106360
20
122.0920842645
11
303.2436561784
21
128.2962711456
0
LINE
5
400
100
AcDbEntity
8
0
100
AcDbLine
62
7
6
CONTINUOUS
10
306.3807978295
20
172.6160628934
11
306.3771795339
21
172.7050644507
0
LINE
5
401
100
AcDbEntity
8
0
100
AcDbLine
62
7
6
CONTINUOUS
10
303.3771299929
20
181.3865052673
11
303.3771299929
21
200.1974246144
0
LINE
5
402
100
AcDbEntity
8
0
100
AcDbLine
62
7
6
CONTINUOUS
10
303.6271299929
20
223.7063414425
11
303.6271299929
21
267.8512256023
0
LINE
5
403
100
AcDbEntity
8
0
100
AcDbLine
62
7
6
CONTINUOUS
10
308.3771299929
20
92.5518270994
11
308.3771299929
21
146.1023349804
0
LINE
5
404
100
AcDbEntity
8
0
100
AcDbLine
62
7
6
CONTINUOUS
10
306.3771795339
20
158.8628960292
11
306.3772632769
21
158.8749316303
0
LINE
5
405
100
AcDbEntity
8
0
100
AcDbLine
62
7
6
CONTINUOUS
10
306.3803787595
20
163.1325675252
11
306.3961950334
21
163.3029049983
0
LINE
5
406
100
AcDbEntity
8
0
100
AcDbLine
62
7
6
CONTINUOUS
10
303.2436561784
20
128.2962711456
11
302.4409860337
21
120.4002033649
0
LINE
5
407
100
AcDbEntity
8
0
100
AcDbLine
62
7
6
CONTINUOUS
10
302.3771299929
20
183.2667514815
11
295.3771299929
21
182.1580603992
0
LINE
5
408
100
AcDbEntity
8
0
100
AcDbLine
62
7
6
CONTINUOUS
10
298.1596299929
20
176.5660291362
11
297.0571299929
21
176.5660291362
0
LINE
5
409
100
AcDbEntity
8
0
100
AcDbLine
62
7
6
CONTINUOUS
10
295.2196299929
20
176.5660291362
11
294.9746298761
21
176.5660291362
0
LINE
5
40A
100
AcDbEntity
8
0
100
AcDbLine
62
7
6
CONTINUOUS
10
291.5446299929
20
177.3717911438
11
292.5858799637
21
177.3717911438
0
LINE
5
40B
100
AcDbEntity
8
0
100
AcDbLine
62
7
6
CONTINUOUS
10
291.5446299929
20
177.4679789591
11
292.5858799637
21
177.4679789591
0
LINE
5
40C
100
AcDbEntity
8
0
100
AcDbLine
62
7
6
CONTINUOUS
10
292.7083799345
20
177.8287588377
11
291.5446299929
21
177.8287588377
0
LINE
5
40D
100
AcDbEntity
8
0
100
AcDbLine
62
7
6
CONTINUOUS
10
297.0571299929
20
178.5909561275
11
298.1596299929
21
178.5909561275
0
LINE
5
40E
100
AcDbEntity
8
0
100
AcDbLine
62
7
6
CONTINUOUS
10
291.5446299929
20
178.6522936749
11
292.7083799345
21
178.6522936749
0
LINE
5
40F
100
AcDbEntity
8
0
100
AcDbLine
62
7
6
CONTINUOUS
10
297.0571299929
20
178.6705787229
11
298.1596299929
21
178.6705787229
0
LINE
5
410
100
AcDbEntity
8
0
100
AcDbLine
62
7
6
CONTINUOUS
10
291.5446299929
20
178.7307087027
11
292.7083799345
21
178.7307087027
0
LINE
5
411
100
AcDbEntity
8
0
100
AcDbLine
62
7
6
CONTINUOUS
10
298.1596299929
20
179.0313586015
11
296.6896299929
21
179.0313586015
0
LINE
5
412
100
AcDbEntity
8
0
100
AcDbLine
62
7
6
CONTINUOUS
10
296.1996301097
20
179.0313586015
11
295.8321301097
21
179.0313586015
0
LINE
5
413
100
AcDbEntity
8
0
100
AcDbLine
62
7
6
CONTINUOUS
10
294.3621301097
20
179.0313586015
11
293.9946299345
21
179.0313586015
0
LINE
5
414
100
AcDbEntity
8
0
100
AcDbLine
62
7
6
CONTINUOUS
10
292.6471299929
20
179.0313586015
11
291.1771299929
21
179.0313586015
0
LINE
5
415
100
AcDbEntity
8
0
100
AcDbLine
62
7
6
CONTINUOUS
10
303.3771299929
20
181.3865052673
11
287.3771299929
21
181.3865052673
0
LINE
5
416
100
AcDbEntity
8
0
100
AcDbLine
62
7
6
CONTINUOUS
10
295.3771299929
20
182.1580603992
11
288.3771299929
21
183.2667514815
0
LINE
5
417
100
AcDbEntity
8
0
100
AcDbLine
62
7
6
CONTINUOUS
10
292.9533800513
20
178.9712286218
11
292.6471299929
21
179.0313586015
0
LINE
5
418
100
AcDbEntity
8
0
100
AcDbLine
62
7
6
CONTINUOUS
10
298.4658802266
20
178.9712286218
11
298.1596299929
21
179.0313586015
0
LINE
5
419
100
AcDbEntity
8
0
100
AcDbLine
62
7
6
CONTINUOUS
10
298.1596299929
20
178.6705787229
11
298.4046297593
21
178.6104487432
0
LINE
5
41A
100
AcDbEntity
8
0
100
AcDbLine
62
7
6
CONTINUOUS
10
292.7083799345
20
178.7307087027
11
292.8921299345
21
178.6705787229
0
LINE
5
41B
100
AcDbEntity
8
0
100
AcDbLine
62
7
6
CONTINUOUS
10
298.7108799929
20
178.8509686622
11
298.4658802266
21
178.9712286218
0
LINE
5
41C
100
AcDbEntity
8
0
100
AcDbLine
62
7
6
CONTINUOUS
10
298.4046297593
20
178.6104487432
11
298.5883797593
21
178.4901887836
0
LINE
5
41D
100
AcDbEntity
8
0
100
AcDbLine
62
7
6
CONTINUOUS
10
298.9558797593
20
178.6104487432
11
298.7108799929
21
178.8509686622
0
LINE
5
41E
100
AcDbEntity
8
0
100
AcDbLine
62
7
6
CONTINUOUS
10
298.5883797593
20
178.4901887836
11
298.7108799929
21
178.3097986759
0
LINE
5
41F
100
AcDbEntity
8
0
100
AcDbLine
62
7
6
CONTINUOUS
10
311.3521980118
20
176.1277139370
11
311.3521980118
21
176.5866506154
0
LINE
5
420
100
AcDbEntity
8
0
100
AcDbLine
62
7
6
CONTINUOUS
10
313.3771299929
20
209.9081463487
11
313.3771299929
21
173.1580603992
0
LINE
5
421
100
AcDbEntity
8
0
100
AcDbLine
62
7
6
CONTINUOUS
10
313.3771299929
20
209.9838297300
11
313.3771299929
21
214.0632796890
0
LINE
5
422
100
AcDbEntity
8
0
100
AcDbLine
62
7
6
CONTINUOUS
10
312.2152937009
20
161.1344285619
11
312.7366555511
21
189.6566839865
0
LINE
5
423
100
AcDbEntity
8
0
100
AcDbLine
62
7
6
CONTINUOUS
10
309.7288499270
20
156.0980254045
11
307.2007934133
21
145.5720023956
0
LINE
5
424
100
AcDbEntity
8
0
100
AcDbLine
62
7
6
CONTINUOUS
10
306.8764577279
20
142.2730890597
11
307.4519515989
21
144.6692624422
0
LINE
5
425
100
AcDbEntity
8
0
100
AcDbLine
62
7
6
CONTINUOUS
10
307.4312136516
20
142.6344334969
11
307.1458276522
21
141.4461769922
0
LINE
5
426
100
AcDbEntity
8
0
100
AcDbLine
62
7
6
CONTINUOUS
10
307.4312136516
20
142.6344334969
11
311.9228083435
21
159.1014372003
0
LINE
5
427
100
AcDbEntity
8
0
100
AcDbLine
62
7
6
CONTINUOUS
10
313.3771299929
20
173.1580603992
11
312.3789184131
21
170.0858810533
0
LINE
5
428
100
AcDbEntity
8
0
100
AcDbLine
62
7
6
CONTINUOUS
10
303.3771299929
20
186.4982065189
11
303.3157367831
21
186.4909696046
0
LINE
5
429
100
AcDbEntity
8
0
100
AcDbLine
62
7
6
CONTINUOUS
10
303.3157367831
20
186.4909696046
11
302.3771299929
21
186.3994449319
0
LINE
5
42A
100
AcDbEntity
8
0
100
AcDbLine
62
7
6
CONTINUOUS
10
287.4385232027
20
186.4909696046
11
288.3771299929
21
186.3994449319
0
LINE
5
42B
100
AcDbEntity
8
0
100
AcDbLine
62
7
6
CONTINUOUS
10
287.3771299929
20
186.4982065189
11
287.4385232027
21
186.4909696046
0
LINE
5
42C
100
AcDbEntity
8
0
100
AcDbLine
62
7
6
CONTINUOUS
10
310.8445538107
20
207.0238596234
11
311.8771299929
21
203.7706773586
0
LINE
5
42D
100
AcDbEntity
8
0
100
AcDbLine
62
7
6
CONTINUOUS
10
305.1084291122
20
87.1342646978
11
300.5826961134
21
68.9825410758
0
LINE
5
42E
100
AcDbEntity
8
0
100
AcDbLine
62
7
6
CONTINUOUS
10
287.3771299929
20
198.1580603992
11
288.3771299929
21
198.1580603992
0
LINE
5
42F
100
AcDbEntity
8
0
100
AcDbLine
62
7
6
CONTINUOUS
10
302.3771299929
20
198.1580603992
11
303.3771299929
21
198.1580603992
0
LINE
5
430
100
AcDbEntity
8
0
100
AcDbLine
62
7
6
CONTINUOUS
10
287.3771299929
20
200.1974246144
11
303.3771299929
21
200.1974246144
0
LINE
5
431
100
AcDbEntity
8
0
100
AcDbLine
62
7
6
CONTINUOUS
10
310.7722431978
20
207.1400745356
11
279.9820167880
21
207.1400745356
0
LINE
5
432
100
AcDbEntity
8
0
100
AcDbLine
62
7
6
CONTINUOUS
10
311.0676030399
20
217.6885108371
11
305.9366569459
21
220.0811102943
0
LINE
5
433
100
AcDbEntity
8
DEFAULT_1
100
AcDbLine
62
2
6
CENTER
10
306.6271299929
20
233.6580603992
11
284.8733716261
21
233.6580603992
0
LINE
5
434
100
AcDbEntity
8
0
100
AcDbLine
62
7
6
CONTINUOUS
10
295.3771299929
20
269.1580603992
11
287.1271299929
21
267.8513887666
0
LINE
5
435
100
AcDbEntity
8
0
100
AcDbLine
62
7
6
CONTINUOUS
10
303.6271299929
20
267.8513887666
11
295.3771299929
21
269.1580603992
0
ARC
5
436
100
AcDbEntity
8
0
100
AcDbCircle
62
7
6
CONTINUOUS
10
74.0958045011
20
163.1103672012
40
1.0000000000
100
AcDbArc
50
58.2129244138
51
255.7146337980
0
ARC
5
437
100
AcDbEntity
8
0
100
AcDbCircle
62
7
6
CONTINUOUS
10
75.4730576783
20
172.7023207919
40
1.0000000000
100
AcDbArc
50
82.6650466960
51
288.5550717634
0
ARC
5
438
100
AcDbEntity
8
0
100
AcDbCircle
62
7
6
CONTINUOUS
10
77.5776037698
20
204.1400745356
40
3.0000000000
100
AcDbArc
50
74.0000000000
51
137.2563160496
0
ARC
5
439
100
AcDbEntity
8
0
100
AcDbCircle
62
7
6
CONTINUOUS
10
74.8692037261
20
170.3787544803
40
1.0000000000
100
AcDbArc
50
90.0307699159
51
267.7006965858
0
ARC
5
43A
100
AcDbEntity
8
0
100
AcDbCircle
62
7
6
CONTINUOUS
10
75.5169404595
20
201.2462845069
40
3.0000000000
100
AcDbArc
50
151.8344679880
51
209.7807390401
0
ARC
5
43B
100
AcDbEntity
8
0
100
AcDbCircle
62
7
6
CONTINUOUS
10
75.4188638090
20
167.7244233417
40
1.0000000000
100
AcDbArc
50
72.2866556856
51
269.7870885454
0
ARC
5
43C
100
AcDbEntity
8
0
100
AcDbCircle
62
7
6
CONTINUOUS
10
74.0267752662
20
165.6268796619
40
1.0000000000
100
AcDbArc
50
67.4793810962
51
260.5399849322
0
ARC
5
43D
100
AcDbEntity
8
0
100
AcDbCircle
62
7
6
CONTINUOUS
10
71.5038797546
20
158.8601523704
40
1.0000000000
100
AcDbArc
50
39.4449282366
51
245.3227628464
0
ARC
5
43E
100
AcDbEntity
8
0
100
AcDbCircle
62
7
6
CONTINUOUS
10
72.2230851103
20
161.1506421993
40
1.0000000000
100
AcDbArc
50
60.2914864032
51
238.2594889357
0
CIRCLE
5
43F
100
AcDbEntity
8
0
100
AcDbCircle
62
7
6
CONTINUOUS
10
86.9933370978
20
194.1580603992
40
4.0000000000
0
ARC
5
440
100
AcDbEntity
8
0
100
AcDbCircle
62
7
6
CONTINUOUS
10
46.8751689277
20
184.8557712899
40
30.0000000000
100
AcDbArc
50
344.0000000000
51
29.7807390401
0
ARC
5
441
100
AcDbEntity
8
0
100
AcDbCircle
62
7
6
CONTINUOUS
10
87.8591664340
20
194.6379974373
40
17.0000000000
100
AcDbArc
50
137.2563160496
51
151.8344679880
0
ARC
5
442
100
AcDbEntity
8
0
100
AcDbCircle
62
7
6
CONTINUOUS
10
86.9933370978
20
194.1580603992
40
10.0000000000
100
AcDbArc
50
333.2474847866
51
74.0000000000
0
ARC
5
443
100
AcDbEntity
8
0
100
AcDbCircle
62
7
6
CONTINUOUS
10
154.7164133092
20
198.3886498605
40
20.0000000000
100
AcDbArc
50
150.0000000000
51
240.0000000000
0
ARC
5
444
100
AcDbEntity
8
0
100
AcDbCircle
62
7
6
CONTINUOUS
10
114.4933370978
20
128.6580603992
40
60.5000000000
100
AcDbArc
50
250.5287793655
51
60.0000000000
0
ARC
5
445
100
AcDbEntity
8
0
100
AcDbCircle
62
7
6
CONTINUOUS
10
110.9933370978
20
118.7585654626
40
50.0000000000
100
AcDbArc
50
182.1455820732
51
250.5287793655
0
ARC
5
446
100
AcDbEntity
8
0
100
AcDbCircle
62
7
6
CONTINUOUS
10
21.0564338145
20
115.3890806642
40
40.0000000000
100
AcDbArc
50
2.1455820732
51
7.0000000000
0
ARC
5
447
100
AcDbEntity
8
0
100
AcDbCircle
62
7
6
CONTINUOUS
10
24.3413668327
20
100.8653266516
40
65.0000000000
100
AcDbArc
50
17.7831123709
51
41.6203242261
0
ARC
5
448
100
AcDbEntity
8
0
100
AcDbCircle
62
7
6
CONTINUOUS
10
97.4716584477
20
184.1353471095
40
2.5000000000
100
AcDbArc
50
38.0000000000
51
136.2731124604
0
ARC
5
449
100
AcDbEntity
8
0
100
AcDbCircle
62
7
6
CONTINUOUS
10
86.9933370978
20
194.1580603992
40
12.0000000000
100
AcDbArc
50
175.2055032901
51
210.8872049675
0
ARC
5
44A
100
AcDbEntity
8
0
100
AcDbCircle
62
7
6
CONTINUOUS
10
75.6717206051
20
209.6648653568
40
7.2000000000
100
AcDbArc
50
329.6331415441
51
34.1874030128
0
ARC
5
44B
100
AcDbEntity
8
0
100
AcDbCircle
62
7
6
CONTINUOUS
10
113.1582252580
20
232.6352232695
40
33.1141769501
100
AcDbArc
50
329.7034108196
51
339.7208926006
0
CIRCLE
5
44C
100
AcDbEntity
8
0
100
AcDbCircle
62
7
6
CONTINUOUS
10
110.9933370978
20
233.6580603992
40
19.0000000000
0
ARC
5
44D
100
AcDbEntity
8
0
100
AcDbCircle
62
7
6
CONTINUOUS
10
69.4773179745
20
139.5135871709
40
11.0000000000
100
AcDbArc
50
120.0000000000
51
187.0000000000
0
ARC
5
44E
100
AcDbEntity
8
0
100
AcDbCircle
62
7
6
CONTINUOUS
10
66.0274767691
20
146.7594247293
40
3.0000000000
100
AcDbArc
50
52.6786051929
51
120.0000000000
0
ARC
5
44F
100
AcDbEntity
8
0
100
AcDbCircle
62
7
6
CONTINUOUS
10
110.9933370978
20
128.6580603992
40
26.0000000000
100
AcDbArc
50
197.7831123709
51
38.0000000000
0
ARC
5
450
100
AcDbEntity
8
0
100
AcDbCircle
62
7
6
CONTINUOUS
10
86.9933370978
20
194.1580603992
40
12.0000000000
100
AcDbArc
50
299.7519714235
51
316.2731124604
0
ARC
5
451
100
AcDbEntity
8
0
100
AcDbCircle
62
7
6
CONTINUOUS
10
110.9933370978
20
233.6580603992
40
35.5000000000
100
AcDbArc
50
339.3834096173
51
214.1874030128
0
ARC
5
452
100
AcDbEntity
8
0
100
AcDbCircle
62
7
6
CONTINUOUS
10
110.9933370978
20
233.6580603992
40
34.7080777984
100
AcDbArc
50
348.0273644267
51
11.2984613226
0
ARC
5
453
100
AcDbEntity
8
0
100
AcDbCircle
62
7
6
CONTINUOUS
10
110.9933370978
20
233.6580603992
40
19.5866708968
100
AcDbArc
50
338.4325104202
51
20.3146148225
0
ARC
5
454
100
AcDbEntity
8
0
100
AcDbCircle
62
7
6
CONTINUOUS
10
86.9933370978
20
194.1580603992
40
12.0000000000
100
AcDbArc
50
0.0000000000
51
107.5019909539
0
ARC
5
455
100
AcDbEntity
8
DEFAULT_2
100
AcDbCircle
62
8
6
HIDDEN
10
295.3771299929
20
274.2580603992
40
21.6000000000
100
AcDbArc
50
247.5458218633
51
292.4541781367
0
ARC
5
456
100
AcDbEntity
8
DEFAULT_2
100
AcDbCircle
62
8
6
HIDDEN
10
295.3771299929
20
193.0580603992
40
21.6000000000
100
AcDbArc
50
33.5573097619
51
146.4426902381
0
ARC
5
457
100
AcDbEntity
8
0
100
AcDbCircle
62
7
6
CONTINUOUS
10
288.3771299929
20
92.4745785622
40
6.0000000000
100
AcDbArc
50
180.0000000000
51
243.3732175570
0
ARC
5
458
100
AcDbEntity
8
0
100
AcDbCircle
62
7
6
CONTINUOUS
10
302.3771299929
20
92.4745785622
40
6.0000000000
100
AcDbArc
50
296.6267824430
51
360.0000000000
0
ARC
5
459
100
AcDbEntity
8
0
100
AcDbCircle
62
7
6
CONTINUOUS
10
307.6271299929
20
223.7063414425
40
4.0000000000
100
AcDbArc
50
180.0000000000
51
245.0000000000
0
ARC
5
45A
100
AcDbEntity
8
0
100
AcDbCircle
62
7
6
CONTINUOUS
10
309.3771299929
20
214.0632796890
40
4.0000000000
100
AcDbArc
50
0.0000000000
51
65.0000000000
0
ARC
5
45B
100
AcDbEntity
8
0
100
AcDbCircle
62
7
6
CONTINUOUS
10
281.3771299929
20
214.0632796890
40
4.0000000000
100
AcDbArc
50
115.0000000000
51
180.0000000000
0
ARC
5
45C
100
AcDbEntity
8
0
100
AcDbCircle
62
7
6
CONTINUOUS
10
283.1271299929
20
223.7063414425
40
4.0000000000
100
AcDbArc
50
295.0000000000
51
360.0000000000
0
SPLINE
5
45D
100
AcDbEntity
8
0
100
AcDbSpline
62
7
6
CONTINUOUS
70
0
71
3
72
10
73
6
74
4
42
0.0000001000
43
0.0000001000
44
0.0000000001
40
0.0000000000
40
0.0000000000
40
0.0000000000
40
0.0000000000
40
0.3348440789
40
0.6684951612
40
1.0000000000
40
1.0000000000
40
1.0000000000
40
1.0000000000
10
69.6817543293
20
144.6692624422
30
0.0000000000
10
69.3617452385
20
144.7682236455
30
0.0000000000
10
68.7232363535
20
144.9669896002
30
0.0000000000
10
67.7692159452
20
145.2679051405
30
0.0000000000
10
67.1354024932
20
145.4704527448
30
0.0000000000
10
66.8197125379
20
145.5720023956
30
0.0000000000
11
69.6817543293
21
144.6692624422
31
0.0000000000
11
68.7222852555
21
144.9679451136
31
0.0000000000
11
67.7673593293
21
145.2691528064
31
0.0000000000
11
66.8197125379
21
145.5720023956
31
0.0000000000
0
SPLINE
5
45E
100
AcDbEntity
8
0
100
AcDbSpline
62
7
6
CONTINUOUS
70
0
71
3
72
12
73
8
74
6
42
0.0000001000
43
0.0000001000
44
0.0000000001
40
0.0000000000
40
0.0000000000
40
0.0000000000
40
0.0000000000
40
0.0448140346
40
0.1837368410
40
0.3985356668
40
0.6821477802
40
1.0000000000
40
1.0000000000
40
1.0000000000
40
1.0000000000
10
74.6211572300
20
163.9543889231
30
0.0000000000
10
74.6338510450
20
163.9457420316
30
0.0000000000
10
74.6805168795
20
163.8964153408
30
0.0000000000
10
74.6650649569
20
163.7551819799
30
0.0000000000
10
74.6396727594
20
163.5516484936
30
0.0000000000
10
74.5617580645
20
163.2904420395
30
0.0000000000
10
74.4932069748
20
163.1048201717
30
0.0000000000
10
74.4530144929
20
163.0079388843
30
0.0000000000
11
74.6211572300
21
163.9543889231
31
0.0000000000
11
74.6534150699
21
163.9207410421
31
0.0000000000
11
74.6679484466
21
163.7839822230
31
0.0000000000
11
74.6372663306
21
163.5735638330
31
0.0000000000
11
74.5625495412
21
163.3029216773
31
0.0000000000
11
74.4530144929
21
163.0079388843
31
0.0000000000
0
SPLINE
5
45F
100
AcDbEntity
8
0
100
AcDbSpline
62
7
6
CONTINUOUS
70
0
71
3
72
12
73
8
74
6
42
0.0000001000
43
0.0000001000
44
0.0000000001
40
0.0000000000
40
0.0000000000
40
0.0000000000
40
0.0000000000
40
0.0597025249
40
0.2194730215
40
0.4429366719
40
0.7088208801
40
1.0000000000
40
1.0000000000
40
1.0000000000
40
1.0000000000
10
75.7198638758
20
168.6732059935
30
0.0000000000
10
75.7389253548
20
168.6643501683
30
0.0000000000
10
75.8071287510
20
168.5995538174
30
0.0000000000
10
75.8179903069
20
168.4376884816
30
0.0000000000
10
75.8375490562
20
168.2058050543
30
0.0000000000
10
75.8184056398
20
167.9242236732
30
0.0000000000
10
75.7933154966
20
167.7253793928
30
0.0000000000
10
75.7760738008
20
167.6219950248
30
0.0000000000
11
75.7198638758
21
168.6732059935
31
0.0000000000
11
75.7713829440
21
168.6279573845
31
0.0000000000
11
75.8168020871
21
168.4615110538
31
0.0000000000
11
75.8306932886
21
168.2205986781
31
0.0000000000
11
75.8164227218
21
167.9338321572
31
0.0000000000
11
75.7760738008
21
167.6219950248
31
0.0000000000
0
SPLINE
5
460
100
AcDbEntity
8
0
100
AcDbSpline
62
7
6
CONTINUOUS
70
0
71
3
72
12
73
8
74
6
42
0.0000001000
43
0.0000001000
44
0.0000000001
40
0.0000000000
40
0.0000000000
40
0.0000000000
40
0.0000000000
40
0.0539171316
40
0.2117053922
40
0.4437091029
40
0.7188271315
40
1.0000000000
40
1.0000000000
40
1.0000000000
40
1.0000000000
10
75.5943076962
20
173.6900340921
30
0.0000000000
10
75.6147630010
20
173.6851587465
30
0.0000000000
10
75.7007211947
20
173.6332575733
30
0.0000000000
10
75.7538197420
20
173.4637020718
30
0.0000000000
10
75.8376024702
20
173.2141117566
30
0.0000000000
10
75.8899037643
20
172.9046143416
30
0.0000000000
10
75.9135195278
20
172.6852929337
30
0.0000000000
10
75.9205438102
20
172.5740062084
30
0.0000000000
11
75.5943076962
21
173.6900340921
31
0.0000000000
11
75.6546145147
21
173.6568414814
31
0.0000000000
11
75.7453431229
21
173.4924938027
31
0.0000000000
11
75.8258376466
21
173.2284657324
31
0.0000000000
11
75.8862508164
21
172.9067683946
31
0.0000000000
11
75.9205438102
21
172.5740062084
31
0.0000000000
0
SPLINE
5
461
100
AcDbEntity
8
0
100
AcDbSpline
62
7
6
CONTINUOUS
70
0
71
3
72
12
73
8
74
6
42
0.0000001000
43
0.0000001000
44
0.0000000001
40
0.0000000000
40
0.0000000000
40
0.0000000000
40
0.0000000000
40
0.0640432539
40
0.2220234147
40
0.4380748662
40
0.7053626563
40
1.0000000000
40
1.0000000000
40
1.0000000000
40
1.0000000000
10
74.4090952364
20
166.5475816494
30
0.0000000000
10
74.4315660474
20
166.5379882221
30
0.0000000000
10
74.5042594928
20
166.4892262365
30
0.0000000000
10
74.5592977824
20
166.3277538080
30
0.0000000000
10
74.5821075773
20
166.0930740048
30
0.0000000000
10
74.5564694523
20
165.8043331554
30
0.0000000000
10
74.5114662568
20
165.6012126754
30
0.0000000000
10
74.4814421127
20
165.4965060416
30
0.0000000000
11
74.4090952364
21
166.5475816494
31
0.0000000000
11
74.4697757772
21
166.5071051776
31
0.0000000000
11
74.5459918788
21
166.3493362978
31
0.0000000000
11
74.5736677932
21
166.1113198536
31
0.0000000000
11
74.5513783420
21
165.8157133087
31
0.0000000000
11
74.4814421127
21
165.4965060416
31
0.0000000000
0
SPLINE
5
462
100
AcDbEntity
8
0
100
AcDbSpline
62
7
6
CONTINUOUS
70
0
71
3
72
12
73
8
74
6
42
0.0000001000
43
0.0000001000
44
0.0000000001
40
0.0000000000
40
0.0000000000
40
0.0000000000
40
0.0000000000
40
0.0431132409
40
0.1898872967
40
0.4012297554
40
0.6815278862
40
1.0000000000
40
1.0000000000
40
1.0000000000
40
1.0000000000
10
72.7205418810
20
162.0153620758
30
0.0000000000
10
72.7340350287
20
162.0082659277
30
0.0000000000
10
72.7884338938
20
161.9696635552
30
0.0000000000
10
72.8268214291
20
161.8217936557
30
0.0000000000
10
72.8043532132
20
161.6037426463
30
0.0000000000
10
72.7213667505
20
161.3327254048
30
0.0000000000
10
72.6318958551
20
161.1452603081
30
0.0000000000
10
72.5785097632
20
161.0487258201
30
0.0000000000
11
72.7205418810
21
162.0153620758
31
0.0000000000
11
72.7568694344
21
161.9891192712
31
0.0000000000
11
72.8127714288
21
161.8472134549
31
0.0000000000
11
72.8006708570
21
161.6279311981
31
0.0000000000
11
72.7191119696
21
161.3483119665
31
0.0000000000
11
72.5785097632
21
161.0487258201
31
0.0000000000
0
SPLINE
5
463
100
AcDbEntity
8
0
100
AcDbSpline
62
7
6
CONTINUOUS
70
0
71
3
72
11
73
7
74
5
42
0.0000001000
43
0.0000001000
44
0.0000000001
40
0.0000000000
40
0.0000000000
40
0.0000000000
40
0.0000000000
40
0.0757647352
40
0.2868498453
40
0.6085204154
40
1.0000000000
40
1.0000000000
40
1.0000000000
40
1.0000000000
10
72.2766344751
20
159.4882281173
30
0.0000000000
10
72.2881569898
20
159.4709133023
30
0.0000000000
10
72.3131672069
20
159.3778781123
30
0.0000000000
10
72.2390899677
20
159.2225366572
30
0.0000000000
10
72.1288968585
20
158.9875726254
30
0.0000000000
10
72.0154156332
20
158.8212631103
30
0.0000000000
10
71.9513658865
20
158.7318377869
30
0.0000000000
11
72.2766344751
21
159.4882281173
31
0.0000000000
11
72.2971878735
21
159.4231490560
31
0.0000000000
11
72.2527615900
21
159.2508545968
31
0.0000000000
11
72.1314307154
21
159.0083698538
31
0.0000000000
11
71.9513658865
21
158.7318377869
31
0.0000000000
0
SPLINE
5
464
100
AcDbEntity
8
0
100
AcDbSpline
62
7
6
CONTINUOUS
70
0
71
3
72
10
73
6
74
4
42
0.0000001000
43
0.0000001000
44
0.0000000001
40
0.0000000000
40
0.0000000000
40
0.0000000000
40
0.0000000000
40
0.3082212199
40
0.6417096885
40
1.0000000000
40
1.0000000000
40
1.0000000000
40
1.0000000000
10
74.8488895994
20
163.1269375078
30
0.0000000000
10
74.7605405038
20
162.9110438564
30
0.0000000000
10
74.5685017225
20
162.4648213837
30
0.0000000000
10
74.2432030734
20
161.7812700146
30
0.0000000000
10
73.9985483792
20
161.3181526022
30
0.0000000000
10
73.8664685072
20
161.0813285900
30
0.0000000000
11
74.8488895994
21
163.1269375078
31
0.0000000000
11
74.5722085719
21
162.4841402680
31
0.0000000000
11
74.2467114873
21
161.8004889505
31
0.0000000000
11
73.8664685072
21
161.0813285900
31
0.0000000000
0
SPLINE
5
465
100
AcDbEntity
8
0
100
AcDbSpline
62
7
6
CONTINUOUS
70
0
71
3
72
12
73
8
74
6
42
0.0000001000
43
0.0000001000
44
0.0000000001
40
0.0000000000
40
0.0000000000
40
0.0000000000
40
0.0000000000
40
0.2758647589
40
0.5472831548
40
0.7802972225
40
0.9422841179
40
1.0000000000
40
1.0000000000
40
1.0000000000
40
1.0000000000
10
71.9513658865
20
158.7318377869
30
0.0000000000
10
71.8876748754
20
158.6429133250
30
0.0000000000
10
71.7537474313
20
158.4720714760
30
0.0000000000
10
71.5482219874
20
158.2397938297
30
0.0000000000
10
71.3446689372
20
158.0700982976
30
0.0000000000
10
71.2093596124
20
157.9533192144
30
0.0000000000
10
71.1040376931
20
157.9507952194
30
0.0000000000
10
71.0830352304
20
157.9576729276
30
0.0000000000
11
71.9513658865
21
158.7318377869
31
0.0000000000
11
71.7500617632
21
158.4726976832
31
0.0000000000
11
71.5319656240
21
158.2346474019
31
0.0000000000
11
71.3238759066
21
158.0515565730
31
0.0000000000
11
71.1566370498
21
157.9558581931
31
0.0000000000
11
71.0830352304
21
157.9576729276
31
0.0000000000
0
SPLINE
5
466
100
AcDbEntity
8
0
100
AcDbSpline
62
7
6
CONTINUOUS
70
0
71
3
72
12
73
8
74
6
42
0.0000001000
43
0.0000001000
44
0.0000000001
40
0.0000000000
40
0.0000000000
40
0.0000000000
40
0.0000000000
40
0.2969400921
40
0.5717973078
40
0.7967293532
40
0.9532192295
40
1.0000000000
40
1.0000000000
40
1.0000000000
40
1.0000000000
10
72.5785097632
20
161.0487258201
30
0.0000000000
10
72.5197465770
20
160.9424682930
30
0.0000000000
10
72.3932134435
20
160.7457267583
30
0.0000000000
10
72.1771128902
20
160.4961918883
30
0.0000000000
10
71.9718867821
20
160.3328119438
30
0.0000000000
10
71.7896173416
20
160.2596028819
30
0.0000000000
10
71.7125078515
20
160.2954892772
30
0.0000000000
10
71.6961140994
20
160.3064296662
30
0.0000000000
11
72.5785097632
21
161.0487258201
31
0.0000000000
11
72.3806250953
21
160.7428898750
31
0.0000000000
11
72.1573019268
21
160.4902672172
31
0.0000000000
11
71.9355016592
21
160.3261172289
31
0.0000000000
11
71.7484985184
21
160.2827128401
31
0.0000000000
11
71.6961140994
21
160.3064296662
31
0.0000000000
0
SPLINE
5
467
100
AcDbEntity
8
0
100
AcDbSpline
62
7
6
CONTINUOUS
70
0
71
3
72
12
73
8
74
6
42
0.0000001000
43
0.0000001000
44
0.0000000001
40
0.0000000000
40
0.0000000000
40
0.0000000000
40
0.0000000000
40
0.2911403527
40
0.5587313447
40
0.7825656451
40
0.9413353484
40
1.0000000000
40
1.0000000000
40
1.0000000000
40
1.0000000000
10
74.4530144929
20
163.0079388843
30
0.0000000000
10
74.4128539141
20
162.9111344974
30
0.0000000000
10
74.3285109516
20
162.7286830344
30
0.0000000000
10
74.1951016812
20
162.4789799616
30
0.0000000000
10
74.0552966960
20
162.2928040264
30
0.0000000000
10
73.9601543404
20
162.1614056591
30
0.0000000000
10
73.8689091153
20
162.1437923417
30
0.0000000000
10
73.8483257098
20
162.1464040227
30
0.0000000000
11
74.4530144929
21
163.0079388843
31
0.0000000000
11
74.3219944184
21
162.7221253212
31
0.0000000000
11
74.1811518339
21
162.4697890449
31
0.0000000000
11
74.0412291271
21
162.2726760518
31
0.0000000000
11
73.9149163220
21
162.1567276355
31
0.0000000000
11
73.8483257098
21
162.1464040227
31
0.0000000000
0
SPLINE
5
468
100
AcDbEntity
8
0
100
AcDbSpline
62
7
6
CONTINUOUS
70
0
71
3
72
11
73
7
74
5
42
0.0000001000
43
0.0000001000
44
0.0000000001
40
0.0000000000
40
0.0000000000
40
0.0000000000
40
0.0000000000
40
0.3914795846
40
0.7131501547
40
0.9242352648
40
1.0000000000
40
1.0000000000
40
1.0000000000
40
1.0000000000
10
75.9205438102
20
172.5740062084
30
0.0000000000
10
75.9274728744
20
172.4642280385
30
0.0000000000
10
75.9355797956
20
172.2630536834
30
0.0000000000
10
75.9045168852
20
172.0053994322
30
0.0000000000
10
75.8850195173
20
171.8344074508
30
0.0000000000
10
75.8145085109
20
171.7687625310
30
0.0000000000
10
75.7955614102
20
171.7601847376
30
0.0000000000
11
75.9205438102
21
172.5740062084
31
0.0000000000
11
75.9267077762
21
172.2440738938
31
0.0000000000
11
75.9011048568
21
171.9741396014
31
0.0000000000
11
75.8474783289
21
171.8044832698
31
0.0000000000
11
75.7955614102
21
171.7601847376
31
0.0000000000
0
SPLINE
5
469
100
AcDbEntity
8
0
100
AcDbSpline
62
7
6
CONTINUOUS
70
0
71
3
72
12
73
8
74
6
42
0.0000001000
43
0.0000001000
44
0.0000000001
40
0.0000000000
40
0.0000000000
40
0.0000000000
40
0.0000000000
40
0.3112249395
40
0.5899927746
40
0.8060038549
40
0.9546981950
40
1.0000000000
40
1.0000000000
40
1.0000000000
40
1.0000000000
10
75.2246283791
20
170.2768381011
30
0.0000000000
10
75.2188809676
20
170.1691934810
30
0.0000000000
10
75.1960108305
20
169.9658455160
30
0.0000000000
10
75.1244301749
20
169.6931363964
30
0.0000000000
10
75.0286959847
20
169.4941574100
30
0.0000000000
10
74.9170219965
20
169.3852888437
30
0.0000000000
10
74.8488064851
20
169.3808286770
30
0.0000000000
10
74.8327944484
20
169.3819884213
30
0.0000000000
11
75.2246283791
21
170.2768381011
31
0.0000000000
11
75.1865364895
21
169.9556954838
31
0.0000000000
11
75.1094380398
21
169.6764766071
31
0.0000000000
11
75.0028681025
21
169.4789320691
31
0.0000000000
11
74.8798272290
21
169.3854775088
31
0.0000000000
11
74.8327944484
21
169.3819884213
31
0.0000000000
0
SPLINE
5
46A
100
AcDbEntity
8
0
100
AcDbSpline
62
7
6
CONTINUOUS
70
0
71
3
72
12
73
8
74
6
42
0.0000001000
43
0.0000001000
44
0.0000000001
40
0.0000000000
40
0.0000000000
40
0.0000000000
40
0.0000000000
40
0.3107178826
40
0.5944878713
40
0.8144654005
40
0.9545625524
40
1.0000000000
40
1.0000000000
40
1.0000000000
40
1.0000000000
10
75.7760738008
20
167.6219950248
30
0.0000000000
10
75.7592079836
20
167.5208644940
30
0.0000000000
10
75.7195962923
20
167.3293256904
30
0.0000000000
10
75.6480104057
20
167.0670484336
30
0.0000000000
10
75.5613110630
20
166.8787252406
30
0.0000000000
10
75.4989969032
20
166.7486808412
30
0.0000000000
10
75.4326156920
20
166.7308814916
30
0.0000000000
10
75.4170837871
20
166.7302030083
30
0.0000000000
11
75.7760738008
21
167.6219950248
31
0.0000000000
11
75.7143478192
21
167.3206705092
31
0.0000000000
11
75.6349278664
21
167.0512255454
31
0.0000000000
11
75.5479998631
21
166.8515714483
31
0.0000000000
11
75.4628579017
21
166.7421006241
31
0.0000000000
11
75.4170837871
21
166.7302030083
31
0.0000000000
0
SPLINE
5
46B
100
AcDbEntity
8
0
100
AcDbSpline
62
7
6
CONTINUOUS
70
0
71
3
72
14
73
10
74
8
42
0.0000001000
43
0.0000001000
44
0.0000000001
40
0.0000000000
40
0.0000000000
40
0.0000000000
40
0.0000000000
40
0.2133184757
40
0.4214382753
40
0.6067568378
40
0.7589546636
40
0.8798473777
40
0.9779682409
40
1.0000000000
40
1.0000000000
40
1.0000000000
40
1.0000000000
10
74.4814421127
20
165.4965060416
30
0.0000000000
10
74.4596541981
20
165.4205225534
30
0.0000000000
10
74.4099064996
20
165.2722365954
30
0.0000000000
10
74.3184256236
20
165.0664067352
30
0.0000000000
10
74.2162793556
20
164.8914597137
30
0.0000000000
10
74.1100456453
20
164.7575041615
30
0.0000000000
10
74.0046043748
20
164.6686006607
30
0.0000000000
10
73.9165963864
20
164.6346853985
30
0.0000000000
10
73.8718396265
20
164.6395321961
30
0.0000000000
10
73.8637088800
20
164.6410804929
30
0.0000000000
11
74.4814421127
21
165.4965060416
31
0.0000000000
11
74.4057590761
21
165.2717708390
31
0.0000000000
11
74.3109766628
21
165.0607195807
31
0.0000000000
11
74.2055470779
21
164.8837311152
31
0.0000000000
11
74.0983544775
21
164.7528282998
31
0.0000000000
11
73.9927266592
21
164.6697396054
31
0.0000000000
11
73.8882234007
21
164.6384861041
31
0.0000000000
11
73.8637088800
21
164.6410804929
31
0.0000000000
0
SPLINE
5
46C
100
AcDbEntity
8
0
100
AcDbSpline
62
7
6
CONTINUOUS
70
0
71
3
72
12
73
8
74
6
42
0.0000001000
43
0.0000001000
44
0.0000000001
40
0.0000000000
40
0.0000000000
40
0.0000000000
40
0.0000000000
40
0.2325390921
40
0.4470299763
40
0.6453466610
40
0.8292181168
40
1.0000000000
40
1.0000000000
40
1.0000000000
40
1.0000000000
10
69.8380010661
20
156.0980254045
30
0.0000000000
10
70.2131864942
20
156.4270659006
30
0.0000000000
10
70.9096606174
20
157.0885529590
30
0.0000000000
10
71.8388424833
20
158.1170732004
30
0.0000000000
10
72.6286318151
20
159.1262542084
30
0.0000000000
10
73.2977433056
20
160.1072082604
30
0.0000000000
10
73.6879531996
20
160.7612441538
30
0.0000000000
10
73.8664685072
20
161.0813285900
30
0.0000000000
11
69.8380010661
21
156.0980254045
31
0.0000000000
11
70.9234836825
21
157.1290507541
31
0.0000000000
11
71.8491828365
21
158.1537259943
31
0.0000000000
11
72.6360609849
21
159.1591903783
31
0.0000000000
11
73.3031173877
21
160.1371192021
31
0.0000000000
11
73.8664685072
21
161.0813285900
31
0.0000000000
0
SPLINE
5
46D
100
AcDbEntity
8
0
100
AcDbSpline
62
7
6
CONTINUOUS
70
0
71
3
72
12
73
8
74
6
42
0.0000001000
43
0.0000001000
44
0.0000000001
40
0.0000000000
40
0.0000000000
40
0.0000000000
40
0.0000000000
40
0.1068713664
40
0.2711176728
40
0.4844184042
40
0.7337639392
40
1.0000000000
40
1.0000000000
40
1.0000000000
40
1.0000000000
10
74.8677370756
20
171.3785235409
30
0.0000000000
10
74.9104022958
20
171.3772910379
30
0.0000000000
10
75.0210598241
20
171.3188152068
30
0.0000000000
10
75.1150164152
20
171.1404028439
30
0.0000000000
10
75.1903259808
20
170.8943958036
30
0.0000000000
10
75.2286506046
20
170.5972025178
30
0.0000000000
10
75.2304391062
20
170.3856685751
30
0.0000000000
10
75.2246283791
20
170.2768381011
30
0.0000000000
11
74.8677370756
21
171.3785235409
31
0.0000000000
11
74.9886185529
21
171.3247606839
31
0.0000000000
11
75.1002268564
21
171.1567461967
31
0.0000000000
11
75.1793527614
21
170.9070344770
31
0.0000000000
11
75.2218402702
21
170.6037826775
31
0.0000000000
11
75.2246283791
21
170.2768381011
31
0.0000000000
0
SPLINE
5
46E
100
AcDbEntity
8
0
100
AcDbSpline
62
7
6
CONTINUOUS
70
0
71
3
72
20
73
16
74
14
42
0.0000001000
43
0.0000001000
44
0.0000000001
40
0.0000000000
40
0.0000000000
40
0.0000000000
40
0.0000000000
40
0.0646441682
40
0.1311857920
40
0.1972699656
40
0.2624455020
40
0.3268006908
40
0.3923591206
40
0.4620823914
40
0.5381223552
40
0.6210564660
40
0.7103901490
40
0.8047541654
40
0.9018188373
40
1.0000000000
40
1.0000000000
40
1.0000000000
40
1.0000000000
10
75.5631365103
20
165.1863351643
30
0.0000000000
10
75.5501836630
20
165.1411632176
30
0.0000000000
10
75.5235741942
20
165.0495858578
30
0.0000000000
10
75.4825752714
20
164.9121671258
30
0.0000000000
10
75.4404694240
20
164.7746794259
30
0.0000000000
10
75.3978558518
20
164.6390133731
30
0.0000000000
10
75.3544011890
20
164.5040158560
30
0.0000000000
10
75.3089549700
20
164.3661901917
30
0.0000000000
10
75.2597726403
20
164.2206566419
30
0.0000000000
10
75.2052946980
20
164.0635849847
30
0.0000000000
10
75.1446674557
20
163.8935640595
30
0.0000000000
10
75.0778520316
20
163.7116162231
30
0.0000000000
10
75.0055776890
20
163.5207405507
30
0.0000000000
10
74.9289723055
20
163.3246398267
30
0.0000000000
10
74.8759208575
20
163.1929922534
30
0.0000000000
10
74.8488895994
20
163.1269375078
30
0.0000000000
11
75.5631365103
21
165.1863351643
31
0.0000000000
11
75.5238000041
21
165.0509572914
31
0.0000000000
11
75.4823120080
21
164.9118992998
31
0.0000000000
11
75.4401104865
21
164.7740991989
31
0.0000000000
11
75.3975165056
21
164.6384955194
31
0.0000000000
11
75.3545129345
21
164.5048993795
31
0.0000000000
11
75.3097412865
21
164.3691195044
31
0.0000000000
11
75.2610602391
21
164.2250692858
31
0.0000000000
11
75.2067204727
21
164.0683960290
31
0.0000000000
11
75.1459733019
21
163.8980387929
31
0.0000000000
11
75.0788158150
21
163.7151594897
31
0.0000000000
11
75.0059430676
21
163.5227034551
31
0.0000000000
11
74.9289200129
21
163.3255335749
31
0.0000000000
11
74.8488895994
21
163.1269375078
31
0.0000000000
0
SPLINE
5
46F
100
AcDbEntity
8
0
100
AcDbSpline
62
7
6
CONTINUOUS
70
0
71
3
72
37
73
33
74
31
42
0.0000001000
43
0.0000001000
44
0.0000000001
40
0.0000000000
40
0.0000000000
40
0.0000000000
40
0.0000000000
40
0.0103237918
40
0.0208105688
40
0.0312382288
40
0.0415723090
40
0.0519441722
40
0.0628474876
40
0.0748342615
40
0.0884532388
40
0.1038758063
40
0.1209983377
40
0.1397691635
40
0.1603286797
40
0.1828701248
40
0.2075918017
40
0.2347263906
40
0.2647271910
40
0.2981432456
40
0.3354479265
40
0.3765684044
40
0.4211889853
40
0.4694081769
40
0.5228367049
40
0.5828779531
40
0.6462975940
40
0.7080826802
40
0.7675494442
40
0.8259220508
40
0.8838816254
40
0.9417856462
40
1.0000000000
40
1.0000000000
40
1.0000000000
40
1.0000000000
10
75.5631365103
20
165.1863351643
30
0.0000000000
10
75.5736491629
20
165.2229971411
30
0.0000000000
10
75.5946288266
20
165.2969607552
30
0.0000000000
10
75.6254793544
20
165.4081655442
30
0.0000000000
10
75.6556941085
20
165.5195841685
30
0.0000000000
10
75.6851578726
20
165.6307645846
30
0.0000000000
10
75.7144228896
20
165.7438135748
30
0.0000000000
10
75.7445153971
20
165.8629530980
30
0.0000000000
10
75.7767145734
20
165.9939305918
30
0.0000000000
10
75.8118530913
20
166.1413747013
30
0.0000000000
10
75.8500523027
20
166.3075888687
30
0.0000000000
10
75.8908446850
20
166.4927286894
30
0.0000000000
10
75.9336903287
20
166.6968391996
30
0.0000000000
10
75.9782051592
20
166.9210421640
30
0.0000000000
10
76.0240593232
20
167.1673760556
30
0.0000000000
10
76.0708114624
20
167.4382285825
30
0.0000000000
10
76.1179584622
20
167.7369488150
30
0.0000000000
10
76.1648684191
20
168.0681854169
30
0.0000000000
10
76.2105561525
20
168.4374893670
30
0.0000000000
10
76.2532312341
20
168.8484870017
30
0.0000000000
10
76.2903301125
20
169.3015810868
30
0.0000000000
10
76.3189705344
20
169.7956949664
30
0.0000000000
10
76.3363296106
20
170.3358429800
30
0.0000000000
10
76.3386628233
20
170.9332571677
30
0.0000000000
10
76.3206230619
20
171.5866167971
30
0.0000000000
10
76.2782825268
20
172.2698075989
30
0.0000000000
10
76.2124133830
20
172.9489913257
30
0.0000000000
10
76.1261262752
20
173.6070701331
30
0.0000000000
10
76.0206296719
20
174.2480179073
30
0.0000000000
10
75.8955807763
20
174.8795545799
30
0.0000000000
10
75.7503824943
20
175.5061576750
30
0.0000000000
10
75.6400725499
20
175.9208031925
30
0.0000000000
10
75.5814218310
20
176.1277139370
30
0.0000000000
11
75.5631365103
21
165.1863351643
31
0.0000000000
11
75.5943593399
21
165.2964109683
31
0.0000000000
11
75.6254290460
21
165.4084058139
31
0.0000000000
11
75.6556769515
21
165.5199466874
31
0.0000000000
11
75.6850162379
21
165.6306573924
31
0.0000000000
11
75.7138240392
21
165.7419401877
31
0.0000000000
11
75.7434169590
21
165.8591017915
31
0.0000000000
11
75.7751319359
21
165.9881096986
31
0.0000000000
11
75.8101233357
21
166.1349364973
31
0.0000000000
11
75.8484078232
21
166.3015217376
31
0.0000000000
11
75.8892406594
21
166.4868451857
31
0.0000000000
11
75.9319789682
21
166.6904444051
31
0.0000000000
11
75.9763537965
21
166.9139422948
31
0.0000000000
11
76.0220726818
21
167.1595495478
31
0.0000000000
11
76.0686771166
21
167.4295465194
31
0.0000000000
11
76.1155612236
21
167.7266013271
31
0.0000000000
11
76.1621845408
21
168.0558143557
31
0.0000000000
11
76.2076548556
21
168.4233616217
31
0.0000000000
11
76.2503545314
21
168.8345975116
31
0.0000000000
11
76.2875451535
21
169.2888146269
31
0.0000000000
11
76.3161613002
21
169.7825146635
31
0.0000000000
11
76.3333267661
21
170.3166508902
31
0.0000000000
11
76.3356387353
21
170.9087932873
31
0.0000000000
11
76.3172715574
21
171.5739752639
31
0.0000000000
11
76.2737932603
21
172.2755073855
31
0.0000000000
11
76.2076922487
21
172.9570719256
31
0.0000000000
11
76.1220078467
21
173.6105468605
31
0.0000000000
11
76.0169373311
21
174.2488995336
31
0.0000000000
11
75.8921659923
21
174.8790297617
31
0.0000000000
11
75.7472953748
21
175.5042128265
31
0.0000000000
11
75.5814218310
21
176.1277139370
31
0.0000000000
0
SPLINE
5
470
100
AcDbEntity
8
0
100
AcDbSpline
62
7
6
CONTINUOUS
70
0
71
3
72
22
73
18
74
16
42
0.0000001000
43
0.0000001000
44
0.0000000001
40
0.0000000000
40
0.0000000000
40
0.0000000000
40
0.0000000000
40
0.0663320970
40
0.1326244139
40
0.1988686461
40
0.2650216551
40
0.3311295447
40
0.3972248581
40
0.4633932624
40
0.5295238051
40
0.5956901740
40
0.6621193885
40
0.7290305867
40
0.7964161274
40
0.8641596574
40
0.9320885507
40
1.0000000000
40
1.0000000000
40
1.0000000000
40
1.0000000000
10
135.6146785817
20
206.6821850447
30
0.0000000000
10
135.1506131554
20
205.8955915161
30
0.0000000000
10
134.2733147128
20
204.2924042259
30
0.0000000000
10
133.1167611683
20
201.8085351098
30
0.0000000000
10
132.1252272260
20
199.2568147253
30
0.0000000000
10
131.3031280696
20
196.6482657446
30
0.0000000000
10
130.6538291390
20
193.9935247862
30
0.0000000000
10
130.1797913591
20
191.3017365118
30
0.0000000000
10
129.8836689286
20
188.5842846788
30
0.0000000000
10
129.7671834702
20
185.8522460228
30
0.0000000000
10
129.8312789696
20
183.1148754462
30
0.0000000000
10
130.0773892696
20
180.3770181542
30
0.0000000000
10
130.5080100905
20
177.6450161116
30
0.0000000000
10
131.1251150564
20
174.9304127540
30
0.0000000000
10
131.9282901855
20
172.2502266643
30
0.0000000000
10
132.9139522494
20
169.6240353923
30
0.0000000000
10
133.6892822861
20
167.9201437701
30
0.0000000000
10
134.1052308944
20
167.0827283973
30
0.0000000000
11
135.6146785817
21
206.6821850447
31
0.0000000000
11
134.2995672700
21
204.2785924980
31
0.0000000000
11
133.1438469057
21
201.7962379276
31
0.0000000000
11
132.1529092972
21
199.2457588603
31
0.0000000000
11
131.3316631271
21
196.6396411146
31
0.0000000000
11
130.6830022809
21
193.9872171583
31
0.0000000000
11
130.2095950236
21
191.2985069264
31
0.0000000000
11
129.9135841852
21
188.5814960468
31
0.0000000000
11
129.7972679912
21
185.8524494919
31
0.0000000000
11
129.8612752717
21
183.1201951021
31
0.0000000000
11
130.1069677720
21
180.3873563453
31
0.0000000000
11
130.5372978380
21
177.6572947446
31
0.0000000000
11
131.1542994681
21
174.9431811257
31
0.0000000000
11
131.9575316065
21
172.2627978787
31
0.0000000000
11
132.9434572220
21
169.6359188909
31
0.0000000000
11
134.1052308944
21
167.0827283973
31
0.0000000000
0
SPLINE
5
471
100
AcDbEntity
8
0
100
AcDbSpline
62
7
6
CONTINUOUS
70
0
71
3
72
29
73
25
74
23
42
0.0000001000
43
0.0000001000
44
0.0000000001
40
0.0000000000
40
0.0000000000
40
0.0000000000
40
0.0000000000
40
0.0453547445
40
0.0909329317
40
0.1364462806
40
0.1816363992
40
0.2267352477
40
0.2720775522
40
0.3174214446
40
0.3625758252
40
0.4077502312
40
0.4530556611
40
0.4984076158
40
0.5438276600
40
0.5893562292
40
0.6348326932
40
0.6803833817
40
0.7261867886
40
0.7720112842
40
0.8175961501
40
0.8633018526
40
0.9090998743
40
0.9547020330
40
1.0000000000
40
1.0000000000
40
1.0000000000
40
1.0000000000
10
100.2594014372
20
88.3984106848
30
0.0000000000
10
101.7612280333
20
88.0138321506
30
0.0000000000
10
104.8185206370
20
87.4119098683
30
0.0000000000
10
109.4765045001
20
87.0321396690
30
0.0000000000
10
114.1425117237
20
87.1810789203
30
0.0000000000
10
118.7455069534
20
87.8522057727
30
0.0000000000
10
123.2385438678
20
89.0337790349
30
0.0000000000
10
127.5754272001
20
90.7145326172
30
0.0000000000
10
131.6971564907
20
92.8738018228
30
0.0000000000
10
135.5455088088
20
95.4789417455
30
0.0000000000
10
139.0770023963
20
98.4976776750
30
0.0000000000
10
142.2528971932
20
101.8978406559
30
0.0000000000
10
145.0330194353
20
105.6390301317
30
0.0000000000
10
147.3808515578
20
109.6744291562
30
0.0000000000
10
149.2641612865
20
113.9510948647
30
0.0000000000
10
150.6591704129
20
118.4156072493
30
0.0000000000
10
151.5491867329
20
123.0171236971
30
0.0000000000
10
151.9199894104
20
127.7012925666
30
0.0000000000
10
151.7633024938
20
132.3986800646
30
0.0000000000
10
151.0826361633
20
137.0456450184
30
0.0000000000
10
149.8868439259
20
141.5865302133
30
0.0000000000
10
148.1885262986
20
145.9652344481
30
0.0000000000
10
146.0159098104
20
150.1125295669
30
0.0000000000
10
144.2705755384
20
152.6923627368
30
0.0000000000
10
143.3325398417
20
153.9242146757
30
0.0000000000
11
100.2594014372
21
88.3984106848
31
0.0000000000
11
104.8226912962
21
87.5001681633
31
0.0000000000
11
109.4810010133
21
87.1203565463
31
0.0000000000
11
114.1457417161
21
87.2693361516
31
0.0000000000
11
118.7312306635
21
87.9379199381
31
0.0000000000
11
123.2037730966
21
89.1141105222
31
0.0000000000
11
127.5391729104
21
90.7942588497
31
0.0000000000
11
131.6579807773
21
92.9519255931
31
0.0000000000
11
135.4923908642
21
95.5475105940
31
0.0000000000
11
139.0136905604
21
98.5573663011
31
0.0000000000
11
142.1850036317
21
101.9523942789
31
0.0000000000
11
144.9590054073
21
105.6850484506
31
0.0000000000
11
147.3013910523
21
109.7107177624
31
0.0000000000
11
149.1831318508
21
113.9833777326
31
0.0000000000
11
150.5740956913
21
118.4344371076
31
0.0000000000
11
151.4612031222
21
123.0203717074
31
0.0000000000
11
151.8318958096
21
127.7025834846
31
0.0000000000
11
151.6752224425
21
132.3989962102
31
0.0000000000
11
150.9976824131
21
137.0240851868
31
0.0000000000
11
149.8039977422
21
141.5563717758
31
0.0000000000
11
148.1056297957
21
145.9348280634
31
0.0000000000
11
145.9354187640
21
150.0769620425
31
0.0000000000
11
143.3325398417
21
153.9242146757
31
0.0000000000
0
SPLINE
5
472
100
AcDbEntity
8
0
100
AcDbSpline
62
7
6
CONTINUOUS
70
0
71
3
72
11
73
7
74
5
42
0.0000001000
43
0.0000001000
44
0.0000000001
40
0.0000000000
40
0.0000000000
40
0.0000000000
40
0.0000000000
40
0.2496075982
40
0.5014674384
40
0.7525332790
40
1.0000000000
40
1.0000000000
40
1.0000000000
40
1.0000000000
10
143.3325398417
20
153.9242146757
30
0.0000000000
10
142.7851378052
20
154.6430767217
30
0.0000000000
10
141.6964790108
20
156.0957555080
30
0.0000000000
10
140.0918123403
20
158.2971320032
30
0.0000000000
10
138.5136004524
20
160.5080023464
30
0.0000000000
10
137.4741980141
20
161.9832593139
30
0.0000000000
10
136.9591891235
20
162.7162210141
30
0.0000000000
11
143.3325398417
21
153.9242146757
31
0.0000000000
11
141.7061634311
21
156.0927636023
31
0.0000000000
11
140.0937985505
21
158.3021030967
31
0.0000000000
11
138.5083394074
21
160.5202391154
31
0.0000000000
11
136.9591891235
21
162.7162210141
31
0.0000000000
0
SPLINE
5
473
100
AcDbEntity
8
0
100
AcDbSpline
62
7
6
CONTINUOUS
70
0
71
3
72
13
73
9
74
7
42
0.0000001000
43
0.0000001000
44
0.0000000001
40
0.0000000000
40
0.0000000000
40
0.0000000000
40
0.0000000000
40
0.1646368848
40
0.3301952365
40
0.4963860855
40
0.6633063723
40
0.8314267973
40
1.0000000000
40
1.0000000000
40
1.0000000000
40
1.0000000000
10
79.6672029653
20
100.6724134885
30
0.0000000000
10
80.5689666585
20
99.6899682850
30
0.0000000000
10
82.4741616910
20
97.8058458995
30
0.0000000000
10
85.5970814129
20
95.2638748135
30
0.0000000000
10
88.9661471570
20
93.0242712616
30
0.0000000000
10
92.5532841650
20
91.1092876012
30
0.0000000000
10
96.3251870758
20
89.5401657575
30
0.0000000000
10
98.9366401920
20
88.7371352633
30
0.0000000000
10
100.2594014372
20
88.3984106848
30
0.0000000000
11
79.6672029653
21
100.6724134885
31
0.0000000000
11
82.5116465732
21
97.8591364688
31
0.0000000000
11
85.6315043894
21
95.3191485153
31
0.0000000000
11
88.9944288775
21
93.0831491644
31
0.0000000000
11
92.5723899899
21
91.1724875482
31
0.0000000000
11
96.3441677174
21
89.6029146436
31
0.0000000000
11
100.2594014372
21
88.3984106848
31
0.0000000000
0
SPLINE
5
474
100
AcDbEntity
8
0
100
AcDbSpline
62
7
6
CONTINUOUS
70
0
71
3
72
15
73
11
74
9
42
0.0000001000
43
0.0000001000
44
0.0000000001
40
0.0000000000
40
0.0000000000
40
0.0000000000
40
0.0000000000
40
0.1795540924
40
0.3576643237
40
0.5234090606
40
0.6731005835
40
0.7990042964
40
0.8957939285
40
0.9624519099
40
1.0000000000
40
1.0000000000
40
1.0000000000
40
1.0000000000
10
144.9464027099
20
226.4580603992
30
0.0000000000
10
144.9051962970
20
226.2637431712
30
0.0000000000
10
144.8140049170
20
225.8785448862
30
0.0000000000
10
144.6539149006
20
225.3218178390
30
0.0000000000
10
144.4771617183
20
224.8050558254
30
0.0000000000
10
144.2937446413
20
224.3519372694
30
0.0000000000
10
144.1158533710
20
223.9809807346
30
0.0000000000
10
143.9501385828
20
223.7035938455
30
0.0000000000
10
143.8167117139
20
223.5314255758
30
0.0000000000
10
143.7128979843
20
223.4580603992
30
0.0000000000
10
143.6713590434
20
223.4580603992
30
0.0000000000
11
144.9464027099
21
226.4580603992
31
0.0000000000
11
144.8090489887
21
225.8781911576
31
0.0000000000
11
144.6453106175
21
225.3101983077
31
0.0000000000
11
144.4664081865
21
224.7900197719
31
0.0000000000
11
144.2788081671
21
224.3299963790
31
0.0000000000
11
144.0951828234
21
223.9546486112
31
0.0000000000
11
143.9276592802
21
223.6805586282
31
0.0000000000
11
143.7832141334
21
223.5129948269
31
0.0000000000
11
143.6713590434
21
223.4580603992
31
0.0000000000
0
SPLINE
5
475
100
AcDbEntity
8
0
100
AcDbSpline
62
7
6
CONTINUOUS
70
0
71
3
72
10
73
6
74
4
42
0.0000001000
43
0.0000001000
44
0.0000000001
40
0.0000000000
40
0.0000000000
40
0.0000000000
40
0.0000000000
40
0.3335457164
40
0.6667838236
40
1.0000000000
40
1.0000000000
40
1.0000000000
40
1.0000000000
10
68.5822434188
20
122.0920842645
30
0.0000000000
10
68.9011582125
20
121.4167704851
30
0.0000000000
10
69.5056092964
20
120.0508487619
30
0.0000000000
10
70.3112256212
20
117.9608924593
30
0.0000000000
10
70.7806495560
20
116.5437032104
30
0.0000000000
10
70.9984368900
20
115.8301049663
30
0.0000000000
11
68.5822434188
21
122.0920842645
31
0.0000000000
11
69.4890528392
21
120.0433054105
31
0.0000000000
11
70.2943715497
21
117.9547639949
31
0.0000000000
11
70.9984368900
21
115.8301049663
31
0.0000000000
0
SPLINE
5
476
100
AcDbEntity
8
0
100
AcDbSpline
62
7
6
CONTINUOUS
70
0
71
3
72
11
73
7
74
5
42
0.0000001000
43
0.0000001000
44
0.0000000001
40
0.0000000000
40
0.0000000000
40
0.0000000000
40
0.0000000000
40
0.2498771303
40
0.4995045024
40
0.7493671340
40
1.0000000000
40
1.0000000000
40
1.0000000000
40
1.0000000000
10
100.4142813240
20
186.5026021717
30
0.0000000000
10
100.1824455643
20
186.9321423105
30
0.0000000000
10
99.7716963237
20
187.8204475049
30
0.0000000000
10
99.3250273880
20
189.2182368971
30
0.0000000000
10
99.0538943459
20
190.6618994886
30
0.0000000000
10
98.9933370978
20
191.6406461589
30
0.0000000000
10
98.9933370978
20
192.1302336237
30
0.0000000000
11
100.4142813240
21
186.5026021717
31
0.0000000000
11
99.7997726585
21
187.8317568102
31
0.0000000000
11
99.3544363693
21
189.2251929156
31
0.0000000000
11
99.0841671165
21
190.6642824381
31
0.0000000000
11
98.9933370978
21
192.1302336237
31
0.0000000000
0
SPLINE
5
477
100
AcDbEntity
8
0
100
AcDbSpline
62
7
6
CONTINUOUS
70
0
71
3
72
15
73
11
74
9
42
0.0000001000
43
0.0000001000
44
0.0000000001
40
0.0000000000
40
0.0000000000
40
0.0000000000
40
0.0000000000
40
0.1248951344
40
0.2498866763
40
0.3749251016
40
0.4999883127
40
0.6250514429
40
0.7500912586
40
0.8750878128
40
1.0000000000
40
1.0000000000
40
1.0000000000
40
1.0000000000
10
70.9984368900
20
115.8301049663
30
0.0000000000
10
71.2123649232
20
115.1291520411
30
0.0000000000
10
71.6805309614
20
113.7386103732
30
0.0000000000
10
72.4990133489
20
111.6953374863
30
0.0000000000
10
73.4303249725
20
109.6998121081
30
0.0000000000
10
74.4707038406
20
107.7584717683
30
0.0000000000
10
75.6165610563
20
105.8774521646
30
0.0000000000
10
76.8643744315
20
104.0629057546
30
0.0000000000
10
78.2104950442
20
102.3212315947
30
0.0000000000
10
79.1715612363
20
101.2124006747
30
0.0000000000
10
79.6672029653
20
100.6724134885
30
0.0000000000
11
70.9984368900
21
115.8301049663
31
0.0000000000
11
71.6996730474
21
113.7463176182
31
0.0000000000
11
72.5176452812
21
111.7036994913
31
0.0000000000
11
73.4484074900
21
109.7090361850
31
0.0000000000
11
74.4882842523
21
107.7685266378
31
0.0000000000
11
75.6336645578
21
105.8883621031
31
0.0000000000
11
76.8809969301
21
104.0747277154
31
0.0000000000
11
78.2267729539
21
102.3338536305
31
0.0000000000
11
79.6672029653
21
100.6724134885
31
0.0000000000
0
SPLINE
5
478
100
AcDbEntity
8
0
100
AcDbSpline
62
7
6
CONTINUOUS
70
0
71
3
72
18
73
14
74
12
42
0.0000001000
43
0.0000001000
44
0.0000000001
40
0.0000000000
40
0.0000000000
40
0.0000000000
40
0.0000000000
40
0.1354247261
40
0.2664356016
40
0.3914433514
40
0.5086845815
40
0.6158286913
40
0.7102912584
40
0.7896212515
40
0.8530483990
40
0.9035526339
40
0.9492320099
40
1.0000000000
40
1.0000000000
40
1.0000000000
40
1.0000000000
10
129.3617250733
20
240.4580603992
30
0.0000000000
10
129.3094766766
20
240.5991955201
30
0.0000000000
10
129.2078171041
20
240.8772877551
30
0.0000000000
10
129.0625195687
20
241.2873212456
30
0.0000000000
10
128.9298030190
20
241.6803404167
30
0.0000000000
10
128.8144371046
20
242.0511419170
30
0.0000000000
10
128.7225693062
20
242.3935064739
30
0.0000000000
10
128.6612475665
20
242.6999646141
30
0.0000000000
10
128.6379053470
20
242.9634157242
30
0.0000000000
10
128.6584442071
20
243.1790078216
30
0.0000000000
10
128.7346257867
20
243.3458809731
30
0.0000000000
10
128.8742841788
20
243.4440443834
30
0.0000000000
10
128.9838438516
20
243.4580603992
30
0.0000000000
10
129.0402617216
20
243.4580603992
30
0.0000000000
11
129.3617250733
21
240.4580603992
31
0.0000000000
11
129.2068467875
21
240.8821522198
31
0.0000000000
11
129.0613387142
21
241.2939745677
31
0.0000000000
11
128.9286781939
21
241.6890558093
31
0.0000000000
11
128.8136799958
21
242.0626223438
31
0.0000000000
11
128.7228927322
21
242.4080964323
31
0.0000000000
11
128.6640994265
21
242.7174851295
31
0.0000000000
11
128.6453632945
21
242.9812961001
31
0.0000000000
11
128.6729186208
21
243.1909505544
31
0.0000000000
11
128.7494740454
21
243.3409144402
31
0.0000000000
11
128.8734631364
21
243.4293372992
31
0.0000000000
11
129.0402617216
21
243.4580603992
31
0.0000000000
0
SPLINE
5
479
100
AcDbEntity
8
0
100
AcDbSpline
62
7
6
CONTINUOUS
70
0
71
3
72
18
73
14
74
12
42
0.0000001000
43
0.0000001000
44
0.0000000001
40
0.0000000000
40
0.0000000000
40
0.0000000000
40
0.0000000000
40
0.0512547883
40
0.0969826087
40
0.1474773424
40
0.2111801764
40
0.2910521912
40
0.3862214537
40
0.4939367908
40
0.6109447466
40
0.7350215344
40
0.8649645831
40
1.0000000000
40
1.0000000000
40
1.0000000000
40
1.0000000000
10
128.8172392626
20
223.4580603992
30
0.0000000000
10
128.7599810881
20
223.4580603992
30
0.0000000000
10
128.6491564282
20
223.4718872075
30
0.0000000000
10
128.5084650401
20
223.5719544753
30
0.0000000000
10
128.4356611026
20
223.7421974082
30
0.0000000000
10
128.4213304380
20
223.9603053249
30
0.0000000000
10
128.4525019664
20
224.2260597338
30
0.0000000000
10
128.5229308831
20
224.5343120018
30
0.0000000000
10
128.6244205622
20
224.8771028877
30
0.0000000000
10
128.7492492728
20
225.2462769300
30
0.0000000000
10
128.8910215510
20
225.6357849661
30
0.0000000000
10
129.0454406149
20
226.0420615857
30
0.0000000000
10
129.1531987572
20
226.3177703762
30
0.0000000000
10
129.2086514464
20
226.4580603992
30
0.0000000000
11
128.8172392626
21
223.4580603992
31
0.0000000000
11
128.6479531970
21
223.4871931104
31
0.0000000000
11
128.5238510477
21
223.5771079970
31
0.0000000000
11
128.4501893975
21
223.7294623083
31
0.0000000000
11
128.4283018649
21
223.9418300915
31
0.0000000000
11
128.4548240762
21
224.2081947896
31
0.0000000000
11
128.5228497027
21
224.5198049136
31
0.0000000000
11
128.6235695325
21
224.8664651296
31
0.0000000000
11
128.7480952652
21
225.2383066256
31
0.0000000000
11
128.8896770312
21
225.6292905391
31
0.0000000000
11
129.0440413337
21
226.0365036028
31
0.0000000000
11
129.2086514464
21
226.4580603992
31
0.0000000000
0
SPLINE
5
47A
100
AcDbEntity
8
0
100
AcDbSpline
62
7
6
CONTINUOUS
70
0
71
3
72
9
73
5
74
3
42
0.0000001000
43
0.0000001000
44
0.0000000001
40
0.0000000000
40
0.0000000000
40
0.0000000000
40
0.0000000000
40
0.5102282874
40
1.0000000000
40
1.0000000000
40
1.0000000000
40
1.0000000000
10
136.4977922166
20
163.3755064704
30
0.0000000000
10
136.5761403067
20
163.2632924437
30
0.0000000000
10
136.7297318807
20
163.0433889456
30
0.0000000000
10
136.8836345437
20
162.8237027545
30
0.0000000000
10
136.9591625805
20
162.7162126683
30
0.0000000000
11
136.4977922166
21
163.3755064704
31
0.0000000000
11
136.7329548249
21
163.0389470454
31
0.0000000000
11
136.9591625805
21
162.7162126683
31
0.0000000000
0
SPLINE
5
47B
100
AcDbEntity
8
0
100
AcDbSpline
62
7
6
CONTINUOUS
70
0
71
3
72
11
73
7
74
5
42
0.0000001000
43
0.0000001000
44
0.0000000001
40
0.0000000000
40
0.0000000000
40
0.0000000000
40
0.0000000000
40
0.2194638413
40
0.4528779345
40
0.7122744760
40
1.0000000000
40
1.0000000000
40
1.0000000000
40
1.0000000000
10
134.1052308944
20
167.0827283973
30
0.0000000000
10
134.1866814624
20
166.9187523561
30
0.0000000000
10
134.3649980027
20
166.5854137194
30
0.0000000000
10
134.6695240856
20
166.0749953292
30
0.0000000000
10
135.0212284090
20
165.5268801374
30
0.0000000000
10
135.2754447869
20
165.1477625531
30
0.0000000000
10
135.4100204563
20
164.9489955803
30
0.0000000000
11
134.1052308944
21
167.0827283973
31
0.0000000000
11
134.3630998572
21
166.5977493956
31
0.0000000000
11
134.6609641277
21
166.0952035918
31
0.0000000000
11
135.0101914241
21
165.5479171341
31
0.0000000000
11
135.4100204563
21
164.9489955803
31
0.0000000000
0
SPLINE
5
47C
100
AcDbEntity
8
0
100
AcDbSpline
62
7
6
CONTINUOUS
70
0
71
3
72
9
73
5
74
3
42
0.0000001000
43
0.0000001000
44
0.0000000001
40
0.0000000000
40
0.0000000000
40
0.0000000000
40
0.0000000000
40
0.4992096760
40
1.0000000000
40
1.0000000000
40
1.0000000000
40
1.0000000000
10
135.4100204553
20
164.9489955786
30
0.0000000000
10
135.4132443093
20
164.9442339771
30
0.0000000000
10
135.4197035116
20
164.9346965686
30
0.0000000000
10
135.4261652387
20
164.9251608704
30
0.0000000000
10
135.4294018293
20
164.9203859054
30
0.0000000000
11
135.4100204553
21
164.9489955786
31
0.0000000000
11
135.4196939311
21
164.9347120701
31
0.0000000000
11
135.4294018293
21
164.9203859054
31
0.0000000000
0
SPLINE
5
47D
100
AcDbEntity
8
0
100
AcDbSpline
62
7
6
CONTINUOUS
70
0
71
3
72
9
73
5
74
3
42
0.0000001000
43
0.0000001000
44
0.0000000001
40
0.0000000000
40
0.0000000000
40
0.0000000000
40
0.0000000000
40
0.4836608657
40
1.0000000000
40
1.0000000000
40
1.0000000000
40
1.0000000000
10
135.4294018201
20
164.9203858895
30
0.0000000000
10
135.5522131828
20
164.7392014185
30
0.0000000000
10
135.8081642247
20
164.3659676347
30
0.0000000000
10
136.0663279659
20
163.9942676202
30
0.0000000000
10
136.1999321046
20
163.8025564585
30
0.0000000000
11
135.4294018201
21
164.9203858895
31
0.0000000000
11
135.8003177997
21
164.3785230599
31
0.0000000000
11
136.1999321046
21
163.8025564585
31
0.0000000000
0
SPLINE
5
47E
100
AcDbEntity
8
0
100
AcDbSpline
62
7
6
CONTINUOUS
70
0
71
3
72
9
73
5
74
3
42
0.0000001000
43
0.0000001000
44
0.0000000001
40
0.0000000000
40
0.0000000000
40
0.0000000000
40
0.0000000000
40
0.5022111994
40
1.0000000000
40
1.0000000000
40
1.0000000000
40
1.0000000000
10
136.1999321046
20
163.8025564585
30
0.0000000000
10
136.2497662176
20
163.7310466275
30
0.0000000000
10
136.3490192314
20
163.5886731291
30
0.0000000000
10
136.4483336221
20
163.4463424319
30
0.0000000000
10
136.4977922166
20
163.3755064704
30
0.0000000000
11
136.1999321046
21
163.8025564585
31
0.0000000000
11
136.3494736481
21
163.5880542919
31
0.0000000000
11
136.4977922166
21
163.3755064704
31
0.0000000000
0
SPLINE
5
47F
100
AcDbEntity
8
0
100
AcDbSpline
62
7
6
CONTINUOUS
70
0
71
3
72
8
73
4
74
2
42
0.0000001000
43
0.0000001000
44
0.0000000001
40
0.0000000000
40
0.0000000000
40
0.0000000000
40
0.0000000000
40
1.0000000000
40
1.0000000000
40
1.0000000000
40
1.0000000000
10
143.7935370709
20
243.4580603992
30
0.0000000000
10
143.8115019611
20
243.4580603992
30
0.0000000000
10
143.8286785723
20
243.4530315260
30
0.0000000000
10
143.8450319195
20
243.4450000031
30
0.0000000000
11
143.7935370709
21
243.4580603992
31
0.0000000000
11
143.8450319195
21
243.4450000031
31
0.0000000000
0
SPLINE
5
480
100
AcDbEntity
8
0
100
AcDbSpline
62
7
6
CONTINUOUS
70
0
71
3
72
8
73
4
74
2
42
0.0000001000
43
0.0000001000
44
0.0000000001
40
0.0000000000
40
0.0000000000
40
0.0000000000
40
0.0000000000
40
1.0000000000
40
1.0000000000
40
1.0000000000
40
1.0000000000
10
143.8450319195
20
243.4450000031
30
0.0000000000
10
143.8660632401
20
243.4346710147
30
0.0000000000
10
143.8857329315
20
243.4193758236
30
0.0000000000
10
143.9039665792
20
243.4034243279
30
0.0000000000
11
143.8450319195
21
243.4450000031
31
0.0000000000
11
143.9039665792
21
243.4034243279
31
0.0000000000
0
SPLINE
5
481
100
AcDbEntity
8
0
100
AcDbSpline
62
7
6
CONTINUOUS
70
0
71
3
72
14
73
10
74
8
42
0.0000001000
43
0.0000001000
44
0.0000000001
40
0.0000000000
40
0.0000000000
40
0.0000000000
40
0.0000000000
40
0.0690268661
40
0.1692337306
40
0.2998134512
40
0.4553495542
40
0.6277917156
40
0.8128021202
40
1.0000000000
40
1.0000000000
40
1.0000000000
40
1.0000000000
10
143.9039665792
20
243.4034243279
30
0.0000000000
10
143.9617262490
20
243.3528939488
30
0.0000000000
10
144.0680064995
20
243.2128617760
30
0.0000000000
10
144.2297952636
20
242.9357739110
30
0.0000000000
10
144.4025840662
20
242.5649912632
30
0.0000000000
10
144.5801280427
20
242.1117474575
30
0.0000000000
10
144.7502484272
20
241.5949672023
30
0.0000000000
10
144.9034372856
20
241.0379236189
30
0.0000000000
10
144.9898832746
20
240.6526945647
30
0.0000000000
10
145.0287695831
20
240.4580603992
30
0.0000000000
11
143.9039665792
21
243.4034243279
31
0.0000000000
11
144.0459369644
21
243.2359375849
31
0.0000000000
11
144.2093863161
21
242.9622967443
31
0.0000000000
11
144.3878410801
21
242.5872371611
31
0.0000000000
11
144.5694848257
21
242.1270576355
31
0.0000000000
11
144.7418906205
21
241.6063502886
31
0.0000000000
11
144.8983150708
21
241.0390363457
31
0.0000000000
11
145.0287695831
21
240.4580603992
31
0.0000000000
0
SPLINE
5
482
100
AcDbEntity
8
0
100
AcDbSpline
62
7
6
CONTINUOUS
70
0
71
3
72
15
73
11
74
9
42
0.0000001000
43
0.0000001000
44
0.0000000001
40
0.0000000000
40
0.0000000000
40
0.0000000000
40
0.0000000000
40
0.2154834978
40
0.4146806838
40
0.5913093082
40
0.7393296966
40
0.8581571017
40
0.9452827565
40
0.9931105955
40
1.0000000000
40
1.0000000000
40
1.0000000000
40
1.0000000000
10
279.2270846470
20
195.2606098225
30
0.0000000000
10
279.2270846470
20
195.4714604775
30
0.0000000000
10
279.2240835682
20
195.8774236113
30
0.0000000000
10
279.2098156713
20
196.4551108569
30
0.0000000000
10
279.1865302739
20
196.9695427065
30
0.0000000000
10
279.1548136523
20
197.3956962003
30
0.0000000000
10
279.1162409323
20
197.7579148494
30
0.0000000000
10
279.0707869464
20
197.9614654094
30
0.0000000000
10
279.0264292431
20
198.1576222328
30
0.0000000000
10
278.9826168769
20
198.1506865239
30
0.0000000000
10
278.9768626348
20
198.1487837344
30
0.0000000000
11
279.2270846470
21
195.2606098225
31
0.0000000000
11
279.2220742234
21
195.8931419436
31
0.0000000000
11
279.2071255724
21
196.4776943201
31
0.0000000000
11
279.1826575343
21
196.9956101229
31
0.0000000000
11
279.1496507171
21
197.4288686253
31
0.0000000000
11
279.1079778751
21
197.7751883121
31
0.0000000000
11
279.0562327216
21
198.0256564711
31
0.0000000000
11
278.9932263434
21
198.1511235145
31
0.0000000000
11
278.9768626348
21
198.1487837344
31
0.0000000000
0
SPLINE
5
483
100
AcDbEntity
8
0
100
AcDbSpline
62
7
6
CONTINUOUS
70
0
71
3
72
15
73
11
74
9
42
0.0000001000
43
0.0000001000
44
0.0000000001
40
0.0000000000
40
0.0000000000
40
0.0000000000
40
0.0000000000
40
0.1448177909
40
0.2979756429
40
0.4521783275
40
0.6001746392
40
0.7348533779
40
0.8498212904
40
0.9395502183
40
1.0000000000
40
1.0000000000
40
1.0000000000
40
1.0000000000
10
278.0176044347
20
189.6566839865
30
0.0000000000
10
278.0051068668
20
190.3403911313
30
0.0000000000
10
277.9960673888
20
191.7475089637
30
0.0000000000
10
278.0232330889
20
193.8826109038
30
0.0000000000
10
278.0895553012
20
196.0318628336
30
0.0000000000
10
278.1916545821
20
198.0924344221
30
0.0000000000
10
278.3248045161
20
199.9653556444
30
0.0000000000
10
278.4802168885
20
201.5610515248
30
0.0000000000
10
278.6522927153
20
202.8005013767
30
0.0000000000
10
278.7907753591
20
203.4986128196
30
0.0000000000
10
278.8771299929
20
203.7706773586
30
0.0000000000
11
278.0176044347
21
189.6566839865
31
0.0000000000
11
278.0026839141
21
191.7080937992
31
0.0000000000
11
278.0297010133
21
193.8775335297
31
0.0000000000
11
278.0973877097
21
196.0608934729
31
0.0000000000
11
278.2026041482
21
198.1547420179
31
0.0000000000
11
278.3403477648
21
200.0575990453
31
0.0000000000
11
278.5041109899
21
201.6779604328
31
0.0000000000
11
278.6859375526
21
202.9359728741
31
0.0000000000
11
278.8771299929
21
203.7706773586
31
0.0000000000
0
SPLINE
5
484
100
AcDbEntity
8
0
100
AcDbSpline
62
7
6
CONTINUOUS
70
0
71
3
72
10
73
6
74
4
42
0.0000001000
43
0.0000001000
44
0.0000000001
40
0.0000000000
40
0.0000000000
40
0.0000000000
40
0.0000000000
40
0.0276718545
40
0.5128148634
40
1.0000000000
40
1.0000000000
40
1.0000000000
40
1.0000000000
10
308.1344322163
20
158.2070967246
30
0.0000000000
10
308.1387192624
20
158.2120645174
30
0.0000000000
10
308.2172535341
20
158.3049108482
30
0.0000000000
10
308.3367422123
20
158.5136988968
30
0.0000000000
10
308.3771299929
20
158.7451635903
30
0.0000000000
10
308.3771299929
20
158.8601523704
30
0.0000000000
11
308.1344322163
21
158.2070967246
31
0.0000000000
11
308.1471445395
21
158.2221260402
31
0.0000000000
11
308.3176291050
21
158.5203562253
31
0.0000000000
11
308.3771299929
21
158.8601523704
31
0.0000000000
0
SPLINE
5
485
100
AcDbEntity
8
0
100
AcDbSpline
62
7
6
CONTINUOUS
70
0
71
3
72
16
73
12
74
10
42
0.0000001000
43
0.0000001000
44
0.0000000001
40
0.0000000000
40
0.0000000000
40
0.0000000000
40
0.0000000000
40
0.1118805796
40
0.2248715314
40
0.3380956124
40
0.4507774376
40
0.5624483512
40
0.6731607808
40
0.7834352513
40
0.8938605728
40
1.0000000000
40
1.0000000000
40
1.0000000000
40
1.0000000000
10
308.3771299929
20
158.8601523704
30
0.0000000000
10
308.3771299929
20
158.9761681997
30
0.0000000000
10
308.3357215979
20
159.2113741864
30
0.0000000000
10
308.1558460310
20
159.5205250623
30
0.0000000000
10
307.8792206035
20
159.7491993438
30
0.0000000000
10
307.5419886117
20
159.8674647312
30
0.0000000000
10
307.1874392144
20
159.8627078832
30
0.0000000000
10
306.8582217205
20
159.7384137680
30
0.0000000000
10
306.5915898842
20
159.5107700280
30
0.0000000000
10
306.4200117163
20
159.2109636247
30
0.0000000000
10
306.3788988287
20
158.9850651843
30
0.0000000000
10
306.3772413232
20
158.8749360744
30
0.0000000000
11
308.3771299929
21
158.8601523704
31
0.0000000000
11
308.3165614660
21
159.2028891607
31
0.0000000000
11
308.1399290805
21
159.5067879339
31
0.0000000000
11
307.8684086658
21
159.7311548191
31
0.0000000000
11
307.5376299039
21
159.8471882252
31
0.0000000000
11
307.1902657861
21
159.8425381237
31
0.0000000000
11
306.8680564628
21
159.7208754042
31
0.0000000000
11
306.6071154463
21
159.4981787006
31
0.0000000000
11
306.4366308809
21
159.1999485155
31
0.0000000000
11
306.3772413232
21
158.8749360744
31
0.0000000000
0
SPLINE
5
486
100
AcDbEntity
8
0
100
AcDbSpline
62
7
6
CONTINUOUS
70
0
71
3
72
9
73
5
74
3
42
0.0000001000
43
0.0000001000
44
0.0000000001
40
0.0000000000
40
0.0000000000
40
0.0000000000
40
0.0000000000
40
0.4555807127
40
1.0000000000
40
1.0000000000
40
1.0000000000
40
1.0000000000
10
305.1811134908
20
160.5559854201
30
0.0000000000
10
305.2385894794
20
160.6337029702
30
0.0000000000
10
305.3399595566
20
160.8226275111
30
0.0000000000
10
305.3771299929
20
161.0356534192
30
0.0000000000
10
305.3771299929
20
161.1506421993
30
0.0000000000
11
305.1811134908
21
160.5559854201
31
0.0000000000
11
305.3176291050
21
160.8108460542
31
0.0000000000
11
305.3771299929
21
161.1506421993
31
0.0000000000
0
SPLINE
5
487
100
AcDbEntity
8
0
100
AcDbSpline
62
7
6
CONTINUOUS
70
0
71
3
72
14
73
10
74
8
42
0.0000001000
43
0.0000001000
44
0.0000000001
40
0.0000000000
40
0.0000000000
40
0.0000000000
40
0.0000000000
40
0.1429686089
40
0.2873561268
40
0.4320415530
40
0.5760340480
40
0.7187347314
40
0.8602105989
40
1.0000000000
40
1.0000000000
40
1.0000000000
40
1.0000000000
10
305.3771299929
20
161.1506421993
30
0.0000000000
10
305.3771299929
20
161.2666580286
30
0.0000000000
10
305.3357215979
20
161.5018640153
30
0.0000000000
10
305.1558460310
20
161.8110148912
30
0.0000000000
10
304.8792206035
20
162.0396891727
30
0.0000000000
10
304.5419886117
20
162.1579545601
30
0.0000000000
10
304.1874392144
20
162.1531977121
30
0.0000000000
10
303.8590943919
20
162.0292330688
30
0.0000000000
10
303.6818501317
20
161.8783201901
30
0.0000000000
10
303.6088771552
20
161.7907877108
30
0.0000000000
11
305.3771299929
21
161.1506421993
31
0.0000000000
11
305.3165614660
21
161.4933789896
31
0.0000000000
11
305.1399290805
21
161.7972777628
31
0.0000000000
11
304.8684086658
21
162.0216446480
31
0.0000000000
11
304.5376299039
21
162.1376780541
31
0.0000000000
11
304.1902657861
21
162.1330279526
31
0.0000000000
11
303.8680564628
21
162.0113652331
31
0.0000000000
11
303.6088771552
21
161.7907877108
31
0.0000000000
0
SPLINE
5
488
100
AcDbEntity
8
0
100
AcDbSpline
62
7
6
CONTINUOUS
70
0
71
3
72
10
73
6
74
4
42
0.0000001000
43
0.0000001000
44
0.0000000001
40
0.0000000000
40
0.0000000000
40
0.0000000000
40
0.0000000000
40
0.2095698158
40
0.6039548593
40
1.0000000000
40
1.0000000000
40
1.0000000000
40
1.0000000000
10
308.0178104796
20
162.3426268727
30
0.0000000000
10
308.0647593895
20
162.3818141365
30
0.0000000000
10
308.1897561694
20
162.5070782725
30
0.0000000000
10
308.3367422123
20
162.7639137276
30
0.0000000000
10
308.3771299929
20
162.9953784211
30
0.0000000000
10
308.3771299929
20
163.1103672012
30
0.0000000000
11
308.0178104796
21
162.3426268727
31
0.0000000000
11
308.1471445395
21
162.4723408710
31
0.0000000000
11
308.3176291050
21
162.7705710561
31
0.0000000000
11
308.3771299929
21
163.1103672012
31
0.0000000000
0
SPLINE
5
489
100
AcDbEntity
8
0
100
AcDbSpline
62
7
6
CONTINUOUS
70
0
71
3
72
16
73
12
74
10
42
0.0000001000
43
0.0000001000
44
0.0000000001
40
0.0000000000
40
0.0000000000
40
0.0000000000
40
0.0000000000
40
0.1186843509
40
0.2385465987
40
0.3586561531
40
0.4781904755
40
0.5966524100
40
0.7140975725
40
0.8310781422
40
0.9482187367
40
1.0000000000
40
1.0000000000
40
1.0000000000
40
1.0000000000
10
308.3771299929
20
163.1103672012
30
0.0000000000
10
308.3771299929
20
163.2263830305
30
0.0000000000
10
308.3357215979
20
163.4615890172
30
0.0000000000
10
308.1558460310
20
163.7707398931
30
0.0000000000
10
307.8792206035
20
163.9994141746
30
0.0000000000
10
307.5419886117
20
164.1176795620
30
0.0000000000
10
307.1874392144
20
164.1129227141
30
0.0000000000
10
306.8582217205
20
163.9886285988
30
0.0000000000
10
306.5915898842
20
163.7609848588
30
0.0000000000
10
306.4501060067
20
163.5137635896
30
0.0000000000
10
306.4057501332
20
163.3529655238
30
0.0000000000
10
306.3959434042
20
163.3029838071
30
0.0000000000
11
308.3771299929
21
163.1103672012
31
0.0000000000
11
308.3165614660
21
163.4531039915
31
0.0000000000
11
308.1399290805
21
163.7570027647
31
0.0000000000
11
307.8684086658
21
163.9813696499
31
0.0000000000
11
307.5376299039
21
164.0974030560
31
0.0000000000
11
307.1902657861
21
164.0927529545
31
0.0000000000
11
306.8680564628
21
163.9710902350
31
0.0000000000
11
306.6071154463
21
163.7483935315
31
0.0000000000
11
306.4366308809
21
163.4501633463
31
0.0000000000
11
306.3959434042
21
163.3029838071
31
0.0000000000
0
SPLINE
5
48A
100
AcDbEntity
8
0
100
AcDbSpline
62
7
6
CONTINUOUS
70
0
71
3
72
14
73
10
74
8
42
0.0000001000
43
0.0000001000
44
0.0000000001
40
0.0000000000
40
0.0000000000
40
0.0000000000
40
0.0000000000
40
0.0620016774
40
0.2205474730
40
0.3776708938
40
0.5334457068
40
0.6886043015
40
0.8439751471
40
1.0000000000
40
1.0000000000
40
1.0000000000
40
1.0000000000
10
306.7708878480
20
173.4975358688
30
0.0000000000
10
306.8074128568
20
173.5253971123
30
0.0000000000
10
306.9441269259
20
173.6155963833
30
0.0000000000
10
307.2122713741
20
173.7096331527
30
0.0000000000
10
307.5668207714
20
173.7048763047
30
0.0000000000
10
307.8960382654
20
173.5805821895
30
0.0000000000
10
308.1626701016
20
173.3529384495
30
0.0000000000
10
308.3367422123
20
173.0487742655
30
0.0000000000
10
308.3771299929
20
172.8173095720
30
0.0000000000
10
308.3771299929
20
172.7023207919
30
0.0000000000
11
306.7708878480
21
173.4975358688
31
0.0000000000
11
306.8858513200
21
173.5733232406
31
0.0000000000
11
307.2166300819
21
173.6893566467
31
0.0000000000
11
307.5639941997
21
173.6847065452
31
0.0000000000
11
307.8862035230
21
173.5630438257
31
0.0000000000
11
308.1471445395
21
173.3403471222
31
0.0000000000
11
308.3176291050
21
173.0421169370
31
0.0000000000
11
308.3771299929
21
172.7023207919
31
0.0000000000
0
SPLINE
5
48B
100
AcDbEntity
8
0
100
AcDbSpline
62
7
6
CONTINUOUS
70
0
71
3
72
16
73
12
74
10
42
0.0000001000
43
0.0000001000
44
0.0000000001
40
0.0000000000
40
0.0000000000
40
0.0000000000
40
0.0000000000
40
0.1145091317
40
0.2301547230
40
0.3460389207
40
0.4613681227
40
0.5756626625
40
0.6889761994
40
0.8018414876
40
0.9148611711
40
1.0000000000
40
1.0000000000
40
1.0000000000
40
1.0000000000
10
308.3771299929
20
172.7023207919
30
0.0000000000
10
308.3771299929
20
172.5863049626
30
0.0000000000
10
308.3357215979
20
172.3510989759
30
0.0000000000
10
308.1558460310
20
172.0419481000
30
0.0000000000
10
307.8792206035
20
171.8132738185
30
0.0000000000
10
307.5419886117
20
171.6950084311
30
0.0000000000
10
307.1874392144
20
171.6997652791
30
0.0000000000
10
306.8582217205
20
171.8240593944
30
0.0000000000
10
306.5915898842
20
172.0517031343
30
0.0000000000
10
306.4320621959
20
172.3304531818
30
0.0000000000
10
306.3884298090
20
172.5298255096
30
0.0000000000
10
306.3809008430
20
172.6160737107
30
0.0000000000
11
308.3771299929
21
172.7023207919
31
0.0000000000
11
308.3165614660
21
172.3595840016
31
0.0000000000
11
308.1399290805
21
172.0556852284
31
0.0000000000
11
307.8684086658
21
171.8313183432
31
0.0000000000
11
307.5376299039
21
171.7152849372
31
0.0000000000
11
307.1902657861
21
171.7199350386
31
0.0000000000
11
306.8680564628
21
171.8415977581
31
0.0000000000
11
306.6071154463
21
172.0642944617
31
0.0000000000
11
306.4366308809
21
172.3625246468
31
0.0000000000
11
306.3809008430
21
172.6160737107
31
0.0000000000
0
SPLINE
5
48C
100
AcDbEntity
8
0
100
AcDbSpline
62
7
6
CONTINUOUS
70
0
71
3
72
12
73
8
74
6
42
0.0000001000
43
0.0000001000
44
0.0000000001
40
0.0000000000
40
0.0000000000
40
0.0000000000
40
0.0000000000
40
0.1172357671
40
0.3381999353
40
0.5582900073
40
0.7786811540
40
1.0000000000
40
1.0000000000
40
1.0000000000
40
1.0000000000
10
304.3814370733
20
171.3787027712
30
0.0000000000
10
304.4426603638
20
171.3784358278
30
0.0000000000
10
304.6192041821
20
171.3615329467
30
0.0000000000
10
304.8960382654
20
171.2570158779
30
0.0000000000
10
305.1626701016
20
171.0293721379
30
0.0000000000
10
305.3367422123
20
170.7252079539
30
0.0000000000
10
305.3771299929
20
170.4937432604
30
0.0000000000
10
305.3771299929
20
170.3787544803
30
0.0000000000
11
304.3814370733
21
171.3787027712
31
0.0000000000
11
304.5639941997
21
171.3611402336
31
0.0000000000
11
304.8862035230
21
171.2394775141
31
0.0000000000
11
305.1471445395
21
171.0167808106
31
0.0000000000
11
305.3176291050
21
170.7185506254
31
0.0000000000
11
305.3771299929
21
170.3787544803
31
0.0000000000
0
SPLINE
5
48D
100
AcDbEntity
8
0
100
AcDbSpline
62
7
6
CONTINUOUS
70
0
71
3
72
12
73
8
74
6
42
0.0000001000
43
0.0000001000
44
0.0000000001
40
0.0000000000
40
0.0000000000
40
0.0000000000
40
0.0000000000
40
0.2361206985
40
0.4745848050
40
0.7135409241
40
0.9513526280
40
1.0000000000
40
1.0000000000
40
1.0000000000
40
1.0000000000
10
305.3771299929
20
170.3787544803
30
0.0000000000
10
305.3771299929
20
170.2627386510
30
0.0000000000
10
305.3357215979
20
170.0275326643
30
0.0000000000
10
305.1558460310
20
169.7183817884
30
0.0000000000
10
304.8792206035
20
169.4897075069
30
0.0000000000
10
304.6305185182
20
169.4024890663
30
0.0000000000
10
304.4900658043
20
169.3848716183
30
0.0000000000
10
304.4661362569
20
169.3827421437
30
0.0000000000
11
305.3771299929
21
170.3787544803
31
0.0000000000
11
305.3165614660
21
170.0360176900
31
0.0000000000
11
305.1399290805
21
169.7321189168
31
0.0000000000
11
304.8684086658
21
169.5077520316
31
0.0000000000
11
304.5376299039
21
169.3917186256
31
0.0000000000
11
304.4661362569
21
169.3827421437
31
0.0000000000
0
SPLINE
5
48E
100
AcDbEntity
8
0
100
AcDbSpline
62
7
6
CONTINUOUS
70
0
71
3
72
15
73
11
74
9
42
0.0000001000
43
0.0000001000
44
0.0000000001
40
0.0000000000
40
0.0000000000
40
0.0000000000
40
0.0000000000
40
0.1071018725
40
0.2367342214
40
0.3657457315
40
0.4935998303
40
0.6203565430
40
0.7466118280
40
0.8730398253
40
1.0000000000
40
1.0000000000
40
1.0000000000
40
1.0000000000
10
306.4602738566
20
168.1236645022
30
0.0000000000
10
306.4992278926
20
168.2131085453
30
0.0000000000
10
306.6142864289
20
168.3979171217
30
0.0000000000
10
306.8750393823
20
168.6134703151
30
0.0000000000
10
307.2122713741
20
168.7317357025
30
0.0000000000
10
307.5668207714
20
168.7269788546
30
0.0000000000
10
307.8960382654
20
168.6026847393
30
0.0000000000
10
308.1626701016
20
168.3750409993
30
0.0000000000
10
308.3367422123
20
168.0708768153
30
0.0000000000
10
308.3771299929
20
167.8394121218
30
0.0000000000
10
308.3771299929
20
167.7244233417
30
0.0000000000
11
306.4602738566
21
168.1236645022
31
0.0000000000
11
306.6143309053
21
168.3710589052
31
0.0000000000
11
306.8858513200
21
168.5954257904
31
0.0000000000
11
307.2166300819
21
168.7114591965
31
0.0000000000
11
307.5639941997
21
168.7068090950
31
0.0000000000
11
307.8862035230
21
168.5851463756
31
0.0000000000
11
308.1471445395
21
168.3624496720
31
0.0000000000
11
308.3176291050
21
168.0642194868
31
0.0000000000
11
308.3771299929
21
167.7244233417
31
0.0000000000
0
SPLINE
5
48F
100
AcDbEntity
8
0
100
AcDbSpline
62
7
6
CONTINUOUS
70
0
71
3
72
12
73
8
74
6
42
0.0000001000
43
0.0000001000
44
0.0000000001
40
0.0000000000
40
0.0000000000
40
0.0000000000
40
0.0000000000
40
0.2236652465
40
0.4495502854
40
0.6759013829
40
0.9011684337
40
1.0000000000
40
1.0000000000
40
1.0000000000
40
1.0000000000
10
308.3771299929
20
167.7244233417
30
0.0000000000
10
308.3771299929
20
167.6084075124
30
0.0000000000
10
308.3357215979
20
167.3732015258
30
0.0000000000
10
308.1558460310
20
167.0640506499
30
0.0000000000
10
307.8792206035
20
166.8353763684
30
0.0000000000
10
307.6041589808
20
166.7389137843
30
0.0000000000
10
307.4352738883
20
166.7248220587
30
0.0000000000
10
307.3837475878
20
166.7244867757
30
0.0000000000
11
308.3771299929
21
167.7244233417
31
0.0000000000
11
308.3165614660
21
167.3816865514
31
0.0000000000
11
308.1399290805
21
167.0777877782
31
0.0000000000
11
307.8684086658
21
166.8534208931
31
0.0000000000
11
307.5376299039
21
166.7373874870
31
0.0000000000
11
307.3837475878
21
166.7244867757
31
0.0000000000
0
SPLINE
5
490
100
AcDbEntity
8
0
100
AcDbSpline
62
7
6
CONTINUOUS
70
0
71
3
72
14
73
10
74
8
42
0.0000001000
43
0.0000001000
44
0.0000000001
40
0.0000000000
40
0.0000000000
40
0.0000000000
40
0.0000000000
40
0.1309925988
40
0.2778771576
40
0.4234439591
40
0.5677613444
40
0.7115078351
40
0.8554509654
40
1.0000000000
40
1.0000000000
40
1.0000000000
40
1.0000000000
10
303.6406811947
20
166.3033514206
30
0.0000000000
10
303.7115620947
20
166.3804457496
30
0.0000000000
10
303.8877600762
20
166.5203877120
30
0.0000000000
10
304.2122713741
20
166.6341920227
30
0.0000000000
10
304.5668207714
20
166.6294351747
30
0.0000000000
10
304.8960382654
20
166.5051410595
30
0.0000000000
10
305.1626701016
20
166.2774973195
30
0.0000000000
10
305.3367422123
20
165.9733331355
30
0.0000000000
10
305.3771299929
20
165.7418684420
30
0.0000000000
10
305.3771299929
20
165.6268796619
30
0.0000000000
11
303.6406811947
21
166.3033514206
31
0.0000000000
11
303.8858513200
21
166.4978821106
31
0.0000000000
11
304.2166300819
21
166.6139155167
31
0.0000000000
11
304.5639941997
21
166.6092654152
31
0.0000000000
11
304.8862035230
21
166.4876026957
31
0.0000000000
11
305.1471445395
21
166.2649059921
31
0.0000000000
11
305.3176291050
21
165.9666758070
31
0.0000000000
11
305.3771299929
21
165.6268796619
31
0.0000000000
0
SPLINE
5
491
100
AcDbEntity
8
0
100
AcDbSpline
62
7
6
CONTINUOUS
70
0
71
3
72
11
73
7
74
5
42
0.0000001000
43
0.0000001000
44
0.0000000001
40
0.0000000000
40
0.0000000000
40
0.0000000000
40
0.0000000000
40
0.2891355865
40
0.5811407336
40
0.8737483621
40
1.0000000000
40
1.0000000000
40
1.0000000000
40
1.0000000000
10
305.3771299929
20
165.6268796619
30
0.0000000000
10
305.3771299929
20
165.5108638326
30
0.0000000000
10
305.3357215979
20
165.2756578459
30
0.0000000000
10
305.1558460310
20
164.9665069700
30
0.0000000000
10
304.9313211425
20
164.7809019516
30
0.0000000000
10
304.7777775451
20
164.7092637313
30
0.0000000000
10
304.7301303780
20
164.6912933752
30
0.0000000000
11
305.3771299929
21
165.6268796619
31
0.0000000000
11
305.3165614660
21
165.2841428716
31
0.0000000000
11
305.1399290805
21
164.9802440984
31
0.0000000000
11
304.8684086658
21
164.7558772132
31
0.0000000000
11
304.7301303780
21
164.6912933752
31
0.0000000000
0
SPLINE
5
492
100
AcDbEntity
8
0
100
AcDbSpline
62
7
6
CONTINUOUS
70
0
71
3
72
17
73
13
74
11
42
0.0000001000
43
0.0000001000
44
0.0000000001
40
0.0000000000
40
0.0000000000
40
0.0000000000
40
0.0000000000
40
0.0131730169
40
0.0656324129
40
0.1501937392
40
0.2524599067
40
0.3649429414
40
0.4835458487
40
0.6083204138
40
0.7390124920
40
0.8709431424
40
1.0000000000
40
1.0000000000
40
1.0000000000
40
1.0000000000
10
311.9768626348
20
190.1673370641
30
0.0000000000
10
311.9575750417
20
190.1737150075
30
0.0000000000
10
311.8481628429
20
190.2631219520
30
0.0000000000
10
311.8426635792
20
190.5257334437
30
0.0000000000
10
311.7440282317
20
190.9241904215
30
0.0000000000
10
311.6965731161
20
191.4367972716
30
0.0000000000
10
311.6425929150
20
192.0056480340
30
0.0000000000
10
311.6025099462
20
192.6149421448
30
0.0000000000
10
311.5694677049
20
193.2557166239
30
0.0000000000
10
311.5454980499
20
193.9198373523
30
0.0000000000
10
311.5306576505
20
194.5915486894
30
0.0000000000
10
311.5271753388
20
195.0392349292
30
0.0000000000
10
311.5271753388
20
195.2606098225
30
0.0000000000
11
311.9768626348
21
190.1673370641
31
0.0000000000
11
311.9179657789
21
190.2106257827
31
0.0000000000
11
311.8362954304
21
190.4679306701
31
0.0000000000
11
311.7610347183
21
190.8965243105
31
0.0000000000
11
311.6980282089
21
191.4189991541
31
0.0000000000
11
311.6462829038
21
191.9955176497
31
0.0000000000
11
311.6046098700
21
192.6044220835
31
0.0000000000
11
311.5716028321
21
193.2456612121
31
0.0000000000
11
311.5471345815
21
193.9177554651
31
0.0000000000
11
311.5321857993
21
194.5965040436
31
0.0000000000
11
311.5271753388
21
195.2606098225
31
0.0000000000
0
SPLINE
5
493
100
AcDbEntity
8
0
100
AcDbSpline
62
7
6
CONTINUOUS
70
0
71
3
72
10
73
6
74
4
42
0.0000001000
43
0.0000001000
44
0.0000000001
40
0.0000000000
40
0.0000000000
40
0.0000000000
40
0.0000000000
40
0.0276718545
40
0.5128148634
40
1.0000000000
40
1.0000000000
40
1.0000000000
40
1.0000000000
10
282.6198277696
20
158.2070967246
30
0.0000000000
10
282.6155407234
20
158.2120645174
30
0.0000000000
10
282.5370064518
20
158.3049108482
30
0.0000000000
10
282.4175177735
20
158.5136988968
30
0.0000000000
10
282.3771299929
20
158.7451635903
30
0.0000000000
10
282.3771299929
20
158.8601523704
30
0.0000000000
11
282.6198277696
21
158.2070967246
31
0.0000000000
11
282.6071154463
21
158.2221260402
31
0.0000000000
11
282.4366308809
21
158.5203562253
31
0.0000000000
11
282.3771299929
21
158.8601523704
31
0.0000000000
0
SPLINE
5
494
100
AcDbEntity
8
0
100
AcDbSpline
62
7
6
CONTINUOUS
70
0
71
3
72
16
73
12
74
10
42
0.0000001000
43
0.0000001000
44
0.0000000001
40
0.0000000000
40
0.0000000000
40
0.0000000000
40
0.0000000000
40
0.1118805796
40
0.2248715314
40
0.3380956124
40
0.4507774376
40
0.5624483512
40
0.6731607808
40
0.7834352513
40
0.8938605728
40
1.0000000000
40
1.0000000000
40
1.0000000000
40
1.0000000000
10
282.3771299929
20
158.8601523704
30
0.0000000000
10
282.3771299929
20
158.9761681997
30
0.0000000000
10
282.4185383879
20
159.2113741864
30
0.0000000000
10
282.5984139548
20
159.5205250623
30
0.0000000000
10
282.8750393823
20
159.7491993438
30
0.0000000000
10
283.2122713741
20
159.8674647312
30
0.0000000000
10
283.5668207714
20
159.8627078832
30
0.0000000000
10
283.8960382654
20
159.7384137680
30
0.0000000000
10
284.1626701016
20
159.5107700280
30
0.0000000000
10
284.3342482695
20
159.2109636247
30
0.0000000000
10
284.3753611571
20
158.9850651843
30
0.0000000000
10
284.3770186626
20
158.8749360744
30
0.0000000000
11
282.3771299929
21
158.8601523704
31
0.0000000000
11
282.4376985198
21
159.2028891607
31
0.0000000000
11
282.6143309053
21
159.5067879339
31
0.0000000000
11
282.8858513200
21
159.7311548191
31
0.0000000000
11
283.2166300819
21
159.8471882252
31
0.0000000000
11
283.5639941997
21
159.8425381237
31
0.0000000000
11
283.8862035230
21
159.7208754042
31
0.0000000000
11
284.1471445395
21
159.4981787006
31
0.0000000000
11
284.3176291050
21
159.1999485155
31
0.0000000000
11
284.3770186626
21
158.8749360744
31
0.0000000000
0
SPLINE
5
495
100
AcDbEntity
8
0
100
AcDbSpline
62
7
6
CONTINUOUS
70
0
71
3
72
9
73
5
74
3
42
0.0000001000
43
0.0000001000
44
0.0000000001
40
0.0000000000
40
0.0000000000
40
0.0000000000
40
0.0000000000
40
0.4555807127
40
1.0000000000
40
1.0000000000
40
1.0000000000
40
1.0000000000
10
285.5731464950
20
160.5559854201
30
0.0000000000
10
285.5156705064
20
160.6337029702
30
0.0000000000
10
285.4143004292
20
160.8226275111
30
0.0000000000
10
285.3771299929
20
161.0356534192
30
0.0000000000
10
285.3771299929
20
161.1506421993
30
0.0000000000
11
285.5731464950
21
160.5559854201
31
0.0000000000
11
285.4366308809
21
160.8108460542
31
0.0000000000
11
285.3771299929
21
161.1506421993
31
0.0000000000
0
SPLINE
5
496
100
AcDbEntity
8
0
100
AcDbSpline
62
7
6
CONTINUOUS
70
0
71
3
72
14
73
10
74
8
42
0.0000001000
43
0.0000001000
44
0.0000000001
40
0.0000000000
40
0.0000000000
40
0.0000000000
40
0.0000000000
40
0.1429686089
40
0.2873561268
40
0.4320415530
40
0.5760340480
40
0.7187347314
40
0.8602105989
40
1.0000000000
40
1.0000000000
40
1.0000000000
40
1.0000000000
10
285.3771299929
20
161.1506421993
30
0.0000000000
10
285.3771299929
20
161.2666580286
30
0.0000000000
10
285.4185383879
20
161.5018640153
30
0.0000000000
10
285.5984139548
20
161.8110148912
30
0.0000000000
10
285.8750393823
20
162.0396891727
30
0.0000000000
10
286.2122713741
20
162.1579545601
30
0.0000000000
10
286.5668207714
20
162.1531977121
30
0.0000000000
10
286.8951655939
20
162.0292330688
30
0.0000000000
10
287.0724098541
20
161.8783201901
30
0.0000000000
10
287.1453828307
20
161.7907877108
30
0.0000000000
11
285.3771299929
21
161.1506421993
31
0.0000000000
11
285.4376985198
21
161.4933789896
31
0.0000000000
11
285.6143309053
21
161.7972777628
31
0.0000000000
11
285.8858513200
21
162.0216446480
31
0.0000000000
11
286.2166300819
21
162.1376780541
31
0.0000000000
11
286.5639941997
21
162.1330279526
31
0.0000000000
11
286.8862035230
21
162.0113652331
31
0.0000000000
11
287.1453828307
21
161.7907877108
31
0.0000000000
0
SPLINE
5
497
100
AcDbEntity
8
0
100
AcDbSpline
62
7
6
CONTINUOUS
70
0
71
3
72
10
73
6
74
4
42
0.0000001000
43
0.0000001000
44
0.0000000001
40
0.0000000000
40
0.0000000000
40
0.0000000000
40
0.0000000000
40
0.2095698158
40
0.6039548593
40
1.0000000000
40
1.0000000000
40
1.0000000000
40
1.0000000000
10
282.7364495062
20
162.3426268727
30
0.0000000000
10
282.6895005963
20
162.3818141365
30
0.0000000000
10
282.5645038164
20
162.5070782725
30
0.0000000000
10
282.4175177735
20
162.7639137276
30
0.0000000000
10
282.3771299929
20
162.9953784211
30
0.0000000000
10
282.3771299929
20
163.1103672012
30
0.0000000000
11
282.7364495062
21
162.3426268727
31
0.0000000000
11
282.6071154463
21
162.4723408710
31
0.0000000000
11
282.4366308809
21
162.7705710561
31
0.0000000000
11
282.3771299929
21
163.1103672012
31
0.0000000000
0
SPLINE
5
498
100
AcDbEntity
8
0
100
AcDbSpline
62
7
6
CONTINUOUS
70
0
71
3
72
16
73
12
74
10
42
0.0000001000
43
0.0000001000
44
0.0000000001
40
0.0000000000
40
0.0000000000
40
0.0000000000
40
0.0000000000
40
0.1186843509
40
0.2385465987
40
0.3586561531
40
0.4781904755
40
0.5966524100
40
0.7140975725
40
0.8310781422
40
0.9482187367
40
1.0000000000
40
1.0000000000
40
1.0000000000
40
1.0000000000
10
282.3771299929
20
163.1103672012
30
0.0000000000
10
282.3771299929
20
163.2263830305
30
0.0000000000
10
282.4185383879
20
163.4615890172
30
0.0000000000
10
282.5984139548
20
163.7707398931
30
0.0000000000
10
282.8750393823
20
163.9994141746
30
0.0000000000
10
283.2122713741
20
164.1176795620
30
0.0000000000
10
283.5668207714
20
164.1129227141
30
0.0000000000
10
283.8960382654
20
163.9886285988
30
0.0000000000
10
284.1626701016
20
163.7609848588
30
0.0000000000
10
284.3041539791
20
163.5137635896
30
0.0000000000
10
284.3485098526
20
163.3529655238
30
0.0000000000
10
284.3583165816
20
163.3029838071
30
0.0000000000
11
282.3771299929
21
163.1103672012
31
0.0000000000
11
282.4376985198
21
163.4531039915
31
0.0000000000
11
282.6143309053
21
163.7570027647
31
0.0000000000
11
282.8858513200
21
163.9813696499
31
0.0000000000
11
283.2166300819
21
164.0974030560
31
0.0000000000
11
283.5639941997
21
164.0927529545
31
0.0000000000
11
283.8862035230
21
163.9710902350
31
0.0000000000
11
284.1471445395
21
163.7483935315
31
0.0000000000
11
284.3176291050
21
163.4501633463
31
0.0000000000
11
284.3583165816
21
163.3029838071
31
0.0000000000
0
SPLINE
5
499
100
AcDbEntity
8
0
100
AcDbSpline
62
7
6
CONTINUOUS
70
0
71
3
72
14
73
10
74
8
42
0.0000001000
43
0.0000001000
44
0.0000000001
40
0.0000000000
40
0.0000000000
40
0.0000000000
40
0.0000000000
40
0.0620016774
40
0.2205474730
40
0.3776708938
40
0.5334457068
40
0.6886043015
40
0.8439751471
40
1.0000000000
40
1.0000000000
40
1.0000000000
40
1.0000000000
10
283.9833721378
20
173.4975358688
30
0.0000000000
10
283.9468471290
20
173.5253971123
30
0.0000000000
10
283.8101330599
20
173.6155963833
30
0.0000000000
10
283.5419886117
20
173.7096331527
30
0.0000000000
10
283.1874392144
20
173.7048763047
30
0.0000000000
10
282.8582217205
20
173.5805821895
30
0.0000000000
10
282.5915898842
20
173.3529384495
30
0.0000000000
10
282.4175177735
20
173.0487742655
30
0.0000000000
10
282.3771299929
20
172.8173095720
30
0.0000000000
10
282.3771299929
20
172.7023207919
30
0.0000000000
11
283.9833721378
21
173.4975358688
31
0.0000000000
11
283.8684086658
21
173.5733232406
31
0.0000000000
11
283.5376299039
21
173.6893566467
31
0.0000000000
11
283.1902657861
21
173.6847065452
31
0.0000000000
11
282.8680564628
21
173.5630438257
31
0.0000000000
11
282.6071154463
21
173.3403471222
31
0.0000000000
11
282.4366308809
21
173.0421169370
31
0.0000000000
11
282.3771299929
21
172.7023207919
31
0.0000000000
0
SPLINE
5
49A
100
AcDbEntity
8
0
100
AcDbSpline
62
7
6
CONTINUOUS
70
0
71
3
72
16
73
12
74
10
42
0.0000001000
43
0.0000001000
44
0.0000000001
40
0.0000000000
40
0.0000000000
40
0.0000000000
40
0.0000000000
40
0.1145091317
40
0.2301547230
40
0.3460389207
40
0.4613681227
40
0.5756626625
40
0.6889761994
40
0.8018414876
40
0.9148611711
40
1.0000000000
40
1.0000000000
40
1.0000000000
40
1.0000000000
10
282.3771299929
20
172.7023207919
30
0.0000000000
10
282.3771299929
20
172.5863049626
30
0.0000000000
10
282.4185383879
20
172.3510989759
30
0.0000000000
10
282.5984139548
20
172.0419481000
30
0.0000000000
10
282.8750393823
20
171.8132738185
30
0.0000000000
10
283.2122713741
20
171.6950084311
30
0.0000000000
10
283.5668207714
20
171.6997652791
30
0.0000000000
10
283.8960382654
20
171.8240593944
30
0.0000000000
10
284.1626701016
20
172.0517031343
30
0.0000000000
10
284.3221977899
20
172.3304531818
30
0.0000000000
10
284.3658301769
20
172.5298255096
30
0.0000000000
10
284.3733591428
20
172.6160737107
30
0.0000000000
11
282.3771299929
21
172.7023207919
31
0.0000000000
11
282.4376985198
21
172.3595840016
31
0.0000000000
11
282.6143309053
21
172.0556852284
31
0.0000000000
11
282.8858513200
21
171.8313183432
31
0.0000000000
11
283.2166300819
21
171.7152849372
31
0.0000000000
11
283.5639941997
21
171.7199350386
31
0.0000000000
11
283.8862035230
21
171.8415977581
31
0.0000000000
11
284.1471445395
21
172.0642944617
31
0.0000000000
11
284.3176291050
21
172.3625246468
31
0.0000000000
11
284.3733591428
21
172.6160737107
31
0.0000000000
0
SPLINE
5
49B
100
AcDbEntity
8
0
100
AcDbSpline
62
7
6
CONTINUOUS
70
0
71
3
72
12
73
8
74
6
42
0.0000001000
43
0.0000001000
44
0.0000000001
40
0.0000000000
40
0.0000000000
40
0.0000000000
40
0.0000000000
40
0.1172357671
40
0.3381999353
40
0.5582900073
40
0.7786811540
40
1.0000000000
40
1.0000000000
40
1.0000000000
40
1.0000000000
10
286.3728229125
20
171.3787027712
30
0.0000000000
10
286.3115996221
20
171.3784358278
30
0.0000000000
10
286.1350558037
20
171.3615329467
30
0.0000000000
10
285.8582217205
20
171.2570158779
30
0.0000000000
10
285.5915898842
20
171.0293721379
30
0.0000000000
10
285.4175177735
20
170.7252079539
30
0.0000000000
10
285.3771299929
20
170.4937432604
30
0.0000000000
10
285.3771299929
20
170.3787544803
30
0.0000000000
11
286.3728229125
21
171.3787027712
31
0.0000000000
11
286.1902657861
21
171.3611402336
31
0.0000000000
11
285.8680564628
21
171.2394775141
31
0.0000000000
11
285.6071154463
21
171.0167808106
31
0.0000000000
11
285.4366308809
21
170.7185506254
31
0.0000000000
11
285.3771299929
21
170.3787544803
31
0.0000000000
0
SPLINE
5
49C
100
AcDbEntity
8
0
100
AcDbSpline
62
7
6
CONTINUOUS
70
0
71
3
72
12
73
8
74
6
42
0.0000001000
43
0.0000001000
44
0.0000000001
40
0.0000000000
40
0.0000000000
40
0.0000000000
40
0.0000000000
40
0.2361206985
40
0.4745848050
40
0.7135409241
40
0.9513526280
40
1.0000000000
40
1.0000000000
40
1.0000000000
40
1.0000000000
10
285.3771299929
20
170.3787544803
30
0.0000000000
10
285.3771299929
20
170.2627386510
30
0.0000000000
10
285.4185383879
20
170.0275326643
30
0.0000000000
10
285.5984139548
20
169.7183817884
30
0.0000000000
10
285.8750393823
20
169.4897075069
30
0.0000000000
10
286.1237414677
20
169.4024890663
30
0.0000000000
10
286.2641941815
20
169.3848716183
30
0.0000000000
10
286.2881237289
20
169.3827421437
30
0.0000000000
11
285.3771299929
21
170.3787544803
31
0.0000000000
11
285.4376985198
21
170.0360176900
31
0.0000000000
11
285.6143309053
21
169.7321189168
31
0.0000000000
11
285.8858513200
21
169.5077520316
31
0.0000000000
11
286.2166300819
21
169.3917186256
31
0.0000000000
11
286.2881237289
21
169.3827421437
31
0.0000000000
0
SPLINE
5
49D
100
AcDbEntity
8
0
100
AcDbSpline
62
7
6
CONTINUOUS
70
0
71
3
72
15
73
11
74
9
42
0.0000001000
43
0.0000001000
44
0.0000000001
40
0.0000000000
40
0.0000000000
40
0.0000000000
40
0.0000000000
40
0.1071018725
40
0.2367342214
40
0.3657457315
40
0.4935998303
40
0.6203565430
40
0.7466118280
40
0.8730398253
40
1.0000000000
40
1.0000000000
40
1.0000000000
40
1.0000000000
10
284.2939861292
20
168.1236645022
30
0.0000000000
10
284.2550320932
20
168.2131085453
30
0.0000000000
10
284.1399735569
20
168.3979171217
30
0.0000000000
10
283.8792206035
20
168.6134703151
30
0.0000000000
10
283.5419886117
20
168.7317357025
30
0.0000000000
10
283.1874392144
20
168.7269788546
30
0.0000000000
10
282.8582217205
20
168.6026847393
30
0.0000000000
10
282.5915898842
20
168.3750409993
30
0.0000000000
10
282.4175177735
20
168.0708768153
30
0.0000000000
10
282.3771299929
20
167.8394121218
30
0.0000000000
10
282.3771299929
20
167.7244233417
30
0.0000000000
11
284.2939861292
21
168.1236645022
31
0.0000000000
11
284.1399290805
21
168.3710589052
31
0.0000000000
11
283.8684086658
21
168.5954257904
31
0.0000000000
11
283.5376299039
21
168.7114591965
31
0.0000000000
11
283.1902657861
21
168.7068090950
31
0.0000000000
11
282.8680564628
21
168.5851463756
31
0.0000000000
11
282.6071154463
21
168.3624496720
31
0.0000000000
11
282.4366308809
21
168.0642194868
31
0.0000000000
11
282.3771299929
21
167.7244233417
31
0.0000000000
0
SPLINE
5
49E
100
AcDbEntity
8
0
100
AcDbSpline
62
7
6
CONTINUOUS
70
0
71
3
72
12
73
8
74
6
42
0.0000001000
43
0.0000001000
44
0.0000000001
40
0.0000000000
40
0.0000000000
40
0.0000000000
40
0.0000000000
40
0.2236652465
40
0.4495502854
40
0.6759013829
40
0.9011684337
40
1.0000000000
40
1.0000000000
40
1.0000000000
40
1.0000000000
10
282.3771299929
20
167.7244233417
30
0.0000000000
10
282.3771299929
20
167.6084075124
30
0.0000000000
10
282.4185383879
20
167.3732015258
30
0.0000000000
10
282.5984139548
20
167.0640506499
30
0.0000000000
10
282.8750393823
20
166.8353763684
30
0.0000000000
10
283.1501010050
20
166.7389137843
30
0.0000000000
10
283.3189860976
20
166.7248220587
30
0.0000000000
10
283.3705123980
20
166.7244867757
30
0.0000000000
11
282.3771299929
21
167.7244233417
31
0.0000000000
11
282.4376985198
21
167.3816865514
31
0.0000000000
11
282.6143309053
21
167.0777877782
31
0.0000000000
11
282.8858513200
21
166.8534208931
31
0.0000000000
11
283.2166300819
21
166.7373874870
31
0.0000000000
11
283.3705123980
21
166.7244867757
31
0.0000000000
0
SPLINE
5
49F
100
AcDbEntity
8
0
100
AcDbSpline
62
7
6
CONTINUOUS
70
0
71
3
72
14
73
10
74
8
42
0.0000001000
43
0.0000001000
44
0.0000000001
40
0.0000000000
40
0.0000000000
40
0.0000000000
40
0.0000000000
40
0.1309925988
40
0.2778771576
40
0.4234439591
40
0.5677613444
40
0.7115078351
40
0.8554509654
40
1.0000000000
40
1.0000000000
40
1.0000000000
40
1.0000000000
10
287.1135787911
20
166.3033514206
30
0.0000000000
10
287.0426978911
20
166.3804457496
30
0.0000000000
10
286.8664999096
20
166.5203877120
30
0.0000000000
10
286.5419886117
20
166.6341920227
30
0.0000000000
10
286.1874392144
20
166.6294351747
30
0.0000000000
10
285.8582217205
20
166.5051410595
30
0.0000000000
10
285.5915898842
20
166.2774973195
30
0.0000000000
10
285.4175177735
20
165.9733331355
30
0.0000000000
10
285.3771299929
20
165.7418684420
30
0.0000000000
10
285.3771299929
20
165.6268796619
30
0.0000000000
11
287.1135787911
21
166.3033514206
31
0.0000000000
11
286.8684086658
21
166.4978821106
31
0.0000000000
11
286.5376299039
21
166.6139155167
31
0.0000000000
11
286.1902657861
21
166.6092654152
31
0.0000000000
11
285.8680564628
21
166.4876026957
31
0.0000000000
11
285.6071154463
21
166.2649059921
31
0.0000000000
11
285.4366308809
21
165.9666758070
31
0.0000000000
11
285.3771299929
21
165.6268796619
31
0.0000000000
0
SPLINE
5
4A0
100
AcDbEntity
8
0
100
AcDbSpline
62
7
6
CONTINUOUS
70
0
71
3
72
11
73
7
74
5
42
0.0000001000
43
0.0000001000
44
0.0000000001
40
0.0000000000
40
0.0000000000
40
0.0000000000
40
0.0000000000
40
0.2891355865
40
0.5811407336
40
0.8737483621
40
1.0000000000
40
1.0000000000
40
1.0000000000
40
1.0000000000
10
285.3771299929
20
165.6268796619
30
0.0000000000
10
285.3771299929
20
165.5108638326
30
0.0000000000
10
285.4185383879
20
165.2756578459
30
0.0000000000
10
285.5984139548
20
164.9665069700
30
0.0000000000
10
285.8229388433
20
164.7809019516
30
0.0000000000
10
285.9764824408
20
164.7092637313
30
0.0000000000
10
286.0241296078
20
164.6912933752
30
0.0000000000
11
285.3771299929
21
165.6268796619
31
0.0000000000
11
285.4376985198
21
165.2841428716
31
0.0000000000
11
285.6143309053
21
164.9802440984
31
0.0000000000
11
285.8858513200
21
164.7558772132
31
0.0000000000
11
286.0241296078
21
164.6912933752
31
0.0000000000
0
SPLINE
5
4A1
100
AcDbEntity
8
0
100
AcDbSpline
62
7
6
CONTINUOUS
70
0
71
3
72
17
73
13
74
11
42
0.0000001000
43
0.0000001000
44
0.0000000001
40
0.0000000000
40
0.0000000000
40
0.0000000000
40
0.0000000000
40
0.0131730169
40
0.0656324129
40
0.1501937392
40
0.2524599067
40
0.3649429414
40
0.4835458487
40
0.6083204138
40
0.7390124920
40
0.8709431424
40
1.0000000000
40
1.0000000000
40
1.0000000000
40
1.0000000000
10
278.7773973510
20
190.1673370641
30
0.0000000000
10
278.7966849442
20
190.1737150075
30
0.0000000000
10
278.9060971429
20
190.2631219520
30
0.0000000000
10
278.9115964067
20
190.5257334437
30
0.0000000000
10
279.0102317541
20
190.9241904215
30
0.0000000000
10
279.0576868698
20
191.4367972716
30
0.0000000000
10
279.1116670708
20
192.0056480340
30
0.0000000000
10
279.1517500396
20
192.6149421448
30
0.0000000000
10
279.1847922809
20
193.2557166239
30
0.0000000000
10
279.2087619359
20
193.9198373523
30
0.0000000000
10
279.2236023353
20
194.5915486894
30
0.0000000000
10
279.2270846470
20
195.0392349292
30
0.0000000000
10
279.2270846470
20
195.2606098225
30
0.0000000000
11
278.7773973510
21
190.1673370641
31
0.0000000000
11
278.8362942069
21
190.2106257827
31
0.0000000000
11
278.9179645554
21
190.4679306701
31
0.0000000000
11
278.9932252675
21
190.8965243105
31
0.0000000000
11
279.0562317769
21
191.4189991541
31
0.0000000000
11
279.1079770820
21
191.9955176497
31
0.0000000000
11
279.1496501159
21
192.6044220835
31
0.0000000000
11
279.1826571538
21
193.2456612121
31
0.0000000000
11
279.2071254043
21
193.9177554651
31
0.0000000000
11
279.2220741866
21
194.5965040436
31
0.0000000000
11
279.2270846470
21
195.2606098225
31
0.0000000000
0
SPLINE
5
4A2
100
AcDbEntity
8
0
100
AcDbSpline
62
7
6
CONTINUOUS
70
0
71
3
72
8
73
4
74
2
42
0.0000001000
43
0.0000001000
44
0.0000000001
40
0.0000000000
40
0.0000000000
40
0.0000000000
40
0.0000000000
40
1.0000000000
40
1.0000000000
40
1.0000000000
40
1.0000000000
10
279.9820433052
20
207.1400981173
30
0.0000000000
10
279.9545162602
20
207.1392497045
30
0.0000000000
10
279.9235867542
20
207.0675910733
30
0.0000000000
10
279.9097061752
20
207.0238596234
30
0.0000000000
11
279.9820433052
21
207.1400981173
31
0.0000000000
11
279.9097061752
21
207.0238596234
31
0.0000000000
0
SPLINE
5
4A3
100
AcDbEntity
8
0
100
AcDbSpline
62
7
6
CONTINUOUS
70
0
71
3
72
8
73
4
74
2
42
0.0000001000
43
0.0000001000
44
0.0000000001
40
0.0000000000
40
0.0000000000
40
0.0000000000
40
0.0000000000
40
1.0000000000
40
1.0000000000
40
1.0000000000
40
1.0000000000
10
310.7722166806
20
207.1400981173
30
0.0000000000
10
310.7997437256
20
207.1392497045
30
0.0000000000
10
310.8306732316
20
207.0675910733
30
0.0000000000
10
310.8445538107
20
207.0238596234
30
0.0000000000
11
310.7722166806
21
207.1400981173
31
0.0000000000
11
310.8445538107
21
207.0238596234
31
0.0000000000
0
SPLINE
5
4A4
100
AcDbEntity
8
0
100
AcDbSpline
62
7
6
CONTINUOUS
70
0
71
3
72
15
73
11
74
9
42
0.0000001000
43
0.0000001000
44
0.0000000001
40
0.0000000000
40
0.0000000000
40
0.0000000000
40
0.0000000000
40
0.1281618497
40
0.2573097451
40
0.3841701760
40
0.5107286674
40
0.6358563093
40
0.7630979903
40
0.8968636411
40
1.0000000000
40
1.0000000000
40
1.0000000000
40
1.0000000000
10
282.4920924065
20
172.5740062084
30
0.0000000000
10
282.5124912190
20
172.4586907428
30
0.0000000000
10
282.5951308281
20
172.2325016558
30
0.0000000000
10
282.8267119245
20
171.9592223470
30
0.0000000000
10
283.1381035062
20
171.7842326974
30
0.0000000000
10
283.4882744400
20
171.7326152087
30
0.0000000000
10
283.8335629197
20
171.8129157307
30
0.0000000000
10
284.1299817811
20
172.0200187547
30
0.0000000000
10
284.3148414718
20
172.3066943838
30
0.0000000000
10
284.3650969040
20
172.5217775116
30
0.0000000000
10
284.3733490621
20
172.6160727908
30
0.0000000000
11
282.4920924065
21
172.5740062084
31
0.0000000000
11
282.6127927839
21
172.2440738938
31
0.0000000000
11
282.8418471081
21
171.9741396014
31
0.0000000000
11
283.1454039469
21
171.8044832698
31
0.0000000000
11
283.4887188211
21
171.7545837894
31
0.0000000000
11
283.8227295794
21
171.8325955155
31
0.0000000000
11
284.1088456443
21
172.0320837858
31
0.0000000000
11
284.3080699402
21
172.3399195104
31
0.0000000000
11
284.3733490621
21
172.6160727908
31
0.0000000000
0
SPLINE
5
4A5
100
AcDbEntity
8
0
100
AcDbSpline
62
7
6
CONTINUOUS
70
0
71
3
72
10
73
6
74
4
42
0.0000001000
43
0.0000001000
44
0.0000000001
40
0.0000000000
40
0.0000000000
40
0.0000000000
40
0.0000000000
40
0.3348541314
40
0.6680802030
40
1.0000000000
40
1.0000000000
40
1.0000000000
40
1.0000000000
10
278.8314516423
20
159.1014372003
30
0.0000000000
10
278.7709854371
20
159.3231173144
30
0.0000000000
10
278.6683575658
20
159.7705578199
30
0.0000000000
10
278.5705096542
20
160.4504654533
30
0.0000000000
10
278.5431289362
20
160.9067014940
30
0.0000000000
10
278.5389662849
20
161.1344285619
30
0.0000000000
11
278.8314516423
21
159.1014372003
31
0.0000000000
11
278.6774673266
21
159.7733545652
31
0.0000000000
11
278.5798445001
21
160.4523571011
31
0.0000000000
11
278.5389662849
21
161.1344285619
31
0.0000000000
0
SPLINE
5
4A6
100
AcDbEntity
8
0
100
AcDbSpline
62
7
6
CONTINUOUS
70
0
71
3
72
15
73
11
74
9
42
0.0000001000
43
0.0000001000
44
0.0000000001
40
0.0000000000
40
0.0000000000
40
0.0000000000
40
0.0000000000
40
0.1270108969
40
0.2537438558
40
0.3799733837
40
0.5055175589
40
0.6302767478
40
0.7542173939
40
0.8774097239
40
1.0000000000
40
1.0000000000
40
1.0000000000
40
1.0000000000
10
285.0761643404
20
140.3274054267
30
0.0000000000
10
284.9920355180
20
140.3274054267
30
0.0000000000
10
284.8236484629
20
140.3409388525
30
0.0000000000
10
284.5782375695
20
140.4013138003
30
0.0000000000
10
284.3465965973
20
140.5001298560
30
0.0000000000
10
284.1352833869
20
140.6347255226
30
0.0000000000
10
283.9502558270
20
140.8014293968
30
0.0000000000
10
283.7968155514
20
140.9956746242
30
0.0000000000
10
283.6794457647
20
141.2119328555
30
0.0000000000
10
283.6273952282
20
141.3672215324
30
0.0000000000
10
283.6084323337
20
141.4461769922
30
0.0000000000
11
285.0761643404
21
140.3274054267
31
0.0000000000
11
284.8245922858
21
140.3476645005
31
0.0000000000
11
284.5800633517
21
140.4078811873
31
0.0000000000
11
284.3493907788
21
140.5064091224
31
0.0000000000
11
284.1390494435
21
140.6405462006
31
0.0000000000
11
283.9549712119
21
140.8066051827
31
0.0000000000
11
283.8024205336
21
140.9999567700
31
0.0000000000
11
283.6857799693
21
141.2151805695
31
0.0000000000
11
283.6084323337
21
141.4461769922
31
0.0000000000
0
SPLINE
5
4A7
100
AcDbEntity
8
0
100
AcDbSpline
62
7
6
CONTINUOUS
70
0
71
3
72
15
73
11
74
9
42
0.0000001000
43
0.0000001000
44
0.0000000001
40
0.0000000000
40
0.0000000000
40
0.0000000000
40
0.0000000000
40
0.2154834978
40
0.4146806838
40
0.5913093082
40
0.7393296966
40
0.8581571017
40
0.9452827565
40
0.9931105955
40
1.0000000000
40
1.0000000000
40
1.0000000000
40
1.0000000000
10
311.5271753388
20
195.2606098225
30
0.0000000000
10
311.5271753388
20
195.4714604775
30
0.0000000000
10
311.5301764176
20
195.8774236113
30
0.0000000000
10
311.5444443145
20
196.4551108569
30
0.0000000000
10
311.5677297119
20
196.9695427065
30
0.0000000000
10
311.5994463335
20
197.3956962003
30
0.0000000000
10
311.6380190535
20
197.7579148494
30
0.0000000000
10
311.6834730395
20
197.9614654094
30
0.0000000000
10
311.7278307427
20
198.1576222328
30
0.0000000000
10
311.7716431089
20
198.1506865239
30
0.0000000000
10
311.7773973510
20
198.1487837344
30
0.0000000000
11
311.5271753388
21
195.2606098225
31
0.0000000000
11
311.5321857624
21
195.8931419436
31
0.0000000000
11
311.5471344134
21
196.4776943201
31
0.0000000000
11
311.5716024516
21
196.9956101229
31
0.0000000000
11
311.6046092687
21
197.4288686253
31
0.0000000000
11
311.6462821107
21
197.7751883121
31
0.0000000000
11
311.6980272643
21
198.0256564711
31
0.0000000000
11
311.7610336425
21
198.1511235145
31
0.0000000000
11
311.7773973510
21
198.1487837344
31
0.0000000000
0
SPLINE
5
4A8
100
AcDbEntity
8
0
100
AcDbSpline
62
7
6
CONTINUOUS
70
0
71
3
72
15
73
11
74
9
42
0.0000001000
43
0.0000001000
44
0.0000000001
40
0.0000000000
40
0.0000000000
40
0.0000000000
40
0.0000000000
40
0.1448177909
40
0.2979756429
40
0.4521783275
40
0.6001746392
40
0.7348533779
40
0.8498212904
40
0.9395502183
40
1.0000000000
40
1.0000000000
40
1.0000000000
40
1.0000000000
10
312.7366555511
20
189.6566839865
30
0.0000000000
10
312.7491531190
20
190.3403911313
30
0.0000000000
10
312.7581925970
20
191.7475089637
30
0.0000000000
10
312.7310268970
20
193.8826109038
30
0.0000000000
10
312.6647046846
20
196.0318628336
30
0.0000000000
10
312.5626054037
20
198.0924344221
30
0.0000000000
10
312.4294554697
20
199.9653556444
30
0.0000000000
10
312.2740430973
20
201.5610515248
30
0.0000000000
10
312.1019672705
20
202.8005013767
30
0.0000000000
10
311.9634846267
20
203.4986128196
30
0.0000000000
10
311.8771299929
20
203.7706773586
30
0.0000000000
11
312.7366555511
21
189.6566839865
31
0.0000000000
11
312.7515760717
21
191.7080937992
31
0.0000000000
11
312.7245589725
21
193.8775335297
31
0.0000000000
11
312.6568722762
21
196.0608934729
31
0.0000000000
11
312.5516558377
21
198.1547420179
31
0.0000000000
11
312.4139122210
21
200.0575990453
31
0.0000000000
11
312.2501489959
21
201.6779604328
31
0.0000000000
11
312.0683224332
21
202.9359728741
31
0.0000000000
11
311.8771299929
21
203.7706773586
31
0.0000000000
0
SPLINE
5
4A9
100
AcDbEntity
8
0
100
AcDbSpline
62
7
6
CONTINUOUS
70
0
71
3
72
15
73
11
74
9
42
0.0000001000
43
0.0000001000
44
0.0000000001
40
0.0000000000
40
0.0000000000
40
0.0000000000
40
0.0000000000
40
0.1281618497
40
0.2573097451
40
0.3841701760
40
0.5107286674
40
0.6358563093
40
0.7630979903
40
0.8968636411
40
1.0000000000
40
1.0000000000
40
1.0000000000
40
1.0000000000
10
308.2621675794
20
172.5740062084
30
0.0000000000
10
308.2417687669
20
172.4586907428
30
0.0000000000
10
308.1591291578
20
172.2325016558
30
0.0000000000
10
307.9275480613
20
171.9592223470
30
0.0000000000
10
307.6161564796
20
171.7842326974
30
0.0000000000
10
307.2659855458
20
171.7326152087
30
0.0000000000
10
306.9206970661
20
171.8129157307
30
0.0000000000
10
306.6242782047
20
172.0200187547
30
0.0000000000
10
306.4394185140
20
172.3066943838
30
0.0000000000
10
306.3891630818
20
172.5217775116
30
0.0000000000
10
306.3809109237
20
172.6160727908
30
0.0000000000
11
308.2621675794
21
172.5740062084
31
0.0000000000
11
308.1414672019
21
172.2440738938
31
0.0000000000
11
307.9124128777
21
171.9741396014
31
0.0000000000
11
307.6088560389
21
171.8044832698
31
0.0000000000
11
307.2655411647
21
171.7545837894
31
0.0000000000
11
306.9315304064
21
171.8325955155
31
0.0000000000
11
306.6454143416
21
172.0320837858
31
0.0000000000
11
306.4461900456
21
172.3399195104
31
0.0000000000
11
306.3809109237
21
172.6160727908
31
0.0000000000
0
SPLINE
5
4AA
100
AcDbEntity
8
0
100
AcDbSpline
62
7
6
CONTINUOUS
70
0
71
3
72
10
73
6
74
4
42
0.0000001000
43
0.0000001000
44
0.0000000001
40
0.0000000000
40
0.0000000000
40
0.0000000000
40
0.0000000000
40
0.3348541314
40
0.6680802030
40
1.0000000000
40
1.0000000000
40
1.0000000000
40
1.0000000000
10
311.9228083435
20
159.1014372003
30
0.0000000000
10
311.9832745487
20
159.3231173144
30
0.0000000000
10
312.0859024200
20
159.7705578199
30
0.0000000000
10
312.1837503316
20
160.4504654533
30
0.0000000000
10
312.2111310496
20
160.9067014940
30
0.0000000000
10
312.2152937009
20
161.1344285619
30
0.0000000000
11
311.9228083435
21
159.1014372003
31
0.0000000000
11
312.0767926593
21
159.7733545652
31
0.0000000000
11
312.1744154857
21
160.4523571011
31
0.0000000000
11
312.2152937009
21
161.1344285619
31
0.0000000000
0
SPLINE
5
4AB
100
AcDbEntity
8
0
100
AcDbSpline
62
7
6
CONTINUOUS
70
0
71
3
72
15
73
11
74
9
42
0.0000001000
43
0.0000001000
44
0.0000000001
40
0.0000000000
40
0.0000000000
40
0.0000000000
40
0.0000000000
40
0.1270108969
40
0.2537438558
40
0.3799733837
40
0.5055175589
40
0.6302767478
40
0.7542173939
40
0.8774097239
40
1.0000000000
40
1.0000000000
40
1.0000000000
40
1.0000000000
10
305.6780956455
20
140.3274054267
30
0.0000000000
10
305.7622244678
20
140.3274054267
30
0.0000000000
10
305.9306115229
20
140.3409388525
30
0.0000000000
10
306.1760224163
20
140.4013138003
30
0.0000000000
10
306.4076633885
20
140.5001298560
30
0.0000000000
10
306.6189765989
20
140.6347255226
30
0.0000000000
10
306.8040041588
20
140.8014293968
30
0.0000000000
10
306.9574444344
20
140.9956746242
30
0.0000000000
10
307.0748142211
20
141.2119328555
30
0.0000000000
10
307.1268647576
20
141.3672215324
30
0.0000000000
10
307.1458276522
20
141.4461769922
30
0.0000000000
11
305.6780956455
21
140.3274054267
31
0.0000000000
11
305.9296677001
21
140.3476645005
31
0.0000000000
11
306.1741966341
21
140.4078811873
31
0.0000000000
11
306.4048692070
21
140.5064091224
31
0.0000000000
11
306.6152105423
21
140.6405462006
31
0.0000000000
11
306.7992887739
21
140.8066051827
31
0.0000000000
11
306.9518394522
21
140.9999567700
31
0.0000000000
11
307.0684800165
21
141.2151805695
31
0.0000000000
11
307.1458276522
21
141.4461769922
31
0.0000000000
0
SPLINE
5
4AC
100
AcDbEntity
8
0
100
AcDbSpline
62
7
6
CONTINUOUS
70
0
71
3
72
12
73
8
74
6
42
0.0000001000
43
0.0000001000
44
0.0000000001
40
0.0000000000
40
0.0000000000
40
0.0000000000
40
0.0000000000
40
0.2091511593
40
0.4155872611
40
0.6170811584
40
0.8122302777
40
1.0000000000
40
1.0000000000
40
1.0000000000
40
1.0000000000
10
281.0254100588
20
156.0980254045
30
0.0000000000
10
280.8994147699
20
156.4402629029
30
0.0000000000
10
280.6575026966
20
157.1234215557
30
0.0000000000
10
280.3184077716
20
158.1446399483
30
0.0000000000
10
280.0032459199
20
159.1479226852
30
0.0000000000
10
279.7111506810
20
160.1242201162
30
0.0000000000
10
279.5272815006
20
160.7661093910
30
0.0000000000
10
279.4387670012
20
161.0813285900
30
0.0000000000
11
281.0254100588
21
156.0980254045
31
0.0000000000
11
280.6593518781
21
157.1290507541
31
0.0000000000
11
280.3185049225
21
158.1537259943
31
0.0000000000
11
280.0022617441
21
159.1591903783
31
0.0000000000
11
279.7094148759
21
160.1371192021
31
0.0000000000
11
279.4387670012
21
161.0813285900
31
0.0000000000
0
SPLINE
5
4AD
100
AcDbEntity
8
0
100
AcDbSpline
62
7
6
CONTINUOUS
70
0
71
3
72
9
73
5
74
3
42
0.0000001000
43
0.0000001000
44
0.0000000001
40
0.0000000000
40
0.0000000000
40
0.0000000000
40
0.0000000000
40
0.5102007138
40
1.0000000000
40
1.0000000000
40
1.0000000000
40
1.0000000000
10
287.3377932169
20
165.7034285625
30
0.0000000000
10
287.3377932169
20
165.8142458616
30
0.0000000000
10
287.3007990544
20
166.0337878413
30
0.0000000000
10
287.1860273153
20
166.2245792979
30
0.0000000000
10
287.1135916244
20
166.3033641843
30
0.0000000000
11
287.3377932169
21
165.7034285625
31
0.0000000000
11
287.2797984466
21
166.0307829129
31
0.0000000000
11
287.1135916244
21
166.3033641843
31
0.0000000000
0
SPLINE
5
4AE
100
AcDbEntity
8
0
100
AcDbSpline
62
7
6
CONTINUOUS
70
0
71
3
72
9
73
5
74
3
42
0.0000001000
43
0.0000001000
44
0.0000000001
40
0.0000000000
40
0.0000000000
40
0.0000000000
40
0.0000000000
40
0.9235051913
40
1.0000000000
40
1.0000000000
40
1.0000000000
40
1.0000000000
10
284.3738812263
20
167.7466236657
30
0.0000000000
10
284.3726959734
20
167.8653677940
30
0.0000000000
10
284.3477621160
20
167.9950422338
30
0.0000000000
10
284.2979373793
20
168.1145800137
30
0.0000000000
10
284.2939827336
20
168.1236604222
30
0.0000000000
11
284.3738812263
21
167.7466236657
31
0.0000000000
11
284.3054143988
21
168.0962326603
31
0.0000000000
11
284.2939827336
21
168.1236604222
31
0.0000000000
0
SPLINE
5
4AF
100
AcDbEntity
8
0
100
AcDbSpline
62
7
6
CONTINUOUS
70
0
71
3
72
14
73
10
74
8
42
0.0000001000
43
0.0000001000
44
0.0000000001
40
0.0000000000
40
0.0000000000
40
0.0000000000
40
0.0000000000
40
0.0374905975
40
0.1722687088
40
0.3225360903
40
0.4892178622
40
0.6621272618
40
0.8367685424
40
1.0000000000
40
1.0000000000
40
1.0000000000
40
1.0000000000
10
305.1809873386
20
160.5560700705
30
0.0000000000
10
305.1639066393
20
160.5328744094
30
0.0000000000
10
305.0782630515
20
160.4317001876
30
0.0000000000
10
304.8605715334
20
160.2987876533
30
0.0000000000
10
304.5088793153
20
160.2611168410
30
0.0000000000
10
304.1411467401
20
160.3593464771
30
0.0000000000
10
303.8085328368
20
160.5784476090
30
0.0000000000
10
303.5608447379
20
160.8871273674
30
0.0000000000
10
303.4756480796
20
161.1380959566
30
0.0000000000
10
303.4619362420
20
161.2617279516
30
0.0000000000
11
305.1809873386
21
160.5560700705
31
0.0000000000
11
305.1251790927
21
160.4902672172
31
0.0000000000
11
304.8644228534
21
160.3261172289
31
0.0000000000
11
304.5236434540
21
160.2827128401
31
0.0000000000
11
304.1543200510
21
160.3765502904
31
0.0000000000
11
303.8235800530
21
160.5930437605
31
0.0000000000
11
303.5763232950
21
160.9065215831
31
0.0000000000
11
303.4619362420
21
161.2617279516
31
0.0000000000
0
SPLINE
5
4B0
100
AcDbEntity
8
0
100
AcDbSpline
62
7
6
CONTINUOUS
70
0
71
3
72
12
73
8
74
6
42
0.0000001000
43
0.0000001000
44
0.0000000001
40
0.0000000000
40
0.0000000000
40
0.0000000000
40
0.0000000000
40
0.2515372264
40
0.5022307783
40
0.7445083820
40
0.9806700996
40
1.0000000000
40
1.0000000000
40
1.0000000000
40
1.0000000000
10
287.2923237439
20
170.4898402326
30
0.0000000000
10
287.2809793881
20
170.6063276746
30
0.0000000000
10
287.2195927280
20
170.8370942971
30
0.0000000000
10
287.0190336484
20
171.1282190838
30
0.0000000000
10
286.7330781772
20
171.3253243339
30
0.0000000000
10
286.5014450328
20
171.3774506627
30
0.0000000000
10
286.3818699733
20
171.3787816518
30
0.0000000000
10
286.3728236828
20
171.3787379733
30
0.0000000000
11
287.2923237439
21
170.4898402326
31
0.0000000000
11
287.2009508370
21
170.8288581656
31
0.0000000000
11
287.0011110173
21
171.1161221649
31
0.0000000000
11
286.7217042074
21
171.3066595770
31
0.0000000000
11
286.3999595989
21
171.3784347233
31
0.0000000000
11
286.3728236828
21
171.3787379733
31
0.0000000000
0
SPLINE
5
4B1
100
AcDbEntity
8
0
100
AcDbSpline
62
7
6
CONTINUOUS
70
0
71
3
72
10
73
6
74
4
42
0.0000001000
43
0.0000001000
44
0.0000000001
40
0.0000000000
40
0.0000000000
40
0.0000000000
40
0.0000000000
40
0.3949855799
40
0.7943980584
40
1.0000000000
40
1.0000000000
40
1.0000000000
40
1.0000000000
10
284.3770804519
20
172.7050644507
30
0.0000000000
10
284.3766319900
20
172.8250558601
30
0.0000000000
10
284.3310481570
20
173.0683679695
30
0.0000000000
10
284.1696715473
20
173.3333541394
30
0.0000000000
10
284.0333298778
20
173.4594305855
30
0.0000000000
10
283.9833773589
20
173.4975231284
30
0.0000000000
11
284.3770804519
21
172.7050644507
31
0.0000000000
11
284.3108783677
21
173.0589013327
31
0.0000000000
11
284.1215258153
21
173.3697868679
31
0.0000000000
11
283.9833773589
21
173.4975231284
31
0.0000000000
0
SPLINE
5
4B2
100
AcDbEntity
8
0
100
AcDbSpline
62
7
6
CONTINUOUS
70
0
71
3
72
9
73
5
74
3
42
0.0000001000
43
0.0000001000
44
0.0000000001
40
0.0000000000
40
0.0000000000
40
0.0000000000
40
0.0000000000
40
0.5409276860
40
1.0000000000
40
1.0000000000
40
1.0000000000
40
1.0000000000
10
287.2923237439
20
161.2617279516
30
0.0000000000
10
287.3034555539
20
161.3620972764
30
0.0000000000
10
287.2906733193
20
161.5544288371
30
0.0000000000
10
287.2004848230
20
161.7243677678
30
0.0000000000
10
287.1453549933
20
161.7907639841
30
0.0000000000
11
287.2923237439
21
161.2617279516
31
0.0000000000
11
287.2669777388
21
161.5636200632
31
0.0000000000
11
287.1453549933
21
161.7907639841
31
0.0000000000
0
SPLINE
5
4B3
100
AcDbEntity
8
0
100
AcDbSpline
62
7
6
CONTINUOUS
70
0
71
3
72
9
73
5
74
3
42
0.0000001000
43
0.0000001000
44
0.0000000001
40
0.0000000000
40
0.0000000000
40
0.0000000000
40
0.0000000000
40
0.4995581682
40
1.0000000000
40
1.0000000000
40
1.0000000000
40
1.0000000000
10
296.1383799929
20
176.7676121491
30
0.0000000000
10
296.1485939397
20
176.8178380572
30
0.0000000000
10
296.1690252405
20
176.9183816995
30
0.0000000000
10
296.1894273406
20
177.0189312712
30
0.0000000000
10
296.1996301097
20
177.0692519619
30
0.0000000000
11
296.1383799929
21
176.7676121491
31
0.0000000000
11
296.1689998988
21
176.9182943325
31
0.0000000000
11
296.1996301097
21
177.0692519619
31
0.0000000000
0
SPLINE
5
4B4
100
AcDbEntity
8
0
100
AcDbSpline
62
7
6
CONTINUOUS
70
0
71
3
72
9
73
5
74
3
42
0.0000001000
43
0.0000001000
44
0.0000000001
40
0.0000000000
40
0.0000000000
40
0.0000000000
40
0.0000000000
40
0.4998297533
40
1.0000000000
40
1.0000000000
40
1.0000000000
40
1.0000000000
10
296.0462967498
20
176.5866506154
30
0.0000000000
10
296.0616496827
20
176.6167950264
30
0.0000000000
10
296.0923550416
20
176.6771099691
30
0.0000000000
10
296.1230385052
20
176.7374360533
30
0.0000000000
10
296.1383799929
20
176.7676121452
30
0.0000000000
11
296.0462967498
21
176.5866506154
31
0.0000000000
11
296.0923391166
21
176.6770922157
31
0.0000000000
11
296.1383799929
21
176.7676121452
31
0.0000000000
0
SPLINE
5
4B5
100
AcDbEntity
8
0
100
AcDbSpline
62
7
6
CONTINUOUS
70
0
71
3
72
14
73
10
74
8
42
0.0000001000
43
0.0000001000
44
0.0000000001
40
0.0000000000
40
0.0000000000
40
0.0000000000
40
0.0000000000
40
0.0357385037
40
0.1541058825
40
0.2918118630
40
0.4531462038
40
0.6324403737
40
0.8191424590
40
1.0000000000
40
1.0000000000
40
1.0000000000
40
1.0000000000
10
304.7301529657
20
164.6912796578
30
0.0000000000
10
304.7086707632
20
164.6831710924
30
0.0000000000
10
304.6145401192
20
164.6521746786
30
0.0000000000
10
304.4269935590
20
164.6267594408
30
0.0000000000
10
304.1588009966
20
164.6670175629
30
0.0000000000
10
303.8783176918
20
164.8019997897
30
0.0000000000
10
303.6287876268
20
165.0379907374
30
0.0000000000
10
303.4582390204
20
165.3505932591
30
0.0000000000
10
303.4164667689
20
165.5875743695
30
0.0000000000
10
303.4164667689
20
165.7034285625
30
0.0000000000
11
304.7301529657
21
164.6912796578
31
0.0000000000
11
304.6647471076
21
164.6697396054
31
0.0000000000
11
304.4394321230
21
164.6384861041
31
0.0000000000
11
304.1775429558
21
164.6765171840
31
0.0000000000
11
303.8974974208
21
164.8095650172
31
0.0000000000
11
303.6464623725
21
165.0455771779
31
0.0000000000
11
303.4752150037
21
165.3608670479
31
0.0000000000
11
303.4164667689
21
165.7034285625
31
0.0000000000
0
SPLINE
5
4B6
100
AcDbEntity
8
0
100
AcDbSpline
62
7
6
CONTINUOUS
70
0
71
3
72
10
73
6
74
4
42
0.0000001000
43
0.0000001000
44
0.0000000001
40
0.0000000000
40
0.0000000000
40
0.0000000000
40
0.0000000000
40
0.3107375193
40
0.6437707619
40
1.0000000000
40
1.0000000000
40
1.0000000000
40
1.0000000000
10
279.1501519751
20
163.1269375078
30
0.0000000000
10
279.1523616386
20
162.9124170918
30
0.0000000000
10
279.1743380209
20
162.4679492550
30
0.0000000000
10
279.2659311098
20
161.7828548182
30
0.0000000000
10
279.3722781708
20
161.3181096372
30
0.0000000000
10
279.4387670012
20
161.0813285900
30
0.0000000000
11
279.1501519751
21
163.1269375078
31
0.0000000000
11
279.1821946336
21
162.4841402680
31
0.0000000000
11
279.2738954268
21
161.8004889505
31
0.0000000000
11
279.4387670012
21
161.0813285900
31
0.0000000000
0
SPLINE
5
4B7
100
AcDbEntity
8
0
100
AcDbSpline
62
7
6
CONTINUOUS
70
0
71
3
72
15
73
11
74
9
42
0.0000001000
43
0.0000001000
44
0.0000000001
40
0.0000000000
40
0.0000000000
40
0.0000000000
40
0.0000000000
40
0.1225927868
40
0.2457906261
40
0.3697369704
40
0.4944986913
40
0.6200405080
40
0.7462643583
40
0.8729916966
40
1.0000000000
40
1.0000000000
40
1.0000000000
40
1.0000000000
10
283.8778022579
20
142.2730890597
30
0.0000000000
10
283.8967655408
20
142.1941319830
30
0.0000000000
10
283.9488180652
20
142.0388382992
30
0.0000000000
10
284.0661938652
20
141.8225728204
30
0.0000000000
10
284.2196427907
20
141.6283226341
30
0.0000000000
10
284.4046766513
20
141.4616198540
30
0.0000000000
10
284.6159894009
20
141.3270303767
30
0.0000000000
10
284.8476233265
20
141.2282212335
30
0.0000000000
10
285.0930255654
20
141.1678502046
30
0.0000000000
10
285.2614071605
20
141.1543174941
30
0.0000000000
10
285.3455342646
20
141.1543174941
30
0.0000000000
11
283.8778022579
21
142.2730890597
31
0.0000000000
11
283.9551518902
21
142.0420880448
31
0.0000000000
11
284.0717992585
21
141.8268554817
31
0.0000000000
11
284.2243598385
21
141.6334972849
31
0.0000000000
11
284.4084451540
21
141.4674386449
31
0.0000000000
11
284.6187852023
21
141.3333082666
31
0.0000000000
11
284.8494488099
21
141.2347880661
31
0.0000000000
11
285.0939673145
21
141.1745757400
31
0.0000000000
11
285.3455342646
21
141.1543174941
31
0.0000000000
0
SPLINE
5
4B8
100
AcDbEntity
8
0
100
AcDbSpline
62
7
6
CONTINUOUS
70
0
71
3
72
10
73
6
74
4
42
0.0000001000
43
0.0000001000
44
0.0000000001
40
0.0000000000
40
0.0000000000
40
0.0000000000
40
0.0000000000
40
0.5314234288
40
0.8699883589
40
1.0000000000
40
1.0000000000
40
1.0000000000
40
1.0000000000
10
310.6101641864
20
206.1762339138
30
0.0000000000
10
310.6195246767
20
206.3508424196
30
0.0000000000
10
310.6522078087
20
206.6591204632
30
0.0000000000
10
310.6642916314
20
206.9264299333
30
0.0000000000
10
310.7465510303
20
207.1408891599
30
0.0000000000
10
310.7722166806
20
207.1400981173
30
0.0000000000
11
310.6101641864
21
206.1762339138
31
0.0000000000
11
310.6511806720
21
206.6992056047
31
0.0000000000
11
310.7068003072
21
207.0287484398
31
0.0000000000
11
310.7722166806
21
207.1400981173
31
0.0000000000
0
SPLINE
5
4B9
100
AcDbEntity
8
0
100
AcDbSpline
62
7
6
CONTINUOUS
70
0
71
3
72
15
73
11
74
9
42
0.0000001000
43
0.0000001000
44
0.0000000001
40
0.0000000000
40
0.0000000000
40
0.0000000000
40
0.0000000000
40
0.2154834978
40
0.4146806838
40
0.5913093082
40
0.7393296966
40
0.8581571017
40
0.9452827565
40
0.9931105955
40
1.0000000000
40
1.0000000000
40
1.0000000000
40
1.0000000000
10
312.2270846470
20
193.0555109760
30
0.0000000000
10
312.2270846470
20
192.8446603209
30
0.0000000000
10
312.2240835682
20
192.4386971872
30
0.0000000000
10
312.2098156713
20
191.8610099415
30
0.0000000000
10
312.1865302739
20
191.3465780920
30
0.0000000000
10
312.1548136523
20
190.9204245981
30
0.0000000000
10
312.1162409323
20
190.5582059490
30
0.0000000000
10
312.0707869464
20
190.3546553890
30
0.0000000000
10
312.0264292431
20
190.1584985656
30
0.0000000000
10
311.9826168769
20
190.1654342745
30
0.0000000000
10
311.9768626348
20
190.1673370641
30
0.0000000000
11
312.2270846470
21
193.0555109760
31
0.0000000000
11
312.2220742234
21
192.4229788549
31
0.0000000000
11
312.2071255724
21
191.8384264784
31
0.0000000000
11
312.1826575342
21
191.3205106755
31
0.0000000000
11
312.1496507171
21
190.8872521732
31
0.0000000000
11
312.1079778751
21
190.5409324863
31
0.0000000000
11
312.0562327216
21
190.2904643273
31
0.0000000000
11
311.9932263434
21
190.1649972840
31
0.0000000000
11
311.9768626348
21
190.1673370641
31
0.0000000000
0
SPLINE
5
4BA
100
AcDbEntity
8
0
100
AcDbSpline
62
7
6
CONTINUOUS
70
0
71
3
72
20
73
16
74
14
42
0.0000001000
43
0.0000001000
44
0.0000000001
40
0.0000000000
40
0.0000000000
40
0.0000000000
40
0.0000000000
40
0.0657355115
40
0.1332580092
40
0.2001697699
40
0.2660150974
40
0.3308857319
40
0.3968168714
40
0.4667640637
40
0.5428409545
40
0.6255628382
40
0.7143656758
40
0.8078194494
40
0.9035629912
40
1.0000000000
40
1.0000000000
40
1.0000000000
40
1.0000000000
10
311.6145131487
20
165.1863351643
30
0.0000000000
10
311.6145131487
20
165.1412092043
30
0.0000000000
10
311.6144837989
20
165.0497305557
30
0.0000000000
10
311.6143497881
20
164.9123185366
30
0.0000000000
10
311.6141243444
20
164.7748312504
30
0.0000000000
10
311.6138122689
20
164.6391645835
30
0.0000000000
10
311.6134133500
20
164.5041713218
30
0.0000000000
10
311.6129152008
20
164.3663625320
30
0.0000000000
10
311.6122888265
20
164.2208613433
30
0.0000000000
10
311.6114954664
20
164.0638343361
30
0.0000000000
10
311.6104973583
20
163.8938642711
30
0.0000000000
10
311.6092665546
20
163.7119665927
30
0.0000000000
10
311.6077919933
20
163.5211313640
30
0.0000000000
10
311.6060791640
20
163.3250572307
30
0.0000000000
10
311.6047898854
20
163.1931358479
30
0.0000000000
10
311.6041080107
20
163.1269375078
30
0.0000000000
11
311.6145131487
21
165.1863351643
31
0.0000000000
11
311.6144696251
21
165.0509572914
31
0.0000000000
11
311.6143339088
21
164.9118992998
31
0.0000000000
11
311.6141078511
21
164.7740991989
31
0.0000000000
11
311.6137958208
21
164.6384955194
31
0.0000000000
11
311.6134009321
21
164.5048993795
31
0.0000000000
11
311.6129100101
21
164.3691195044
31
0.0000000000
11
311.6122897500
21
164.2250692858
31
0.0000000000
11
311.6114980009
21
164.0683960290
31
0.0000000000
11
311.6104973834
21
163.8980387929
31
0.0000000000
11
311.6092596330
21
163.7151594897
31
0.0000000000
11
311.6077721762
21
163.5227034551
31
0.0000000000
11
311.6060493558
21
163.3255335749
31
0.0000000000
11
311.6041080107
21
163.1269375078
31
0.0000000000
0
SPLINE
5
4BB
100
AcDbEntity
8
0
100
AcDbSpline
62
7
6
CONTINUOUS
70
0
71
3
72
37
73
33
74
31
42
0.0000001000
43
0.0000001000
44
0.0000000001
40
0.0000000000
40
0.0000000000
40
0.0000000000
40
0.0000000000
40
0.0100566860
40
0.0202887011
40
0.0304792464
40
0.0405939544
40
0.0507609404
40
0.0614650392
40
0.0732514590
40
0.0866658802
40
0.1018855246
40
0.1188172085
40
0.1374187178
40
0.1578383719
40
0.1802782109
40
0.2049466634
40
0.2320876178
40
0.2621672392
40
0.2957500484
40
0.3333256026
40
0.3748296980
40
0.4199431998
40
0.4687538484
40
0.5228681421
40
0.5836613694
40
0.6477819217
40
0.7100830662
40
0.7698223415
40
0.8281851691
40
0.8858026040
40
0.9429745096
40
1.0000000000
40
1.0000000000
40
1.0000000000
40
1.0000000000
10
311.6145131487
20
165.1863351643
30
0.0000000000
10
311.6145131487
20
165.2230271002
30
0.0000000000
10
311.6144938379
20
165.2970506642
30
0.0000000000
10
311.6144065858
20
165.4082545205
30
0.0000000000
10
311.6142607138
20
165.5196700098
30
0.0000000000
10
311.6140574305
20
165.6308481489
30
0.0000000000
10
311.6137923612
20
165.7438998694
30
0.0000000000
10
311.6134499776
20
165.8630506696
30
0.0000000000
10
311.6129992341
20
165.9940494932
30
0.0000000000
10
311.6123985213
20
166.1415228929
30
0.0000000000
10
311.6116025041
20
166.3077681713
30
0.0000000000
10
311.6105681213
20
166.4929376231
30
0.0000000000
10
311.6092488663
20
166.6970780041
30
0.0000000000
10
311.6075853621
20
166.9213130543
30
0.0000000000
10
311.6055006969
20
167.1676807799
30
0.0000000000
10
311.6029001679
20
167.4385676005
30
0.0000000000
10
311.5996606775
20
167.7373231956
30
0.0000000000
10
311.5956169593
20
168.0685958373
30
0.0000000000
10
311.5905523725
20
168.4379292358
30
0.0000000000
10
311.5842292010
20
168.8489311044
30
0.0000000000
10
311.5764226350
20
169.3019842943
30
0.0000000000
10
311.5669166816
20
169.7960047385
30
0.0000000000
10
311.5553535013
20
170.3360013933
30
0.0000000000
10
311.5411489010
20
170.9331607412
30
0.0000000000
10
311.5238872476
20
171.5861194880
30
0.0000000000
10
311.5038658455
20
172.2688828424
30
0.0000000000
10
311.4819613924
20
172.9477409779
30
0.0000000000
10
311.4588488284
20
173.6055392828
30
0.0000000000
10
311.4345359011
20
174.2461937238
30
0.0000000000
10
311.4088080635
20
174.8774181730
30
0.0000000000
10
311.3815071993
20
175.5036926141
30
0.0000000000
10
311.3621637618
20
175.9198945817
30
0.0000000000
10
311.3521980118
20
176.1277139370
30
0.0000000000
11
311.6145131487
21
165.1863351643
31
0.0000000000
11
311.6144844793
21
165.2964109683
31
0.0000000000
11
311.6143966542
21
165.4084058139
31
0.0000000000
11
311.6142506638
21
165.5199466874
31
0.0000000000
11
311.6140482786
21
165.6306573924
31
0.0000000000
11
311.6137873997
21
165.7419401877
31
0.0000000000
11
311.6134507805
21
165.8591017915
31
0.0000000000
11
311.6130069500
21
165.9881096986
31
0.0000000000
11
311.6124089599
21
166.1349364973
31
0.0000000000
11
311.6116114392
21
166.3015217376
31
0.0000000000
11
311.6105763587
21
166.4868451857
31
0.0000000000
11
311.6092608047
21
166.6904444051
31
0.0000000000
11
311.6076030218
21
166.9139422948
31
0.0000000000
11
311.6055251030
21
167.1595495478
31
0.0000000000
11
311.6029334969
21
167.4295465194
31
0.0000000000
11
311.5997129075
21
167.7266013271
31
0.0000000000
11
311.5956948857
21
168.0558143557
31
0.0000000000
11
311.5906554613
21
168.4233616217
31
0.0000000000
11
311.5843294700
21
168.8345975116
31
0.0000000000
11
311.5765036717
21
169.2888146269
31
0.0000000000
11
311.5670046280
21
169.7825146635
31
0.0000000000
11
311.5555674631
21
170.3166508902
31
0.0000000000
11
311.5414822995
21
170.9087932873
31
0.0000000000
11
311.5238966699
21
171.5739752639
31
0.0000000000
11
311.5033226188
21
172.2755073855
31
0.0000000000
11
311.4813275297
21
172.9570719256
31
0.0000000000
11
311.4583628722
21
173.6105468605
31
0.0000000000
11
311.4341325277
21
174.2488995336
31
0.0000000000
11
311.4084436392
21
174.8790297617
31
0.0000000000
11
311.3811837130
21
175.5042128265
31
0.0000000000
11
311.3521980118
21
176.1277139370
31
0.0000000000
0
SPLINE
5
4BC
100
AcDbEntity
8
0
100
AcDbSpline
62
7
6
CONTINUOUS
70
0
71
3
72
15
73
11
74
9
42
0.0000001000
43
0.0000001000
44
0.0000000001
40
0.0000000000
40
0.0000000000
40
0.0000000000
40
0.0000000000
40
0.1259601918
40
0.2542019485
40
0.3834381494
40
0.5123748750
40
0.6397273361
40
0.7642498634
40
0.8847296497
40
1.0000000000
40
1.0000000000
40
1.0000000000
40
1.0000000000
10
311.3521980118
20
176.5866506154
30
0.0000000000
10
311.3521980118
20
177.5602305959
30
0.0000000000
10
311.3431715799
20
179.5250352228
30
0.0000000000
10
311.3039341332
20
182.4885051422
30
0.0000000000
10
311.2392402687
20
185.4745422365
30
0.0000000000
10
311.1497705409
20
188.4530625105
30
0.0000000000
10
311.0364591175
20
191.3943122240
30
0.0000000000
10
310.9004771938
20
194.2691670171
30
0.0000000000
10
310.7432109155
20
197.0494058009
30
0.0000000000
10
310.6221888009
20
198.8675983478
30
0.0000000000
10
310.5579918435
20
199.7562378508
30
0.0000000000
11
311.3521980118
21
176.5866506154
31
0.0000000000
11
311.3390819327
21
179.5073611068
31
0.0000000000
11
311.2998783711
21
182.4807470871
31
0.0000000000
11
311.2350076347
21
185.4767482531
31
0.0000000000
11
311.1451553843
21
188.4651569842
31
0.0000000000
11
311.0312614726
21
191.4159834104
31
0.0000000000
11
310.8944867057
21
194.3001457791
31
0.0000000000
11
310.7362064558
21
197.0893197244
31
0.0000000000
11
310.5579918435
21
199.7562378508
31
0.0000000000
0
SPLINE
5
4BD
100
AcDbEntity
8
0
100
AcDbSpline
62
7
6
CONTINUOUS
70
0
71
3
72
10
73
6
74
4
42
0.0000001000
43
0.0000001000
44
0.0000000001
40
0.0000000000
40
0.0000000000
40
0.0000000000
40
0.0000000000
40
0.3528817364
40
0.6870016019
40
1.0000000000
40
1.0000000000
40
1.0000000000
40
1.0000000000
10
310.4844654658
20
202.6623460218
30
0.0000000000
10
310.4931135917
20
203.0758649290
30
0.0000000000
10
310.5135371720
20
203.8808487544
30
0.0000000000
10
310.5550631015
20
205.0522228573
30
0.0000000000
10
310.5905254606
20
205.8098974900
30
0.0000000000
10
310.6101641864
20
206.1762339138
30
0.0000000000
11
310.4844654658
21
202.6623460218
31
0.0000000000
11
310.5162333171
21
203.9027672784
31
0.0000000000
11
310.5582302093
21
205.0768725733
31
0.0000000000
11
310.6101641864
21
206.1762339138
31
0.0000000000
0
SPLINE
5
4BE
100
AcDbEntity
8
0
100
AcDbSpline
62
7
6
CONTINUOUS
70
0
71
3
72
10
73
6
74
4
42
0.0000001000
43
0.0000001000
44
0.0000000001
40
0.0000000000
40
0.0000000000
40
0.0000000000
40
0.0000000000
40
0.5314234288
40
0.8699883589
40
1.0000000000
40
1.0000000000
40
1.0000000000
40
1.0000000000
10
280.1440957994
20
206.1762339138
30
0.0000000000
10
280.1347353091
20
206.3508424196
30
0.0000000000
10
280.1020521771
20
206.6591204632
30
0.0000000000
10
280.0899683545
20
206.9264299333
30
0.0000000000
10
280.0077089555
20
207.1408891599
30
0.0000000000
10
279.9820433052
20
207.1400981173
30
0.0000000000
11
280.1440957994
21
206.1762339138
31
0.0000000000
11
280.1030793138
21
206.6992056047
31
0.0000000000
11
280.0474596786
21
207.0287484398
31
0.0000000000
11
279.9820433052
21
207.1400981173
31
0.0000000000
0
SPLINE
5
4BF
100
AcDbEntity
8
0
100
AcDbSpline
62
7
6
CONTINUOUS
70
0
71
3
72
9
73
5
74
3
42
0.0000001000
43
0.0000001000
44
0.0000000001
40
0.0000000000
40
0.0000000000
40
0.0000000000
40
0.0000000000
40
0.4998309813
40
1.0000000000
40
1.0000000000
40
1.0000000000
40
1.0000000000
10
294.1479636524
20
176.5866501712
30
0.0000000000
10
294.1326106220
20
176.6167947303
30
0.0000000000
10
294.1019051438
20
176.6771098210
30
0.0000000000
10
294.0712215610
20
176.7374360533
30
0.0000000000
10
294.0558800513
20
176.7676121452
30
0.0000000000
11
294.1479636524
21
176.5866501712
31
0.0000000000
11
294.1019209935
21
176.6770922157
31
0.0000000000
11
294.0558800513
21
176.7676121452
31
0.0000000000
0
SPLINE
5
4C0
100
AcDbEntity
8
0
100
AcDbSpline
62
7
6
CONTINUOUS
70
0
71
3
72
9
73
5
74
3
42
0.0000001000
43
0.0000001000
44
0.0000000001
40
0.0000000000
40
0.0000000000
40
0.0000000000
40
0.0000000000
40
0.4995581682
40
1.0000000000
40
1.0000000000
40
1.0000000000
40
1.0000000000
10
294.0558800513
20
176.7676121491
30
0.0000000000
10
294.0456661046
20
176.8178380572
30
0.0000000000
10
294.0252348038
20
176.9183816995
30
0.0000000000
10
294.0048327036
20
177.0189312712
30
0.0000000000
10
293.9946299345
20
177.0692519619
30
0.0000000000
11
294.0558800513
21
176.7676121491
31
0.0000000000
11
294.0252601454
21
176.9182943325
31
0.0000000000
11
293.9946299345
21
177.0692519619
31
0.0000000000
0
SPLINE
5
4C1
100
AcDbEntity
8
0
100
AcDbSpline
62
7
6
CONTINUOUS
70
0
71
3
72
9
73
5
74
3
42
0.0000001000
43
0.0000001000
44
0.0000000001
40
0.0000000000
40
0.0000000000
40
0.0000000000
40
0.0000000000
40
0.6665696789
40
1.0000000000
40
1.0000000000
40
1.0000000000
40
1.0000000000
10
293.0758799345
20
178.2848112149
30
0.0000000000
10
293.0656664372
20
178.3153960002
30
0.0000000000
10
293.0503500759
20
178.3612818952
30
0.0000000000
10
293.0350428709
20
178.4071708452
30
0.0000000000
10
293.0299400017
20
178.4224719517
30
0.0000000000
11
293.0758799345
21
178.2848112149
31
0.0000000000
11
293.0452516614
21
178.3765696502
31
0.0000000000
11
293.0299400017
21
178.4224719517
31
0.0000000000
0
SPLINE
5
4C2
100
AcDbEntity
8
0
100
AcDbSpline
62
7
6
CONTINUOUS
70
0
71
3
72
8
73
4
74
2
42
0.0000001000
43
0.0000001000
44
0.0000000001
40
0.0000000000
40
0.0000000000
40
0.0000000000
40
0.0000000000
40
1.0000000000
40
1.0000000000
40
1.0000000000
40
1.0000000000
10
293.0299400017
20
178.4224719517
30
0.0000000000
10
293.0248356480
20
178.4377775093
30
0.0000000000
10
293.0197323121
20
178.4530834064
30
0.0000000000
10
293.0146299929
20
178.4683896423
30
0.0000000000
11
293.0299400017
21
178.4224719517
31
0.0000000000
11
293.0146299929
21
178.4683896423
31
0.0000000000
0
SPLINE
5
4C3
100
AcDbEntity
8
0
100
AcDbSpline
62
7
6
CONTINUOUS
70
0
71
3
72
9
73
5
74
3
42
0.0000001000
43
0.0000001000
44
0.0000000001
40
0.0000000000
40
0.0000000000
40
0.0000000000
40
0.0000000000
40
0.4999695254
40
1.0000000000
40
1.0000000000
40
1.0000000000
40
1.0000000000
10
293.0146299929
20
178.4683896423
30
0.0000000000
10
292.9942085288
20
178.4888101147
30
0.0000000000
10
292.9533691438
20
178.5296595821
30
0.0000000000
10
292.9125418230
20
178.5705211073
30
0.0000000000
10
292.8921299345
20
178.5909561275
30
0.0000000000
11
293.0146299929
21
178.4683896423
31
0.0000000000
11
292.9533746486
21
178.5296601064
31
0.0000000000
11
292.8921299345
21
178.5909561275
31
0.0000000000
0
SPLINE
5
4C4
100
AcDbEntity
8
0
100
AcDbSpline
62
7
6
CONTINUOUS
70
0
71
3
72
9
73
5
74
3
42
0.0000001000
43
0.0000001000
44
0.0000000001
40
0.0000000000
40
0.0000000000
40
0.0000000000
40
0.0000000000
40
0.5000190818
40
1.0000000000
40
1.0000000000
40
1.0000000000
40
1.0000000000
10
292.8921299345
20
178.5909561275
30
0.0000000000
10
292.8615028594
20
178.6011767267
30
0.0000000000
10
292.8002519529
20
178.6216198605
30
0.0000000000
10
292.7390028592
20
178.6420684251
30
0.0000000000
10
292.7083799345
20
178.6522936749
30
0.0000000000
11
292.8921299345
21
178.5909561275
31
0.0000000000
11
292.8002500686
21
178.6216219985
31
0.0000000000
11
292.7083799345
21
178.6522936749
31
0.0000000000
0
SPLINE
5
4C5
100
AcDbEntity
8
0
100
AcDbSpline
62
7
6
CONTINUOUS
70
0
71
3
72
10
73
6
74
4
42
0.0000001000
43
0.0000001000
44
0.0000000001
40
0.0000000000
40
0.0000000000
40
0.0000000000
40
0.0000000000
40
0.3314016065
40
0.6650563881
40
1.0000000000
40
1.0000000000
40
1.0000000000
40
1.0000000000
10
283.3023083869
20
144.6692624422
30
0.0000000000
10
283.3309285645
20
144.7687390912
30
0.0000000000
10
283.3877677353
20
144.9685406693
30
0.0000000000
10
283.4714794294
20
145.2694613780
30
0.0000000000
10
283.5262931216
20
145.4709747626
30
0.0000000000
10
283.5534665725
20
145.5720023956
30
0.0000000000
11
283.3023083869
21
144.6692624422
31
0.0000000000
11
283.3872855959
21
144.9679451136
31
0.0000000000
11
283.4710836991
21
145.2691528064
31
0.0000000000
11
283.5534665725
21
145.5720023956
31
0.0000000000
0
SPLINE
5
4C6
100
AcDbEntity
8
0
100
AcDbSpline
62
7
6
CONTINUOUS
70
0
71
3
72
11
73
7
74
5
42
0.0000001000
43
0.0000001000
44
0.0000000001
40
0.0000000000
40
0.0000000000
40
0.0000000000
40
0.0000000000
40
0.2411189267
40
0.4987426696
40
0.7569983138
40
1.0000000000
40
1.0000000000
40
1.0000000000
40
1.0000000000
10
310.5579918435
20
199.7562378508
30
0.0000000000
10
310.5411515403
20
199.9893479432
30
0.0000000000
10
310.5132899617
20
200.4720373583
30
0.0000000000
10
310.4871570156
20
201.2053834487
30
0.0000000000
10
310.4761980784
20
201.9409384004
30
0.0000000000
10
310.4795405245
20
202.4268549603
30
0.0000000000
10
310.4844654658
20
202.6623460218
30
0.0000000000
11
310.5579918435
21
199.7562378508
31
0.0000000000
11
310.5166997941
21
200.4561736802
31
0.0000000000
11
310.4897623182
21
201.2048365484
31
0.0000000000
11
310.4787865103
21
201.9557411779
31
0.0000000000
11
310.4844654658
21
202.6623460218
31
0.0000000000
0
SPLINE
5
4C7
100
AcDbEntity
8
0
100
AcDbSpline
62
7
6
CONTINUOUS
70
0
71
3
72
10
73
6
74
4
42
0.0000001000
43
0.0000001000
44
0.0000000001
40
0.0000000000
40
0.0000000000
40
0.0000000000
40
0.0000000000
40
0.3314016065
40
0.6650563881
40
1.0000000000
40
1.0000000000
40
1.0000000000
40
1.0000000000
10
307.4519515989
20
144.6692624422
30
0.0000000000
10
307.4233314213
20
144.7687390912
30
0.0000000000
10
307.3664922506
20
144.9685406693
30
0.0000000000
10
307.2827805564
20
145.2694613780
30
0.0000000000
10
307.2279668642
20
145.4709747626
30
0.0000000000
10
307.2007934133
20
145.5720023956
30
0.0000000000
11
307.4519515989
21
144.6692624422
31
0.0000000000
11
307.3669743899
21
144.9679451136
31
0.0000000000
11
307.2831762867
21
145.2691528064
31
0.0000000000
11
307.2007934133
21
145.5720023956
31
0.0000000000
0
SPLINE
5
4C8
100
AcDbEntity
8
0
100
AcDbSpline
62
7
6
CONTINUOUS
70
0
71
3
72
12
73
8
74
6
42
0.0000001000
43
0.0000001000
44
0.0000000001
40
0.0000000000
40
0.0000000000
40
0.0000000000
40
0.0000000000
40
0.2091511593
40
0.4155872611
40
0.6170811584
40
0.8122302777
40
1.0000000000
40
1.0000000000
40
1.0000000000
40
1.0000000000
10
309.7288499270
20
156.0980254045
30
0.0000000000
10
309.8548452159
20
156.4402629029
30
0.0000000000
10
310.0967572892
20
157.1234215557
30
0.0000000000
10
310.4358522142
20
158.1446399483
30
0.0000000000
10
310.7510140659
20
159.1479226852
30
0.0000000000
10
311.0431093048
20
160.1242201162
30
0.0000000000
10
311.2269784852
20
160.7661093910
30
0.0000000000
10
311.3154929846
20
161.0813285900
30
0.0000000000
11
309.7288499270
21
156.0980254045
31
0.0000000000
11
310.0949081077
21
157.1290507541
31
0.0000000000
11
310.4357550633
21
158.1537259943
31
0.0000000000
11
310.7519982417
21
159.1591903783
31
0.0000000000
11
311.0448451099
21
160.1371192021
31
0.0000000000
11
311.3154929846
21
161.0813285900
31
0.0000000000
0
SPLINE
5
4C9
100
AcDbEntity
8
0
100
AcDbSpline
62
7
6
CONTINUOUS
70
0
71
3
72
11
73
7
74
5
42
0.0000001000
43
0.0000001000
44
0.0000000001
40
0.0000000000
40
0.0000000000
40
0.0000000000
40
0.0000000000
40
0.2411189267
40
0.4987426696
40
0.7569983138
40
1.0000000000
40
1.0000000000
40
1.0000000000
40
1.0000000000
10
280.1962681423
20
199.7562378508
30
0.0000000000
10
280.2131084455
20
199.9893479432
30
0.0000000000
10
280.2409700241
20
200.4720373583
30
0.0000000000
10
280.2671029702
20
201.2053834487
30
0.0000000000
10
280.2780619075
20
201.9409384004
30
0.0000000000
10
280.2747194613
20
202.4268549603
30
0.0000000000
10
280.2697945200
20
202.6623460218
30
0.0000000000
11
280.1962681423
21
199.7562378508
31
0.0000000000
11
280.2375601917
21
200.4561736802
31
0.0000000000
11
280.2644976676
21
201.2048365484
31
0.0000000000
11
280.2754734755
21
201.9557411779
31
0.0000000000
11
280.2697945200
21
202.6623460218
31
0.0000000000
0
SPLINE
5
4CA
100
AcDbEntity
8
0
100
AcDbSpline
62
7
6
CONTINUOUS
70
0
71
3
72
9
73
5
74
3
42
0.0000001000
43
0.0000001000
44
0.0000000001
40
0.0000000000
40
0.0000000000
40
0.0000000000
40
0.0000000000
40
0.5102007138
40
1.0000000000
40
1.0000000000
40
1.0000000000
40
1.0000000000
10
303.4164667689
20
165.7034285625
30
0.0000000000
10
303.4164667689
20
165.8142458616
30
0.0000000000
10
303.4534609314
20
166.0337878413
30
0.0000000000
10
303.5682326705
20
166.2245792979
30
0.0000000000
10
303.6406683615
20
166.3033641843
30
0.0000000000
11
303.4164667689
21
165.7034285625
31
0.0000000000
11
303.4744615392
21
166.0307829129
31
0.0000000000
11
303.6406683615
21
166.3033641843
31
0.0000000000
0
SPLINE
5
4CB
100
AcDbEntity
8
0
100
AcDbSpline
62
7
6
CONTINUOUS
70
0
71
3
72
9
73
5
74
3
42
0.0000001000
43
0.0000001000
44
0.0000000001
40
0.0000000000
40
0.0000000000
40
0.0000000000
40
0.0000000000
40
0.9235051913
40
1.0000000000
40
1.0000000000
40
1.0000000000
40
1.0000000000
10
306.3803787595
20
167.7466236657
30
0.0000000000
10
306.3815640124
20
167.8653677940
30
0.0000000000
10
306.4064978698
20
167.9950422338
30
0.0000000000
10
306.4563226065
20
168.1145800137
30
0.0000000000
10
306.4602772522
20
168.1236604222
30
0.0000000000
11
306.3803787595
21
167.7466236657
31
0.0000000000
11
306.4488455870
21
168.0962326603
31
0.0000000000
11
306.4602772522
21
168.1236604222
31
0.0000000000
0
SPLINE
5
4CC
100
AcDbEntity
8
0
100
AcDbSpline
62
7
6
CONTINUOUS
70
0
71
3
72
9
73
5
74
3
42
0.0000001000
43
0.0000001000
44
0.0000000001
40
0.0000000000
40
0.0000000000
40
0.0000000000
40
0.0000000000
40
0.4998398983
40
1.0000000000
40
1.0000000000
40
1.0000000000
40
1.0000000000
10
293.3821299929
20
177.8577255767
30
0.0000000000
10
293.3923431991
20
177.8881831018
30
0.0000000000
10
293.4127679926
20
177.9491204006
30
0.0000000000
10
293.4331764886
20
178.0100631595
30
0.0000000000
10
293.4433799345
20
178.0405456580
30
0.0000000000
11
293.3821299929
21
177.8577255767
31
0.0000000000
11
293.4127573807
21
177.9491022524
31
0.0000000000
11
293.4433799345
21
178.0405456580
31
0.0000000000
0
SPLINE
5
4CD
100
AcDbEntity
8
0
100
AcDbSpline
62
7
6
CONTINUOUS
70
0
71
3
72
12
73
8
74
6
42
0.0000001000
43
0.0000001000
44
0.0000000001
40
0.0000000000
40
0.0000000000
40
0.0000000000
40
0.0000000000
40
0.2515372264
40
0.5022307783
40
0.7445083820
40
0.9806700996
40
1.0000000000
40
1.0000000000
40
1.0000000000
40
1.0000000000
10
303.4619362420
20
170.4898402326
30
0.0000000000
10
303.4732805977
20
170.6063276746
30
0.0000000000
10
303.5346672578
20
170.8370942971
30
0.0000000000
10
303.7352263374
20
171.1282190838
30
0.0000000000
10
304.0211818087
20
171.3253243339
30
0.0000000000
10
304.2528149530
20
171.3774506627
30
0.0000000000
10
304.3723900125
20
171.3787816518
30
0.0000000000
10
304.3814363030
20
171.3787379733
30
0.0000000000
11
303.4619362420
21
170.4898402326
31
0.0000000000
11
303.5533091488
21
170.8288581656
31
0.0000000000
11
303.7531489685
21
171.1161221649
31
0.0000000000
11
304.0325557784
21
171.3066595770
31
0.0000000000
11
304.3543003869
21
171.3784347233
31
0.0000000000
11
304.3814363030
21
171.3787379733
31
0.0000000000
0
SPLINE
5
4CE
100
AcDbEntity
8
0
100
AcDbSpline
62
7
6
CONTINUOUS
70
0
71
3
72
10
73
6
74
4
42
0.0000001000
43
0.0000001000
44
0.0000000001
40
0.0000000000
40
0.0000000000
40
0.0000000000
40
0.0000000000
40
0.3949855799
40
0.7943980584
40
1.0000000000
40
1.0000000000
40
1.0000000000
40
1.0000000000
10
306.3771795339
20
172.7050644507
30
0.0000000000
10
306.3776279958
20
172.8250558601
30
0.0000000000
10
306.4232118289
20
173.0683679695
30
0.0000000000
10
306.5845884385
20
173.3333541394
30
0.0000000000
10
306.7209301080
20
173.4594305855
30
0.0000000000
10
306.7708826269
20
173.4975231284
30
0.0000000000
11
306.3771795339
21
172.7050644507
31
0.0000000000
11
306.4433816181
21
173.0589013327
31
0.0000000000
11
306.6327341705
21
173.3697868679
31
0.0000000000
11
306.7708826269
21
173.4975231284
31
0.0000000000
0
SPLINE
5
4CF
100
AcDbEntity
8
0
100
AcDbSpline
62
7
6
CONTINUOUS
70
0
71
3
72
9
73
5
74
3
42
0.0000001000
43
0.0000001000
44
0.0000000001
40
0.0000000000
40
0.0000000000
40
0.0000000000
40
0.0000000000
40
0.5409276860
40
1.0000000000
40
1.0000000000
40
1.0000000000
40
1.0000000000
10
303.4619362420
20
161.2617279516
30
0.0000000000
10
303.4508044319
20
161.3620972764
30
0.0000000000
10
303.4635866666
20
161.5544288371
30
0.0000000000
10
303.5537751629
20
161.7243677678
30
0.0000000000
10
303.6089049925
20
161.7907639841
30
0.0000000000
11
303.4619362420
21
161.2617279516
31
0.0000000000
11
303.4872822470
21
161.5636200632
31
0.0000000000
11
303.6089049925
21
161.7907639841
31
0.0000000000
0
SPLINE
5
4D0
100
AcDbEntity
8
0
100
AcDbSpline
62
7
6
CONTINUOUS
70
0
71
3
72
9
73
5
74
3
42
0.0000001000
43
0.0000001000
44
0.0000000001
40
0.0000000000
40
0.0000000000
40
0.0000000000
40
0.0000000000
40
0.4998559015
40
1.0000000000
40
1.0000000000
40
1.0000000000
40
1.0000000000
10
293.1983799929
20
177.6144702007
30
0.0000000000
10
293.2290192792
20
177.6549836129
30
0.0000000000
10
293.2902923847
20
177.7360512925
30
0.0000000000
10
293.3515192727
20
177.8171538839
30
0.0000000000
10
293.3821299929
20
177.8577255767
30
0.0000000000
11
293.1983799929
21
177.6144702007
31
0.0000000000
11
293.2902631782
21
177.7360366520
31
0.0000000000
11
293.3821299929
21
177.8577255767
31
0.0000000000
0
SPLINE
5
4D1
100
AcDbEntity
8
0
100
AcDbSpline
62
7
6
CONTINUOUS
70
0
71
3
72
9
73
5
74
3
42
0.0000001000
43
0.0000001000
44
0.0000000001
40
0.0000000000
40
0.0000000000
40
0.0000000000
40
0.0000000000
40
0.5972204962
40
1.0000000000
40
1.0000000000
40
1.0000000000
40
1.0000000000
10
292.9850632976
20
177.5087514219
30
0.0000000000
10
293.0153388358
20
177.5237480913
30
0.0000000000
10
293.0660307098
20
177.5488633016
30
0.0000000000
10
293.1167189039
20
177.5739859376
30
0.0000000000
10
293.1371344725
20
177.5841060249
30
0.0000000000
11
292.9850632976
21
177.5087514219
31
0.0000000000
11
293.0758859756
21
177.5537493766
31
0.0000000000
11
293.1371344725
21
177.5841060249
31
0.0000000000
0
SPLINE
5
4D2
100
AcDbEntity
8
0
100
AcDbSpline
62
7
6
CONTINUOUS
70
0
71
3
72
8
73
4
74
2
42
0.0000001000
43
0.0000001000
44
0.0000000001
40
0.0000000000
40
0.0000000000
40
0.0000000000
40
0.0000000000
40
1.0000000000
40
1.0000000000
40
1.0000000000
40
1.0000000000
10
293.1371344725
20
177.5841060249
30
0.0000000000
10
293.1575502431
20
177.5942262124
30
0.0000000000
10
293.1779654166
20
177.6043476044
30
0.0000000000
10
293.1983799929
20
177.6144702007
30
0.0000000000
11
293.1371344725
21
177.5841060249
31
0.0000000000
11
293.1983799929
21
177.6144702007
31
0.0000000000
0
SPLINE
5
4D3
100
AcDbEntity
8
0
100
AcDbSpline
62
7
6
CONTINUOUS
70
0
71
3
72
10
73
6
74
4
42
0.0000001000
43
0.0000001000
44
0.0000000001
40
0.0000000000
40
0.0000000000
40
0.0000000000
40
0.0000000000
40
0.3107375193
40
0.6437707619
40
1.0000000000
40
1.0000000000
40
1.0000000000
40
1.0000000000
10
311.6041080107
20
163.1269375078
30
0.0000000000
10
311.6018983473
20
162.9124170918
30
0.0000000000
10
311.5799219649
20
162.4679492550
30
0.0000000000
10
311.4883288761
20
161.7828548182
30
0.0000000000
10
311.3819818150
20
161.3181096372
30
0.0000000000
10
311.3154929846
20
161.0813285900
30
0.0000000000
11
311.6041080107
21
163.1269375078
31
0.0000000000
11
311.5720653522
21
162.4841402680
31
0.0000000000
11
311.4803645590
21
161.8004889505
31
0.0000000000
11
311.3154929846
21
161.0813285900
31
0.0000000000
0
SPLINE
5
4D4
100
AcDbEntity
8
0
100
AcDbSpline
62
7
6
CONTINUOUS
70
0
71
3
72
15
73
11
74
9
42
0.0000001000
43
0.0000001000
44
0.0000000001
40
0.0000000000
40
0.0000000000
40
0.0000000000
40
0.0000000000
40
0.1225927868
40
0.2457906261
40
0.3697369704
40
0.4944986913
40
0.6200405080
40
0.7462643583
40
0.8729916966
40
1.0000000000
40
1.0000000000
40
1.0000000000
40
1.0000000000
10
306.8764577279
20
142.2730890597
30
0.0000000000
10
306.8574944450
20
142.1941319830
30
0.0000000000
10
306.8054419206
20
142.0388382992
30
0.0000000000
10
306.6880661206
20
141.8225728204
30
0.0000000000
10
306.5346171951
20
141.6283226341
30
0.0000000000
10
306.3495833345
20
141.4616198540
30
0.0000000000
10
306.1382705849
20
141.3270303767
30
0.0000000000
10
305.9066366593
20
141.2282212335
30
0.0000000000
10
305.6612344204
20
141.1678502046
30
0.0000000000
10
305.4928528254
20
141.1543174941
30
0.0000000000
10
305.4087257212
20
141.1543174941
30
0.0000000000
11
306.8764577279
21
142.2730890597
31
0.0000000000
11
306.7991080957
21
142.0420880448
31
0.0000000000
11
306.6824607273
21
141.8268554817
31
0.0000000000
11
306.5299001474
21
141.6334972849
31
0.0000000000
11
306.3458148318
21
141.4674386449
31
0.0000000000
11
306.1354747835
21
141.3333082666
31
0.0000000000
11
305.9048111759
21
141.2347880661
31
0.0000000000
11
305.6602926713
21
141.1745757400
31
0.0000000000
11
305.4087257212
21
141.1543174941
31
0.0000000000
0
SPLINE
5
4D5
100
AcDbEntity
8
0
100
AcDbSpline
62
7
6
CONTINUOUS
70
0
71
3
72
17
73
13
74
11
42
0.0000001000
43
0.0000001000
44
0.0000000001
40
0.0000000000
40
0.0000000000
40
0.0000000000
40
0.0000000000
40
0.0131730169
40
0.0656324129
40
0.1501937392
40
0.2524599067
40
0.3649429414
40
0.4835458487
40
0.6083204138
40
0.7390124920
40
0.8709431424
40
1.0000000000
40
1.0000000000
40
1.0000000000
40
1.0000000000
10
311.7773973510
20
198.1487837344
30
0.0000000000
10
311.7966849442
20
198.1424057910
30
0.0000000000
10
311.9060971429
20
198.0529988465
30
0.0000000000
10
311.9115964067
20
197.7903873548
30
0.0000000000
10
312.0102317541
20
197.3919303770
30
0.0000000000
10
312.0576868698
20
196.8793235268
30
0.0000000000
10
312.1116670708
20
196.3104727644
30
0.0000000000
10
312.1517500396
20
195.7011786537
30
0.0000000000
10
312.1847922809
20
195.0604041746
30
0.0000000000
10
312.2087619359
20
194.3962834461
30
0.0000000000
10
312.2236023353
20
193.7245721090
30
0.0000000000
10
312.2270846470
20
193.2768858692
30
0.0000000000
10
312.2270846470
20
193.0555109760
30
0.0000000000
11
311.7773973510
21
198.1487837344
31
0.0000000000
11
311.8362942069
21
198.1054950158
31
0.0000000000
11
311.9179645554
21
197.8481901283
31
0.0000000000
11
311.9932252675
21
197.4195964880
31
0.0000000000
11
312.0562317769
21
196.8971216444
31
0.0000000000
11
312.1079770820
21
196.3206031487
31
0.0000000000
11
312.1496501159
21
195.7116987150
31
0.0000000000
11
312.1826571538
21
195.0704595863
31
0.0000000000
11
312.2071254043
21
194.3983653334
31
0.0000000000
11
312.2220741866
21
193.7196167549
31
0.0000000000
11
312.2270846470
21
193.0555109760
31
0.0000000000
0
SPLINE
5
4D6
100
AcDbEntity
8
0
100
AcDbSpline
62
7
6
CONTINUOUS
70
0
71
3
72
14
73
10
74
8
42
0.0000001000
43
0.0000001000
44
0.0000000001
40
0.0000000000
40
0.0000000000
40
0.0000000000
40
0.0000000000
40
0.1096038888
40
0.2522741024
40
0.4079562534
40
0.5675928605
40
0.7242044123
40
0.8695577710
40
1.0000000000
40
1.0000000000
40
1.0000000000
40
1.0000000000
10
282.6198210165
20
158.2070738285
30
0.0000000000
10
282.6747214174
20
158.1434607244
30
0.0000000000
10
282.8314567074
20
158.0233491131
30
0.0000000000
10
283.1368665815
20
157.9358958735
30
0.0000000000
10
283.4908828754
20
157.9529995802
30
0.0000000000
10
283.8348399243
20
158.0734722781
30
0.0000000000
10
284.1248861829
20
158.2816584443
30
0.0000000000
10
284.3236769890
20
158.5522611932
30
0.0000000000
10
284.3766119760
20
158.7634939228
30
0.0000000000
10
284.3770804519
20
158.8628960292
30
0.0000000000
11
282.6198210165
21
158.2070738285
31
0.0000000000
11
282.8169769325
21
158.0515565730
31
0.0000000000
11
283.1287863904
21
157.9558581931
31
0.0000000000
11
283.4844325934
21
157.9696031529
31
0.0000000000
11
283.8289476184
21
158.0900169367
31
0.0000000000
11
284.1182642763
21
158.3009339198
31
0.0000000000
11
284.3100173828
21
158.5723249899
31
0.0000000000
11
284.3770804519
21
158.8628960292
31
0.0000000000
0
SPLINE
5
4D7
100
AcDbEntity
8
0
100
AcDbSpline
62
7
6
CONTINUOUS
70
0
71
3
72
14
73
10
74
8
42
0.0000001000
43
0.0000001000
44
0.0000000001
40
0.0000000000
40
0.0000000000
40
0.0000000000
40
0.0000000000
40
0.0374905975
40
0.1722687088
40
0.3225360903
40
0.4892178622
40
0.6621272618
40
0.8367685424
40
1.0000000000
40
1.0000000000
40
1.0000000000
40
1.0000000000
10
285.5732726472
20
160.5560700705
30
0.0000000000
10
285.5903533465
20
160.5328744094
30
0.0000000000
10
285.6759969343
20
160.4317001876
30
0.0000000000
10
285.8936884524
20
160.2987876533
30
0.0000000000
10
286.2453806705
20
160.2611168410
30
0.0000000000
10
286.6131132458
20
160.3593464771
30
0.0000000000
10
286.9457271490
20
160.5784476090
30
0.0000000000
10
287.1934152479
20
160.8871273674
30
0.0000000000
10
287.2786119062
20
161.1380959566
30
0.0000000000
10
287.2923237439
20
161.2617279516
30
0.0000000000
11
285.5732726472
21
160.5560700705
31
0.0000000000
11
285.6290808931
21
160.4902672172
31
0.0000000000
11
285.8898371324
21
160.3261172289
31
0.0000000000
11
286.2306165318
21
160.2827128401
31
0.0000000000
11
286.5999399348
21
160.3765502904
31
0.0000000000
11
286.9306799329
21
160.5930437605
31
0.0000000000
11
287.1779366908
21
160.9065215831
31
0.0000000000
11
287.2923237439
21
161.2617279516
31
0.0000000000
0
SPLINE
5
4D8
100
AcDbEntity
8
0
100
AcDbSpline
62
7
6
CONTINUOUS
70
0
71
3
72
14
73
10
74
8
42
0.0000001000
43
0.0000001000
44
0.0000000001
40
0.0000000000
40
0.0000000000
40
0.0000000000
40
0.0000000000
40
0.0537821488
40
0.2000808728
40
0.3574280257
40
0.5207942598
40
0.6858629196
40
0.8465100888
40
1.0000000000
40
1.0000000000
40
1.0000000000
40
1.0000000000
10
282.7364633460
20
162.3426425432
30
0.0000000000
10
282.7671470661
20
162.3170223463
30
0.0000000000
10
282.8882214469
20
162.2299602066
30
0.0000000000
10
283.1411580882
20
162.1352188601
30
0.0000000000
10
283.4932944373
20
162.1345328480
30
0.0000000000
10
283.8385319179
20
162.2548187847
30
0.0000000000
10
284.1283574091
20
162.4818947489
30
0.0000000000
10
284.3232044728
20
162.7857137867
30
0.0000000000
10
284.3726664422
20
163.0191525032
30
0.0000000000
10
284.3738812263
20
163.1325675252
30
0.0000000000
11
282.7364633460
21
162.3426425432
31
0.0000000000
11
282.8337194053
21
162.2726760518
31
0.0000000000
11
283.1366075505
21
162.1567276355
31
0.0000000000
11
283.4854105327
21
162.1537700777
31
0.0000000000
11
283.8277258128
21
162.2720043647
31
0.0000000000
11
284.1154188950
21
162.4981450882
31
0.0000000000
11
284.3056459974
21
162.7992149494
31
0.0000000000
11
284.3738812263
21
163.1325675252
31
0.0000000000
0
SPLINE
5
4D9
100
AcDbEntity
8
0
100
AcDbSpline
62
7
6
CONTINUOUS
70
0
71
3
72
14
73
10
74
8
42
0.0000001000
43
0.0000001000
44
0.0000000001
40
0.0000000000
40
0.0000000000
40
0.0000000000
40
0.0000000000
40
0.0537821488
40
0.2000808728
40
0.3574280257
40
0.5207942598
40
0.6858629196
40
0.8465100888
40
1.0000000000
40
1.0000000000
40
1.0000000000
40
1.0000000000
10
308.0177966398
20
162.3426425432
30
0.0000000000
10
307.9871129198
20
162.3170223463
30
0.0000000000
10
307.8660385389
20
162.2299602066
30
0.0000000000
10
307.6131018977
20
162.1352188601
30
0.0000000000
10
307.2609655485
20
162.1345328480
30
0.0000000000
10
306.9157280680
20
162.2548187847
30
0.0000000000
10
306.6259025767
20
162.4818947489
30
0.0000000000
10
306.4310555131
20
162.7857137867
30
0.0000000000
10
306.3815935436
20
163.0191525032
30
0.0000000000
10
306.3803787595
20
163.1325675252
30
0.0000000000
11
308.0177966398
21
162.3426425432
31
0.0000000000
11
307.9205405806
21
162.2726760518
31
0.0000000000
11
307.6176524353
21
162.1567276355
31
0.0000000000
11
307.2688494531
21
162.1537700777
31
0.0000000000
11
306.9265341731
21
162.2720043647
31
0.0000000000
11
306.6388410908
21
162.4981450882
31
0.0000000000
11
306.4486139884
21
162.7992149494
31
0.0000000000
11
306.3803787595
21
163.1325675252
31
0.0000000000
0
SPLINE
5
4DA
100
AcDbEntity
8
0
100
AcDbSpline
62
7
6
CONTINUOUS
70
0
71
3
72
37
73
33
74
31
42
0.0000001000
43
0.0000001000
44
0.0000000001
40
0.0000000000
40
0.0000000000
40
0.0000000000
40
0.0000000000
40
0.0100566860
40
0.0202887011
40
0.0304792464
40
0.0405939544
40
0.0507609404
40
0.0614650392
40
0.0732514590
40
0.0866658802
40
0.1018855246
40
0.1188172085
40
0.1374187178
40
0.1578383719
40
0.1802782109
40
0.2049466634
40
0.2320876178
40
0.2621672392
40
0.2957500484
40
0.3333256026
40
0.3748296980
40
0.4199431998
40
0.4687538484
40
0.5228681421
40
0.5836613694
40
0.6477819217
40
0.7100830662
40
0.7698223415
40
0.8281851691
40
0.8858026040
40
0.9429745096
40
1.0000000000
40
1.0000000000
40
1.0000000000
40
1.0000000000
10
279.1397468371
20
165.1863351643
30
0.0000000000
10
279.1397468371
20
165.2230271002
30
0.0000000000
10
279.1397661480
20
165.2970506642
30
0.0000000000
10
279.1398534000
20
165.4082545205
30
0.0000000000
10
279.1399992720
20
165.5196700098
30
0.0000000000
10
279.1402025553
20
165.6308481489
30
0.0000000000
10
279.1404676246
20
165.7438998694
30
0.0000000000
10
279.1408100082
20
165.8630506696
30
0.0000000000
10
279.1412607517
20
165.9940494932
30
0.0000000000
10
279.1418614645
20
166.1415228929
30
0.0000000000
10
279.1426574817
20
166.3077681713
30
0.0000000000
10
279.1436918645
20
166.4929376231
30
0.0000000000
10
279.1450111195
20
166.6970780041
30
0.0000000000
10
279.1466746237
20
166.9213130543
30
0.0000000000
10
279.1487592889
20
167.1676807799
30
0.0000000000
10
279.1513598179
20
167.4385676005
30
0.0000000000
10
279.1545993083
20
167.7373231956
30
0.0000000000
10
279.1586430265
20
168.0685958373
30
0.0000000000
10
279.1637076133
20
168.4379292358
30
0.0000000000
10
279.1700307848
20
168.8489311044
30
0.0000000000
10
279.1778373508
20
169.3019842943
30
0.0000000000
10
279.1873433042
20
169.7960047385
30
0.0000000000
10
279.1989064846
20
170.3360013933
30
0.0000000000
10
279.2131110848
20
170.9331607412
30
0.0000000000
10
279.2303727382
20
171.5861194880
30
0.0000000000
10
279.2503941403
20
172.2688828424
30
0.0000000000
10
279.2722985934
20
172.9477409779
30
0.0000000000
10
279.2954111574
20
173.6055392828
30
0.0000000000
10
279.3197240847
20
174.2461937238
30
0.0000000000
10
279.3454519223
20
174.8774181730
30
0.0000000000
10
279.3727527866
20
175.5036926141
30
0.0000000000
10
279.3920962241
20
175.9198945817
30
0.0000000000
10
279.4020619741
20
176.1277139370
30
0.0000000000
11
279.1397468371
21
165.1863351643
31
0.0000000000
11
279.1397755065
21
165.2964109683
31
0.0000000000
11
279.1398633316
21
165.4084058139
31
0.0000000000
11
279.1400093220
21
165.5199466874
31
0.0000000000
11
279.1402117073
21
165.6306573924
31
0.0000000000
11
279.1404725862
21
165.7419401877
31
0.0000000000
11
279.1408092053
21
165.8591017915
31
0.0000000000
11
279.1412530358
21
165.9881096986
31
0.0000000000
11
279.1418510259
21
166.1349364973
31
0.0000000000
11
279.1426485467
21
166.3015217376
31
0.0000000000
11
279.1436836271
21
166.4868451857
31
0.0000000000
11
279.1449991811
21
166.6904444051
31
0.0000000000
11
279.1466569640
21
166.9139422948
31
0.0000000000
11
279.1487348828
21
167.1595495478
31
0.0000000000
11
279.1513264889
21
167.4295465194
31
0.0000000000
11
279.1545470783
21
167.7266013271
31
0.0000000000
11
279.1585651001
21
168.0558143557
31
0.0000000000
11
279.1636045246
21
168.4233616217
31
0.0000000000
11
279.1699305158
21
168.8345975116
31
0.0000000000
11
279.1777563141
21
169.2888146269
31
0.0000000000
11
279.1872553579
21
169.7825146635
31
0.0000000000
11
279.1986925227
21
170.3166508902
31
0.0000000000
11
279.2127776863
21
170.9087932873
31
0.0000000000
11
279.2303633159
21
171.5739752639
31
0.0000000000
11
279.2509373671
21
172.2755073855
31
0.0000000000
11
279.2729324561
21
172.9570719256
31
0.0000000000
11
279.2958971136
21
173.6105468605
31
0.0000000000
11
279.3201274581
21
174.2488995336
31
0.0000000000
11
279.3458163466
21
174.8790297617
31
0.0000000000
11
279.3730762728
21
175.5042128265
31
0.0000000000
11
279.4020619741
21
176.1277139370
31
0.0000000000
0
SPLINE
5
4DB
100
AcDbEntity
8
0
100
AcDbSpline
62
7
6
CONTINUOUS
70
0
71
3
72
20
73
16
74
14
42
0.0000001000
43
0.0000001000
44
0.0000000001
40
0.0000000000
40
0.0000000000
40
0.0000000000
40
0.0000000000
40
0.0657355115
40
0.1332580092
40
0.2001697699
40
0.2660150974
40
0.3308857319
40
0.3968168714
40
0.4667640637
40
0.5428409545
40
0.6255628382
40
0.7143656758
40
0.8078194494
40
0.9035629912
40
1.0000000000
40
1.0000000000
40
1.0000000000
40
1.0000000000
10
279.1397468371
20
165.1863351643
30
0.0000000000
10
279.1397468371
20
165.1412092043
30
0.0000000000
10
279.1397761869
20
165.0497305557
30
0.0000000000
10
279.1399101977
20
164.9123185366
30
0.0000000000
10
279.1401356414
20
164.7748312504
30
0.0000000000
10
279.1404477169
20
164.6391645835
30
0.0000000000
10
279.1408466358
20
164.5041713218
30
0.0000000000
10
279.1413447850
20
164.3663625320
30
0.0000000000
10
279.1419711593
20
164.2208613433
30
0.0000000000
10
279.1427645194
20
164.0638343361
30
0.0000000000
10
279.1437626275
20
163.8938642711
30
0.0000000000
10
279.1449934312
20
163.7119665927
30
0.0000000000
10
279.1464679925
20
163.5211313640
30
0.0000000000
10
279.1481808218
20
163.3250572307
30
0.0000000000
10
279.1494701004
20
163.1931358479
30
0.0000000000
10
279.1501519751
20
163.1269375078
30
0.0000000000
11
279.1397468371
21
165.1863351643
31
0.0000000000
11
279.1397903607
21
165.0509572914
31
0.0000000000
11
279.1399260770
21
164.9118992998
31
0.0000000000
11
279.1401521347
21
164.7740991989
31
0.0000000000
11
279.1404641650
21
164.6384955194
31
0.0000000000
11
279.1408590537
21
164.5048993795
31
0.0000000000
11
279.1413499758
21
164.3691195044
31
0.0000000000
11
279.1419702358
21
164.2250692858
31
0.0000000000
11
279.1427619849
21
164.0683960290
31
0.0000000000
11
279.1437626024
21
163.8980387929
31
0.0000000000
11
279.1450003529
21
163.7151594897
31
0.0000000000
11
279.1464878096
21
163.5227034551
31
0.0000000000
11
279.1482106300
21
163.3255335749
31
0.0000000000
11
279.1501519751
21
163.1269375078
31
0.0000000000
0
SPLINE
5
4DC
100
AcDbEntity
8
0
100
AcDbSpline
62
7
6
CONTINUOUS
70
0
71
3
72
15
73
11
74
9
42
0.0000001000
43
0.0000001000
44
0.0000000001
40
0.0000000000
40
0.0000000000
40
0.0000000000
40
0.0000000000
40
0.2154834978
40
0.4146806838
40
0.5913093082
40
0.7393296966
40
0.8581571017
40
0.9452827565
40
0.9931105955
40
1.0000000000
40
1.0000000000
40
1.0000000000
40
1.0000000000
10
278.5271753388
20
193.0555109760
30
0.0000000000
10
278.5271753388
20
192.8446603209
30
0.0000000000
10
278.5301764176
20
192.4386971872
30
0.0000000000
10
278.5444443145
20
191.8610099415
30
0.0000000000
10
278.5677297119
20
191.3465780920
30
0.0000000000
10
278.5994463335
20
190.9204245981
30
0.0000000000
10
278.6380190535
20
190.5582059490
30
0.0000000000
10
278.6834730395
20
190.3546553890
30
0.0000000000
10
278.7278307427
20
190.1584985656
30
0.0000000000
10
278.7716431089
20
190.1654342745
30
0.0000000000
10
278.7773973510
20
190.1673370641
30
0.0000000000
11
278.5271753388
21
193.0555109760
31
0.0000000000
11
278.5321857624
21
192.4229788549
31
0.0000000000
11
278.5471344134
21
191.8384264784
31
0.0000000000
11
278.5716024516
21
191.3205106755
31
0.0000000000
11
278.6046092687
21
190.8872521732
31
0.0000000000
11
278.6462821107
21
190.5409324863
31
0.0000000000
11
278.6980272643
21
190.2904643273
31
0.0000000000
11
278.7610336425
21
190.1649972840
31
0.0000000000
11
278.7773973510
21
190.1673370641
31
0.0000000000
0
SPLINE
5
4DD
100
AcDbEntity
8
0
100
AcDbSpline
62
7
6
CONTINUOUS
70
0
71
3
72
12
73
8
74
6
42
0.0000001000
43
0.0000001000
44
0.0000000001
40
0.0000000000
40
0.0000000000
40
0.0000000000
40
0.0000000000
40
0.1730754582
40
0.3691316895
40
0.5738408638
40
0.7864184971
40
1.0000000000
40
1.0000000000
40
1.0000000000
40
1.0000000000
10
286.2881233499
20
169.3827324415
30
0.0000000000
10
286.3860590997
20
169.3740340333
30
0.0000000000
10
286.5982707558
20
169.3916500201
30
0.0000000000
10
286.8978520365
20
169.5343249651
30
0.0000000000
10
287.1417695588
20
169.7910018569
30
0.0000000000
10
287.2865855714
20
170.1241883996
30
0.0000000000
10
287.3040204190
20
170.3697350643
30
0.0000000000
10
287.2923237439
20
170.4898402326
30
0.0000000000
11
286.2881233499
21
169.3827324415
31
0.0000000000
11
286.5807720107
21
169.4068571039
31
0.0000000000
11
286.8814053585
21
169.5484648015
31
0.0000000000
11
287.1217555024
21
169.7987206827
31
0.0000000000
11
287.2663521777
21
170.1287529152
31
0.0000000000
11
287.2923237439
21
170.4898402326
31
0.0000000000
0
SPLINE
5
4DE
100
AcDbEntity
8
0
100
AcDbSpline
62
7
6
CONTINUOUS
70
0
71
3
72
12
73
8
74
6
42
0.0000001000
43
0.0000001000
44
0.0000000001
40
0.0000000000
40
0.0000000000
40
0.0000000000
40
0.0000000000
40
0.0931911790
40
0.3093187767
40
0.5347505076
40
0.7662516164
40
1.0000000000
40
1.0000000000
40
1.0000000000
40
1.0000000000
10
283.3705328452
20
166.7244881150
30
0.0000000000
10
283.4199640300
20
166.7241603354
30
0.0000000000
10
283.5841455672
20
166.7358452799
30
0.0000000000
10
283.8569217929
20
166.8284143641
30
0.0000000000
10
284.1394411347
20
167.0559039462
30
0.0000000000
10
284.3307237393
20
167.3749983474
30
0.0000000000
10
284.3751125996
20
167.6232589864
30
0.0000000000
10
284.3738812263
20
167.7466236657
30
0.0000000000
11
283.3705328452
21
166.7244881150
31
0.0000000000
11
283.5183121090
21
166.7350008014
31
0.0000000000
11
283.8426182704
21
166.8442464850
31
0.0000000000
11
284.1210108478
21
167.0676444046
31
0.0000000000
11
284.3091896191
21
167.3822087384
31
0.0000000000
11
284.3738812263
21
167.7466236657
31
0.0000000000
0
SPLINE
5
4DF
100
AcDbEntity
8
0
100
AcDbSpline
62
7
6
CONTINUOUS
70
0
71
3
72
12
73
8
74
6
42
0.0000001000
43
0.0000001000
44
0.0000000001
40
0.0000000000
40
0.0000000000
40
0.0000000000
40
0.0000000000
40
0.1730754582
40
0.3691316895
40
0.5738408638
40
0.7864184971
40
1.0000000000
40
1.0000000000
40
1.0000000000
40
1.0000000000
10
304.4661366360
20
169.3827324415
30
0.0000000000
10
304.3682008861
20
169.3740340333
30
0.0000000000
10
304.1559892301
20
169.3916500201
30
0.0000000000
10
303.8564079493
20
169.5343249651
30
0.0000000000
10
303.6124904270
20
169.7910018569
30
0.0000000000
10
303.4676744144
20
170.1241883996
30
0.0000000000
10
303.4502395669
20
170.3697350643
30
0.0000000000
10
303.4619362420
20
170.4898402326
30
0.0000000000
11
304.4661366360
21
169.3827324415
31
0.0000000000
11
304.1734879751
21
169.4068571039
31
0.0000000000
11
303.8728546274
21
169.5484648015
31
0.0000000000
11
303.6325044834
21
169.7987206827
31
0.0000000000
11
303.4879078081
21
170.1287529152
31
0.0000000000
11
303.4619362420
21
170.4898402326
31
0.0000000000
0
SPLINE
5
4E0
100
AcDbEntity
8
0
100
AcDbSpline
62
7
6
CONTINUOUS
70
0
71
3
72
14
73
10
74
8
42
0.0000001000
43
0.0000001000
44
0.0000000001
40
0.0000000000
40
0.0000000000
40
0.0000000000
40
0.0000000000
40
0.0357385037
40
0.1541058825
40
0.2918118630
40
0.4531462038
40
0.6324403737
40
0.8191424590
40
1.0000000000
40
1.0000000000
40
1.0000000000
40
1.0000000000
10
286.0241070201
20
164.6912796578
30
0.0000000000
10
286.0455892226
20
164.6831710924
30
0.0000000000
10
286.1397198667
20
164.6521746786
30
0.0000000000
10
286.3272664268
20
164.6267594408
30
0.0000000000
10
286.5954589892
20
164.6670175629
30
0.0000000000
10
286.8759422940
20
164.8019997897
30
0.0000000000
10
287.1254723590
20
165.0379907374
30
0.0000000000
10
287.2960209654
20
165.3505932591
30
0.0000000000
10
287.3377932169
20
165.5875743695
30
0.0000000000
10
287.3377932169
20
165.7034285625
30
0.0000000000
11
286.0241070201
21
164.6912796578
31
0.0000000000
11
286.0895128782
21
164.6697396054
31
0.0000000000
11
286.3148278629
21
164.6384861041
31
0.0000000000
11
286.5767170300
21
164.6765171840
31
0.0000000000
11
286.8567625650
21
164.8095650172
31
0.0000000000
11
287.1077976133
21
165.0455771779
31
0.0000000000
11
287.2790449821
21
165.3608670479
31
0.0000000000
11
287.3377932169
21
165.7034285625
31
0.0000000000
0
SPLINE
5
4E1
100
AcDbEntity
8
0
100
AcDbSpline
62
7
6
CONTINUOUS
70
0
71
3
72
10
73
6
74
4
42
0.0000001000
43
0.0000001000
44
0.0000000001
40
0.0000000000
40
0.0000000000
40
0.0000000000
40
0.0000000000
40
0.3528817364
40
0.6870016019
40
1.0000000000
40
1.0000000000
40
1.0000000000
40
1.0000000000
10
280.2697945200
20
202.6623460218
30
0.0000000000
10
280.2611463941
20
203.0758649290
30
0.0000000000
10
280.2407228138
20
203.8808487544
30
0.0000000000
10
280.1991968843
20
205.0522228573
30
0.0000000000
10
280.1637345253
20
205.8098974900
30
0.0000000000
10
280.1440957994
20
206.1762339138
30
0.0000000000
11
280.2697945200
21
202.6623460218
31
0.0000000000
11
280.2380266687
21
203.9027672784
31
0.0000000000
11
280.1960297765
21
205.0768725733
31
0.0000000000
11
280.1440957994
21
206.1762339138
31
0.0000000000
0
SPLINE
5
4E2
100
AcDbEntity
8
0
100
AcDbSpline
62
7
6
CONTINUOUS
70
0
71
3
72
14
73
10
74
8
42
0.0000001000
43
0.0000001000
44
0.0000000001
40
0.0000000000
40
0.0000000000
40
0.0000000000
40
0.0000000000
40
0.1096038888
40
0.2522741024
40
0.4079562534
40
0.5675928605
40
0.7242044123
40
0.8695577710
40
1.0000000000
40
1.0000000000
40
1.0000000000
40
1.0000000000
10
308.1344389693
20
158.2070738285
30
0.0000000000
10
308.0795385684
20
158.1434607244
30
0.0000000000
10
307.9228032785
20
158.0233491131
30
0.0000000000
10
307.6173934043
20
157.9358958735
30
0.0000000000
10
307.2633771104
20
157.9529995802
30
0.0000000000
10
306.9194200615
20
158.0734722781
30
0.0000000000
10
306.6293738029
20
158.2816584443
30
0.0000000000
10
306.4305829968
20
158.5522611932
30
0.0000000000
10
306.3776480098
20
158.7634939228
30
0.0000000000
10
306.3771795339
20
158.8628960292
30
0.0000000000
11
308.1344389693
21
158.2070738285
31
0.0000000000
11
307.9372830533
21
158.0515565730
31
0.0000000000
11
307.6254735954
21
157.9558581931
31
0.0000000000
11
307.2698273924
21
157.9696031529
31
0.0000000000
11
306.9253123674
21
158.0900169367
31
0.0000000000
11
306.6359957095
21
158.3009339198
31
0.0000000000
11
306.4442426030
21
158.5723249899
31
0.0000000000
11
306.3771795339
21
158.8628960292
31
0.0000000000
0
SPLINE
5
4E3
100
AcDbEntity
8
0
100
AcDbSpline
62
7
6
CONTINUOUS
70
0
71
3
72
17
73
13
74
11
42
0.0000001000
43
0.0000001000
44
0.0000000001
40
0.0000000000
40
0.0000000000
40
0.0000000000
40
0.0000000000
40
0.0131730169
40
0.0656324129
40
0.1501937392
40
0.2524599067
40
0.3649429414
40
0.4835458487
40
0.6083204138
40
0.7390124920
40
0.8709431424
40
1.0000000000
40
1.0000000000
40
1.0000000000
40
1.0000000000
10
278.9768626348
20
198.1487837344
30
0.0000000000
10
278.9575750417
20
198.1424057910
30
0.0000000000
10
278.8481628429
20
198.0529988465
30
0.0000000000
10
278.8426635792
20
197.7903873548
30
0.0000000000
10
278.7440282317
20
197.3919303770
30
0.0000000000
10
278.6965731161
20
196.8793235268
30
0.0000000000
10
278.6425929150
20
196.3104727644
30
0.0000000000
10
278.6025099462
20
195.7011786537
30
0.0000000000
10
278.5694677049
20
195.0604041746
30
0.0000000000
10
278.5454980499
20
194.3962834461
30
0.0000000000
10
278.5306576505
20
193.7245721090
30
0.0000000000
10
278.5271753388
20
193.2768858692
30
0.0000000000
10
278.5271753388
20
193.0555109760
30
0.0000000000
11
278.9768626348
21
198.1487837344
31
0.0000000000
11
278.9179657789
21
198.1054950158
31
0.0000000000
11
278.8362954304
21
197.8481901283
31
0.0000000000
11
278.7610347183
21
197.4195964880
31
0.0000000000
11
278.6980282089
21
196.8971216444
31
0.0000000000
11
278.6462829038
21
196.3206031487
31
0.0000000000
11
278.6046098700
21
195.7116987150
31
0.0000000000
11
278.5716028321
21
195.0704595863
31
0.0000000000
11
278.5471345815
21
194.3983653334
31
0.0000000000
11
278.5321857993
21
193.7196167549
31
0.0000000000
11
278.5271753388
21
193.0555109760
31
0.0000000000
0
SPLINE
5
4E4
100
AcDbEntity
8
0
100
AcDbSpline
62
7
6
CONTINUOUS
70
0
71
3
72
15
73
11
74
9
42
0.0000001000
43
0.0000001000
44
0.0000000001
40
0.0000000000
40
0.0000000000
40
0.0000000000
40
0.0000000000
40
0.1259601918
40
0.2542019485
40
0.3834381494
40
0.5123748750
40
0.6397273361
40
0.7642498634
40
0.8847296497
40
1.0000000000
40
1.0000000000
40
1.0000000000
40
1.0000000000
10
279.4020619741
20
176.5866506154
30
0.0000000000
10
279.4020619741
20
177.5602305959
30
0.0000000000
10
279.4110884059
20
179.5250352228
30
0.0000000000
10
279.4503258526
20
182.4885051422
30
0.0000000000
10
279.5150197171
20
185.4745422365
30
0.0000000000
10
279.6044894449
20
188.4530625105
30
0.0000000000
10
279.7178008683
20
191.3943122240
30
0.0000000000
10
279.8537827920
20
194.2691670171
30
0.0000000000
10
280.0110490703
20
197.0494058009
30
0.0000000000
10
280.1320711849
20
198.8675983478
30
0.0000000000
10
280.1962681423
20
199.7562378508
30
0.0000000000
11
279.4020619741
21
176.5866506154
31
0.0000000000
11
279.4151780531
21
179.5073611068
31
0.0000000000
11
279.4543816147
21
182.4807470871
31
0.0000000000
11
279.5192523511
21
185.4767482531
31
0.0000000000
11
279.6091046015
21
188.4651569842
31
0.0000000000
11
279.7229985132
21
191.4159834104
31
0.0000000000
11
279.8597732801
21
194.3001457791
31
0.0000000000
11
280.0180535301
21
197.0893197244
31
0.0000000000
11
280.1962681423
21
199.7562378508
31
0.0000000000
0
SPLINE
5
4E5
100
AcDbEntity
8
0
100
AcDbSpline
62
7
6
CONTINUOUS
70
0
71
3
72
12
73
8
74
6
42
0.0000001000
43
0.0000001000
44
0.0000000001
40
0.0000000000
40
0.0000000000
40
0.0000000000
40
0.0000000000
40
0.0931911790
40
0.3093187767
40
0.5347505076
40
0.7662516164
40
1.0000000000
40
1.0000000000
40
1.0000000000
40
1.0000000000
10
307.3837271406
20
166.7244881150
30
0.0000000000
10
307.3342959558
20
166.7241603354
30
0.0000000000
10
307.1701144186
20
166.7358452799
30
0.0000000000
10
306.8973381929
20
166.8284143641
30
0.0000000000
10
306.6148188511
20
167.0559039462
30
0.0000000000
10
306.4235362465
20
167.3749983474
30
0.0000000000
10
306.3791473862
20
167.6232589864
30
0.0000000000
10
306.3803787595
20
167.7466236657
30
0.0000000000
11
307.3837271406
21
166.7244881150
31
0.0000000000
11
307.2359478768
21
166.7350008014
31
0.0000000000
11
306.9116417154
21
166.8442464850
31
0.0000000000
11
306.6332491380
21
167.0676444046
31
0.0000000000
11
306.4450703667
21
167.3822087384
31
0.0000000000
11
306.3803787595
21
167.7466236657
31
0.0000000000
0
SPLINE
5
4E6
100
AcDbEntity
8
0
100
AcDbSpline
62
7
6
CONTINUOUS
70
0
71
3
72
9
73
5
74
3
42
0.0000001000
43
0.0000001000
44
0.0000000001
40
0.0000000000
40
0.0000000000
40
0.0000000000
40
0.0000000000
40
0.6665199338
40
1.0000000000
40
1.0000000000
40
1.0000000000
40
1.0000000000
10
298.7721297593
20
177.9795695586
30
0.0000000000
10
298.7619145917
20
178.0202356267
30
0.0000000000
10
298.7465970046
20
178.0812503026
30
0.0000000000
10
298.7312921929
20
178.1422681838
30
0.0000000000
10
298.7261897622
20
178.1626167867
30
0.0000000000
11
298.7721297593
21
177.9795695586
31
0.0000000000
11
298.7415013129
21
178.1015720462
31
0.0000000000
11
298.7261897622
21
178.1626167867
31
0.0000000000
0
SPLINE
5
4E7
100
AcDbEntity
8
0
100
AcDbSpline
62
7
6
CONTINUOUS
70
0
71
3
72
8
73
4
74
2
42
0.0000001000
43
0.0000001000
44
0.0000000001
40
0.0000000000
40
0.0000000000
40
0.0000000000
40
0.0000000000
40
1.0000000000
40
1.0000000000
40
1.0000000000
40
1.0000000000
10
298.7261897622
20
178.1626167867
30
0.0000000000
10
298.7210850862
20
178.1829743436
30
0.0000000000
10
298.7159818304
20
178.2033322566
30
0.0000000000
10
298.7108799929
20
178.2236905250
30
0.0000000000
11
298.7261897622
21
178.1626167867
31
0.0000000000
11
298.7108799929
21
178.2236905250
31
0.0000000000
0
SPLINE
5
4E8
100
AcDbEntity
8
0
100
AcDbSpline
62
7
6
CONTINUOUS
70
0
71
3
72
9
73
5
74
3
42
0.0000001000
43
0.0000001000
44
0.0000000001
40
0.0000000000
40
0.0000000000
40
0.0000000000
40
0.0000000000
40
0.4999001692
40
1.0000000000
40
1.0000000000
40
1.0000000000
40
1.0000000000
10
298.7108799929
20
178.2236905250
30
0.0000000000
10
298.6904548438
20
178.2542544157
30
0.0000000000
10
298.6496089159
20
178.3154027777
30
0.0000000000
10
298.6087880245
20
178.3765678562
30
0.0000000000
10
298.5883797593
20
178.4071606743
30
0.0000000000
11
298.7108799929
21
178.2236905250
31
0.0000000000
11
298.6496233279
21
178.3153947462
31
0.0000000000
11
298.5883797593
21
178.4071606743
31
0.0000000000
0
SPLINE
5
4E9
100
AcDbEntity
8
0
100
AcDbSpline
62
7
6
CONTINUOUS
70
0
71
3
72
9
73
5
74
3
42
0.0000001000
43
0.0000001000
44
0.0000000001
40
0.0000000000
40
0.0000000000
40
0.0000000000
40
0.0000000000
40
0.4990877753
40
1.0000000000
40
1.0000000000
40
1.0000000000
40
1.0000000000
10
292.8893720118
20
176.5866506154
30
0.0000000000
10
292.8387115744
20
176.7172025437
30
0.0000000000
10
292.7373772702
20
176.9788503258
30
0.0000000000
10
292.6363839427
20
177.2406299089
30
0.0000000000
10
292.5858799637
20
177.3717911438
30
0.0000000000
11
292.8893720118
21
176.5866506154
31
0.0000000000
11
292.7376470829
21
176.9784057928
31
0.0000000000
11
292.5858799637
21
177.3717911438
31
0.0000000000
0
SPLINE
5
4EA
100
AcDbEntity
8
0
100
AcDbSpline
62
7
6
CONTINUOUS
70
0
71
3
72
9
73
5
74
3
42
0.0000001000
43
0.0000001000
44
0.0000000001
40
0.0000000000
40
0.0000000000
40
0.0000000000
40
0.0000000000
40
0.4999998916
40
1.0000000000
40
1.0000000000
40
1.0000000000
40
1.0000000000
10
298.5883797593
20
178.4071606743
30
0.0000000000
10
298.5577492007
20
178.4275680056
30
0.0000000000
10
298.4964936344
20
178.4683910289
30
0.0000000000
10
298.4352491995
20
178.5092307502
30
0.0000000000
10
298.4046297593
20
178.5296547884
30
0.0000000000
11
298.5883797593
21
178.4071606743
31
0.0000000000
11
298.4964964306
21
178.4683951946
31
0.0000000000
11
298.4046297593
21
178.5296547884
31
0.0000000000
0
SPLINE
5
4EB
100
AcDbEntity
8
0
100
AcDbSpline
62
7
6
CONTINUOUS
70
0
71
3
72
9
73
5
74
3
42
0.0000001000
43
0.0000001000
44
0.0000000001
40
0.0000000000
40
0.0000000000
40
0.0000000000
40
0.0000000000
40
0.5000217193
40
1.0000000000
40
1.0000000000
40
1.0000000000
40
1.0000000000
10
298.4046297593
20
178.5296547884
30
0.0000000000
10
298.3637939809
20
178.5398692831
30
0.0000000000
10
298.2821266817
20
178.5603002238
30
0.0000000000
10
298.2004608031
20
178.5807368425
30
0.0000000000
10
298.1596299929
20
178.5909561275
30
0.0000000000
11
298.4046297593
21
178.5296547884
31
0.0000000000
11
298.2821234893
21
178.5603025309
31
0.0000000000
11
298.1596299929
21
178.5909561275
31
0.0000000000
0
SPLINE
5
4EC
100
AcDbEntity
8
0
100
AcDbSpline
62
7
6
CONTINUOUS
70
0
71
3
72
9
73
5
74
3
42
0.0000001000
43
0.0000001000
44
0.0000000001
40
0.0000000000
40
0.0000000000
40
0.0000000000
40
0.0000000000
40
0.4995581680
40
1.0000000000
40
1.0000000000
40
1.0000000000
40
1.0000000000
10
299.0783799929
20
176.7676121491
30
0.0000000000
10
299.0885938812
20
176.8178380572
30
0.0000000000
10
299.1090250651
20
176.9183816995
30
0.0000000000
10
299.1294270485
20
177.0189312712
30
0.0000000000
10
299.1396297593
20
177.0692519619
30
0.0000000000
11
299.0783799929
21
176.7676121491
31
0.0000000000
11
299.1089997236
21
176.9182943325
31
0.0000000000
11
299.1396297593
21
177.0692519619
31
0.0000000000
0
SPLINE
5
4ED
100
AcDbEntity
8
0
100
AcDbSpline
62
7
6
CONTINUOUS
70
0
71
3
72
9
73
5
74
3
42
0.0000001000
43
0.0000001000
44
0.0000000001
40
0.0000000000
40
0.0000000000
40
0.0000000000
40
0.0000000000
40
0.4998309868
40
1.0000000000
40
1.0000000000
40
1.0000000000
40
1.0000000000
10
298.9862962591
20
176.5866501692
30
0.0000000000
10
299.0016493118
20
176.6167947290
30
0.0000000000
10
299.0323548343
20
176.6771098203
30
0.0000000000
10
299.0630384613
20
176.7374360533
30
0.0000000000
10
299.0783799929
20
176.7676121452
30
0.0000000000
11
298.9862962591
21
176.5866501692
31
0.0000000000
11
299.0323389848
21
176.6770922157
31
0.0000000000
11
299.0783799929
21
176.7676121452
31
0.0000000000
0
SPLINE
5
4EE
100
AcDbEntity
8
0
100
AcDbSpline
62
7
6
CONTINUOUS
70
0
71
3
72
9
73
5
74
3
42
0.0000001000
43
0.0000001000
44
0.0000000001
40
0.0000000000
40
0.0000000000
40
0.0000000000
40
0.0000000000
40
0.4674110066
40
1.0000000000
40
1.0000000000
40
1.0000000000
40
1.0000000000
10
309.7358102682
20
207.1401335256
30
0.0000000000
10
309.8893195151
20
207.1704604569
30
0.0000000000
10
310.2178333842
20
207.2348914637
30
0.0000000000
10
310.5465228677
20
207.2984207665
30
0.0000000000
10
310.7216250801
20
207.3320167519
30
0.0000000000
11
309.7358102682
21
207.1401335256
31
0.0000000000
11
310.1964598785
21
207.2304949824
31
0.0000000000
11
310.7216250801
21
207.3320167519
31
0.0000000000
0
SPLINE
5
4EF
100
AcDbEntity
8
0
100
AcDbSpline
62
7
6
CONTINUOUS
70
0
71
3
72
8
73
4
74
2
42
0.0000001000
43
0.0000001000
44
0.0000000001
40
0.0000000000
40
0.0000000000
40
0.0000000000
40
0.0000000000
40
1.0000000000
40
1.0000000000
40
1.0000000000
40
1.0000000000
10
310.7216250801
20
207.3320167519
30
0.0000000000
10
310.9037740343
20
207.3669647603
30
0.0000000000
10
311.0859725611
20
207.4016541214
30
0.0000000000
10
311.2682161555
20
207.4361036866
30
0.0000000000
11
310.7216250801
21
207.3320167519
31
0.0000000000
11
311.2682161555
21
207.4361036866
31
0.0000000000
0
SPLINE
5
4F0
100
AcDbEntity
8
0
100
AcDbSpline
62
7
6
CONTINUOUS
70
0
71
3
72
14
73
10
74
8
42
0.0000001000
43
0.0000001000
44
0.0000000001
40
0.0000000000
40
0.0000000000
40
0.0000000000
40
0.0000000000
40
0.1395909323
40
0.2845364698
40
0.4304406526
40
0.5741107312
40
0.7194593865
40
0.8630046025
40
1.0000000000
40
1.0000000000
40
1.0000000000
40
1.0000000000
10
311.2682161555
20
207.4361036866
30
0.0000000000
10
311.4316987547
20
207.4670068549
30
0.0000000000
10
311.7593883964
20
207.5642040624
30
0.0000000000
10
312.2153378891
20
207.8065025915
30
0.0000000000
10
312.6184812831
20
208.1370373508
30
0.0000000000
10
312.9500474921
20
208.5396867791
30
0.0000000000
10
313.1957915966
20
208.9968213159
30
0.0000000000
10
313.3442147408
20
209.4856351361
30
0.0000000000
10
313.3771299929
20
209.8208690422
30
0.0000000000
10
313.3771299929
20
209.9841532176
30
0.0000000000
11
311.2682161555
21
207.4361036866
31
0.0000000000
11
311.7468940255
21
207.5775306688
31
0.0000000000
11
312.2048257313
21
207.8202495023
31
0.0000000000
11
312.6083921692
21
208.1508745053
31
0.0000000000
11
312.9348952046
21
208.5474890177
31
0.0000000000
11
313.1807566012
21
209.0053779239
31
0.0000000000
11
313.3295180441
21
209.4966200394
31
0.0000000000
11
313.3771299929
21
209.9841532176
31
0.0000000000
0
SPLINE
5
4F1
100
AcDbEntity
8
0
100
AcDbSpline
62
7
6
CONTINUOUS
70
0
71
3
72
14
73
10
74
8
42
0.0000001000
43
0.0000001000
44
0.0000000001
40
0.0000000000
40
0.0000000000
40
0.0000000000
40
0.0000000000
40
0.1395909323
40
0.2845364698
40
0.4304406526
40
0.5741107312
40
0.7194593865
40
0.8630046025
40
1.0000000000
40
1.0000000000
40
1.0000000000
40
1.0000000000
10
279.4860438303
20
207.4361036866
30
0.0000000000
10
279.3225612311
20
207.4670068549
30
0.0000000000
10
278.9948715894
20
207.5642040624
30
0.0000000000
10
278.5389220967
20
207.8065025915
30
0.0000000000
10
278.1357787027
20
208.1370373508
30
0.0000000000
10
277.8042124937
20
208.5396867791
30
0.0000000000
10
277.5584683892
20
208.9968213159
30
0.0000000000
10
277.4100452450
20
209.4856351361
30
0.0000000000
10
277.3771299929
20
209.8208690422
30
0.0000000000
10
277.3771299929
20
209.9841532176
30
0.0000000000
11
279.4860438303
21
207.4361036866
31
0.0000000000
11
279.0073659603
21
207.5775306688
31
0.0000000000
11
278.5494342545
21
207.8202495023
31
0.0000000000
11
278.1458678166
21
208.1508745053
31
0.0000000000
11
277.8193647812
21
208.5474890177
31
0.0000000000
11
277.5735033846
21
209.0053779239
31
0.0000000000
11
277.4247419417
21
209.4966200394
31
0.0000000000
11
277.3771299929
21
209.9841532176
31
0.0000000000
0
SPLINE
5
4F2
100
AcDbEntity
8
0
100
AcDbSpline
62
7
6
CONTINUOUS
70
0
71
3
72
9
73
5
74
3
42
0.0000001000
43
0.0000001000
44
0.0000000001
40
0.0000000000
40
0.0000000000
40
0.0000000000
40
0.0000000000
40
0.4674110066
40
1.0000000000
40
1.0000000000
40
1.0000000000
40
1.0000000000
10
281.0184497176
20
207.1401335256
30
0.0000000000
10
280.8649404708
20
207.1704604569
30
0.0000000000
10
280.5364266016
20
207.2348914637
30
0.0000000000
10
280.2077371181
20
207.2984207665
30
0.0000000000
10
280.0326349057
20
207.3320167519
30
0.0000000000
11
281.0184497176
21
207.1401335256
31
0.0000000000
11
280.5578001073
21
207.2304949824
31
0.0000000000
11
280.0326349057
21
207.3320167519
31
0.0000000000
0
SPLINE
5
4F3
100
AcDbEntity
8
0
100
AcDbSpline
62
7
6
CONTINUOUS
70
0
71
3
72
8
73
4
74
2
42
0.0000001000
43
0.0000001000
44
0.0000000001
40
0.0000000000
40
0.0000000000
40
0.0000000000
40
0.0000000000
40
1.0000000000
40
1.0000000000
40
1.0000000000
40
1.0000000000
10
280.0326349057
20
207.3320167519
30
0.0000000000
10
279.8504859515
20
207.3669647603
30
0.0000000000
10
279.6682874248
20
207.4016541214
30
0.0000000000
10
279.4860438303
20
207.4361036866
30
0.0000000000
11
280.0326349057
21
207.3320167519
31
0.0000000000
11
279.4860438303
21
207.4361036866
31
0.0000000000
0
SPLINE
5
4F4
100
AcDbEntity
8
0
100
AcDbSpline
62
7
6
CONTINUOUS
70
0
71
3
72
15
73
11
74
9
42
0.0000001000
43
0.0000001000
44
0.0000000001
40
0.0000000000
40
0.0000000000
40
0.0000000000
40
0.0000000000
40
0.0826708494
40
0.1823795928
40
0.2970175549
40
0.4241454160
40
0.5610402173
40
0.7047483769
40
0.8521447950
40
1.0000000000
40
1.0000000000
40
1.0000000000
40
1.0000000000
10
301.7930343177
20
148.1598294238
30
0.0000000000
10
301.7930343177
20
147.8878202854
30
0.0000000000
10
301.8018020675
20
147.2877478009
30
0.0000000000
10
301.8325659496
20
146.3109414616
30
0.0000000000
10
301.8820707549
20
145.1884641443
30
0.0000000000
10
301.9493755392
20
143.9443728663
30
0.0000000000
10
302.0331559153
20
142.6054340657
30
0.0000000000
10
302.1316631484
20
141.2006392099
30
0.0000000000
10
302.2427990596
20
139.7606157785
30
0.0000000000
10
302.3241739426
20
138.7925642475
30
0.0000000000
10
302.3666275996
20
138.3079371283
30
0.0000000000
11
301.7930343177
21
148.1598294238
31
0.0000000000
11
301.8030628516
21
147.3438636335
31
0.0000000000
11
301.8329397480
21
146.3601121563
31
0.0000000000
11
301.8820413938
21
145.2296095904
31
0.0000000000
11
301.9493372673
21
143.9765616930
31
0.0000000000
11
302.0334040260
21
142.6279180775
31
0.0000000000
11
302.1324475871
21
141.2128655192
31
0.0000000000
11
302.2443335191
21
139.7622534546
31
0.0000000000
11
302.3666275996
21
138.3079371283
31
0.0000000000
0
SPLINE
5
4F5
100
AcDbEntity
8
0
100
AcDbSpline
62
7
6
CONTINUOUS
70
0
71
3
72
12
73
8
74
6
42
0.0000001000
43
0.0000001000
44
0.0000000001
40
0.0000000000
40
0.0000000000
40
0.0000000000
40
0.0000000000
40
0.1854786829
40
0.3800273265
40
0.5818238450
40
0.7890969548
40
1.0000000000
40
1.0000000000
40
1.0000000000
40
1.0000000000
10
300.5826961134
20
94.1708058009
30
0.0000000000
10
300.5826961134
20
95.5814148477
30
0.0000000000
10
300.6254897752
20
98.4717287011
30
0.0000000000
10
300.8058918161
20
102.8933812744
30
0.0000000000
10
301.1031769022
20
107.4748338365
30
0.0000000000
10
301.5152140785
20
112.1722031315
30
0.0000000000
10
301.8624459384
20
115.3338165317
30
0.0000000000
10
302.0546581160
20
116.9262252735
30
0.0000000000
11
300.5826961134
21
94.1708058009
31
0.0000000000
11
300.6423433486
21
98.4022125591
31
0.0000000000
11
300.8210669181
21
102.8373777147
31
0.0000000000
11
301.1176117944
21
107.4319478751
31
0.0000000000
11
301.5298295256
21
112.1430302064
31
0.0000000000
11
302.0546581160
21
116.9262252735
31
0.0000000000
0
SPLINE
5
4F6
100
AcDbEntity
8
0
100
AcDbSpline
62
7
6
CONTINUOUS
70
0
71
3
72
9
73
5
74
3
42
0.0000001000
43
0.0000001000
44
0.0000000001
40
0.0000000000
40
0.0000000000
40
0.0000000000
40
0.0000000000
40
0.5019396784
40
1.0000000000
40
1.0000000000
40
1.0000000000
40
1.0000000000
10
302.0546581160
20
116.9262252735
30
0.0000000000
10
302.1247417299
20
117.5068428014
30
0.0000000000
10
302.2589597613
20
118.6642496787
30
0.0000000000
10
302.3822972165
20
119.8228667314
30
0.0000000000
10
302.4409860337
20
120.4002033649
30
0.0000000000
11
302.0546581160
21
116.9262252735
31
0.0000000000
11
302.2567391511
21
118.6690445687
31
0.0000000000
11
302.4409860337
21
120.4002033649
31
0.0000000000
0
SPLINE
5
4F7
100
AcDbEntity
8
0
100
AcDbSpline
62
7
6
CONTINUOUS
70
0
71
3
72
8
73
4
74
2
42
0.0000001000
43
0.0000001000
44
0.0000000001
40
0.0000000000
40
0.0000000000
40
0.0000000000
40
0.0000000000
40
1.0000000000
40
1.0000000000
40
1.0000000000
40
1.0000000000
10
303.3157367831
20
184.8844416803
30
0.0000000000
10
303.3363655096
20
184.9088759657
30
0.0000000000
10
303.3569517776
20
184.9333463981
30
0.0000000000
10
303.3774954884
20
184.9578527598
30
0.0000000000
11
303.3157367831
21
184.8844416803
31
0.0000000000
11
303.3774954884
21
184.9578527598
31
0.0000000000
0
SPLINE
5
4F8
100
AcDbEntity
8
0
100
AcDbSpline
62
7
6
CONTINUOUS
70
0
71
3
72
10
73
6
74
4
42
0.0000001000
43
0.0000001000
44
0.0000000001
40
0.0000000000
40
0.0000000000
40
0.0000000000
40
0.0000000000
40
0.3026927467
40
0.6422271298
40
1.0000000000
40
1.0000000000
40
1.0000000000
40
1.0000000000
10
313.3338637146
20
173.0249004868
30
0.0000000000
10
313.2946261386
20
172.9041396452
30
0.0000000000
10
313.1542079746
20
172.6649126972
30
0.0000000000
10
312.8260566417
20
172.3942166832
30
0.0000000000
10
312.5596797184
20
172.2681283253
30
0.0000000000
10
312.4184725207
20
172.2163197748
30
0.0000000000
11
313.3338637146
21
173.0249004868
31
0.0000000000
11
313.1466401238
21
172.6931592607
31
0.0000000000
11
312.8231376797
21
172.4140123866
31
0.0000000000
11
312.4184725207
21
172.2163197748
31
0.0000000000
0
SPLINE
5
4F9
100
AcDbEntity
8
0
100
AcDbSpline
62
7
6
CONTINUOUS
70
0
71
3
72
9
73
5
74
3
42
0.0000001000
43
0.0000001000
44
0.0000000001
40
0.0000000000
40
0.0000000000
40
0.0000000000
40
0.0000000000
40
0.6854425150
40
1.0000000000
40
1.0000000000
40
1.0000000000
40
1.0000000000
10
308.3771299929
20
92.5518270994
30
0.0000000000
10
308.3771299929
20
92.5087867449
30
0.0000000000
10
308.3763007844
20
92.4459901790
30
0.0000000000
10
308.3740670400
20
92.3832333369
30
0.0000000000
10
308.3732108694
20
92.3634994936
30
0.0000000000
11
308.3771299929
21
92.5518270994
31
0.0000000000
11
308.3753333482
21
92.4227185362
31
0.0000000000
11
308.3732108694
21
92.3634994936
31
0.0000000000
0
SPLINE
5
4FA
100
AcDbEntity
8
0
100
AcDbSpline
62
7
6
CONTINUOUS
70
0
71
3
72
39
73
35
74
33
42
0.0000001000
43
0.0000001000
44
0.0000000001
40
0.0000000000
40
0.0000000000
40
0.0000000000
40
0.0000000000
40
0.0022175819
40
0.0062183095
40
0.0096965468
40
0.0126864728
40
0.0152907830
40
0.0175851598
40
0.0196063652
40
0.0213667821
40
0.0228685254
40
0.0241328596
40
0.0252716643
40
0.0265735965
40
0.0284155413
40
0.0311250978
40
0.0349943725
40
0.0403430094
40
0.0475177356
40
0.0568995195
40
0.0689117401
40
0.0840857495
40
0.1031609675
40
0.1270195987
40
0.1566886993
40
0.1933680791
40
0.2389821128
40
0.2961666344
40
0.3679941221
40
0.4573222058
40
0.5650762572
40
0.6921611415
40
0.8379575619
40
1.0000000000
40
1.0000000000
40
1.0000000000
40
1.0000000000
10
308.3732108694
20
92.3634994936
30
0.0000000000
10
308.3724064860
20
92.3449592905
30
0.0000000000
10
308.3697709130
20
92.2929876151
30
0.0000000000
10
308.3638515128
20
92.2120479517
30
0.0000000000
10
308.3545289820
20
92.1249221086
30
0.0000000000
10
308.3436079440
20
92.0497713531
30
0.0000000000
10
308.3312521019
20
91.9849001549
30
0.0000000000
10
308.3173560826
20
91.9286474350
30
0.0000000000
10
308.3016894050
20
91.8802233577
30
0.0000000000
10
308.2839543225
20
91.8395959063
30
0.0000000000
10
308.2636510189
20
91.8074143650
30
0.0000000000
10
308.2396229637
20
91.7843456732
30
0.0000000000
10
308.2085021591
20
91.7746089863
30
0.0000000000
10
308.1726917075
20
91.7859789185
30
0.0000000000
10
308.1353267467
20
91.8186350278
30
0.0000000000
10
308.0932666080
20
91.8755390692
30
0.0000000000
10
308.0453264556
20
91.9633116683
30
0.0000000000
10
307.9903543928
20
92.0891108459
30
0.0000000000
10
307.9274912533
20
92.2613918216
30
0.0000000000
10
307.8558166676
20
92.4895233164
30
0.0000000000
10
307.7742837046
20
92.7845167980
30
0.0000000000
10
307.6814076172
20
93.1603712775
30
0.0000000000
10
307.5753037571
20
93.6349413105
30
0.0000000000
10
307.4537777782
20
94.2302432017
30
0.0000000000
10
307.3144881529
20
94.9721721527
30
0.0000000000
10
307.1541734723
20
95.8952959868
30
0.0000000000
10
306.9682663816
20
97.0475885710
30
0.0000000000
10
306.7510749743
20
98.4926756727
30
0.0000000000
10
306.4973131635
20
100.3020913328
30
0.0000000000
10
306.2049695770
20
102.5333176075
30
0.0000000000
10
305.8748728206
20
105.2258560374
30
0.0000000000
10
305.5113062775
20
108.3902704627
30
0.0000000000
10
305.1212086341
20
112.0088252574
30
0.0000000000
10
304.8617365857
20
114.5717773941
30
0.0000000000
10
304.7291005586
20
115.9212657257
30
0.0000000000
11
308.3732108694
21
92.3634994936
31
0.0000000000
11
308.3703790937
21
92.3078992401
31
0.0000000000
11
308.3629332476
21
92.2077398970
31
0.0000000000
11
308.3535082219
21
92.1209311079
31
0.0000000000
11
308.3425644248
21
92.0466730050
31
0.0000000000
11
308.3301549138
21
91.9824819627
31
0.0000000000
11
308.3161118336
21
91.9266212278
31
0.0000000000
11
308.3001761531
21
91.8784474684
31
0.0000000000
11
308.2820137815
21
91.8381578812
31
0.0000000000
11
308.2612262662
21
91.8067064468
31
0.0000000000
11
308.2373564049
21
91.7857857202
31
0.0000000000
11
308.2098924500
21
91.7778446691
31
0.0000000000
11
308.1782737100
21
91.7861217949
31
0.0000000000
11
308.1419001813
21
91.8146732063
31
0.0000000000
11
308.1001477900
21
91.8683731939
31
0.0000000000
11
308.0523539015
21
91.9529372812
31
0.0000000000
11
307.9975829935
21
92.0755329170
31
0.0000000000
11
307.9349472629
21
92.2444082479
31
0.0000000000
11
307.8635647907
21
92.4688541577
31
0.0000000000
11
307.7825115434
21
92.7593163769
31
0.0000000000
11
307.6904610377
21
93.1289612240
31
0.0000000000
11
307.5853275452
21
93.5961491939
31
0.0000000000
11
307.4648832401
21
94.1828698986
31
0.0000000000
11
307.3268020117
21
94.9147826247
31
0.0000000000
11
307.1685848622
21
95.8219006062
31
0.0000000000
11
306.9854923524
21
96.9522797827
31
0.0000000000
11
306.7713534662
21
98.3717999667
31
0.0000000000
11
306.5200567422
21
100.1573868270
31
0.0000000000
11
306.2277889661
21
102.3807844300
31
0.0000000000
11
305.8976787949
21
105.0656637450
31
0.0000000000
11
305.5326247168
21
108.2350948600
31
0.0000000000
11
305.1395124899
21
111.8740491881
31
0.0000000000
11
304.7291005586
21
115.9212657257
31
0.0000000000
0
SPLINE
5
4FB
100
AcDbEntity
8
0
100
AcDbSpline
62
7
6
CONTINUOUS
70
0
71
3
72
15
73
11
74
9
42
0.0000001000
43
0.0000001000
44
0.0000000001
40
0.0000000000
40
0.0000000000
40
0.0000000000
40
0.0000000000
40
0.0826708494
40
0.1823795928
40
0.2970175549
40
0.4241454160
40
0.5610402173
40
0.7047483769
40
0.8521447950
40
1.0000000000
40
1.0000000000
40
1.0000000000
40
1.0000000000
10
288.9612256681
20
148.1598294238
30
0.0000000000
10
288.9612256681
20
147.8878202854
30
0.0000000000
10
288.9524579184
20
147.2877478009
30
0.0000000000
10
288.9216940362
20
146.3109414616
30
0.0000000000
10
288.8721892309
20
145.1884641443
30
0.0000000000
10
288.8048844466
20
143.9443728663
30
0.0000000000
10
288.7211040705
20
142.6054340657
30
0.0000000000
10
288.6225968374
20
141.2006392099
30
0.0000000000
10
288.5114609262
20
139.7606157785
30
0.0000000000
10
288.4300860432
20
138.7925642475
30
0.0000000000
10
288.3876323862
20
138.3079371283
30
0.0000000000
11
288.9612256681
21
148.1598294238
31
0.0000000000
11
288.9511971342
21
147.3438636335
31
0.0000000000
11
288.9213202378
21
146.3601121563
31
0.0000000000
11
288.8722185920
21
145.2296095904
31
0.0000000000
11
288.8049227185
21
143.9765616930
31
0.0000000000
11
288.7208559598
21
142.6279180775
31
0.0000000000
11
288.6218123987
21
141.2128655192
31
0.0000000000
11
288.5099264667
21
139.7622534546
31
0.0000000000
11
288.3876323862
21
138.3079371283
31
0.0000000000
0
SPLINE
5
4FC
100
AcDbEntity
8
0
100
AcDbSpline
62
7
6
CONTINUOUS
70
0
71
3
72
10
73
6
74
4
42
0.0000001000
43
0.0000001000
44
0.0000000001
40
0.0000000000
40
0.0000000000
40
0.0000000000
40
0.0000000000
40
0.3325840977
40
0.6675717811
40
1.0000000000
40
1.0000000000
40
1.0000000000
40
1.0000000000
10
286.0251594272
20
115.9212657257
30
0.0000000000
10
286.0924203866
20
116.6056037737
30
0.0000000000
10
286.2288936133
20
117.9790821007
30
0.0000000000
10
286.4379556826
20
120.0360406957
30
0.0000000000
10
286.5807572735
20
121.4085518129
30
0.0000000000
10
286.6527493498
20
122.0920842645
30
0.0000000000
11
286.0251594272
21
115.9212657257
31
0.0000000000
11
286.2291693666
21
117.9740597605
31
0.0000000000
11
286.4393146123
21
120.0412208231
31
0.0000000000
11
286.6527493498
21
122.0920842645
31
0.0000000000
0
SPLINE
5
4FD
100
AcDbEntity
8
0
100
AcDbSpline
62
7
6
CONTINUOUS
70
0
71
3
72
9
73
5
74
3
42
0.0000001000
43
0.0000001000
44
0.0000000001
40
0.0000000000
40
0.0000000000
40
0.0000000000
40
0.0000000000
40
0.5019396782
40
1.0000000000
40
1.0000000000
40
1.0000000000
40
1.0000000000
10
288.6996018698
20
116.9262252735
30
0.0000000000
10
288.6295182635
20
117.5068427386
30
0.0000000000
10
288.4953002465
20
118.6642494911
30
0.0000000000
10
288.3719628012
20
119.8228664185
30
0.0000000000
10
288.3132739902
20
120.4002029901
30
0.0000000000
11
288.6996018698
21
116.9262252735
31
0.0000000000
11
288.4975208557
21
118.6690443800
31
0.0000000000
11
288.3132739902
21
120.4002029901
31
0.0000000000
0
SPLINE
5
4FE
100
AcDbEntity
8
0
100
AcDbSpline
62
7
6
CONTINUOUS
70
0
71
3
72
12
73
8
74
6
42
0.0000001000
43
0.0000001000
44
0.0000000001
40
0.0000000000
40
0.0000000000
40
0.0000000000
40
0.0000000000
40
0.1854786829
40
0.3800273265
40
0.5818238450
40
0.7890969548
40
1.0000000000
40
1.0000000000
40
1.0000000000
40
1.0000000000
10
290.1715638724
20
94.1708058009
30
0.0000000000
10
290.1715638724
20
95.5814148477
30
0.0000000000
10
290.1287702106
20
98.4717287011
30
0.0000000000
10
289.9483681698
20
102.8933812744
30
0.0000000000
10
289.6510830836
20
107.4748338365
30
0.0000000000
10
289.2390459073
20
112.1722031315
30
0.0000000000
10
288.8918140474
20
115.3338165317
30
0.0000000000
10
288.6996018698
20
116.9262252735
30
0.0000000000
11
290.1715638724
21
94.1708058009
31
0.0000000000
11
290.1119166372
21
98.4022125591
31
0.0000000000
11
289.9331930677
21
102.8373777147
31
0.0000000000
11
289.6366481914
21
107.4319478751
31
0.0000000000
11
289.2244304602
21
112.1430302064
31
0.0000000000
11
288.6996018698
21
116.9262252735
31
0.0000000000
0
SPLINE
5
4FF
100
AcDbEntity
8
0
100
AcDbSpline
62
7
6
CONTINUOUS
70
0
71
3
72
9
73
5
74
3
42
0.0000001000
43
0.0000001000
44
0.0000000001
40
0.0000000000
40
0.0000000000
40
0.0000000000
40
0.0000000000
40
0.6854425150
40
1.0000000000
40
1.0000000000
40
1.0000000000
40
1.0000000000
10
282.3771299929
20
92.5518270994
30
0.0000000000
10
282.3771299929
20
92.5087867449
30
0.0000000000
10
282.3779592015
20
92.4459901790
30
0.0000000000
10
282.3801929459
20
92.3832333369
30
0.0000000000
10
282.3810491164
20
92.3634994936
30
0.0000000000
11
282.3771299929
21
92.5518270994
31
0.0000000000
11
282.3789266376
21
92.4227185362
31
0.0000000000
11
282.3810491164
21
92.3634994936
31
0.0000000000
0
SPLINE
5
500
100
AcDbEntity
8
0
100
AcDbSpline
62
7
6
CONTINUOUS
70
0
71
3
72
39
73
35
74
33
42
0.0000001000
43
0.0000001000
44
0.0000000001
40
0.0000000000
40
0.0000000000
40
0.0000000000
40
0.0000000000
40
0.0022175819
40
0.0062183095
40
0.0096965468
40
0.0126864728
40
0.0152907830
40
0.0175851598
40
0.0196063652
40
0.0213667821
40
0.0228685254
40
0.0241328596
40
0.0252716643
40
0.0265735965
40
0.0284155413
40
0.0311250978
40
0.0349943725
40
0.0403430094
40
0.0475177356
40
0.0568995195
40
0.0689117401
40
0.0840857495
40
0.1031609675
40
0.1270195987
40
0.1566886993
40
0.1933680791
40
0.2389821128
40
0.2961666344
40
0.3679941221
40
0.4573222058
40
0.5650762572
40
0.6921611415
40
0.8379575619
40
1.0000000000
40
1.0000000000
40
1.0000000000
40
1.0000000000
10
282.3810491164
20
92.3634994936
30
0.0000000000
10
282.3818534998
20
92.3449592905
30
0.0000000000
10
282.3844890728
20
92.2929876151
30
0.0000000000
10
282.3904084730
20
92.2120479517
30
0.0000000000
10
282.3997310038
20
92.1249221086
30
0.0000000000
10
282.4106520418
20
92.0497713531
30
0.0000000000
10
282.4230078839
20
91.9849001549
30
0.0000000000
10
282.4369039032
20
91.9286474350
30
0.0000000000
10
282.4525705808
20
91.8802233577
30
0.0000000000
10
282.4703056633
20
91.8395959063
30
0.0000000000
10
282.4906089669
20
91.8074143650
30
0.0000000000
10
282.5146370221
20
91.7843456732
30
0.0000000000
10
282.5457578267
20
91.7746089863
30
0.0000000000
10
282.5815682783
20
91.7859789185
30
0.0000000000
10
282.6189332391
20
91.8186350278
30
0.0000000000
10
282.6609933778
20
91.8755390692
30
0.0000000000
10
282.7089335302
20
91.9633116683
30
0.0000000000
10
282.7639055930
20
92.0891108459
30
0.0000000000
10
282.8267687325
20
92.2613918216
30
0.0000000000
10
282.8984433182
20
92.4895233164
30
0.0000000000
10
282.9799762812
20
92.7845167980
30
0.0000000000
10
283.0728523686
20
93.1603712775
30
0.0000000000
10
283.1789562287
20
93.6349413105
30
0.0000000000
10
283.3004822076
20
94.2302432017
30
0.0000000000
10
283.4397718329
20
94.9721721527
30
0.0000000000
10
283.6000865135
20
95.8952959868
30
0.0000000000
10
283.7859936042
20
97.0475885710
30
0.0000000000
10
284.0031850115
20
98.4926756727
30
0.0000000000
10
284.2569468223
20
100.3020913328
30
0.0000000000
10
284.5492904088
20
102.5333176075
30
0.0000000000
10
284.8793871652
20
105.2258560374
30
0.0000000000
10
285.2429537083
20
108.3902704627
30
0.0000000000
10
285.6330513517
20
112.0088252574
30
0.0000000000
10
285.8925234001
20
114.5717773941
30
0.0000000000
10
286.0251594272
20
115.9212657257
30
0.0000000000
11
282.3810491164
21
92.3634994936
31
0.0000000000
11
282.3838808921
21
92.3078992401
31
0.0000000000
11
282.3913267382
21
92.2077398970
31
0.0000000000
11
282.4007517639
21
92.1209311079
31
0.0000000000
11
282.4116955610
21
92.0466730050
31
0.0000000000
11
282.4241050721
21
91.9824819627
31
0.0000000000
11
282.4381481522
21
91.9266212278
31
0.0000000000
11
282.4540838328
21
91.8784474684
31
0.0000000000
11
282.4722462043
21
91.8381578812
31
0.0000000000
11
282.4930337196
21
91.8067064468
31
0.0000000000
11
282.5169035809
21
91.7857857202
31
0.0000000000
11
282.5443675358
21
91.7778446691
31
0.0000000000
11
282.5759862758
21
91.7861217949
31
0.0000000000
11
282.6123598045
21
91.8146732063
31
0.0000000000
11
282.6541121958
21
91.8683731939
31
0.0000000000
11
282.7019060843
21
91.9529372812
31
0.0000000000
11
282.7566769924
21
92.0755329170
31
0.0000000000
11
282.8193127229
21
92.2444082479
31
0.0000000000
11
282.8906951952
21
92.4688541577
31
0.0000000000
11
282.9717484424
21
92.7593163769
31
0.0000000000
11
283.0637989481
21
93.1289612240
31
0.0000000000
11
283.1689324406
21
93.5961491939
31
0.0000000000
11
283.2893767457
21
94.1828698986
31
0.0000000000
11
283.4274579742
21
94.9147826247
31
0.0000000000
11
283.5856751236
21
95.8219006062
31
0.0000000000
11
283.7687676334
21
96.9522797827
31
0.0000000000
11
283.9829065197
21
98.3717999667
31
0.0000000000
11
284.2342032436
21
100.1573868270
31
0.0000000000
11
284.5264710197
21
102.3807844300
31
0.0000000000
11
284.8565811909
21
105.0656637450
31
0.0000000000
11
285.2216352690
21
108.2350948600
31
0.0000000000
11
285.6147474960
21
111.8740491881
31
0.0000000000
11
286.0251594272
21
115.9212657257
31
0.0000000000
0
SPLINE
5
501
100
AcDbEntity
8
0
100
AcDbSpline
62
7
6
CONTINUOUS
70
0
71
3
72
8
73
4
74
2
42
0.0000001000
43
0.0000001000
44
0.0000000001
40
0.0000000000
40
0.0000000000
40
0.0000000000
40
0.0000000000
40
1.0000000000
40
1.0000000000
40
1.0000000000
40
1.0000000000
10
303.3771306332
20
186.6058989465
30
0.0000000000
10
303.0437998389
20
186.5714400467
30
0.0000000000
10
302.7104662883
20
186.5370078099
30
0.0000000000
10
302.3771299929
20
186.5026021717
30
0.0000000000
11
303.3771306332
21
186.6058989465
31
0.0000000000
11
302.3771299929
21
186.5026021717
31
0.0000000000
0
SPLINE
5
502
100
AcDbEntity
8
0
100
AcDbSpline
62
7
6
CONTINUOUS
70
0
71
3
72
8
73
4
74
2
42
0.0000001000
43
0.0000001000
44
0.0000000001
40
0.0000000000
40
0.0000000000
40
0.0000000000
40
0.0000000000
40
1.0000000000
40
1.0000000000
40
1.0000000000
40
1.0000000000
10
287.3771293526
20
186.6058989465
30
0.0000000000
10
287.7104601469
20
186.5714400467
30
0.0000000000
10
288.0437936975
20
186.5370078099
30
0.0000000000
10
288.3771299929
20
186.5026021717
30
0.0000000000
11
287.3771293526
21
186.6058989465
31
0.0000000000
11
288.3771299929
21
186.5026021717
31
0.0000000000
0
SPLINE
5
503
100
AcDbEntity
8
0
100
AcDbSpline
62
7
6
CONTINUOUS
70
0
71
3
72
10
73
6
74
4
42
0.0000001000
43
0.0000001000
44
0.0000000001
40
0.0000000000
40
0.0000000000
40
0.0000000000
40
0.0000000000
40
0.3026927467
40
0.6422271298
40
1.0000000000
40
1.0000000000
40
1.0000000000
40
1.0000000000
10
277.4203962712
20
173.0249004868
30
0.0000000000
10
277.4596338472
20
172.9041396452
30
0.0000000000
10
277.6000520112
20
172.6649126972
30
0.0000000000
10
277.9282033441
20
172.3942166832
30
0.0000000000
10
278.1945802674
20
172.2681283253
30
0.0000000000
10
278.3357874651
20
172.2163197748
30
0.0000000000
11
277.4203962712
21
173.0249004868
31
0.0000000000
11
277.6076198620
21
172.6931592607
31
0.0000000000
11
277.9311223061
21
172.4140123866
31
0.0000000000
11
278.3357874651
21
172.2163197748
31
0.0000000000
0
SPLINE
5
504
100
AcDbEntity
8
0
100
AcDbSpline
62
7
6
CONTINUOUS
70
0
71
3
72
8
73
4
74
2
42
0.0000001000
43
0.0000001000
44
0.0000000001
40
0.0000000000
40
0.0000000000
40
0.0000000000
40
0.0000000000
40
1.0000000000
40
1.0000000000
40
1.0000000000
40
1.0000000000
10
287.4385232027
20
184.8844416803
30
0.0000000000
10
287.4178944762
20
184.9088759657
30
0.0000000000
10
287.3973082082
20
184.9333463981
30
0.0000000000
10
287.3767644974
20
184.9578527598
30
0.0000000000
11
287.4385232027
21
184.8844416803
31
0.0000000000
11
287.3767644974
21
184.9578527598
31
0.0000000000
0
SPLINE
5
505
100
AcDbEntity
8
0
100
AcDbSpline
62
7
6
CONTINUOUS
70
0
71
3
72
10
73
6
74
4
42
0.0000001000
43
0.0000001000
44
0.0000000001
40
0.0000000000
40
0.0000000000
40
0.0000000000
40
0.0000000000
40
0.3325840977
40
0.6675717811
40
1.0000000000
40
1.0000000000
40
1.0000000000
40
1.0000000000
10
304.7291005586
20
115.9212657257
30
0.0000000000
10
304.6618395992
20
116.6056037737
30
0.0000000000
10
304.5253663726
20
117.9790821007
30
0.0000000000
10
304.3163043033
20
120.0360406957
30
0.0000000000
10
304.1735027123
20
121.4085518129
30
0.0000000000
10
304.1015106360
20
122.0920842645
30
0.0000000000
11
304.7291005586
21
115.9212657257
31
0.0000000000
11
304.5250906193
21
117.9740597605
31
0.0000000000
11
304.3149453735
21
120.0412208231
31
0.0000000000
11
304.1015106360
21
122.0920842645
31
0.0000000000
0
ENDSEC
0
SECTION
2
OBJECTS
0
DICTIONARY
5
506
100
AcDbDictionary
3
ACAD_GROUP
350
507
3
ACAD_MLINESTYLE
350
508
0
DICTIONARY
5
507
102
{ACAD_REACTORS
330
506
102
}
100
AcDbDictionary
0
DICTIONARY
5
508
102
{ACAD_REACTORS
330
506
102
}
100
AcDbDictionary
3
STANDARD
350
509
0
MLINESTYLE
5
509
102
{ACAD_REACTORS
330
508
102
}
100
AcDbMlineStyle
2
STANDARD
70
0
3

62
256
51
90.0
52
90.0
71
2
49
0.5
62
256
6
BYLAYER
49
-0.5
62
256
6
BYLAYER
0
ENDSEC
0
EOF
