999
DXF file: C:\Aktuell-Internet\CAD-Daten\2vcoeh8.dxf
999
Pro/ENGINEER 2001400 by Parametric Technology Corporation
0
SECTION
2
HEADER
9
$ACADVER
1
AC1014
9
$EXTMAX
10
420.0000000000
20
297.0000000000
9
$EXTMIN
10
0.0000000000
20
0.0000000000
9
$LIMMIN
10
0.0000000000
20
0.0000000000
9
$LIMMAX
10
420.0000000000
20
297.0000000000
9
$VIEWCTR
10
210.0000000000
20
148.5000000000
9
$VIEWSIZE
40
297.0000000000
9
$CLAYER
8
0
9
$LTSCALE
40
23.1000000000
9
$CELTYPE
6
BYLAYER
9
$DIMSCALE
40
1
9
$DIMASZ
40
3.5000000000
9
$DIMEXO
40
2.6250000000
9
$DIMDLI
40
15.9600000000
9
$DIMEXE
40
7.5600000000
9
$DIMCEN
40
3.7800000000
9
$DIMLFAC
40
1.0000000000
9
$DIMTXT
40
3.5000000000
9
$DIMTOL
70
1
9
$DIMTFAC
40
0.6000000000
9
$DIMTP
40
0.0050000000
9
$DIMTM
40
0.0050000000
9
$HANDSEED
5
4DC
0
ENDSEC
0
SECTION
2
CLASSES
0
ENDSEC
0
SECTION
2
TABLES
0
TABLE
2
VPORT
5
8
100
AcDbSymbolTable
70
2
0
VPORT
5
1F4
100
AcDbSymbolTableRecord
100
AcDbViewportTableRecord
2
*ACTIVE
70
0
10
0.0
20
0.0
11
1.0
21
1.0
12
210.0000000000
22
148.5000000000
13
0.0
23
0.0
14
1.0
24
1.0
15
0.0
25
0.0
16
0.0
26
0.0
36
1.0
17
0.0
27
0.0
37
0.0
40
297.0000000000
41
1.4141414141
42
50.0
43
0.0
44
0.0
50
0.0
51
0.0
71
0
72
100
73
1
74
1
75
0
76
0
77
0
78
0
0
ENDTAB
0
TABLE
2
LTYPE
5
5
100
AcDbSymbolTable
70
6
0
LTYPE
5
14
100
AcDbSymbolTableRecord
100
AcDbLinetypeTableRecord
2
BYBLOCK
70
0
3

72
65
73
0
40
0.0
0
LTYPE
5
15
100
AcDbSymbolTableRecord
100
AcDbLinetypeTableRecord
2
BYLAYER
70
0
3

72
65
73
0
40
0.0
0
LTYPE
5
16
100
AcDbSymbolTableRecord
100
AcDbLinetypeTableRecord
2
CONTINUOUS
70
64
3
Solid line
72
65
73
0
40
0
0
LTYPE
5
1F5
100
AcDbSymbolTableRecord
100
AcDbLinetypeTableRecord
2
CENTER
70
64
3
____ _ ____ _ ____ _ ____ _ ____ _ ____ _ ____
72
65
73
4
40
0.6
49
0.375
74
0
49
-0.075
74
0
49
0.075
74
0
49
-0.075
74
0
0
LTYPE
5
1F6
100
AcDbSymbolTableRecord
100
AcDbLinetypeTableRecord
2
HIDDEN
70
64
3
- - - - - - - - - - - - - - - - - - - -
72
65
73
2
40
0.2
49
0.1
74
0
49
-0.1
74
0
0
LTYPE
5
1F7
100
AcDbSymbolTableRecord
100
AcDbLinetypeTableRecord
2
PHANTOM
70
64
3
_____ _ _ _____ _ _ _____ _ _ _____
72
65
73
6
40
0.8
49
0.45
74
0
49
-0.05
74
0
49
0.1
74
0
49
-0.05
74
0
49
0.1
74
0
49
-0.05
74
0
0
LTYPE
5
1F8
100
AcDbSymbolTableRecord
100
AcDbLinetypeTableRecord
2
DOT
70
64
3
. . . . . . . . . . . . . . . . . . . .
72
65
73
2
40
0.2
49
0.1
74
0
49
-0.1
74
0
0
LTYPE
5
1F9
100
AcDbSymbolTableRecord
100
AcDbLinetypeTableRecord
2
DASHED
70
64
3
- - - - - - - - - - - - - - - - - - - -
72
65
73
2
40
0.2
49
0.1
74
0
49
-0.1
74
0
0
ENDTAB
0
TABLE
2
LAYER
5
2
100
AcDbSymbolTable
70
36
0
LAYER
5
10
100
AcDbSymbolTableRecord
100
AcDbLayerTableRecord
2
0
70
0
62
7
6
CONTINUOUS
0
LAYER
5
1FA
100
AcDbSymbolTableRecord
100
AcDbLayerTableRecord
2
DEFAULT_1
70
0
62
7
6
CENTER
0
LAYER
5
1FB
100
AcDbSymbolTableRecord
100
AcDbLayerTableRecord
2
DEFAULT_2
70
0
62
8
6
HIDDEN
0
LAYER
5
1FC
100
AcDbSymbolTableRecord
100
AcDbLayerTableRecord
2
DEFAULT_3
70
0
62
7
6
PHANTOM
0
ENDTAB
0
TABLE
2
STYLE
5
3
100
AcDbSymbolTable
70
1
0
STYLE
5
11
100
AcDbSymbolTableRecord
100
AcDbTextStyleTableRecord
2
STANDARD
70
0
40
0.0
41
1.0
50
0.0
71
0
42
0.0
3
txt
4

0
STYLE
5
1FD
100
AcDbSymbolTableRecord
100
AcDbTextStyleTableRecord
2
TEXTSTYLE_0
70
0
40
0.0
41
0.80
50
0.0
71
0
42
0.2
3
txt
4

0
ENDTAB
0
TABLE
2
VIEW
5
6
100
AcDbSymbolTable
70
0
0
ENDTAB
0
TABLE
2
UCS
5
7
100
AcDbSymbolTable
70
0
0
ENDTAB
0
TABLE
2
APPID
5
9
100
AcDbSymbolTable
70
1
0
APPID
5
1FE
100
AcDbSymbolTableRecord
100
AcDbRegAppTableRecord
2
ACAD
70
0
0
ENDTAB
0
TABLE
2
DIMSTYLE
5
A
100
AcDbSymbolTable
70
1
0
DIMSTYLE
105
1FF
100
AcDbSymbolTableRecord
100
AcDbDimStyleTableRecord
2
STANDARD
70
0
3

4

5

6

7

40
1.0
41
0.18
42
0.0625
43
0.38
44
0.18
45
0.0
46
0.0
47
0.0050000000
48
0.0050000000
140
3.5000000000
141
0.09
142
0.0
143
25.4
144
1.0000000000
145
0.0
146
0.6000000000
147
0.09
71
1
72
0
73
1
74
1
75
0
76
0
77
0
78
0
170
0
171
2
172
0
173
0
174
0
175
0
176
0
177
0
178
0
270
2
271
3
272
4
273
2
274
2
340
11
275
0
280
0
281
0
282
0
283
1
284
0
285
0
286
0
287
3
288
0
0
ENDTAB
0
TABLE
2
BLOCK_RECORD
5
1
100
AcDbSymbolTable
70
0
0
BLOCK_RECORD
5
1B
100
AcDbSymbolTableRecord
100
AcDbBlockTableRecord
2
*MODEL_SPACE
0
BLOCK_RECORD
5
1C
100
AcDbSymbolTableRecord
100
AcDbBlockTableRecord
2
*PAPER_SPACE
0
ENDTAB
0
ENDSEC
0
SECTION
2
BLOCKS
0
BLOCK
5
1E
100
AcDbEntity
8
0
100
AcDbBlockBegin
2
*MODEL_SPACE
70
0
10
0.0
20
0.0
30
0.0
3
*MODEL_SPACE
1

0
ENDBLK
5
1F
100
AcDbEntity
8
0
100
AcDbBlockEnd
0
BLOCK
5
20
100
AcDbEntity
8
0
100
AcDbBlockBegin
2
*PAPER_SPACE
70
0
10
0.0
20
0.0
30
0.0
3
*PAPER_SPACE
1

0
ENDBLK
5
21
100
AcDbEntity
8
0
100
AcDbBlockEnd
0
ENDSEC
0
SECTION
2
ENTITIES
0
TEXT
5
200
100
AcDbEntity
8
0
100
AcDbText
62
2
6
CONTINUOUS
10
105.4312640876
20
91.5773242100
7
TEXTSTYLE_0
40
5.0000000000
1
RUD
72
5
11
117.8122164685
21
91.5773242100
100
AcDbText
0
TEXT
5
201
100
AcDbEntity
8
0
100
AcDbText
62
2
6
CONTINUOUS
10
153.8557122618
20
119.6494680791
7
TEXTSTYLE_0
40
5.0000000000
1
VCÖH 8
50
90.0000000000
72
5
11
153.8557122618
21
143.2685156982
100
AcDbText
0
TEXT
5
202
100
AcDbEntity
8
0
100
AcDbText
62
2
6
CONTINUOUS
10
294.5415751303
20
122.3966605935
7
TEXTSTYLE_0
40
4.0000000000
1
RUD
50
90.0000000000
72
5
11
294.5415751303
21
132.3014224982
100
AcDbText
0
TEXT
5
203
100
AcDbEntity
8
0
100
AcDbText
62
2
6
CONTINUOUS
10
300.9914561696
20
117.3232110876
7
TEXTSTYLE_0
40
4.0000000000
1
VCÖH 8
50
90.0000000000
72
5
11
300.9914561696
21
136.2184491828
100
AcDbText
0
LINE
5
204
100
AcDbEntity
8
0
100
AcDbLine
62
7
6
CONTINUOUS
10
0.0000000000
20
0.0000000000
11
0.0000000000
21
297.0000000000
0
LINE
5
205
100
AcDbEntity
8
0
100
AcDbLine
62
7
6
CONTINUOUS
10
0.0000000000
20
0.0000000000
11
420.0000000000
21
0.0000000000
0
LINE
5
206
100
AcDbEntity
8
0
100
AcDbLine
62
7
6
CONTINUOUS
10
0.0000000000
20
297.0000000000
11
420.0000000000
21
297.0000000000
0
LINE
5
207
100
AcDbEntity
8
0
100
AcDbLine
62
7
6
CONTINUOUS
10
420.0000000000
20
0.0000000000
11
420.0000000000
21
297.0000000000
0
LINE
5
208
100
AcDbEntity
8
0
100
AcDbLine
62
7
6
CONTINUOUS
10
71.0320781240
20
148.1411079000
11
70.4970712741
21
128.4958129149
0
LINE
5
209
100
AcDbEntity
8
0
100
AcDbLine
62
7
6
CONTINUOUS
10
79.4427715817
20
163.8026925826
11
81.6416609997
21
173.8066984003
0
LINE
5
20A
100
AcDbEntity
8
0
100
AcDbLine
62
7
6
CONTINUOUS
10
81.7919344041
20
174.4903780797
11
82.3178913196
21
176.8832569573
0
LINE
5
20B
100
AcDbEntity
8
0
100
AcDbLine
62
7
6
CONTINUOUS
10
76.4910349506
20
148.9761012644
11
82.7826379301
21
177.6002022746
0
LINE
5
20C
100
AcDbEntity
8
0
100
AcDbLine
62
7
6
CONTINUOUS
10
78.6283760614
20
144.7255599446
11
79.2724049375
21
147.6556157132
0
LINE
5
20D
100
AcDbEntity
8
0
100
AcDbLine
62
7
6
CONTINUOUS
10
81.5584318299
20
144.0815310685
11
78.6283760614
21
144.7255599446
0
LINE
5
20E
100
AcDbEntity
8
0
100
AcDbLine
62
7
6
CONTINUOUS
10
76.4910349506
20
148.9761012644
11
79.2724049375
21
147.6556157132
0
LINE
5
20F
100
AcDbEntity
8
0
100
AcDbLine
62
7
6
CONTINUOUS
10
81.5584318299
20
144.0815310685
11
81.9877844140
21
146.0349015809
0
LINE
5
210
100
AcDbEntity
8
0
100
AcDbLine
62
7
6
CONTINUOUS
10
81.9877844140
20
146.0349015809
11
101.3996897217
21
188.7797951155
0
LINE
5
211
100
AcDbEntity
8
0
100
AcDbLine
62
7
6
CONTINUOUS
10
104.2922464318
20
188.1282299500
11
104.2922464318
21
192.9157938774
0
LINE
5
212
100
AcDbEntity
8
0
100
AcDbLine
62
7
6
CONTINUOUS
10
79.7357771586
20
163.7382896950
11
79.4427715817
21
163.8026925826
0
LINE
5
213
100
AcDbEntity
8
0
100
AcDbLine
62
7
6
CONTINUOUS
10
79.9059756168
20
164.5126198418
11
79.6129700399
21
164.5770227294
0
LINE
5
214
100
AcDbEntity
8
DEFAULT_1
100
AcDbLine
62
2
6
CENTER
10
110.4822464318
20
223.5657938774
11
110.4822464318
21
205.5657938774
0
LINE
5
215
100
AcDbEntity
8
DEFAULT_1
100
AcDbLine
62
2
6
CENTER
10
110.4822464318
20
223.5657938774
11
110.4822464318
21
241.5657938774
0
LINE
5
216
100
AcDbEntity
8
0
100
AcDbLine
62
7
6
CONTINUOUS
10
74.8506475674
20
153.6478060448
11
74.0298543976
21
153.1739208873
0
LINE
5
217
100
AcDbEntity
8
0
100
AcDbLine
62
7
6
CONTINUOUS
10
127.4598145675
20
197.9718044774
11
134.2979450359
21
209.8157938774
0
LINE
5
218
100
AcDbEntity
8
0
100
AcDbLine
62
7
6
CONTINUOUS
10
81.7843931721
20
173.0586158334
11
81.4913875953
21
173.1230187210
0
LINE
5
219
100
AcDbEntity
8
0
100
AcDbLine
62
7
6
CONTINUOUS
10
81.9346665765
20
173.7422955127
11
81.6416609997
21
173.8066984003
0
LINE
5
21A
100
AcDbEntity
8
0
100
AcDbLine
62
7
6
CONTINUOUS
10
82.0849399810
20
174.4259751921
11
81.7919344041
21
174.4903780797
0
LINE
5
21B
100
AcDbEntity
8
0
100
AcDbLine
62
7
6
CONTINUOUS
10
82.0961305533
20
174.4768875070
11
81.8031249764
21
174.5412903946
0
LINE
5
21C
100
AcDbEntity
8
0
100
AcDbLine
62
7
6
CONTINUOUS
10
82.1185116989
20
174.5787121413
11
81.8255061220
21
174.6431150289
0
LINE
5
21D
100
AcDbEntity
8
0
100
AcDbLine
62
7
6
CONTINUOUS
10
82.1632739882
20
174.7823614010
11
81.8702684113
21
174.8467642887
0
LINE
5
21E
100
AcDbEntity
8
0
100
AcDbLine
62
7
6
CONTINUOUS
10
82.2080362813
20
174.9860106786
11
81.9150307045
21
175.0504135662
0
LINE
5
21F
100
AcDbEntity
8
0
100
AcDbLine
62
7
6
CONTINUOUS
10
82.2639891380
20
175.2405722310
11
81.9709835612
21
175.3049751186
0
LINE
5
220
100
AcDbEntity
8
0
100
AcDbLine
62
7
6
CONTINUOUS
10
82.4318477237
20
176.0042569594
11
82.1388421469
21
176.0686598471
0
LINE
5
221
100
AcDbEntity
8
0
100
AcDbLine
62
7
6
CONTINUOUS
10
82.4878006118
20
176.2588186545
11
82.1947950349
21
176.3232215421
0
LINE
5
222
100
AcDbEntity
8
0
100
AcDbLine
62
7
6
CONTINUOUS
10
82.5325628971
20
176.4624678964
11
82.2395573203
21
176.5268707840
0
LINE
5
223
100
AcDbEntity
8
0
100
AcDbLine
62
7
6
CONTINUOUS
10
82.5773251825
20
176.6661171383
11
82.2843196056
21
176.7305200259
0
LINE
5
224
100
AcDbEntity
8
0
100
AcDbLine
62
7
6
CONTINUOUS
10
82.5997063251
20
176.7679417592
11
82.3067007483
21
176.8323446468
0
LINE
5
225
100
AcDbEntity
8
0
100
AcDbLine
62
7
6
CONTINUOUS
10
82.6108968965
20
176.8188540697
11
82.3178913196
21
176.8832569573
0
LINE
5
226
100
AcDbEntity
8
0
100
AcDbLine
62
7
6
CONTINUOUS
10
104.1435025820
20
184.3385827418
11
128.2912564511
21
145.6940984263
0
LINE
5
227
100
AcDbEntity
8
0
100
AcDbLine
62
7
6
CONTINUOUS
10
138.8322464318
20
176.3948208802
11
132.2181448167
21
180.2134742282
0
LINE
5
228
100
AcDbEntity
8
0
100
AcDbLine
62
7
6
CONTINUOUS
10
83.5305884641
20
205.0829892798
11
94.4395675350
21
202.6851859321
0
LINE
5
229
100
AcDbEntity
8
0
100
AcDbLine
62
7
6
CONTINUOUS
10
123.5423762525
20
214.5657938774
11
135.5441208058
21
214.5657938774
0
LINE
5
22A
100
AcDbEntity
8
DEFAULT_1
100
AcDbLine
62
2
6
CENTER
10
110.4822464318
20
223.5657938774
11
92.4822464318
21
223.5657938774
0
LINE
5
22B
100
AcDbEntity
8
DEFAULT_1
100
AcDbLine
62
2
6
CENTER
10
110.4822464318
20
223.5657938774
11
128.4822464318
21
223.5657938774
0
LINE
5
22C
100
AcDbEntity
8
0
100
AcDbLine
62
7
6
CONTINUOUS
10
124.7148495294
20
230.5657938774
11
136.1746100276
21
230.5657938774
0
LINE
5
22D
100
AcDbEntity
8
0
100
AcDbLine
62
7
6
CONTINUOUS
10
295.3771299929
20
86.2657938774
11
299.8018611953
21
86.9666024525
0
LINE
5
22E
100
AcDbEntity
8
0
100
AcDbLine
62
7
6
CONTINUOUS
10
290.9523987905
20
86.9666024525
11
295.3771299929
21
86.2657938774
0
LINE
5
22F
100
AcDbEntity
8
DEFAULT_2
100
AcDbLine
62
8
6
HIDDEN
10
295.3771299929
20
113.5657938774
11
288.5949576677
21
112.4916033095
0
LINE
5
230
100
AcDbEntity
8
DEFAULT_2
100
AcDbLine
62
8
6
HIDDEN
10
302.1593023181
20
112.4916033095
11
295.3771299929
21
113.5657938774
0
LINE
5
231
100
AcDbEntity
8
0
100
AcDbLine
62
7
6
CONTINUOUS
10
283.3543250445
20
205.0829892798
11
282.3771299929
21
202.6851859321
0
LINE
5
232
100
AcDbEntity
8
0
100
AcDbLine
62
7
6
CONTINUOUS
10
290.3771299929
20
144.0815310685
11
286.2135442794
21
144.0815310685
0
LINE
5
233
100
AcDbEntity
8
0
100
AcDbLine
62
7
6
CONTINUOUS
10
300.3771299929
20
144.0815310685
11
304.5407157064
21
144.0815310685
0
LINE
5
234
100
AcDbEntity
8
0
100
AcDbLine
62
7
6
CONTINUOUS
10
304.2689909182
20
144.7255599446
11
300.3771299929
21
144.7255599446
0
LINE
5
235
100
AcDbEntity
8
0
100
AcDbLine
62
7
6
CONTINUOUS
10
286.4852690676
20
144.7255599446
11
290.3771299929
21
144.7255599446
0
LINE
5
236
100
AcDbEntity
8
0
100
AcDbLine
62
7
6
CONTINUOUS
10
290.9523987905
20
86.9666024525
11
287.4706172802
21
100.9312653490
0
LINE
5
237
100
AcDbEntity
8
0
100
AcDbLine
62
7
6
CONTINUOUS
10
284.5207235324
20
146.0349015809
11
282.5913707798
21
152.2877722842
0
LINE
5
238
100
AcDbEntity
8
0
100
AcDbLine
62
7
6
CONTINUOUS
10
284.5207235324
20
146.0349015809
11
284.7583278112
21
145.1688247181
0
LINE
5
239
100
AcDbEntity
8
0
100
AcDbLine
62
7
6
CONTINUOUS
10
285.0300525994
20
145.8128535942
11
284.5244991281
21
147.6556157132
0
LINE
5
23A
100
AcDbEntity
8
0
100
AcDbLine
62
7
6
CONTINUOUS
10
282.2039810373
20
154.6821909718
11
281.5212278324
21
188.7797951155
0
LINE
5
23B
100
AcDbEntity
8
0
100
AcDbLine
62
7
6
CONTINUOUS
10
281.3771299929
20
202.5137302635
11
281.3771299929
21
171.0657938774
0
LINE
5
23C
100
AcDbEntity
8
0
100
AcDbLine
62
7
6
CONTINUOUS
10
282.9020619741
20
156.4848762994
11
282.9020619741
21
157.1047762505
0
LINE
5
23D
100
AcDbEntity
8
0
100
AcDbLine
62
7
6
CONTINUOUS
10
282.9020619741
20
174.6551821505
11
282.9020619741
21
177.6002022746
0
LINE
5
23E
100
AcDbEntity
8
DEFAULT_2
100
AcDbLine
62
8
6
HIDDEN
10
284.3771299929
20
148.8803080954
11
284.3771299929
21
146.5002762174
0
LINE
5
23F
100
AcDbEntity
8
0
100
AcDbLine
62
7
6
CONTINUOUS
10
284.3771299929
20
146.5002762174
11
284.3771299929
21
107.7390027019
0
LINE
5
240
100
AcDbEntity
8
DEFAULT_2
100
AcDbLine
62
8
6
HIDDEN
10
284.3771299929
20
107.7390027019
11
284.3771299929
21
107.5531749025
0
LINE
5
241
100
AcDbEntity
8
0
100
AcDbLine
62
7
6
CONTINUOUS
10
284.3771299929
20
105.5531729839
11
284.3771299929
21
107.5531749025
0
LINE
5
242
100
AcDbEntity
8
0
100
AcDbLine
62
7
6
CONTINUOUS
10
284.3895505391
20
159.8111157815
11
284.3820681141
21
159.6762259892
0
LINE
5
243
100
AcDbEntity
8
0
100
AcDbLine
62
7
6
CONTINUOUS
10
289.9846298426
20
153.1956417152
11
295.3771299929
21
154.0497298335
0
LINE
5
244
100
AcDbEntity
8
0
100
AcDbLine
62
7
6
CONTINUOUS
10
295.3771299929
20
154.0497298335
11
300.7696301432
21
153.1956417152
0
LINE
5
245
100
AcDbEntity
8
0
100
AcDbLine
62
7
6
CONTINUOUS
10
283.2415070860
20
153.9666480684
11
284.6106410802
21
148.9761012644
0
LINE
5
246
100
AcDbEntity
8
0
100
AcDbLine
62
7
6
CONTINUOUS
10
281.9162086981
20
169.0539247602
11
281.3771299929
21
171.0657938774
0
LINE
5
247
100
AcDbEntity
8
0
100
AcDbLine
62
7
6
CONTINUOUS
10
289.3771299929
20
211.7670060103
11
289.3771299929
21
250.1153461795
0
LINE
5
248
100
AcDbEntity
8
0
100
AcDbLine
62
7
6
CONTINUOUS
10
290.0145844891
20
152.9122527649
11
290.0145844891
21
152.4383676074
0
LINE
5
249
100
AcDbEntity
8
0
100
AcDbLine
62
7
6
CONTINUOUS
10
290.4771299929
20
173.0586158334
11
290.4771299929
21
173.8066984003
0
LINE
5
24A
100
AcDbEntity
8
0
100
AcDbLine
62
7
6
CONTINUOUS
10
284.6106410802
20
148.9761012644
11
284.5244991281
21
147.6556157132
0
LINE
5
24B
100
AcDbEntity
8
0
100
AcDbLine
62
7
6
CONTINUOUS
10
293.5615049929
20
175.7631859842
11
293.7146299929
21
175.9668352261
0
LINE
5
24C
100
AcDbEntity
8
0
100
AcDbLine
62
7
6
CONTINUOUS
10
293.5615049929
20
175.6987830966
11
293.7146299929
21
175.9024323385
0
LINE
5
24D
100
AcDbEntity
8
0
100
AcDbLine
62
7
6
CONTINUOUS
10
293.4083799929
20
176.0177475366
11
293.3062966109
21
175.9159229156
0
LINE
5
24E
100
AcDbEntity
8
0
100
AcDbLine
62
7
6
CONTINUOUS
10
295.6031717569
20
174.9485889453
11
295.4500467569
21
174.8467642887
0
LINE
5
24F
100
AcDbEntity
8
0
100
AcDbLine
62
7
6
CONTINUOUS
10
293.3573383749
20
175.6613613632
11
293.5615049929
21
175.7631859842
0
LINE
5
250
100
AcDbEntity
8
0
100
AcDbLine
62
7
6
CONTINUOUS
10
293.3830602885
20
175.6097868417
11
293.5615049929
21
175.6987830966
0
LINE
5
251
100
AcDbEntity
8
0
100
AcDbLine
62
7
6
CONTINUOUS
10
295.5010882289
20
174.5412903946
11
295.7052549929
21
174.6431150289
0
LINE
5
252
100
AcDbEntity
8
0
100
AcDbLine
62
7
6
CONTINUOUS
10
295.5010882289
20
174.4768875070
11
295.7052549929
21
174.5787121413
0
LINE
5
253
100
AcDbEntity
8
0
100
AcDbLine
62
7
6
CONTINUOUS
10
293.3062966109
20
175.9159229156
11
293.1531716109
21
175.8650106051
0
LINE
5
254
100
AcDbEntity
8
0
100
AcDbLine
62
7
6
CONTINUOUS
10
295.0271299929
20
163.7382896950
11
295.7271299929
21
163.7382896950
0
LINE
5
255
100
AcDbEntity
8
0
100
AcDbLine
62
7
6
CONTINUOUS
10
295.0271299929
20
163.8026925826
11
295.7271299929
21
163.8026925826
0
LINE
5
256
100
AcDbEntity
8
0
100
AcDbLine
62
7
6
CONTINUOUS
10
286.2614123824
20
171.3105707439
11
286.2396482752
21
171.4837728052
0
POLYLINE
5
257
100
AcDbEntity
8
0
100
AcDb2dPolyline
62
7
6
CONTINUOUS
66
1
70
0
0
VERTEX
5
258
100
AcDbEntity
8
0
100
AcDbVertex
62
7
6
CONTINUOUS
100
AcDb2dVertex
10
291.5271299929
20
165.6025422484
0
VERTEX
5
259
100
AcDbEntity
8
0
100
AcDbVertex
62
7
6
CONTINUOUS
100
AcDb2dVertex
10
291.5486326261
20
165.3988492271
0
VERTEX
5
25A
100
AcDbEntity
8
0
100
AcDbVertex
62
7
6
CONTINUOUS
100
AcDb2dVertex
10
291.6070564838
20
165.2100929190
0
VERTEX
5
25B
100
AcDbEntity
8
0
100
AcDbVertex
62
7
6
CONTINUOUS
100
AcDb2dVertex
10
291.7045673016
20
165.0331076405
0
VERTEX
5
25C
100
AcDbEntity
8
0
100
AcDbVertex
62
7
6
CONTINUOUS
100
AcDb2dVertex
10
291.8346678727
20
164.8773904423
0
VERTEX
5
25D
100
AcDbEntity
8
0
100
AcDbVertex
62
7
6
CONTINUOUS
100
AcDb2dVertex
10
291.9941022424
20
164.7503231328
0
VERTEX
5
25E
100
AcDbEntity
8
0
100
AcDbVertex
62
7
6
CONTINUOUS
100
AcDb2dVertex
10
292.1753123889
20
164.6550857547
0
VERTEX
5
25F
100
AcDbEntity
8
0
100
AcDbVertex
62
7
6
CONTINUOUS
100
AcDb2dVertex
10
292.3685745550
20
164.5980240342
0
VERTEX
5
260
100
AcDbEntity
8
0
100
AcDbVertex
62
7
6
CONTINUOUS
100
AcDb2dVertex
10
292.5771299929
20
164.5770227294
0
SEQEND
5
261
100
AcDbEntity
8
0
0
POLYLINE
5
262
100
AcDbEntity
8
0
100
AcDb2dPolyline
62
7
6
CONTINUOUS
66
1
70
0
0
VERTEX
5
263
100
AcDbEntity
8
0
100
AcDbVertex
62
7
6
CONTINUOUS
100
AcDb2dVertex
10
291.5271299929
20
165.5381393608
0
VERTEX
5
264
100
AcDbEntity
8
0
100
AcDbVertex
62
7
6
CONTINUOUS
100
AcDb2dVertex
10
291.5406064668
20
165.3758102974
0
VERTEX
5
265
100
AcDbEntity
8
0
100
AcDbVertex
62
7
6
CONTINUOUS
100
AcDb2dVertex
10
291.5785206508
20
165.2212364014
0
VERTEX
5
266
100
AcDbEntity
8
0
100
AcDbVertex
62
7
6
CONTINUOUS
100
AcDb2dVertex
10
291.6417849829
20
165.0726686634
0
VERTEX
5
267
100
AcDbEntity
8
0
100
AcDbVertex
62
7
6
CONTINUOUS
100
AcDb2dVertex
10
291.7276621488
20
164.9353541116
0
VERTEX
5
268
100
AcDbEntity
8
0
100
AcDbVertex
62
7
6
CONTINUOUS
100
AcDb2dVertex
10
291.8348359901
20
164.8131517525
0
VERTEX
5
269
100
AcDbEntity
8
0
100
AcDbVertex
62
7
6
CONTINUOUS
100
AcDb2dVertex
10
291.9599554780
20
164.7084766419
0
VERTEX
5
26A
100
AcDbEntity
8
0
100
AcDbVertex
62
7
6
CONTINUOUS
100
AcDb2dVertex
10
292.1005479062
20
164.6246016801
0
VERTEX
5
26B
100
AcDbEntity
8
0
100
AcDbVertex
62
7
6
CONTINUOUS
100
AcDb2dVertex
10
292.2526621488
20
164.5628123397
0
VERTEX
5
26C
100
AcDbEntity
8
0
100
AcDbVertex
62
7
6
CONTINUOUS
100
AcDb2dVertex
10
292.4109259242
20
164.5257821152
0
VERTEX
5
26D
100
AcDbEntity
8
0
100
AcDbVertex
62
7
6
CONTINUOUS
100
AcDb2dVertex
10
292.5771299929
20
164.5126198418
0
SEQEND
5
26E
100
AcDbEntity
8
0
0
POLYLINE
5
26F
100
AcDbEntity
8
0
100
AcDb2dPolyline
62
7
6
CONTINUOUS
66
1
70
0
0
VERTEX
5
270
100
AcDbEntity
8
0
100
AcDbVertex
62
7
6
CONTINUOUS
100
AcDb2dVertex
10
292.2271299929
20
172.4393390417
0
VERTEX
5
271
100
AcDbEntity
8
0
100
AcDbVertex
62
7
6
CONTINUOUS
100
AcDb2dVertex
10
292.2217319249
20
172.5589605818
0
VERTEX
5
272
100
AcDbEntity
8
0
100
AcDbVertex
62
7
6
CONTINUOUS
100
AcDb2dVertex
10
292.2058608471
20
172.6767785025
0
VERTEX
5
273
100
AcDbEntity
8
0
100
AcDbVertex
62
7
6
CONTINUOUS
100
AcDb2dVertex
10
292.1793968144
20
172.7932300081
0
VERTEX
5
274
100
AcDbEntity
8
0
100
AcDbVertex
62
7
6
CONTINUOUS
100
AcDb2dVertex
10
292.1426996620
20
172.9070034855
0
VERTEX
5
275
100
AcDbEntity
8
0
100
AcDbVertex
62
7
6
CONTINUOUS
100
AcDb2dVertex
10
292.0961292249
20
173.0167873217
0
VERTEX
5
276
100
AcDbEntity
8
0
100
AcDbVertex
62
7
6
CONTINUOUS
100
AcDb2dVertex
10
292.0395655582
20
173.1230187210
0
SEQEND
5
277
100
AcDbEntity
8
0
0
LINE
5
278
100
AcDbEntity
8
0
100
AcDbLine
62
7
6
CONTINUOUS
10
290.8771299929
20
178.9620958249
11
290.8771299929
21
196.0912528408
0
LINE
5
279
100
AcDbEntity
8
0
100
AcDbLine
62
7
6
CONTINUOUS
10
291.3771299929
20
196.0912528408
11
291.3771299929
21
181.5494584836
0
LINE
5
27A
100
AcDbEntity
8
0
100
AcDbLine
62
7
6
CONTINUOUS
10
291.5271299929
20
172.4393390417
11
291.5271299929
21
165.6025422484
0
LINE
5
27B
100
AcDbEntity
8
0
100
AcDbLine
62
7
6
CONTINUOUS
10
291.8771299929
20
174.4259751921
11
291.8771299929
21
176.8832569573
0
LINE
5
27C
100
AcDbEntity
8
0
100
AcDbLine
62
7
6
CONTINUOUS
10
292.1833799929
20
174.4259751921
11
292.1833799929
21
175.5595367423
0
LINE
5
27D
100
AcDbEntity
8
0
100
AcDbLine
62
7
6
CONTINUOUS
10
292.1833799929
20
175.8650106051
11
292.1833799929
21
176.6286954049
0
LINE
5
27E
100
AcDbEntity
8
0
100
AcDbLine
62
7
6
CONTINUOUS
10
292.2271299929
20
165.6025422484
11
292.2271299929
21
172.4393390417
0
LINE
5
27F
100
AcDbEntity
8
0
100
AcDbLine
62
7
6
CONTINUOUS
10
293.0510883019
20
175.4951338547
11
293.0510883019
21
175.5595367423
0
LINE
5
280
100
AcDbEntity
8
0
100
AcDbLine
62
7
6
CONTINUOUS
10
293.1531716109
20
176.5642925173
11
293.1531716109
21
176.6286954049
0
LINE
5
281
100
AcDbEntity
8
0
100
AcDbLine
62
7
6
CONTINUOUS
10
293.3062966109
20
176.5133802068
11
293.3062966109
21
176.5777830944
0
LINE
5
282
100
AcDbEntity
8
0
100
AcDbLine
62
7
6
CONTINUOUS
10
293.4594216109
20
176.3232215421
11
293.4594216109
21
176.1704844680
0
LINE
5
283
100
AcDbEntity
8
0
100
AcDbLine
62
7
6
CONTINUOUS
10
293.4594216109
20
174.4259751921
11
293.4594216109
21
174.4903780797
0
LINE
5
284
100
AcDbEntity
8
0
100
AcDbLine
62
7
6
CONTINUOUS
10
293.5615049929
20
175.6987830966
11
293.5615049929
21
175.7631859842
0
LINE
5
285
100
AcDbEntity
8
0
100
AcDbLine
62
7
6
CONTINUOUS
10
293.7146299929
20
175.9024323385
11
293.7146299929
21
175.9668352261
0
LINE
5
286
100
AcDbEntity
8
0
100
AcDbLine
62
7
6
CONTINUOUS
10
293.7656716109
20
176.1195721575
11
293.7656716109
21
176.3232215421
0
LINE
5
287
100
AcDbEntity
8
0
100
AcDbLine
62
7
6
CONTINUOUS
10
293.8167133749
20
174.4259751921
11
293.8167133749
21
174.4903780797
0
LINE
5
288
100
AcDbEntity
8
0
100
AcDbLine
62
7
6
CONTINUOUS
10
294.1171299929
20
165.8799792005
11
294.1171299929
21
168.6791008054
0
LINE
5
289
100
AcDbEntity
8
0
100
AcDbLine
62
7
6
CONTINUOUS
10
294.1171299929
20
169.2983775971
11
294.1171299929
21
172.0974992020
0
LINE
5
28A
100
AcDbEntity
8
0
100
AcDbLine
62
7
6
CONTINUOUS
10
294.2250466109
20
176.8832569573
11
294.2250466109
21
175.3049751186
0
LINE
5
28B
100
AcDbEntity
8
0
100
AcDbLine
62
7
6
CONTINUOUS
10
294.2760883749
20
174.9860106786
11
294.2760883749
21
175.0504135662
0
LINE
5
28C
100
AcDbEntity
8
0
100
AcDbLine
62
7
6
CONTINUOUS
10
294.3781717569
20
174.7823614010
11
294.3781717569
21
174.8467642887
0
LINE
5
28D
100
AcDbEntity
8
0
100
AcDbLine
62
7
6
CONTINUOUS
10
294.5312967569
20
175.3049751186
11
294.5312967569
21
176.8832569573
0
LINE
5
28E
100
AcDbEntity
8
0
100
AcDbLine
62
7
6
CONTINUOUS
10
294.5823382289
20
174.5787121413
11
294.5823382289
21
174.6431150289
0
LINE
5
28F
100
AcDbEntity
8
0
100
AcDbLine
62
7
6
CONTINUOUS
10
294.6771299929
20
166.4913258316
11
294.6771299929
21
168.1321570619
0
LINE
5
290
100
AcDbEntity
8
0
100
AcDbLine
62
7
6
CONTINUOUS
10
294.6771299929
20
169.9097242282
11
294.6771299929
21
171.5505554586
0
LINE
5
291
100
AcDbEntity
8
0
100
AcDbLine
62
7
6
CONTINUOUS
10
294.7865049929
20
174.4768875070
11
294.7865049929
21
174.5412903946
0
LINE
5
292
100
AcDbEntity
8
0
100
AcDbLine
62
7
6
CONTINUOUS
10
295.0271299929
20
163.7382896950
11
295.0271299929
21
163.9617110181
0
LINE
5
293
100
AcDbEntity
8
0
100
AcDbLine
62
7
6
CONTINUOUS
10
295.0417132289
20
174.4259751921
11
295.0417132289
21
174.4903780797
0
LINE
5
294
100
AcDbEntity
8
0
100
AcDbLine
62
7
6
CONTINUOUS
10
295.0971299929
20
170.4566679716
11
295.0971299929
21
169.9097242282
0
LINE
5
295
100
AcDbEntity
8
0
100
AcDbLine
62
7
6
CONTINUOUS
10
295.0971299929
20
169.3627804847
11
295.0971299929
21
168.6791008054
0
LINE
5
296
100
AcDbEntity
8
0
100
AcDbLine
62
7
6
CONTINUOUS
10
295.0971299929
20
167.5208104309
11
295.0971299929
21
168.1321570619
0
LINE
5
297
100
AcDbEntity
8
0
100
AcDbLine
62
7
6
CONTINUOUS
10
295.2458799929
20
174.4259751921
11
295.2458799929
21
174.4903780797
0
LINE
5
298
100
AcDbEntity
8
DEFAULT_1
100
AcDbLine
62
2
6
CENTER
10
295.3771299929
20
253.4401456226
11
295.3771299929
21
84.6770322052
0
LINE
5
299
100
AcDbEntity
8
0
100
AcDbLine
62
7
6
CONTINUOUS
10
295.5010882289
20
174.4768875070
11
295.5010882289
21
174.5412903946
0
LINE
5
29A
100
AcDbEntity
8
0
100
AcDbLine
62
7
6
CONTINUOUS
10
295.6571299929
20
167.5208104309
11
295.6571299929
21
168.1321570619
0
LINE
5
29B
100
AcDbEntity
8
0
100
AcDbLine
62
7
6
CONTINUOUS
10
295.6571299929
20
168.6791008054
11
295.6571299929
21
169.3627804847
0
LINE
5
29C
100
AcDbEntity
8
0
100
AcDbLine
62
7
6
CONTINUOUS
10
295.6571299929
20
169.9097242282
11
295.6571299929
21
170.4566679716
0
LINE
5
29D
100
AcDbEntity
8
0
100
AcDbLine
62
7
6
CONTINUOUS
10
295.7052549929
20
174.5787121413
11
295.7052549929
21
174.6431150289
0
LINE
5
29E
100
AcDbEntity
8
0
100
AcDbLine
62
7
6
CONTINUOUS
10
295.7271299929
20
163.7382896950
11
295.7271299929
21
163.9617110181
0
LINE
5
29F
100
AcDbEntity
8
0
100
AcDbLine
62
7
6
CONTINUOUS
10
295.7562967569
20
176.8832569573
11
295.7562967569
21
175.3049751186
0
LINE
5
2A0
100
AcDbEntity
8
0
100
AcDbLine
62
7
6
CONTINUOUS
10
295.9094217569
20
174.7823614010
11
295.9094217569
21
174.8467642887
0
LINE
5
2A1
100
AcDbEntity
8
0
100
AcDbLine
62
7
6
CONTINUOUS
10
296.0115049929
20
174.9860106786
11
296.0115049929
21
175.0504135662
0
LINE
5
2A2
100
AcDbEntity
8
0
100
AcDbLine
62
7
6
CONTINUOUS
10
296.0625467569
20
175.3049751186
11
296.0625467569
21
176.8832569573
0
LINE
5
2A3
100
AcDbEntity
8
0
100
AcDbLine
62
7
6
CONTINUOUS
10
296.0771299929
20
171.5505554586
11
296.0771299929
21
169.9097242282
0
LINE
5
2A4
100
AcDbEntity
8
0
100
AcDbLine
62
7
6
CONTINUOUS
10
296.0771299929
20
168.1321570619
11
296.0771299929
21
166.4913258316
0
LINE
5
2A5
100
AcDbEntity
8
0
100
AcDbLine
62
7
6
CONTINUOUS
10
288.6204194757
20
134.6274886595
11
289.7692313143
21
148.1169281129
0
LINE
5
2A6
100
AcDbEntity
8
0
100
AcDbLine
62
7
6
CONTINUOUS
10
288.0502073288
20
130.7892141055
11
288.6204194757
21
134.6274886595
0
LINE
5
2A7
100
AcDbEntity
8
0
100
AcDbLine
62
7
6
CONTINUOUS
10
296.0115049929
20
175.0504135662
11
296.0625467569
21
175.3049751186
0
LINE
5
2A8
100
AcDbEntity
8
0
100
AcDbLine
62
7
6
CONTINUOUS
10
296.0115049929
20
174.9860106786
11
296.0625467569
21
175.2405722310
0
LINE
5
2A9
100
AcDbEntity
8
0
100
AcDbLine
62
7
6
CONTINUOUS
10
295.7562967569
20
175.3049751186
11
295.7052549929
21
175.1013258767
0
LINE
5
2AA
100
AcDbEntity
8
0
100
AcDbLine
62
7
6
CONTINUOUS
10
293.4594216109
20
176.1704844680
11
293.4083799929
21
176.0177475366
0
LINE
5
2AB
100
AcDbEntity
8
0
100
AcDbLine
62
7
6
CONTINUOUS
10
293.7146299929
20
175.9668352261
11
293.7656716109
21
176.1195721575
0
LINE
5
2AC
100
AcDbEntity
8
0
100
AcDbLine
62
7
6
CONTINUOUS
10
293.7146299929
20
175.9024323385
11
293.7656716109
21
176.0551692699
0
LINE
5
2AD
100
AcDbEntity
8
0
100
AcDbLine
62
7
6
CONTINUOUS
10
295.9094217569
20
174.8467642887
11
296.0115049929
21
175.0504135662
0
LINE
5
2AE
100
AcDbEntity
8
0
100
AcDbLine
62
7
6
CONTINUOUS
10
295.9094217569
20
174.7823614010
11
296.0115049929
21
174.9860106786
0
LINE
5
2AF
100
AcDbEntity
8
0
100
AcDbLine
62
7
6
CONTINUOUS
10
298.3594214649
20
174.8467642887
11
298.4615049929
21
175.0504135662
0
LINE
5
2B0
100
AcDbEntity
8
0
100
AcDbLine
62
7
6
CONTINUOUS
10
298.3594214649
20
174.7823614010
11
298.4615049929
21
174.9860106786
0
LINE
5
2B1
100
AcDbEntity
8
0
100
AcDbLine
62
7
6
CONTINUOUS
10
295.7052549929
20
175.1013258767
11
295.6031717569
21
174.9485889453
0
LINE
5
2B2
100
AcDbEntity
8
0
100
AcDbLine
62
7
6
CONTINUOUS
10
298.1552549929
20
175.1013258767
11
298.0531714649
21
174.9485889453
0
LINE
5
2B3
100
AcDbEntity
8
0
100
AcDbLine
62
7
6
CONTINUOUS
10
298.1552549929
20
174.6431150289
11
298.3594214649
21
174.8467642887
0
LINE
5
2B4
100
AcDbEntity
8
0
100
AcDbLine
62
7
6
CONTINUOUS
10
298.1552549929
20
174.5787121413
11
298.3594214649
21
174.7823614010
0
LINE
5
2B5
100
AcDbEntity
8
0
100
AcDbLine
62
7
6
CONTINUOUS
10
295.7052549929
20
174.6431150289
11
295.9094217569
21
174.8467642887
0
LINE
5
2B6
100
AcDbEntity
8
0
100
AcDbLine
62
7
6
CONTINUOUS
10
295.7052549929
20
174.5787121413
11
295.9094217569
21
174.7823614010
0
LINE
5
2B7
100
AcDbEntity
8
0
100
AcDbLine
62
7
6
CONTINUOUS
10
298.0531714649
20
174.9485889453
11
297.9000464649
21
174.8467642887
0
LINE
5
2B8
100
AcDbEntity
8
0
100
AcDbLine
62
7
6
CONTINUOUS
10
297.9510885210
20
174.5412903946
11
298.1552549929
21
174.6431150289
0
LINE
5
2B9
100
AcDbEntity
8
0
100
AcDbLine
62
7
6
CONTINUOUS
10
297.9510885210
20
174.4768875070
11
298.1552549929
21
174.5787121413
0
POLYLINE
5
2BA
100
AcDbEntity
8
0
100
AcDb2dPolyline
62
7
6
CONTINUOUS
66
1
70
0
0
VERTEX
5
2BB
100
AcDbEntity
8
0
100
AcDbVertex
62
7
6
CONTINUOUS
100
AcDb2dVertex
10
298.1771299929
20
164.5770227294
0
VERTEX
5
2BC
100
AcDbEntity
8
0
100
AcDbVertex
62
7
6
CONTINUOUS
100
AcDb2dVertex
10
298.3856854309
20
164.5980240342
0
VERTEX
5
2BD
100
AcDbEntity
8
0
100
AcDbVertex
62
7
6
CONTINUOUS
100
AcDb2dVertex
10
298.5789475969
20
164.6550857547
0
VERTEX
5
2BE
100
AcDbEntity
8
0
100
AcDbVertex
62
7
6
CONTINUOUS
100
AcDb2dVertex
10
298.7601577435
20
164.7503231328
0
VERTEX
5
2BF
100
AcDbEntity
8
0
100
AcDbVertex
62
7
6
CONTINUOUS
100
AcDb2dVertex
10
298.9195921132
20
164.8773904423
0
VERTEX
5
2C0
100
AcDbEntity
8
0
100
AcDbVertex
62
7
6
CONTINUOUS
100
AcDb2dVertex
10
299.0496926842
20
165.0331076405
0
VERTEX
5
2C1
100
AcDbEntity
8
0
100
AcDbVertex
62
7
6
CONTINUOUS
100
AcDb2dVertex
10
299.1472035020
20
165.2100929190
0
VERTEX
5
2C2
100
AcDbEntity
8
0
100
AcDbVertex
62
7
6
CONTINUOUS
100
AcDb2dVertex
10
299.2056273597
20
165.3988492271
0
VERTEX
5
2C3
100
AcDbEntity
8
0
100
AcDbVertex
62
7
6
CONTINUOUS
100
AcDb2dVertex
10
299.2271299929
20
165.6025422484
0
SEQEND
5
2C4
100
AcDbEntity
8
0
0
POLYLINE
5
2C5
100
AcDbEntity
8
0
100
AcDb2dPolyline
62
7
6
CONTINUOUS
66
1
70
0
0
VERTEX
5
2C6
100
AcDbEntity
8
0
100
AcDbVertex
62
7
6
CONTINUOUS
100
AcDb2dVertex
10
296.3571299929
20
164.5126198418
0
VERTEX
5
2C7
100
AcDbEntity
8
0
100
AcDbVertex
62
7
6
CONTINUOUS
100
AcDb2dVertex
10
296.2319967301
20
164.5000190590
0
VERTEX
5
2C8
100
AcDbEntity
8
0
100
AcDbVertex
62
7
6
CONTINUOUS
100
AcDb2dVertex
10
296.1160394305
20
164.4657820267
0
VERTEX
5
2C9
100
AcDbEntity
8
0
100
AcDbVertex
62
7
6
CONTINUOUS
100
AcDb2dVertex
10
296.0073133426
20
164.4086395998
0
VERTEX
5
2CA
100
AcDbEntity
8
0
100
AcDbVertex
62
7
6
CONTINUOUS
100
AcDb2dVertex
10
295.9116527208
20
164.3323992141
0
VERTEX
5
2CB
100
AcDbEntity
8
0
100
AcDbVertex
62
7
6
CONTINUOUS
100
AcDb2dVertex
10
295.8335923781
20
164.2389688952
0
VERTEX
5
2CC
100
AcDbEntity
8
0
100
AcDbVertex
62
7
6
CONTINUOUS
100
AcDb2dVertex
10
295.7750858874
20
164.1327777281
0
VERTEX
5
2CD
100
AcDbEntity
8
0
100
AcDbVertex
62
7
6
CONTINUOUS
100
AcDb2dVertex
10
295.7400315728
20
164.0195239433
0
VERTEX
5
2CE
100
AcDbEntity
8
0
100
AcDbVertex
62
7
6
CONTINUOUS
100
AcDb2dVertex
10
295.7338536869
20
163.9610012386
0
SEQEND
5
2CF
100
AcDbEntity
8
0
0
POLYLINE
5
2D0
100
AcDbEntity
8
0
100
AcDb2dPolyline
62
7
6
CONTINUOUS
66
1
70
0
0
VERTEX
5
2D1
100
AcDbEntity
8
0
100
AcDbVertex
62
7
6
CONTINUOUS
100
AcDb2dVertex
10
298.1771299929
20
164.5126198418
0
VERTEX
5
2D2
100
AcDbEntity
8
0
100
AcDbVertex
62
7
6
CONTINUOUS
100
AcDb2dVertex
10
298.3433340616
20
164.5257821152
0
VERTEX
5
2D3
100
AcDbEntity
8
0
100
AcDbVertex
62
7
6
CONTINUOUS
100
AcDb2dVertex
10
298.5015978370
20
164.5628123397
0
VERTEX
5
2D4
100
AcDbEntity
8
0
100
AcDbVertex
62
7
6
CONTINUOUS
100
AcDb2dVertex
10
298.6537120796
20
164.6246016801
0
VERTEX
5
2D5
100
AcDbEntity
8
0
100
AcDbVertex
62
7
6
CONTINUOUS
100
AcDb2dVertex
10
298.7943045078
20
164.7084766419
0
VERTEX
5
2D6
100
AcDbEntity
8
0
100
AcDbVertex
62
7
6
CONTINUOUS
100
AcDb2dVertex
10
298.9194239957
20
164.8131517525
0
VERTEX
5
2D7
100
AcDbEntity
8
0
100
AcDbVertex
62
7
6
CONTINUOUS
100
AcDb2dVertex
10
299.0265978370
20
164.9353541116
0
VERTEX
5
2D8
100
AcDbEntity
8
0
100
AcDbVertex
62
7
6
CONTINUOUS
100
AcDb2dVertex
10
299.1124750030
20
165.0726686634
0
VERTEX
5
2D9
100
AcDbEntity
8
0
100
AcDbVertex
62
7
6
CONTINUOUS
100
AcDb2dVertex
10
299.1757393350
20
165.2212364014
0
VERTEX
5
2DA
100
AcDbEntity
8
0
100
AcDbVertex
62
7
6
CONTINUOUS
100
AcDb2dVertex
10
299.2136535190
20
165.3758102974
0
VERTEX
5
2DB
100
AcDbEntity
8
0
100
AcDbVertex
62
7
6
CONTINUOUS
100
AcDb2dVertex
10
299.2271299929
20
165.5381393608
0
SEQEND
5
2DC
100
AcDbEntity
8
0
0
POLYLINE
5
2DD
100
AcDbEntity
8
0
100
AcDb2dPolyline
62
7
6
CONTINUOUS
66
1
70
0
0
VERTEX
5
2DE
100
AcDbEntity
8
0
100
AcDbVertex
62
7
6
CONTINUOUS
100
AcDb2dVertex
10
296.3571299929
20
165.2607024088
0
VERTEX
5
2DF
100
AcDbEntity
8
0
100
AcDbVertex
62
7
6
CONTINUOUS
100
AcDb2dVertex
10
296.1723947064
20
165.2479342729
0
VERTEX
5
2E0
100
AcDbEntity
8
0
100
AcDbVertex
62
7
6
CONTINUOUS
100
AcDb2dVertex
10
295.9945274792
20
165.2114939802
0
VERTEX
5
2E1
100
AcDbEntity
8
0
100
AcDbVertex
62
7
6
CONTINUOUS
100
AcDb2dVertex
10
295.8219413845
20
165.1507001418
0
VERTEX
5
2E2
100
AcDbEntity
8
0
100
AcDbVertex
62
7
6
CONTINUOUS
100
AcDb2dVertex
10
295.6593972028
20
165.0675969248
0
VERTEX
5
2E3
100
AcDbEntity
8
0
100
AcDbVertex
62
7
6
CONTINUOUS
100
AcDb2dVertex
10
295.5116557145
20
164.9642284962
0
VERTEX
5
2E4
100
AcDbEntity
8
0
100
AcDbVertex
62
7
6
CONTINUOUS
100
AcDb2dVertex
10
295.3771299929
20
164.8399134671
0
SEQEND
5
2E5
100
AcDbEntity
8
0
0
LINE
5
2E6
100
AcDbEntity
8
0
100
AcDbLine
62
7
6
CONTINUOUS
10
292.5771299929
20
164.5126198418
11
294.3971299929
21
164.5126198418
0
LINE
5
2E7
100
AcDbEntity
8
0
100
AcDbLine
62
7
6
CONTINUOUS
10
296.3571299929
20
164.5126198418
11
298.1771299929
21
164.5126198418
0
LINE
5
2E8
100
AcDbEntity
8
0
100
AcDbLine
62
7
6
CONTINUOUS
10
292.5771299929
20
164.5770227294
11
294.3971299929
21
164.5770227294
0
LINE
5
2E9
100
AcDbEntity
8
0
100
AcDbLine
62
7
6
CONTINUOUS
10
296.3571299929
20
164.5770227294
11
298.1771299929
21
164.5770227294
0
LINE
5
2EA
100
AcDbEntity
8
0
100
AcDbLine
62
7
6
CONTINUOUS
10
298.1771299929
20
165.2607024088
11
296.3571299929
21
165.2607024088
0
LINE
5
2EB
100
AcDbEntity
8
0
100
AcDbLine
62
7
6
CONTINUOUS
10
294.3971299929
20
165.2607024088
11
292.5771299929
21
165.2607024088
0
LINE
5
2EC
100
AcDbEntity
8
0
100
AcDbLine
62
7
6
CONTINUOUS
10
294.1171299929
20
165.8799792005
11
296.6371299929
21
165.8799792005
0
LINE
5
2ED
100
AcDbEntity
8
0
100
AcDbLine
62
7
6
CONTINUOUS
10
294.1171299929
20
165.9443820881
11
296.6371299929
21
165.9443820881
0
LINE
5
2EE
100
AcDbEntity
8
0
100
AcDbLine
62
7
6
CONTINUOUS
10
296.0771299929
20
166.4913258316
11
294.6771299929
21
166.4913258316
0
LINE
5
2EF
100
AcDbEntity
8
0
100
AcDbLine
62
7
6
CONTINUOUS
10
295.0971299929
20
167.5208104309
11
295.6571299929
21
167.5208104309
0
LINE
5
2F0
100
AcDbEntity
8
0
100
AcDbLine
62
7
6
CONTINUOUS
10
295.0971299929
20
167.5852133185
11
295.6571299929
21
167.5852133185
0
LINE
5
2F1
100
AcDbEntity
8
0
100
AcDbLine
62
7
6
CONTINUOUS
10
294.6771299929
20
168.0677541743
11
295.0971299929
21
168.0677541743
0
LINE
5
2F2
100
AcDbEntity
8
0
100
AcDbLine
62
7
6
CONTINUOUS
10
295.6571299929
20
168.0677541743
11
296.0771299929
21
168.0677541743
0
LINE
5
2F3
100
AcDbEntity
8
0
100
AcDbLine
62
7
6
CONTINUOUS
10
294.6771299929
20
168.1321570619
11
295.0971299929
21
168.1321570619
0
LINE
5
2F4
100
AcDbEntity
8
0
100
AcDbLine
62
7
6
CONTINUOUS
10
295.6571299929
20
168.1321570619
11
296.0771299929
21
168.1321570619
0
LINE
5
2F5
100
AcDbEntity
8
0
100
AcDbLine
62
7
6
CONTINUOUS
10
296.6371299929
20
168.6791008054
11
295.6571299929
21
168.6791008054
0
LINE
5
2F6
100
AcDbEntity
8
0
100
AcDbLine
62
7
6
CONTINUOUS
10
295.0971299929
20
168.6791008054
11
294.1171299929
21
168.6791008054
0
LINE
5
2F7
100
AcDbEntity
8
0
100
AcDbLine
62
7
6
CONTINUOUS
10
294.1171299929
20
169.2983775971
11
295.0971299929
21
169.2983775971
0
LINE
5
2F8
100
AcDbEntity
8
0
100
AcDbLine
62
7
6
CONTINUOUS
10
295.6571299929
20
169.2983775971
11
296.6371299929
21
169.2983775971
0
LINE
5
2F9
100
AcDbEntity
8
0
100
AcDbLine
62
7
6
CONTINUOUS
10
294.1171299929
20
169.3627804847
11
295.0971299929
21
169.3627804847
0
LINE
5
2FA
100
AcDbEntity
8
0
100
AcDbLine
62
7
6
CONTINUOUS
10
295.6571299929
20
169.3627804847
11
296.6371299929
21
169.3627804847
0
POLYLINE
5
2FB
100
AcDbEntity
8
0
100
AcDb2dPolyline
62
7
6
CONTINUOUS
66
1
70
0
0
VERTEX
5
2FC
100
AcDbEntity
8
0
100
AcDbVertex
62
7
6
CONTINUOUS
100
AcDb2dVertex
10
294.3971299929
20
164.5770227294
0
VERTEX
5
2FD
100
AcDbEntity
8
0
100
AcDbVertex
62
7
6
CONTINUOUS
100
AcDb2dVertex
10
294.5651804924
20
164.5536526079
0
VERTEX
5
2FE
100
AcDbEntity
8
0
100
AcDbVertex
62
7
6
CONTINUOUS
100
AcDb2dVertex
10
294.7121299929
20
164.4945865914
0
VERTEX
5
2FF
100
AcDbEntity
8
0
100
AcDbVertex
62
7
6
CONTINUOUS
100
AcDb2dVertex
10
294.8418402454
20
164.3960529649
0
VERTEX
5
300
100
AcDbEntity
8
0
100
AcDbVertex
62
7
6
CONTINUOUS
100
AcDb2dVertex
10
294.9427259973
20
164.2693668738
0
VERTEX
5
301
100
AcDbEntity
8
0
100
AcDbVertex
62
7
6
CONTINUOUS
100
AcDb2dVertex
10
295.0032019962
20
164.1258434632
0
VERTEX
5
302
100
AcDbEntity
8
0
100
AcDbVertex
62
7
6
CONTINUOUS
100
AcDb2dVertex
10
295.0271299929
20
163.9617110181
0
SEQEND
5
303
100
AcDbEntity
8
0
0
POLYLINE
5
304
100
AcDbEntity
8
0
100
AcDb2dPolyline
62
7
6
CONTINUOUS
66
1
70
0
0
VERTEX
5
305
100
AcDbEntity
8
0
100
AcDbVertex
62
7
6
CONTINUOUS
100
AcDb2dVertex
10
292.5771299929
20
165.2607024088
0
VERTEX
5
306
100
AcDbEntity
8
0
100
AcDbVertex
62
7
6
CONTINUOUS
100
AcDb2dVertex
10
292.4837686043
20
165.2736858097
0
VERTEX
5
307
100
AcDbEntity
8
0
100
AcDbVertex
62
7
6
CONTINUOUS
100
AcDb2dVertex
10
292.4021299929
20
165.3065002633
0
VERTEX
5
308
100
AcDbEntity
8
0
100
AcDbVertex
62
7
6
CONTINUOUS
100
AcDb2dVertex
10
292.3300687415
20
165.3612411669
0
VERTEX
5
309
100
AcDbEntity
8
0
100
AcDbVertex
62
7
6
CONTINUOUS
100
AcDb2dVertex
10
292.2740211016
20
165.4316223286
0
VERTEX
5
30A
100
AcDbEntity
8
0
100
AcDbVertex
62
7
6
CONTINUOUS
100
AcDb2dVertex
10
292.2404233244
20
165.5113575567
0
SEQEND
5
30B
100
AcDbEntity
8
0
0
POLYLINE
5
30C
100
AcDbEntity
8
0
100
AcDb2dPolyline
62
7
6
CONTINUOUS
66
1
70
0
0
VERTEX
5
30D
100
AcDbEntity
8
0
100
AcDbVertex
62
7
6
CONTINUOUS
100
AcDb2dVertex
10
295.3771299929
20
164.8399134671
0
VERTEX
5
30E
100
AcDbEntity
8
0
100
AcDbVertex
62
7
6
CONTINUOUS
100
AcDb2dVertex
10
295.2426042713
20
164.9642284962
0
VERTEX
5
30F
100
AcDbEntity
8
0
100
AcDbVertex
62
7
6
CONTINUOUS
100
AcDb2dVertex
10
295.0948627830
20
165.0675969248
0
VERTEX
5
310
100
AcDbEntity
8
0
100
AcDbVertex
62
7
6
CONTINUOUS
100
AcDb2dVertex
10
294.9323186013
20
165.1507001418
0
VERTEX
5
311
100
AcDbEntity
8
0
100
AcDbVertex
62
7
6
CONTINUOUS
100
AcDb2dVertex
10
294.7597325066
20
165.2114939802
0
VERTEX
5
312
100
AcDbEntity
8
0
100
AcDbVertex
62
7
6
CONTINUOUS
100
AcDb2dVertex
10
294.5818652794
20
165.2479342729
0
VERTEX
5
313
100
AcDbEntity
8
0
100
AcDbVertex
62
7
6
CONTINUOUS
100
AcDb2dVertex
10
294.3971299929
20
165.2607024088
0
SEQEND
5
314
100
AcDbEntity
8
0
0
LINE
5
315
100
AcDbEntity
8
0
100
AcDbLine
62
7
6
CONTINUOUS
10
293.8167133749
20
174.4903780797
11
293.3573383749
21
175.6613613632
0
LINE
5
316
100
AcDbEntity
8
0
100
AcDbLine
62
7
6
CONTINUOUS
10
293.0510883019
20
175.4951338547
11
293.4594216109
21
174.4259751921
0
LINE
5
317
100
AcDbEntity
8
0
100
AcDbLine
62
7
6
CONTINUOUS
10
293.0510883019
20
175.5595367423
11
293.4594216109
21
174.4903780797
0
LINE
5
318
100
AcDbEntity
8
0
100
AcDbLine
62
7
6
CONTINUOUS
10
293.4083799929
20
176.4115555859
11
293.4400615200
21
176.3167517881
0
LINE
5
319
100
AcDbEntity
8
0
100
AcDbLine
62
7
6
CONTINUOUS
10
293.4083799929
20
176.4759584735
11
293.4594216109
21
176.3232215421
0
POLYLINE
5
31A
100
AcDbEntity
8
0
100
AcDb2dPolyline
62
7
6
CONTINUOUS
66
1
70
0
0
VERTEX
5
31B
100
AcDbEntity
8
0
100
AcDbVertex
62
7
6
CONTINUOUS
100
AcDb2dVertex
10
291.5127949041
20
172.5107315016
0
VERTEX
5
31C
100
AcDbEntity
8
0
100
AcDbVertex
62
7
6
CONTINUOUS
100
AcDb2dVertex
10
291.4738456657
20
172.6365690404
0
VERTEX
5
31D
100
AcDbEntity
8
0
100
AcDbVertex
62
7
6
CONTINUOUS
100
AcDb2dVertex
10
291.4088384538
20
172.7545592260
0
VERTEX
5
31E
100
AcDbEntity
8
0
100
AcDbVertex
62
7
6
CONTINUOUS
100
AcDb2dVertex
10
291.3221047397
20
172.8583706915
0
VERTEX
5
31F
100
AcDbEntity
8
0
100
AcDbVertex
62
7
6
CONTINUOUS
100
AcDb2dVertex
10
291.2158151599
20
172.9430822312
0
VERTEX
5
320
100
AcDbEntity
8
0
100
AcDbVertex
62
7
6
CONTINUOUS
100
AcDb2dVertex
10
291.0950083956
20
173.0065738166
0
VERTEX
5
321
100
AcDbEntity
8
0
100
AcDbVertex
62
7
6
CONTINUOUS
100
AcDb2dVertex
10
290.9661669515
20
173.0446149635
0
VERTEX
5
322
100
AcDbEntity
8
0
100
AcDbVertex
62
7
6
CONTINUOUS
100
AcDb2dVertex
10
290.8271299929
20
173.0586158334
0
SEQEND
5
323
100
AcDbEntity
8
0
0
POLYLINE
5
324
100
AcDbEntity
8
0
100
AcDb2dPolyline
62
7
6
CONTINUOUS
66
1
70
0
0
VERTEX
5
325
100
AcDbEntity
8
0
100
AcDbVertex
62
7
6
CONTINUOUS
100
AcDb2dVertex
10
295.0142284130
20
164.0195239433
0
VERTEX
5
326
100
AcDbEntity
8
0
100
AcDbVertex
62
7
6
CONTINUOUS
100
AcDb2dVertex
10
294.9791740984
20
164.1327777281
0
VERTEX
5
327
100
AcDbEntity
8
0
100
AcDbVertex
62
7
6
CONTINUOUS
100
AcDb2dVertex
10
294.9206676077
20
164.2389688952
0
VERTEX
5
328
100
AcDbEntity
8
0
100
AcDbVertex
62
7
6
CONTINUOUS
100
AcDb2dVertex
10
294.8426072651
20
164.3323992141
0
VERTEX
5
329
100
AcDbEntity
8
0
100
AcDbVertex
62
7
6
CONTINUOUS
100
AcDb2dVertex
10
294.7469466432
20
164.4086395998
0
VERTEX
5
32A
100
AcDbEntity
8
0
100
AcDbVertex
62
7
6
CONTINUOUS
100
AcDb2dVertex
10
294.6382205553
20
164.4657820267
0
VERTEX
5
32B
100
AcDbEntity
8
0
100
AcDbVertex
62
7
6
CONTINUOUS
100
AcDb2dVertex
10
294.5222632557
20
164.5000190590
0
VERTEX
5
32C
100
AcDbEntity
8
0
100
AcDbVertex
62
7
6
CONTINUOUS
100
AcDb2dVertex
10
294.3971299929
20
164.5126198418
0
SEQEND
5
32D
100
AcDbEntity
8
0
0
LINE
5
32E
100
AcDbEntity
8
0
100
AcDbLine
62
7
6
CONTINUOUS
10
294.2250466109
20
175.2405722310
11
294.2760883749
21
174.9860106786
0
LINE
5
32F
100
AcDbEntity
8
0
100
AcDbLine
62
7
6
CONTINUOUS
10
294.2250466109
20
175.3049751186
11
294.2760883749
21
175.0504135662
0
LINE
5
330
100
AcDbEntity
8
0
100
AcDbLine
62
7
6
CONTINUOUS
10
292.2404233244
20
165.5113575567
11
292.2271299929
21
165.6025422484
0
LINE
5
331
100
AcDbEntity
8
0
100
AcDbLine
62
7
6
CONTINUOUS
10
302.1338405101
20
134.6274886595
11
300.9850286715
21
148.1169281129
0
LINE
5
332
100
AcDbEntity
8
0
100
AcDbLine
62
7
6
CONTINUOUS
10
296.4708799929
20
174.4259751921
11
296.4708799929
21
176.8832569573
0
LINE
5
333
100
AcDbEntity
8
0
100
AcDbLine
62
7
6
CONTINUOUS
10
296.6371299929
20
165.8799792005
11
296.6371299929
21
168.6791008054
0
LINE
5
334
100
AcDbEntity
8
0
100
AcDbLine
62
7
6
CONTINUOUS
10
296.6371299929
20
169.2983775971
11
296.6371299929
21
172.0974992020
0
LINE
5
335
100
AcDbEntity
8
0
100
AcDbLine
62
7
6
CONTINUOUS
10
296.7771299929
20
174.7958519782
11
296.7771299929
21
176.5777830944
0
LINE
5
336
100
AcDbEntity
8
0
100
AcDbLine
62
7
6
CONTINUOUS
10
297.6958799929
20
174.4259751921
11
297.6958799929
21
174.4903780797
0
LINE
5
337
100
AcDbEntity
8
0
100
AcDbLine
62
7
6
CONTINUOUS
10
297.6958799929
20
176.5133802068
11
297.6958799929
21
176.5777830944
0
LINE
5
338
100
AcDbEntity
8
0
100
AcDbLine
62
7
6
CONTINUOUS
10
297.9000464649
20
176.4624678964
11
297.9000464649
21
176.5268707840
0
LINE
5
339
100
AcDbEntity
8
0
100
AcDbLine
62
7
6
CONTINUOUS
10
297.9510885210
20
174.4768875070
11
297.9510885210
21
174.5412903946
0
LINE
5
33A
100
AcDbEntity
8
0
100
AcDbLine
62
7
6
CONTINUOUS
10
298.0531714649
20
176.3606432754
11
298.0531714649
21
176.4250461630
0
LINE
5
33B
100
AcDbEntity
8
0
100
AcDbLine
62
7
6
CONTINUOUS
10
298.1552549929
20
174.5787121413
11
298.1552549929
21
174.6431150289
0
LINE
5
33C
100
AcDbEntity
8
0
100
AcDbLine
62
7
6
CONTINUOUS
10
298.1552549929
20
176.2079062013
11
298.1552549929
21
176.2723090890
0
LINE
5
33D
100
AcDbEntity
8
0
100
AcDbLine
62
7
6
CONTINUOUS
10
298.2062964649
20
176.0686598471
11
298.2062964649
21
175.3049751186
0
LINE
5
33E
100
AcDbEntity
8
0
100
AcDbLine
62
7
6
CONTINUOUS
10
298.3594214649
20
174.7823614010
11
298.3594214649
21
174.8467642887
0
LINE
5
33F
100
AcDbEntity
8
0
100
AcDbLine
62
7
6
CONTINUOUS
10
298.4615049929
20
174.9860106786
11
298.4615049929
21
175.0504135662
0
LINE
5
340
100
AcDbEntity
8
0
100
AcDbLine
62
7
6
CONTINUOUS
10
298.5125464649
20
175.3049751186
11
298.5125464649
21
176.0686598471
0
LINE
5
341
100
AcDbEntity
8
0
100
AcDbLine
62
7
6
CONTINUOUS
10
298.5271299929
20
172.4393390417
11
298.5271299929
21
165.6025422484
0
LINE
5
342
100
AcDbEntity
8
0
100
AcDbLine
62
7
6
CONTINUOUS
10
299.2271299929
20
165.6025422484
11
299.2271299929
21
172.4393390417
0
LINE
5
343
100
AcDbEntity
8
0
100
AcDbLine
62
7
6
CONTINUOUS
10
299.3771299929
20
196.0912528408
11
299.3771299929
21
181.5494584836
0
LINE
5
344
100
AcDbEntity
8
0
100
AcDbLine
62
7
6
CONTINUOUS
10
299.8771299929
20
178.9620958249
11
299.8771299929
21
196.0912528408
0
LINE
5
345
100
AcDbEntity
8
0
100
AcDbLine
62
7
6
CONTINUOUS
10
300.2771299929
20
173.0586158334
11
300.2771299929
21
173.8066984003
0
LINE
5
346
100
AcDbEntity
8
0
100
AcDbLine
62
7
6
CONTINUOUS
10
300.7396754967
20
152.9122527649
11
300.7396754967
21
152.4383676074
0
LINE
5
347
100
AcDbEntity
8
0
100
AcDbLine
62
7
6
CONTINUOUS
10
301.3771299929
20
211.7670060103
11
301.3771299929
21
250.1153461795
0
POLYLINE
5
348
100
AcDbEntity
8
0
100
AcDb2dPolyline
62
7
6
CONTINUOUS
66
1
70
0
0
VERTEX
5
349
100
AcDbEntity
8
0
100
AcDbVertex
62
7
6
CONTINUOUS
100
AcDb2dVertex
10
295.7271299929
20
163.9617110181
0
VERTEX
5
34A
100
AcDbEntity
8
0
100
AcDbVertex
62
7
6
CONTINUOUS
100
AcDb2dVertex
10
295.7510579896
20
164.1258434632
0
VERTEX
5
34B
100
AcDbEntity
8
0
100
AcDbVertex
62
7
6
CONTINUOUS
100
AcDb2dVertex
10
295.8115339885
20
164.2693668738
0
VERTEX
5
34C
100
AcDbEntity
8
0
100
AcDbVertex
62
7
6
CONTINUOUS
100
AcDb2dVertex
10
295.9124197404
20
164.3960529649
0
VERTEX
5
34D
100
AcDbEntity
8
0
100
AcDbVertex
62
7
6
CONTINUOUS
100
AcDb2dVertex
10
296.0421299929
20
164.4945865914
0
VERTEX
5
34E
100
AcDbEntity
8
0
100
AcDbVertex
62
7
6
CONTINUOUS
100
AcDb2dVertex
10
296.1890794935
20
164.5536526079
0
VERTEX
5
34F
100
AcDbEntity
8
0
100
AcDbVertex
62
7
6
CONTINUOUS
100
AcDb2dVertex
10
296.3571299929
20
164.5770227294
0
SEQEND
5
350
100
AcDbEntity
8
0
0
POLYLINE
5
351
100
AcDbEntity
8
0
100
AcDb2dPolyline
62
7
6
CONTINUOUS
66
1
70
0
0
VERTEX
5
352
100
AcDbEntity
8
0
100
AcDbVertex
62
7
6
CONTINUOUS
100
AcDb2dVertex
10
299.2271299929
20
172.4393390417
0
VERTEX
5
353
100
AcDbEntity
8
0
100
AcDbVertex
62
7
6
CONTINUOUS
100
AcDb2dVertex
10
299.2537166559
20
172.6217084251
0
VERTEX
5
354
100
AcDbEntity
8
0
100
AcDbVertex
62
7
6
CONTINUOUS
100
AcDb2dVertex
10
299.3209122103
20
172.7811788814
0
VERTEX
5
355
100
AcDbEntity
8
0
100
AcDbVertex
62
7
6
CONTINUOUS
100
AcDb2dVertex
10
299.4330074902
20
172.9219412049
0
VERTEX
5
356
100
AcDbEntity
8
0
100
AcDbVertex
62
7
6
CONTINUOUS
100
AcDb2dVertex
10
299.5771299929
20
173.0314230120
0
VERTEX
5
357
100
AcDbEntity
8
0
100
AcDbVertex
62
7
6
CONTINUOUS
100
AcDb2dVertex
10
299.7404072157
20
173.0970519192
0
VERTEX
5
358
100
AcDbEntity
8
0
100
AcDbVertex
62
7
6
CONTINUOUS
100
AcDb2dVertex
10
299.9271299929
20
173.1230187210
0
SEQEND
5
359
100
AcDbEntity
8
0
0
POLYLINE
5
35A
100
AcDbEntity
8
0
100
AcDb2dPolyline
62
7
6
CONTINUOUS
66
1
70
0
0
VERTEX
5
35B
100
AcDbEntity
8
0
100
AcDbVertex
62
7
6
CONTINUOUS
100
AcDb2dVertex
10
298.5271299929
20
165.6025422484
0
VERTEX
5
35C
100
AcDbEntity
8
0
100
AcDbVertex
62
7
6
CONTINUOUS
100
AcDb2dVertex
10
298.5138366614
20
165.5113575567
0
VERTEX
5
35D
100
AcDbEntity
8
0
100
AcDbVertex
62
7
6
CONTINUOUS
100
AcDb2dVertex
10
298.4802388842
20
165.4316223286
0
VERTEX
5
35E
100
AcDbEntity
8
0
100
AcDbVertex
62
7
6
CONTINUOUS
100
AcDb2dVertex
10
298.4241912443
20
165.3612411669
0
VERTEX
5
35F
100
AcDbEntity
8
0
100
AcDbVertex
62
7
6
CONTINUOUS
100
AcDb2dVertex
10
298.3521299929
20
165.3065002633
0
VERTEX
5
360
100
AcDbEntity
8
0
100
AcDbVertex
62
7
6
CONTINUOUS
100
AcDb2dVertex
10
298.2704913815
20
165.2736858097
0
VERTEX
5
361
100
AcDbEntity
8
0
100
AcDbVertex
62
7
6
CONTINUOUS
100
AcDb2dVertex
10
298.1771299929
20
165.2607024088
0
SEQEND
5
362
100
AcDbEntity
8
0
0
LINE
5
363
100
AcDbEntity
8
0
100
AcDbLine
62
7
6
CONTINUOUS
10
298.4615049929
20
175.0504135662
11
298.5125464649
21
175.3049751186
0
LINE
5
364
100
AcDbEntity
8
0
100
AcDbLine
62
7
6
CONTINUOUS
10
298.4615049929
20
174.9860106786
11
298.5125464649
21
175.2405722310
0
LINE
5
365
100
AcDbEntity
8
0
100
AcDbLine
62
7
6
CONTINUOUS
10
298.2062964649
20
175.3049751186
11
298.1552549929
21
175.1013258767
0
POLYLINE
5
366
100
AcDbEntity
8
0
100
AcDb2dPolyline
62
7
6
CONTINUOUS
66
1
70
0
0
VERTEX
5
367
100
AcDbEntity
8
0
100
AcDbVertex
62
7
6
CONTINUOUS
100
AcDb2dVertex
10
298.7146944276
20
173.1230187210
0
VERTEX
5
368
100
AcDbEntity
8
0
100
AcDbVertex
62
7
6
CONTINUOUS
100
AcDb2dVertex
10
298.6581307609
20
173.0167873217
0
VERTEX
5
369
100
AcDbEntity
8
0
100
AcDbVertex
62
7
6
CONTINUOUS
100
AcDb2dVertex
10
298.6115603238
20
172.9070034855
0
VERTEX
5
36A
100
AcDbEntity
8
0
100
AcDbVertex
62
7
6
CONTINUOUS
100
AcDb2dVertex
10
298.5748631714
20
172.7932300081
0
VERTEX
5
36B
100
AcDbEntity
8
0
100
AcDbVertex
62
7
6
CONTINUOUS
100
AcDb2dVertex
10
298.5483991387
20
172.6767785025
0
VERTEX
5
36C
100
AcDbEntity
8
0
100
AcDbVertex
62
7
6
CONTINUOUS
100
AcDb2dVertex
10
298.5325280609
20
172.5589605818
0
VERTEX
5
36D
100
AcDbEntity
8
0
100
AcDbVertex
62
7
6
CONTINUOUS
100
AcDb2dVertex
10
298.5271299929
20
172.4393390417
0
SEQEND
5
36E
100
AcDbEntity
8
0
0
LINE
5
36F
100
AcDbEntity
8
0
100
AcDbLine
62
7
6
CONTINUOUS
10
297.9000464649
20
174.8467642887
11
297.6958799929
21
174.7958519782
0
LINE
5
370
100
AcDbEntity
8
0
100
AcDbLine
62
7
6
CONTINUOUS
10
295.4500467569
20
174.8467642887
11
295.2458799929
21
174.7958519782
0
LINE
5
371
100
AcDbEntity
8
0
100
AcDbLine
62
7
6
CONTINUOUS
10
297.6958799929
20
174.4259751921
11
297.9510885210
21
174.4768875070
0
LINE
5
372
100
AcDbEntity
8
0
100
AcDbLine
62
7
6
CONTINUOUS
10
297.6958799929
20
174.4903780797
11
297.9510885210
21
174.5412903946
0
LINE
5
373
100
AcDbEntity
8
0
100
AcDbLine
62
7
6
CONTINUOUS
10
295.2458799929
20
174.4259751921
11
295.5010882289
21
174.4768875070
0
LINE
5
374
100
AcDbEntity
8
0
100
AcDbLine
62
7
6
CONTINUOUS
10
295.2458799929
20
174.4903780797
11
295.5010882289
21
174.5412903946
0
POLYLINE
5
375
100
AcDbEntity
8
0
100
AcDb2dPolyline
62
7
6
CONTINUOUS
66
1
70
0
0
VERTEX
5
376
100
AcDbEntity
8
0
100
AcDbVertex
62
7
6
CONTINUOUS
100
AcDb2dVertex
10
307.8521980118
20
174.6551821505
0
VERTEX
5
377
100
AcDbEntity
8
0
100
AcDbVertex
62
7
6
CONTINUOUS
100
AcDb2dVertex
10
306.8810037150
20
174.5473958612
0
VERTEX
5
378
100
AcDbEntity
8
0
100
AcDbVertex
62
7
6
CONTINUOUS
100
AcDb2dVertex
10
305.9381218189
20
174.3412104612
0
VERTEX
5
379
100
AcDbEntity
8
0
100
AcDbVertex
62
7
6
CONTINUOUS
100
AcDb2dVertex
10
305.0182858721
20
174.0345529409
0
VERTEX
5
37A
100
AcDbEntity
8
0
100
AcDbVertex
62
7
6
CONTINUOUS
100
AcDb2dVertex
10
304.1372952287
20
173.6336423297
0
VERTEX
5
37B
100
AcDbEntity
8
0
100
AcDbVertex
62
7
6
CONTINUOUS
100
AcDb2dVertex
10
303.3063377751
20
173.1416323821
0
VERTEX
5
37C
100
AcDbEntity
8
0
100
AcDbVertex
62
7
6
CONTINUOUS
100
AcDb2dVertex
10
302.5339814626
20
172.5656459134
0
VERTEX
5
37D
100
AcDbEntity
8
0
100
AcDbVertex
62
7
6
CONTINUOUS
100
AcDb2dVertex
10
301.8301209221
20
171.9107853611
0
VERTEX
5
37E
100
AcDbEntity
8
0
100
AcDbVertex
62
7
6
CONTINUOUS
100
AcDb2dVertex
10
301.2019640006
20
171.1862656128
0
VERTEX
5
37F
100
AcDbEntity
8
0
100
AcDbVertex
62
7
6
CONTINUOUS
100
AcDb2dVertex
10
300.6584953104
20
170.3997319725
0
VERTEX
5
380
100
AcDbEntity
8
0
100
AcDbVertex
62
7
6
CONTINUOUS
100
AcDb2dVertex
10
300.2042791869
20
169.5609956282
0
VERTEX
5
381
100
AcDbEntity
8
0
100
AcDbVertex
62
7
6
CONTINUOUS
100
AcDb2dVertex
10
299.8459974385
20
168.6786661939
0
VERTEX
5
382
100
AcDbEntity
8
0
100
AcDbVertex
62
7
6
CONTINUOUS
100
AcDb2dVertex
10
299.5862822585
20
167.7639936957
0
VERTEX
5
383
100
AcDbEntity
8
0
100
AcDbVertex
62
7
6
CONTINUOUS
100
AcDb2dVertex
10
299.4300093011
20
166.8274247332
0
VERTEX
5
384
100
AcDbEntity
8
0
100
AcDbVertex
62
7
6
CONTINUOUS
100
AcDb2dVertex
10
299.3771299929
20
165.8799792005
0
VERTEX
5
385
100
AcDbEntity
8
0
100
AcDbVertex
62
7
6
CONTINUOUS
100
AcDb2dVertex
10
299.4300093011
20
164.9325336677
0
VERTEX
5
386
100
AcDbEntity
8
0
100
AcDbVertex
62
7
6
CONTINUOUS
100
AcDb2dVertex
10
299.5862822585
20
163.9959647053
0
VERTEX
5
387
100
AcDbEntity
8
0
100
AcDbVertex
62
7
6
CONTINUOUS
100
AcDb2dVertex
10
299.8459974385
20
163.0812922071
0
VERTEX
5
388
100
AcDbEntity
8
0
100
AcDbVertex
62
7
6
CONTINUOUS
100
AcDb2dVertex
10
300.2042791869
20
162.1989627727
0
VERTEX
5
389
100
AcDbEntity
8
0
100
AcDbVertex
62
7
6
CONTINUOUS
100
AcDb2dVertex
10
300.6584953104
20
161.3602264284
0
VERTEX
5
38A
100
AcDbEntity
8
0
100
AcDbVertex
62
7
6
CONTINUOUS
100
AcDb2dVertex
10
301.2019640006
20
160.5736927882
0
VERTEX
5
38B
100
AcDbEntity
8
0
100
AcDbVertex
62
7
6
CONTINUOUS
100
AcDb2dVertex
10
301.8301209221
20
159.8491730398
0
VERTEX
5
38C
100
AcDbEntity
8
0
100
AcDbVertex
62
7
6
CONTINUOUS
100
AcDb2dVertex
10
302.5339814626
20
159.1943124876
0
VERTEX
5
38D
100
AcDbEntity
8
0
100
AcDbVertex
62
7
6
CONTINUOUS
100
AcDb2dVertex
10
303.3063377751
20
158.6183260189
0
VERTEX
5
38E
100
AcDbEntity
8
0
100
AcDbVertex
62
7
6
CONTINUOUS
100
AcDb2dVertex
10
304.1372952287
20
158.1263160713
0
VERTEX
5
38F
100
AcDbEntity
8
0
100
AcDbVertex
62
7
6
CONTINUOUS
100
AcDb2dVertex
10
305.0182858721
20
157.7254054601
0
VERTEX
5
390
100
AcDbEntity
8
0
100
AcDbVertex
62
7
6
CONTINUOUS
100
AcDb2dVertex
10
305.9381218189
20
157.4187479397
0
VERTEX
5
391
100
AcDbEntity
8
0
100
AcDbVertex
62
7
6
CONTINUOUS
100
AcDb2dVertex
10
306.8810037150
20
157.2125625398
0
VERTEX
5
392
100
AcDbEntity
8
0
100
AcDbVertex
62
7
6
CONTINUOUS
100
AcDb2dVertex
10
307.8521980118
20
157.1047762505
0
SEQEND
5
393
100
AcDbEntity
8
0
0
POLYLINE
5
394
100
AcDbEntity
8
0
100
AcDb2dPolyline
62
7
6
CONTINUOUS
66
1
70
0
0
VERTEX
5
395
100
AcDbEntity
8
0
100
AcDbVertex
62
7
6
CONTINUOUS
100
AcDb2dVertex
10
299.9271299929
20
173.0586158334
0
VERTEX
5
396
100
AcDbEntity
8
0
100
AcDbVertex
62
7
6
CONTINUOUS
100
AcDb2dVertex
10
299.7880930343
20
173.0446149635
0
VERTEX
5
397
100
AcDbEntity
8
0
100
AcDbVertex
62
7
6
CONTINUOUS
100
AcDb2dVertex
10
299.6592515903
20
173.0065738166
0
VERTEX
5
398
100
AcDbEntity
8
0
100
AcDbVertex
62
7
6
CONTINUOUS
100
AcDb2dVertex
10
299.5384448259
20
172.9430822312
0
VERTEX
5
399
100
AcDbEntity
8
0
100
AcDbVertex
62
7
6
CONTINUOUS
100
AcDb2dVertex
10
299.4321552461
20
172.8583706915
0
VERTEX
5
39A
100
AcDbEntity
8
0
100
AcDbVertex
62
7
6
CONTINUOUS
100
AcDb2dVertex
10
299.3454215321
20
172.7545592260
0
VERTEX
5
39B
100
AcDbEntity
8
0
100
AcDbVertex
62
7
6
CONTINUOUS
100
AcDb2dVertex
10
299.2804143202
20
172.6365690404
0
VERTEX
5
39C
100
AcDbEntity
8
0
100
AcDbVertex
62
7
6
CONTINUOUS
100
AcDb2dVertex
10
299.2414650817
20
172.5107315016
0
VERTEX
5
39D
100
AcDbEntity
8
0
100
AcDbVertex
62
7
6
CONTINUOUS
100
AcDb2dVertex
10
299.2338536869
20
172.4386292622
0
SEQEND
5
39E
100
AcDbEntity
8
0
0
LINE
5
39F
100
AcDbEntity
8
0
100
AcDbLine
62
7
6
CONTINUOUS
10
296.0771299929
20
169.9097242282
11
295.6571299929
21
169.9097242282
0
LINE
5
3A0
100
AcDbEntity
8
0
100
AcDbLine
62
7
6
CONTINUOUS
10
295.0971299929
20
169.9097242282
11
294.6771299929
21
169.9097242282
0
LINE
5
3A1
100
AcDbEntity
8
0
100
AcDbLine
62
7
6
CONTINUOUS
10
295.6571299929
20
170.4566679716
11
295.0971299929
21
170.4566679716
0
LINE
5
3A2
100
AcDbEntity
8
0
100
AcDbLine
62
7
6
CONTINUOUS
10
294.6771299929
20
171.4861525710
11
296.0771299929
21
171.4861525710
0
LINE
5
3A3
100
AcDbEntity
8
0
100
AcDbLine
62
7
6
CONTINUOUS
10
294.6771299929
20
171.5505554586
11
296.0771299929
21
171.5505554586
0
LINE
5
3A4
100
AcDbEntity
8
0
100
AcDbLine
62
7
6
CONTINUOUS
10
296.6371299929
20
172.0974992020
11
294.1171299929
21
172.0974992020
0
LINE
5
3A5
100
AcDbEntity
8
0
100
AcDbLine
62
7
6
CONTINUOUS
10
290.4771299929
20
173.0586158334
11
290.8271299929
21
173.0586158334
0
LINE
5
3A6
100
AcDbEntity
8
0
100
AcDbLine
62
7
6
CONTINUOUS
10
292.0738573354
20
173.0586158334
11
298.6804026505
21
173.0586158334
0
LINE
5
3A7
100
AcDbEntity
8
0
100
AcDbLine
62
7
6
CONTINUOUS
10
299.9271299929
20
173.0586158334
11
300.2771299929
21
173.0586158334
0
LINE
5
3A8
100
AcDbEntity
8
0
100
AcDbLine
62
7
6
CONTINUOUS
10
290.4771299929
20
173.1230187210
11
290.8271299929
21
173.1230187210
0
LINE
5
3A9
100
AcDbEntity
8
0
100
AcDbLine
62
7
6
CONTINUOUS
10
292.0395655582
20
173.1230187210
11
298.7146944276
21
173.1230187210
0
LINE
5
3AA
100
AcDbEntity
8
0
100
AcDbLine
62
7
6
CONTINUOUS
10
299.9271299929
20
173.1230187210
11
300.2771299929
21
173.1230187210
0
LINE
5
3AB
100
AcDbEntity
8
0
100
AcDbLine
62
7
6
CONTINUOUS
10
300.2771299929
20
173.8066984003
11
290.4771299929
21
173.8066984003
0
LINE
5
3AC
100
AcDbEntity
8
0
100
AcDbLine
62
7
6
CONTINUOUS
10
291.8771299929
20
174.4259751921
11
292.1833799929
21
174.4259751921
0
LINE
5
3AD
100
AcDbEntity
8
0
100
AcDbLine
62
7
6
CONTINUOUS
10
293.4594216109
20
174.4259751921
11
293.8167133749
21
174.4259751921
0
LINE
5
3AE
100
AcDbEntity
8
0
100
AcDbLine
62
7
6
CONTINUOUS
10
295.0417132289
20
174.4259751921
11
295.2458799929
21
174.4259751921
0
LINE
5
3AF
100
AcDbEntity
8
0
100
AcDbLine
62
7
6
CONTINUOUS
10
296.4708799929
20
174.4259751921
11
297.6958799929
21
174.4259751921
0
LINE
5
3B0
100
AcDbEntity
8
0
100
AcDbLine
62
7
6
CONTINUOUS
10
291.8771299929
20
174.4903780797
11
292.1833799929
21
174.4903780797
0
LINE
5
3B1
100
AcDbEntity
8
0
100
AcDbLine
62
7
6
CONTINUOUS
10
293.4594216109
20
174.4903780797
11
293.8167133749
21
174.4903780797
0
LINE
5
3B2
100
AcDbEntity
8
0
100
AcDbLine
62
7
6
CONTINUOUS
10
295.0417132289
20
174.4903780797
11
295.2458799929
21
174.4903780797
0
LINE
5
3B3
100
AcDbEntity
8
0
100
AcDbLine
62
7
6
CONTINUOUS
10
296.4708799929
20
174.4903780797
11
297.6958799929
21
174.4903780797
0
LINE
5
3B4
100
AcDbEntity
8
0
100
AcDbLine
62
7
6
CONTINUOUS
10
297.6958799929
20
174.7958519782
11
296.7771299929
21
174.7958519782
0
LINE
5
3B5
100
AcDbEntity
8
0
100
AcDbLine
62
7
6
CONTINUOUS
10
295.2458799929
20
174.7958519782
11
295.0417132289
21
174.7958519782
0
POLYLINE
5
3B6
100
AcDbEntity
8
0
100
AcDb2dPolyline
62
7
6
CONTINUOUS
66
1
70
0
0
VERTEX
5
3B7
100
AcDbEntity
8
0
100
AcDbVertex
62
7
6
CONTINUOUS
100
AcDb2dVertex
10
282.9020619741
20
174.6551821505
0
VERTEX
5
3B8
100
AcDbEntity
8
0
100
AcDbVertex
62
7
6
CONTINUOUS
100
AcDb2dVertex
10
283.8732562708
20
174.5473958612
0
VERTEX
5
3B9
100
AcDbEntity
8
0
100
AcDbVertex
62
7
6
CONTINUOUS
100
AcDb2dVertex
10
284.8161381669
20
174.3412104612
0
VERTEX
5
3BA
100
AcDbEntity
8
0
100
AcDbVertex
62
7
6
CONTINUOUS
100
AcDb2dVertex
10
285.7359741137
20
174.0345529409
0
VERTEX
5
3BB
100
AcDbEntity
8
0
100
AcDbVertex
62
7
6
CONTINUOUS
100
AcDb2dVertex
10
286.6169647571
20
173.6336423297
0
VERTEX
5
3BC
100
AcDbEntity
8
0
100
AcDbVertex
62
7
6
CONTINUOUS
100
AcDb2dVertex
10
287.4479222107
20
173.1416323821
0
VERTEX
5
3BD
100
AcDbEntity
8
0
100
AcDbVertex
62
7
6
CONTINUOUS
100
AcDb2dVertex
10
288.2202785232
20
172.5656459134
0
VERTEX
5
3BE
100
AcDbEntity
8
0
100
AcDbVertex
62
7
6
CONTINUOUS
100
AcDb2dVertex
10
288.9241390638
20
171.9107853611
0
VERTEX
5
3BF
100
AcDbEntity
8
0
100
AcDbVertex
62
7
6
CONTINUOUS
100
AcDb2dVertex
10
289.5522959852
20
171.1862656128
0
VERTEX
5
3C0
100
AcDbEntity
8
0
100
AcDbVertex
62
7
6
CONTINUOUS
100
AcDb2dVertex
10
290.0957646754
20
170.3997319725
0
VERTEX
5
3C1
100
AcDbEntity
8
0
100
AcDbVertex
62
7
6
CONTINUOUS
100
AcDb2dVertex
10
290.5499807989
20
169.5609956282
0
VERTEX
5
3C2
100
AcDbEntity
8
0
100
AcDbVertex
62
7
6
CONTINUOUS
100
AcDb2dVertex
10
290.9082625474
20
168.6786661939
0
VERTEX
5
3C3
100
AcDbEntity
8
0
100
AcDbVertex
62
7
6
CONTINUOUS
100
AcDb2dVertex
10
291.1679777273
20
167.7639936957
0
VERTEX
5
3C4
100
AcDbEntity
8
0
100
AcDbVertex
62
7
6
CONTINUOUS
100
AcDb2dVertex
10
291.3242506847
20
166.8274247332
0
VERTEX
5
3C5
100
AcDbEntity
8
0
100
AcDbVertex
62
7
6
CONTINUOUS
100
AcDb2dVertex
10
291.3771299929
20
165.8799792005
0
VERTEX
5
3C6
100
AcDbEntity
8
0
100
AcDbVertex
62
7
6
CONTINUOUS
100
AcDb2dVertex
10
291.3242506847
20
164.9325336677
0
VERTEX
5
3C7
100
AcDbEntity
8
0
100
AcDbVertex
62
7
6
CONTINUOUS
100
AcDb2dVertex
10
291.1679777273
20
163.9959647053
0
VERTEX
5
3C8
100
AcDbEntity
8
0
100
AcDbVertex
62
7
6
CONTINUOUS
100
AcDb2dVertex
10
290.9082625474
20
163.0812922071
0
VERTEX
5
3C9
100
AcDbEntity
8
0
100
AcDbVertex
62
7
6
CONTINUOUS
100
AcDb2dVertex
10
290.5499807989
20
162.1989627727
0
VERTEX
5
3CA
100
AcDbEntity
8
0
100
AcDbVertex
62
7
6
CONTINUOUS
100
AcDb2dVertex
10
290.0957646754
20
161.3602264284
0
VERTEX
5
3CB
100
AcDbEntity
8
0
100
AcDbVertex
62
7
6
CONTINUOUS
100
AcDb2dVertex
10
289.5522959852
20
160.5736927882
0
VERTEX
5
3CC
100
AcDbEntity
8
0
100
AcDbVertex
62
7
6
CONTINUOUS
100
AcDb2dVertex
10
288.9241390638
20
159.8491730398
0
VERTEX
5
3CD
100
AcDbEntity
8
0
100
AcDbVertex
62
7
6
CONTINUOUS
100
AcDb2dVertex
10
288.2202785232
20
159.1943124876
0
VERTEX
5
3CE
100
AcDbEntity
8
0
100
AcDbVertex
62
7
6
CONTINUOUS
100
AcDb2dVertex
10
287.4479222107
20
158.6183260189
0
VERTEX
5
3CF
100
AcDbEntity
8
0
100
AcDbVertex
62
7
6
CONTINUOUS
100
AcDb2dVertex
10
286.6169647571
20
158.1263160713
0
VERTEX
5
3D0
100
AcDbEntity
8
0
100
AcDbVertex
62
7
6
CONTINUOUS
100
AcDb2dVertex
10
285.7359741137
20
157.7254054601
0
VERTEX
5
3D1
100
AcDbEntity
8
0
100
AcDbVertex
62
7
6
CONTINUOUS
100
AcDb2dVertex
10
284.8161381669
20
157.4187479397
0
VERTEX
5
3D2
100
AcDbEntity
8
0
100
AcDbVertex
62
7
6
CONTINUOUS
100
AcDb2dVertex
10
283.8732562708
20
157.2125625398
0
VERTEX
5
3D3
100
AcDbEntity
8
0
100
AcDbVertex
62
7
6
CONTINUOUS
100
AcDb2dVertex
10
282.9020619741
20
157.1047762505
0
SEQEND
5
3D4
100
AcDbEntity
8
0
0
POLYLINE
5
3D5
100
AcDbEntity
8
0
100
AcDb2dPolyline
62
7
6
CONTINUOUS
66
1
70
0
0
VERTEX
5
3D6
100
AcDbEntity
8
0
100
AcDbVertex
62
7
6
CONTINUOUS
100
AcDb2dVertex
10
290.8271299929
20
173.1230187210
0
VERTEX
5
3D7
100
AcDbEntity
8
0
100
AcDbVertex
62
7
6
CONTINUOUS
100
AcDb2dVertex
10
291.0138527701
20
173.0970519192
0
VERTEX
5
3D8
100
AcDbEntity
8
0
100
AcDbVertex
62
7
6
CONTINUOUS
100
AcDb2dVertex
10
291.1771299929
20
173.0314230120
0
VERTEX
5
3D9
100
AcDbEntity
8
0
100
AcDbVertex
62
7
6
CONTINUOUS
100
AcDb2dVertex
10
291.3212524956
20
172.9219412049
0
VERTEX
5
3DA
100
AcDbEntity
8
0
100
AcDbVertex
62
7
6
CONTINUOUS
100
AcDb2dVertex
10
291.4333477756
20
172.7811788814
0
VERTEX
5
3DB
100
AcDbEntity
8
0
100
AcDbVertex
62
7
6
CONTINUOUS
100
AcDb2dVertex
10
291.5005433299
20
172.6217084251
0
VERTEX
5
3DC
100
AcDbEntity
8
0
100
AcDbVertex
62
7
6
CONTINUOUS
100
AcDb2dVertex
10
291.5271299929
20
172.4393390417
0
SEQEND
5
3DD
100
AcDbEntity
8
0
0
LINE
5
3DE
100
AcDbEntity
8
0
100
AcDbLine
62
7
6
CONTINUOUS
10
294.7865049929
20
174.4768875070
11
295.0417132289
21
174.4259751921
0
LINE
5
3DF
100
AcDbEntity
8
0
100
AcDbLine
62
7
6
CONTINUOUS
10
294.7865049929
20
174.5412903946
11
295.0417132289
21
174.4903780797
0
LINE
5
3E0
100
AcDbEntity
8
0
100
AcDbLine
62
7
6
CONTINUOUS
10
295.0417132289
20
174.7958519782
11
294.8375467569
21
174.8467642887
0
LINE
5
3E1
100
AcDbEntity
8
0
100
AcDbLine
62
7
6
CONTINUOUS
10
294.5823382289
20
174.5787121413
11
294.7865049929
21
174.4768875070
0
LINE
5
3E2
100
AcDbEntity
8
0
100
AcDbLine
62
7
6
CONTINUOUS
10
294.5823382289
20
174.6431150289
11
294.7865049929
21
174.5412903946
0
LINE
5
3E3
100
AcDbEntity
8
0
100
AcDbLine
62
7
6
CONTINUOUS
10
294.8375467569
20
174.8467642887
11
294.6844217569
21
174.9485889453
0
LINE
5
3E4
100
AcDbEntity
8
0
100
AcDbLine
62
7
6
CONTINUOUS
10
293.5615049929
20
176.6796077154
11
293.3573383749
21
176.8323446468
0
LINE
5
3E5
100
AcDbEntity
8
0
100
AcDbLine
62
7
6
CONTINUOUS
10
294.3781717569
20
174.7823614010
11
294.5823382289
21
174.5787121413
0
LINE
5
3E6
100
AcDbEntity
8
0
100
AcDbLine
62
7
6
CONTINUOUS
10
294.3781717569
20
174.8467642887
11
294.5823382289
21
174.6431150289
0
LINE
5
3E7
100
AcDbEntity
8
0
100
AcDbLine
62
7
6
CONTINUOUS
10
293.3062966109
20
176.5133802068
11
293.4083799929
21
176.4115555859
0
LINE
5
3E8
100
AcDbEntity
8
0
100
AcDbLine
62
7
6
CONTINUOUS
10
293.3062966109
20
176.5777830944
11
293.4083799929
21
176.4759584735
0
LINE
5
3E9
100
AcDbEntity
8
0
100
AcDbLine
62
7
6
CONTINUOUS
10
293.7146299929
20
176.4759584735
11
293.5615049929
21
176.6796077154
0
LINE
5
3EA
100
AcDbEntity
8
0
100
AcDbLine
62
7
6
CONTINUOUS
10
294.6844217569
20
174.9485889453
11
294.5823382289
21
175.1013258767
0
LINE
5
3EB
100
AcDbEntity
8
0
100
AcDbLine
62
7
6
CONTINUOUS
10
294.2760883749
20
174.9860106786
11
294.3781717569
21
174.7823614010
0
LINE
5
3EC
100
AcDbEntity
8
0
100
AcDbLine
62
7
6
CONTINUOUS
10
294.2760883749
20
175.0504135662
11
294.3781717569
21
174.8467642887
0
LINE
5
3ED
100
AcDbEntity
8
0
100
AcDbLine
62
7
6
CONTINUOUS
10
298.4615049929
20
176.3232215421
11
298.3594214649
21
176.5268707840
0
LINE
5
3EE
100
AcDbEntity
8
0
100
AcDbLine
62
7
6
CONTINUOUS
10
293.7656716109
20
176.3232215421
11
293.7146299929
21
176.4759584735
0
LINE
5
3EF
100
AcDbEntity
8
0
100
AcDbLine
62
7
6
CONTINUOUS
10
294.5823382289
20
175.1013258767
11
294.5312967569
21
175.3049751186
0
LINE
5
3F0
100
AcDbEntity
8
0
100
AcDbLine
62
7
6
CONTINUOUS
10
298.1552549929
20
176.2079062013
11
298.1911089391
21
176.0648533332
0
LINE
5
3F1
100
AcDbEntity
8
0
100
AcDbLine
62
7
6
CONTINUOUS
10
298.1552549929
20
176.2723090890
11
298.2062964649
21
176.0686598471
0
LINE
5
3F2
100
AcDbEntity
8
0
100
AcDbLine
62
7
6
CONTINUOUS
10
298.5125464649
20
176.0686598471
11
298.4615049929
21
176.3232215421
0
LINE
5
3F3
100
AcDbEntity
8
0
100
AcDbLine
62
7
6
CONTINUOUS
10
302.7040526570
20
130.7892141055
11
302.1338405101
21
134.6274886595
0
LINE
5
3F4
100
AcDbEntity
8
0
100
AcDbLine
62
7
6
CONTINUOUS
10
306.1436189056
20
148.9761012644
11
306.2297608577
21
147.6556157132
0
LINE
5
3F5
100
AcDbEntity
8
0
100
AcDbLine
62
7
6
CONTINUOUS
10
306.3647094468
20
159.8111157815
11
306.3721918717
21
159.6762259892
0
LINE
5
3F6
100
AcDbEntity
8
DEFAULT_2
100
AcDbLine
62
8
6
HIDDEN
10
306.3771299929
20
148.8803080954
11
306.3771299929
21
146.5002762174
0
LINE
5
3F7
100
AcDbEntity
8
0
100
AcDbLine
62
7
6
CONTINUOUS
10
306.3771299929
20
146.5002762174
11
306.3771299929
21
107.7390027019
0
LINE
5
3F8
100
AcDbEntity
8
DEFAULT_2
100
AcDbLine
62
8
6
HIDDEN
10
306.3771299929
20
107.7390027019
11
306.3771299929
21
107.5531616066
0
LINE
5
3F9
100
AcDbEntity
8
0
100
AcDbLine
62
7
6
CONTINUOUS
10
306.3771299929
20
105.5531729839
11
306.3771299929
21
105.5863804523
0
LINE
5
3FA
100
AcDbEntity
8
0
100
AcDbLine
62
7
6
CONTINUOUS
10
306.3771299929
20
105.7287201663
11
306.3771299929
21
107.5531749025
0
LINE
5
3FB
100
AcDbEntity
8
0
100
AcDbLine
62
7
6
CONTINUOUS
10
304.4928476034
20
171.3105707439
11
304.5146117106
21
171.4837728052
0
LINE
5
3FC
100
AcDbEntity
8
0
100
AcDbLine
62
7
6
CONTINUOUS
10
292.1833799929
20
175.4951338547
11
293.0510883019
21
175.4951338547
0
LINE
5
3FD
100
AcDbEntity
8
0
100
AcDbLine
62
7
6
CONTINUOUS
10
292.1833799929
20
175.5595367423
11
293.0510883019
21
175.5595367423
0
LINE
5
3FE
100
AcDbEntity
8
0
100
AcDbLine
62
7
6
CONTINUOUS
10
293.1531716109
20
175.8650106051
11
292.1833799929
21
175.8650106051
0
LINE
5
3FF
100
AcDbEntity
8
0
100
AcDbLine
62
7
6
CONTINUOUS
10
296.7771299929
20
176.5133802068
11
297.6958799929
21
176.5133802068
0
LINE
5
400
100
AcDbEntity
8
0
100
AcDbLine
62
7
6
CONTINUOUS
10
292.1833799929
20
176.5642925173
11
293.1531716109
21
176.5642925173
0
LINE
5
401
100
AcDbEntity
8
0
100
AcDbLine
62
7
6
CONTINUOUS
10
296.7771299929
20
176.5777830944
11
297.6958799929
21
176.5777830944
0
LINE
5
402
100
AcDbEntity
8
0
100
AcDbLine
62
7
6
CONTINUOUS
10
292.1833799929
20
176.6286954049
11
293.1531716109
21
176.6286954049
0
LINE
5
403
100
AcDbEntity
8
0
100
AcDbLine
62
7
6
CONTINUOUS
10
297.6958799929
20
176.8832569573
11
296.4708799929
21
176.8832569573
0
LINE
5
404
100
AcDbEntity
8
0
100
AcDbLine
62
7
6
CONTINUOUS
10
296.0625467569
20
176.8832569573
11
295.7562967569
21
176.8832569573
0
LINE
5
405
100
AcDbEntity
8
0
100
AcDbLine
62
7
6
CONTINUOUS
10
294.5312967569
20
176.8832569573
11
294.2250466109
21
176.8832569573
0
LINE
5
406
100
AcDbEntity
8
0
100
AcDbLine
62
7
6
CONTINUOUS
10
293.1021299929
20
176.8832569573
11
291.8771299929
21
176.8832569573
0
LINE
5
407
100
AcDbEntity
8
0
100
AcDbLine
62
7
6
CONTINUOUS
10
299.8771299929
20
178.9620958249
11
290.8771299929
21
178.9620958249
0
LINE
5
408
100
AcDbEntity
8
0
100
AcDbLine
62
7
6
CONTINUOUS
10
293.3573383749
20
176.8323446468
11
293.1021299929
21
176.8832569573
0
LINE
5
409
100
AcDbEntity
8
0
100
AcDbLine
62
7
6
CONTINUOUS
10
297.9510885210
20
176.8323446468
11
297.6958799929
21
176.8832569573
0
LINE
5
40A
100
AcDbEntity
8
0
100
AcDbLine
62
7
6
CONTINUOUS
10
297.6958799929
20
176.5133802068
11
297.9000464649
21
176.4624678964
0
LINE
5
40B
100
AcDbEntity
8
0
100
AcDbLine
62
7
6
CONTINUOUS
10
297.6958799929
20
176.5777830944
11
297.9000464649
21
176.5268707840
0
LINE
5
40C
100
AcDbEntity
8
0
100
AcDbLine
62
7
6
CONTINUOUS
10
293.1531716109
20
176.5642925173
11
293.3062966109
21
176.5133802068
0
LINE
5
40D
100
AcDbEntity
8
0
100
AcDbLine
62
7
6
CONTINUOUS
10
293.1531716109
20
176.6286954049
11
293.3062966109
21
176.5777830944
0
LINE
5
40E
100
AcDbEntity
8
0
100
AcDbLine
62
7
6
CONTINUOUS
10
298.1552549929
20
176.7305200259
11
297.9510885210
21
176.8323446468
0
LINE
5
40F
100
AcDbEntity
8
0
100
AcDbLine
62
7
6
CONTINUOUS
10
297.9000464649
20
176.4624678964
11
298.0531714649
21
176.3606432754
0
LINE
5
410
100
AcDbEntity
8
0
100
AcDbLine
62
7
6
CONTINUOUS
10
297.9000464649
20
176.5268707840
11
298.0531714649
21
176.4250461630
0
LINE
5
411
100
AcDbEntity
8
0
100
AcDbLine
62
7
6
CONTINUOUS
10
298.3594214649
20
176.5268707840
11
298.1552549929
21
176.7305200259
0
LINE
5
412
100
AcDbEntity
8
0
100
AcDbLine
62
7
6
CONTINUOUS
10
298.0531714649
20
176.3606432754
11
298.1552549929
21
176.2079062013
0
LINE
5
413
100
AcDbEntity
8
0
100
AcDbLine
62
7
6
CONTINUOUS
10
298.0531714649
20
176.4250461630
11
298.1552549929
21
176.2723090890
0
LINE
5
414
100
AcDbEntity
8
0
100
AcDbLine
62
7
6
CONTINUOUS
10
307.8521980118
20
156.4848762994
11
307.8521980118
21
157.1047762505
0
LINE
5
415
100
AcDbEntity
8
0
100
AcDbLine
62
7
6
CONTINUOUS
10
307.8521980118
20
174.6551821505
11
307.8521980118
21
177.6002022746
0
LINE
5
416
100
AcDbEntity
8
0
100
AcDbLine
62
7
6
CONTINUOUS
10
309.3771299929
20
202.5137302635
11
309.3771299929
21
171.0657938774
0
LINE
5
417
100
AcDbEntity
8
0
100
AcDbLine
62
7
6
CONTINUOUS
10
308.5502789485
20
154.6821909718
11
309.2330321534
21
188.7797951155
0
LINE
5
418
100
AcDbEntity
8
0
100
AcDbLine
62
7
6
CONTINUOUS
10
308.8380512877
20
169.0539247602
11
309.3771299929
21
171.0657938774
0
LINE
5
419
100
AcDbEntity
8
0
100
AcDbLine
62
7
6
CONTINUOUS
10
307.5127528998
20
153.9666480684
11
306.1436189056
21
148.9761012644
0
LINE
5
41A
100
AcDbEntity
8
0
100
AcDbLine
62
7
6
CONTINUOUS
10
305.7242073864
20
145.8128535942
11
306.2297608577
21
147.6556157132
0
LINE
5
41B
100
AcDbEntity
8
0
100
AcDbLine
62
7
6
CONTINUOUS
10
306.2335364535
20
146.0349015809
11
305.9959321746
21
145.1688247181
0
LINE
5
41C
100
AcDbEntity
8
0
100
AcDbLine
62
7
6
CONTINUOUS
10
306.2335364535
20
146.0349015809
11
308.1628892060
21
152.2877722842
0
LINE
5
41D
100
AcDbEntity
8
0
100
AcDbLine
62
7
6
CONTINUOUS
10
295.3771299929
20
180.9157938774
11
299.3771299929
21
181.5493316387
0
LINE
5
41E
100
AcDbEntity
8
0
100
AcDbLine
62
7
6
CONTINUOUS
10
299.8771299929
20
184.7162720891
11
299.3771299929
21
184.6743066061
0
LINE
5
41F
100
AcDbEntity
8
0
100
AcDbLine
62
7
6
CONTINUOUS
10
290.8771299929
20
184.7162720891
11
291.3771299929
21
184.6743066061
0
LINE
5
420
100
AcDbEntity
8
0
100
AcDbLine
62
7
6
CONTINUOUS
10
291.3771299929
20
181.5493316387
11
295.3771299929
21
180.9157938774
0
LINE
5
421
100
AcDbEntity
8
0
100
AcDbLine
62
7
6
CONTINUOUS
10
303.2836427057
20
100.9312653490
11
299.8018611953
21
86.9666024525
0
LINE
5
422
100
AcDbEntity
8
0
100
AcDbLine
62
7
6
CONTINUOUS
10
290.8771299929
20
196.0912528408
11
299.8771299929
21
196.0912528408
0
LINE
5
423
100
AcDbEntity
8
0
100
AcDbLine
62
7
6
CONTINUOUS
10
307.3999349413
20
205.0829892798
11
308.3771299929
21
202.6851859321
0
LINE
5
424
100
AcDbEntity
8
0
100
AcDbLine
62
7
6
CONTINUOUS
10
307.3248877521
20
205.1762482550
11
283.4293722337
21
205.1762482550
0
LINE
5
425
100
AcDbEntity
8
0
100
AcDbLine
62
7
6
CONTINUOUS
10
286.4616178183
20
208.7593611999
11
286.6907153827
21
208.7834403242
0
LINE
5
426
100
AcDbEntity
8
0
100
AcDbLine
62
7
6
CONTINUOUS
10
304.2926421675
20
208.7593611999
11
304.0635446031
21
208.7834403242
0
LINE
5
427
100
AcDbEntity
8
DEFAULT_1
100
AcDbLine
62
2
6
CENTER
10
304.3771299929
20
223.5657938774
11
287.1481256334
21
223.5657938774
0
LINE
5
428
100
AcDbEntity
8
0
100
AcDbLine
62
7
6
CONTINUOUS
10
289.3771299929
20
250.1154872355
11
295.3771299929
21
251.0657938774
0
LINE
5
429
100
AcDbEntity
8
0
100
AcDbLine
62
7
6
CONTINUOUS
10
295.3771299929
20
251.0657938774
11
301.3771299929
21
250.1154872355
0
ARC
5
42A
100
AcDbEntity
8
0
100
AcDbCircle
62
7
6
CONTINUOUS
10
80.5788296089
20
159.6549179670
40
1.0000000000
100
AcDbArc
50
70.9729276550
51
217.5932178298
0
ARC
5
42B
100
AcDbEntity
8
0
100
AcDbCircle
62
7
6
CONTINUOUS
10
80.3245025137
20
161.7585618837
40
1.0000000000
100
AcDbArc
50
82.2057976371
51
219.0853886924
0
ARC
5
42C
100
AcDbEntity
8
0
100
AcDbCircle
62
7
6
CONTINUOUS
10
82.5118885589
20
163.3255150704
40
1.0000000000
100
AcDbArc
50
85.5918184192
51
234.3779939106
0
ARC
5
42D
100
AcDbEntity
8
0
100
AcDbCircle
62
7
6
CONTINUOUS
10
83.1549451134
20
171.3751410411
40
1.0000000000
100
AcDbArc
50
117.6118435065
51
264.2339988061
0
ARC
5
42E
100
AcDbEntity
8
0
100
AcDbCircle
62
7
6
CONTINUOUS
10
82.0419128500
20
169.5720439332
40
1.0000000000
100
AcDbArc
50
116.1165026941
51
253.0016855150
0
ARC
5
42F
100
AcDbEntity
8
0
100
AcDbCircle
62
7
6
CONTINUOUS
10
82.6718832960
20
201.1762482550
40
4.0000000000
100
AcDbArc
50
77.6034632306
51
143.5309612200
0
ARC
5
430
100
AcDbEntity
8
0
100
AcDbCircle
62
7
6
CONTINUOUS
10
83.3705937270
20
167.2322560951
40
1.0000000000
100
AcDbArc
50
100.9042081926
51
249.6145402263
0
ARC
5
431
100
AcDbEntity
8
0
100
AcDbCircle
62
7
6
CONTINUOUS
10
80.9760523013
20
198.0723941426
40
4.0000000000
100
AcDbArc
50
159.1679206250
51
222.3851587974
0
ARC
5
432
100
AcDbEntity
8
0
100
AcDbCircle
62
7
6
CONTINUOUS
10
81.6715503099
20
165.5579647624
40
1.0000000000
100
AcDbArc
50
93.1653860245
51
242.0614237025
0
ARC
5
433
100
AcDbEntity
8
0
100
AcDbCircle
62
7
6
CONTINUOUS
10
92.2922464318
20
192.9157938774
40
10.0026001139
100
AcDbArc
50
335.5755907453
51
77.6034632306
0
ARC
5
434
100
AcDbEntity
8
0
100
AcDbCircle
62
7
6
CONTINUOUS
10
93.1261995156
20
193.4492001523
40
17.0000000000
100
AcDbArc
50
143.5309612200
51
159.1679206250
0
ARC
5
435
100
AcDbEntity
8
0
100
AcDbCircle
62
7
6
CONTINUOUS
10
63.2489328065
20
181.8937281154
40
20.0000000000
100
AcDbArc
50
347.6034632306
51
42.3851587974
0
CIRCLE
5
436
100
AcDbEntity
8
0
100
AcDbCircle
62
7
6
CONTINUOUS
10
92.2922464318
20
192.9157938774
40
4.0000000000
0
ARC
5
437
100
AcDbEntity
8
0
100
AcDbCircle
62
7
6
CONTINUOUS
10
81.2783729889
20
207.1528789648
40
6.0000000000
100
AcDbArc
50
332.7438870343
51
29.3364907101
0
ARC
5
438
100
AcDbEntity
8
0
100
AcDbCircle
62
7
6
CONTINUOUS
10
92.2922464318
20
192.9157938774
40
12.0000000000
100
AcDbArc
50
182.8637243091
51
218.6628649236
0
ARC
5
439
100
AcDbEntity
8
0
100
AcDbCircle
62
7
6
CONTINUOUS
10
102.4474063897
20
183.2787442133
40
2.0000000000
100
AcDbArc
50
32.0000000000
51
136.4995170187
0
ARC
5
43A
100
AcDbEntity
8
0
100
AcDbCircle
62
7
6
CONTINUOUS
10
42.0154119918
20
120.6334759884
40
48.8700000000
100
AcDbArc
50
11.5020756158
51
33.5718510782
0
ARC
5
43B
100
AcDbEntity
8
0
100
AcDbCircle
62
7
6
CONTINUOUS
10
110.4822464318
20
127.4068833458
40
40.0000000000
100
AcDbArc
50
178.4400305636
51
239.6006422143
0
ARC
5
43C
100
AcDbEntity
8
0
100
AcDbCircle
62
7
6
CONTINUOUS
10
114.6822464318
20
134.5657938774
40
48.3000000000
100
AcDbArc
50
239.6006422143
51
60.0000000000
0
ARC
5
43D
100
AcDbEntity
8
0
100
AcDbCircle
62
7
6
CONTINUOUS
10
138.7181448167
20
191.4718044774
40
13.0000000000
100
AcDbArc
50
150.0000000000
51
240.0000000000
0
CIRCLE
5
43E
100
AcDbEntity
8
0
100
AcDbCircle
62
7
6
CONTINUOUS
10
110.4822464318
20
223.5657938774
40
15.0000000000
0
ARC
5
43F
100
AcDbEntity
8
0
100
AcDbCircle
62
7
6
CONTINUOUS
10
77.0298543976
20
147.9777684646
40
6.0000000000
100
AcDbArc
50
120.0000000000
51
178.4400305636
0
ARC
5
440
100
AcDbEntity
8
0
100
AcDbCircle
62
7
6
CONTINUOUS
10
76.3506475674
20
151.0497298335
40
3.0000000000
100
AcDbArc
50
66.3987594526
51
120.0000000000
0
ARC
5
441
100
AcDbEntity
8
0
100
AcDbCircle
62
7
6
CONTINUOUS
10
110.4822464318
20
223.5657938774
40
27.5000000000
100
AcDbArc
50
330.0000000000
51
209.3364907101
0
ARC
5
442
100
AcDbEntity
8
0
100
AcDbCircle
62
7
6
CONTINUOUS
10
92.2922464318
20
192.9157938774
40
12.0000000000
100
AcDbArc
50
302.0961989191
51
316.4995170187
0
ARC
5
443
100
AcDbEntity
8
0
100
AcDbCircle
62
7
6
CONTINUOUS
10
110.4822464318
20
134.5657938774
40
21.0000000000
100
AcDbArc
50
191.5020756158
51
32.0000000000
0
ARC
5
444
100
AcDbEntity
8
0
100
AcDbCircle
62
7
6
CONTINUOUS
10
110.4822464318
20
134.5657938774
40
33.0126322709
100
AcDbArc
50
335.3233833207
51
24.6766166793
0
ARC
5
445
100
AcDbEntity
8
0
100
AcDbCircle
62
7
6
CONTINUOUS
10
110.4822464318
20
223.5657938774
40
26.8664622387
100
AcDbArc
50
343.7900150960
51
11.8128860512
0
ARC
5
446
100
AcDbEntity
8
0
100
AcDbCircle
62
7
6
CONTINUOUS
10
110.4822464318
20
223.5657938774
40
15.4500712252
100
AcDbArc
50
330.9590462336
51
20.8538502080
0
ARC
5
447
100
AcDbEntity
8
0
100
AcDbCircle
62
7
6
CONTINUOUS
10
92.2922464318
20
192.9157938774
40
12.0000000000
100
AcDbArc
50
0.0000000000
51
111.0849577923
0
ARC
5
448
100
AcDbEntity
8
DEFAULT_2
100
AcDbCircle
62
8
6
HIDDEN
10
289.3771299929
20
107.5531616066
40
5.0000000000
100
AcDbArc
50
99.0000000000
51
170.3835791989
0
ARC
5
449
100
AcDbEntity
8
DEFAULT_2
100
AcDbCircle
62
8
6
HIDDEN
10
295.3771299929
20
256.5657938774
40
18.0000000000
100
AcDbArc
50
250.5287793655
51
289.4712206345
0
ARC
5
44A
100
AcDbEntity
8
DEFAULT_2
100
AcDbCircle
62
8
6
HIDDEN
10
295.3771299929
20
190.5657938774
40
18.0000000000
100
AcDbArc
50
44.8805550016
51
135.1194449984
0
ARC
5
44B
100
AcDbEntity
8
DEFAULT_2
100
AcDbCircle
62
8
6
HIDDEN
10
301.3771299929
20
107.5531616066
40
5.0000000000
100
AcDbArc
50
9.6164208011
51
81.0000000000
0
ARC
5
44C
100
AcDbEntity
8
0
100
AcDbCircle
62
7
6
CONTINUOUS
10
289.3771299929
20
105.5531616066
40
5.0000000000
100
AcDbArc
50
180.0000000000
51
248.4766043059
0
ARC
5
44D
100
AcDbEntity
8
0
100
AcDbCircle
62
7
6
CONTINUOUS
10
301.3771299929
20
105.5531616066
40
5.0000000000
100
AcDbArc
50
291.5233956941
51
360.0000000000
0
ARC
5
44E
100
AcDbEntity
8
0
100
AcDbCircle
62
7
6
CONTINUOUS
10
304.3771299929
20
211.7670060103
40
3.0000000000
100
AcDbArc
50
180.0000000000
51
226.0601533326
0
ARC
5
44F
100
AcDbEntity
8
0
100
AcDbCircle
62
7
6
CONTINUOUS
10
304.3771299929
20
211.7670060103
40
3.0000000000
100
AcDbArc
50
230.5230444456
51
264.0000000000
0
ARC
5
450
100
AcDbEntity
8
0
100
AcDbCircle
62
7
6
CONTINUOUS
10
286.3771299929
20
211.7670060103
40
3.0000000000
100
AcDbArc
50
276.0000000000
51
309.4769555544
0
ARC
5
451
100
AcDbEntity
8
0
100
AcDbCircle
62
7
6
CONTINUOUS
10
286.3771299929
20
211.7670060103
40
3.0000000000
100
AcDbArc
50
313.9398466674
51
360.0000000000
0
SPLINE
5
452
100
AcDbEntity
8
0
100
AcDbSpline
62
7
6
CONTINUOUS
70
0
71
3
72
14
73
10
74
8
42
0.0000001000
43
0.0000001000
44
0.0000000001
40
0.0000000000
40
0.0000000000
40
0.0000000000
40
0.0000000000
40
0.0200768839
40
0.0852700570
40
0.1928902227
40
0.3474669964
40
0.5442758208
40
0.7684977718
40
1.0000000000
40
1.0000000000
40
1.0000000000
40
1.0000000000
10
82.5905843072
20
164.3198609096
30
0.0000000000
10
82.5974409451
20
164.3197419771
30
0.0000000000
10
82.6245446070
20
164.3141423612
30
0.0000000000
10
82.6472153659
20
164.2363348354
30
0.0000000000
10
82.6458010847
20
164.1306840527
30
0.0000000000
10
82.6260158688
20
163.9709169800
30
0.0000000000
10
82.5833527923
20
163.7789990006
30
0.0000000000
10
82.5220756056
20
163.5630382372
30
0.0000000000
10
82.4715416695
20
163.4149968546
30
0.0000000000
10
82.4440990209
20
163.3404152714
30
0.0000000000
11
82.5905843072
21
164.3198609096
31
0.0000000000
11
82.6092571324
21
164.3155087272
31
0.0000000000
11
82.6392320321
21
164.2554329349
31
0.0000000000
11
82.6442906860
21
164.1447167387
31
0.0000000000
11
82.6257273408
21
163.9866132334
31
0.0000000000
11
82.5835641361
21
163.7883653926
31
0.0000000000
11
82.5208859879
21
163.5661216411
31
0.0000000000
11
82.4440990209
21
163.3404152714
31
0.0000000000
0
SPLINE
5
453
100
AcDbEntity
8
0
100
AcDbSpline
62
7
6
CONTINUOUS
70
0
71
3
72
12
73
8
74
6
42
0.0000001000
43
0.0000001000
44
0.0000000001
40
0.0000000000
40
0.0000000000
40
0.0000000000
40
0.0000000000
40
0.0771786510
40
0.2420484635
40
0.4719889269
40
0.7314625381
40
1.0000000000
40
1.0000000000
40
1.0000000000
40
1.0000000000
10
83.1812338962
20
168.2138127535
30
0.0000000000
10
83.2028452877
20
168.2128274083
30
0.0000000000
10
83.2786980433
20
168.1431872567
30
0.0000000000
10
83.2907407456
20
167.9866192817
30
0.0000000000
10
83.3203833765
20
167.7683348237
30
0.0000000000
10
83.3185669993
20
167.5137811576
30
0.0000000000
10
83.3100130369
20
167.3369156921
30
0.0000000000
10
83.3028041890
20
167.2471562962
30
0.0000000000
11
83.1812338962
21
168.2138127535
31
0.0000000000
11
83.2441335257
21
168.1673340336
31
0.0000000000
11
83.2904430362
21
168.0080734130
31
0.0000000000
11
83.3138920105
21
167.7779478578
31
0.0000000000
11
83.3168285862
21
167.5169372557
31
0.0000000000
11
83.3028041890
21
167.2471562962
31
0.0000000000
0
SPLINE
5
454
100
AcDbEntity
8
0
100
AcDbSpline
62
7
6
CONTINUOUS
70
0
71
3
72
12
73
8
74
6
42
0.0000001000
43
0.0000001000
44
0.0000000001
40
0.0000000000
40
0.0000000000
40
0.0000000000
40
0.0000000000
40
0.0317971632
40
0.1579731431
40
0.3798662257
40
0.6767077602
40
1.0000000000
40
1.0000000000
40
1.0000000000
40
1.0000000000
10
82.6878709238
20
172.2503058352
30
0.0000000000
10
82.6971369727
20
172.2555504238
30
0.0000000000
10
82.7445020868
20
172.2718051288
30
0.0000000000
10
82.8253658673
20
172.1298418001
30
0.0000000000
10
82.9050301376
20
171.9624555844
30
0.0000000000
10
82.9901985899
20
171.6919445827
30
0.0000000000
10
83.0367142207
20
171.4990377680
30
0.0000000000
10
83.0580027309
20
171.3964490634
30
0.0000000000
11
82.6878709238
21
172.2503058352
31
0.0000000000
11
82.7156479358
21
172.2590435569
31
0.0000000000
11
82.8009035073
21
172.1708351530
31
0.0000000000
11
82.8936476367
21
171.9760508993
31
0.0000000000
11
82.9838092397
21
171.7018899130
31
0.0000000000
11
83.0580027309
21
171.3964490634
31
0.0000000000
0
SPLINE
5
455
100
AcDbEntity
8
0
100
AcDbSpline
62
7
6
CONTINUOUS
70
0
71
3
72
13
73
9
74
7
42
0.0000001000
43
0.0000001000
44
0.0000000001
40
0.0000000000
40
0.0000000000
40
0.0000000000
40
0.0000000000
40
0.0349436805
40
0.1591015139
40
0.3101515474
40
0.5080198772
40
0.7442485976
40
1.0000000000
40
1.0000000000
40
1.0000000000
40
1.0000000000
10
80.4627873794
20
162.7492175241
30
0.0000000000
10
80.4760823608
20
162.7473767691
30
0.0000000000
10
80.5354800251
20
162.7335339075
30
0.0000000000
10
80.6341208057
20
162.6496556698
30
0.0000000000
10
80.6779456230
20
162.4669246661
30
0.0000000000
10
80.6638737511
20
162.2419499137
30
0.0000000000
10
80.5933736178
20
161.9855090651
30
0.0000000000
10
80.5155853682
20
161.8130511805
30
0.0000000000
10
80.4691465849
20
161.7267689876
30
0.0000000000
11
80.4627873794
21
162.7492175241
31
0.0000000000
11
80.5017491939
21
162.7398882928
31
0.0000000000
11
80.6129425591
21
162.6504411500
31
0.0000000000
11
80.6659782334
21
162.4851255280
31
0.0000000000
11
80.6577479605
21
162.2578476325
31
0.0000000000
11
80.5890263603
21
161.9951706197
31
0.0000000000
11
80.4691465849
21
161.7267689876
31
0.0000000000
0
SPLINE
5
456
100
AcDbEntity
8
0
100
AcDbSpline
62
7
6
CONTINUOUS
70
0
71
3
72
14
73
10
74
8
42
0.0000001000
43
0.0000001000
44
0.0000000001
40
0.0000000000
40
0.0000000000
40
0.0000000000
40
0.0000000000
40
0.0764390400
40
0.1786640071
40
0.2970031368
40
0.4417584299
40
0.6139077626
40
0.8041237322
40
1.0000000000
40
1.0000000000
40
1.0000000000
40
1.0000000000
10
81.6178021698
20
166.5559864061
30
0.0000000000
10
81.6489952934
20
166.5571233746
30
0.0000000000
10
81.7227031365
20
166.5456692537
30
0.0000000000
10
81.8180490802
20
166.4655963630
30
0.0000000000
10
81.8889102778
20
166.3353310015
30
0.0000000000
10
81.9346710775
20
166.1654699880
30
0.0000000000
10
81.9532396669
20
165.9619977451
30
0.0000000000
10
81.9432906103
20
165.7375721984
30
0.0000000000
10
81.9183663349
20
165.5842178038
30
0.0000000000
10
81.9014870878
20
165.5074244532
30
0.0000000000
11
81.6178021698
21
166.5559864061
31
0.0000000000
11
81.7090720244
21
166.5406020582
31
0.0000000000
11
81.8068563019
21
166.4658199899
31
0.0000000000
11
81.8790579057
21
166.3429573476
31
0.0000000000
11
81.9272601218
21
166.1754360033
31
0.0000000000
11
81.9481260414
21
165.9691818754
31
0.0000000000
11
81.9390119592
21
165.7403000275
31
0.0000000000
11
81.9014870878
21
165.5074244532
31
0.0000000000
0
SPLINE
5
457
100
AcDbEntity
8
0
100
AcDbSpline
62
7
6
CONTINUOUS
70
0
71
3
72
13
73
9
74
7
42
0.0000001000
43
0.0000001000
44
0.0000000001
40
0.0000000000
40
0.0000000000
40
0.0000000000
40
0.0000000000
40
0.0091239167
40
0.0796620000
40
0.2190776315
40
0.4295022664
40
0.6978645075
40
1.0000000000
40
1.0000000000
40
1.0000000000
40
1.0000000000
10
80.9071673406
20
160.5997886785
30
0.0000000000
10
80.9097481915
20
160.5988603098
30
0.0000000000
10
80.9308006748
20
160.5882494571
30
0.0000000000
10
80.9467143193
20
160.4918031930
30
0.0000000000
10
80.8910407736
20
160.3621750813
30
0.0000000000
10
80.8013365830
20
160.1605987257
30
0.0000000000
10
80.6586695368
20
159.9270548814
30
0.0000000000
10
80.5450448320
20
159.7615277706
30
0.0000000000
10
80.4818872264
20
159.6762259892
30
0.0000000000
11
80.9071673406
21
160.5997886785
31
0.0000000000
11
80.9143703391
21
160.5961088746
31
0.0000000000
11
80.9368510757
21
160.5252510103
31
0.0000000000
11
80.8997411506
21
160.3830876281
31
0.0000000000
11
80.8062676731
21
160.1819879737
31
0.0000000000
11
80.6627595391
21
159.9382807545
31
0.0000000000
11
80.4818872264
21
159.6762259892
31
0.0000000000
0
SPLINE
5
458
100
AcDbEntity
8
0
100
AcDbSpline
62
7
6
CONTINUOUS
70
0
71
3
72
12
73
8
74
6
42
0.0000001000
43
0.0000001000
44
0.0000000001
40
0.0000000000
40
0.0000000000
40
0.0000000000
40
0.0000000000
40
0.3247205992
40
0.6216777619
40
0.8429143909
40
0.9684600950
40
1.0000000000
40
1.0000000000
40
1.0000000000
40
1.0000000000
10
80.4818872264
20
159.6762259892
30
0.0000000000
10
80.4192602493
20
159.5916408841
30
0.0000000000
10
80.2958281603
20
159.4356250634
30
0.0000000000
10
80.1046726149
20
159.2256581721
30
0.0000000000
10
79.9625001530
20
159.1072672216
30
0.0000000000
10
79.8296326619
20
159.0131526391
30
0.0000000000
10
79.7938696649
20
159.0476186593
30
0.0000000000
10
79.7877460892
20
159.0562044913
30
0.0000000000
11
80.4818872264
21
159.6762259892
31
0.0000000000
11
80.2855272612
21
159.4289735503
31
0.0000000000
11
80.0885090984
21
159.2178893241
31
0.0000000000
11
79.9229688314
21
159.0805145128
31
0.0000000000
11
79.8090130806
21
159.0367431680
31
0.0000000000
11
79.7877460892
21
159.0562044913
31
0.0000000000
0
SPLINE
5
459
100
AcDbEntity
8
0
100
AcDbSpline
62
7
6
CONTINUOUS
70
0
71
3
72
15
73
11
74
9
42
0.0000001000
43
0.0000001000
44
0.0000000001
40
0.0000000000
40
0.0000000000
40
0.0000000000
40
0.0000000000
40
0.2474735122
40
0.4579934755
40
0.6240181985
40
0.7453942863
40
0.8341837479
40
0.9071520479
40
0.9773049980
40
1.0000000000
40
1.0000000000
40
1.0000000000
40
1.0000000000
10
80.4691465849
20
161.7267689876
30
0.0000000000
10
80.4207464039
20
161.6368425628
30
0.0000000000
10
80.3188512543
20
161.4766617790
30
0.0000000000
10
80.1495949468
20
161.2813244215
30
0.0000000000
10
79.9906980440
20
161.1493031556
30
0.0000000000
10
79.8528769997
20
161.0750990622
30
0.0000000000
10
79.7378748505
20
161.0469699679
30
0.0000000000
10
79.6401810321
20
161.0566828232
30
0.0000000000
10
79.5796055225
20
161.0934111508
30
0.0000000000
10
79.5534657077
20
161.1217186083
30
0.0000000000
10
79.5475179609
20
161.1290090197
30
0.0000000000
11
80.4691465849
21
161.7267689876
31
0.0000000000
11
80.3041102874
21
161.4686467780
31
0.0000000000
11
80.1318902843
21
161.2730321533
31
0.0000000000
11
79.9719190993
21
161.1439763705
31
0.0000000000
11
79.8381475509
21
161.0755340493
31
0.0000000000
11
79.7307137110
21
161.0522813068
31
0.0000000000
11
79.6410760851
21
161.0634828650
31
0.0000000000
11
79.5667092965
21
161.1083426549
31
0.0000000000
11
79.5475179609
21
161.1290090197
31
0.0000000000
0
SPLINE
5
45A
100
AcDbEntity
8
0
100
AcDbSpline
62
7
6
CONTINUOUS
70
0
71
3
72
14
73
10
74
8
42
0.0000001000
43
0.0000001000
44
0.0000000001
40
0.0000000000
40
0.0000000000
40
0.0000000000
40
0.0000000000
40
0.2262713893
40
0.4407630342
40
0.6307082813
40
0.7845417239
40
0.8973906897
40
0.9706023865
40
1.0000000000
40
1.0000000000
40
1.0000000000
40
1.0000000000
10
82.4440990209
20
163.3404152714
30
0.0000000000
10
82.4178106592
20
163.2689707230
30
0.0000000000
10
82.3634190547
20
163.1310362118
30
0.0000000000
10
82.2758793187
20
162.9372468625
30
0.0000000000
10
82.1890622725
20
162.7717378987
30
0.0000000000
10
82.1064495991
20
162.6385800711
30
0.0000000000
10
82.0366385677
20
162.5558365530
30
0.0000000000
10
81.9738540679
20
162.4981712030
30
0.0000000000
10
81.9399406675
20
162.5107952119
30
0.0000000000
10
81.9311172380
20
162.5163502625
30
0.0000000000
11
82.4440990209
21
163.3404152714
31
0.0000000000
11
82.3601773968
21
163.1280105300
31
0.0000000000
11
82.2705709839
21
162.9309321514
31
0.0000000000
11
82.1807799191
21
162.7615415595
31
0.0000000000
11
82.0968631918
21
162.6309032184
31
0.0000000000
11
82.0226105584
21
162.5445308350
31
0.0000000000
11
81.9590436738
21
162.5068520366
31
0.0000000000
11
81.9311172380
21
162.5163502625
31
0.0000000000
0
SPLINE
5
45B
100
AcDbEntity
8
0
100
AcDbSpline
62
7
6
CONTINUOUS
70
0
71
3
72
13
73
9
74
7
42
0.0000001000
43
0.0000001000
44
0.0000000001
40
0.0000000000
40
0.0000000000
40
0.0000000000
40
0.0000000000
40
0.3021354925
40
0.5704977336
40
0.7809223685
40
0.9203380000
40
0.9908760833
40
1.0000000000
40
1.0000000000
40
1.0000000000
40
1.0000000000
10
83.0580027309
20
171.3964490634
30
0.0000000000
10
83.0795683365
20
171.2925250445
30
0.0000000000
10
83.1133075196
20
171.0946072194
30
0.0000000000
10
83.1448898626
20
170.8227632038
30
0.0000000000
10
83.1417963543
20
170.6021497428
30
0.0000000000
10
83.1379798124
20
170.4611234153
30
0.0000000000
10
83.0830889555
20
170.3802400439
30
0.0000000000
10
83.0595273381
20
170.3794354103
30
0.0000000000
10
83.0567950647
20
170.3796748712
30
0.0000000000
11
83.0580027309
21
171.3964490634
31
0.0000000000
11
83.1123130551
21
171.0827009444
31
0.0000000000
11
83.1403970279
21
170.8012776269
31
0.0000000000
11
83.1409252854
21
170.5795163070
31
0.0000000000
11
83.1149995959
21
170.4348946198
31
0.0000000000
11
83.0648772473
21
170.3799949785
31
0.0000000000
11
83.0567950647
21
170.3796748712
31
0.0000000000
0
SPLINE
5
45C
100
AcDbEntity
8
0
100
AcDbSpline
62
7
6
CONTINUOUS
70
0
71
3
72
13
73
9
74
7
42
0.0000001000
43
0.0000001000
44
0.0000000001
40
0.0000000000
40
0.0000000000
40
0.0000000000
40
0.0000000000
40
0.2537759982
40
0.4904981169
40
0.6903337254
40
0.8410870622
40
0.9652328893
40
1.0000000000
40
1.0000000000
40
1.0000000000
40
1.0000000000
10
82.1865569212
20
169.5402510371
30
0.0000000000
10
82.1924873667
20
169.4432041383
30
0.0000000000
10
82.1908897292
20
169.2546031829
30
0.0000000000
10
82.1476569390
20
168.9920166839
30
0.0000000000
10
82.0659930517
20
168.7809651978
30
0.0000000000
10
81.9490247621
20
168.6330647224
30
0.0000000000
10
81.8244540517
20
168.5984806536
30
0.0000000000
10
81.7648029345
20
168.6108245627
30
0.0000000000
10
81.7520269260
20
168.6147071556
30
0.0000000000
11
82.1865569212
21
169.5402510371
31
0.0000000000
11
82.1830390819
21
169.2485884555
31
0.0000000000
11
82.1355373262
21
168.9806846184
31
0.0000000000
11
82.0469416625
21
168.7687730946
31
0.0000000000
11
81.9295814408
21
168.6412983665
31
0.0000000000
11
81.7911086251
21
168.6068636761
31
0.0000000000
11
81.7520269260
21
168.6147071556
31
0.0000000000
0
SPLINE
5
45D
100
AcDbEntity
8
0
100
AcDbSpline
62
7
6
CONTINUOUS
70
0
71
3
72
14
73
10
74
8
42
0.0000001000
43
0.0000001000
44
0.0000000001
40
0.0000000000
40
0.0000000000
40
0.0000000000
40
0.0000000000
40
0.2309550129
40
0.4551590177
40
0.6521930924
40
0.8068151975
40
0.9142714105
40
0.9794727074
40
1.0000000000
40
1.0000000000
40
1.0000000000
40
1.0000000000
10
83.3028041890
20
167.2471562962
30
0.0000000000
10
83.2964577456
20
167.1681349407
30
0.0000000000
10
83.2802805129
20
167.0127545056
30
0.0000000000
10
83.2454156717
20
166.7911255475
30
0.0000000000
10
83.2036436142
20
166.5989507403
30
0.0000000000
10
83.1547550417
20
166.4455273303
30
0.0000000000
10
83.1115558834
20
166.3491451572
30
0.0000000000
10
83.0588791111
20
166.2876277986
30
0.0000000000
10
83.0315894028
20
166.2938536986
30
0.0000000000
10
83.0251273422
20
166.2966731753
30
0.0000000000
11
83.3028041890
21
167.2471562962
31
0.0000000000
11
83.2779409977
21
167.0106321126
31
0.0000000000
11
83.2416862773
21
166.7826209496
31
0.0000000000
11
83.1968194654
21
166.5847467523
31
0.0000000000
11
83.1474054724
21
166.4333854261
31
0.0000000000
11
83.0965701265
21
166.3351000621
31
0.0000000000
11
83.0444337947
21
166.2927943045
31
0.0000000000
11
83.0251273422
21
166.2966731753
31
0.0000000000
0
SPLINE
5
45E
100
AcDbEntity
8
0
100
AcDbSpline
62
7
6
CONTINUOUS
70
0
71
3
72
13
73
9
74
7
42
0.0000001000
43
0.0000001000
44
0.0000000001
40
0.0000000000
40
0.0000000000
40
0.0000000000
40
0.0000000000
40
0.2439726879
40
0.4679324500
40
0.6559760782
40
0.8075405469
40
0.9316894703
40
1.0000000000
40
1.0000000000
40
1.0000000000
40
1.0000000000
10
81.9014870878
20
165.5074244532
30
0.0000000000
10
81.8804715745
20
165.4118128614
30
0.0000000000
10
81.8274860577
20
165.2309233361
30
0.0000000000
10
81.7173279651
20
164.9907220974
30
0.0000000000
10
81.5869159460
20
164.8039568717
30
0.0000000000
10
81.4456379678
20
164.6795334618
30
0.0000000000
10
81.3043307621
20
164.6376488302
30
0.0000000000
10
81.2286981774
20
164.6622251802
30
0.0000000000
10
81.2038458886
20
164.6751764796
30
0.0000000000
11
81.9014870878
21
165.5074244532
31
0.0000000000
11
81.8182623032
21
165.2257816125
31
0.0000000000
11
81.7035691077
21
164.9818042194
31
0.0000000000
11
81.5708493368
21
164.7984381705
31
0.0000000000
11
81.4284452961
21
164.6843878254
31
0.0000000000
11
81.2828182484
21
164.6508271812
31
0.0000000000
11
81.2038458886
21
164.6751764796
31
0.0000000000
0
SPLINE
5
45F
100
AcDbEntity
8
0
100
AcDbSpline
62
7
6
CONTINUOUS
70
0
71
3
72
15
73
11
74
9
42
0.0000001000
43
0.0000001000
44
0.0000000001
40
0.0000000000
40
0.0000000000
40
0.0000000000
40
0.0000000000
40
0.0250752950
40
0.0949430112
40
0.1679028229
40
0.2569773467
40
0.3788018735
40
0.5449216634
40
0.7545673942
40
1.0000000000
40
1.0000000000
40
1.0000000000
40
1.0000000000
10
81.6005717964
20
170.4693982536
30
0.0000000000
10
81.6099176365
20
170.4739577524
30
0.0000000000
10
81.6464259158
20
170.4888138740
30
0.0000000000
10
81.7178020228
20
170.4957778388
30
0.0000000000
10
81.8101436817
20
170.4626266779
30
0.0000000000
10
81.9024448872
20
170.3880525576
30
0.0000000000
10
81.9960607453
20
170.2621991552
30
0.0000000000
10
82.0843280118
20
170.0755898170
30
0.0000000000
10
82.1553168082
20
169.8282930254
30
0.0000000000
10
82.1803791832
20
169.6413446752
30
0.0000000000
10
82.1865569212
20
169.5402510371
30
0.0000000000
11
81.6005717964
21
170.4693982536
31
0.0000000000
11
81.6294706746
21
170.4810434342
31
0.0000000000
11
81.7155678032
21
170.4893462402
31
0.0000000000
11
81.8013278602
21
170.4609959143
31
0.0000000000
11
81.8889041291
21
170.3939817573
31
0.0000000000
11
81.9814068381
21
170.2748611786
31
0.0000000000
11
82.0719720704
21
170.0902189380
31
0.0000000000
11
82.1455092244
21
169.8413122925
31
0.0000000000
11
82.1865569212
21
169.5402510371
31
0.0000000000
0
SPLINE
5
460
100
AcDbEntity
8
0
100
AcDbSpline
62
7
6
CONTINUOUS
70
0
71
3
72
37
73
33
74
31
42
0.0000001000
43
0.0000001000
44
0.0000000001
40
0.0000000000
40
0.0000000000
40
0.0000000000
40
0.0000000000
40
0.0103399940
40
0.0208138552
40
0.0312415021
40
0.0415824142
40
0.0519617655
40
0.0628764561
40
0.0748774955
40
0.0885136920
40
0.1039630998
40
0.1211224610
40
0.1399411627
40
0.1605608171
40
0.1831771778
40
0.2079923161
40
0.2352409522
40
0.2653817367
40
0.2989792580
40
0.3365310698
40
0.3779641836
40
0.4229127552
40
0.4714132775
40
0.5250354915
40
0.5851721645
40
0.6485830002
40
0.7102099945
40
0.7693803545
40
0.8273380677
40
0.8848156266
40
0.9422274613
40
1.0000000000
40
1.0000000000
40
1.0000000000
40
1.0000000000
10
83.1343318391
20
165.2364440752
30
0.0000000000
10
83.1414624899
20
165.2688854845
30
0.0000000000
10
83.1555988777
20
165.3342362720
30
0.0000000000
10
83.1761600663
20
165.4324672729
30
0.0000000000
10
83.1960607166
20
165.5308372665
30
0.0000000000
10
83.2152453128
20
165.6290400627
30
0.0000000000
10
83.2340644653
20
165.7289061039
30
0.0000000000
10
83.2531505590
20
165.8341462089
30
0.0000000000
10
83.2732511362
20
165.9498322110
30
0.0000000000
10
83.2947719599
20
166.0800528397
30
0.0000000000
10
83.3176218918
20
166.2268431596
30
0.0000000000
10
83.3413183085
20
166.3903420170
30
0.0000000000
10
83.3653121623
20
166.5705687939
30
0.0000000000
10
83.3891095802
20
166.7684914813
30
0.0000000000
10
83.4121842257
20
166.9858831154
30
0.0000000000
10
83.4338622153
20
167.2248117068
30
0.0000000000
10
83.4533143805
20
167.4881788336
30
0.0000000000
10
83.4694569565
20
167.7800342697
30
0.0000000000
10
83.4807583544
20
168.1052440549
30
0.0000000000
10
83.4850380386
20
168.4669098225
30
0.0000000000
10
83.4796242935
20
168.8650398427
30
0.0000000000
10
83.4616833604
20
169.2980196526
30
0.0000000000
10
83.4279228533
20
169.7693353243
30
0.0000000000
10
83.3735916864
20
170.2878361635
30
0.0000000000
10
83.2935569521
20
170.8514589831
30
0.0000000000
10
83.1865181736
20
171.4367672476
30
0.0000000000
10
83.0566605181
20
172.0142462903
30
0.0000000000
10
82.9089189868
20
172.5692853760
30
0.0000000000
10
82.7442289797
20
173.1055956009
30
0.0000000000
10
82.5615350912
20
173.6300634416
30
0.0000000000
10
82.3597362593
20
174.1468333172
30
0.0000000000
10
82.2123755511
20
174.4863486509
30
0.0000000000
10
82.1353198752
20
174.6551821505
30
0.0000000000
11
83.1343318391
21
165.2364440752
31
0.0000000000
11
83.1553998567
21
165.3338389396
31
0.0000000000
11
83.1760794143
21
165.4326354468
31
0.0000000000
11
83.1960057233
21
165.5311322750
31
0.0000000000
11
83.2151130815
21
165.6289397046
31
0.0000000000
11
83.2336364980
21
165.7272363907
31
0.0000000000
11
83.2524065760
21
165.8307340006
31
0.0000000000
11
83.2722051558
21
165.9446819094
31
0.0000000000
11
83.2936324388
21
166.0743365485
31
0.0000000000
11
83.3165330088
21
166.2214522031
31
0.0000000000
11
83.3402522572
21
166.3851086423
31
0.0000000000
11
83.3641854813
21
166.5648800865
31
0.0000000000
11
83.3879071180
21
166.7621726352
31
0.0000000000
11
83.4109124101
21
166.9789110996
31
0.0000000000
11
83.4325213122
21
167.2170786177
31
0.0000000000
11
83.4518639032
21
167.4789629142
31
0.0000000000
11
83.4679052256
21
167.7689891748
31
0.0000000000
11
83.4791501053
21
168.0925762872
31
0.0000000000
11
83.4834319477
21
168.4544412585
31
0.0000000000
11
83.4780025779
21
168.8536991145
31
0.0000000000
11
83.4600686101
21
169.2865012748
31
0.0000000000
11
83.4266733051
21
169.7527107707
31
0.0000000000
11
83.3728182844
21
170.2666590885
31
0.0000000000
11
83.2913389684
21
170.8404455245
31
0.0000000000
11
83.1814059705
21
171.4415721374
31
0.0000000000
11
83.0511070962
21
172.0210075889
31
0.0000000000
11
82.9044281355
21
172.5720500866
31
0.0000000000
11
82.7404658371
21
173.1059860587
31
0.0000000000
11
82.5582512784
21
173.6290744184
31
0.0000000000
11
82.3569930376
21
174.1444552576
31
0.0000000000
11
82.1353198752
21
174.6551821505
31
0.0000000000
0
SPLINE
5
461
100
AcDbEntity
8
0
100
AcDbSpline
62
7
6
CONTINUOUS
70
0
71
3
72
37
73
33
74
31
42
0.0000001000
43
0.0000001000
44
0.0000000001
40
0.0000000000
40
0.0000000000
40
0.0000000000
40
0.0000000000
40
0.0103399940
40
0.0208138552
40
0.0312415021
40
0.0415824142
40
0.0519617655
40
0.0628764561
40
0.0748774955
40
0.0885136920
40
0.1039630998
40
0.1211224610
40
0.1399411627
40
0.1605608171
40
0.1831771778
40
0.2079923161
40
0.2352409522
40
0.2653817367
40
0.2989792580
40
0.3365310698
40
0.3779641836
40
0.4229127552
40
0.4714132775
40
0.5250354915
40
0.5851721645
40
0.6485830002
40
0.7102099945
40
0.7693803545
40
0.8273380677
40
0.8848156266
40
0.9422274613
40
1.0000000000
40
1.0000000000
40
1.0000000000
40
1.0000000000
10
83.1343318391
20
165.2364440752
30
0.0000000000
10
83.1272011884
20
165.2040026659
30
0.0000000000
10
83.1126302476
20
165.1387473936
30
0.0000000000
10
83.0901038563
20
165.0409483459
30
0.0000000000
10
83.0669195243
20
164.9433001086
30
0.0000000000
10
83.0431552511
20
164.8461039295
30
0.0000000000
10
83.0183617488
20
164.7475510557
30
0.0000000000
10
82.9915570108
20
164.6440075157
30
0.0000000000
10
82.9612928425
20
164.5305554799
30
0.0000000000
10
82.9262230297
20
164.4033129311
30
0.0000000000
10
82.8854114458
20
164.2604705984
30
0.0000000000
10
82.8383617274
20
164.1021048175
30
0.0000000000
10
82.7845673059
20
163.9284282321
30
0.0000000000
10
82.7231739099
20
163.7387691742
30
0.0000000000
10
82.6529602070
20
163.5317387470
30
0.0000000000
10
82.5724472226
20
163.3057421401
30
0.0000000000
10
82.4796654595
20
163.0584929244
30
0.0000000000
10
82.3719328037
20
162.7867690697
30
0.0000000000
10
82.2458182994
20
162.4867953079
30
0.0000000000
10
82.0980417486
20
162.1566702798
30
0.0000000000
10
81.9261742245
20
161.7975068410
30
0.0000000000
10
81.7283201737
20
161.4119589613
30
0.0000000000
10
81.5000288181
20
160.9982425232
30
0.0000000000
10
81.2332760993
20
160.5503162090
30
0.0000000000
10
80.9242674010
20
160.0722054836
30
0.0000000000
10
80.5816500451
20
159.5857320392
30
0.0000000000
10
80.2216001940
20
159.1159351042
30
0.0000000000
10
79.8547248804
20
158.6740092609
30
0.0000000000
10
79.4803170672
20
158.2561932187
30
0.0000000000
10
79.0945308362
20
157.8566778161
30
0.0000000000
10
78.6946286820
20
157.4721623549
30
0.0000000000
10
78.4184773245
20
157.2257353517
30
0.0000000000
10
78.2777249760
20
157.1047762505
30
0.0000000000
11
83.1343318391
21
165.2364440752
31
0.0000000000
11
83.1126161890
21
165.1391915611
31
0.0000000000
11
83.0899601157
21
165.0408294938
31
0.0000000000
11
83.0667458902
21
164.9430553526
31
0.0000000000
11
83.0430772922
21
164.8462504876
31
0.0000000000
11
83.0186734095
21
164.7492463332
31
0.0000000000
11
82.9923124854
21
164.6474171981
31
0.0000000000
11
82.9625030116
21
164.5356696927
31
0.0000000000
11
82.9275856232
21
164.4089801908
31
0.0000000000
11
82.8866835834
21
164.2658212754
31
0.0000000000
11
82.8395885116
21
164.1073028630
31
0.0000000000
11
82.7859299890
21
163.9340650660
31
0.0000000000
11
82.7247320405
21
163.7450098441
31
0.0000000000
11
82.6547292784
21
163.5386014656
31
0.0000000000
11
82.5744727246
21
163.3133247537
31
0.0000000000
11
82.4822133005
21
163.0674676423
31
0.0000000000
11
82.3751557746
21
162.7974468246
31
0.0000000000
11
82.2496704168
21
162.4989698713
31
0.0000000000
11
82.1018122908
21
162.1686630955
31
0.0000000000
11
81.9294576328
21
161.8084823276
31
0.0000000000
11
81.7316844014
21
161.4230928025
31
0.0000000000
11
81.5058658223
21
161.0138587499
31
0.0000000000
11
81.2414544274
21
160.5698656747
31
0.0000000000
11
80.9268722623
21
160.0831339062
31
0.0000000000
11
80.5749941494
21
159.5835137880
31
0.0000000000
11
80.2137233423
21
159.1121257918
31
0.0000000000
11
79.8494885988
21
158.6733825828
31
0.0000000000
11
79.4767370449
21
158.2574167950
31
0.0000000000
11
79.0919644377
21
157.8589527209
31
0.0000000000
11
78.6931355290
21
157.4754715735
31
0.0000000000
11
78.2777249760
21
157.1047762505
31
0.0000000000
0
SPLINE
5
462
100
AcDbEntity
8
0
100
AcDbSpline
62
7
6
CONTINUOUS
70
0
71
3
72
14
73
10
74
8
42
0.0000001000
43
0.0000001000
44
0.0000000001
40
0.0000000000
40
0.0000000000
40
0.0000000000
40
0.0000000000
40
0.2112796264
40
0.4122653840
40
0.5934165894
40
0.7472009155
40
0.8681985207
40
0.9527067116
40
1.0000000000
40
1.0000000000
40
1.0000000000
40
1.0000000000
10
136.2806338470
20
216.0657938774
30
0.0000000000
10
136.2472736930
20
215.9510421206
30
0.0000000000
10
136.1767954117
20
215.7286316045
30
0.0000000000
10
136.0602828499
20
215.4138203569
30
0.0000000000
10
135.9405329495
20
215.1348780394
30
0.0000000000
10
135.8257845313
20
214.9046898893
30
0.0000000000
10
135.7198079850
20
214.7283240587
30
0.0000000000
10
135.6354964208
20
214.6184742776
30
0.0000000000
10
135.5708705207
20
214.5657938774
30
0.0000000000
10
135.5441208058
20
214.5657938774
30
0.0000000000
11
136.2806338470
21
216.0657938774
31
0.0000000000
11
136.1722866584
21
215.7240502939
31
0.0000000000
11
136.0535232697
21
215.4043566878
31
0.0000000000
11
135.9316519017
21
215.1221640728
31
0.0000000000
11
135.8138076186
21
214.8893416716
31
0.0000000000
11
135.7062986097
21
214.7144260378
31
0.0000000000
11
135.6145877889
21
214.6041908764
31
0.0000000000
11
135.5441208058
21
214.5657938774
31
0.0000000000
0
SPLINE
5
463
100
AcDbEntity
8
0
100
AcDbSpline
62
7
6
CONTINUOUS
70
0
71
3
72
17
73
13
74
11
42
0.0000001000
43
0.0000001000
44
0.0000000001
40
0.0000000000
40
0.0000000000
40
0.0000000000
40
0.0000000000
40
0.0876350094
40
0.1761227472
40
0.2645464338
40
0.3518407601
40
0.4383739987
40
0.5280957092
40
0.6256699499
40
0.7358778645
40
0.8611107870
40
1.0000000000
40
1.0000000000
40
1.0000000000
40
1.0000000000
10
125.6838968957
20
195.6932422356
30
0.0000000000
10
125.4535488289
20
195.2063848980
30
0.0000000000
10
125.0191962908
20
194.2141102026
30
0.0000000000
10
124.4561121918
20
192.6878617321
30
0.0000000000
10
123.9855675274
20
191.1327169621
30
0.0000000000
10
123.6109786025
20
189.5641045970
30
0.0000000000
10
123.3280012047
20
187.9683128568
30
0.0000000000
10
123.1336989019
20
186.2955774376
30
0.0000000000
10
123.0388484022
20
184.4682587937
30
0.0000000000
10
123.0779034416
20
182.4199680627
30
0.0000000000
10
123.3068094894
20
180.1281116235
30
0.0000000000
10
123.6140295229
20
178.5311597221
30
0.0000000000
10
123.8149810444
20
177.7015442894
30
0.0000000000
11
125.6838968957
21
195.6932422356
31
0.0000000000
11
125.0360249612
21
194.2130143315
31
0.0000000000
11
124.4713566388
21
192.6823222156
31
0.0000000000
11
123.9992463035
21
191.1218324382
31
0.0000000000
11
123.6254383753
21
189.5563227474
31
0.0000000000
11
123.3468949187
21
187.9853385884
31
0.0000000000
11
123.1560654680
21
186.3421068256
31
0.0000000000
11
123.0628586245
21
184.5454639334
31
0.0000000000
11
123.1016374793
21
182.5138372694
31
0.0000000000
11
123.3312158481
21
180.2162531705
31
0.0000000000
11
123.8149810444
21
177.7015442894
31
0.0000000000
0
SPLINE
5
464
100
AcDbEntity
8
0
100
AcDbSpline
62
7
6
CONTINUOUS
70
0
71
3
72
8
73
4
74
2
42
0.0000001000
43
0.0000001000
44
0.0000000001
40
0.0000000000
40
0.0000000000
40
0.0000000000
40
0.0000000000
40
1.0000000000
40
1.0000000000
40
1.0000000000
40
1.0000000000
10
87.5129027437
20
204.2076549504
30
0.0000000000
10
87.5316475235
20
204.2256477839
30
0.0000000000
10
87.5503716433
20
204.2436621294
30
0.0000000000
10
87.5690754425
20
204.2616975166
30
0.0000000000
11
87.5129027437
21
204.2076549504
31
0.0000000000
11
87.5690754425
21
204.2616975166
31
0.0000000000
0
SPLINE
5
465
100
AcDbEntity
8
0
100
AcDbSpline
62
7
6
CONTINUOUS
70
0
71
3
72
12
73
8
74
6
42
0.0000001000
43
0.0000001000
44
0.0000000001
40
0.0000000000
40
0.0000000000
40
0.0000000000
40
0.0000000000
40
0.1995613549
40
0.3969883931
40
0.5946941915
40
0.7950197320
40
1.0000000000
40
1.0000000000
40
1.0000000000
40
1.0000000000
10
127.3149198155
20
171.7208394051
30
0.0000000000
10
127.1112954635
20
172.0593432108
30
0.0000000000
10
126.7045054121
20
172.7316974221
30
0.0000000000
10
126.0909289115
20
173.7363376300
30
0.0000000000
10
125.4732270646
20
174.7402223806
30
0.0000000000
10
124.8450848442
20
175.7552326654
30
0.0000000000
10
124.4216023275
20
176.4366601005
30
0.0000000000
10
124.2072127401
20
176.7811518208
30
0.0000000000
11
127.3149198155
21
171.7208394051
31
0.0000000000
11
126.7016100342
21
172.7348810416
31
0.0000000000
11
126.0906637310
21
173.7355276976
31
0.0000000000
11
125.4755204370
21
174.7355438059
31
0.0000000000
11
124.8496195181
21
175.7472028391
31
0.0000000000
11
124.2072127401
21
176.7811518208
31
0.0000000000
0
SPLINE
5
466
100
AcDbEntity
8
0
100
AcDbSpline
62
7
6
CONTINUOUS
70
0
71
3
72
10
73
6
74
4
42
0.0000001000
43
0.0000001000
44
0.0000000001
40
0.0000000000
40
0.0000000000
40
0.0000000000
40
0.0000000000
40
0.3435417627
40
0.6767852817
40
1.0000000000
40
1.0000000000
40
1.0000000000
40
1.0000000000
10
127.3149198155
20
171.7208394051
30
0.0000000000
10
127.8346284012
20
170.8568792135
30
0.0000000000
10
128.8505177494
20
169.1500570137
30
0.0000000000
10
130.3260128002
20
166.6130750456
30
0.0000000000
10
131.2763082458
20
164.9371160741
30
0.0000000000
10
131.7390723151
20
164.1090829232
30
0.0000000000
11
127.3149198155
21
171.7208394051
31
0.0000000000
11
128.8615193439
21
169.1214648766
31
0.0000000000
11
130.3360929919
21
166.5849169974
31
0.0000000000
11
131.7390723151
21
164.1090829232
31
0.0000000000
0
SPLINE
5
467
100
AcDbEntity
8
0
100
AcDbSpline
62
7
6
CONTINUOUS
70
0
71
3
72
21
73
17
74
15
42
0.0000001000
43
0.0000001000
44
0.0000000001
40
0.0000000000
40
0.0000000000
40
0.0000000000
40
0.0000000000
40
0.0713659656
40
0.1431536724
40
0.2149998524
40
0.2864332602
40
0.3574207998
40
0.4286726583
40
0.5001420985
40
0.5713732210
40
0.6424070238
40
0.7135557265
40
0.7849880553
40
0.8564962534
40
0.9281560182
40
1.0000000000
40
1.0000000000
40
1.0000000000
40
1.0000000000
10
96.5922060947
20
103.7312777877
30
0.0000000000
10
97.7302450648
20
103.2298791929
30
0.0000000000
10
100.0713223220
20
102.3508252015
30
0.0000000000
10
103.7114284230
20
101.4329040489
30
0.0000000000
10
107.4333359949
20
100.9298732865
30
0.0000000000
10
111.1740307042
20
100.8485474966
30
0.0000000000
10
114.8899625106
20
101.1850763095
30
0.0000000000
10
118.5456697280
20
101.9350507971
30
0.0000000000
10
122.0982049395
20
103.0919285206
30
0.0000000000
10
125.4949323464
20
104.6386047256
30
0.0000000000
10
128.6925226801
20
106.5525416191
30
0.0000000000
10
131.6592596880
20
108.8136207557
30
0.0000000000
10
134.3607927536
20
111.3977247375
30
0.0000000000
10
136.7625340906
20
114.2743435956
30
0.0000000000
10
138.8324079102
20
117.4062946544
30
0.0000000000
10
139.9731735875
20
119.6384488384
30
0.0000000000
10
140.4801202290
20
120.7831432942
30
0.0000000000
11
96.5922060947
21
103.7312777877
31
0.0000000000
11
100.0849588201
21
102.4199892479
31
0.0000000000
11
103.7238947090
21
101.5024170543
31
0.0000000000
11
107.4459664863
21
100.9994980498
31
0.0000000000
11
111.1794022769
21
100.9184060348
31
0.0000000000
11
114.8752781291
21
101.2531900089
31
0.0000000000
11
118.5241016889
21
102.0017966282
31
0.0000000000
11
122.0766750479
21
103.1586947134
31
0.0000000000
11
125.4656409306
21
104.7017958515
31
0.0000000000
11
128.6519482329
21
106.6088827335
31
0.0000000000
11
131.6102477893
21
108.8633548669
31
0.0000000000
11
134.3088944555
21
111.4444406051
31
0.0000000000
11
136.7049450452
21
114.3138092606
31
0.0000000000
11
138.7706103774
21
117.4389754282
31
0.0000000000
11
140.4801202290
21
120.7831432942
31
0.0000000000
0
SPLINE
5
468
100
AcDbEntity
8
0
100
AcDbSpline
62
7
6
CONTINUOUS
70
0
71
3
72
9
73
5
74
3
42
0.0000001000
43
0.0000001000
44
0.0000000001
40
0.0000000000
40
0.0000000000
40
0.0000000000
40
0.0000000000
40
0.5007191002
40
1.0000000000
40
1.0000000000
40
1.0000000000
40
1.0000000000
10
140.4801202290
20
148.3484444607
30
0.0000000000
10
140.1946815108
20
148.9929701197
30
0.0000000000
10
139.5842075727
20
150.2626510672
30
0.0000000000
10
138.8954497317
20
151.4916253510
30
0.0000000000
10
138.5327759231
20
152.0937100614
30
0.0000000000
11
140.4801202290
21
148.3484444607
31
0.0000000000
11
139.5637022786
21
150.2542711637
31
0.0000000000
11
138.5327759231
21
152.0937100614
31
0.0000000000
0
SPLINE
5
469
100
AcDbEntity
8
0
100
AcDbSpline
62
7
6
CONTINUOUS
70
0
71
3
72
15
73
11
74
9
42
0.0000001000
43
0.0000001000
44
0.0000000001
40
0.0000000000
40
0.0000000000
40
0.0000000000
40
0.0000000000
40
0.1401607496
40
0.2720631142
40
0.3979885531
40
0.5201791111
40
0.6406809502
40
0.7604887363
40
0.8800871566
40
1.0000000000
40
1.0000000000
40
1.0000000000
40
1.0000000000
10
138.5327759231
20
152.0937100614
30
0.0000000000
10
138.2000099179
20
152.6461440092
30
0.0000000000
10
137.5614385238
20
153.7229057931
30
0.0000000000
10
136.6453001402
20
155.3085468394
30
0.0000000000
10
135.7833125587
20
156.8298950665
30
0.0000000000
10
134.9556404803
20
158.3103518444
30
0.0000000000
10
134.1465796504
20
159.7689490261
30
0.0000000000
10
133.3451353526
20
161.2181288633
30
0.0000000000
10
132.5441945277
20
162.6644902810
30
0.0000000000
10
132.0082453369
20
163.6274461669
30
0.0000000000
10
131.7390723151
20
164.1090829233
30
0.0000000000
11
138.5327759231
21
152.0937100614
31
0.0000000000
11
137.5453203402
21
153.7574948433
31
0.0000000000
11
136.6338119359
21
155.3336565104
31
0.0000000000
11
135.7763068865
21
156.8456704767
31
0.0000000000
11
134.9526760837
21
158.3175941177
31
0.0000000000
11
134.1453380339
21
159.7719117152
31
0.0000000000
11
133.3445342952
21
161.2188973252
31
0.0000000000
11
132.5443802124
21
162.6629391142
31
0.0000000000
11
131.7390723151
21
164.1090829233
31
0.0000000000
0
SPLINE
5
46A
100
AcDbEntity
8
0
100
AcDbSpline
62
7
6
CONTINUOUS
70
0
71
3
72
10
73
6
74
4
42
0.0000001000
43
0.0000001000
44
0.0000000001
40
0.0000000000
40
0.0000000000
40
0.0000000000
40
0.0000000000
40
0.3333242436
40
0.6661743645
40
1.0000000000
40
1.0000000000
40
1.0000000000
40
1.0000000000
10
104.8719459576
20
184.7937646818
30
0.0000000000
10
104.7444126808
20
185.1492834722
30
0.0000000000
10
104.5301693311
20
185.8751870744
30
0.0000000000
10
104.3356655047
20
186.9937784065
30
0.0000000000
10
104.2922464318
20
187.7499604058
30
0.0000000000
10
104.2922464318
20
188.1282299500
30
0.0000000000
11
104.8719459576
21
184.7937646818
31
0.0000000000
11
104.5512144647
21
185.8805288847
31
0.0000000000
11
104.3573551662
21
186.9952906379
31
0.0000000000
11
104.2922464318
21
188.1282299500
31
0.0000000000
0
SPLINE
5
46B
100
AcDbEntity
8
0
100
AcDbSpline
62
7
6
CONTINUOUS
70
0
71
3
72
11
73
7
74
5
42
0.0000001000
43
0.0000001000
44
0.0000000001
40
0.0000000000
40
0.0000000000
40
0.0000000000
40
0.0000000000
40
0.2488881032
40
0.4985640400
40
0.7488939797
40
1.0000000000
40
1.0000000000
40
1.0000000000
40
1.0000000000
10
84.6756219103
20
112.5074221085
30
0.0000000000
10
85.4866191437
20
111.5731218932
30
0.0000000000
10
87.2162937199
20
109.7899613136
30
0.0000000000
10
90.0927073450
20
107.4153568543
30
0.0000000000
10
93.2221297022
20
105.3655907928
30
0.0000000000
10
95.4499431477
20
104.2345373581
30
0.0000000000
10
96.5922060816
20
103.7312777655
30
0.0000000000
11
84.6756219103
21
112.5074221085
31
0.0000000000
11
87.2597270313
21
109.8431958854
31
0.0000000000
11
90.1307775118
21
107.4725167921
31
0.0000000000
11
93.2534484240
21
105.4268634323
31
0.0000000000
11
96.5922060816
21
103.7312777655
31
0.0000000000
0
SPLINE
5
46C
100
AcDbEntity
8
0
100
AcDbSpline
62
7
6
CONTINUOUS
70
0
71
3
72
9
73
5
74
3
42
0.0000001000
43
0.0000001000
44
0.0000000001
40
0.0000000000
40
0.0000000000
40
0.0000000000
40
0.0000000000
40
0.5000599761
40
1.0000000000
40
1.0000000000
40
1.0000000000
40
1.0000000000
10
76.5914361893
20
130.7892141055
30
0.0000000000
10
76.7266262101
20
130.2976005446
30
0.0000000000
10
76.9753643958
20
129.3084249964
30
0.0000000000
10
77.1810785618
20
128.3094328907
30
0.0000000000
10
77.2732691823
20
127.8080982487
30
0.0000000000
11
76.5914361893
21
130.7892141055
31
0.0000000000
11
76.9646356470
21
129.3058516145
31
0.0000000000
11
77.2732691823
21
127.8080982487
31
0.0000000000
0
SPLINE
5
46D
100
AcDbEntity
8
0
100
AcDbSpline
62
7
6
CONTINUOUS
70
0
71
3
72
10
73
6
74
4
42
0.0000001000
43
0.0000001000
44
0.0000000001
40
0.0000000000
40
0.0000000000
40
0.0000000000
40
0.0000000000
40
0.3625563296
40
0.6935407867
40
1.0000000000
40
1.0000000000
40
1.0000000000
40
1.0000000000
10
123.8149810444
20
177.7015442894
30
0.0000000000
10
123.8435416494
20
177.5836435616
30
0.0000000000
10
123.9124750284
20
177.3613118345
30
0.0000000000
10
124.0477610092
20
177.0546689504
30
0.0000000000
10
124.1527718973
20
176.8686308649
30
0.0000000000
10
124.2069512143
20
176.7815722608
30
0.0000000000
11
123.8149810444
21
177.7015442894
31
0.0000000000
11
123.9224158004
21
177.3538312164
31
0.0000000000
11
124.0561404555
21
177.0496907151
31
0.0000000000
11
124.2069512143
21
176.7815722608
31
0.0000000000
0
SPLINE
5
46E
100
AcDbEntity
8
0
100
AcDbSpline
62
7
6
CONTINUOUS
70
0
71
3
72
12
73
8
74
6
42
0.0000001000
43
0.0000001000
44
0.0000000001
40
0.0000000000
40
0.0000000000
40
0.0000000000
40
0.0000000000
40
0.1953881050
40
0.3950140359
40
0.5963760453
40
0.7989122835
40
1.0000000000
40
1.0000000000
40
1.0000000000
40
1.0000000000
10
77.2732691823
20
127.8080982487
30
0.0000000000
10
77.4757470124
20
126.7070193122
30
0.0000000000
10
78.0078908397
20
124.5017641670
30
0.0000000000
10
79.1613976890
20
121.2787080473
30
0.0000000000
10
80.6670147650
20
118.1582627256
30
0.0000000000
10
82.4972032667
20
115.2070874038
30
0.0000000000
10
83.9203362809
20
113.3775403684
30
0.0000000000
10
84.6756218923
20
112.5074220981
30
0.0000000000
11
77.2732691823
21
127.8080982487
31
0.0000000000
11
78.0589170946
21
124.5426570498
31
0.0000000000
11
79.2137442194
21
121.3113485131
31
0.0000000000
11
80.7173380215
21
118.1936758644
31
0.0000000000
11
82.5524735610
21
115.2351135387
31
0.0000000000
11
84.6756218923
21
112.5074220981
31
0.0000000000
0
SPLINE
5
46F
100
AcDbEntity
8
0
100
AcDbSpline
62
7
6
CONTINUOUS
70
0
71
3
72
14
73
10
74
8
42
0.0000001000
43
0.0000001000
44
0.0000000001
40
0.0000000000
40
0.0000000000
40
0.0000000000
40
0.0000000000
40
0.2177071248
40
0.4281878378
40
0.6127278437
40
0.7583306560
40
0.8634803550
40
0.9355619708
40
1.0000000000
40
1.0000000000
40
1.0000000000
40
1.0000000000
10
124.9202068440
20
229.0657938774
30
0.0000000000
10
124.8781064330
20
229.1763109807
30
0.0000000000
10
124.7978192708
20
229.3946208488
30
0.0000000000
10
124.6921451387
20
229.7104397005
30
0.0000000000
10
124.6118430525
20
229.9927510890
30
0.0000000000
10
124.5666847616
20
230.2263066302
30
0.0000000000
10
124.5591454536
20
230.4002875384
30
0.0000000000
10
124.6000237025
20
230.5361850186
30
0.0000000000
10
124.6798450406
20
230.5657938774
30
0.0000000000
10
124.7148495294
20
230.5657938774
30
0.0000000000
11
124.9202068440
21
229.0657938774
31
0.0000000000
11
124.7981290176
21
229.3989233971
31
0.0000000000
11
124.6903549431
21
229.7245690479
31
0.0000000000
11
124.6106800469
21
230.0145644355
31
0.0000000000
11
124.5692846366
21
230.2482119643
31
0.0000000000
11
124.5703823715
21
230.4195689713
31
0.0000000000
11
124.6171314470
21
230.5273360499
31
0.0000000000
11
124.7148495294
21
230.5657938774
31
0.0000000000
0
SPLINE
5
470
100
AcDbEntity
8
0
100
AcDbSpline
62
7
6
CONTINUOUS
70
0
71
3
72
14
73
10
74
8
42
0.0000001000
43
0.0000001000
44
0.0000000001
40
0.0000000000
40
0.0000000000
40
0.0000000000
40
0.0000000000
40
0.0604111481
40
0.1221989833
40
0.2164004769
40
0.3514768399
40
0.5312267305
40
0.7506105287
40
1.0000000000
40
1.0000000000
40
1.0000000000
40
1.0000000000
10
123.5423762525
20
214.5657938774
30
0.0000000000
10
123.5080641546
20
214.5657938774
30
0.0000000000
10
123.4300782645
20
214.5876610125
30
0.0000000000
10
123.3966759943
20
214.7199724085
30
0.0000000000
10
123.4277496962
20
214.8814717218
30
0.0000000000
10
123.5030807784
20
215.1025283457
30
0.0000000000
10
123.6279235295
20
215.3790189479
30
0.0000000000
10
123.7941635585
20
215.7078791793
30
0.0000000000
10
123.9210653097
20
215.9419554749
30
0.0000000000
10
123.9898258176
20
216.0657938774
30
0.0000000000
11
123.5423762525
21
214.5657938774
31
0.0000000000
11
123.4454066799
21
214.6003305619
31
0.0000000000
11
123.4080697241
21
214.6987697114
31
0.0000000000
11
123.4263821261
21
214.8582343228
31
0.0000000000
11
123.4977234024
21
215.0770590909
31
0.0000000000
11
123.6204939852
21
215.3576574556
31
0.0000000000
11
123.7879478024
21
215.6918675700
31
0.0000000000
11
123.9898258176
21
216.0657938774
31
0.0000000000
0
SPLINE
5
471
100
AcDbEntity
8
0
100
AcDbSpline
62
7
6
CONTINUOUS
70
0
71
3
72
8
73
4
74
2
42
0.0000001000
43
0.0000001000
44
0.0000000001
40
0.0000000000
40
0.0000000000
40
0.0000000000
40
0.0000000000
40
1.0000000000
40
1.0000000000
40
1.0000000000
40
1.0000000000
10
136.1746100276
20
230.5657938774
30
0.0000000000
10
136.2000304564
20
230.5657938774
30
0.0000000000
10
136.2216853608
20
230.5468277889
30
0.0000000000
10
136.2404518133
20
230.5273147524
30
0.0000000000
11
136.1746100276
21
230.5657938774
31
0.0000000000
11
136.2404518133
21
230.5273147524
31
0.0000000000
0
SPLINE
5
472
100
AcDbEntity
8
0
100
AcDbSpline
62
7
6
CONTINUOUS
70
0
71
3
72
13
73
9
74
7
42
0.0000001000
43
0.0000001000
44
0.0000000001
40
0.0000000000
40
0.0000000000
40
0.0000000000
40
0.0000000000
40
0.0883002403
40
0.2160229388
40
0.3783323179
40
0.5686238807
40
0.7789842252
40
1.0000000000
40
1.0000000000
40
1.0000000000
40
1.0000000000
10
136.2404518133
20
230.5273147524
30
0.0000000000
10
136.2745361112
20
230.4918744820
30
0.0000000000
10
136.3346116782
20
230.4007573459
30
0.0000000000
10
136.4256088720
20
230.2221551283
30
0.0000000000
10
136.5201156017
20
229.9902111848
30
0.0000000000
10
136.6155006814
20
229.7112774781
30
0.0000000000
10
136.7046034160
20
229.3986412327
30
0.0000000000
10
136.7560563733
20
229.1789087919
30
0.0000000000
10
136.7797138616
20
229.0657938774
30
0.0000000000
11
136.2404518133
21
230.5273147524
31
0.0000000000
11
136.3222921261
21
230.4155705968
31
0.0000000000
11
136.4148283930
21
230.2378745206
31
0.0000000000
11
136.5125685977
21
230.0027832589
31
0.0000000000
11
136.6097408822
21
229.7205501406
31
0.0000000000
11
136.7006088590
21
229.4033354961
31
0.0000000000
11
136.7797138616
21
229.0657938774
31
0.0000000000
0
SPLINE
5
473
100
AcDbEntity
8
0
100
AcDbSpline
62
7
6
CONTINUOUS
70
0
71
3
72
13
73
9
74
7
42
0.0000001000
43
0.0000001000
44
0.0000000001
40
0.0000000000
40
0.0000000000
40
0.0000000000
40
0.0000000000
40
0.3079607882
40
0.5771611591
40
0.7893388042
40
0.9307166959
40
0.9943489022
40
1.0000000000
40
1.0000000000
40
1.0000000000
40
1.0000000000
10
282.7270846470
20
193.7744990456
30
0.0000000000
10
282.7270846470
20
194.1011909267
30
0.0000000000
10
282.7198501765
20
194.7182071676
30
0.0000000000
10
282.6899907334
20
195.5373552640
30
0.0000000000
10
282.6354187394
20
196.2414732108
30
0.0000000000
10
282.5844436509
20
196.5885138234
30
0.0000000000
10
282.5098735422
20
196.9243938135
30
0.0000000000
10
282.4598801039
20
196.9100719547
30
0.0000000000
10
282.4556826173
20
196.9081941283
30
0.0000000000
11
282.7270846470
21
193.7744990456
31
0.0000000000
11
282.7152080142
21
194.7545027252
31
0.0000000000
11
282.6803363231
21
195.6105145479
31
0.0000000000
11
282.6248142426
21
196.2834768007
31
0.0000000000
11
282.5523450874
21
196.7275329914
31
0.0000000000
11
282.4678661028
21
196.9115780861
31
0.0000000000
11
282.4556826173
21
196.9081941283
31
0.0000000000
0
SPLINE
5
474
100
AcDbEntity
8
0
100
AcDbSpline
62
7
6
CONTINUOUS
70
0
71
3
72
16
73
12
74
10
42
0.0000001000
43
0.0000001000
44
0.0000000001
40
0.0000000000
40
0.0000000000
40
0.0000000000
40
0.0000000000
40
0.1336742013
40
0.2740335055
40
0.4146474247
40
0.5516420328
40
0.6780116885
40
0.7905608480
40
0.8835069427
40
0.9543182147
40
1.0000000000
40
1.0000000000
40
1.0000000000
40
1.0000000000
10
281.5212278324
20
188.7797951155
30
0.0000000000
10
281.5087720146
20
189.4018552393
30
0.0000000000
10
281.4964835776
20
190.6773715676
30
0.0000000000
10
281.5115998201
20
192.6073659412
30
0.0000000000
10
281.5591552054
20
194.5523106311
30
0.0000000000
10
281.6371967962
20
196.4310713102
30
0.0000000000
10
281.7426498769
20
198.1777914047
30
0.0000000000
10
281.8711711589
20
199.7169761243
30
0.0000000000
10
282.0154720669
20
200.9959760276
30
0.0000000000
10
282.1720791009
20
201.9568587796
30
0.0000000000
10
282.2968851528
20
202.4882842532
30
0.0000000000
10
282.3771299929
20
202.6851859321
30
0.0000000000
11
281.5212278324
21
188.7797951155
31
0.0000000000
11
281.5020845536
21
190.6462513940
31
0.0000000000
11
281.5170120494
21
192.6060961653
31
0.0000000000
11
281.5652225154
21
194.5689611256
31
0.0000000000
11
281.6454734216
21
196.4801958560
31
0.0000000000
11
281.7536616840
21
198.2414338365
31
0.0000000000
11
281.8870833560
21
199.8073358203
31
0.0000000000
11
282.0389279152
21
201.0962716624
31
0.0000000000
11
282.2047990028
21
202.0710299425
31
0.0000000000
11
282.3771299929
21
202.6851859321
31
0.0000000000
0
SPLINE
5
475
100
AcDbEntity
8
0
100
AcDbSpline
62
7
6
CONTINUOUS
70
0
71
3
72
14
73
10
74
8
42
0.0000001000
43
0.0000001000
44
0.0000000001
40
0.0000000000
40
0.0000000000
40
0.0000000000
40
0.0000000000
40
0.0886709672
40
0.2507216943
40
0.4129891691
40
0.5747878378
40
0.7357193320
40
0.8958394432
40
1.0000000000
40
1.0000000000
40
1.0000000000
40
1.0000000000
10
306.3647721503
20
159.8111066139
30
0.0000000000
10
306.3547317555
20
159.8744782449
30
0.0000000000
10
306.3092018257
20
160.0513246513
30
0.0000000000
10
306.1570904615
20
160.3134712138
30
0.0000000000
10
305.8825385940
20
160.5418530485
30
0.0000000000
10
305.5469797901
20
160.6613192922
30
0.0000000000
10
305.1924503678
20
160.6584810105
30
0.0000000000
10
304.8998971175
20
160.5496330891
30
0.0000000000
10
304.7460399020
20
160.4341885803
30
0.0000000000
10
304.6912190119
20
160.3825389138
30
0.0000000000
11
306.3647721503
21
159.8111066139
31
0.0000000000
11
306.3166717086
21
159.9973524344
31
0.0000000000
11
306.1412620676
21
160.2999777877
31
0.0000000000
11
305.8719474961
21
160.5239148821
31
0.0000000000
11
305.5429432388
21
160.6410751387
31
0.0000000000
11
305.1955836135
21
160.6383003504
31
0.0000000000
11
304.8716641041
21
160.5177645554
31
0.0000000000
11
304.6912190119
21
160.3825389138
31
0.0000000000
0
SPLINE
5
476
100
AcDbEntity
8
0
100
AcDbSpline
62
7
6
CONTINUOUS
70
0
71
3
72
8
73
4
74
2
42
0.0000001000
43
0.0000001000
44
0.0000000001
40
0.0000000000
40
0.0000000000
40
0.0000000000
40
0.0000000000
40
1.0000000000
40
1.0000000000
40
1.0000000000
40
1.0000000000
10
302.3425709795
20
161.4966512738
30
0.0000000000
10
302.3657016805
20
161.5821093923
30
0.0000000000
10
302.3775375733
20
161.6706246783
30
0.0000000000
10
302.3775375733
20
161.7585618837
30
0.0000000000
11
302.3425709795
21
161.4966512738
31
0.0000000000
11
302.3775375733
21
161.7585618837
31
0.0000000000
0
SPLINE
5
477
100
AcDbEntity
8
0
100
AcDbSpline
62
7
6
CONTINUOUS
70
0
71
3
72
13
73
9
74
7
42
0.0000001000
43
0.0000001000
44
0.0000000001
40
0.0000000000
40
0.0000000000
40
0.0000000000
40
0.0000000000
40
0.1950210057
40
0.3911950833
40
0.5876315494
40
0.7835004921
40
0.9783196575
40
1.0000000000
40
1.0000000000
40
1.0000000000
40
1.0000000000
10
302.3775375733
20
161.7585618837
30
0.0000000000
10
302.3775375733
20
161.8744720830
30
0.0000000000
10
302.3362856724
20
162.1089950699
30
0.0000000000
10
302.1574980419
20
162.4171151306
30
0.0000000000
10
301.8829461744
20
162.6454969653
30
0.0000000000
10
301.5473873705
20
162.7649632090
30
0.0000000000
10
301.2972753316
20
162.7629608691
30
0.0000000000
10
301.1705679662
20
162.7369933321
30
0.0000000000
10
301.1579348258
20
162.7341464694
30
0.0000000000
11
302.3775375733
21
161.7585618837
31
0.0000000000
11
302.3170792890
21
162.1009963512
31
0.0000000000
11
302.1416696480
21
162.4036217045
31
0.0000000000
11
301.8723550765
21
162.6275587989
31
0.0000000000
11
301.5433508192
21
162.7447190555
31
0.0000000000
11
301.1959911939
21
162.7419442672
31
0.0000000000
11
301.1579348258
21
162.7341464694
31
0.0000000000
0
SPLINE
5
478
100
AcDbEntity
8
0
100
AcDbSpline
62
7
6
CONTINUOUS
70
0
71
3
72
12
73
8
74
6
42
0.0000001000
43
0.0000001000
44
0.0000000001
40
0.0000000000
40
0.0000000000
40
0.0000000000
40
0.0000000000
40
0.1677712189
40
0.3867356384
40
0.6057898797
40
0.8241602075
40
1.0000000000
40
1.0000000000
40
1.0000000000
40
1.0000000000
10
306.3546717321
20
163.5360406367
30
0.0000000000
10
306.3351251610
20
163.6264488805
30
0.0000000000
10
306.2609252711
20
163.8296848464
30
0.0000000000
10
306.0492689089
20
164.0955783743
30
0.0000000000
10
305.7324005118
20
164.2839376823
30
0.0000000000
10
305.3932835208
20
164.3434089864
30
0.0000000000
10
305.1758287530
20
164.3097979733
30
0.0000000000
10
305.0830063155
20
164.2812684583
30
0.0000000000
11
306.3546717321
21
163.5360406367
31
0.0000000000
11
306.2592822573
21
163.7964793816
31
0.0000000000
11
306.0347032012
21
164.0789057232
31
0.0000000000
11
305.7243667355
21
164.2632925731
31
0.0000000000
11
305.3699285602
21
164.3254891398
31
0.0000000000
11
305.0830063155
21
164.2812684583
31
0.0000000000
0
SPLINE
5
479
100
AcDbEntity
8
0
100
AcDbSpline
62
7
6
CONTINUOUS
70
0
71
3
72
9
73
5
74
3
42
0.0000001000
43
0.0000001000
44
0.0000000001
40
0.0000000000
40
0.0000000000
40
0.0000000000
40
0.0000000000
40
0.4486704464
40
1.0000000000
40
1.0000000000
40
1.0000000000
40
1.0000000000
10
302.1852534928
20
170.1616200294
30
0.0000000000
10
302.2408174259
20
170.0854856208
30
0.0000000000
10
302.3406369033
20
169.8982513331
30
0.0000000000
10
302.3775375733
20
169.6873348017
30
0.0000000000
10
302.3775375733
20
169.5720439332
30
0.0000000000
11
302.1852534928
21
170.1616200294
31
0.0000000000
11
302.3177236436
21
169.9127052798
31
0.0000000000
11
302.3775375733
21
169.5720439332
31
0.0000000000
0
SPLINE
5
47A
100
AcDbEntity
8
0
100
AcDbSpline
62
7
6
CONTINUOUS
70
0
71
3
72
10
73
6
74
4
42
0.0000001000
43
0.0000001000
44
0.0000000001
40
0.0000000000
40
0.0000000000
40
0.0000000000
40
0.0000000000
40
0.3693229200
40
0.7408294809
40
1.0000000000
40
1.0000000000
40
1.0000000000
40
1.0000000000
10
302.3775375733
20
169.5720439332
30
0.0000000000
10
302.3775375733
20
169.4561337339
30
0.0000000000
10
302.3362856724
20
169.2216107470
30
0.0000000000
10
302.1756257713
20
168.9447317575
30
0.0000000000
10
302.0284551041
20
168.8086009298
30
0.0000000000
10
301.9621365987
20
168.7607711776
30
0.0000000000
11
302.3775375733
21
169.5720439332
31
0.0000000000
11
302.3170792890
21
169.2296094657
31
0.0000000000
11
302.1416696480
21
168.9269841124
31
0.0000000000
11
301.9621365987
21
168.7607711776
31
0.0000000000
0
SPLINE
5
47B
100
AcDbEntity
8
0
100
AcDbSpline
62
7
6
CONTINUOUS
70
0
71
3
72
12
73
8
74
6
42
0.0000001000
43
0.0000001000
44
0.0000000001
40
0.0000000000
40
0.0000000000
40
0.0000000000
40
0.0000000000
40
0.0519414246
40
0.2891613834
40
0.5258118758
40
0.7626062076
40
1.0000000000
40
1.0000000000
40
1.0000000000
40
1.0000000000
10
301.4834292080
20
166.5522783182
30
0.0000000000
10
301.5086394379
20
166.5495925932
30
0.0000000000
10
301.6484115505
20
166.5293065255
30
0.0000000000
10
301.8925995389
20
166.4384534759
30
0.0000000000
10
302.1611848330
20
166.2106713701
30
0.0000000000
10
302.3364925062
20
165.9055310266
30
0.0000000000
10
302.3771299929
20
165.6732556310
30
0.0000000000
10
302.3771299929
20
165.5579647624
30
0.0000000000
11
301.4834292080
21
166.5522783182
31
0.0000000000
11
301.5586763723
21
166.5413471459
31
0.0000000000
11
301.8825958817
21
166.4208113509
31
0.0000000000
11
302.1455973875
21
166.1978537086
31
0.0000000000
11
302.3173160633
21
165.8986261091
31
0.0000000000
11
302.3771299929
21
165.5579647624
31
0.0000000000
0
SPLINE
5
47C
100
AcDbEntity
8
0
100
AcDbSpline
62
7
6
CONTINUOUS
70
0
71
3
72
9
73
5
74
3
42
0.0000001000
43
0.0000001000
44
0.0000000001
40
0.0000000000
40
0.0000000000
40
0.0000000000
40
0.0000000000
40
0.5145863300
40
1.0000000000
40
1.0000000000
40
1.0000000000
40
1.0000000000
10
302.3771299929
20
165.5579647624
30
0.0000000000
10
302.3771299929
20
165.4420545632
30
0.0000000000
10
302.3371655536
20
165.2148509802
30
0.0000000000
10
302.2242100178
20
165.0152435935
30
0.0000000000
10
302.1551904330
20
164.9297702971
30
0.0000000000
11
302.3771299929
21
165.5579647624
31
0.0000000000
11
302.3166717086
21
165.2155302950
31
0.0000000000
11
302.1551904330
21
164.9297702971
31
0.0000000000
0
SPLINE
5
47D
100
AcDbEntity
8
0
100
AcDbSpline
62
7
6
CONTINUOUS
70
0
71
3
72
14
73
10
74
8
42
0.0000001000
43
0.0000001000
44
0.0000000001
40
0.0000000000
40
0.0000000000
40
0.0000000000
40
0.0000000000
40
0.0222859040
40
0.0973492896
40
0.2207926577
40
0.3847504802
40
0.5781296552
40
0.7879806702
40
1.0000000000
40
1.0000000000
40
1.0000000000
40
1.0000000000
10
308.4556826173
20
188.9233936266
30
0.0000000000
10
308.4302088263
20
188.9347898172
30
0.0000000000
10
308.2996655151
20
189.0987435949
30
0.0000000000
10
308.2931537930
20
189.4358063970
30
0.0000000000
10
308.1779204736
20
190.0319225118
30
0.0000000000
10
308.1258537544
20
190.8102465180
30
0.0000000000
10
308.0674886702
20
191.7360686689
30
0.0000000000
10
308.0356237689
20
192.7395684496
30
0.0000000000
10
308.0271753388
20
193.4283802301
30
0.0000000000
10
308.0271753388
20
193.7744990456
30
0.0000000000
11
308.4556826173
21
188.9233936266
31
0.0000000000
11
308.3771299929
21
189.0090528527
31
0.0000000000
11
308.2863938830
21
189.3652991690
31
0.0000000000
11
308.2019148984
21
189.9639267806
31
0.0000000000
11
308.1294457432
21
190.7636269807
31
0.0000000000
11
308.0739236627
21
191.7090650921
31
0.0000000000
11
308.0390519716
21
192.7362105232
31
0.0000000000
11
308.0271753388
21
193.7744990456
31
0.0000000000
0
SPLINE
5
47E
100
AcDbEntity
8
0
100
AcDbSpline
62
7
6
CONTINUOUS
70
0
71
3
72
14
73
10
74
8
42
0.0000001000
43
0.0000001000
44
0.0000000001
40
0.0000000000
40
0.0000000000
40
0.0000000000
40
0.0000000000
40
0.0886709672
40
0.2507216943
40
0.4129891691
40
0.5747878378
40
0.7357193320
40
0.8958394432
40
1.0000000000
40
1.0000000000
40
1.0000000000
40
1.0000000000
10
284.3894878355
20
159.8111066139
30
0.0000000000
10
284.3995282303
20
159.8744782449
30
0.0000000000
10
284.4450581601
20
160.0513246513
30
0.0000000000
10
284.5971695243
20
160.3134712138
30
0.0000000000
10
284.8717213918
20
160.5418530485
30
0.0000000000
10
285.2072801957
20
160.6613192922
30
0.0000000000
10
285.5618096180
20
160.6584810105
30
0.0000000000
10
285.8543628683
20
160.5496330891
30
0.0000000000
10
286.0082200838
20
160.4341885803
30
0.0000000000
10
286.0630409739
20
160.3825389138
30
0.0000000000
11
284.3894878355
21
159.8111066139
31
0.0000000000
11
284.4375882772
21
159.9973524344
31
0.0000000000
11
284.6129979182
21
160.2999777877
31
0.0000000000
11
284.8823124897
21
160.5239148821
31
0.0000000000
11
285.2113167470
21
160.6410751387
31
0.0000000000
11
285.5586763723
21
160.6383003504
31
0.0000000000
11
285.8825958817
21
160.5177645554
31
0.0000000000
11
286.0630409739
21
160.3825389138
31
0.0000000000
0
SPLINE
5
47F
100
AcDbEntity
8
0
100
AcDbSpline
62
7
6
CONTINUOUS
70
0
71
3
72
8
73
4
74
2
42
0.0000001000
43
0.0000001000
44
0.0000000001
40
0.0000000000
40
0.0000000000
40
0.0000000000
40
0.0000000000
40
1.0000000000
40
1.0000000000
40
1.0000000000
40
1.0000000000
10
288.4116890063
20
161.4966512738
30
0.0000000000
10
288.3885583053
20
161.5821093923
30
0.0000000000
10
288.3767224125
20
161.6706246783
30
0.0000000000
10
288.3767224125
20
161.7585618837
30
0.0000000000
11
288.4116890063
21
161.4966512738
31
0.0000000000
11
288.3767224125
21
161.7585618837
31
0.0000000000
0
SPLINE
5
480
100
AcDbEntity
8
0
100
AcDbSpline
62
7
6
CONTINUOUS
70
0
71
3
72
13
73
9
74
7
42
0.0000001000
43
0.0000001000
44
0.0000000001
40
0.0000000000
40
0.0000000000
40
0.0000000000
40
0.0000000000
40
0.1950210057
40
0.3911950833
40
0.5876315494
40
0.7835004921
40
0.9783196575
40
1.0000000000
40
1.0000000000
40
1.0000000000
40
1.0000000000
10
288.3767224125
20
161.7585618837
30
0.0000000000
10
288.3767224125
20
161.8744720830
30
0.0000000000
10
288.4179743134
20
162.1089950699
30
0.0000000000
10
288.5967619439
20
162.4171151306
30
0.0000000000
10
288.8713138115
20
162.6454969653
30
0.0000000000
10
289.2068726153
20
162.7649632090
30
0.0000000000
10
289.4569846542
20
162.7629608691
30
0.0000000000
10
289.5836920196
20
162.7369933321
30
0.0000000000
10
289.5963251600
20
162.7341464694
30
0.0000000000
11
288.3767224125
21
161.7585618837
31
0.0000000000
11
288.4371806968
21
162.1009963512
31
0.0000000000
11
288.6125903378
21
162.4036217045
31
0.0000000000
11
288.8819049093
21
162.6275587989
31
0.0000000000
11
289.2109091666
21
162.7447190555
31
0.0000000000
11
289.5582687919
21
162.7419442672
31
0.0000000000
11
289.5963251600
21
162.7341464694
31
0.0000000000
0
SPLINE
5
481
100
AcDbEntity
8
0
100
AcDbSpline
62
7
6
CONTINUOUS
70
0
71
3
72
12
73
8
74
6
42
0.0000001000
43
0.0000001000
44
0.0000000001
40
0.0000000000
40
0.0000000000
40
0.0000000000
40
0.0000000000
40
0.1677712189
40
0.3867356384
40
0.6057898797
40
0.8241602075
40
1.0000000000
40
1.0000000000
40
1.0000000000
40
1.0000000000
10
284.3995882538
20
163.5360406367
30
0.0000000000
10
284.4191348248
20
163.6264488805
30
0.0000000000
10
284.4933347147
20
163.8296848464
30
0.0000000000
10
284.7049910769
20
164.0955783743
30
0.0000000000
10
285.0218594740
20
164.2839376823
30
0.0000000000
10
285.3609764651
20
164.3434089864
30
0.0000000000
10
285.5784312328
20
164.3097979733
30
0.0000000000
10
285.6712536703
20
164.2812684583
30
0.0000000000
11
284.3995882538
21
163.5360406367
31
0.0000000000
11
284.4949777285
21
163.7964793816
31
0.0000000000
11
284.7195567846
21
164.0789057232
31
0.0000000000
11
285.0298932503
21
164.2632925731
31
0.0000000000
11
285.3843314256
21
164.3254891398
31
0.0000000000
11
285.6712536703
21
164.2812684583
31
0.0000000000
0
SPLINE
5
482
100
AcDbEntity
8
0
100
AcDbSpline
62
7
6
CONTINUOUS
70
0
71
3
72
9
73
5
74
3
42
0.0000001000
43
0.0000001000
44
0.0000000001
40
0.0000000000
40
0.0000000000
40
0.0000000000
40
0.0000000000
40
0.4486704464
40
1.0000000000
40
1.0000000000
40
1.0000000000
40
1.0000000000
10
288.5690064930
20
170.1616200294
30
0.0000000000
10
288.5134425600
20
170.0854856208
30
0.0000000000
10
288.4136230826
20
169.8982513331
30
0.0000000000
10
288.3767224125
20
169.6873348017
30
0.0000000000
10
288.3767224125
20
169.5720439332
30
0.0000000000
11
288.5690064930
21
170.1616200294
31
0.0000000000
11
288.4365363422
21
169.9127052798
31
0.0000000000
11
288.3767224125
21
169.5720439332
31
0.0000000000
0
SPLINE
5
483
100
AcDbEntity
8
0
100
AcDbSpline
62
7
6
CONTINUOUS
70
0
71
3
72
10
73
6
74
4
42
0.0000001000
43
0.0000001000
44
0.0000000001
40
0.0000000000
40
0.0000000000
40
0.0000000000
40
0.0000000000
40
0.3693229200
40
0.7408294809
40
1.0000000000
40
1.0000000000
40
1.0000000000
40
1.0000000000
10
288.3767224125
20
169.5720439332
30
0.0000000000
10
288.3767224125
20
169.4561337339
30
0.0000000000
10
288.4179743134
20
169.2216107470
30
0.0000000000
10
288.5786342145
20
168.9447317575
30
0.0000000000
10
288.7258048817
20
168.8086009298
30
0.0000000000
10
288.7921233871
20
168.7607711776
30
0.0000000000
11
288.3767224125
21
169.5720439332
31
0.0000000000
11
288.4371806968
21
169.2296094657
31
0.0000000000
11
288.6125903378
21
168.9269841124
31
0.0000000000
11
288.7921233871
21
168.7607711776
31
0.0000000000
0
SPLINE
5
484
100
AcDbEntity
8
0
100
AcDbSpline
62
7
6
CONTINUOUS
70
0
71
3
72
12
73
8
74
6
42
0.0000001000
43
0.0000001000
44
0.0000000001
40
0.0000000000
40
0.0000000000
40
0.0000000000
40
0.0000000000
40
0.0519414246
40
0.2891613834
40
0.5258118758
40
0.7626062076
40
1.0000000000
40
1.0000000000
40
1.0000000000
40
1.0000000000
10
289.2708307778
20
166.5522783182
30
0.0000000000
10
289.2456205479
20
166.5495925932
30
0.0000000000
10
289.1058484353
20
166.5293065255
30
0.0000000000
10
288.8616604469
20
166.4384534759
30
0.0000000000
10
288.5930751528
20
166.2106713701
30
0.0000000000
10
288.4177674796
20
165.9055310266
30
0.0000000000
10
288.3771299929
20
165.6732556310
30
0.0000000000
10
288.3771299929
20
165.5579647624
30
0.0000000000
11
289.2708307778
21
166.5522783182
31
0.0000000000
11
289.1955836135
21
166.5413471459
31
0.0000000000
11
288.8716641041
21
166.4208113509
31
0.0000000000
11
288.6086625983
21
166.1978537086
31
0.0000000000
11
288.4369439226
21
165.8986261091
31
0.0000000000
11
288.3771299929
21
165.5579647624
31
0.0000000000
0
SPLINE
5
485
100
AcDbEntity
8
0
100
AcDbSpline
62
7
6
CONTINUOUS
70
0
71
3
72
9
73
5
74
3
42
0.0000001000
43
0.0000001000
44
0.0000000001
40
0.0000000000
40
0.0000000000
40
0.0000000000
40
0.0000000000
40
0.5145863300
40
1.0000000000
40
1.0000000000
40
1.0000000000
40
1.0000000000
10
288.3771299929
20
165.5579647624
30
0.0000000000
10
288.3771299929
20
165.4420545632
30
0.0000000000
10
288.4170944322
20
165.2148509802
30
0.0000000000
10
288.5300499680
20
165.0152435935
30
0.0000000000
10
288.5990695528
20
164.9297702971
30
0.0000000000
11
288.3771299929
21
165.5579647624
31
0.0000000000
11
288.4375882772
21
165.2155302950
31
0.0000000000
11
288.5990695528
21
164.9297702971
31
0.0000000000
0
SPLINE
5
486
100
AcDbEntity
8
0
100
AcDbSpline
62
7
6
CONTINUOUS
70
0
71
3
72
14
73
10
74
8
42
0.0000001000
43
0.0000001000
44
0.0000000001
40
0.0000000000
40
0.0000000000
40
0.0000000000
40
0.0000000000
40
0.0222859040
40
0.0973492896
40
0.2207926577
40
0.3847504802
40
0.5781296552
40
0.7879806702
40
1.0000000000
40
1.0000000000
40
1.0000000000
40
1.0000000000
10
282.2985773686
20
188.9233936266
30
0.0000000000
10
282.3240511595
20
188.9347898172
30
0.0000000000
10
282.4545944707
20
189.0987435949
30
0.0000000000
10
282.4611061928
20
189.4358063970
30
0.0000000000
10
282.5763395122
20
190.0319225118
30
0.0000000000
10
282.6284062314
20
190.8102465180
30
0.0000000000
10
282.6867713156
20
191.7360686689
30
0.0000000000
10
282.7186362169
20
192.7395684496
30
0.0000000000
10
282.7270846470
20
193.4283802301
30
0.0000000000
10
282.7270846470
20
193.7744990456
30
0.0000000000
11
282.2985773686
21
188.9233936266
31
0.0000000000
11
282.3771299929
21
189.0090528527
31
0.0000000000
11
282.4678661028
21
189.3652991690
31
0.0000000000
11
282.5523450874
21
189.9639267806
31
0.0000000000
11
282.6248142426
21
190.7636269807
31
0.0000000000
11
282.6803363231
21
191.7090650921
31
0.0000000000
11
282.7152080142
21
192.7362105232
31
0.0000000000
11
282.7270846470
21
193.7744990456
31
0.0000000000
0
SPLINE
5
487
100
AcDbEntity
8
0
100
AcDbSpline
62
7
6
CONTINUOUS
70
0
71
3
72
8
73
4
74
2
42
0.0000001000
43
0.0000001000
44
0.0000000001
40
0.0000000000
40
0.0000000000
40
0.0000000000
40
0.0000000000
40
1.0000000000
40
1.0000000000
40
1.0000000000
40
1.0000000000
10
283.4297706157
20
205.1751170189
30
0.0000000000
10
283.4017975425
20
205.1682949579
30
0.0000000000
10
283.3689440168
20
205.1188607473
30
0.0000000000
10
283.3543250445
20
205.0829892798
30
0.0000000000
11
283.4297706157
21
205.1751170189
31
0.0000000000
11
283.3543250445
21
205.0829892798
31
0.0000000000
0
SPLINE
5
488
100
AcDbEntity
8
0
100
AcDbSpline
62
7
6
CONTINUOUS
70
0
71
3
72
8
73
4
74
2
42
0.0000001000
43
0.0000001000
44
0.0000000001
40
0.0000000000
40
0.0000000000
40
0.0000000000
40
0.0000000000
40
1.0000000000
40
1.0000000000
40
1.0000000000
40
1.0000000000
10
307.3244893701
20
205.1751170189
30
0.0000000000
10
307.3524624434
20
205.1682949579
30
0.0000000000
10
307.3853159690
20
205.1188607473
30
0.0000000000
10
307.3999349413
20
205.0829892798
30
0.0000000000
11
307.3244893701
21
205.1751170189
31
0.0000000000
11
307.3999349413
21
205.0829892798
31
0.0000000000
0
SPLINE
5
489
100
AcDbEntity
8
0
100
AcDbSpline
62
7
6
CONTINUOUS
70
0
71
3
72
10
73
6
74
4
42
0.0000001000
43
0.0000001000
44
0.0000000001
40
0.0000000000
40
0.0000000000
40
0.0000000000
40
0.0000000000
40
0.3349998022
40
0.6682480545
40
1.0000000000
40
1.0000000000
40
1.0000000000
40
1.0000000000
10
282.5913707798
20
152.2877722842
30
0.0000000000
10
282.5112813469
20
152.5473354292
30
0.0000000000
10
282.3752286317
20
153.0727909204
30
0.0000000000
10
282.2455182824
20
153.8742836982
30
0.0000000000
10
282.2093663721
20
154.4132401846
30
0.0000000000
10
282.2039810373
20
154.6821909718
30
0.0000000000
11
282.5913707798
21
152.2877722842
31
0.0000000000
11
282.3872803217
21
153.0767166273
31
0.0000000000
11
282.2579070045
21
153.8769806018
31
0.0000000000
11
282.2039810373
21
154.6821909718
31
0.0000000000
0
SPLINE
5
48A
100
AcDbEntity
8
0
100
AcDbSpline
62
7
6
CONTINUOUS
70
0
71
3
72
15
73
11
74
9
42
0.0000001000
43
0.0000001000
44
0.0000000001
40
0.0000000000
40
0.0000000000
40
0.0000000000
40
0.0000000000
40
0.1261670471
40
0.2521694811
40
0.3778823842
40
0.5032019134
40
0.6280728020
40
0.7524673965
40
0.8764193637
40
1.0000000000
40
1.0000000000
40
1.0000000000
40
1.0000000000
10
286.2135442794
20
144.0815310685
30
0.0000000000
10
286.1315688180
20
144.0815310685
30
0.0000000000
10
285.9674259018
20
144.0945925356
30
0.0000000000
10
285.7278970940
20
144.1528770266
30
0.0000000000
10
285.5011375661
20
144.2483506941
30
0.0000000000
10
285.2932460217
20
144.3785607679
30
0.0000000000
10
285.1097805821
20
144.5401235927
30
0.0000000000
10
284.9557167279
20
144.7288277786
30
0.0000000000
10
284.8353076022
20
144.9395748641
30
0.0000000000
10
284.7795714219
20
145.0913909287
30
0.0000000000
10
284.7583278112
20
145.1688247181
30
0.0000000000
11
286.2135442794
21
144.0815310685
31
0.0000000000
11
285.9683951335
21
144.1010677702
31
0.0000000000
11
285.7297598549
21
144.1591648819
31
0.0000000000
11
285.5039469474
21
144.2543158222
31
0.0000000000
11
285.2969689973
21
144.3840467229
31
0.0000000000
11
285.1143630165
21
144.5449770341
31
0.0000000000
11
284.9610828871
21
144.7328536664
31
0.0000000000
11
284.8413059437
21
144.9426827844
31
0.0000000000
11
284.7583278112
21
145.1688247181
31
0.0000000000
0
SPLINE
5
48B
100
AcDbEntity
8
0
100
AcDbSpline
62
7
6
CONTINUOUS
70
0
71
3
72
13
73
9
74
7
42
0.0000001000
43
0.0000001000
44
0.0000000001
40
0.0000000000
40
0.0000000000
40
0.0000000000
40
0.0000000000
40
0.3079607882
40
0.5771611591
40
0.7893388042
40
0.9307166959
40
0.9943489022
40
1.0000000000
40
1.0000000000
40
1.0000000000
40
1.0000000000
10
308.0271753388
20
193.7744990456
30
0.0000000000
10
308.0271753388
20
194.1011909267
30
0.0000000000
10
308.0344098094
20
194.7182071676
30
0.0000000000
10
308.0642692524
20
195.5373552640
30
0.0000000000
10
308.1188412464
20
196.2414732108
30
0.0000000000
10
308.1698163349
20
196.5885138234
30
0.0000000000
10
308.2443864437
20
196.9243938135
30
0.0000000000
10
308.2943798819
20
196.9100719547
30
0.0000000000
10
308.2985773686
20
196.9081941283
30
0.0000000000
11
308.0271753388
21
193.7744990456
31
0.0000000000
11
308.0390519716
21
194.7545027252
31
0.0000000000
11
308.0739236627
21
195.6105145479
31
0.0000000000
11
308.1294457432
21
196.2834768007
31
0.0000000000
11
308.2019148984
21
196.7275329914
31
0.0000000000
11
308.2863938830
21
196.9115780861
31
0.0000000000
11
308.2985773686
21
196.9081941283
31
0.0000000000
0
SPLINE
5
48C
100
AcDbEntity
8
0
100
AcDbSpline
62
7
6
CONTINUOUS
70
0
71
3
72
16
73
12
74
10
42
0.0000001000
43
0.0000001000
44
0.0000000001
40
0.0000000000
40
0.0000000000
40
0.0000000000
40
0.0000000000
40
0.1336742013
40
0.2740335055
40
0.4146474247
40
0.5516420328
40
0.6780116885
40
0.7905608480
40
0.8835069427
40
0.9543182147
40
1.0000000000
40
1.0000000000
40
1.0000000000
40
1.0000000000
10
309.2330321534
20
188.7797951155
30
0.0000000000
10
309.2454879712
20
189.4018552393
30
0.0000000000
10
309.2577764083
20
190.6773715676
30
0.0000000000
10
309.2426601657
20
192.6073659412
30
0.0000000000
10
309.1951047804
20
194.5523106311
30
0.0000000000
10
309.1170631896
20
196.4310713102
30
0.0000000000
10
309.0116101089
20
198.1777914047
30
0.0000000000
10
308.8830888269
20
199.7169761243
30
0.0000000000
10
308.7387879189
20
200.9959760276
30
0.0000000000
10
308.5821808849
20
201.9568587796
30
0.0000000000
10
308.4573748330
20
202.4882842532
30
0.0000000000
10
308.3771299929
20
202.6851859321
30
0.0000000000
11
309.2330321534
21
188.7797951155
31
0.0000000000
11
309.2521754322
21
190.6462513940
31
0.0000000000
11
309.2372479365
21
192.6060961653
31
0.0000000000
11
309.1890374704
21
194.5689611256
31
0.0000000000
11
309.1087865642
21
196.4801958560
31
0.0000000000
11
309.0005983018
21
198.2414338365
31
0.0000000000
11
308.8671766298
21
199.8073358203
31
0.0000000000
11
308.7153320706
21
201.0962716624
31
0.0000000000
11
308.5494609831
21
202.0710299425
31
0.0000000000
11
308.3771299929
21
202.6851859321
31
0.0000000000
0
SPLINE
5
48D
100
AcDbEntity
8
0
100
AcDbSpline
62
7
6
CONTINUOUS
70
0
71
3
72
10
73
6
74
4
42
0.0000001000
43
0.0000001000
44
0.0000000001
40
0.0000000000
40
0.0000000000
40
0.0000000000
40
0.0000000000
40
0.3349998022
40
0.6682480545
40
1.0000000000
40
1.0000000000
40
1.0000000000
40
1.0000000000
10
308.1628892060
20
152.2877722842
30
0.0000000000
10
308.2429786389
20
152.5473354292
30
0.0000000000
10
308.3790313541
20
153.0727909204
30
0.0000000000
10
308.5087417035
20
153.8742836982
30
0.0000000000
10
308.5448936138
20
154.4132401846
30
0.0000000000
10
308.5502789485
20
154.6821909718
30
0.0000000000
11
308.1628892060
21
152.2877722842
31
0.0000000000
11
308.3669796641
21
153.0767166273
31
0.0000000000
11
308.4963529813
21
153.8769806018
31
0.0000000000
11
308.5502789485
21
154.6821909718
31
0.0000000000
0
SPLINE
5
48E
100
AcDbEntity
8
0
100
AcDbSpline
62
7
6
CONTINUOUS
70
0
71
3
72
15
73
11
74
9
42
0.0000001000
43
0.0000001000
44
0.0000000001
40
0.0000000000
40
0.0000000000
40
0.0000000000
40
0.0000000000
40
0.1261670471
40
0.2521694811
40
0.3778823842
40
0.5032019134
40
0.6280728020
40
0.7524673965
40
0.8764193637
40
1.0000000000
40
1.0000000000
40
1.0000000000
40
1.0000000000
10
304.5407157064
20
144.0815310685
30
0.0000000000
10
304.6226911678
20
144.0815310685
30
0.0000000000
10
304.7868340840
20
144.0945925356
30
0.0000000000
10
305.0263628918
20
144.1528770266
30
0.0000000000
10
305.2531224197
20
144.2483506941
30
0.0000000000
10
305.4610139642
20
144.3785607679
30
0.0000000000
10
305.6444794037
20
144.5401235927
30
0.0000000000
10
305.7985432579
20
144.7288277786
30
0.0000000000
10
305.9189523836
20
144.9395748641
30
0.0000000000
10
305.9746885639
20
145.0913909287
30
0.0000000000
10
305.9959321746
20
145.1688247181
30
0.0000000000
11
304.5407157064
21
144.0815310685
31
0.0000000000
11
304.7858648524
21
144.1010677702
31
0.0000000000
11
305.0245001309
21
144.1591648819
31
0.0000000000
11
305.2503130384
21
144.2543158222
31
0.0000000000
11
305.4572909886
21
144.3840467229
31
0.0000000000
11
305.6398969693
21
144.5449770341
31
0.0000000000
11
305.7931770987
21
144.7328536664
31
0.0000000000
11
305.9129540421
21
144.9426827844
31
0.0000000000
11
305.9959321746
21
145.1688247181
31
0.0000000000
0
SPLINE
5
48F
100
AcDbEntity
8
0
100
AcDbSpline
62
7
6
CONTINUOUS
70
0
71
3
72
14
73
10
74
8
42
0.0000001000
43
0.0000001000
44
0.0000000001
40
0.0000000000
40
0.0000000000
40
0.0000000000
40
0.0000000000
40
0.0222859040
40
0.0973492896
40
0.2207926577
40
0.3847504802
40
0.5781296552
40
0.7879806702
40
1.0000000000
40
1.0000000000
40
1.0000000000
40
1.0000000000
10
308.2985773686
20
196.9081941283
30
0.0000000000
10
308.3240511595
20
196.8967979377
30
0.0000000000
10
308.4545944707
20
196.7328441600
30
0.0000000000
10
308.4611061928
20
196.3957813579
30
0.0000000000
10
308.5763395122
20
195.7996652431
30
0.0000000000
10
308.6284062314
20
195.0213412369
30
0.0000000000
10
308.6867713156
20
194.0955190860
30
0.0000000000
10
308.7186362169
20
193.0920193053
30
0.0000000000
10
308.7270846470
20
192.4032075248
30
0.0000000000
10
308.7270846470
20
192.0570887093
30
0.0000000000
11
308.2985773686
21
196.9081941283
31
0.0000000000
11
308.3771299929
21
196.8225349022
31
0.0000000000
11
308.4678661028
21
196.4662885859
31
0.0000000000
11
308.5523450874
21
195.8676609743
31
0.0000000000
11
308.6248142426
21
195.0679607741
31
0.0000000000
11
308.6803363231
21
194.1225226628
31
0.0000000000
11
308.7152080142
21
193.0953772317
31
0.0000000000
11
308.7270846470
21
192.0570887093
31
0.0000000000
0
SPLINE
5
490
100
AcDbEntity
8
0
100
AcDbSpline
62
7
6
CONTINUOUS
70
0
71
3
72
13
73
9
74
7
42
0.0000001000
43
0.0000001000
44
0.0000000001
40
0.0000000000
40
0.0000000000
40
0.0000000000
40
0.0000000000
40
0.3079607882
40
0.5771611591
40
0.7893388042
40
0.9307166959
40
0.9943489022
40
1.0000000000
40
1.0000000000
40
1.0000000000
40
1.0000000000
10
282.0271753388
20
192.0570887093
30
0.0000000000
10
282.0271753388
20
191.7303968282
30
0.0000000000
10
282.0344098094
20
191.1133805873
30
0.0000000000
10
282.0642692524
20
190.2942324909
30
0.0000000000
10
282.1188412464
20
189.5901145441
30
0.0000000000
10
282.1698163349
20
189.2430739315
30
0.0000000000
10
282.2443864437
20
188.9071939414
30
0.0000000000
10
282.2943798819
20
188.9215158002
30
0.0000000000
10
282.2985773686
20
188.9233936266
30
0.0000000000
11
282.0271753388
21
192.0570887093
31
0.0000000000
11
282.0390519716
21
191.0770850297
31
0.0000000000
11
282.0739236627
21
190.2210732070
31
0.0000000000
11
282.1294457432
21
189.5481109542
31
0.0000000000
11
282.2019148984
21
189.1040547635
31
0.0000000000
11
282.2863938830
21
188.9200096688
31
0.0000000000
11
282.2985773686
21
188.9233936266
31
0.0000000000
0
SPLINE
5
491
100
AcDbEntity
8
0
100
AcDbSpline
62
7
6
CONTINUOUS
70
0
71
3
72
20
73
16
74
14
42
0.0000001000
43
0.0000001000
44
0.0000000001
40
0.0000000000
40
0.0000000000
40
0.0000000000
40
0.0000000000
40
0.0129480149
40
0.1115622255
40
0.1986392487
40
0.2763948267
40
0.3481061597
40
0.4205156345
40
0.4982010774
40
0.5800105065
40
0.6636354603
40
0.7482155442
40
0.8330187885
40
0.9172053168
40
1.0000000000
40
1.0000000000
40
1.0000000000
40
1.0000000000
10
288.4116048567
20
161.4967284018
30
0.0000000000
10
288.4141565842
20
161.4873086755
30
0.0000000000
10
288.4379309311
20
161.4066284736
30
0.0000000000
10
288.5083101226
20
161.2716651094
30
0.0000000000
10
288.6599386393
20
161.1389784098
30
0.0000000000
10
288.8256462613
20
161.0696835312
30
0.0000000000
10
288.9916510526
20
161.0464891252
30
0.0000000000
10
289.1584087299
20
161.0588537314
30
0.0000000000
10
289.3270206800
20
161.1044652671
30
0.0000000000
10
289.4925682347
20
161.1824073473
30
0.0000000000
10
289.6473511539
20
161.2892172254
30
0.0000000000
10
289.7851703656
20
161.4203900625
30
0.0000000000
10
289.9012853258
20
161.5716934490
30
0.0000000000
10
289.9911185439
20
161.7384247160
30
0.0000000000
10
290.0309432475
20
161.8578543911
30
0.0000000000
10
290.0447878534
20
161.9183030546
30
0.0000000000
11
288.4116048567
21
161.4967284018
31
0.0000000000
11
288.4198873230
21
161.4686467780
31
0.0000000000
11
288.5239848151
21
161.2730321533
31
0.0000000000
11
288.6710528136
21
161.1439763705
31
0.0000000000
11
288.8318078985
21
161.0755340493
31
0.0000000000
11
288.9912582710
21
161.0522813068
31
0.0000000000
11
289.1535778977
21
161.0634828650
31
0.0000000000
11
289.3222761585
21
161.1083426549
31
0.0000000000
11
289.4888304436
21
161.1861388497
31
0.0000000000
11
289.6436677458
21
161.2926024020
31
0.0000000000
11
289.7813828175
21
161.4235787937
31
0.0000000000
11
289.8972638038
21
161.5748491067
31
0.0000000000
11
289.9865945007
21
161.7415971976
31
0.0000000000
11
290.0447878534
21
161.9183030546
31
0.0000000000
0
SPLINE
5
492
100
AcDbEntity
8
0
100
AcDbSpline
62
7
6
CONTINUOUS
70
0
71
3
72
20
73
16
74
14
42
0.0000001000
43
0.0000001000
44
0.0000000001
40
0.0000000000
40
0.0000000000
40
0.0000000000
40
0.0000000000
40
0.0129480149
40
0.1115622255
40
0.1986392487
40
0.2763948267
40
0.3481061597
40
0.4205156345
40
0.4982010774
40
0.5800105065
40
0.6636354603
40
0.7482155442
40
0.8330187885
40
0.9172053168
40
1.0000000000
40
1.0000000000
40
1.0000000000
40
1.0000000000
10
302.3426551291
20
161.4967284018
30
0.0000000000
10
302.3401034016
20
161.4873086755
30
0.0000000000
10
302.3163290547
20
161.4066284736
30
0.0000000000
10
302.2459498632
20
161.2716651094
30
0.0000000000
10
302.0943213466
20
161.1389784098
30
0.0000000000
10
301.9286137246
20
161.0696835312
30
0.0000000000
10
301.7626089333
20
161.0464891252
30
0.0000000000
10
301.5958512559
20
161.0588537314
30
0.0000000000
10
301.4272393059
20
161.1044652671
30
0.0000000000
10
301.2616917512
20
161.1824073473
30
0.0000000000
10
301.1069088319
20
161.2892172254
30
0.0000000000
10
300.9690896202
20
161.4203900625
30
0.0000000000
10
300.8529746600
20
161.5716934490
30
0.0000000000
10
300.7631414419
20
161.7384247160
30
0.0000000000
10
300.7233167383
20
161.8578543911
30
0.0000000000
10
300.7094721324
20
161.9183030546
30
0.0000000000
11
302.3426551291
21
161.4967284018
31
0.0000000000
11
302.3343726628
21
161.4686467780
31
0.0000000000
11
302.2302751707
21
161.2730321533
31
0.0000000000
11
302.0832071722
21
161.1439763705
31
0.0000000000
11
301.9224520873
21
161.0755340493
31
0.0000000000
11
301.7630017149
21
161.0522813068
31
0.0000000000
11
301.6006820881
21
161.0634828650
31
0.0000000000
11
301.4319838273
21
161.1083426549
31
0.0000000000
11
301.2654295422
21
161.1861388497
31
0.0000000000
11
301.1105922400
21
161.2926024020
31
0.0000000000
11
300.9728771683
21
161.4235787937
31
0.0000000000
11
300.8569961820
21
161.5748491067
31
0.0000000000
11
300.7676654851
21
161.7415971976
31
0.0000000000
11
300.7094721324
21
161.9183030546
31
0.0000000000
0
SPLINE
5
493
100
AcDbEntity
8
0
100
AcDbSpline
62
7
6
CONTINUOUS
70
0
71
3
72
10
73
6
74
4
42
0.0000001000
43
0.0000001000
44
0.0000000001
40
0.0000000000
40
0.0000000000
40
0.0000000000
40
0.0000000000
40
0.3492989307
40
0.6835382899
40
1.0000000000
40
1.0000000000
40
1.0000000000
40
1.0000000000
10
283.7871048075
20
199.4949153703
30
0.0000000000
10
283.7806130894
20
199.9676590901
30
0.0000000000
10
283.7638867101
20
200.8927165031
30
0.0000000000
10
283.7264679452
20
202.2457540507
30
0.0000000000
10
283.6928334358
20
203.1258806752
30
0.0000000000
10
283.6738441572
20
203.5538015174
30
0.0000000000
11
283.7871048075
21
199.4949153703
31
0.0000000000
11
283.7612069299
21
200.9130437858
31
0.0000000000
11
283.7233526235
21
202.2697296851
31
0.0000000000
11
283.6738441572
21
203.5538015174
31
0.0000000000
0
SPLINE
5
494
100
AcDbEntity
8
0
100
AcDbSpline
62
7
6
CONTINUOUS
70
0
71
3
72
15
73
11
74
9
42
0.0000001000
43
0.0000001000
44
0.0000000001
40
0.0000000000
40
0.0000000000
40
0.0000000000
40
0.0000000000
40
0.1327810927
40
0.2670999361
40
0.4010283058
40
0.5326506924
40
0.6600937774
40
0.7815738871
40
0.8953995099
40
1.0000000000
40
1.0000000000
40
1.0000000000
40
1.0000000000
10
282.9020619741
20
177.6002022746
30
0.0000000000
10
282.9020619741
20
178.3879110944
30
0.0000000000
10
282.9106125805
20
179.9724625577
30
0.0000000000
10
282.9478535055
20
182.3512649557
30
0.0000000000
10
283.0090931306
20
184.7226974950
30
0.0000000000
10
283.0934085968
20
187.0526072831
30
0.0000000000
10
283.1995320687
20
189.3077021745
30
0.0000000000
10
283.3258697709
20
191.4560131586
30
0.0000000000
10
283.4705412332
20
193.4673309008
30
0.0000000000
10
283.5829851140
20
194.7583042394
30
0.0000000000
10
283.6427526492
20
195.3759498047
30
0.0000000000
11
282.9020619741
21
177.6002022746
31
0.0000000000
11
282.9145800134
21
179.9632955783
31
0.0000000000
11
282.9519443929
21
182.3534976075
31
0.0000000000
11
283.0135934289
21
184.7362449496
31
0.0000000000
11
283.0986068741
21
187.0772065820
31
0.0000000000
11
283.2057236320
21
189.3428008458
31
0.0000000000
11
283.3333863008
21
191.5010294661
31
0.0000000000
11
283.4797568836
21
193.5215075157
31
0.0000000000
11
283.6427526492
21
195.3759498047
31
0.0000000000
0
SPLINE
5
495
100
AcDbEntity
8
0
100
AcDbSpline
62
7
6
CONTINUOUS
70
0
71
3
72
8
73
4
74
2
42
0.0000001000
43
0.0000001000
44
0.0000000001
40
0.0000000000
40
0.0000000000
40
0.0000000000
40
0.0000000000
40
1.0000000000
40
1.0000000000
40
1.0000000000
40
1.0000000000
10
306.3547090450
20
163.5360371872
30
0.0000000000
10
306.3685201114
20
163.4717470701
30
0.0000000000
10
306.3753778849
20
163.4059245548
30
0.0000000000
10
306.3747183662
20
163.3404152714
30
0.0000000000
11
306.3547090450
21
163.5360371872
31
0.0000000000
11
306.3747183662
21
163.3404152714
31
0.0000000000
0
SPLINE
5
496
100
AcDbEntity
8
0
100
AcDbSpline
62
7
6
CONTINUOUS
70
0
71
3
72
8
73
4
74
2
42
0.0000001000
43
0.0000001000
44
0.0000000001
40
0.0000000000
40
0.0000000000
40
0.0000000000
40
0.0000000000
40
1.0000000000
40
1.0000000000
40
1.0000000000
40
1.0000000000
10
284.3995509408
20
163.5360371872
30
0.0000000000
10
284.3857398744
20
163.4717470701
30
0.0000000000
10
284.3788821009
20
163.4059245548
30
0.0000000000
10
284.3795416196
20
163.3404152714
30
0.0000000000
11
284.3995509408
21
163.5360371872
31
0.0000000000
11
284.3795416196
21
163.3404152714
31
0.0000000000
0
SPLINE
5
497
100
AcDbEntity
8
0
100
AcDbSpline
62
7
6
CONTINUOUS
70
0
71
3
72
14
73
10
74
8
42
0.0000001000
43
0.0000001000
44
0.0000000001
40
0.0000000000
40
0.0000000000
40
0.0000000000
40
0.0000000000
40
0.1285324394
40
0.2623359714
40
0.3960046344
40
0.5374832499
40
0.6838364845
40
0.8418147392
40
1.0000000000
40
1.0000000000
40
1.0000000000
40
1.0000000000
10
288.7921048181
20
168.7607376385
30
0.0000000000
10
288.8640966691
20
168.7088821485
30
0.0000000000
10
289.0273091192
20
168.6252518477
30
0.0000000000
10
289.3032799298
20
168.5893476864
30
0.0000000000
10
289.5823023112
20
168.6593605853
30
0.0000000000
10
289.8229238582
20
168.8324891129
30
0.0000000000
10
289.9967098268
20
169.0919415355
30
0.0000000000
10
290.0794147084
20
169.4044970878
30
0.0000000000
10
290.0671720004
20
169.6254222729
30
0.0000000000
10
290.0447878534
20
169.7317851040
30
0.0000000000
11
288.7921048181
21
168.7607376385
31
0.0000000000
11
289.0287362854
21
168.6412983665
31
0.0000000000
11
289.3023966961
21
168.6068636761
31
0.0000000000
11
289.5697383979
21
168.6735787179
31
0.0000000000
11
289.8075507558
21
168.8423948921
31
0.0000000000
11
289.9773272809
21
169.0917771943
31
0.0000000000
11
290.0622058380
21
169.4061725572
31
0.0000000000
11
290.0447878534
21
169.7317851040
31
0.0000000000
0
SPLINE
5
498
100
AcDbEntity
8
0
100
AcDbSpline
62
7
6
CONTINUOUS
70
0
71
3
72
14
73
10
74
8
42
0.0000001000
43
0.0000001000
44
0.0000000001
40
0.0000000000
40
0.0000000000
40
0.0000000000
40
0.0000000000
40
0.1285324394
40
0.2623359714
40
0.3960046344
40
0.5374832499
40
0.6838364845
40
0.8418147392
40
1.0000000000
40
1.0000000000
40
1.0000000000
40
1.0000000000
10
301.9621551677
20
168.7607376385
30
0.0000000000
10
301.8901633167
20
168.7088821485
30
0.0000000000
10
301.7269508666
20
168.6252518477
30
0.0000000000
10
301.4509800561
20
168.5893476864
30
0.0000000000
10
301.1719576746
20
168.6593605853
30
0.0000000000
10
300.9313361276
20
168.8324891129
30
0.0000000000
10
300.7575501591
20
169.0919415355
30
0.0000000000
10
300.6748452775
20
169.4044970878
30
0.0000000000
10
300.6870879854
20
169.6254222729
30
0.0000000000
10
300.7094721324
20
169.7317851040
30
0.0000000000
11
301.9621551677
21
168.7607376385
31
0.0000000000
11
301.7255237004
21
168.6412983665
31
0.0000000000
11
301.4518632897
21
168.6068636761
31
0.0000000000
11
301.1845215879
21
168.6735787179
31
0.0000000000
11
300.9467092300
21
168.8423948921
31
0.0000000000
11
300.7769327050
21
169.0917771943
31
0.0000000000
11
300.6920541478
21
169.4061725572
31
0.0000000000
11
300.7094721324
21
169.7317851040
31
0.0000000000
0
SPLINE
5
499
100
AcDbEntity
8
0
100
AcDbSpline
62
7
6
CONTINUOUS
70
0
71
3
72
12
73
8
74
6
42
0.0000001000
43
0.0000001000
44
0.0000000001
40
0.0000000000
40
0.0000000000
40
0.0000000000
40
0.0000000000
40
0.2365161845
40
0.4670417881
40
0.6805777198
40
0.8777901243
40
1.0000000000
40
1.0000000000
40
1.0000000000
40
1.0000000000
10
290.1295628913
20
165.6993653618
30
0.0000000000
10
290.1295628913
20
165.8069738474
30
0.0000000000
10
290.0963809211
20
166.0213798184
30
0.0000000000
10
289.9435821622
20
166.2988528431
30
0.0000000000
10
289.7108167439
20
166.4872775229
30
0.0000000000
10
289.4730707390
20
166.5585379471
30
0.0000000000
10
289.3263309597
20
166.5582083617
30
0.0000000000
10
289.2708215997
20
166.5522795516
30
0.0000000000
11
290.1295628913
21
165.6993653618
31
0.0000000000
11
290.0775739015
21
166.0179770699
31
0.0000000000
11
289.9231978521
21
166.2921520175
31
0.0000000000
11
289.6956651598
21
166.4742986084
31
0.0000000000
11
289.4379931979
21
166.5521605484
31
0.0000000000
11
289.2708215997
21
166.5522795516
31
0.0000000000
0
SPLINE
5
49A
100
AcDbEntity
8
0
100
AcDbSpline
62
7
6
CONTINUOUS
70
0
71
3
72
18
73
14
74
12
42
0.0000001000
43
0.0000001000
44
0.0000000001
40
0.0000000000
40
0.0000000000
40
0.0000000000
40
0.0000000000
40
0.0779532372
40
0.1578548446
40
0.2375891833
40
0.3154642594
40
0.3920222783
40
0.4722828540
40
0.5629545012
40
0.6654058520
40
0.7753356069
40
0.8881069124
40
1.0000000000
40
1.0000000000
40
1.0000000000
40
1.0000000000
10
284.3795416196
20
167.2471562962
30
0.0000000000
10
284.3787895351
20
167.1678114220
30
0.0000000000
10
284.3970027087
20
167.0062529456
30
0.0000000000
10
284.4838604191
20
166.7778097920
30
0.0000000000
10
284.6261998250
20
166.5789697503
30
0.0000000000
10
284.8120252207
20
166.4255016563
30
0.0000000000
10
285.0311183775
20
166.3239645062
30
0.0000000000
10
285.2821947860
20
166.2800210343
30
0.0000000000
10
285.5629304588
20
166.3107305433
30
0.0000000000
10
285.8494104635
20
166.4395876020
30
0.0000000000
10
286.0940965198
20
166.6723369413
30
0.0000000000
10
286.2494574873
20
166.9829930423
30
0.0000000000
10
286.2759924621
20
167.2156970200
30
0.0000000000
10
286.2689474488
20
167.3293746686
30
0.0000000000
11
284.3795416196
21
167.2471562962
31
0.0000000000
11
284.4064094965
21
167.0106321126
31
0.0000000000
11
284.4932685189
21
166.7826209496
31
0.0000000000
11
284.6351501031
21
166.5847467523
31
0.0000000000
11
284.8185669640
21
166.4333854261
31
0.0000000000
11
285.0306879072
21
166.3351000621
31
0.0000000000
11
285.2721002711
21
166.2927943045
31
0.0000000000
11
285.5473611030
21
166.3227261671
31
0.0000000000
11
285.8328131365
21
166.4507707702
31
0.0000000000
11
286.0763193836
21
166.6818415342
31
0.0000000000
11
286.2302672725
21
166.9898838675
31
0.0000000000
11
286.2689474488
21
167.3293746686
31
0.0000000000
0
SPLINE
5
49B
100
AcDbEntity
8
0
100
AcDbSpline
62
7
6
CONTINUOUS
70
0
71
3
72
16
73
12
74
10
42
0.0000001000
43
0.0000001000
44
0.0000000001
40
0.0000000000
40
0.0000000000
40
0.0000000000
40
0.0000000000
40
0.1172697213
40
0.2359499451
40
0.3521467729
40
0.4680198353
40
0.5853637346
40
0.7004277386
40
0.8074823562
40
0.9063022931
40
1.0000000000
40
1.0000000000
40
1.0000000000
40
1.0000000000
10
286.2689474488
20
167.3293746686
30
0.0000000000
10
286.2619077380
20
167.4429667577
30
0.0000000000
10
286.2067583790
20
167.6711024102
30
0.0000000000
10
286.0091150169
20
167.9592119513
30
0.0000000000
10
285.7217062953
20
168.1558788699
30
0.0000000000
10
285.3840235023
20
168.2350914954
30
0.0000000000
10
285.0415986584
20
168.1875432145
30
0.0000000000
10
284.7459914924
20
168.0271923961
30
0.0000000000
10
284.5325643731
20
167.7930203862
30
0.0000000000
10
284.4085579024
20
167.5256608196
30
0.0000000000
10
284.3804035095
20
167.3380856391
30
0.0000000000
10
284.3795416196
20
167.2471562962
30
0.0000000000
11
286.2689474488
21
167.3293746686
31
0.0000000000
11
286.1879988015
21
167.6610700087
31
0.0000000000
11
285.9922400578
21
167.9458052222
31
0.0000000000
11
285.7128877432
21
168.1366283299
31
0.0000000000
11
285.3844801232
21
168.2138468198
31
0.0000000000
11
285.0460151088
21
168.1673340336
31
0.0000000000
11
284.7512838808
21
168.0080734130
31
0.0000000000
11
284.5410645556
21
167.7779478578
31
0.0000000000
11
284.4200166525
21
167.5169372557
31
0.0000000000
11
284.3795416196
21
167.2471562962
31
0.0000000000
0
SPLINE
5
49C
100
AcDbEntity
8
0
100
AcDbSpline
62
7
6
CONTINUOUS
70
0
71
3
72
18
73
14
74
12
42
0.0000001000
43
0.0000001000
44
0.0000000001
40
0.0000000000
40
0.0000000000
40
0.0000000000
40
0.0000000000
40
0.1015286573
40
0.2003442480
40
0.2957469456
40
0.3875739008
40
0.4767446497
40
0.5645444342
40
0.6502987984
40
0.7338959441
40
0.8217925448
40
0.9235130064
40
1.0000000000
40
1.0000000000
40
1.0000000000
40
1.0000000000
10
290.0447878534
20
169.7317851040
30
0.0000000000
10
290.0311121397
20
169.7967680416
30
0.0000000000
10
289.9920249294
20
169.9228038878
30
0.0000000000
10
289.9005926121
20
170.0945251141
30
0.0000000000
10
289.7821269843
20
170.2408650297
30
0.0000000000
10
289.6421571936
20
170.3571815201
30
0.0000000000
10
289.4857802429
20
170.4403075112
30
0.0000000000
10
289.3189889085
20
170.4871144704
30
0.0000000000
10
289.1495844635
20
170.4956707801
30
0.0000000000
10
288.9825011285
20
170.4663373232
30
0.0000000000
10
288.8164909088
20
170.3960846723
30
0.0000000000
10
288.6756430943
20
170.2907107252
30
0.0000000000
10
288.5986375621
20
170.2021648065
30
0.0000000000
10
288.5690390878
20
170.1616286039
30
0.0000000000
11
290.0447878534
21
169.7317851040
31
0.0000000000
11
289.9856271723
21
169.9220172772
31
0.0000000000
11
289.8942588772
21
170.0930357774
31
0.0000000000
11
289.7761614888
21
170.2382817748
31
0.0000000000
11
289.6373011440
21
170.3531013604
31
0.0000000000
11
289.4825974365
21
170.4348414291
31
0.0000000000
11
289.3166278290
21
170.4810434342
31
0.0000000000
11
289.1485659135
21
170.4893462402
31
0.0000000000
11
288.9870004117
21
170.4609959143
31
0.0000000000
11
288.8280817792
21
170.3939817573
31
0.0000000000
11
288.6679298180
21
170.2748611786
31
0.0000000000
11
288.5690390878
21
170.1616286039
31
0.0000000000
0
SPLINE
5
49D
100
AcDbEntity
8
0
100
AcDbSpline
62
7
6
CONTINUOUS
70
0
71
3
72
17
73
13
74
11
42
0.0000001000
43
0.0000001000
44
0.0000000001
40
0.0000000000
40
0.0000000000
40
0.0000000000
40
0.0000000000
40
0.1052469966
40
0.2093396867
40
0.3117134175
40
0.4129083471
40
0.5139112413
40
0.6159787082
40
0.7203791833
40
0.8291254775
40
0.9440147351
40
1.0000000000
40
1.0000000000
40
1.0000000000
40
1.0000000000
10
284.3820681141
20
171.3964490634
30
0.0000000000
10
284.3776833235
20
171.2911224697
30
0.0000000000
10
284.4049454985
20
171.0785609372
30
0.0000000000
10
284.5439255359
20
170.7933434474
30
0.0000000000
10
284.7609240031
20
170.5675684115
30
0.0000000000
10
285.0334058658
20
170.4198613460
30
0.0000000000
10
285.3381085965
20
170.3631783677
30
0.0000000000
10
285.6487013958
20
170.4076094846
30
0.0000000000
10
285.9336779537
20
170.5582746672
30
0.0000000000
10
286.1555455759
20
170.8109563304
30
0.0000000000
10
286.2516891437
20
171.0812255797
30
0.0000000000
10
286.2621030371
20
171.2541225672
30
0.0000000000
10
286.2605041258
20
171.3105450055
30
0.0000000000
11
284.3820681141
21
171.3964490634
31
0.0000000000
11
284.4217969110
21
171.0827009444
31
0.0000000000
11
284.5583081961
21
170.8012776269
31
0.0000000000
11
284.7715024448
21
170.5795163070
31
0.0000000000
11
285.0389864983
21
170.4348946198
31
0.0000000000
11
285.3374803561
21
170.3799949785
31
0.0000000000
11
285.6409921584
21
170.4240983708
31
0.0000000000
11
285.9181042802
21
170.5711449709
31
0.0000000000
11
286.1338074708
21
170.8166031638
31
0.0000000000
11
286.2500899647
21
171.1416573233
31
0.0000000000
11
286.2605041258
21
171.3105450055
31
0.0000000000
0
SPLINE
5
49E
100
AcDbEntity
8
0
100
AcDbSpline
62
7
6
CONTINUOUS
70
0
71
3
72
15
73
11
74
9
42
0.0000001000
43
0.0000001000
44
0.0000000001
40
0.0000000000
40
0.0000000000
40
0.0000000000
40
0.0000000000
40
0.1275430177
40
0.2579303244
40
0.3857995306
40
0.5154060492
40
0.6423488753
40
0.7639023746
40
0.8842414540
40
1.0000000000
40
1.0000000000
40
1.0000000000
40
1.0000000000
10
286.2396482752
20
171.4837728052
30
0.0000000000
10
286.2155526706
20
171.5959486050
30
0.0000000000
10
286.1251391158
20
171.8158153632
30
0.0000000000
10
285.8854828008
20
172.0764988685
30
0.0000000000
10
285.5690358348
20
172.2399453139
30
0.0000000000
10
285.2176271358
20
172.2811723987
30
0.0000000000
10
284.8807611142
20
172.1922857552
30
0.0000000000
10
284.6074252314
20
171.9907793385
30
0.0000000000
10
284.4313986812
20
171.7130290357
30
0.0000000000
10
284.3863994838
20
171.5004924397
30
0.0000000000
10
284.3820681141
20
171.3964490634
30
0.0000000000
11
286.2396482752
21
171.4837728052
31
0.0000000000
11
286.1090661347
21
171.8022447484
31
0.0000000000
11
285.8711029816
21
172.0614603205
31
0.0000000000
11
285.5642135971
21
172.2192632181
31
0.0000000000
11
285.2167107533
21
172.2590435569
31
0.0000000000
11
284.8856776336
21
172.1708351530
31
0.0000000000
11
284.6217287942
21
171.9760508993
31
0.0000000000
11
284.4476421299
21
171.7018899130
31
0.0000000000
11
284.3820681141
21
171.3964490634
31
0.0000000000
0
SPLINE
5
49F
100
AcDbEntity
8
0
100
AcDbSpline
62
7
6
CONTINUOUS
70
0
71
3
72
11
73
7
74
5
42
0.0000001000
43
0.0000001000
44
0.0000000001
40
0.0000000000
40
0.0000000000
40
0.0000000000
40
0.0000000000
40
0.2819912540
40
0.5628661044
40
0.8409607713
40
1.0000000000
40
1.0000000000
40
1.0000000000
40
1.0000000000
10
286.2689474488
20
163.4226336439
30
0.0000000000
10
286.2758434686
20
163.5280704083
30
0.0000000000
10
286.2508604974
20
163.7434362095
30
0.0000000000
10
286.0949636501
20
164.0262995510
30
0.0000000000
10
285.8809887516
20
164.1998408453
30
0.0000000000
10
285.7284390557
20
164.2636655090
30
0.0000000000
10
285.6712139038
20
164.2812712456
30
0.0000000000
11
286.2689474488
21
163.4226336439
31
0.0000000000
11
286.2308919545
21
163.7373271087
31
0.0000000000
11
286.0785518257
21
164.0138748533
31
0.0000000000
11
285.8364921667
21
164.2116869133
31
0.0000000000
11
285.6712139038
21
164.2812712456
31
0.0000000000
0
SPLINE
5
4A0
100
AcDbEntity
8
0
100
AcDbSpline
62
7
6
CONTINUOUS
70
0
71
3
72
18
73
14
74
12
42
0.0000001000
43
0.0000001000
44
0.0000000001
40
0.0000000000
40
0.0000000000
40
0.0000000000
40
0.0000000000
40
0.0755981789
40
0.1508524019
40
0.2261678362
40
0.3014649851
40
0.3781012776
40
0.4612425098
40
0.5555799538
40
0.6620856366
40
0.7745004890
40
0.8897395002
40
1.0000000000
40
1.0000000000
40
1.0000000000
40
1.0000000000
10
284.3795416196
20
163.3404152714
30
0.0000000000
10
284.3802610394
20
163.2689560777
30
0.0000000000
10
284.3995697960
20
163.1258366583
30
0.0000000000
10
284.4823946393
20
162.9261883077
30
0.0000000000
10
284.6140624965
20
162.7549689773
30
0.0000000000
10
284.7860643559
20
162.6224436233
30
0.0000000000
10
284.9922352067
20
162.5337256516
30
0.0000000000
10
285.2319506482
20
162.4955481057
30
0.0000000000
10
285.5022313690
20
162.5230392413
30
0.0000000000
10
285.7811844626
20
162.6342951891
30
0.0000000000
10
286.0315003195
20
162.8350464944
30
0.0000000000
10
286.2096048438
20
163.1069287984
30
0.0000000000
10
286.2621449535
20
163.3186268216
30
0.0000000000
10
286.2689474488
20
163.4226336439
30
0.0000000000
11
284.3795416196
21
163.3404152714
31
0.0000000000
11
284.4086385475
21
163.1280105300
31
0.0000000000
11
284.4905240218
21
162.9309321514
31
0.0000000000
11
284.6206242443
21
162.7615415595
31
0.0000000000
11
284.7895346221
21
162.6309032184
31
0.0000000000
11
284.9889668026
21
162.5445308350
31
0.0000000000
11
285.2217164476
21
162.5068520366
31
0.0000000000
11
285.4879360342
21
162.5333091422
31
0.0000000000
11
285.7685957497
21
162.6449227466
31
0.0000000000
11
286.0170603588
21
162.8446641685
31
0.0000000000
11
286.1949102780
21
163.1188380966
31
0.0000000000
11
286.2689474488
21
163.4226336439
31
0.0000000000
0
SPLINE
5
4A1
100
AcDbEntity
8
0
100
AcDbSpline
62
7
6
CONTINUOUS
70
0
71
3
72
11
73
7
74
5
42
0.0000001000
43
0.0000001000
44
0.0000000001
40
0.0000000000
40
0.0000000000
40
0.0000000000
40
0.0000000000
40
0.2786883412
40
0.5391792009
40
0.7787830102
40
1.0000000000
40
1.0000000000
40
1.0000000000
40
1.0000000000
10
290.0447878534
20
161.9183030546
30
0.0000000000
10
290.0662779230
20
162.0121335320
30
0.0000000000
10
290.0809228150
20
162.2019804851
30
0.0000000000
10
289.9981305218
20
162.4663001369
30
0.0000000000
10
289.8221982576
20
162.6546357991
30
0.0000000000
10
289.6713799370
20
162.7171046890
30
0.0000000000
10
289.5963043125
20
162.7341172134
30
0.0000000000
11
290.0447878534
21
161.9183030546
31
0.0000000000
11
290.0621909349
21
162.2065580929
31
0.0000000000
11
289.9772402437
21
162.4627651645
31
0.0000000000
11
289.8073264636
21
162.6437964022
31
0.0000000000
11
289.5963043125
21
162.7341172134
31
0.0000000000
0
SPLINE
5
4A2
100
AcDbEntity
8
0
100
AcDbSpline
62
7
6
CONTINUOUS
70
0
71
3
72
10
73
6
74
4
42
0.0000001000
43
0.0000001000
44
0.0000000001
40
0.0000000000
40
0.0000000000
40
0.0000000000
40
0.0000000000
40
0.4219536908
40
0.8437115220
40
1.0000000000
40
1.0000000000
40
1.0000000000
40
1.0000000000
10
286.2396482752
20
159.7635497311
30
0.0000000000
10
286.2629559130
20
159.8549999869
30
0.0000000000
10
286.2729390109
20
160.0508389749
30
0.0000000000
10
286.1764843203
20
160.2620750265
30
0.0000000000
10
286.0886619130
20
160.3584853411
30
0.0000000000
10
286.0630382759
20
160.3825942705
30
0.0000000000
11
286.2396482752
21
159.7635497311
31
0.0000000000
11
286.2500899647
21
160.0464782176
31
0.0000000000
11
286.1338074708
21
160.3044734547
31
0.0000000000
11
286.0630382759
21
160.3825942705
31
0.0000000000
0
SPLINE
5
4A3
100
AcDbEntity
8
0
100
AcDbSpline
62
7
6
CONTINUOUS
70
0
71
3
72
15
73
11
74
9
42
0.0000001000
43
0.0000001000
44
0.0000000001
40
0.0000000000
40
0.0000000000
40
0.0000000000
40
0.0000000000
40
0.1025895669
40
0.2124653755
40
0.3318419363
40
0.4656421679
40
0.6070228305
40
0.7449271190
40
0.8785696113
40
1.0000000000
40
1.0000000000
40
1.0000000000
40
1.0000000000
10
284.3820681141
20
159.6762259892
30
0.0000000000
10
284.3863895812
20
159.5910214833
30
0.0000000000
10
284.4331955831
20
159.4139573208
30
0.0000000000
10
284.6175254936
20
159.1973237257
30
0.0000000000
10
284.8938671949
20
159.0593375459
30
0.0000000000
10
285.2252994007
20
159.0193931464
30
0.0000000000
10
285.5679746071
20
159.0828653088
30
0.0000000000
10
285.8785134073
20
159.2401966445
30
0.0000000000
10
286.1179186846
20
159.4703069246
30
0.0000000000
10
286.2147085365
20
159.6656957353
30
0.0000000000
10
286.2396482752
20
159.7635497311
30
0.0000000000
11
284.3820681141
21
159.6762259892
31
0.0000000000
11
284.4481935831
21
159.4289735503
31
0.0000000000
11
284.6230797544
21
159.2178893241
31
0.0000000000
11
284.8873266524
21
159.0805145128
31
0.0000000000
11
285.2182513267
21
159.0367431680
31
0.0000000000
11
285.5653111055
21
159.0996717171
31
0.0000000000
11
285.8717152513
21
159.2561454007
31
0.0000000000
11
286.1092712459
21
159.4900933620
31
0.0000000000
11
286.2396482752
21
159.7635497311
31
0.0000000000
0
SPLINE
5
4A4
100
AcDbEntity
8
0
100
AcDbSpline
62
7
6
CONTINUOUS
70
0
71
3
72
10
73
6
74
4
42
0.0000001000
43
0.0000001000
44
0.0000000001
40
0.0000000000
40
0.0000000000
40
0.0000000000
40
0.0000000000
40
0.3331795430
40
0.6664589588
40
1.0000000000
40
1.0000000000
40
1.0000000000
40
1.0000000000
10
282.9020619741
20
156.4848762994
30
0.0000000000
10
282.9020619741
20
156.2019217401
30
0.0000000000
10
282.9273776656
20
155.6355898134
30
0.0000000000
10
283.0409838436
20
154.7929402127
30
0.0000000000
10
283.1665646814
20
154.2398160560
30
0.0000000000
10
283.2415070860
20
153.9666480684
30
0.0000000000
11
282.9020619741
21
156.4848762994
31
0.0000000000
11
282.9399696368
21
155.6368594643
31
0.0000000000
11
283.0534008273
21
154.7953519095
31
0.0000000000
11
283.2415070860
21
153.9666480684
31
0.0000000000
0
SPLINE
5
4A5
100
AcDbEntity
8
0
100
AcDbSpline
62
7
6
CONTINUOUS
70
0
71
3
72
15
73
11
74
9
42
0.0000001000
43
0.0000001000
44
0.0000000001
40
0.0000000000
40
0.0000000000
40
0.0000000000
40
0.0000000000
40
0.1235829891
40
0.2475401048
40
0.3719399896
40
0.4968132024
40
0.6221304999
40
0.7478381244
40
0.8738353502
40
1.0000000000
40
1.0000000000
40
1.0000000000
40
1.0000000000
10
285.0300525994
20
145.8128535942
30
0.0000000000
10
285.0512966145
20
145.7354183308
30
0.0000000000
10
285.1070347366
20
145.5835977266
30
0.0000000000
10
285.2274494510
20
145.3728441126
30
0.0000000000
10
285.3815211820
20
145.1841354817
30
0.0000000000
10
285.5649922438
20
145.0225736688
30
0.0000000000
10
285.7728832409
20
144.8923691783
30
0.0000000000
10
285.9996362826
20
144.7969017351
30
0.0000000000
10
286.2391572064
20
144.7386207687
30
0.0000000000
10
286.4032951640
20
144.7255599446
30
0.0000000000
10
286.4852690676
20
144.7255599446
30
0.0000000000
11
285.0300525994
21
145.8128535942
31
0.0000000000
11
285.1130326726
21
145.5867074881
31
0.0000000000
11
285.2328159802
21
145.3768704480
31
0.0000000000
11
285.3861051590
21
145.1889878908
31
0.0000000000
11
285.5687174806
21
145.0280579231
31
0.0000000000
11
285.7756940944
21
144.8983330820
31
0.0000000000
11
286.0014987673
21
144.8031890982
31
0.0000000000
11
286.2401245507
21
144.7450959036
31
0.0000000000
11
286.4852690676
21
144.7255599446
31
0.0000000000
0
SPLINE
5
4A6
100
AcDbEntity
8
0
100
AcDbSpline
62
7
6
CONTINUOUS
70
0
71
3
72
13
73
9
74
7
42
0.0000001000
43
0.0000001000
44
0.0000000001
40
0.0000000000
40
0.0000000000
40
0.0000000000
40
0.0000000000
40
0.3079607882
40
0.5771611591
40
0.7893388042
40
0.9307166959
40
0.9943489022
40
1.0000000000
40
1.0000000000
40
1.0000000000
40
1.0000000000
10
308.7270846470
20
192.0570887093
30
0.0000000000
10
308.7270846470
20
191.7303968282
30
0.0000000000
10
308.7198501765
20
191.1133805873
30
0.0000000000
10
308.6899907334
20
190.2942324909
30
0.0000000000
10
308.6354187394
20
189.5901145441
30
0.0000000000
10
308.5844436509
20
189.2430739315
30
0.0000000000
10
308.5098735422
20
188.9071939414
30
0.0000000000
10
308.4598801039
20
188.9215158002
30
0.0000000000
10
308.4556826173
20
188.9233936266
30
0.0000000000
11
308.7270846470
21
192.0570887093
31
0.0000000000
11
308.7152080142
21
191.0770850297
31
0.0000000000
11
308.6803363231
21
190.2210732070
31
0.0000000000
11
308.6248142426
21
189.5481109542
31
0.0000000000
11
308.5523450874
21
189.1040547635
31
0.0000000000
11
308.4678661028
21
188.9200096688
31
0.0000000000
11
308.4556826173
21
188.9233936266
31
0.0000000000
0
SPLINE
5
4A7
100
AcDbEntity
8
0
100
AcDbSpline
62
7
6
CONTINUOUS
70
0
71
3
72
37
73
33
74
31
42
0.0000001000
43
0.0000001000
44
0.0000000001
40
0.0000000000
40
0.0000000000
40
0.0000000000
40
0.0000000000
40
0.0119505989
40
0.0240375464
40
0.0360522570
40
0.0479478738
40
0.0598679971
40
0.0723810502
40
0.0861129349
40
0.1016809907
40
0.1192729455
40
0.1387524542
40
0.1600409163
40
0.1832733447
40
0.2086385696
40
0.2363229388
40
0.2665370553
40
0.2997215759
40
0.3364044554
40
0.3770009545
40
0.4212715573
40
0.4686439304
40
0.5189517245
40
0.5735386613
40
0.6333890177
40
0.6948360028
40
0.7528243211
40
0.8068113109
40
0.8580113649
40
0.9070748252
40
0.9543134110
40
1.0000000000
40
1.0000000000
40
1.0000000000
40
1.0000000000
10
308.1144627803
20
165.2364440752
30
0.0000000000
10
308.1144627803
20
165.2040265691
30
0.0000000000
10
308.1144433612
20
165.1388216922
30
0.0000000000
10
308.1143553912
20
165.0410254335
30
0.0000000000
10
308.1142083687
20
164.9433783915
30
0.0000000000
10
308.1140033029
20
164.8461839871
30
0.0000000000
10
308.1137357890
20
164.7476379124
30
0.0000000000
10
308.1133901974
20
164.6441109424
30
0.0000000000
10
308.1129351872
20
164.5306888289
30
0.0000000000
10
308.1123286800
20
164.4034900833
30
0.0000000000
10
308.1115246890
20
164.2607009939
30
0.0000000000
10
308.1104793938
20
164.1023957610
30
0.0000000000
10
308.1091455944
20
163.9287916957
30
0.0000000000
10
308.1074630455
20
163.7392242140
30
0.0000000000
10
308.1053536481
20
163.5323102965
30
0.0000000000
10
308.1027212285
20
163.3064622358
30
0.0000000000
10
308.0994408967
20
163.0594097548
30
0.0000000000
10
308.0953447883
20
162.7879567598
30
0.0000000000
10
308.0902117626
20
162.4883532394
30
0.0000000000
10
308.0837982341
20
162.1586956355
30
0.0000000000
10
308.0758762340
20
161.8000664062
30
0.0000000000
10
308.0662352053
20
161.4151271358
30
0.0000000000
10
308.0545343211
20
161.0022483588
30
0.0000000000
10
308.0402121416
20
160.5555849246
30
0.0000000000
10
308.0228631106
20
160.0787904368
30
0.0000000000
10
308.0027826693
20
159.5928679929
30
0.0000000000
10
307.9808728439
20
159.1229463831
30
0.0000000000
10
307.9578563002
20
158.6809092406
30
0.0000000000
10
307.9337556299
20
158.2631776828
30
0.0000000000
10
307.9083503971
20
157.8638644719
30
0.0000000000
10
307.8814694751
20
157.4796389988
30
0.0000000000
10
307.8621606260
20
157.2283057936
30
0.0000000000
10
307.8521980118
20
157.1047762505
30
0.0000000000
11
308.1144627803
21
165.2364440752
31
0.0000000000
11
308.1144337738
21
165.1391915611
31
0.0000000000
11
308.1143452485
21
165.0408294938
31
0.0000000000
11
308.1141979874
21
164.9430553526
31
0.0000000000
11
308.1139936960
21
164.8462504876
31
0.0000000000
11
308.1137303184
21
164.7492463332
31
0.0000000000
11
308.1133903352
21
164.6474171981
31
0.0000000000
11
308.1129419617
21
164.5356696927
31
0.0000000000
11
308.1123377592
21
164.4089801908
31
0.0000000000
11
308.1115314992
21
164.2658212754
31
0.0000000000
11
308.1104845296
21
164.1073028630
31
0.0000000000
11
308.1091531761
21
163.9340650660
31
0.0000000000
11
308.1074746658
21
163.7450098441
31
0.0000000000
11
308.1053697166
21
163.5386014656
31
0.0000000000
11
308.1027429724
21
163.3133247537
31
0.0000000000
11
308.0994771320
21
163.0674676423
31
0.0000000000
11
308.0954006468
21
162.7974468246
31
0.0000000000
11
308.0902839796
21
162.4989698713
31
0.0000000000
11
308.0838534038
21
162.1686630955
31
0.0000000000
11
308.0758907122
21
161.8084823276
31
0.0000000000
11
308.0662294961
21
161.4230928025
31
0.0000000000
11
308.0546196781
21
161.0138587499
31
0.0000000000
11
308.0403649818
21
160.5698656747
31
0.0000000000
11
308.0226259561
21
160.0831339062
31
0.0000000000
11
308.0019420989
21
159.5835137880
31
0.0000000000
11
307.9799253979
21
159.1121257918
31
0.0000000000
11
307.9570423059
21
158.6733825828
31
0.0000000000
11
307.9330036622
21
158.2574167950
31
0.0000000000
11
307.9076091203
21
157.8589527209
31
0.0000000000
11
307.8807320776
21
157.4754715735
31
0.0000000000
11
307.8521980118
21
157.1047762505
31
0.0000000000
0
SPLINE
5
4A8
100
AcDbEntity
8
0
100
AcDbSpline
62
7
6
CONTINUOUS
70
0
71
3
72
37
73
33
74
31
42
0.0000001000
43
0.0000001000
44
0.0000000001
40
0.0000000000
40
0.0000000000
40
0.0000000000
40
0.0000000000
40
0.0103351681
40
0.0208190769
40
0.0312711924
40
0.0416501625
40
0.0520810654
40
0.0630638921
40
0.0751556987
40
0.0889142987
40
0.1045258794
40
0.1218928253
40
0.1409700013
40
0.1619066838
40
0.1849072190
40
0.2101821752
40
0.2379744882
40
0.2687539971
40
0.3030961068
40
0.3415018857
40
0.3838780157
40
0.4298167541
40
0.4793044465
40
0.5338636343
40
0.5947807304
40
0.6586077201
40
0.7201395475
40
0.7786644510
40
0.8353810720
40
0.8909545662
40
0.9457191121
40
1.0000000000
40
1.0000000000
40
1.0000000000
40
1.0000000000
10
308.1144627803
20
165.2364440752
30
0.0000000000
10
308.1144627803
20
165.2689090314
30
0.0000000000
10
308.1144432754
20
165.3343061716
30
0.0000000000
10
308.1143552166
20
165.4325355890
30
0.0000000000
10
308.1142081099
20
165.5309025277
30
0.0000000000
10
308.1140029601
20
165.6291028591
30
0.0000000000
10
308.1137353371
20
165.7289701231
30
0.0000000000
10
308.1133895643
20
165.8342175612
30
0.0000000000
10
308.1129342432
20
165.9499176762
30
0.0000000000
10
308.1123272423
20
166.0801571752
30
0.0000000000
10
308.1115225637
20
166.2269662215
30
0.0000000000
10
308.1104763747
20
166.3904809086
30
0.0000000000
10
308.1091413951
20
166.5707212818
30
0.0000000000
10
308.1074572416
20
166.7686557434
30
0.0000000000
10
308.1053456566
20
166.9860556719
30
0.0000000000
10
308.1027102569
20
167.2249863294
30
0.0000000000
10
308.0994257539
20
167.4883464716
30
0.0000000000
10
308.0953236024
20
167.7801801531
30
0.0000000000
10
308.0901818188
20
168.1053412123
30
0.0000000000
10
308.0837563361
20
168.4669133534
30
0.0000000000
10
308.0758193362
20
168.8648910055
30
0.0000000000
10
308.0661597040
20
169.2976507415
30
0.0000000000
10
308.0544322117
20
169.7686419784
30
0.0000000000
10
308.0400682325
20
170.2866304781
30
0.0000000000
10
308.0226690533
20
170.8495923732
30
0.0000000000
10
308.0025552626
20
171.4343800187
30
0.0000000000
10
307.9806325822
20
172.0115828563
30
0.0000000000
10
307.9576030250
20
172.5663888275
30
0.0000000000
10
307.9334810652
20
173.1024136441
30
0.0000000000
10
307.9080475314
20
173.6265521896
30
0.0000000000
10
307.8811307585
20
174.1429552295
30
0.0000000000
10
307.8620336573
20
174.4849582807
30
0.0000000000
10
307.8521980118
20
174.6551821505
30
0.0000000000
11
308.1144627803
21
165.2364440752
31
0.0000000000
11
308.1144337738
21
165.3338389396
31
0.0000000000
11
308.1143452485
21
165.4326354468
31
0.0000000000
11
308.1141979874
21
165.5311322750
31
0.0000000000
11
308.1139936960
21
165.6289397046
31
0.0000000000
11
308.1137303184
21
165.7272363907
31
0.0000000000
11
308.1133903352
21
165.8307340006
31
0.0000000000
11
308.1129419617
21
165.9446819094
31
0.0000000000
11
308.1123377592
21
166.0743365485
31
0.0000000000
11
308.1115314992
21
166.2214522031
31
0.0000000000
11
308.1104845296
21
166.3851086423
31
0.0000000000
11
308.1091531761
21
166.5648800865
31
0.0000000000
11
308.1074746658
21
166.7621726352
31
0.0000000000
11
308.1053697166
21
166.9789110996
31
0.0000000000
11
308.1027429724
21
167.2170786177
31
0.0000000000
11
308.0994771320
21
167.4789629142
31
0.0000000000
11
308.0954006468
21
167.7689891748
31
0.0000000000
11
308.0902839796
21
168.0925762872
31
0.0000000000
11
308.0838534038
21
168.4544412585
31
0.0000000000
11
308.0758907122
21
168.8536991145
31
0.0000000000
11
308.0662294961
21
169.2865012748
31
0.0000000000
11
308.0546196781
21
169.7527107707
31
0.0000000000
11
308.0403649818
21
170.2666590885
31
0.0000000000
11
308.0226259561
21
170.8404455245
31
0.0000000000
11
308.0019420989
21
171.4415721374
31
0.0000000000
11
307.9799253979
21
172.0210075889
31
0.0000000000
11
307.9570423059
21
172.5720500866
31
0.0000000000
11
307.9330036622
21
173.1059860587
31
0.0000000000
11
307.9076091203
21
173.6290744184
31
0.0000000000
11
307.8807320776
21
174.1444552576
31
0.0000000000
11
307.8521980118
21
174.6551821505
31
0.0000000000
0
SPLINE
5
4A9
100
AcDbEntity
8
0
100
AcDbSpline
62
7
6
CONTINUOUS
70
0
71
3
72
15
73
11
74
9
42
0.0000001000
43
0.0000001000
44
0.0000000001
40
0.0000000000
40
0.0000000000
40
0.0000000000
40
0.0000000000
40
0.1327810927
40
0.2670999361
40
0.4010283058
40
0.5326506924
40
0.6600937774
40
0.7815738871
40
0.8953995099
40
1.0000000000
40
1.0000000000
40
1.0000000000
40
1.0000000000
10
307.8521980118
20
177.6002022746
30
0.0000000000
10
307.8521980118
20
178.3879110944
30
0.0000000000
10
307.8436474053
20
179.9724625577
30
0.0000000000
10
307.8064064803
20
182.3512649557
30
0.0000000000
10
307.7451668552
20
184.7226974950
30
0.0000000000
10
307.6608513890
20
187.0526072831
30
0.0000000000
10
307.5547279171
20
189.3077021745
30
0.0000000000
10
307.4283902149
20
191.4560131586
30
0.0000000000
10
307.2837187526
20
193.4673309008
30
0.0000000000
10
307.1712748718
20
194.7583042394
30
0.0000000000
10
307.1115073367
20
195.3759498047
30
0.0000000000
11
307.8521980118
21
177.6002022746
31
0.0000000000
11
307.8396799724
21
179.9632955783
31
0.0000000000
11
307.8023155929
21
182.3534976075
31
0.0000000000
11
307.7406665569
21
184.7362449496
31
0.0000000000
11
307.6556531117
21
187.0772065820
31
0.0000000000
11
307.5485363538
21
189.3428008458
31
0.0000000000
11
307.4208736850
21
191.5010294661
31
0.0000000000
11
307.2745031022
21
193.5215075157
31
0.0000000000
11
307.1115073367
21
195.3759498047
31
0.0000000000
0
SPLINE
5
4AA
100
AcDbEntity
8
0
100
AcDbSpline
62
7
6
CONTINUOUS
70
0
71
3
72
10
73
6
74
4
42
0.0000001000
43
0.0000001000
44
0.0000000001
40
0.0000000000
40
0.0000000000
40
0.0000000000
40
0.0000000000
40
0.3492989307
40
0.6835382899
40
1.0000000000
40
1.0000000000
40
1.0000000000
40
1.0000000000
10
306.9671551783
20
199.4949153703
30
0.0000000000
10
306.9736468964
20
199.9676590901
30
0.0000000000
10
306.9903732757
20
200.8927165031
30
0.0000000000
10
307.0277920406
20
202.2457540507
30
0.0000000000
10
307.0614265500
20
203.1258806752
30
0.0000000000
10
307.0804158286
20
203.5538015174
30
0.0000000000
11
306.9671551783
21
199.4949153703
31
0.0000000000
11
306.9930530559
21
200.9130437858
31
0.0000000000
11
307.0309073623
21
202.2697296851
31
0.0000000000
11
307.0804158286
21
203.5538015174
31
0.0000000000
0
SPLINE
5
4AB
100
AcDbEntity
8
0
100
AcDbSpline
62
7
6
CONTINUOUS
70
0
71
3
72
12
73
8
74
6
42
0.0000001000
43
0.0000001000
44
0.0000000001
40
0.0000000000
40
0.0000000000
40
0.0000000000
40
0.0000000000
40
0.4041305178
40
0.7126604383
40
0.9117285317
40
0.9961833498
40
1.0000000000
40
1.0000000000
40
1.0000000000
40
1.0000000000
10
307.0804158286
20
203.5538015174
30
0.0000000000
10
307.0903394193
20
203.7774283001
30
0.0000000000
10
307.1094110509
20
204.1627041532
30
0.0000000000
10
307.1710761940
20
204.6942165437
30
0.0000000000
10
307.2060037991
20
204.9627471944
30
0.0000000000
10
307.2879907475
20
205.1811648895
30
0.0000000000
10
307.3229627278
20
205.1754893358
30
0.0000000000
10
307.3244893701
20
205.1751170189
30
0.0000000000
11
307.0804158286
21
203.5538015174
31
0.0000000000
11
307.1213366481
21
204.2240941602
31
0.0000000000
11
307.1768591633
21
204.7337605940
31
0.0000000000
11
307.2444005331
21
205.0575817392
31
0.0000000000
11
307.3199568095
21
205.1758440803
31
0.0000000000
11
307.3244893701
21
205.1751170189
31
0.0000000000
0
SPLINE
5
4AC
100
AcDbEntity
8
0
100
AcDbSpline
62
7
6
CONTINUOUS
70
0
71
3
72
15
73
11
74
9
42
0.0000001000
43
0.0000001000
44
0.0000000001
40
0.0000000000
40
0.0000000000
40
0.0000000000
40
0.0000000000
40
0.0847536930
40
0.1967136208
40
0.3149114717
40
0.4402250930
40
0.5750018675
40
0.7146772480
40
0.8591417228
40
1.0000000000
40
1.0000000000
40
1.0000000000
40
1.0000000000
10
288.5991033650
20
164.9297833077
30
0.0000000000
10
288.6387276351
20
164.8807471600
30
0.0000000000
10
288.7441611972
20
164.7777544243
30
0.0000000000
10
288.9553453421
20
164.6684107412
30
0.0000000000
10
289.2221087486
20
164.6351274344
30
0.0000000000
10
289.5003962347
20
164.6988326693
30
0.0000000000
10
289.7567317033
20
164.8565294569
30
0.0000000000
10
289.9637939598
20
165.0933740021
30
0.0000000000
10
290.0976626305
20
165.3827126353
30
0.0000000000
10
290.1295628913
20
165.5950651328
30
0.0000000000
10
290.1295628913
20
165.6993653618
30
0.0000000000
11
288.5991033650
21
164.9297833077
31
0.0000000000
11
288.7344958278
21
164.7984381705
31
0.0000000000
11
288.9555101555
21
164.6843878254
31
0.0000000000
11
289.2159195929
21
164.6508271812
31
0.0000000000
11
289.4877329512
21
164.7108884278
31
0.0000000000
11
289.7438657474
21
164.8659082724
31
0.0000000000
11
289.9491163817
21
165.0985915798
31
0.0000000000
11
290.0839367230
21
165.3898090784
31
0.0000000000
11
290.1295628913
21
165.6993653618
31
0.0000000000
0
SPLINE
5
4AD
100
AcDbEntity
8
0
100
AcDbSpline
62
7
6
CONTINUOUS
70
0
71
3
72
12
73
8
74
6
42
0.0000001000
43
0.0000001000
44
0.0000000001
40
0.0000000000
40
0.0000000000
40
0.0000000000
40
0.0000000000
40
0.4041305178
40
0.7126604383
40
0.9117285317
40
0.9961833498
40
1.0000000000
40
1.0000000000
40
1.0000000000
40
1.0000000000
10
283.6738441572
20
203.5538015174
30
0.0000000000
10
283.6639205665
20
203.7774283001
30
0.0000000000
10
283.6448489349
20
204.1627041532
30
0.0000000000
10
283.5831837918
20
204.6942165437
30
0.0000000000
10
283.5482561867
20
204.9627471944
30
0.0000000000
10
283.4662692384
20
205.1811648895
30
0.0000000000
10
283.4312972580
20
205.1754893358
30
0.0000000000
10
283.4297706157
20
205.1751170189
30
0.0000000000
11
283.6738441572
21
203.5538015174
31
0.0000000000
11
283.6329233377
21
204.2240941602
31
0.0000000000
11
283.5774008225
21
204.7337605940
31
0.0000000000
11
283.5098594527
21
205.0575817392
31
0.0000000000
11
283.4343031763
21
205.1758440803
31
0.0000000000
11
283.4297706157
21
205.1751170189
31
0.0000000000
0
SPLINE
5
4AE
100
AcDbEntity
8
0
100
AcDbSpline
62
7
6
CONTINUOUS
70
0
71
3
72
12
73
8
74
6
42
0.0000001000
43
0.0000001000
44
0.0000000001
40
0.0000000000
40
0.0000000000
40
0.0000000000
40
0.0000000000
40
0.1736366396
40
0.3698229522
40
0.5801693484
40
0.7932808685
40
1.0000000000
40
1.0000000000
40
1.0000000000
40
1.0000000000
10
307.1115073367
20
195.3759498047
30
0.0000000000
10
307.0885216705
20
195.6134867000
30
0.0000000000
10
307.0486193903
20
196.1202885860
30
0.0000000000
10
307.0050037717
20
196.9165311251
30
0.0000000000
10
306.9755411486
20
197.7677177093
30
0.0000000000
10
306.9616545073
20
198.6337670858
30
0.0000000000
10
306.9632540775
20
199.2108271055
30
0.0000000000
10
306.9671551783
20
199.4949153703
30
0.0000000000
11
307.1115073367
21
195.3759498047
31
0.0000000000
11
307.0537197440
21
196.0895530917
31
0.0000000000
11
307.0086841760
21
196.8972146493
31
0.0000000000
11
306.9783382344
21
197.7639846986
31
0.0000000000
11
306.9643096318
21
198.6425749746
31
0.0000000000
11
306.9671551783
21
199.4949153703
31
0.0000000000
0
SPLINE
5
4AF
100
AcDbEntity
8
0
100
AcDbSpline
62
7
6
CONTINUOUS
70
0
71
3
72
12
73
8
74
6
42
0.0000001000
43
0.0000001000
44
0.0000000001
40
0.0000000000
40
0.0000000000
40
0.0000000000
40
0.0000000000
40
0.2365161845
40
0.4670417881
40
0.6805777198
40
0.8777901243
40
1.0000000000
40
1.0000000000
40
1.0000000000
40
1.0000000000
10
300.6246970945
20
165.6993653618
30
0.0000000000
10
300.6246970945
20
165.8069738474
30
0.0000000000
10
300.6578790647
20
166.0213798184
30
0.0000000000
10
300.8106778236
20
166.2988528431
30
0.0000000000
10
301.0434432419
20
166.4872775229
30
0.0000000000
10
301.2811892468
20
166.5585379471
30
0.0000000000
10
301.4279290261
20
166.5582083617
30
0.0000000000
10
301.4834383861
20
166.5522795516
30
0.0000000000
11
300.6246970945
21
165.6993653618
31
0.0000000000
11
300.6766860844
21
166.0179770699
31
0.0000000000
11
300.8310621337
21
166.2921520175
31
0.0000000000
11
301.0585948261
21
166.4742986084
31
0.0000000000
11
301.3162667879
21
166.5521605484
31
0.0000000000
11
301.4834383861
21
166.5522795516
31
0.0000000000
0
SPLINE
5
4B0
100
AcDbEntity
8
0
100
AcDbSpline
62
7
6
CONTINUOUS
70
0
71
3
72
18
73
14
74
12
42
0.0000001000
43
0.0000001000
44
0.0000000001
40
0.0000000000
40
0.0000000000
40
0.0000000000
40
0.0000000000
40
0.0779532372
40
0.1578548446
40
0.2375891833
40
0.3154642594
40
0.3920222783
40
0.4722828540
40
0.5629545012
40
0.6654058520
40
0.7753356069
40
0.8881069124
40
1.0000000000
40
1.0000000000
40
1.0000000000
40
1.0000000000
10
306.3747183662
20
167.2471562962
30
0.0000000000
10
306.3754704507
20
167.1678114220
30
0.0000000000
10
306.3572572771
20
167.0062529456
30
0.0000000000
10
306.2703995667
20
166.7778097920
30
0.0000000000
10
306.1280601608
20
166.5789697503
30
0.0000000000
10
305.9422347651
20
166.4255016563
30
0.0000000000
10
305.7231416083
20
166.3239645062
30
0.0000000000
10
305.4720651998
20
166.2800210343
30
0.0000000000
10
305.1913295270
20
166.3107305433
30
0.0000000000
10
304.9048495223
20
166.4395876020
30
0.0000000000
10
304.6601634660
20
166.6723369413
30
0.0000000000
10
304.5048024986
20
166.9829930423
30
0.0000000000
10
304.4782675238
20
167.2156970200
30
0.0000000000
10
304.4853125370
20
167.3293746686
30
0.0000000000
11
306.3747183662
21
167.2471562962
31
0.0000000000
11
306.3478504893
21
167.0106321126
31
0.0000000000
11
306.2609914670
21
166.7826209496
31
0.0000000000
11
306.1191098827
21
166.5847467523
31
0.0000000000
11
305.9356930218
21
166.4333854261
31
0.0000000000
11
305.7235720786
21
166.3351000621
31
0.0000000000
11
305.4821597147
21
166.2927943045
31
0.0000000000
11
305.2068988829
21
166.3227261671
31
0.0000000000
11
304.9214468493
21
166.4507707702
31
0.0000000000
11
304.6779406022
21
166.6818415342
31
0.0000000000
11
304.5239927133
21
166.9898838675
31
0.0000000000
11
304.4853125370
21
167.3293746686
31
0.0000000000
0
SPLINE
5
4B1
100
AcDbEntity
8
0
100
AcDbSpline
62
7
6
CONTINUOUS
70
0
71
3
72
16
73
12
74
10
42
0.0000001000
43
0.0000001000
44
0.0000000001
40
0.0000000000
40
0.0000000000
40
0.0000000000
40
0.0000000000
40
0.1172697213
40
0.2359499451
40
0.3521467729
40
0.4680198353
40
0.5853637346
40
0.7004277386
40
0.8074823562
40
0.9063022931
40
1.0000000000
40
1.0000000000
40
1.0000000000
40
1.0000000000
10
304.4853125370
20
167.3293746686
30
0.0000000000
10
304.4923522478
20
167.4429667577
30
0.0000000000
10
304.5475016068
20
167.6711024102
30
0.0000000000
10
304.7451449689
20
167.9592119513
30
0.0000000000
10
305.0325536905
20
168.1558788699
30
0.0000000000
10
305.3702364835
20
168.2350914954
30
0.0000000000
10
305.7126613275
20
168.1875432145
30
0.0000000000
10
306.0082684934
20
168.0271923961
30
0.0000000000
10
306.2216956127
20
167.7930203862
30
0.0000000000
10
306.3457020834
20
167.5256608196
30
0.0000000000
10
306.3738564763
20
167.3380856391
30
0.0000000000
10
306.3747183662
20
167.2471562962
30
0.0000000000
11
304.4853125370
21
167.3293746686
31
0.0000000000
11
304.5662611843
21
167.6610700087
31
0.0000000000
11
304.7620199280
21
167.9458052222
31
0.0000000000
11
305.0413722426
21
168.1366283299
31
0.0000000000
11
305.3697798626
21
168.2138468198
31
0.0000000000
11
305.7082448770
21
168.1673340336
31
0.0000000000
11
306.0029761050
21
168.0080734130
31
0.0000000000
11
306.2131954302
21
167.7779478578
31
0.0000000000
11
306.3342433333
21
167.5169372557
31
0.0000000000
11
306.3747183662
21
167.2471562962
31
0.0000000000
0
SPLINE
5
4B2
100
AcDbEntity
8
0
100
AcDbSpline
62
7
6
CONTINUOUS
70
0
71
3
72
18
73
14
74
12
42
0.0000001000
43
0.0000001000
44
0.0000000001
40
0.0000000000
40
0.0000000000
40
0.0000000000
40
0.0000000000
40
0.1015286573
40
0.2003442480
40
0.2957469456
40
0.3875739008
40
0.4767446497
40
0.5645444342
40
0.6502987984
40
0.7338959441
40
0.8217925448
40
0.9235130064
40
1.0000000000
40
1.0000000000
40
1.0000000000
40
1.0000000000
10
300.7094721324
20
169.7317851040
30
0.0000000000
10
300.7231478461
20
169.7967680416
30
0.0000000000
10
300.7622350564
20
169.9228038878
30
0.0000000000
10
300.8536673737
20
170.0945251141
30
0.0000000000
10
300.9721330015
20
170.2408650297
30
0.0000000000
10
301.1121027922
20
170.3571815201
30
0.0000000000
10
301.2684797429
20
170.4403075112
30
0.0000000000
10
301.4352710773
20
170.4871144704
30
0.0000000000
10
301.6046755223
20
170.4956707801
30
0.0000000000
10
301.7717588574
20
170.4663373232
30
0.0000000000
10
301.9377690770
20
170.3960846723
30
0.0000000000
10
302.0786168915
20
170.2907107252
30
0.0000000000
10
302.1556224237
20
170.2021648065
30
0.0000000000
10
302.1852208980
20
170.1616286039
30
0.0000000000
11
300.7094721324
21
169.7317851040
31
0.0000000000
11
300.7686328136
21
169.9220172772
31
0.0000000000
11
300.8600011087
21
170.0930357774
31
0.0000000000
11
300.9780984970
21
170.2382817748
31
0.0000000000
11
301.1169588419
21
170.3531013604
31
0.0000000000
11
301.2716625494
21
170.4348414291
31
0.0000000000
11
301.4376321569
21
170.4810434342
31
0.0000000000
11
301.6056940724
21
170.4893462402
31
0.0000000000
11
301.7672595741
21
170.4609959143
31
0.0000000000
11
301.9261782066
21
170.3939817573
31
0.0000000000
11
302.0863301678
21
170.2748611786
31
0.0000000000
11
302.1852208980
21
170.1616286039
31
0.0000000000
0
SPLINE
5
4B3
100
AcDbEntity
8
0
100
AcDbSpline
62
7
6
CONTINUOUS
70
0
71
3
72
17
73
13
74
11
42
0.0000001000
43
0.0000001000
44
0.0000000001
40
0.0000000000
40
0.0000000000
40
0.0000000000
40
0.0000000000
40
0.1052469966
40
0.2093396867
40
0.3117134175
40
0.4129083471
40
0.5139112413
40
0.6159787082
40
0.7203791833
40
0.8291254775
40
0.9440147351
40
1.0000000000
40
1.0000000000
40
1.0000000000
40
1.0000000000
10
306.3721918717
20
171.3964490634
30
0.0000000000
10
306.3765766623
20
171.2911224697
30
0.0000000000
10
306.3493144873
20
171.0785609372
30
0.0000000000
10
306.2103344499
20
170.7933434474
30
0.0000000000
10
305.9933359828
20
170.5675684115
30
0.0000000000
10
305.7208541200
20
170.4198613460
30
0.0000000000
10
305.4161513893
20
170.3631783677
30
0.0000000000
10
305.1055585900
20
170.4076094846
30
0.0000000000
10
304.8205820321
20
170.5582746672
30
0.0000000000
10
304.5987144100
20
170.8109563304
30
0.0000000000
10
304.5025708421
20
171.0812255797
30
0.0000000000
10
304.4921569487
20
171.2541225672
30
0.0000000000
10
304.4937558601
20
171.3105450055
30
0.0000000000
11
306.3721918717
21
171.3964490634
31
0.0000000000
11
306.3324630749
21
171.0827009444
31
0.0000000000
11
306.1959517898
21
170.8012776269
31
0.0000000000
11
305.9827575410
21
170.5795163070
31
0.0000000000
11
305.7152734875
21
170.4348946198
31
0.0000000000
11
305.4167796297
21
170.3799949785
31
0.0000000000
11
305.1132678274
21
170.4240983708
31
0.0000000000
11
304.8361557057
21
170.5711449709
31
0.0000000000
11
304.6204525150
21
170.8166031638
31
0.0000000000
11
304.5041700211
21
171.1416573233
31
0.0000000000
11
304.4937558601
21
171.3105450055
31
0.0000000000
0
SPLINE
5
4B4
100
AcDbEntity
8
0
100
AcDbSpline
62
7
6
CONTINUOUS
70
0
71
3
72
15
73
11
74
9
42
0.0000001000
43
0.0000001000
44
0.0000000001
40
0.0000000000
40
0.0000000000
40
0.0000000000
40
0.0000000000
40
0.1275430177
40
0.2579303244
40
0.3857995306
40
0.5154060492
40
0.6423488753
40
0.7639023746
40
0.8842414540
40
1.0000000000
40
1.0000000000
40
1.0000000000
40
1.0000000000
10
304.5146117106
20
171.4837728052
30
0.0000000000
10
304.5387073153
20
171.5959486050
30
0.0000000000
10
304.6291208700
20
171.8158153632
30
0.0000000000
10
304.8687771850
20
172.0764988685
30
0.0000000000
10
305.1852241510
20
172.2399453139
30
0.0000000000
10
305.5366328501
20
172.2811723987
30
0.0000000000
10
305.8734988716
20
172.1922857552
30
0.0000000000
10
306.1468347544
20
171.9907793385
30
0.0000000000
10
306.3228613046
20
171.7130290357
30
0.0000000000
10
306.3678605020
20
171.5004924397
30
0.0000000000
10
306.3721918717
20
171.3964490634
30
0.0000000000
11
304.5146117106
21
171.4837728052
31
0.0000000000
11
304.6451938511
21
171.8022447484
31
0.0000000000
11
304.8831570042
21
172.0614603205
31
0.0000000000
11
305.1900463887
21
172.2192632181
31
0.0000000000
11
305.5375492325
21
172.2590435569
31
0.0000000000
11
305.8685823522
21
172.1708351530
31
0.0000000000
11
306.1325311916
21
171.9760508993
31
0.0000000000
11
306.3066178559
21
171.7018899130
31
0.0000000000
11
306.3721918717
21
171.3964490634
31
0.0000000000
0
SPLINE
5
4B5
100
AcDbEntity
8
0
100
AcDbSpline
62
7
6
CONTINUOUS
70
0
71
3
72
11
73
7
74
5
42
0.0000001000
43
0.0000001000
44
0.0000000001
40
0.0000000000
40
0.0000000000
40
0.0000000000
40
0.0000000000
40
0.2819912540
40
0.5628661044
40
0.8409607713
40
1.0000000000
40
1.0000000000
40
1.0000000000
40
1.0000000000
10
304.4853125370
20
163.4226336439
30
0.0000000000
10
304.4784165172
20
163.5280704083
30
0.0000000000
10
304.5033994885
20
163.7434362095
30
0.0000000000
10
304.6592963357
20
164.0262995510
30
0.0000000000
10
304.8732712342
20
164.1998408453
30
0.0000000000
10
305.0258209301
20
164.2636655090
30
0.0000000000
10
305.0830460820
20
164.2812712456
30
0.0000000000
11
304.4853125370
21
163.4226336439
31
0.0000000000
11
304.5233680314
21
163.7373271087
31
0.0000000000
11
304.6757081601
21
164.0138748533
31
0.0000000000
11
304.9177678191
21
164.2116869133
31
0.0000000000
11
305.0830460820
21
164.2812712456
31
0.0000000000
0
SPLINE
5
4B6
100
AcDbEntity
8
0
100
AcDbSpline
62
7
6
CONTINUOUS
70
0
71
3
72
18
73
14
74
12
42
0.0000001000
43
0.0000001000
44
0.0000000001
40
0.0000000000
40
0.0000000000
40
0.0000000000
40
0.0000000000
40
0.0755981789
40
0.1508524019
40
0.2261678362
40
0.3014649851
40
0.3781012776
40
0.4612425098
40
0.5555799538
40
0.6620856366
40
0.7745004890
40
0.8897395002
40
1.0000000000
40
1.0000000000
40
1.0000000000
40
1.0000000000
10
306.3747183662
20
163.3404152714
30
0.0000000000
10
306.3739989464
20
163.2689560777
30
0.0000000000
10
306.3546901898
20
163.1258366583
30
0.0000000000
10
306.2718653465
20
162.9261883077
30
0.0000000000
10
306.1401974893
20
162.7549689773
30
0.0000000000
10
305.9681956299
20
162.6224436233
30
0.0000000000
10
305.7620247791
20
162.5337256516
30
0.0000000000
10
305.5223093376
20
162.4955481057
30
0.0000000000
10
305.2520286168
20
162.5230392413
30
0.0000000000
10
304.9730755232
20
162.6342951891
30
0.0000000000
10
304.7227596663
20
162.8350464944
30
0.0000000000
10
304.5446551421
20
163.1069287984
30
0.0000000000
10
304.4921150323
20
163.3186268216
30
0.0000000000
10
304.4853125370
20
163.4226336439
30
0.0000000000
11
306.3747183662
21
163.3404152714
31
0.0000000000
11
306.3456214383
21
163.1280105300
31
0.0000000000
11
306.2637359640
21
162.9309321514
31
0.0000000000
11
306.1336357415
21
162.7615415595
31
0.0000000000
11
305.9647253637
21
162.6309032184
31
0.0000000000
11
305.7652931832
21
162.5445308350
31
0.0000000000
11
305.5325435382
21
162.5068520366
31
0.0000000000
11
305.2663239516
21
162.5333091422
31
0.0000000000
11
304.9856642361
21
162.6449227466
31
0.0000000000
11
304.7371996270
21
162.8446641685
31
0.0000000000
11
304.5593497078
21
163.1188380966
31
0.0000000000
11
304.4853125370
21
163.4226336439
31
0.0000000000
0
SPLINE
5
4B7
100
AcDbEntity
8
0
100
AcDbSpline
62
7
6
CONTINUOUS
70
0
71
3
72
11
73
7
74
5
42
0.0000001000
43
0.0000001000
44
0.0000000001
40
0.0000000000
40
0.0000000000
40
0.0000000000
40
0.0000000000
40
0.2786883412
40
0.5391792009
40
0.7787830102
40
1.0000000000
40
1.0000000000
40
1.0000000000
40
1.0000000000
10
300.7094721324
20
161.9183030546
30
0.0000000000
10
300.6879820628
20
162.0121335320
30
0.0000000000
10
300.6733371708
20
162.2019804851
30
0.0000000000
10
300.7561294640
20
162.4663001369
30
0.0000000000
10
300.9320617283
20
162.6546357991
30
0.0000000000
10
301.0828800488
20
162.7171046890
30
0.0000000000
10
301.1579556733
20
162.7341172134
30
0.0000000000
11
300.7094721324
21
161.9183030546
31
0.0000000000
11
300.6920690509
21
162.2065580929
31
0.0000000000
11
300.7770197421
21
162.4627651645
31
0.0000000000
11
300.9469335222
21
162.6437964022
31
0.0000000000
11
301.1579556733
21
162.7341172134
31
0.0000000000
0
SPLINE
5
4B8
100
AcDbEntity
8
0
100
AcDbSpline
62
7
6
CONTINUOUS
70
0
71
3
72
10
73
6
74
4
42
0.0000001000
43
0.0000001000
44
0.0000000001
40
0.0000000000
40
0.0000000000
40
0.0000000000
40
0.0000000000
40
0.4219536908
40
0.8437115220
40
1.0000000000
40
1.0000000000
40
1.0000000000
40
1.0000000000
10
304.5146117106
20
159.7635497311
30
0.0000000000
10
304.4913040729
20
159.8549999869
30
0.0000000000
10
304.4813209749
20
160.0508389749
30
0.0000000000
10
304.5777756655
20
160.2620750265
30
0.0000000000
10
304.6655980728
20
160.3584853411
30
0.0000000000
10
304.6912217099
20
160.3825942705
30
0.0000000000
11
304.5146117106
21
159.7635497311
31
0.0000000000
11
304.5041700211
21
160.0464782176
31
0.0000000000
11
304.6204525150
21
160.3044734547
31
0.0000000000
11
304.6912217099
21
160.3825942705
31
0.0000000000
0
SPLINE
5
4B9
100
AcDbEntity
8
0
100
AcDbSpline
62
7
6
CONTINUOUS
70
0
71
3
72
15
73
11
74
9
42
0.0000001000
43
0.0000001000
44
0.0000000001
40
0.0000000000
40
0.0000000000
40
0.0000000000
40
0.0000000000
40
0.1025895669
40
0.2124653755
40
0.3318419363
40
0.4656421679
40
0.6070228305
40
0.7449271190
40
0.8785696113
40
1.0000000000
40
1.0000000000
40
1.0000000000
40
1.0000000000
10
306.3721918717
20
159.6762259892
30
0.0000000000
10
306.3678704046
20
159.5910214833
30
0.0000000000
10
306.3210644028
20
159.4139573208
30
0.0000000000
10
306.1367344922
20
159.1973237257
30
0.0000000000
10
305.8603927909
20
159.0593375459
30
0.0000000000
10
305.5289605851
20
159.0193931464
30
0.0000000000
10
305.1862853787
20
159.0828653088
30
0.0000000000
10
304.8757465785
20
159.2401966445
30
0.0000000000
10
304.6363413013
20
159.4703069246
30
0.0000000000
10
304.5395514494
20
159.6656957353
30
0.0000000000
10
304.5146117106
20
159.7635497311
30
0.0000000000
11
306.3721918717
21
159.6762259892
31
0.0000000000
11
306.3060664027
21
159.4289735503
31
0.0000000000
11
306.1311802315
21
159.2178893241
31
0.0000000000
11
305.8669333334
21
159.0805145128
31
0.0000000000
11
305.5360086592
21
159.0367431680
31
0.0000000000
11
305.1889488803
21
159.0996717171
31
0.0000000000
11
304.8825447345
21
159.2561454007
31
0.0000000000
11
304.6449887399
21
159.4900933620
31
0.0000000000
11
304.5146117106
21
159.7635497311
31
0.0000000000
0
SPLINE
5
4BA
100
AcDbEntity
8
0
100
AcDbSpline
62
7
6
CONTINUOUS
70
0
71
3
72
10
73
6
74
4
42
0.0000001000
43
0.0000001000
44
0.0000000001
40
0.0000000000
40
0.0000000000
40
0.0000000000
40
0.0000000000
40
0.3331795430
40
0.6664589588
40
1.0000000000
40
1.0000000000
40
1.0000000000
40
1.0000000000
10
307.8521980118
20
156.4848762994
30
0.0000000000
10
307.8521980118
20
156.2019217401
30
0.0000000000
10
307.8268823202
20
155.6355898134
30
0.0000000000
10
307.7132761422
20
154.7929402127
30
0.0000000000
10
307.5876953044
20
154.2398160560
30
0.0000000000
10
307.5127528998
20
153.9666480684
30
0.0000000000
11
307.8521980118
21
156.4848762994
31
0.0000000000
11
307.8142903490
21
155.6368594643
31
0.0000000000
11
307.7008591585
21
154.7953519095
31
0.0000000000
11
307.5127528998
21
153.9666480684
31
0.0000000000
0
SPLINE
5
4BB
100
AcDbEntity
8
0
100
AcDbSpline
62
7
6
CONTINUOUS
70
0
71
3
72
15
73
11
74
9
42
0.0000001000
43
0.0000001000
44
0.0000000001
40
0.0000000000
40
0.0000000000
40
0.0000000000
40
0.0000000000
40
0.1235829891
40
0.2475401048
40
0.3719399896
40
0.4968132024
40
0.6221304999
40
0.7478381244
40
0.8738353502
40
1.0000000000
40
1.0000000000
40
1.0000000000
40
1.0000000000
10
305.7242073864
20
145.8128535942
30
0.0000000000
10
305.7029633713
20
145.7354183308
30
0.0000000000
10
305.6472252493
20
145.5835977266
30
0.0000000000
10
305.5268105348
20
145.3728441126
30
0.0000000000
10
305.3727388038
20
145.1841354817
30
0.0000000000
10
305.1892677420
20
145.0225736688
30
0.0000000000
10
304.9813767449
20
144.8923691783
30
0.0000000000
10
304.7546237033
20
144.7969017351
30
0.0000000000
10
304.5151027795
20
144.7386207687
30
0.0000000000
10
304.3509648218
20
144.7255599446
30
0.0000000000
10
304.2689909182
20
144.7255599446
30
0.0000000000
11
305.7242073864
21
145.8128535942
31
0.0000000000
11
305.6412273132
21
145.5867074881
31
0.0000000000
11
305.5214440056
21
145.3768704480
31
0.0000000000
11
305.3681548268
21
145.1889878908
31
0.0000000000
11
305.1855425052
21
145.0280579231
31
0.0000000000
11
304.9785658914
21
144.8983330820
31
0.0000000000
11
304.7527612185
21
144.8031890982
31
0.0000000000
11
304.5141354351
21
144.7450959036
31
0.0000000000
11
304.2689909182
21
144.7255599446
31
0.0000000000
0
SPLINE
5
4BC
100
AcDbEntity
8
0
100
AcDbSpline
62
7
6
CONTINUOUS
70
0
71
3
72
14
73
10
74
8
42
0.0000001000
43
0.0000001000
44
0.0000000001
40
0.0000000000
40
0.0000000000
40
0.0000000000
40
0.0000000000
40
0.0222859040
40
0.0973492896
40
0.2207926577
40
0.3847504802
40
0.5781296552
40
0.7879806702
40
1.0000000000
40
1.0000000000
40
1.0000000000
40
1.0000000000
10
282.4556826173
20
196.9081941283
30
0.0000000000
10
282.4302088263
20
196.8967979377
30
0.0000000000
10
282.2996655151
20
196.7328441600
30
0.0000000000
10
282.2931537930
20
196.3957813579
30
0.0000000000
10
282.1779204736
20
195.7996652431
30
0.0000000000
10
282.1258537544
20
195.0213412369
30
0.0000000000
10
282.0674886702
20
194.0955190860
30
0.0000000000
10
282.0356237689
20
193.0920193053
30
0.0000000000
10
282.0271753388
20
192.4032075248
30
0.0000000000
10
282.0271753388
20
192.0570887093
30
0.0000000000
11
282.4556826173
21
196.9081941283
31
0.0000000000
11
282.3771299929
21
196.8225349022
31
0.0000000000
11
282.2863938830
21
196.4662885859
31
0.0000000000
11
282.2019148984
21
195.8676609743
31
0.0000000000
11
282.1294457432
21
195.0679607741
31
0.0000000000
11
282.0739236627
21
194.1225226628
31
0.0000000000
11
282.0390519716
21
193.0953772317
31
0.0000000000
11
282.0271753388
21
192.0570887093
31
0.0000000000
0
SPLINE
5
4BD
100
AcDbEntity
8
0
100
AcDbSpline
62
7
6
CONTINUOUS
70
0
71
3
72
12
73
8
74
6
42
0.0000001000
43
0.0000001000
44
0.0000000001
40
0.0000000000
40
0.0000000000
40
0.0000000000
40
0.0000000000
40
0.1736366396
40
0.3698229522
40
0.5801693484
40
0.7932808685
40
1.0000000000
40
1.0000000000
40
1.0000000000
40
1.0000000000
10
283.6427526492
20
195.3759498047
30
0.0000000000
10
283.6657383153
20
195.6134867000
30
0.0000000000
10
283.7056405955
20
196.1202885860
30
0.0000000000
10
283.7492562141
20
196.9165311251
30
0.0000000000
10
283.7787188373
20
197.7677177093
30
0.0000000000
10
283.7926054785
20
198.6337670858
30
0.0000000000
10
283.7910059083
20
199.2108271055
30
0.0000000000
10
283.7871048075
20
199.4949153703
30
0.0000000000
11
283.6427526492
21
195.3759498047
31
0.0000000000
11
283.7005402418
21
196.0895530917
31
0.0000000000
11
283.7455758098
21
196.8972146493
31
0.0000000000
11
283.7759217514
21
197.7639846986
31
0.0000000000
11
283.7899503540
21
198.6425749746
31
0.0000000000
11
283.7871048075
21
199.4949153703
31
0.0000000000
0
SPLINE
5
4BE
100
AcDbEntity
8
0
100
AcDbSpline
62
7
6
CONTINUOUS
70
0
71
3
72
37
73
33
74
31
42
0.0000001000
43
0.0000001000
44
0.0000000001
40
0.0000000000
40
0.0000000000
40
0.0000000000
40
0.0000000000
40
0.0103351681
40
0.0208190769
40
0.0312711924
40
0.0416501625
40
0.0520810654
40
0.0630638921
40
0.0751556987
40
0.0889142987
40
0.1045258794
40
0.1218928253
40
0.1409700013
40
0.1619066838
40
0.1849072190
40
0.2101821752
40
0.2379744882
40
0.2687539971
40
0.3030961068
40
0.3415018857
40
0.3838780157
40
0.4298167541
40
0.4793044465
40
0.5338636343
40
0.5947807304
40
0.6586077201
40
0.7201395475
40
0.7786644510
40
0.8353810720
40
0.8909545662
40
0.9457191121
40
1.0000000000
40
1.0000000000
40
1.0000000000
40
1.0000000000
10
282.6397972055
20
165.2364440752
30
0.0000000000
10
282.6397972055
20
165.2689090314
30
0.0000000000
10
282.6398167104
20
165.3343061716
30
0.0000000000
10
282.6399047692
20
165.4325355890
30
0.0000000000
10
282.6400518759
20
165.5309025277
30
0.0000000000
10
282.6402570257
20
165.6291028591
30
0.0000000000
10
282.6405246487
20
165.7289701231
30
0.0000000000
10
282.6408704215
20
165.8342175612
30
0.0000000000
10
282.6413257427
20
165.9499176762
30
0.0000000000
10
282.6419327435
20
166.0801571752
30
0.0000000000
10
282.6427374221
20
166.2269662215
30
0.0000000000
10
282.6437836112
20
166.3904809086
30
0.0000000000
10
282.6451185907
20
166.5707212818
30
0.0000000000
10
282.6468027442
20
166.7686557434
30
0.0000000000
10
282.6489143293
20
166.9860556719
30
0.0000000000
10
282.6515497290
20
167.2249863294
30
0.0000000000
10
282.6548342320
20
167.4883464716
30
0.0000000000
10
282.6589363835
20
167.7801801531
30
0.0000000000
10
282.6640781671
20
168.1053412123
30
0.0000000000
10
282.6705036498
20
168.4669133534
30
0.0000000000
10
282.6784406496
20
168.8648910055
30
0.0000000000
10
282.6881002818
20
169.2976507415
30
0.0000000000
10
282.6998277741
20
169.7686419784
30
0.0000000000
10
282.7141917534
20
170.2866304781
30
0.0000000000
10
282.7315909325
20
170.8495923732
30
0.0000000000
10
282.7517047232
20
171.4343800187
30
0.0000000000
10
282.7736274037
20
172.0115828563
30
0.0000000000
10
282.7966569609
20
172.5663888275
30
0.0000000000
10
282.8207789206
20
173.1024136441
30
0.0000000000
10
282.8462124544
20
173.6265521896
30
0.0000000000
10
282.8731292274
20
174.1429552295
30
0.0000000000
10
282.8922263286
20
174.4849582807
30
0.0000000000
10
282.9020619741
20
174.6551821505
30
0.0000000000
11
282.6397972055
21
165.2364440752
31
0.0000000000
11
282.6398262121
21
165.3338389396
31
0.0000000000
11
282.6399147374
21
165.4326354468
31
0.0000000000
11
282.6400619984
21
165.5311322750
31
0.0000000000
11
282.6402662898
21
165.6289397046
31
0.0000000000
11
282.6405296675
21
165.7272363907
31
0.0000000000
11
282.6408696506
21
165.8307340006
31
0.0000000000
11
282.6413180242
21
165.9446819094
31
0.0000000000
11
282.6419222266
21
166.0743365485
31
0.0000000000
11
282.6427284866
21
166.2214522031
31
0.0000000000
11
282.6437754562
21
166.3851086423
31
0.0000000000
11
282.6451068097
21
166.5648800865
31
0.0000000000
11
282.6467853200
21
166.7621726352
31
0.0000000000
11
282.6488902693
21
166.9789110996
31
0.0000000000
11
282.6515170135
21
167.2170786177
31
0.0000000000
11
282.6547828538
21
167.4789629142
31
0.0000000000
11
282.6588593390
21
167.7689891748
31
0.0000000000
11
282.6639760062
21
168.0925762872
31
0.0000000000
11
282.6704065820
21
168.4544412585
31
0.0000000000
11
282.6783692736
21
168.8536991145
31
0.0000000000
11
282.6880304897
21
169.2865012748
31
0.0000000000
11
282.6996403078
21
169.7527107707
31
0.0000000000
11
282.7138950040
21
170.2666590885
31
0.0000000000
11
282.7316340297
21
170.8404455245
31
0.0000000000
11
282.7523178870
21
171.4415721374
31
0.0000000000
11
282.7743345879
21
172.0210075889
31
0.0000000000
11
282.7972176799
21
172.5720500866
31
0.0000000000
11
282.8212563236
21
173.1059860587
31
0.0000000000
11
282.8466508655
21
173.6290744184
31
0.0000000000
11
282.8735279082
21
174.1444552576
31
0.0000000000
11
282.9020619741
21
174.6551821505
31
0.0000000000
0
SPLINE
5
4BF
100
AcDbEntity
8
0
100
AcDbSpline
62
7
6
CONTINUOUS
70
0
71
3
72
15
73
11
74
9
42
0.0000001000
43
0.0000001000
44
0.0000000001
40
0.0000000000
40
0.0000000000
40
0.0000000000
40
0.0000000000
40
0.0847536930
40
0.1967136208
40
0.3149114717
40
0.4402250930
40
0.5750018675
40
0.7146772480
40
0.8591417228
40
1.0000000000
40
1.0000000000
40
1.0000000000
40
1.0000000000
10
302.1551566208
20
164.9297833077
30
0.0000000000
10
302.1155323507
20
164.8807471600
30
0.0000000000
10
302.0100987886
20
164.7777544243
30
0.0000000000
10
301.7989146437
20
164.6684107412
30
0.0000000000
10
301.5321512373
20
164.6351274344
30
0.0000000000
10
301.2538637511
20
164.6988326693
30
0.0000000000
10
300.9975282825
20
164.8565294569
30
0.0000000000
10
300.7904660260
20
165.0933740021
30
0.0000000000
10
300.6565973554
20
165.3827126353
30
0.0000000000
10
300.6246970945
20
165.5950651328
30
0.0000000000
10
300.6246970945
20
165.6993653618
30
0.0000000000
11
302.1551566208
21
164.9297833077
31
0.0000000000
11
302.0197641580
21
164.7984381705
31
0.0000000000
11
301.7987498303
21
164.6843878254
31
0.0000000000
11
301.5383403929
21
164.6508271812
31
0.0000000000
11
301.2665270346
21
164.7108884278
31
0.0000000000
11
301.0103942385
21
164.8659082724
31
0.0000000000
11
300.8051436041
21
165.0985915798
31
0.0000000000
11
300.6703232628
21
165.3898090784
31
0.0000000000
11
300.6246970945
21
165.6993653618
31
0.0000000000
0
SPLINE
5
4C0
100
AcDbEntity
8
0
100
AcDbSpline
62
7
6
CONTINUOUS
70
0
71
3
72
37
73
33
74
31
42
0.0000001000
43
0.0000001000
44
0.0000000001
40
0.0000000000
40
0.0000000000
40
0.0000000000
40
0.0000000000
40
0.0119505989
40
0.0240375464
40
0.0360522570
40
0.0479478738
40
0.0598679971
40
0.0723810502
40
0.0861129349
40
0.1016809907
40
0.1192729455
40
0.1387524542
40
0.1600409163
40
0.1832733447
40
0.2086385696
40
0.2363229388
40
0.2665370553
40
0.2997215759
40
0.3364044554
40
0.3770009545
40
0.4212715573
40
0.4686439304
40
0.5189517245
40
0.5735386613
40
0.6333890177
40
0.6948360028
40
0.7528243211
40
0.8068113109
40
0.8580113649
40
0.9070748252
40
0.9543134110
40
1.0000000000
40
1.0000000000
40
1.0000000000
40
1.0000000000
10
282.6397972055
20
165.2364440752
30
0.0000000000
10
282.6397972055
20
165.2040265691
30
0.0000000000
10
282.6398166246
20
165.1388216922
30
0.0000000000
10
282.6399045947
20
165.0410254335
30
0.0000000000
10
282.6400516172
20
164.9433783915
30
0.0000000000
10
282.6402566830
20
164.8461839871
30
0.0000000000
10
282.6405241969
20
164.7476379124
30
0.0000000000
10
282.6408697884
20
164.6441109424
30
0.0000000000
10
282.6413247986
20
164.5306888289
30
0.0000000000
10
282.6419313058
20
164.4034900833
30
0.0000000000
10
282.6427352968
20
164.2607009939
30
0.0000000000
10
282.6437805920
20
164.1023957610
30
0.0000000000
10
282.6451143914
20
163.9287916957
30
0.0000000000
10
282.6467969403
20
163.7392242140
30
0.0000000000
10
282.6489063377
20
163.5323102965
30
0.0000000000
10
282.6515387573
20
163.3064622358
30
0.0000000000
10
282.6548190891
20
163.0594097548
30
0.0000000000
10
282.6589151976
20
162.7879567598
30
0.0000000000
10
282.6640482232
20
162.4883532394
30
0.0000000000
10
282.6704617517
20
162.1586956355
30
0.0000000000
10
282.6783837518
20
161.8000664062
30
0.0000000000
10
282.6880247805
20
161.4151271358
30
0.0000000000
10
282.6997256647
20
161.0022483588
30
0.0000000000
10
282.7140478442
20
160.5555849246
30
0.0000000000
10
282.7313968752
20
160.0787904368
30
0.0000000000
10
282.7514773166
20
159.5928679929
30
0.0000000000
10
282.7733871419
20
159.1229463831
30
0.0000000000
10
282.7964036856
20
158.6809092406
30
0.0000000000
10
282.8205043560
20
158.2631776828
30
0.0000000000
10
282.8459095887
20
157.8638644719
30
0.0000000000
10
282.8727905107
20
157.4796389988
30
0.0000000000
10
282.8920993598
20
157.2283057936
30
0.0000000000
10
282.9020619741
20
157.1047762505
30
0.0000000000
11
282.6397972055
21
165.2364440752
31
0.0000000000
11
282.6398262121
21
165.1391915611
31
0.0000000000
11
282.6399147374
21
165.0408294938
31
0.0000000000
11
282.6400619984
21
164.9430553526
31
0.0000000000
11
282.6402662898
21
164.8462504876
31
0.0000000000
11
282.6405296675
21
164.7492463332
31
0.0000000000
11
282.6408696506
21
164.6474171981
31
0.0000000000
11
282.6413180242
21
164.5356696927
31
0.0000000000
11
282.6419222266
21
164.4089801908
31
0.0000000000
11
282.6427284866
21
164.2658212754
31
0.0000000000
11
282.6437754562
21
164.1073028630
31
0.0000000000
11
282.6451068097
21
163.9340650660
31
0.0000000000
11
282.6467853200
21
163.7450098441
31
0.0000000000
11
282.6488902693
21
163.5386014656
31
0.0000000000
11
282.6515170135
21
163.3133247537
31
0.0000000000
11
282.6547828538
21
163.0674676423
31
0.0000000000
11
282.6588593390
21
162.7974468246
31
0.0000000000
11
282.6639760062
21
162.4989698713
31
0.0000000000
11
282.6704065820
21
162.1686630955
31
0.0000000000
11
282.6783692736
21
161.8084823276
31
0.0000000000
11
282.6880304897
21
161.4230928025
31
0.0000000000
11
282.6996403078
21
161.0138587499
31
0.0000000000
11
282.7138950040
21
160.5698656747
31
0.0000000000
11
282.7316340297
21
160.0831339062
31
0.0000000000
11
282.7523178870
21
159.5835137880
31
0.0000000000
11
282.7743345879
21
159.1121257918
31
0.0000000000
11
282.7972176799
21
158.6733825828
31
0.0000000000
11
282.8212563236
21
158.2574167950
31
0.0000000000
11
282.8466508655
21
157.8589527209
31
0.0000000000
11
282.8735279082
21
157.4754715735
31
0.0000000000
11
282.9020619741
21
157.1047762505
31
0.0000000000
0
SPLINE
5
4C1
100
AcDbEntity
8
0
100
AcDbSpline
62
7
6
CONTINUOUS
70
0
71
3
72
14
73
10
74
8
42
0.0000001000
43
0.0000001000
44
0.0000000001
40
0.0000000000
40
0.0000000000
40
0.0000000000
40
0.0000000000
40
0.0934513776
40
0.2155641109
40
0.3539491549
40
0.5001187844
40
0.6520109293
40
0.8159764947
40
1.0000000000
40
1.0000000000
40
1.0000000000
40
1.0000000000
10
281.3771299929
20
202.5137302635
30
0.0000000000
10
281.3771299929
20
202.5727456687
30
0.0000000000
10
281.3988024210
20
202.7081259484
30
0.0000000000
10
281.4475403467
20
202.9259029388
30
0.0000000000
10
281.5103083341
20
203.1750723718
30
0.0000000000
10
281.5776067477
20
203.4423082246
30
0.0000000000
10
281.6454599607
20
203.7261108698
30
0.0000000000
10
281.7119725531
20
204.0347339466
30
0.0000000000
10
281.7511221730
20
204.2510495840
30
0.0000000000
10
281.7693127101
20
204.3658296269
30
0.0000000000
11
281.3771299929
21
202.5137302635
31
0.0000000000
11
281.3974262978
21
202.6896092630
31
0.0000000000
11
281.4462527583
21
202.9157440088
31
0.0000000000
11
281.5090966365
21
203.1702749578
31
0.0000000000
11
281.5761984725
21
203.4389445673
31
0.0000000000
11
281.6426786519
21
203.7189238999
31
0.0000000000
11
281.7077157334
21
204.0226766035
31
0.0000000000
11
281.7693127101
21
204.3658296269
31
0.0000000000
0
SPLINE
5
4C2
100
AcDbEntity
8
0
100
AcDbSpline
62
7
6
CONTINUOUS
70
0
71
3
72
14
73
10
74
8
42
0.0000001000
43
0.0000001000
44
0.0000000001
40
0.0000000000
40
0.0000000000
40
0.0000000000
40
0.0000000000
40
0.0934513776
40
0.2155641109
40
0.3539491549
40
0.5001187844
40
0.6520109293
40
0.8159764947
40
1.0000000000
40
1.0000000000
40
1.0000000000
40
1.0000000000
10
309.3771299929
20
202.5137302635
30
0.0000000000
10
309.3771299929
20
202.5727456687
30
0.0000000000
10
309.3554575648
20
202.7081259484
30
0.0000000000
10
309.3067196391
20
202.9259029388
30
0.0000000000
10
309.2439516518
20
203.1750723718
30
0.0000000000
10
309.1766532381
20
203.4423082246
30
0.0000000000
10
309.1088000251
20
203.7261108698
30
0.0000000000
10
309.0422874327
20
204.0347339466
30
0.0000000000
10
309.0031378128
20
204.2510495840
30
0.0000000000
10
308.9849472757
20
204.3658296269
30
0.0000000000
11
309.3771299929
21
202.5137302635
31
0.0000000000
11
309.3568336881
21
202.6896092630
31
0.0000000000
11
309.3080072275
21
202.9157440088
31
0.0000000000
11
309.2451633493
21
203.1702749578
31
0.0000000000
11
309.1780615133
21
203.4389445673
31
0.0000000000
11
309.1115813339
21
203.7189238999
31
0.0000000000
11
309.0465442524
21
204.0226766035
31
0.0000000000
11
308.9849472757
21
204.3658296269
31
0.0000000000
0
SPLINE
5
4C3
100
AcDbEntity
8
0
100
AcDbSpline
62
7
6
CONTINUOUS
70
0
71
3
72
14
73
10
74
8
42
0.0000001000
43
0.0000001000
44
0.0000000001
40
0.0000000000
40
0.0000000000
40
0.0000000000
40
0.0000000000
40
0.1701594571
40
0.3411571371
40
0.5059115141
40
0.6573524019
40
0.7906131861
40
0.9065061755
40
1.0000000000
40
1.0000000000
40
1.0000000000
40
1.0000000000
10
283.3007357813
20
206.9588099333
30
0.0000000000
10
283.1773566832
20
206.8375289917
30
0.0000000000
10
282.9410626859
20
206.5828784057
30
0.0000000000
10
282.6236115128
20
206.1774582306
30
0.0000000000
10
282.3499346289
20
205.7639681801
30
0.0000000000
10
282.1269003850
20
205.3646379351
30
0.0000000000
10
281.9556729547
20
204.9945814047
30
0.0000000000
10
281.8361291885
20
204.6669624069
30
0.0000000000
10
281.7841920405
20
204.4597163641
30
0.0000000000
10
281.7693127101
20
204.3658296269
30
0.0000000000
11
283.3007357813
21
206.9588099333
31
0.0000000000
11
282.9471718651
21
206.5788418098
31
0.0000000000
11
282.6254192657
21
206.1683311061
31
0.0000000000
11
282.3480797004
21
205.7492559498
31
0.0000000000
11
282.1234209450
21
205.3456422848
31
0.0000000000
11
281.9538480772
21
204.9762302931
31
0.0000000000
11
281.8347828304
21
204.6433880681
31
0.0000000000
11
281.7693127101
21
204.3658296269
31
0.0000000000
0
SPLINE
5
4C4
100
AcDbEntity
8
0
100
AcDbSpline
62
7
6
CONTINUOUS
70
0
71
3
72
14
73
10
74
8
42
0.0000001000
43
0.0000001000
44
0.0000000001
40
0.0000000000
40
0.0000000000
40
0.0000000000
40
0.0000000000
40
0.0953169589
40
0.2096815387
40
0.3405519402
40
0.4857066394
40
0.6440149714
40
0.8127337461
40
1.0000000000
40
1.0000000000
40
1.0000000000
40
1.0000000000
10
304.2925658395
20
208.7593692223
30
0.0000000000
10
304.4093146513
20
208.7470991328
30
0.0000000000
10
304.6638693523
20
208.6981040797
30
0.0000000000
10
305.0642096098
20
208.5707428994
30
0.0000000000
10
305.5062708092
20
208.3797749225
30
0.0000000000
10
305.9769994778
20
208.1243392399
30
0.0000000000
10
306.4637679389
20
207.8049536979
30
0.0000000000
10
306.9645226534
20
207.4160974142
30
0.0000000000
10
307.2890301368
20
207.1204722035
30
0.0000000000
10
307.4535242045
20
206.9588099333
30
0.0000000000
11
304.2925658395
21
208.7593692223
31
0.0000000000
11
304.6390797071
21
208.6964748587
31
0.0000000000
11
305.0425017442
21
208.5707724293
31
0.0000000000
11
305.4870825633
21
208.3806234798
31
0.0000000000
11
305.9590704544
21
208.1259446287
31
0.0000000000
11
306.4486511223
21
207.8058880231
31
0.0000000000
11
306.9414977380
21
207.4241762287
31
0.0000000000
11
307.4535242045
21
206.9588099333
31
0.0000000000
0
SPLINE
5
4C5
100
AcDbEntity
8
0
100
AcDbSpline
62
7
6
CONTINUOUS
70
0
71
3
72
14
73
10
74
8
42
0.0000001000
43
0.0000001000
44
0.0000000001
40
0.0000000000
40
0.0000000000
40
0.0000000000
40
0.0000000000
40
0.1701594571
40
0.3411571371
40
0.5059115141
40
0.6573524019
40
0.7906131861
40
0.9065061755
40
1.0000000000
40
1.0000000000
40
1.0000000000
40
1.0000000000
10
307.4535242045
20
206.9588099333
30
0.0000000000
10
307.5769033026
20
206.8375289917
30
0.0000000000
10
307.8131972999
20
206.5828784057
30
0.0000000000
10
308.1306484730
20
206.1774582306
30
0.0000000000
10
308.4043253569
20
205.7639681801
30
0.0000000000
10
308.6273596008
20
205.3646379351
30
0.0000000000
10
308.7985870311
20
204.9945814047
30
0.0000000000
10
308.9181307973
20
204.6669624069
30
0.0000000000
10
308.9700679454
20
204.4597163641
30
0.0000000000
10
308.9849472757
20
204.3658296269
30
0.0000000000
11
307.4535242045
21
206.9588099333
31
0.0000000000
11
307.8070881207
21
206.5788418098
31
0.0000000000
11
308.1288407201
21
206.1683311061
31
0.0000000000
11
308.4061802855
21
205.7492559498
31
0.0000000000
11
308.6308390408
21
205.3456422848
31
0.0000000000
11
308.8004119087
21
204.9762302931
31
0.0000000000
11
308.9194771554
21
204.6433880681
31
0.0000000000
11
308.9849472757
21
204.3658296269
31
0.0000000000
0
SPLINE
5
4C6
100
AcDbEntity
8
0
100
AcDbSpline
62
7
6
CONTINUOUS
70
0
71
3
72
14
73
10
74
8
42
0.0000001000
43
0.0000001000
44
0.0000000001
40
0.0000000000
40
0.0000000000
40
0.0000000000
40
0.0000000000
40
0.0953169589
40
0.2096815387
40
0.3405519402
40
0.4857066394
40
0.6440149714
40
0.8127337461
40
1.0000000000
40
1.0000000000
40
1.0000000000
40
1.0000000000
10
286.4616941463
20
208.7593692223
30
0.0000000000
10
286.3449453345
20
208.7470991328
30
0.0000000000
10
286.0903906335
20
208.6981040797
30
0.0000000000
10
285.6900503761
20
208.5707428994
30
0.0000000000
10
285.2479891766
20
208.3797749225
30
0.0000000000
10
284.7772605080
20
208.1243392399
30
0.0000000000
10
284.2904920469
20
207.8049536979
30
0.0000000000
10
283.7897373324
20
207.4160974142
30
0.0000000000
10
283.4652298490
20
207.1204722035
30
0.0000000000
10
283.3007357813
20
206.9588099333
30
0.0000000000
11
286.4616941463
21
208.7593692223
31
0.0000000000
11
286.1151802788
21
208.6964748587
31
0.0000000000
11
285.7117582416
21
208.5707724293
31
0.0000000000
11
285.2671774225
21
208.3806234798
31
0.0000000000
11
284.7951895314
21
208.1259446287
31
0.0000000000
11
284.3056088636
21
207.8058880231
31
0.0000000000
11
283.8127622478
21
207.4241762287
31
0.0000000000
11
283.3007357813
21
206.9588099333
31
0.0000000000
0
SPLINE
5
4C7
100
AcDbEntity
8
0
100
AcDbSpline
62
7
6
CONTINUOUS
70
0
71
3
72
9
73
5
74
3
42
0.0000001000
43
0.0000001000
44
0.0000000001
40
0.0000000000
40
0.0000000000
40
0.0000000000
40
0.0000000000
40
0.4974024370
40
1.0000000000
40
1.0000000000
40
1.0000000000
40
1.0000000000
10
302.7040526570
20
130.7892141055
30
0.0000000000
10
302.6717604997
20
130.2945912566
30
0.0000000000
10
302.6017504285
20
129.3005059060
30
0.0000000000
10
302.5220377134
20
128.3071533895
30
0.0000000000
10
302.4796391948
20
127.8080982487
30
0.0000000000
11
302.7040526570
21
130.7892141055
31
0.0000000000
11
302.5997136164
21
129.3058516145
31
0.0000000000
11
302.4796391948
21
127.8080982487
31
0.0000000000
0
SPLINE
5
4C8
100
AcDbEntity
8
0
100
AcDbSpline
62
7
6
CONTINUOUS
70
0
71
3
72
12
73
8
74
6
42
0.0000001000
43
0.0000001000
44
0.0000000001
40
0.0000000000
40
0.0000000000
40
0.0000000000
40
0.0000000000
40
0.2137633867
40
0.4249731937
40
0.6285687787
40
0.8217414734
40
1.0000000000
40
1.0000000000
40
1.0000000000
40
1.0000000000
10
302.4796391948
20
127.8080982487
30
0.0000000000
10
302.3872531949
20
126.7206614781
30
0.0000000000
10
302.2294950302
20
124.5564784571
30
0.0000000000
10
302.0759522706
20
121.3507039687
30
0.0000000000
10
302.0101584087
20
118.2469932166
30
0.0000000000
10
302.0343166165
20
115.3108989845
30
0.0000000000
10
302.1135355830
20
113.4157213694
30
0.0000000000
10
302.1705441330
20
112.5074220981
30
0.0000000000
11
302.4796391948
21
127.8080982487
31
0.0000000000
11
302.2421967703
21
124.5426570498
31
0.0000000000
11
302.0887242542
21
121.3113485131
31
0.0000000000
11
302.0247252727
21
118.1936758644
31
0.0000000000
11
302.0521495663
21
115.2351135387
31
0.0000000000
11
302.1705441330
21
112.5074220981
31
0.0000000000
0
SPLINE
5
4C9
100
AcDbEntity
8
0
100
AcDbSpline
62
7
6
CONTINUOUS
70
0
71
3
72
13
73
9
74
7
42
0.0000001000
43
0.0000001000
44
0.0000000001
40
0.0000000000
40
0.0000000000
40
0.0000000000
40
0.0000000000
40
0.1151608538
40
0.2569740557
40
0.4213782092
40
0.6036269631
40
0.7984112191
40
1.0000000000
40
1.0000000000
40
1.0000000000
40
1.0000000000
10
300.7396754967
20
152.4383676074
30
0.0000000000
10
300.7396754967
20
152.2721774031
30
0.0000000000
10
300.7463457382
20
151.9013425333
30
0.0000000000
10
300.7689882237
20
151.2936508438
30
0.0000000000
10
300.8052084131
20
150.5896485803
30
0.0000000000
10
300.8540490073
20
149.8098085458
30
0.0000000000
10
300.9141910447
20
148.9769489851
30
0.0000000000
10
300.9603425623
20
148.4067943594
30
0.0000000000
10
300.9850286715
20
148.1169281129
30
0.0000000000
11
300.7396754967
21
152.4383676074
31
0.0000000000
11
300.7470874786
21
151.9398520926
31
0.0000000000
11
300.7691151792
21
151.3262896590
31
0.0000000000
11
300.8051370064
21
150.6154401128
31
0.0000000000
11
300.8541281891
21
149.8279455340
31
0.0000000000
11
300.9146797479
21
148.9868347934
31
0.0000000000
11
300.9850286715
21
148.1169281129
31
0.0000000000
0
SPLINE
5
4CA
100
AcDbEntity
8
0
100
AcDbSpline
62
7
6
CONTINUOUS
70
0
71
3
72
11
73
7
74
5
42
0.0000001000
43
0.0000001000
44
0.0000000001
40
0.0000000000
40
0.0000000000
40
0.0000000000
40
0.0000000000
40
0.4558334268
40
0.7762813319
40
0.9556471667
40
1.0000000000
40
1.0000000000
40
1.0000000000
40
1.0000000000
10
302.7563552959
20
103.7312777877
30
0.0000000000
10
302.7875575579
20
103.2937344314
30
0.0000000000
10
302.8173362067
20
102.5394580979
30
0.0000000000
10
303.0134132386
20
101.6540257681
30
0.0000000000
10
302.9733083337
20
101.0945042040
30
0.0000000000
10
303.1824409385
20
100.9326380704
30
0.0000000000
10
303.2174212996
20
100.9219498864
30
0.0000000000
11
302.7563552959
21
103.7312777877
31
0.0000000000
11
302.8671808082
21
102.4199892479
31
0.0000000000
11
302.9850647345
21
101.5024170543
31
0.0000000000
11
303.1083865486
21
100.9994980498
31
0.0000000000
11
303.2174212996
21
100.9219498864
31
0.0000000000
0
SPLINE
5
4CB
100
AcDbEntity
8
0
100
AcDbSpline
62
7
6
CONTINUOUS
70
0
71
3
72
10
73
6
74
4
42
0.0000001000
43
0.0000001000
44
0.0000000001
40
0.0000000000
40
0.0000000000
40
0.0000000000
40
0.0000000000
40
0.0202182017
40
0.3262208510
40
1.0000000000
40
1.0000000000
40
1.0000000000
40
1.0000000000
10
300.7652552486
20
153.1900150234
30
0.0000000000
10
300.7639522932
20
153.1907848157
30
0.0000000000
10
300.7438988182
20
153.1999104759
30
0.0000000000
10
300.7478310347
20
153.0343485497
30
0.0000000000
10
300.7396754967
20
152.9766734044
30
0.0000000000
10
300.7396754967
20
152.9122527649
30
0.0000000000
11
300.7652552486
21
153.1900150234
31
0.0000000000
11
300.7615485391
21
153.1916734657
31
0.0000000000
11
300.7452135490
21
153.1054353188
31
0.0000000000
11
300.7396754967
21
152.9122527649
31
0.0000000000
0
SPLINE
5
4CC
100
AcDbEntity
8
0
100
AcDbSpline
62
7
6
CONTINUOUS
70
0
71
3
72
10
73
6
74
4
42
0.0000001000
43
0.0000001000
44
0.0000000001
40
0.0000000000
40
0.0000000000
40
0.0000000000
40
0.0000000000
40
0.3804747088
40
0.7086539979
40
1.0000000000
40
1.0000000000
40
1.0000000000
40
1.0000000000
10
306.3771299929
20
105.7287201663
30
0.0000000000
10
306.3771299929
20
105.6953771782
30
0.0000000000
10
306.3762659167
20
105.6332684530
30
0.0000000000
10
306.3722547962
20
105.5457099515
30
0.0000000000
10
306.3678579474
20
105.4915827520
30
0.0000000000
10
306.3652324224
20
105.4661840193
30
0.0000000000
11
306.3771299929
21
105.7287201663
31
0.0000000000
11
306.3756318541
21
105.6287024215
31
0.0000000000
11
306.3715705656
21
105.5425178577
31
0.0000000000
11
306.3652324224
21
105.4661840193
31
0.0000000000
0
SPLINE
5
4CD
100
AcDbEntity
8
0
100
AcDbSpline
62
7
6
CONTINUOUS
70
0
71
3
72
35
73
31
74
29
42
0.0000001000
43
0.0000001000
44
0.0000000001
40
0.0000000000
40
0.0000000000
40
0.0000000000
40
0.0000000000
40
0.0029055578
40
0.0054347564
40
0.0076671147
40
0.0095956975
40
0.0112038651
40
0.0125006355
40
0.0136068654
40
0.0148621521
40
0.0166867035
40
0.0194151775
40
0.0233726507
40
0.0289316254
40
0.0365375576
40
0.0467167086
40
0.0599370246
40
0.0765621308
40
0.0972713683
40
0.1229972764
40
0.1548381767
40
0.1940391399
40
0.2424192771
40
0.3027143547
40
0.3780378921
40
0.4714200234
40
0.5828443889
40
0.7109407761
40
0.8518774097
40
1.0000000000
40
1.0000000000
40
1.0000000000
40
1.0000000000
10
306.3652324224
20
105.4661840193
30
0.0000000000
10
306.3629149719
20
105.4437655297
30
0.0000000000
10
306.3577673801
20
105.4019137898
30
0.0000000000
10
306.3475334626
20
105.3432980522
30
0.0000000000
10
306.3352627415
20
105.2928378311
30
0.0000000000
10
306.3207137187
20
105.2503991451
30
0.0000000000
10
306.3035053019
20
105.2169442488
30
0.0000000000
10
306.2828934937
20
105.1928171862
30
0.0000000000
10
306.2547125190
20
105.1819670934
30
0.0000000000
10
306.2221276820
20
105.1930352522
30
0.0000000000
10
306.1889479742
20
105.2242509247
30
0.0000000000
10
306.1509090600
20
105.2785178066
30
0.0000000000
10
306.1069632444
20
105.3629065817
30
0.0000000000
10
306.0555359065
20
105.4854532205
30
0.0000000000
10
305.9954447500
20
105.6563370482
30
0.0000000000
10
305.9255875857
20
105.8865105308
30
0.0000000000
10
305.8453787834
20
106.1864575069
30
0.0000000000
10
305.7539821025
20
106.5678078027
30
0.0000000000
10
305.6499891558
20
107.0457666167
30
0.0000000000
10
305.5312584914
20
107.6411996998
30
0.0000000000
10
305.3954038497
20
108.3793823722
30
0.0000000000
10
305.2394573779
20
109.2924514199
30
0.0000000000
10
305.0591972593
20
110.4251865769
30
0.0000000000
10
304.8493836480
20
111.8368452290
30
0.0000000000
10
304.6048941374
20
113.5961529510
30
0.0000000000
10
304.3248183483
20
115.7508150980
30
0.0000000000
10
304.0129471157
20
118.3140209487
30
0.0000000000
10
303.6786278129
20
121.2459759244
30
0.0000000000
10
303.3343592805
20
124.4632006231
30
0.0000000000
10
303.1100106120
20
126.6939837899
30
0.0000000000
10
302.9983846992
20
127.8374259631
30
0.0000000000
11
306.3652324224
21
105.4661840193
31
0.0000000000
11
306.3568087853
21
105.3991020202
31
0.0000000000
11
306.3464663751
21
105.3411665296
31
0.0000000000
11
306.3338818955
21
105.2907697161
31
0.0000000000
11
306.3188136957
21
105.2484993243
31
0.0000000000
11
306.3009914601
21
105.2155959377
31
0.0000000000
11
306.2801195970
21
105.1938048274
31
0.0000000000
11
306.2558188860
21
105.1853162674
31
0.0000000000
11
306.2276188334
21
105.1929269813
31
0.0000000000
11
306.1950202795
21
105.2201256973
31
0.0000000000
11
306.1573829297
21
105.2712548769
31
0.0000000000
11
306.1136742671
21
105.3523061800
31
0.0000000000
11
306.0626918278
21
105.4711858404
31
0.0000000000
11
306.0031130204
21
105.6378369307
31
0.0000000000
11
305.9335424574
21
105.8642457547
31
0.0000000000
11
305.8533503812
21
106.1612302138
31
0.0000000000
11
305.7625411531
21
106.5372669217
31
0.0000000000
11
305.6594839437
21
107.0079966787
31
0.0000000000
11
305.5418317465
21
107.5949317906
31
0.0000000000
11
305.4071365385
21
108.3234843988
31
0.0000000000
11
305.2529678341
21
109.2225205994
31
0.0000000000
11
305.0754164120
21
110.3341781335
31
0.0000000000
11
304.8684684416
21
111.7218248685
31
0.0000000000
11
304.6264552946
21
113.4577233757
31
0.0000000000
11
304.3455387656
21
115.6123773604
31
0.0000000000
11
304.0315770926
21
118.1860079909
31
0.0000000000
11
303.6931711479
21
121.1473833914
31
0.0000000000
11
303.3436665526
21
124.4081310543
31
0.0000000000
11
302.9983846992
21
127.8374259631
31
0.0000000000
0
SPLINE
5
4CE
100
AcDbEntity
8
0
100
AcDbSpline
62
7
6
CONTINUOUS
70
0
71
3
72
13
73
9
74
7
42
0.0000001000
43
0.0000001000
44
0.0000000001
40
0.0000000000
40
0.0000000000
40
0.0000000000
40
0.0000000000
40
0.1151608538
40
0.2569740557
40
0.4213782092
40
0.6036269631
40
0.7984112191
40
1.0000000000
40
1.0000000000
40
1.0000000000
40
1.0000000000
10
290.0145844891
20
152.4383676074
30
0.0000000000
10
290.0145844891
20
152.2721774031
30
0.0000000000
10
290.0079142476
20
151.9013425333
30
0.0000000000
10
289.9852717621
20
151.2936508438
30
0.0000000000
10
289.9490515728
20
150.5896485803
30
0.0000000000
10
289.9002109785
20
149.8098085458
30
0.0000000000
10
289.8400689411
20
148.9769489851
30
0.0000000000
10
289.7939174236
20
148.4067943594
30
0.0000000000
10
289.7692313143
20
148.1169281129
30
0.0000000000
11
290.0145844891
21
152.4383676074
31
0.0000000000
11
290.0071725072
21
151.9398520926
31
0.0000000000
11
289.9851448066
21
151.3262896590
31
0.0000000000
11
289.9491229794
21
150.6154401128
31
0.0000000000
11
289.9001317967
21
149.8279455340
31
0.0000000000
11
289.8395802379
21
148.9868347934
31
0.0000000000
11
289.7692313143
21
148.1169281129
31
0.0000000000
0
SPLINE
5
4CF
100
AcDbEntity
8
0
100
AcDbSpline
62
7
6
CONTINUOUS
70
0
71
3
72
11
73
7
74
5
42
0.0000001000
43
0.0000001000
44
0.0000000001
40
0.0000000000
40
0.0000000000
40
0.0000000000
40
0.0000000000
40
0.4558334268
40
0.7762813319
40
0.9556471667
40
1.0000000000
40
1.0000000000
40
1.0000000000
40
1.0000000000
10
287.9979046899
20
103.7312777877
30
0.0000000000
10
287.9667024279
20
103.2937344314
30
0.0000000000
10
287.9369237791
20
102.5394580979
30
0.0000000000
10
287.7408467472
20
101.6540257681
30
0.0000000000
10
287.7809516521
20
101.0945042040
30
0.0000000000
10
287.5718190473
20
100.9326380704
30
0.0000000000
10
287.5368386862
20
100.9219498864
30
0.0000000000
11
287.9979046899
21
103.7312777877
31
0.0000000000
11
287.8870791776
21
102.4199892479
31
0.0000000000
11
287.7691952514
21
101.5024170543
31
0.0000000000
11
287.6458734372
21
100.9994980498
31
0.0000000000
11
287.5368386862
21
100.9219498864
31
0.0000000000
0
SPLINE
5
4D0
100
AcDbEntity
8
0
100
AcDbSpline
62
7
6
CONTINUOUS
70
0
71
3
72
11
73
7
74
5
42
0.0000001000
43
0.0000001000
44
0.0000000001
40
0.0000000000
40
0.0000000000
40
0.0000000000
40
0.0000000000
40
0.3035181636
40
0.5736335200
40
0.8067494485
40
1.0000000000
40
1.0000000000
40
1.0000000000
40
1.0000000000
10
288.5837158477
20
112.5074221085
30
0.0000000000
10
288.5279727494
20
111.6192849334
30
0.0000000000
10
288.4208461803
20
109.9408626166
30
0.0000000000
10
288.2649190520
20
107.5806974912
30
0.0000000000
10
288.1258693146
20
105.5434209059
30
0.0000000000
10
288.0382073258
20
104.2964337670
30
0.0000000000
10
287.9979046963
20
103.7312777655
30
0.0000000000
11
288.5837158477
21
112.5074221085
31
0.0000000000
11
288.4135599065
21
109.8431958854
31
0.0000000000
11
288.2568446390
21
107.4725167921
31
0.0000000000
11
288.1171511571
21
105.4268634323
31
0.0000000000
11
287.9979046963
21
103.7312777655
31
0.0000000000
0
SPLINE
5
4D1
100
AcDbEntity
8
0
100
AcDbSpline
62
7
6
CONTINUOUS
70
0
71
3
72
12
73
8
74
6
42
0.0000001000
43
0.0000001000
44
0.0000000001
40
0.0000000000
40
0.0000000000
40
0.0000000000
40
0.0000000000
40
0.2137633867
40
0.4249731937
40
0.6285687787
40
0.8217414734
40
1.0000000000
40
1.0000000000
40
1.0000000000
40
1.0000000000
10
288.2746207910
20
127.8080982487
30
0.0000000000
10
288.3670067909
20
126.7206614781
30
0.0000000000
10
288.5247649557
20
124.5564784571
30
0.0000000000
10
288.6783077152
20
121.3507039687
30
0.0000000000
10
288.7441015771
20
118.2469932166
30
0.0000000000
10
288.7199433693
20
115.3108989845
30
0.0000000000
10
288.6407244028
20
113.4157213694
30
0.0000000000
10
288.5837158529
20
112.5074220981
30
0.0000000000
11
288.2746207910
21
127.8080982487
31
0.0000000000
11
288.5120632155
21
124.5426570498
31
0.0000000000
11
288.6655357316
21
121.3113485131
31
0.0000000000
11
288.7295347131
21
118.1936758644
31
0.0000000000
11
288.7021104195
21
115.2351135387
31
0.0000000000
11
288.5837158529
21
112.5074220981
31
0.0000000000
0
SPLINE
5
4D2
100
AcDbEntity
8
0
100
AcDbSpline
62
7
6
CONTINUOUS
70
0
71
3
72
9
73
5
74
3
42
0.0000001000
43
0.0000001000
44
0.0000000001
40
0.0000000000
40
0.0000000000
40
0.0000000000
40
0.0000000000
40
0.4974024370
40
1.0000000000
40
1.0000000000
40
1.0000000000
40
1.0000000000
10
288.0502073288
20
130.7892141055
30
0.0000000000
10
288.0824994861
20
130.2945912566
30
0.0000000000
10
288.1525095573
20
129.3005059060
30
0.0000000000
10
288.2322222724
20
128.3071533895
30
0.0000000000
10
288.2746207910
20
127.8080982487
30
0.0000000000
11
288.0502073288
21
130.7892141055
31
0.0000000000
11
288.1545463694
21
129.3058516145
31
0.0000000000
11
288.2746207910
21
127.8080982487
31
0.0000000000
0
SPLINE
5
4D3
100
AcDbEntity
8
0
100
AcDbSpline
62
7
6
CONTINUOUS
70
0
71
3
72
9
73
5
74
3
42
0.0000001000
43
0.0000001000
44
0.0000000001
40
0.0000000000
40
0.0000000000
40
0.0000000000
40
0.0000000000
40
0.5028791414
40
1.0000000000
40
1.0000000000
40
1.0000000000
40
1.0000000000
10
287.7558752866
20
127.8374259631
30
0.0000000000
10
287.8041886553
20
128.3323248785
30
0.0000000000
10
287.9012658913
20
129.3163580952
30
0.0000000000
10
288.0003995861
20
130.3001863133
30
0.0000000000
10
288.0502073288
20
130.7892141055
30
0.0000000000
11
287.7558752866
21
127.8374259631
31
0.0000000000
11
287.9023449421
21
129.3219725952
31
0.0000000000
11
288.0502073288
21
130.7892141055
31
0.0000000000
0
SPLINE
5
4D4
100
AcDbEntity
8
0
100
AcDbSpline
62
7
6
CONTINUOUS
70
0
71
3
72
10
73
6
74
4
42
0.0000001000
43
0.0000001000
44
0.0000000001
40
0.0000000000
40
0.0000000000
40
0.0000000000
40
0.0000000000
40
0.3804747088
40
0.7086539979
40
1.0000000000
40
1.0000000000
40
1.0000000000
40
1.0000000000
10
284.3771299929
20
105.7287201663
30
0.0000000000
10
284.3771299929
20
105.6953771782
30
0.0000000000
10
284.3779940691
20
105.6332684530
30
0.0000000000
10
284.3820051896
20
105.5457099515
30
0.0000000000
10
284.3864020384
20
105.4915827520
30
0.0000000000
10
284.3890275635
20
105.4661840193
30
0.0000000000
11
284.3771299929
21
105.7287201663
31
0.0000000000
11
284.3786281318
21
105.6287024215
31
0.0000000000
11
284.3826894203
21
105.5425178577
31
0.0000000000
11
284.3890275635
21
105.4661840193
31
0.0000000000
0
SPLINE
5
4D5
100
AcDbEntity
8
0
100
AcDbSpline
62
7
6
CONTINUOUS
70
0
71
3
72
35
73
31
74
29
42
0.0000001000
43
0.0000001000
44
0.0000000001
40
0.0000000000
40
0.0000000000
40
0.0000000000
40
0.0000000000
40
0.0029055578
40
0.0054347564
40
0.0076671147
40
0.0095956975
40
0.0112038651
40
0.0125006355
40
0.0136068654
40
0.0148621521
40
0.0166867035
40
0.0194151775
40
0.0233726507
40
0.0289316254
40
0.0365375576
40
0.0467167086
40
0.0599370246
40
0.0765621308
40
0.0972713683
40
0.1229972764
40
0.1548381767
40
0.1940391399
40
0.2424192771
40
0.3027143547
40
0.3780378921
40
0.4714200234
40
0.5828443889
40
0.7109407761
40
0.8518774097
40
1.0000000000
40
1.0000000000
40
1.0000000000
40
1.0000000000
10
284.3890275635
20
105.4661840193
30
0.0000000000
10
284.3913450139
20
105.4437655297
30
0.0000000000
10
284.3964926057
20
105.4019137898
30
0.0000000000
10
284.4067265232
20
105.3432980522
30
0.0000000000
10
284.4189972443
20
105.2928378311
30
0.0000000000
10
284.4335462671
20
105.2503991451
30
0.0000000000
10
284.4507546839
20
105.2169442488
30
0.0000000000
10
284.4713664921
20
105.1928171862
30
0.0000000000
10
284.4995474668
20
105.1819670934
30
0.0000000000
10
284.5321323038
20
105.1930352522
30
0.0000000000
10
284.5653120116
20
105.2242509247
30
0.0000000000
10
284.6033509259
20
105.2785178066
30
0.0000000000
10
284.6472967414
20
105.3629065817
30
0.0000000000
10
284.6987240793
20
105.4854532205
30
0.0000000000
10
284.7588152358
20
105.6563370482
30
0.0000000000
10
284.8286724001
20
105.8865105308
30
0.0000000000
10
284.9088812025
20
106.1864575069
30
0.0000000000
10
285.0002778833
20
106.5678078027
30
0.0000000000
10
285.1042708301
20
107.0457666167
30
0.0000000000
10
285.2230014944
20
107.6411996998
30
0.0000000000
10
285.3588561361
20
108.3793823722
30
0.0000000000
10
285.5148026079
20
109.2924514199
30
0.0000000000
10
285.6950627265
20
110.4251865769
30
0.0000000000
10
285.9048763378
20
111.8368452290
30
0.0000000000
10
286.1493658485
20
113.5961529510
30
0.0000000000
10
286.4294416375
20
115.7508150980
30
0.0000000000
10
286.7413128701
20
118.3140209487
30
0.0000000000
10
287.0756321729
20
121.2459759244
30
0.0000000000
10
287.4199007053
20
124.4632006231
30
0.0000000000
10
287.6442493738
20
126.6939837899
30
0.0000000000
10
287.7558752866
20
127.8374259631
30
0.0000000000
11
284.3890275635
21
105.4661840193
31
0.0000000000
11
284.3974512006
21
105.3991020202
31
0.0000000000
11
284.4077936107
21
105.3411665296
31
0.0000000000
11
284.4203780903
21
105.2907697161
31
0.0000000000
11
284.4354462901
21
105.2484993243
31
0.0000000000
11
284.4532685257
21
105.2155959377
31
0.0000000000
11
284.4741403888
21
105.1938048274
31
0.0000000000
11
284.4984410998
21
105.1853162674
31
0.0000000000
11
284.5266411524
21
105.1929269813
31
0.0000000000
11
284.5592397063
21
105.2201256973
31
0.0000000000
11
284.5968770561
21
105.2712548769
31
0.0000000000
11
284.6405857188
21
105.3523061800
31
0.0000000000
11
284.6915681580
21
105.4711858404
31
0.0000000000
11
284.7511469655
21
105.6378369307
31
0.0000000000
11
284.8207175284
21
105.8642457547
31
0.0000000000
11
284.9009096047
21
106.1612302138
31
0.0000000000
11
284.9917188327
21
106.5372669217
31
0.0000000000
11
285.0947760421
21
107.0079966787
31
0.0000000000
11
285.2124282394
21
107.5949317906
31
0.0000000000
11
285.3471234474
21
108.3234843988
31
0.0000000000
11
285.5012921518
21
109.2225205994
31
0.0000000000
11
285.6788435738
21
110.3341781335
31
0.0000000000
11
285.8857915442
21
111.7218248685
31
0.0000000000
11
286.1278046912
21
113.4577233757
31
0.0000000000
11
286.4087212202
21
115.6123773604
31
0.0000000000
11
286.7226828932
21
118.1860079909
31
0.0000000000
11
287.0610888379
21
121.1473833914
31
0.0000000000
11
287.4105934332
21
124.4081310543
31
0.0000000000
11
287.7558752866
21
127.8374259631
31
0.0000000000
0
SPLINE
5
4D6
100
AcDbEntity
8
0
100
AcDbSpline
62
7
6
CONTINUOUS
70
0
71
3
72
11
73
7
74
5
42
0.0000001000
43
0.0000001000
44
0.0000000001
40
0.0000000000
40
0.0000000000
40
0.0000000000
40
0.0000000000
40
0.3035181636
40
0.5736335200
40
0.8067494485
40
1.0000000000
40
1.0000000000
40
1.0000000000
40
1.0000000000
10
302.1705441381
20
112.5074221085
30
0.0000000000
10
302.2262872364
20
111.6192849334
30
0.0000000000
10
302.3334138055
20
109.9408626166
30
0.0000000000
10
302.4893409339
20
107.5806974912
30
0.0000000000
10
302.6283906712
20
105.5434209059
30
0.0000000000
10
302.7160526600
20
104.2964337670
30
0.0000000000
10
302.7563552895
20
103.7312777655
30
0.0000000000
11
302.1705441381
21
112.5074221085
31
0.0000000000
11
302.3407000793
21
109.8431958854
31
0.0000000000
11
302.4974153468
21
107.4725167921
31
0.0000000000
11
302.6371088288
21
105.4268634323
31
0.0000000000
11
302.7563552895
21
103.7312777655
31
0.0000000000
0
SPLINE
5
4D7
100
AcDbEntity
8
0
100
AcDbSpline
62
7
6
CONTINUOUS
70
0
71
3
72
9
73
5
74
3
42
0.0000001000
43
0.0000001000
44
0.0000000001
40
0.0000000000
40
0.0000000000
40
0.0000000000
40
0.0000000000
40
0.5028791414
40
1.0000000000
40
1.0000000000
40
1.0000000000
40
1.0000000000
10
302.9983846992
20
127.8374259631
30
0.0000000000
10
302.9500713306
20
128.3323248785
30
0.0000000000
10
302.8529940945
20
129.3163580952
30
0.0000000000
10
302.7538603997
20
130.3001863133
30
0.0000000000
10
302.7040526570
20
130.7892141055
30
0.0000000000
11
302.9983846992
21
127.8374259631
31
0.0000000000
11
302.8519150438
21
129.3219725952
31
0.0000000000
11
302.7040526570
21
130.7892141055
31
0.0000000000
0
ENDSEC
0
SECTION
2
OBJECTS
0
DICTIONARY
5
4D8
100
AcDbDictionary
3
ACAD_GROUP
350
4D9
3
ACAD_MLINESTYLE
350
4DA
0
DICTIONARY
5
4D9
102
{ACAD_REACTORS
330
4D8
102
}
100
AcDbDictionary
0
DICTIONARY
5
4DA
102
{ACAD_REACTORS
330
4D8
102
}
100
AcDbDictionary
3
STANDARD
350
4DB
0
MLINESTYLE
5
4DB
102
{ACAD_REACTORS
330
4DA
102
}
100
AcDbMlineStyle
2
STANDARD
70
0
3

62
256
51
90.0
52
90.0
71
2
49
0.5
62
256
6
BYLAYER
49
-0.5
62
256
6
BYLAYER
0
ENDSEC
0
EOF
