999
DXF file: vcgh8-dxf.dxf
999
Pro/ENGINEER 2010140 by Parametric Technology Corporation
  0
SECTION
  2
HEADER
  9
$ACADVER
  1
AC1021
  9
$DWGCODEPAGE
  3
ANSI_1252
  9
$EXTMAX
 10
420.0
 20
297.0
 30
0.0
  9
$EXTMIN
 10
0.0
 20
0.0
 30
0.0
  9
$LIMMIN
 10
0.0
 20
0.0
  9
$LIMMAX
 10
420.0
 20
297.0
  9
$VIEWCTR
 10
210.0
 20
148.5
  9
$VIEWSIZE
 40
297.0
  9
$CLAYER
  8
0
  9
$LTSCALE
 40
23.1
  9
$CELTYPE
  6
BYLAYER
  9
$DIMSCALE
 40
1.0
  9
$DIMASZ
 40
3.5
  9
$DIMEXO
 40
2.625
  9
$DIMDLI
 40
15.96
  9
$DIMEXE
 40
7.56
  9
$DIMCEN
 40
3.78
  9
$DIMLFAC
 40
1.0
  9
$DIMBLK
  1
_FILLED
  9
$DIMTXT
 40
3.5
  9
$DIMTOL
 70
1
  9
$DIMLIM
 70
0
  9
$DIMTFAC
 40
1.0
  9
$DIMTP
 40
0.005
  9
$DIMTM
 40
0.005
  9
$PDMODE
 70
3
  9
$PDSIZE
 40
0.3125
  9
$HANDSEED
  5
4A6
  9
$TILEMODE
 70
1
  9
$MEASUREMENT
 70
1
  9
$INSUNITS
 70
4
  0
ENDSEC
  0
SECTION
  2
CLASSES
  0
CLASS
  1
ACDBDICTIONARYWDFLT
  2
AcDbDictionaryWithDefault
  3
AutoCAD 2000
 90
0
 91
1
280
0
281
0
  0
CLASS
  1
ACDBPLACEHOLDER
  2
AcDbPlaceHolder
  3
AutoCAD 2000
 90
0
 91
1
280
0
281
0
  0
CLASS
  1
LAYOUT
  2
AcDbLayout
  3
AutoCAD 2000
 90
0
 91
0
280
0
281
0
  0
ENDSEC
  0
SECTION
  2
TABLES
  0
TABLE
  2
VPORT
  5
8
100
AcDbSymbolTable
 70
2
  0
VPORT
  5
1F4
100
AcDbSymbolTableRecord
100
AcDbViewportTableRecord
  2
*ACTIVE
 70
0
 10
0.0
 20
0.0
 11
1.0
 21
1.0
 12
210.0
 22
148.5
 13
0.0
 23
0.0
 14
1.0
 24
1.0
 15
0.0
 25
0.0
 16
0.0
 26
0.0
 36
1.0
 17
0.0
 27
0.0
 37
0.0
 40
297.0
 41
1.4141414141
 42
50.0
 43
0.0
 44
0.0
 50
0.0
 51
0.0
 71
0
 72
100
 73
1
 74
1
 75
0
 76
0
 77
0
 78
0
  0
ENDTAB
  0
TABLE
  2
LTYPE
  5
5
100
AcDbSymbolTable
 70
6
  0
LTYPE
  5
14
100
AcDbSymbolTableRecord
100
AcDbLinetypeTableRecord
  2
BYBLOCK
 70
0
  3

 72
65
 73
0
 40
0.0
  0
LTYPE
  5
15
100
AcDbSymbolTableRecord
100
AcDbLinetypeTableRecord
  2
BYLAYER
 70
0
  3

 72
65
 73
0
 40
0.0
  0
LTYPE
  5
16
100
AcDbSymbolTableRecord
100
AcDbLinetypeTableRecord
  2
CONTINUOUS
 70
64
  3
Solid line
 72
65
 73
0
 40
0.0
  0
LTYPE
  5
1F5
100
AcDbSymbolTableRecord
100
AcDbLinetypeTableRecord
  2
CENTER
 70
64
  3
____ _ ____ _ ____ _ ____ _ ____ _ ____ _ ____
 72
65
 73
4
 40
0.6
 49
0.375
 74
0
 49
-0.075
 74
0
 49
0.075
 74
0
 49
-0.075
 74
0
  0
LTYPE
  5
1F6
100
AcDbSymbolTableRecord
100
AcDbLinetypeTableRecord
  2
HIDDEN
 70
64
  3
- - - - - - - - - - - - - - - - - - - -
 72
65
 73
2
 40
0.2
 49
0.1
 74
0
 49
-0.1
 74
0
  0
LTYPE
  5
1F7
100
AcDbSymbolTableRecord
100
AcDbLinetypeTableRecord
  2
PHANTOM
 70
64
  3
_____ _ _ _____ _ _ _____ _ _ _____
 72
65
 73
6
 40
0.8
 49
0.45
 74
0
 49
-0.05
 74
0
 49
0.1
 74
0
 49
-0.05
 74
0
 49
0.1
 74
0
 49
-0.05
 74
0
  0
LTYPE
  5
1F8
100
AcDbSymbolTableRecord
100
AcDbLinetypeTableRecord
  2
DOT
 70
64
  3
. . . . . . . . . . . . . . . . . . . .
 72
65
 73
2
 40
0.2
 49
0.1
 74
0
 49
-0.1
 74
0
  0
LTYPE
  5
1F9
100
AcDbSymbolTableRecord
100
AcDbLinetypeTableRecord
  2
DASHED
 70
64
  3
- - - - - - - - - - - - - - - - - - - -
 72
65
 73
2
 40
0.2
 49
0.1
 74
0
 49
-0.1
 74
0
  0
ENDTAB
  0
TABLE
  2
LAYER
  5
2
100
AcDbSymbolTable
 70
36
  0
LAYER
  5
10
100
AcDbSymbolTableRecord
100
AcDbLayerTableRecord
  2
0
 70
0
 62
7
  6
CONTINUOUS
370
-3
390
F
  0
LAYER
  5
1FA
100
AcDbSymbolTableRecord
100
AcDbLayerTableRecord
  2
DEFAULT_1
 70
0
 62
7
  6
CENTER
370
-3
390
F
  0
LAYER
  5
1FB
100
AcDbSymbolTableRecord
100
AcDbLayerTableRecord
  2
DEFAULT_2
 70
0
 62
8
  6
HIDDEN
370
-3
390
F
  0
LAYER
  5
1FC
100
AcDbSymbolTableRecord
100
AcDbLayerTableRecord
  2
DEFAULT_3
 70
0
 62
7
  6
PHANTOM
370
-3
390
F
  0
LAYER
  5
1FD
100
AcDbSymbolTableRecord
100
AcDbLayerTableRecord
  2
AUSFORMSCHRAEGEN
 70
0
 62
7
  6
CONTINUOUS
370
-3
390
F
  0
LAYER
  5
1FE
100
AcDbSymbolTableRecord
100
AcDbLayerTableRecord
  2
BEZUGSACHSEN
 70
0
 62
7
  6
CONTINUOUS
370
-3
390
F
  0
LAYER
  5
1FF
100
AcDbSymbolTableRecord
100
AcDbLayerTableRecord
  2
BEZUGSEBENEN
 70
0
 62
7
  6
CONTINUOUS
370
-3
390
F
  0
LAYER
  5
200
100
AcDbSymbolTableRecord
100
AcDbLayerTableRecord
  2
BG_STARTBEZUEGE
 70
0
 62
7
  6
CONTINUOUS
370
-3
390
F
  0
LAYER
  5
201
100
AcDbSymbolTableRecord
100
AcDbLayerTableRecord
  2
BOHRUNGEN
 70
0
 62
7
  6
CONTINUOUS
370
-3
390
F
  0
LAYER
  5
202
100
AcDbSymbolTableRecord
100
AcDbLayerTableRecord
  2
FASEN
 70
0
 62
7
  6
CONTINUOUS
370
-3
390
F
  0
LAYER
  5
203
100
AcDbSymbolTableRecord
100
AcDbLayerTableRecord
  2
HILFEN
 70
0
 62
7
  6
CONTINUOUS
370
-3
390
F
  0
LAYER
  5
204
100
AcDbSymbolTableRecord
100
AcDbLayerTableRecord
  2
KONSTRUKTIONSELEMENTE
 70
0
 62
7
  6
CONTINUOUS
370
-3
390
F
  0
LAYER
  5
205
100
AcDbSymbolTableRecord
100
AcDbLayerTableRecord
  2
NORM
 70
0
 62
7
  6
CONTINUOUS
370
-3
390
F
  0
LAYER
  5
206
100
AcDbSymbolTableRecord
100
AcDbLayerTableRecord
  2
PLATZIERUNG
 70
0
 62
7
  6
CONTINUOUS
370
-3
390
F
  0
LAYER
  5
207
100
AcDbSymbolTableRecord
100
AcDbLayerTableRecord
  2
PLAZIERUNG
 70
0
 62
7
  6
CONTINUOUS
370
-3
390
F
  0
LAYER
  5
208
100
AcDbSymbolTableRecord
100
AcDbLayerTableRecord
  2
RUNDUNGEN
 70
0
 62
7
  6
CONTINUOUS
370
-3
390
F
  0
LAYER
  5
209
100
AcDbSymbolTableRecord
100
AcDbLayerTableRecord
  2
TEIL_STARTBEZUEGE
 70
0
 62
7
  6
CONTINUOUS
370
-3
390
F
  0
LAYER
  5
20A
100
AcDbSymbolTableRecord
100
AcDbLayerTableRecord
  2
ZEICHNUNGSBEMASSUNGEN
 70
0
 62
7
  6
CONTINUOUS
370
-3
390
F
  0
ENDTAB
  0
TABLE
  2
STYLE
  5
3
100
AcDbSymbolTable
 70
1
  0
STYLE
  5
11
100
AcDbSymbolTableRecord
100
AcDbTextStyleTableRecord
  2
STANDARD
 70
0
 40
0.0
 41
0.7
 50
0.0
 71
0
 42
0.2
  3
txt
  4

  0
STYLE
  5
20B
100
AcDbSymbolTableRecord
100
AcDbTextStyleTableRecord
  2
TEXTSTYLE_1
 70
0
 40
0.0
 41
0.8
 50
0.0
 71
0
 42
0.2
  3
gdt
  4

  0
ENDTAB
  0
TABLE
  2
VIEW
  5
6
100
AcDbSymbolTable
 70
0
  0
ENDTAB
  0
TABLE
  2
UCS
  5
7
100
AcDbSymbolTable
 70
0
  0
ENDTAB
  0
TABLE
  2
APPID
  5
9
100
AcDbSymbolTable
 70
1
  0
APPID
  5
20C
100
AcDbSymbolTableRecord
100
AcDbRegAppTableRecord
  2
ACAD
 70
0
  0
ENDTAB
  0
TABLE
  2
BLOCK_RECORD
  5
1
100
AcDbSymbolTable
 70
0
  0
BLOCK_RECORD
  5
20D
100
AcDbSymbolTableRecord
100
AcDbBlockTableRecord
  2
*Model_Space
  0
BLOCK_RECORD
  5
20E
100
AcDbSymbolTableRecord
100
AcDbBlockTableRecord
  2
*Paper_Space
  0
ENDTAB
  0
TABLE
  2
DIMSTYLE
  5
A
100
AcDbSymbolTable
 70
1
100
AcDbDimStyleTable
 71
0
  0
DIMSTYLE
105
20F
100
AcDbSymbolTableRecord
100
AcDbDimStyleTableRecord
  2
STANDARD
 70
0
  3

  4

 40
1.0
 41
3.5
 42
0.0625
 43
0.38
 44
0.18
 45
0.0
 46
0.0
 47
0.005
 48
0.005
140
3.5
141
0.09
142
0.0
143
25.4
144
1.0
145
0.0
146
1.0
147
0.09
 71
1.0
 72
0.0
 73
0
 74
0
 75
0
 76
0
 77
1
 78
8
170
0
171
2
172
0
173
0
174
0
175
0
176
0
177
0
178
5
270
2
271
3
272
3
273
2
274
2
275
0
280
0
281
0
282
0
283
1
284
8
285
0
286
0
287
3
288
0
340
11
  0
ENDTAB
  0
ENDSEC
  0
SECTION
  2
BLOCKS
  0
BLOCK
  5
20
100
AcDbEntity
  8
0
100
AcDbBlockBegin
  2
*Model_Space
 70
0
 10
0.0
 20
0.0
 30
0.0
  3
*Model_Space
  1

  0
ENDBLK
  5
21
100
AcDbEntity
  8
0
100
AcDbBlockEnd
  0
BLOCK
  5
1C
100
AcDbEntity
  8
0
100
AcDbBlockBegin
  2
*Paper_Space
 70
0
 10
0.0
 20
0.0
 30
0.0
  3
*Paper_Space
  1

  0
ENDBLK
  5
1D
100
AcDbEntity
  8
0
100
AcDbBlockEnd
  0
ENDSEC
  0
SECTION
  2
ENTITIES
  0
MTEXT
  5
210
100
AcDbEntity
  8
0
100
AcDbMText
 62
5
  6
CONTINUOUS
  7
STANDARD
 71
1
 72
1
 10
113.0005680538
 20
118.0162978506
 30
0.0
 11
0.7071067812
 21
0.7071067812
 31
0.0
 44
0.9
  1
RUD
 40
3.5
 41
9.3333333333
  0
MTEXT
  5
211
100
AcDbEntity
  8
0
100
AcDbMText
 62
5
  6
CONTINUOUS
  7
STANDARD
 71
2
 72
1
 10
257.8420975468
 20
141.8328015385
 30
0.0
 11
0.0
 21
1.0
 31
0.0
 44
0.9
  1
RUD\PVCGH-8
 40
3.5
 41
16.5833333333
  0
LINE
  5
212
100
AcDbEntity
  8
0
100
AcDbLine
 62
7
  6
CONTINUOUS
 10
0.0
 20
0.0
 11
0.0
 21
297.0
  0
LINE
  5
213
100
AcDbEntity
  8
0
100
AcDbLine
 62
7
  6
CONTINUOUS
 10
0.0
 20
0.0
 11
420.0
 21
0.0
  0
LINE
  5
214
100
AcDbEntity
  8
0
100
AcDbLine
 62
7
  6
CONTINUOUS
 10
0.0
 20
297.0
 11
420.0
 21
297.0
  0
LINE
  5
215
100
AcDbEntity
  8
0
100
AcDbLine
 62
7
  6
CONTINUOUS
 10
420.0
 20
0.0
 11
420.0
 21
297.0
  0
LINE
  5
216
100
AcDbEntity
  8
KONSTRUKTIONSELEMENTE
100
AcDbLine
 62
7
  6
CONTINUOUS
 10
115.1889407239
 20
103.6339658155
 11
115.6046785266
 21
103.7268799403
  0
LINE
  5
217
100
AcDbEntity
  8
KONSTRUKTIONSELEMENTE
100
AcDbLine
 62
7
  6
CONTINUOUS
 10
119.6915094711
 20
105.8819308705
 11
120.1691269152
 21
105.9292758637
  0
LINE
  5
218
100
AcDbEntity
  8
KONSTRUKTIONSELEMENTE
100
AcDbLine
 62
7
  6
CONTINUOUS
 10
115.0047427768
 20
102.9376144951
 11
115.484378159
 21
102.9200113318
  0
LINE
  5
219
100
AcDbEntity
  8
0
100
AcDbLine
 62
7
  6
CONTINUOUS
 10
114.5263614998
 20
224.2518168265
 11
115.9152961565
 21
224.7573476989
  0
LINE
  5
21A
100
AcDbEntity
  8
KONSTRUKTIONSELEMENTE
100
AcDbLine
 62
7
  6
CONTINUOUS
 10
114.1598275541
 20
108.0526609291
 11
114.5755633435
 21
108.1455738899
  0
LINE
  5
21B
100
AcDbEntity
  8
KONSTRUKTIONSELEMENTE
100
AcDbLine
 62
7
  6
CONTINUOUS
 10
118.1736318338
 20
111.6516961239
 11
118.6512492573
 21
111.6990411436
  0
LINE
  5
21C
100
AcDbEntity
  8
KONSTRUKTIONSELEMENTE
100
AcDbLine
 62
7
  6
CONTINUOUS
 10
114.2801259476
 20
108.8595283059
 11
114.7597633263
 21
108.8419263357
  0
LINE
  5
21D
100
AcDbEntity
  8
KONSTRUKTIONSELEMENTE
100
AcDbLine
 62
7
  6
CONTINUOUS
 10
119.3826263646
 20
106.6117089689
 11
119.7799613753
 21
106.5967823717
  0
LINE
  5
21E
100
AcDbEntity
  8
KONSTRUKTIONSELEMENTE
100
AcDbLine
 62
7
  6
CONTINUOUS
 10
114.7972633605
 20
103.7024257091
 11
115.1889407239
 21
103.6339658155
  0
LINE
  5
21F
100
AcDbEntity
  8
KONSTRUKTIONSELEMENTE
100
AcDbLine
 62
7
  6
CONTINUOUS
 10
130.2175970665
 20
118.0614327362
 11
130.7001525254
 21
118.1434263158
  0
LINE
  5
220
100
AcDbEntity
  8
KONSTRUKTIONSELEMENTE
100
AcDbLine
 62
7
  6
CONTINUOUS
 10
128.4016087909
 20
119.5268937392
 11
127.9190533712
 21
119.444900138
  0
LINE
  5
221
100
AcDbEntity
  8
KONSTRUKTIONSELEMENTE
100
AcDbLine
 62
7
  6
CONTINUOUS
 10
118.5627973257
 20
110.9841896778
 11
118.9601322816
 21
110.9692631512
  0
LINE
  5
222
100
AcDbEntity
  8
KONSTRUKTIONSELEMENTE
100
AcDbLine
 62
7
  6
CONTINUOUS
 10
114.9672406622
 20
108.0771140737
 11
114.5755633435
 21
108.1455738899
  0
LINE
  5
223
100
AcDbEntity
  8
KONSTRUKTIONSELEMENTE
100
AcDbLine
 62
7
  6
CONTINUOUS
 10
119.0574081421
 20
106.0363299024
 11
119.6915094711
 21
105.8819308705
  0
LINE
  5
224
100
AcDbEntity
  8
KONSTRUKTIONSELEMENTE
100
AcDbLine
 62
7
  6
CONTINUOUS
 10
114.3973062238
 20
103.176248694
 11
115.0047427768
 21
102.9376144951
  0
LINE
  5
225
100
AcDbEntity
  8
0
100
AcDbLine
 62
7
  6
CONTINUOUS
 10
53.5536513314
 20
144.8347625946
 11
56.3045734068
 21
126.8760453829
  0
LINE
  5
226
100
AcDbEntity
  8
KONSTRUKTIONSELEMENTE
100
AcDbLine
 62
7
  6
CONTINUOUS
 10
127.5668441185
 20
122.7718323598
 11
128.0493995382
 21
122.853825961
  0
LINE
  5
227
100
AcDbEntity
  8
KONSTRUKTIONSELEMENTE
100
AcDbLine
 62
7
  6
CONTINUOUS
 10
129.8058271285
 20
118.636567264
 11
130.4001732865
 21
118.6569182116
  0
LINE
  5
228
100
AcDbEntity
  8
KONSTRUKTIONSELEMENTE
100
AcDbLine
 62
7
  6
CONTINUOUS
 10
130.1516994739
 20
121.1144646303
 11
130.7460457101
 21
121.1348155348
  0
LINE
  5
229
100
AcDbEntity
  8
KONSTRUKTIONSELEMENTE
100
AcDbLine
 62
7
  6
CONTINUOUS
 10
127.5072835115
 20
120.0200346226
 11
127.9407785332
 21
120.0130557707
  0
LINE
  5
22A
100
AcDbEntity
  8
KONSTRUKTIONSELEMENTE
100
AcDbLine
 62
7
  6
CONTINUOUS
 10
118.6512492573
 20
111.6990411436
 11
119.285350559
 21
111.544642147
  0
LINE
  5
22B
100
AcDbEntity
  8
KONSTRUKTIONSELEMENTE
100
AcDbLine
 62
7
  6
CONTINUOUS
 10
114.7597633263
 20
108.8419263357
 11
115.3671978437
 21
108.6032910114
  0
LINE
  5
22C
100
AcDbEntity
  8
KONSTRUKTIONSELEMENTE
100
AcDbLine
 62
7
  6
CONTINUOUS
 10
118.9873319372
 20
106.7897790501
 11
119.3826263646
 21
106.6117089689
  0
LINE
  5
22D
100
AcDbEntity
  8
KONSTRUKTIONSELEMENTE
100
AcDbLine
 62
7
  6
CONTINUOUS
 10
114.4296465258
 20
103.9322594663
 11
114.7972633605
 21
103.7024257091
  0
LINE
  5
22E
100
AcDbEntity
  8
BEZUGSACHSEN
100
AcDbLine
 62
7
  6
CONTINUOUS
 10
65.9152961565
 20
226.2459587237
 11
65.9152961565
 21
224.1573476989
  0
LINE
  5
22F
100
AcDbEntity
  8
BEZUGSACHSEN
100
AcDbLine
 62
7
  6
CONTINUOUS
 10
65.9152961565
 20
214.3573476989
 11
65.9152961565
 21
212.8781007522
  0
LINE
  5
230
100
AcDbEntity
  8
0
100
AcDbLine
 62
7
  6
CONTINUOUS
 10
63.347206126
 20
162.8859043423
 11
64.5911854565
 21
168.2741708006
  0
LINE
  5
231
100
AcDbEntity
  8
0
100
AcDbLine
 62
7
  6
CONTINUOUS
 10
64.7823938527
 20
169.1023853557
 11
65.934143251
 21
174.0911600874
  0
LINE
  5
232
100
AcDbEntity
  8
0
100
AcDbLine
 62
7
  6
CONTINUOUS
 10
66.2220806005
 20
175.3383537703
 11
67.3940755936
 21
180.4148218078
  0
LINE
  5
233
100
AcDbEntity
  8
0
100
AcDbLine
 62
7
  6
CONTINUOUS
 10
61.5521783427
 20
152.8880790638
 11
68.1449078439
 21
181.4443278444
  0
LINE
  5
234
100
AcDbEntity
  8
0
100
AcDbLine
 62
7
  6
CONTINUOUS
 10
63.644633245
 20
148.6152625434
 11
64.319486408
 21
151.5383727378
  0
LINE
  5
235
100
AcDbEntity
  8
KONSTRUKTIONSELEMENTE
100
AcDbLine
 62
7
  6
CONTINUOUS
 10
62.5736963737
 20
149.5696999659
 11
63.2420130146
 21
152.0638916251
  0
LINE
  5
236
100
AcDbEntity
  8
KONSTRUKTIONSELEMENTE
100
AcDbLine
 62
7
  6
CONTINUOUS
 10
128.0276766221
 20
122.2856744012
 11
128.4611697111
 21
122.2786913036
  0
LINE
  5
237
100
AcDbEntity
  8
KONSTRUKTIONSELEMENTE
100
AcDbLine
 62
7
  6
CONTINUOUS
 10
128.6397593282
 20
126.3512395775
 11
134.850036407
 21
126.0769359522
  0
LINE
  5
238
100
AcDbEntity
  8
KONSTRUKTIONSELEMENTE
100
AcDbLine
 62
7
  6
CONTINUOUS
 10
127.3737699354
 20
119.5135256733
 11
127.9190533712
 21
119.444900138
  0
LINE
  5
239
100
AcDbEntity
  8
KONSTRUKTIONSELEMENTE
100
AcDbLine
 62
7
  6
CONTINUOUS
 10
129.5605206467
 20
118.1916968522
 11
130.2175970665
 21
118.0614327362
  0
LINE
  5
23A
100
AcDbEntity
  8
KONSTRUKTIONSELEMENTE
100
AcDbLine
 62
7
  6
CONTINUOUS
 10
118.5838717207
 20
106.3152720625
 11
119.0574081421
 21
106.0363299024
  0
LINE
  5
23B
100
AcDbEntity
  8
KONSTRUKTIONSELEMENTE
100
AcDbLine
 62
7
  6
CONTINUOUS
 10
113.9657897684
 20
103.5165986236
 11
114.3973062238
 21
103.176248694
  0
LINE
  5
23C
100
AcDbEntity
  8
0
100
AcDbLine
 62
7
  6
CONTINUOUS
 10
76.18175112
 20
131.8749246891
 11
72.3700522468
 21
142.347481273
  0
LINE
  5
23D
100
AcDbEntity
  8
0
100
AcDbLine
 62
7
  6
CONTINUOUS
 10
66.5677434393
 20
147.9404093804
 11
67.017645548
 21
149.88914951
  0
LINE
  5
23E
100
AcDbEntity
  8
KONSTRUKTIONSELEMENTE
100
AcDbLine
 62
7
  6
CONTINUOUS
 10
131.7784245676
 20
135.2959664865
 11
132.1716065641
 21
135.3449930645
  0
LINE
  5
23F
100
AcDbEntity
  8
KONSTRUKTIONSELEMENTE
100
AcDbLine
 62
7
  6
CONTINUOUS
 10
132.2538187868
 20
135.949047048
 11
131.8606367903
 21
135.9000204699
  0
LINE
  5
240
100
AcDbEntity
  8
KONSTRUKTIONSELEMENTE
100
AcDbLine
 62
7
  6
CONTINUOUS
 10
128.8249938195
 20
126.9320392399
 11
134.2437829398
 21
126.6968711447
  0
LINE
  5
241
100
AcDbEntity
  8
KONSTRUKTIONSELEMENTE
100
AcDbLine
 62
7
  6
CONTINUOUS
 10
130.3342756938
 20
121.7099501058
 11
130.9913499461
 21
121.5796818737
  0
LINE
  5
242
100
AcDbEntity
  8
KONSTRUKTIONSELEMENTE
100
AcDbLine
 62
7
  6
CONTINUOUS
 10
128.0493995382
 20
122.853825961
 11
128.7064761929
 21
122.7235617154
  0
LINE
  5
243
100
AcDbEntity
  8
KONSTRUKTIONSELEMENTE
100
AcDbLine
 62
7
  6
CONTINUOUS
 10
118.9601322816
 20
110.9692631512
 11
119.2751444607
 21
110.728921241
  0
LINE
  5
244
100
AcDbEntity
  8
KONSTRUKTIONSELEMENTE
100
AcDbLine
 62
7
  6
CONTINUOUS
 10
118.5940817133
 20
107.1309955365
 11
118.9873319372
 21
106.7897790501
  0
LINE
  5
245
100
AcDbEntity
  8
KONSTRUKTIONSELEMENTE
100
AcDbLine
 62
7
  6
CONTINUOUS
 10
118.1123777202
 20
106.7573591317
 11
118.5838717207
 21
106.3152720625
  0
LINE
  5
246
100
AcDbEntity
  8
KONSTRUKTIONSELEMENTE
100
AcDbLine
 62
7
  6
CONTINUOUS
 10
114.0860881619
 20
104.3234660004
 11
114.4296465258
 21
103.9322594663
  0
LINE
  5
247
100
AcDbEntity
  8
KONSTRUKTIONSELEMENTE
100
AcDbLine
 62
7
  6
CONTINUOUS
 10
107.6452705774
 20
105.7764635014
 11
110.9388655674
 21
101.4670778155
  0
LINE
  5
248
100
AcDbEntity
  8
KONSTRUKTIONSELEMENTE
100
AcDbLine
 62
7
  6
CONTINUOUS
 10
107.0807827367
 20
105.5462602385
 11
110.8517794452
 21
100.604361804
  0
LINE
  5
249
100
AcDbEntity
  8
0
100
AcDbLine
 62
7
  6
CONTINUOUS
 10
67.017645548
 20
149.88914951
 11
86.8786730263
 21
192.4272216156
  0
LINE
  5
24A
100
AcDbEntity
  8
0
100
AcDbLine
 62
7
  6
CONTINUOUS
 10
56.3045734068
 20
126.8760453829
 11
56.73769062
 21
126.9396432075
  0
LINE
  5
24B
100
AcDbEntity
  8
KONSTRUKTIONSELEMENTE
100
AcDbLine
 62
7
  6
CONTINUOUS
 10
130.3554163384
 20
132.4134233682
 11
136.3006063524
 21
131.604278327
  0
LINE
  5
24C
100
AcDbEntity
  8
KONSTRUKTIONSELEMENTE
100
AcDbLine
 62
7
  6
CONTINUOUS
 10
136.3828185751
 20
132.2083323105
 11
133.7264570418
 21
132.5698652064
  0
LINE
  5
24D
100
AcDbEntity
  8
KONSTRUKTIONSELEMENTE
100
AcDbLine
 62
7
  6
CONTINUOUS
 10
132.9674967049
 20
132.6731603057
 11
131.0700955085
 21
132.9313981023
  0
LINE
  5
24E
100
AcDbEntity
  8
KONSTRUKTIONSELEMENTE
100
AcDbLine
 62
7
  6
CONTINUOUS
 10
130.0132163643
 20
131.029131694
 11
135.8688211376
 21
129.7207385041
  0
LINE
  5
24F
100
AcDbEntity
  8
KONSTRUKTIONSELEMENTE
100
AcDbLine
 62
7
  6
CONTINUOUS
 10
136.0017588765
 20
130.3156902854
 11
130.1461541033
 21
131.6240834753
  0
LINE
  5
250
100
AcDbEntity
  8
KONSTRUKTIONSELEMENTE
100
AcDbLine
 62
7
  6
CONTINUOUS
 10
68.8603710004
 20
146.8541492517
 11
63.2713007785
 21
148.3517361041
  0
LINE
  5
251
100
AcDbEntity
  8
KONSTRUKTIONSELEMENTE
100
AcDbLine
 62
7
  6
CONTINUOUS
 10
130.6558057144
 20
123.039899364
 11
131.2417023762
 21
122.7866220325
  0
LINE
  5
252
100
AcDbEntity
  8
0
100
AcDbLine
 62
7
  6
CONTINUOUS
 10
61.5521783427
 20
152.8880790638
 11
64.319486408
 21
151.5383727378
  0
LINE
  5
253
100
AcDbEntity
  8
KONSTRUKTIONSELEMENTE
100
AcDbLine
 62
7
  6
CONTINUOUS
 10
129.2251486669
 20
118.3766246835
 11
129.5605206467
 21
118.1916968522
  0
LINE
  5
254
100
AcDbEntity
  8
KONSTRUKTIONSELEMENTE
100
AcDbLine
 62
7
  6
CONTINUOUS
 10
127.0383979557
 20
119.6984535046
 11
127.3737699354
 21
119.5135256733
  0
LINE
  5
255
100
AcDbEntity
  8
KONSTRUKTIONSELEMENTE
100
AcDbLine
 62
7
  6
CONTINUOUS
 10
129.4704551488
 20
118.8214950953
 11
129.8058271285
 21
118.636567264
  0
LINE
  5
256
100
AcDbEntity
  8
KONSTRUKTIONSELEMENTE
100
AcDbLine
 62
7
  6
CONTINUOUS
 10
127.2837021917
 20
120.1433198435
 11
127.5072835115
 21
120.0200346226
  0
LINE
  5
257
100
AcDbEntity
  8
KONSTRUKTIONSELEMENTE
100
AcDbLine
 62
7
  6
CONTINUOUS
 10
119.285350559
 20
111.544642147
 11
119.7568466162
 21
111.1025562205
  0
LINE
  5
258
100
AcDbEntity
  8
KONSTRUKTIONSELEMENTE
100
AcDbLine
 62
7
  6
CONTINUOUS
 10
114.9672406622
 20
108.0771140737
 11
115.2468996291
 21
107.796423325
  0
LINE
  5
259
100
AcDbEntity
  8
KONSTRUKTIONSELEMENTE
100
AcDbLine
 62
7
  6
CONTINUOUS
 10
113.5583318285
 20
104.0183212527
 11
113.9657897684
 21
103.5165986236
  0
LINE
  5
25A
100
AcDbEntity
  8
BEZUGSACHSEN
100
AcDbLine
 62
7
  6
CENTER
 10
81.2152961565
 20
219.2573476989
 11
81.2152961565
 21
214.5073476989
  0
LINE
  5
25B
100
AcDbEntity
  8
BEZUGSACHSEN
100
AcDbLine
 62
7
  6
CENTER
 10
81.2152961565
 20
219.2573476989
 11
81.2152961565
 21
224.0073476989
  0
LINE
  5
25C
100
AcDbEntity
  8
RUNDUNGEN
100
AcDbLine
 62
7
  6
CONTINUOUS
 10
89.1903529748
 20
210.4583095932
 11
89.4985932371
 21
213.8291444686
  0
LINE
  5
25D
100
AcDbEntity
  8
RUNDUNGEN
100
AcDbLine
 62
7
  6
CONTINUOUS
 10
108.4457991091
 20
204.0898003794
 11
114.382250299
 21
212.5679313132
  0
LINE
  5
25E
100
AcDbEntity
  8
0
100
AcDbLine
 62
7
  6
CONTINUOUS
 10
60.3010425226
 20
157.5554239103
 11
59.4152961565
 21
157.0440380074
  0
LINE
  5
25F
100
AcDbEntity
  8
KONSTRUKTIONSELEMENTE
100
AcDbLine
 62
7
  6
CONTINUOUS
 10
132.1716065641
 20
135.3449930645
 11
132.5510870869
 21
135.2933454666
  0
LINE
  5
260
100
AcDbEntity
  8
KONSTRUKTIONSELEMENTE
100
AcDbLine
 62
7
  6
CONTINUOUS
 10
132.759792699
 20
135.8801836002
 11
132.2538187868
 21
135.949047048
  0
LINE
  5
261
100
AcDbEntity
  8
0
100
AcDbLine
 62
7
  6
CONTINUOUS
 10
66.5677434393
 20
147.9404093804
 11
63.644633245
 21
148.6152625434
  0
LINE
  5
262
100
AcDbEntity
  8
KONSTRUKTIONSELEMENTE
100
AcDbLine
 62
7
  6
CONTINUOUS
 10
130.2755650754
 20
126.8690864156
 11
131.8966846137
 21
126.2073834497
  0
LINE
  5
263
100
AcDbEntity
  8
KONSTRUKTIONSELEMENTE
100
AcDbLine
 62
7
  6
CONTINUOUS
 10
131.2202373889
 20
124.3455773412
 11
131.8061340507
 21
124.0923000097
  0
LINE
  5
264
100
AcDbEntity
  8
KONSTRUKTIONSELEMENTE
100
AcDbLine
 62
7
  6
CONTINUOUS
 10
128.4611697111
 20
122.2786913036
 11
128.684751031
 21
122.1554060828
  0
LINE
  5
265
100
AcDbEntity
  8
KONSTRUKTIONSELEMENTE
100
AcDbLine
 62
7
  6
CONTINUOUS
 10
130.7460457101
 20
121.1348155348
 11
131.0814176899
 21
120.9498877035
  0
LINE
  5
266
100
AcDbEntity
  8
KONSTRUKTIONSELEMENTE
100
AcDbLine
 62
7
  6
CONTINUOUS
 10
128.7064761929
 20
122.7235617154
 11
129.0418481727
 21
122.5386338842
  0
LINE
  5
267
100
AcDbEntity
  8
KONSTRUKTIONSELEMENTE
100
AcDbLine
 62
7
  6
CONTINUOUS
 10
130.9913499461
 20
121.5796818737
 11
131.3267219259
 21
121.3947540424
  0
LINE
  5
268
100
AcDbEntity
  8
KONSTRUKTIONSELEMENTE
100
AcDbLine
 62
7
  6
CONTINUOUS
 10
123.7207771292
 20
108.6600164259
 11
119.4311381377
 21
112.8551323148
  0
LINE
  5
269
100
AcDbEntity
  8
KONSTRUKTIONSELEMENTE
100
AcDbLine
 62
7
  6
CONTINUOUS
 10
119.8573779143
 20
113.2909759993
 11
121.5914873429
 21
111.5950780389
  0
LINE
  5
26A
100
AcDbEntity
  8
KONSTRUKTIONSELEMENTE
100
AcDbLine
 62
7
  6
CONTINUOUS
 10
124.1470169059
 20
109.0958601103
 11
122.1391007659
 21
111.0595313935
  0
LINE
  5
26B
100
AcDbEntity
  8
KONSTRUKTIONSELEMENTE
100
AcDbLine
 62
7
  6
CONTINUOUS
 10
124.1282218917
 20
113.0934708044
 11
126.1361380317
 21
111.1297995213
  0
LINE
  5
26C
100
AcDbEntity
  8
KONSTRUKTIONSELEMENTE
100
AcDbLine
 62
7
  6
CONTINUOUS
 10
123.5806084687
 20
113.6290174498
 11
121.8464990401
 21
115.3249154103
  0
LINE
  5
26D
100
AcDbEntity
  8
KONSTRUKTIONSELEMENTE
100
AcDbLine
 62
7
  6
CONTINUOUS
 10
122.2727388168
 20
115.7607590947
 11
126.5623778084
 21
111.5656432057
  0
LINE
  5
26E
100
AcDbEntity
  8
KONSTRUKTIONSELEMENTE
100
AcDbLine
 62
7
  6
CONTINUOUS
 10
115.3671978437
 20
108.6032910114
 11
115.7746559626
 21
108.1015680727
  0
LINE
  5
26F
100
AcDbEntity
  8
KONSTRUKTIONSELEMENTE
100
AcDbLine
 62
7
  6
CONTINUOUS
 10
116.9387485243
 20
108.2704393958
 11
118.1123777202
 21
106.7573591317
  0
LINE
  5
270
100
AcDbEntity
  8
KONSTRUKTIONSELEMENTE
100
AcDbLine
 62
7
  6
CONTINUOUS
 10
117.4204525173
 20
108.6440758006
 11
118.5940817133
 21
107.1309955365
  0
LINE
  5
271
100
AcDbEntity
  8
KONSTRUKTIONSELEMENTE
100
AcDbLine
 62
7
  6
CONTINUOUS
 10
119.2567686793
 20
109.2606206981
 11
119.7262203138
 21
108.655388649
  0
LINE
  5
272
100
AcDbEntity
  8
KONSTRUKTIONSELEMENTE
100
AcDbLine
 62
7
  6
CONTINUOUS
 10
120.4487735471
 20
109.2158411182
 11
121.0747091694
 21
108.4088649114
  0
LINE
  5
273
100
AcDbEntity
  8
KONSTRUKTIONSELEMENTE
100
AcDbLine
 62
7
  6
CONTINUOUS
 10
112.5998380992
 20
105.6760628327
 11
113.5583318285
 21
104.0183212527
  0
LINE
  5
274
100
AcDbEntity
  8
KONSTRUKTIONSELEMENTE
100
AcDbLine
 62
7
  6
CONTINUOUS
 10
113.1275944327
 20
105.9812075804
 11
114.0860881619
 21
104.3234660004
  0
LINE
  5
275
100
AcDbEntity
  8
RUNDUNGEN
100
AcDbLine
 62
7
  6
CONTINUOUS
 10
89.147913992
 20
209.4583095932
 11
89.147913992
 21
209.3073476989
  0
LINE
  5
276
100
AcDbEntity
  8
KONSTRUKTIONSELEMENTE
100
AcDbLine
 62
7
  6
CONTINUOUS
 10
132.5510870869
 20
135.2933454666
 11
132.9168654273
 21
135.1410237892
  0
LINE
  5
277
100
AcDbEntity
  8
KONSTRUKTIONSELEMENTE
100
AcDbLine
 62
7
  6
CONTINUOUS
 10
133.1255710394
 20
135.7278619228
 11
132.759792699
 21
135.8801836002
  0
LINE
  5
278
100
AcDbEntity
  8
KONSTRUKTIONSELEMENTE
100
AcDbLine
 62
7
  6
CONTINUOUS
 10
129.6894223875
 20
129.6424406181
 11
134.2437829398
 21
126.6968711447
  0
LINE
  5
279
100
AcDbEntity
  8
KONSTRUKTIONSELEMENTE
100
AcDbLine
 62
7
  6
CONTINUOUS
 10
120.461024068
 20
110.1947081468
 11
121.6346532639
 21
108.6816278827
  0
LINE
  5
27A
100
AcDbEntity
  8
KONSTRUKTIONSELEMENTE
100
AcDbLine
 62
7
  6
CONTINUOUS
 10
116.6278229148
 20
108.837072691
 11
116.9387485243
 21
108.2704393958
  0
LINE
  5
27B
100
AcDbEntity
  8
BEZUGSACHSEN
100
AcDbLine
 62
7
  6
CONTINUOUS
 10
91.3652961565
 20
209.3073476989
 11
91.3652961565
 21
214.4573476989
  0
LINE
  5
27C
100
AcDbEntity
  8
BEZUGSACHSEN
100
AcDbLine
 62
7
  6
CONTINUOUS
 10
91.3652961565
 20
224.0573476989
 11
91.3652961565
 21
228.9573476989
  0
LINE
  5
27D
100
AcDbEntity
  8
BG_STARTBEZUEGE
100
AcDbLine
 62
7
  6
CENTER
 10
95.9152961565
 20
88.0573476989
 11
95.9152961565
 21
234.1363559422
  0
LINE
  5
27E
100
AcDbEntity
  8
0
100
AcDbLine
 62
7
  6
CONTINUOUS
 10
63.8343911584
 20
162.7734288152
 11
63.347206126
 21
162.8859043423
  0
LINE
  5
27F
100
AcDbEntity
  8
0
100
AcDbLine
 62
7
  6
CONTINUOUS
 10
64.072839276
 20
163.8062610838
 11
63.5856542436
 21
163.918736611
  0
LINE
  5
280
100
AcDbEntity
  8
KONSTRUKTIONSELEMENTE
100
AcDbLine
 62
7
  6
CONTINUOUS
 10
135.0970147865
 20
126.8513325479
 11
129.8746568787
 21
130.2232402805
  0
LINE
  5
281
100
AcDbEntity
  8
KONSTRUKTIONSELEMENTE
100
AcDbLine
 62
7
  6
CONTINUOUS
 10
127.0383979557
 20
119.6984535046
 11
126.5775651389
 21
120.1846116358
  0
LINE
  5
282
100
AcDbEntity
  8
KONSTRUKTIONSELEMENTE
100
AcDbLine
 62
7
  6
CONTINUOUS
 10
129.2251486669
 20
118.3766246835
 11
128.7643182526
 21
118.8627868013
  0
LINE
  5
283
100
AcDbEntity
  8
KONSTRUKTIONSELEMENTE
100
AcDbLine
 62
7
  6
CONTINUOUS
 10
131.7875545078
 20
120.9085960406
 11
131.3267219259
 21
121.3947540424
  0
LINE
  5
284
100
AcDbEntity
  8
KONSTRUKTIONSELEMENTE
100
AcDbLine
 62
7
  6
CONTINUOUS
 10
117.4204525173
 20
108.6440758006
 11
117.1877672285
 21
109.1098353797
  0
LINE
  5
285
100
AcDbEntity
  8
KONSTRUKTIONSELEMENTE
100
AcDbLine
 62
7
  6
CONTINUOUS
 10
112.3683001003
 20
106.2795014634
 11
112.5998380992
 21
105.6760628327
  0
LINE
  5
286
100
AcDbEntity
  8
KONSTRUKTIONSELEMENTE
100
AcDbLine
 62
7
  6
CONTINUOUS
 10
113.1275944327
 20
105.9812075804
 11
112.9599561887
 21
106.4741298064
  0
LINE
  5
287
100
AcDbEntity
  8
BEZUGSACHSEN
100
AcDbLine
 62
7
  6
CONTINUOUS
 10
100.4652961565
 20
228.9573476989
 11
100.4652961565
 21
224.0573476989
  0
LINE
  5
288
100
AcDbEntity
  8
BEZUGSACHSEN
100
AcDbLine
 62
7
  6
CONTINUOUS
 10
100.4652961565
 20
214.4573476989
 11
100.4652961565
 21
209.3073476989
  0
LINE
  5
289
100
AcDbEntity
  8
0
100
AcDbLine
 62
7
  6
CONTINUOUS
 10
64.8030343191
 20
166.9690832967
 11
64.3158492867
 21
167.0815588239
  0
LINE
  5
28A
100
AcDbEntity
  8
0
100
AcDbLine
 62
7
  6
CONTINUOUS
 10
65.0783704889
 20
168.1616952734
 11
64.5911854565
 21
168.2741708006
  0
LINE
  5
28B
100
AcDbEntity
  8
0
100
AcDbLine
 62
7
  6
CONTINUOUS
 10
65.2695788851
 20
168.9899098285
 11
64.7823938527
 21
169.1023853557
  0
LINE
  5
28C
100
AcDbEntity
  8
KONSTRUKTIONSELEMENTE
100
AcDbLine
 62
7
  6
CONTINUOUS
 10
133.590438486
 20
135.3569715315
 11
133.1255710394
 21
135.7278619228
  0
LINE
  5
28D
100
AcDbEntity
  8
KONSTRUKTIONSELEMENTE
100
AcDbLine
 62
7
  6
CONTINUOUS
 10
129.3908877705
 20
122.1141144631
 11
129.0418481727
 21
122.5386338842
  0
LINE
  5
28E
100
AcDbEntity
  8
KONSTRUKTIONSELEMENTE
100
AcDbLine
 62
7
  6
CONTINUOUS
 10
127.2837021917
 20
120.1433198435
 11
127.0464529406
 21
120.5061968268
  0
LINE
  5
28F
100
AcDbEntity
  8
KONSTRUKTIONSELEMENTE
100
AcDbLine
 62
7
  6
CONTINUOUS
 10
121.8673349324
 20
108.2158653823
 11
121.6346532639
 21
108.6816278827
  0
LINE
  5
290
100
AcDbEntity
  8
KONSTRUKTIONSELEMENTE
100
AcDbLine
 62
7
  6
CONTINUOUS
 10
121.229148844
 20
108.0439744899
 11
121.0747091694
 21
108.4088649114
  0
LINE
  5
291
100
AcDbEntity
  8
KONSTRUKTIONSELEMENTE
100
AcDbLine
 62
7
  6
CONTINUOUS
 10
117.4758841643
 20
104.9562593341
 11
117.2443462997
 21
105.5596977326
  0
LINE
  5
292
100
AcDbEntity
  8
KONSTRUKTIONSELEMENTE
100
AcDbLine
 62
7
  6
CONTINUOUS
 10
116.6278229148
 20
108.837072691
 11
116.4754237686
 21
109.3651066671
  0
LINE
  5
293
100
AcDbEntity
  8
KONSTRUKTIONSELEMENTE
100
AcDbLine
 62
7
  6
CONTINUOUS
 10
116.8203286342
 20
104.8721468539
 11
116.7165899662
 21
105.2545529849
  0
LINE
  5
294
100
AcDbEntity
  8
RUNDUNGEN
100
AcDbLine
 62
7
  6
CONTINUOUS
 10
102.6402393382
 20
210.4583095932
 11
102.3319990759
 21
213.8291444686
  0
LINE
  5
295
100
AcDbEntity
  8
RUNDUNGEN
100
AcDbLine
 62
7
  6
CONTINUOUS
 10
102.682678321
 20
209.4583095932
 11
102.682678321
 21
209.3073476989
  0
LINE
  5
296
100
AcDbEntity
  8
0
100
AcDbLine
 62
7
  6
CONTINUOUS
 10
106.7283771788
 20
225.5066640162
 11
106.7283771788
 21
230.7573476989
  0
LINE
  5
297
100
AcDbEntity
  8
0
100
AcDbLine
 62
7
  6
CONTINUOUS
 10
66.4213282833
 20
173.9786845602
 11
65.934143251
 21
174.0911600874
  0
LINE
  5
298
100
AcDbEntity
  8
0
100
AcDbLine
 62
7
  6
CONTINUOUS
 10
66.7092656329
 20
175.2258782431
 11
66.2220806005
 21
175.3383537703
  0
LINE
  5
299
100
AcDbEntity
  8
KONSTRUKTIONSELEMENTE
100
AcDbLine
 62
7
  6
CONTINUOUS
 10
132.9168654273
 20
135.1410237892
 11
133.1424479229
 21
134.9052392255
  0
LINE
  5
29A
100
AcDbEntity
  8
KONSTRUKTIONSELEMENTE
100
AcDbLine
 62
7
  6
CONTINUOUS
 10
128.9220022147
 20
121.7925333451
 11
128.684751031
 21
122.1554060828
  0
LINE
  5
29B
100
AcDbEntity
  8
RUNDUNGEN
100
AcDbLine
 62
7
  6
CONTINUOUS
 10
100.9912092188
 20
171.8322457348
 11
113.132614778
 21
153.14247834
  0
LINE
  5
29C
100
AcDbEntity
  8
0
100
AcDbLine
 62
7
  6
CONTINUOUS
 10
89.8956062281
 20
188.3195435563
 11
113.7243061758
 21
150.1856522478
  0
LINE
  5
29D
100
AcDbEntity
  8
KONSTRUKTIONSELEMENTE
100
AcDbLine
 62
7
  6
CONTINUOUS
 10
100.5041255487
 20
172.5379001702
 11
90.4328767206
 21
188.6552674202
  0
LINE
  5
29E
100
AcDbEntity
  8
KONSTRUKTIONSELEMENTE
100
AcDbLine
 62
7
  6
CONTINUOUS
 10
129.4704551488
 20
118.8214950953
 11
129.1704757924
 21
119.3349870559
  0
LINE
  5
29F
100
AcDbEntity
  8
KONSTRUKTIONSELEMENTE
100
AcDbLine
 62
7
  6
CONTINUOUS
 10
131.381396968
 20
120.436395786
 11
131.0814176899
 21
120.9498877035
  0
LINE
  5
2A0
100
AcDbEntity
  8
KONSTRUKTIONSELEMENTE
100
AcDbLine
 62
7
  6
CONTINUOUS
 10
88.7017245403
 20
201.1169125698
 11
98.8570928182
 21
175.9814940536
  0
LINE
  5
2A1
100
AcDbEntity
  8
KONSTRUKTIONSELEMENTE
100
AcDbLine
 62
7
  6
CONTINUOUS
 10
112.3683001003
 20
106.2795014634
 11
112.2886199031
 21
106.8232803713
  0
LINE
  5
2A2
100
AcDbEntity
  8
KONSTRUKTIONSELEMENTE
100
AcDbLine
 62
7
  6
CONTINUOUS
 10
110.8440357256
 20
107.0809489506
 11
111.6044291816
 21
100.9112991951
  0
LINE
  5
2A3
100
AcDbEntity
  8
KONSTRUKTIONSELEMENTE
100
AcDbLine
 62
7
  6
CONTINUOUS
 10
110.9388655674
 20
101.4670778155
 11
110.279547885
 21
106.8507456877
  0
LINE
  5
2A4
100
AcDbEntity
  8
KONSTRUKTIONSELEMENTE
100
AcDbLine
 62
7
  6
CONTINUOUS
 10
112.9599561887
 20
106.4741298064
 11
112.9441753885
 21
106.9073929289
  0
LINE
  5
2A5
100
AcDbEntity
  8
0
100
AcDbLine
 62
7
  6
CONTINUOUS
 10
67.881260626
 20
180.3023462807
 11
67.3940755936
 21
180.4148218078
  0
LINE
  5
2A6
100
AcDbEntity
  8
KONSTRUKTIONSELEMENTE
100
AcDbLine
 62
7
  6
CONTINUOUS
 10
133.915110715
 20
134.9026228624
 11
133.590438486
 21
135.3569715315
  0
LINE
  5
2A7
100
AcDbEntity
  8
KONSTRUKTIONSELEMENTE
100
AcDbLine
 62
7
  6
CONTINUOUS
 10
126.5775651389
 20
120.1846116358
 11
126.3893765991
 21
120.6364608996
  0
LINE
  5
2A8
100
AcDbEntity
  8
KONSTRUKTIONSELEMENTE
100
AcDbLine
 62
7
  6
CONTINUOUS
 10
129.5790763104
 20
121.6622651993
 11
129.3908877705
 21
122.1141144631
  0
LINE
  5
2A9
100
AcDbEntity
  8
KONSTRUKTIONSELEMENTE
100
AcDbLine
 62
7
  6
CONTINUOUS
 10
117.1136098023
 20
109.5369976302
 11
117.1877672285
 21
109.1098353797
  0
LINE
  5
2AA
100
AcDbEntity
  8
0
100
AcDbLine
 62
7
  6
CONTINUOUS
 10
115.9152961565
 20
224.7573476989
 11
115.9152961565
 21
198.1652997866
  0
LINE
  5
2AB
100
AcDbEntity
  8
KONSTRUKTIONSELEMENTE
100
AcDbLine
 62
7
  6
CONTINUOUS
 10
116.4754237686
 20
109.3651066671
 11
116.4835895576
 21
110.017683736
  0
LINE
  5
2AC
100
AcDbEntity
  8
KONSTRUKTIONSELEMENTE
100
AcDbLine
 62
7
  6
CONTINUOUS
 10
113.6251322652
 20
175.2361727089
 11
111.3923801633
 21
180.0243250433
  0
LINE
  5
2AD
100
AcDbEntity
  8
0
100
AcDbLine
 62
7
  6
CONTINUOUS
 10
113.6251322652
 20
175.2361727089
 11
111.3923801633
 21
180.0243250433
  0
LINE
  5
2AE
100
AcDbEntity
  8
RUNDUNGEN
100
AcDbLine
 62
7
  6
CONTINUOUS
 10
121.7084297096
 20
157.9014853989
 11
107.1384629679
 21
189.146879908
  0
LINE
  5
2AF
100
AcDbEntity
  8
KONSTRUKTIONSELEMENTE
100
AcDbLine
 62
7
  6
CONTINUOUS
 10
131.9757430868
 20
120.4567467552
 11
131.7875545078
 21
120.9085960406
  0
LINE
  5
2B0
100
AcDbEntity
  8
KONSTRUKTIONSELEMENTE
100
AcDbLine
 62
7
  6
CONTINUOUS
 10
127.0464529406
 20
120.5061968268
 11
126.9073247988
 21
121.0470185438
  0
LINE
  5
2B1
100
AcDbEntity
  8
KONSTRUKTIONSELEMENTE
100
AcDbLine
 62
7
  6
CONTINUOUS
 10
128.7643182526
 20
118.8627868013
 11
128.6251901108
 21
119.4036085183
  0
LINE
  5
2B2
100
AcDbEntity
  8
KONSTRUKTIONSELEMENTE
100
AcDbLine
 62
7
  6
CONTINUOUS
 10
129.0611281107
 20
121.2517075551
 11
128.9220022147
 21
121.7925333451
  0
LINE
  5
2B3
100
AcDbEntity
  8
KONSTRUKTIONSELEMENTE
100
AcDbLine
 62
7
  6
CONTINUOUS
 10
121.8591691709
 20
107.5632882781
 11
121.8673349324
 21
108.2158653823
  0
LINE
  5
2B4
100
AcDbEntity
  8
KONSTRUKTIONSELEMENTE
100
AcDbLine
 62
7
  6
CONTINUOUS
 10
112.2886199031
 20
106.8232803713
 11
112.3848598259
 21
107.4687749712
  0
LINE
  5
2B5
100
AcDbEntity
  8
KONSTRUKTIONSELEMENTE
100
AcDbLine
 62
7
  6
CONTINUOUS
 10
126.3893765991
 20
120.6364608996
 11
126.2993111011
 21
121.2662591428
  0
LINE
  5
2B6
100
AcDbEntity
  8
KONSTRUKTIONSELEMENTE
100
AcDbLine
 62
7
  6
CONTINUOUS
 10
128.6251901108
 20
119.4036085183
 11
128.6115224928
 21
119.6432001081
  0
LINE
  5
2B7
100
AcDbEntity
  8
KONSTRUKTIONSELEMENTE
100
AcDbLine
 62
7
  6
CONTINUOUS
 10
129.1704757924
 20
119.3349870559
 11
129.1431383105
 21
119.8141661625
  0
LINE
  5
2B8
100
AcDbEntity
  8
KONSTRUKTIONSELEMENTE
100
AcDbLine
 62
7
  6
CONTINUOUS
 10
129.5790763104
 20
121.6622651993
 11
129.5927461743
 21
121.4226776825
  0
LINE
  5
2B9
100
AcDbEntity
  8
KONSTRUKTIONSELEMENTE
100
AcDbLine
 62
7
  6
CONTINUOUS
 10
131.408732204
 20
119.9572126066
 11
131.381396968
 21
120.436395786
  0
LINE
  5
2BA
100
AcDbEntity
  8
KONSTRUKTIONSELEMENTE
100
AcDbLine
 62
7
  6
CONTINUOUS
 10
117.3796462772
 20
104.3107658596
 11
117.4758841643
 21
104.9562593341
  0
LINE
  5
2BB
100
AcDbEntity
  8
KONSTRUKTIONSELEMENTE
100
AcDbLine
 62
7
  6
CONTINUOUS
 10
117.1136098023
 20
109.5369976302
 11
117.1979770019
 21
109.9255591363
  0
LINE
  5
2BC
100
AcDbEntity
  8
KONSTRUKTIONSELEMENTE
100
AcDbLine
 62
7
  6
CONTINUOUS
 10
133.1424479229
 20
134.9052392255
 11
133.227835201
 21
134.5859963838
  0
LINE
  5
2BD
100
AcDbEntity
  8
KONSTRUKTIONSELEMENTE
100
AcDbLine
 62
7
  6
CONTINUOUS
 10
132.0658086141
 20
119.8269484959
 11
131.9757430868
 21
120.4567467552
  0
LINE
  5
2BE
100
AcDbEntity
  8
KONSTRUKTIONSELEMENTE
100
AcDbLine
 62
7
  6
CONTINUOUS
 10
130.6842652292
 20
134.8296393021
 11
130.3554163384
 21
132.4134233682
  0
LINE
  5
2BF
100
AcDbEntity
  8
KONSTRUKTIONSELEMENTE
100
AcDbLine
 62
7
  6
CONTINUOUS
 10
131.0700955085
 20
132.9313981023
 11
131.3304340046
 21
134.8442341804
  0
LINE
  5
2C0
100
AcDbEntity
  8
KONSTRUKTIONSELEMENTE
100
AcDbLine
 62
7
  6
CONTINUOUS
 10
126.9073247988
 20
121.0470185438
 11
126.9917802227
 21
121.4645591129
  0
LINE
  5
2C1
100
AcDbEntity
  8
KONSTRUKTIONSELEMENTE
100
AcDbLine
 62
7
  6
CONTINUOUS
 10
121.1447816992
 20
107.6554129131
 11
121.229148844
 21
108.0439744899
  0
LINE
  5
2C2
100
AcDbEntity
  8
KONSTRUKTIONSELEMENTE
100
AcDbLine
 62
7
  6
CONTINUOUS
 10
112.9441753885
 20
106.9073929289
 11
113.0802544032
 21
107.2809974928
  0
LINE
  5
2C3
100
AcDbEntity
  8
KONSTRUKTIONSELEMENTE
100
AcDbLine
 62
7
  6
CONTINUOUS
 10
116.6842496642
 20
104.4985422126
 11
116.8203286342
 21
104.8721468539
  0
LINE
  5
2C4
100
AcDbEntity
  8
KONSTRUKTIONSELEMENTE
100
AcDbLine
 62
7
  6
CONTINUOUS
 10
116.4835895576
 20
110.017683736
 11
116.6482392247
 21
110.4685167885
  0
LINE
  5
2C5
100
AcDbEntity
  8
KONSTRUKTIONSELEMENTE
100
AcDbLine
 62
7
  6
CONTINUOUS
 10
133.9730937098
 20
134.3820271568
 11
133.915110715
 21
134.9026228624
  0
LINE
  5
2C6
100
AcDbEntity
  8
KONSTRUKTIONSELEMENTE
100
AcDbLine
 62
7
  6
CONTINUOUS
 10
133.227835201
 20
134.5859963838
 11
132.9674967049
 21
132.6731603057
  0
LINE
  5
2C7
100
AcDbEntity
  8
KONSTRUKTIONSELEMENTE
100
AcDbLine
 62
7
  6
CONTINUOUS
 10
133.7264570418
 20
132.5698652064
 11
133.9730937098
 21
134.3820271568
  0
LINE
  5
2C8
100
AcDbEntity
  8
KONSTRUKTIONSELEMENTE
100
AcDbLine
 62
7
  6
CONTINUOUS
 10
136.3006063524
 20
131.604278327
 11
136.3828185751
 21
132.2083323105
  0
LINE
  5
2C9
100
AcDbEntity
  8
KONSTRUKTIONSELEMENTE
100
AcDbLine
 62
7
  6
CONTINUOUS
 10
128.9766749326
 20
120.834171059
 11
129.0611281107
 21
121.2517075551
  0
LINE
  5
2CA
100
AcDbEntity
  8
KONSTRUKTIONSELEMENTE
100
AcDbLine
 62
7
  6
CONTINUOUS
 10
129.1431383105
 20
119.8141661625
 11
129.2275937344
 21
120.2317067315
  0
LINE
  5
2CB
100
AcDbEntity
  8
KONSTRUKTIONSELEMENTE
100
AcDbLine
 62
7
  6
CONTINUOUS
 10
131.324279026
 20
119.5396761104
 11
131.408732204
 21
119.9572126066
  0
LINE
  5
2CC
100
AcDbEntity
  8
KONSTRUKTIONSELEMENTE
100
AcDbLine
 62
7
  6
CONTINUOUS
 10
130.1461541033
 20
131.6240834753
 11
130.0132163643
 21
131.029131694
  0
LINE
  5
2CD
100
AcDbEntity
  8
KONSTRUKTIONSELEMENTE
100
AcDbLine
 62
7
  6
CONTINUOUS
 10
126.2993111011
 20
121.2662591428
 11
126.432826923
 21
121.772772165
  0
LINE
  5
2CE
100
AcDbEntity
  8
KONSTRUKTIONSELEMENTE
100
AcDbLine
 62
7
  6
CONTINUOUS
 10
129.8746568787
 20
130.2232402805
 11
129.6894223875
 21
129.6424406181
  0
LINE
  5
2CF
100
AcDbEntity
  8
KONSTRUKTIONSELEMENTE
100
AcDbLine
 62
7
  6
CONTINUOUS
 10
128.6397593282
 20
126.3512395775
 11
128.8249938195
 21
126.9320392399
  0
LINE
  5
2D0
100
AcDbEntity
  8
KONSTRUKTIONSELEMENTE
100
AcDbLine
 62
7
  6
CONTINUOUS
 10
121.8591691709
 20
107.5632882781
 11
121.6945195243
 21
107.1124551992
  0
LINE
  5
2D1
100
AcDbEntity
  8
KONSTRUKTIONSELEMENTE
100
AcDbLine
 62
7
  6
CONTINUOUS
 10
130.8792690133
 20
135.315803308
 11
130.6842652292
 21
134.8296393021
  0
LINE
  5
2D2
100
AcDbEntity
  8
KONSTRUKTIONSELEMENTE
100
AcDbLine
 62
7
  6
CONTINUOUS
 10
112.3848598259
 20
107.4687749712
 11
112.6088968874
 21
107.8932362169
  0
LINE
  5
2D3
100
AcDbEntity
  8
KONSTRUKTIONSELEMENTE
100
AcDbLine
 62
7
  6
CONTINUOUS
 10
131.3304340046
 20
134.8442341804
 11
131.4980335054
 21
135.1290453222
  0
LINE
  5
2D4
100
AcDbEntity
  8
KONSTRUKTIONSELEMENTE
100
AcDbLine
 62
7
  6
CONTINUOUS
 10
131.3135571211
 20
135.6668568778
 11
130.8792690133
 21
135.315803308
  0
LINE
  5
2D5
100
AcDbEntity
  8
KONSTRUKTIONSELEMENTE
100
AcDbLine
 62
7
  6
CONTINUOUS
 10
131.4980335054
 20
135.1290453222
 11
131.7784245676
 21
135.2959664865
  0
LINE
  5
2D6
100
AcDbEntity
  8
KONSTRUKTIONSELEMENTE
100
AcDbLine
 62
7
  6
CONTINUOUS
 10
131.8606367903
 20
135.9000204699
 11
131.3135571211
 21
135.6668568778
  0
LINE
  5
2D7
100
AcDbEntity
  8
0
100
AcDbLine
 62
7
  6
CONTINUOUS
 10
69.1822718043
 20
208.9177129213
 11
80.0653915983
 21
206.4051467406
  0
LINE
  5
2D8
100
AcDbEntity
  8
0
100
AcDbLine
 62
7
  6
CONTINUOUS
 10
67.3794077314
 20
210.9700333992
 11
70.4039051623
 21
210.1596217551
  0
LINE
  5
2D9
100
AcDbEntity
  8
KONSTRUKTIONSELEMENTE
100
AcDbLine
 62
7
  6
CONTINUOUS
 10
135.8688211376
 20
129.7207385041
 11
136.0017588765
 21
130.3156902854
  0
LINE
  5
2DA
100
AcDbEntity
  8
KONSTRUKTIONSELEMENTE
100
AcDbLine
 62
7
  6
CONTINUOUS
 10
131.932292802
 20
119.3204354683
 11
132.0658086141
 21
119.8269484959
  0
LINE
  5
2DB
100
AcDbEntity
  8
KONSTRUKTIONSELEMENTE
100
AcDbLine
 62
7
  6
CONTINUOUS
 10
134.850036407
 20
126.0769359522
 11
135.0970147865
 21
126.8513325479
  0
LINE
  5
2DC
100
AcDbEntity
  8
KONSTRUKTIONSELEMENTE
100
AcDbLine
 62
7
  6
CONTINUOUS
 10
130.6558057144
 20
123.039899364
 11
131.2202373889
 21
124.3455773412
  0
LINE
  5
2DD
100
AcDbEntity
  8
KONSTRUKTIONSELEMENTE
100
AcDbLine
 62
7
  6
CONTINUOUS
 10
131.2417023762
 20
122.7866220325
 11
131.8061340507
 21
124.0923000097
  0
LINE
  5
2DE
100
AcDbEntity
  8
KONSTRUKTIONSELEMENTE
100
AcDbLine
 62
7
  6
CONTINUOUS
 10
117.1556072192
 20
103.8863034208
 11
117.3796462772
 21
104.3107658596
  0
LINE
  5
2DF
100
AcDbEntity
  8
KONSTRUKTIONSELEMENTE
100
AcDbLine
 62
7
  6
CONTINUOUS
 10
126.432826923
 20
121.772772165
 11
126.629070761
 21
122.1286660507
  0
LINE
  5
2E0
100
AcDbEntity
  8
KONSTRUKTIONSELEMENTE
100
AcDbLine
 62
7
  6
CONTINUOUS
 10
126.9917802227
 20
121.4645591129
 11
127.1880240606
 21
121.8204529986
  0
LINE
  5
2E1
100
AcDbEntity
  8
KONSTRUKTIONSELEMENTE
100
AcDbLine
 62
7
  6
CONTINUOUS
 10
128.7804310947
 20
120.4782771733
 11
128.9766749326
 21
120.834171059
  0
LINE
  5
2E2
100
AcDbEntity
  8
KONSTRUKTIONSELEMENTE
100
AcDbLine
 62
7
  6
CONTINUOUS
 10
129.2275937344
 20
120.2317067315
 11
129.4238375723
 21
120.5876006173
  0
LINE
  5
2E3
100
AcDbEntity
  8
KONSTRUKTIONSELEMENTE
100
AcDbLine
 62
7
  6
CONTINUOUS
 10
117.1979770019
 20
109.9255591363
 11
117.4408686081
 21
110.2755201806
  0
LINE
  5
2E4
100
AcDbEntity
  8
KONSTRUKTIONSELEMENTE
100
AcDbLine
 62
7
  6
CONTINUOUS
 10
116.6482392247
 20
110.4685167885
 11
116.9714169735
 21
110.8807522298
  0
LINE
  5
2E5
100
AcDbEntity
  8
KONSTRUKTIONSELEMENTE
100
AcDbLine
 62
7
  6
CONTINUOUS
 10
113.368193054
 20
107.5949438076
 11
113.0802544032
 21
107.2809974928
  0
LINE
  5
2E6
100
AcDbEntity
  8
KONSTRUKTIONSELEMENTE
100
AcDbLine
 62
7
  6
CONTINUOUS
 10
126.629070761
 20
122.1286660507
 11
126.9861679027
 21
122.5118938521
  0
LINE
  5
2E7
100
AcDbEntity
  8
KONSTRUKTIONSELEMENTE
100
AcDbLine
 62
7
  6
CONTINUOUS
 10
126.9861679027
 20
122.5118938521
 11
127.5668441185
 21
122.7718323598
  0
LINE
  5
2E8
100
AcDbEntity
  8
KONSTRUKTIONSELEMENTE
100
AcDbLine
 62
7
  6
CONTINUOUS
 10
127.4960585585
 20
122.1147042739
 11
128.0276766221
 21
122.2856744012
  0
LINE
  5
2E9
100
AcDbEntity
  8
KONSTRUKTIONSELEMENTE
100
AcDbLine
 62
7
  6
CONTINUOUS
 10
70.5678768007
 20
210.7715722407
 11
80.926277291
 21
207.9960471944
  0
LINE
  5
2EA
100
AcDbEntity
  8
KONSTRUKTIONSELEMENTE
100
AcDbLine
 62
7
  6
CONTINUOUS
 10
131.128035188
 20
119.1837822247
 11
131.324279026
 21
119.5396761104
  0
LINE
  5
2EB
100
AcDbEntity
  8
KONSTRUKTIONSELEMENTE
100
AcDbLine
 62
7
  6
CONTINUOUS
 10
131.6379259221
 20
118.7865926033
 11
131.932292802
 21
119.3204354683
  0
LINE
  5
2EC
100
AcDbEntity
  8
KONSTRUKTIONSELEMENTE
100
AcDbLine
 62
7
  6
CONTINUOUS
 10
120.901890093
 20
107.3054518688
 11
121.1447816992
 21
107.6554129131
  0
LINE
  5
2ED
100
AcDbEntity
  8
KONSTRUKTIONSELEMENTE
100
AcDbLine
 62
7
  6
CONTINUOUS
 10
121.6945195243
 20
107.1124551992
 11
121.3713417823
 21
106.700219749
  0
LINE
  5
2EE
100
AcDbEntity
  8
KONSTRUKTIONSELEMENTE
100
AcDbLine
 62
7
  6
CONTINUOUS
 10
116.3963130267
 20
104.1845970618
 11
116.6842496642
 21
104.4985422126
  0
LINE
  5
2EF
100
AcDbEntity
  8
KONSTRUKTIONSELEMENTE
100
AcDbLine
 62
7
  6
CONTINUOUS
 10
131.2808310164
 20
118.4033688802
 11
131.6379259221
 21
118.7865926033
  0
LINE
  5
2F0
100
AcDbEntity
  8
KONSTRUKTIONSELEMENTE
100
AcDbLine
 62
7
  6
CONTINUOUS
 10
119.4311381377
 20
112.8551323148
 11
119.8573779143
 21
113.2909759993
  0
LINE
  5
2F1
100
AcDbEntity
  8
KONSTRUKTIONSELEMENTE
100
AcDbLine
 62
7
  6
CONTINUOUS
 10
121.8464990401
 20
115.3249154103
 11
122.2727388168
 21
115.7607590947
  0
LINE
  5
2F2
100
AcDbEntity
  8
KONSTRUKTIONSELEMENTE
100
AcDbLine
 62
7
  6
CONTINUOUS
 10
123.5806084687
 20
113.6290174498
 11
121.5914873429
 21
111.5950780389
  0
LINE
  5
2F3
100
AcDbEntity
  8
KONSTRUKTIONSELEMENTE
100
AcDbLine
 62
7
  6
CONTINUOUS
 10
122.1391007659
 20
111.0595313935
 11
124.1282218917
 21
113.0934708044
  0
LINE
  5
2F4
100
AcDbEntity
  8
KONSTRUKTIONSELEMENTE
100
AcDbLine
 62
7
  6
CONTINUOUS
 10
112.6088968874
 20
107.8932362169
 11
112.9847955981
 21
108.2580403777
  0
LINE
  5
2F5
100
AcDbEntity
  8
KONSTRUKTIONSELEMENTE
100
AcDbLine
 62
7
  6
CONTINUOUS
 10
127.1880240606
 20
121.8204529986
 11
127.4960585585
 21
122.1147042739
  0
LINE
  5
2F6
100
AcDbEntity
  8
KONSTRUKTIONSELEMENTE
100
AcDbLine
 62
7
  6
CONTINUOUS
 10
128.4723943509
 20
120.1840218251
 11
128.7804310947
 21
120.4782771733
  0
LINE
  5
2F7
100
AcDbEntity
  8
KONSTRUKTIONSELEMENTE
100
AcDbLine
 62
7
  6
CONTINUOUS
 10
129.4238375723
 20
120.5876006173
 11
129.7318720702
 21
120.8818518926
  0
LINE
  5
2F8
100
AcDbEntity
  8
KONSTRUKTIONSELEMENTE
100
AcDbLine
 62
7
  6
CONTINUOUS
 10
130.8199984443
 20
118.8895268765
 11
131.128035188
 21
119.1837822247
  0
LINE
  5
2F9
100
AcDbEntity
  8
KONSTRUKTIONSELEMENTE
100
AcDbLine
 62
7
  6
CONTINUOUS
 10
116.9714169735
 20
110.8807522298
 11
117.6939702068
 21
111.441204699
  0
LINE
  5
2FA
100
AcDbEntity
  8
KONSTRUKTIONSELEMENTE
100
AcDbLine
 62
7
  6
CONTINUOUS
 10
117.4408686081
 20
110.2755201806
 11
118.1634218413
 21
110.8359726499
  0
LINE
  5
2FB
100
AcDbEntity
  8
KONSTRUKTIONSELEMENTE
100
AcDbLine
 62
7
  6
CONTINUOUS
 10
119.2751444607
 20
110.728921241
 11
119.7568466162
 21
111.1025562205
  0
LINE
  5
2FC
100
AcDbEntity
  8
KONSTRUKTIONSELEMENTE
100
AcDbLine
 62
7
  6
CONTINUOUS
 10
129.5927461743
 20
121.4226776825
 11
129.8026576302
 21
121.5389799784
  0
LINE
  5
2FD
100
AcDbEntity
  8
KONSTRUKTIONSELEMENTE
100
AcDbLine
 62
7
  6
CONTINUOUS
 10
129.7318720702
 20
120.8818518926
 11
130.1516994739
 21
121.1144646303
  0
LINE
  5
2FE
100
AcDbEntity
  8
KONSTRUKTIONSELEMENTE
100
AcDbLine
 62
7
  6
CONTINUOUS
 10
128.4016087909
 20
119.5268937392
 11
128.6115224928
 21
119.6432001081
  0
LINE
  5
2FF
100
AcDbEntity
  8
KONSTRUKTIONSELEMENTE
100
AcDbLine
 62
7
  6
CONTINUOUS
 10
130.4001732865
 20
118.6569182116
 11
130.8199984443
 21
118.8895268765
  0
LINE
  5
300
100
AcDbEntity
  8
KONSTRUKTIONSELEMENTE
100
AcDbLine
 62
7
  6
CONTINUOUS
 10
130.7001525254
 20
118.1434263158
 11
131.2808310164
 21
118.4033688802
  0
LINE
  5
301
100
AcDbEntity
  8
KONSTRUKTIONSELEMENTE
100
AcDbLine
 62
7
  6
CONTINUOUS
 10
129.8026576302
 20
121.5389799784
 11
130.3342756938
 21
121.7099501058
  0
LINE
  5
302
100
AcDbEntity
  8
KONSTRUKTIONSELEMENTE
100
AcDbLine
 62
7
  6
CONTINUOUS
 10
127.9407785332
 20
120.0130557707
 11
128.4723943509
 21
120.1840218251
  0
LINE
  5
303
100
AcDbEntity
  8
KONSTRUKTIONSELEMENTE
100
AcDbLine
 62
7
  6
CONTINUOUS
 10
123.7207771292
 20
108.6600164259
 11
124.1470169059
 21
109.0958601103
  0
LINE
  5
304
100
AcDbEntity
  8
KONSTRUKTIONSELEMENTE
100
AcDbLine
 62
7
  6
CONTINUOUS
 10
126.1361380317
 20
111.1297995213
 11
126.5623778084
 21
111.5656432057
  0
LINE
  5
305
100
AcDbEntity
  8
KONSTRUKTIONSELEMENTE
100
AcDbLine
 62
7
  6
CONTINUOUS
 10
116.7797105274
 20
103.5215004143
 11
117.1556072192
 21
103.8863034208
  0
LINE
  5
306
100
AcDbEntity
  8
KONSTRUKTIONSELEMENTE
100
AcDbLine
 62
7
  6
CONTINUOUS
 10
119.2567686793
 20
109.2606206981
 11
120.461024068
 21
110.1947081468
  0
LINE
  5
307
100
AcDbEntity
  8
KONSTRUKTIONSELEMENTE
100
AcDbLine
 62
7
  6
CONTINUOUS
 10
119.7262203138
 20
108.655388649
 11
120.4487735471
 21
109.2158411182
  0
LINE
  5
308
100
AcDbEntity
  8
KONSTRUKTIONSELEMENTE
100
AcDbLine
 62
7
  6
CONTINUOUS
 10
120.1793368597
 20
106.7449993996
 11
120.901890093
 21
107.3054518688
  0
LINE
  5
309
100
AcDbEntity
  8
KONSTRUKTIONSELEMENTE
100
AcDbLine
 62
7
  6
CONTINUOUS
 10
121.3713417823
 20
106.700219749
 11
120.6487885491
 21
106.1397672798
  0
LINE
  5
30A
100
AcDbEntity
  8
KONSTRUKTIONSELEMENTE
100
AcDbLine
 62
7
  6
CONTINUOUS
 10
112.9847955981
 20
108.2580403777
 11
113.7764300982
 21
108.7157574992
  0
LINE
  5
30B
100
AcDbEntity
  8
KONSTRUKTIONSELEMENTE
100
AcDbLine
 62
7
  6
CONTINUOUS
 10
113.368193054
 20
107.5949438076
 11
114.1598275541
 21
108.0526609291
  0
LINE
  5
30C
100
AcDbEntity
  8
KONSTRUKTIONSELEMENTE
100
AcDbLine
 62
7
  6
CONTINUOUS
 10
115.2468996291
 20
107.796423325
 11
115.7746559626
 21
108.1015680727
  0
LINE
  5
30D
100
AcDbEntity
  8
KONSTRUKTIONSELEMENTE
100
AcDbLine
 62
7
  6
CONTINUOUS
 10
116.7165899662
 20
105.2545529849
 11
117.2443462997
 21
105.5596977326
  0
LINE
  5
30E
100
AcDbEntity
  8
KONSTRUKTIONSELEMENTE
100
AcDbLine
 62
7
  6
CONTINUOUS
 10
115.6046785266
 20
103.7268799403
 11
116.3963130267
 21
104.1845970618
  0
LINE
  5
30F
100
AcDbEntity
  8
KONSTRUKTIONSELEMENTE
100
AcDbLine
 62
7
  6
CONTINUOUS
 10
117.6939702068
 20
111.441204699
 11
118.1736318338
 21
111.6516961239
  0
LINE
  5
310
100
AcDbEntity
  8
KONSTRUKTIONSELEMENTE
100
AcDbLine
 62
7
  6
CONTINUOUS
 10
107.0807827367
 20
105.5462602385
 11
107.6452705774
 21
105.7764635014
  0
LINE
  5
311
100
AcDbEntity
  8
KONSTRUKTIONSELEMENTE
100
AcDbLine
 62
7
  6
CONTINUOUS
 10
110.279547885
 20
106.8507456877
 11
110.8440357256
 21
107.0809489506
  0
LINE
  5
312
100
AcDbEntity
  8
KONSTRUKTIONSELEMENTE
100
AcDbLine
 62
7
  6
CONTINUOUS
 10
118.1634218413
 20
110.8359726499
 11
118.5627973257
 21
110.9841896778
  0
LINE
  5
313
100
AcDbEntity
  8
KONSTRUKTIONSELEMENTE
100
AcDbLine
 62
7
  6
CONTINUOUS
 10
113.7764300982
 20
108.7157574992
 11
114.2801259476
 21
108.8595283059
  0
LINE
  5
314
100
AcDbEntity
  8
BEZUGSACHSEN
100
AcDbLine
 62
7
  6
CONTINUOUS
 10
91.3652961565
 20
214.4573476989
 11
100.4652961565
 21
214.4573476989
  0
LINE
  5
315
100
AcDbEntity
  8
0
100
AcDbLine
 62
7
  6
CONTINUOUS
 10
110.8806983694
 20
230.7573476989
 11
115.9152961565
 21
224.7573476989
  0
LINE
  5
316
100
AcDbEntity
  8
KONSTRUKTIONSELEMENTE
100
AcDbLine
 62
7
  6
CONTINUOUS
 10
115.9880760272
 20
103.0637832928
 11
116.7797105274
 21
103.5215004143
  0
LINE
  5
317
100
AcDbEntity
  8
KONSTRUKTIONSELEMENTE
100
AcDbLine
 62
7
  6
CONTINUOUS
 10
120.6487885491
 20
106.1397672798
 11
120.1691269152
 21
105.9292758637
  0
LINE
  5
318
100
AcDbEntity
  8
KONSTRUKTIONSELEMENTE
100
AcDbLine
 62
7
  6
CONTINUOUS
 10
110.8517794452
 20
100.604361804
 11
111.6044291816
 21
100.9112991951
  0
LINE
  5
319
100
AcDbEntity
  8
KONSTRUKTIONSELEMENTE
100
AcDbLine
 62
7
  6
CONTINUOUS
 10
119.7799613753
 20
106.5967823717
 11
120.1793368597
 21
106.7449993996
  0
LINE
  5
31A
100
AcDbEntity
  8
KONSTRUKTIONSELEMENTE
100
AcDbLine
 62
7
  6
CONTINUOUS
 10
115.484378159
 20
102.9200113318
 11
115.9880760272
 21
103.0637832928
  0
LINE
  5
31B
100
AcDbEntity
  8
BEZUGSACHSEN
100
AcDbLine
 62
7
  6
CENTER
 10
81.2152961565
 20
219.2573476989
 11
65.905829615
 21
219.2573476989
  0
LINE
  5
31C
100
AcDbEntity
  8
BEZUGSACHSEN
100
AcDbLine
 62
7
  6
CENTER
 10
81.2152961565
 20
219.2573476989
 11
119.8071291231
 21
219.2573476989
  0
LINE
  5
31D
100
AcDbEntity
  8
BEZUGSACHSEN
100
AcDbLine
 62
7
  6
CONTINUOUS
 10
91.3652961565
 20
224.0573476989
 11
100.4652961565
 21
224.0573476989
  0
LINE
  5
31E
100
AcDbEntity
  8
KONSTRUKTIONSELEMENTE
100
AcDbLine
 62
7
  6
CONTINUOUS
 10
110.8806983694
 20
230.7573476989
 11
106.7283771788
 21
230.7573476989
  0
LINE
  5
31F
100
AcDbEntity
  8
KONSTRUKTIONSELEMENTE
100
AcDbLine
 62
7
  6
CONTINUOUS
 10
265.0932313529
 20
91.4738267216
 11
262.4636862929
 21
91.0573476989
  0
LINE
  5
320
100
AcDbEntity
  8
0
100
AcDbLine
 62
7
  6
CONTINUOUS
 10
262.4636862929
 20
91.0573476989
 11
259.8341412329
 21
91.4738267216
  0
LINE
  5
321
100
AcDbEntity
  8
KONSTRUKTIONSELEMENTE
100
AcDbLine
 62
7
  6
CONTINUOUS
 10
267.8062351514
 20
100.604361804
 11
268.4184592115
 21
100.604361804
  0
LINE
  5
322
100
AcDbEntity
  8
KONSTRUKTIONSELEMENTE
100
AcDbLine
 62
7
  6
CONTINUOUS
 10
268.5011896188
 20
105.5462602385
 11
269.2167267406
 21
105.5462602385
  0
LINE
  5
323
100
AcDbEntity
  8
KONSTRUKTIONSELEMENTE
100
AcDbLine
 62
7
  6
CONTINUOUS
 10
268.5335619526
 20
105.7764635014
 11
269.2322703514
 21
105.7764635014
  0
LINE
  5
324
100
AcDbEntity
  8
KONSTRUKTIONSELEMENTE
100
AcDbLine
 62
7
  6
CONTINUOUS
 10
268.6906304674
 20
106.8507456877
 11
269.2848353615
 21
106.8507456877
  0
LINE
  5
325
100
AcDbEntity
  8
KONSTRUKTIONSELEMENTE
100
AcDbLine
 62
7
  6
CONTINUOUS
 10
268.8249131222
 20
107.0809489506
 11
269.2917707676
 21
107.0809489506
  0
LINE
  5
326
100
AcDbEntity
  8
0
100
AcDbLine
 62
7
  6
CONTINUOUS
 10
255.7229703798
 20
107.3698231333
 11
255.6875177468
 21
107.3842103324
  0
LINE
  5
327
100
AcDbEntity
  8
0
100
AcDbLine
 62
7
  6
CONTINUOUS
 10
255.7202497615
 20
107.3703717417
 11
255.7932083266
 21
107.3360810371
  0
LWPOLYLINE
  5
328
100
AcDbEntity
  8
0
100
AcDbPolyline
 62
7
  6
CONTINUOUS
 90
13
 70
0
 10
255.7932083266
 20
107.3360810371
 10
255.8952919931
 20
107.2747101901
 10
255.9845415819
 20
107.2054018743
 10
256.0580487057
 20
107.1338886513
 10
256.1163770752
 20
107.0643681379
 10
256.1595813118
 20
107.0024958288
 10
256.1912130119
 20
106.949032749
 10
256.2134007254
 20
106.9054603671
 10
256.2287787707
 20
106.8708954083
 10
256.2392654671
 20
106.8442543939
 10
256.246121635
 20
106.8247883215
 10
256.2504642503
 20
106.8111383106
 10
256.2528355233
 20
106.8029544964
  0
LINE
  5
329
100
AcDbEntity
  8
0
100
AcDbLine
 62
7
  6
CONTINUOUS
 10
252.9468221179
 20
225.5066640162
 11
251.5217993285
 21
223.2461150442
  0
LINE
  5
32A
100
AcDbEntity
  8
DEFAULT_2
100
AcDbLine
 62
8
  6
HIDDEN
 10
262.4636862929
 20
118.0573476989
 11
256.7039517981
 21
117.1450953745
  0
LINE
  5
32B
100
AcDbEntity
  8
KONSTRUKTIONSELEMENTE
100
AcDbLine
 62
8
  6
HIDDEN
 10
268.2234207878
 20
117.1450953745
 11
262.4636862929
 21
118.0573476989
  0
LWPOLYLINE
  5
32C
100
AcDbEntity
  8
KONSTRUKTIONSELEMENTE
100
AcDbPolyline
 62
8
  6
HIDDEN
 90
18
 70
0
 10
268.2234963845
 20
117.1450835176
 10
268.5727491034
 20
117.076244854
 10
268.9945820137
 20
116.9556137802
 10
269.3755687419
 20
116.8085491666
 10
269.7181555072
 20
116.6419401873
 10
270.0246217547
 20
116.4615718103
 10
270.2966871951
 20
116.2727406551
 10
270.5370463638
 20
116.0793993967
 10
270.746541706
 20
115.8864790578
 10
270.9269836397
 20
115.697962144
 10
271.0794545302
 20
115.5184783049
 10
271.2055614274
 20
115.3521350838
 10
271.3066678269
 20
115.2033997338
 10
271.3840838508
 20
115.0770057524
 10
271.4407087214
 20
114.9749048408
 10
271.4786532367
 20
114.8997276184
 10
271.5008998201
 20
114.8515710315
 10
271.5098029055
 20
114.8306787895
  0
LINE
  5
32D
100
AcDbEntity
  8
0
100
AcDbLine
 62
7
  6
CONTINUOUS
 10
250.6777879081
 20
213.8291444686
 11
248.7316063792
 21
210.45825918
  0
LINE
  5
32E
100
AcDbEntity
  8
AUSFORMSCHRAEGEN
100
AcDbLine
 62
7
  6
CONTINUOUS
 10
250.4408813446
 20
208.9177129213
 11
249.4636862929
 21
206.4051467406
  0
LINE
  5
32F
100
AcDbEntity
  8
0
100
AcDbLine
 62
7
  6
CONTINUOUS
 10
256.2528355233
 20
106.8029544964
 11
256.2537664696
 21
106.7994651578
  0
LINE
  5
330
100
AcDbEntity
  8
0
100
AcDbLine
 62
7
  6
CONTINUOUS
 10
248.4636862929
 20
209.4583708995
 11
248.4636862929
 21
179.3903976507
  0
LINE
  5
331
100
AcDbEntity
  8
KONSTRUKTIONSELEMENTE
100
AcDbLine
 62
7
  6
CONTINUOUS
 10
251.6072798324
 20
149.88914951
 11
249.6779270798
 21
156.1117656601
  0
LINE
  5
332
100
AcDbEntity
  8
0
100
AcDbLine
 62
7
  6
CONTINUOUS
 10
252.5659088141
 20
145.1808905636
 11
257.788322641
 21
125.6905768231
  0
LINE
  5
333
100
AcDbEntity
  8
0
100
AcDbLine
 62
7
  6
CONTINUOUS
 10
258.1664970054
 20
93.1706937433
 11
256.2466025151
 21
106.823276786
  0
LINE
  5
334
100
AcDbEntity
  8
KONSTRUKTIONSELEMENTE
100
AcDbLine
 62
7
  6
CONTINUOUS
 10
249.2905373373
 20
158.4945989383
 11
248.6077841324
 21
192.4272216156
  0
LINE
  5
335
100
AcDbEntity
  8
KONSTRUKTIONSELEMENTE
100
AcDbLine
 62
7
  6
CONTINUOUS
 10
249.9886182741
 20
160.3790548628
 11
249.9886182741
 21
160.9974853671
  0
LINE
  5
336
100
AcDbEntity
  8
AUSFORMSCHRAEGEN
100
AcDbLine
 62
7
  6
CONTINUOUS
 10
249.9886182741
 20
178.5062887668
 11
249.9886182741
 21
181.4443278444
  0
LINE
  5
337
100
AcDbEntity
  8
0
100
AcDbLine
 62
7
  6
CONTINUOUS
 10
251.2136862929
 20
222.1795699211
 11
251.2136862929
 21
215.82925887
  0
LINE
  5
338
100
AcDbEntity
  8
0
100
AcDbLine
 62
7
  6
CONTINUOUS
 10
252.4636862929
 20
148.1874781912
 11
252.4636862929
 21
112.058372869
  0
LINE
  5
339
100
AcDbEntity
  8
BEZUGSACHSEN
100
AcDbLine
 62
7
  6
CONTINUOUS
 10
251.4757389855
 20
163.6770658
 11
251.4686244141
 21
163.5455777453
  0
LINE
  5
33A
100
AcDbEntity
  8
AUSFORMSCHRAEGEN
100
AcDbLine
 62
7
  6
CONTINUOUS
 10
251.6971973803
 20
152.8880790638
 11
251.6110554281
 21
151.5383727378
  0
LINE
  5
33B
100
AcDbEntity
  8
0
100
AcDbLine
 62
7
  6
CONTINUOUS
 10
273.3163171577
 20
151.5383727378
 11
272.7547164093
 21
151.5383727378
  0
LINE
  5
33C
100
AcDbEntity
  8
AUSFORMSCHRAEGEN
100
AcDbLine
 62
7
  6
CONTINUOUS
 10
251.6110554281
 20
151.5383727378
 11
252.1726561765
 21
151.5383727378
  0
LINE
  5
33D
100
AcDbEntity
  8
KONSTRUKTIONSELEMENTE
100
AcDbLine
 62
7
  6
CONTINUOUS
 10
251.6072798324
 20
149.88914951
 11
251.8448841112
 21
149.0251256461
  0
LINE
  5
33E
100
AcDbEntity
  8
KONSTRUKTIONSELEMENTE
100
AcDbLine
 62
7
  6
CONTINUOUS
 10
252.1166088994
 20
149.6999788091
 11
251.6110554281
 21
151.5383727378
  0
LINE
  5
33F
100
AcDbEntity
  8
KONSTRUKTIONSELEMENTE
100
AcDbLine
 62
7
  6
CONTINUOUS
 10
250.328063386
 20
157.8667959862
 11
251.6971973803
 21
152.8880790638
  0
LWPOLYLINE
  5
340
100
AcDbEntity
  8
0
100
AcDbPolyline
 62
7
  6
CONTINUOUS
 90
3
 70
0
 10
255.8205247168
 20
133.034498702
 10
255.8257816608
 20
133.0137854911
 10
255.8352278477
 20
132.9685222044
  0
LWPOLYLINE
  5
341
100
AcDbEntity
  8
0
100
AcDbPolyline
 62
7
  6
CONTINUOUS
 90
3
 70
0
 10
255.8352278477
 20
132.9685222044
 10
255.8414278752
 20
132.9272212198
 10
255.8452982563
 20
132.887090723
  0
LINE
  5
342
100
AcDbEntity
  8
0
100
AcDbLine
 62
7
  6
CONTINUOUS
 10
255.8452982563
 20
132.887090723
 11
255.8471452579
 21
132.8460530945
  0
LINE
  5
343
100
AcDbEntity
  8
KONSTRUKTIONSELEMENTE
100
AcDbLine
 62
7
  6
CONTINUOUS
 10
257.9636862929
 20
182.8035099937
 11
257.9636862929
 21
199.9899788205
  0
LWPOLYLINE
  5
344
100
AcDbEntity
  8
0
100
AcDbPolyline
 62
7
  6
CONTINUOUS
 90
4
 70
0
 10
255.8471452579
 20
132.8460530945
 10
255.8468883276
 20
132.8026905292
 10
255.8441133493
 20
132.7548703379
 10
255.8427790186
 20
132.7403911046
  0
LINE
  5
345
100
AcDbEntity
  8
AUSFORMSCHRAEGEN
100
AcDbLine
 62
7
  6
CONTINUOUS
 10
253.3575588324
 20
153.6235981349
 11
253.8044344395
 21
154.5573640869
  0
LINE
  5
346
100
AcDbEntity
  8
0
100
AcDbLine
 62
7
  6
CONTINUOUS
 10
265.5091951297
 20
168.2741708006
 11
262.7236496224
 21
166.7071543225
  0
LINE
  5
347
100
AcDbEntity
  8
0
100
AcDbLine
 62
7
  6
CONTINUOUS
 10
273.2301752056
 20
152.8880790638
 11
272.7547164093
 21
152.8880790638
  0
LINE
  5
348
100
AcDbEntity
  8
AUSFORMSCHRAEGEN
100
AcDbLine
 62
7
  6
CONTINUOUS
 10
251.6971973803
 20
152.8880790638
 11
252.1726561765
 21
152.8880790638
  0
LWPOLYLINE
  5
349
100
AcDbEntity
  8
KONSTRUKTIONSELEMENTE
100
AcDbPolyline
 62
7
  6
CONTINUOUS
 90
19
 70
0
 10
271.5097975395
 20
114.8307167669
 10
271.5073302153
 20
114.8372067163
 10
271.4952083071
 20
114.8710212551
 10
271.4747597454
 20
114.9323045835
 10
271.4470786089
 20
115.0212806496
 10
271.4134748575
 20
115.1367884623
 10
271.3750370798
 20
115.2775965791
 10
271.3329365493
 20
115.4413612731
 10
271.288345505
 20
115.6248252313
 10
271.2418630872
 20
115.8263416795
 10
271.1942654511
 20
116.042995302
 10
271.1457600283
 20
116.2740382511
 10
271.0966595869
 20
116.5180634847
 10
271.0471270536
 20
116.7742359683
 10
270.9973404405
 20
117.0415378766
 10
270.947400305
 20
117.3192743543
 10
270.8974132876
 20
117.6066586292
 10
270.8474414594
 20
117.9031098176
 10
270.7975495523
 20
118.2079993431
  0
LINE
  5
34A
100
AcDbEntity
  8
BEZUGSACHSEN
100
AcDbLine
 62
7
  6
CONTINUOUS
 10
253.3479686824
 20
175.1560137342
 11
253.3262045752
 21
175.3295217233
  0
LINE
  5
34B
100
AcDbEntity
  8
0
100
AcDbLine
 62
7
  6
CONTINUOUS
 10
258.4636862929
 20
183.3945825917
 11
258.4636862929
 21
199.9899788205
  0
LINE
  5
34C
100
AcDbEntity
  8
0
100
AcDbLine
 62
7
  6
CONTINUOUS
 10
259.1291951297
 20
162.7734288152
 11
259.1291951297
 21
166.0526070529
  0
LINE
  5
34D
100
AcDbEntity
  8
0
100
AcDbLine
 62
7
  6
CONTINUOUS
 10
259.1291951297
 20
168.9899098285
 11
259.1291951297
 21
170.3495790386
  0
LINE
  5
34E
100
AcDbEntity
  8
0
100
AcDbLine
 62
7
  6
CONTINUOUS
 10
259.1291951297
 20
172.7314908773
 11
259.1291951297
 21
174.0911600874
  0
LINE
  5
34F
100
AcDbEntity
  8
0
100
AcDbLine
 62
7
  6
CONTINUOUS
 10
259.1291951297
 20
175.2258782431
 11
259.1291951297
 21
178.1347958562
  0
LINE
  5
350
100
AcDbEntity
  8
0
100
AcDbLine
 62
7
  6
CONTINUOUS
 10
260.1891951297
 20
162.7734288152
 11
260.1891951297
 21
165.6238842244
  0
LINE
  5
351
100
AcDbEntity
  8
0
100
AcDbLine
 62
7
  6
CONTINUOUS
 10
260.1891951297
 20
175.2258782431
 11
260.1891951297
 21
177.8749136672
  0
LINE
  5
352
100
AcDbEntity
  8
0
100
AcDbLine
 62
7
  6
CONTINUOUS
 10
260.8291951297
 20
162.7734288152
 11
260.8291951297
 21
163.918736611
  0
LINE
  5
353
100
AcDbEntity
  8
0
100
AcDbLine
 62
7
  6
CONTINUOUS
 10
260.8291951297
 20
175.2258782431
 11
260.8291951297
 21
176.5855474532
  0
LINE
  5
354
100
AcDbEntity
  8
0
100
AcDbLine
 62
7
  6
CONTINUOUS
 10
261.5223918797
 20
179.0583465828
 11
261.5223918797
 21
179.17082211
  0
LINE
  5
355
100
AcDbEntity
  8
0
100
AcDbLine
 62
7
  6
CONTINUOUS
 10
261.7891951297
 20
165.6238842244
 11
261.7891951297
 21
163.918736611
  0
LINE
  5
356
100
AcDbEntity
  8
BG_STARTBEZUEGE
100
AcDbLine
 62
7
  6
CENTER
 10
262.4636862929
 20
219.2573476989
 11
262.4636862929
 21
88.964731679
  0
LINE
  5
357
100
AcDbEntity
  8
0
100
AcDbLine
 62
7
  6
CONTINUOUS
 10
262.4636862929
 20
157.9573476989
 11
262.4636862929
 21
157.0440380074
  0
LINE
  5
358
100
AcDbEntity
  8
BG_STARTBEZUEGE
100
AcDbLine
 62
7
  6
CENTER
 10
262.4636862929
 20
219.2573476989
 11
262.4636862929
 21
232.2287119505
  0
LINE
  5
359
100
AcDbEntity
  8
0
100
AcDbLine
 62
7
  6
CONTINUOUS
 10
262.8491951297
 20
163.918736611
 11
262.8491951297
 21
164.9888623365
  0
LINE
  5
35A
100
AcDbEntity
  8
0
100
AcDbLine
 62
7
  6
CONTINUOUS
 10
255.6229869581
 20
130.5421835902
 11
255.6235074916
 21
130.5477153546
  0
LINE
  5
35B
100
AcDbEntity
  8
0
100
AcDbLine
 62
7
  6
CONTINUOUS
 10
255.8427772714
 20
132.7403736239
 11
255.6235074916
 21
130.5477153546
  0
LINE
  5
35C
100
AcDbEntity
  8
0
100
AcDbLine
 62
7
  6
CONTINUOUS
 10
255.6229867185
 20
130.5421837219
 11
255.394621045
 21
128.3454471497
  0
LINE
  5
35D
100
AcDbEntity
  8
0
100
AcDbLine
 62
7
  6
CONTINUOUS
 10
255.394621045
 20
128.3454471497
 11
255.2402935177
 21
126.9079682229
  0
LINE
  5
35E
100
AcDbEntity
  8
0
100
AcDbLine
 62
7
  6
CONTINUOUS
 10
255.2402935177
 20
126.9079682229
 11
255.0743873095
 21
125.4129547168
  0
LINE
  5
35F
100
AcDbEntity
  8
0
100
AcDbLine
 62
7
  6
CONTINUOUS
 10
255.0743873095
 20
125.4129547168
 11
254.9427797101
 21
124.2681284919
  0
LINE
  5
360
100
AcDbEntity
  8
0
100
AcDbLine
 62
7
  6
CONTINUOUS
 10
254.9427797101
 20
124.2681284919
 11
254.8060520978
 21
123.1211638387
  0
LINE
  5
361
100
AcDbEntity
  8
0
100
AcDbLine
 62
7
  6
CONTINUOUS
 10
254.8060520978
 20
123.1211638387
 11
254.6652881997
 21
121.989318515
  0
LINE
  5
362
100
AcDbEntity
  8
0
100
AcDbLine
 62
7
  6
CONTINUOUS
 10
254.6652881997
 20
121.989318515
 11
254.569761731
 21
121.2515257635
  0
LINE
  5
363
100
AcDbEntity
  8
0
100
AcDbLine
 62
7
  6
CONTINUOUS
 10
254.569761731
 20
121.2515257635
 11
254.4732118207
 21
120.5321948237
  0
LINE
  5
364
100
AcDbEntity
  8
0
100
AcDbLine
 62
7
  6
CONTINUOUS
 10
254.4732118207
 20
120.5321948237
 11
254.3756953707
 21
119.8338708717
  0
LINE
  5
365
100
AcDbEntity
  8
0
100
AcDbLine
 62
7
  6
CONTINUOUS
 10
254.3756953707
 20
119.8338708717
 11
254.2772729492
 21
119.1591576901
  0
LWPOLYLINE
  5
366
100
AcDbEntity
  8
0
100
AcDbPolyline
 62
7
  6
CONTINUOUS
 90
19
 70
0
 10
254.2772729492
 20
119.1591576901
 10
254.1780627174
 20
118.5110656622
 10
254.1282201124
 20
118.198067555
 10
254.0782685451
 20
117.8931019259
 10
254.0282481165
 20
117.5966680708
 10
253.9782256014
 20
117.3094007844
 10
253.9282651181
 20
117.0318855208
 10
253.8784754267
 20
116.7649118081
 10
253.8289592336
 20
116.5091755536
 10
253.7798966602
 20
116.2656928985
 10
253.7314526889
 20
116.0352949917
 10
253.683942534
 20
115.8193837165
 10
253.6375769546
 20
115.6187039792
 10
253.5931308078
 20
115.4361426666
 10
253.5512073653
 20
115.2733414685
 10
253.5129632101
 20
115.133476029
 10
253.479557178
 20
115.0188352578
 10
253.4520747215
 20
114.9306382956
 10
253.439924787
 20
114.8937550068
  0
LINE
  5
367
100
AcDbEntity
  8
0
100
AcDbLine
 62
7
  6
CONTINUOUS
 10
257.0362235421
 20
156.428269462
 11
252.7447629318
 21
147.2252024841
  0
LINE
  5
368
100
AcDbEntity
  8
AUSFORMSCHRAEGEN
100
AcDbLine
 62
7
  6
CONTINUOUS
 10
253.9852717506
 20
152.6635397012
 11
254.4321473577
 21
153.5973056531
  0
LINE
  5
369
100
AcDbEntity
  8
0
100
AcDbLine
 62
7
  6
CONTINUOUS
 10
263.3791951297
 20
165.883321319
 11
265.5091951297
 21
167.0815588239
  0
LINE
  5
36A
100
AcDbEntity
  8
0
100
AcDbLine
 62
7
  6
CONTINUOUS
 10
263.3791951297
 20
165.7708457919
 11
265.5091951297
 21
166.9690832967
  0
LWPOLYLINE
  5
36B
100
AcDbEntity
  8
0
100
AcDbPolyline
 62
7
  6
CONTINUOUS
 90
11
 70
0
 10
258.1610334492
 20
157.2758743676
 10
258.1309760974
 20
157.2708001592
 10
257.9758365765
 20
157.2343860116
 10
257.8254356918
 20
157.1817190678
 10
257.6814709085
 20
157.113393771
 10
257.5455670472
 20
157.0301812882
 10
257.4192579449
 20
156.9330208047
 10
257.3039691444
 20
156.8230089234
 10
257.2010018108
 20
156.701387293
 10
257.1115180407
 20
156.5695285894
 10
257.0365277444
 20
156.4289210177
  0
LINE
  5
36C
100
AcDbEntity
  8
0
100
AcDbLine
 62
7
  6
CONTINUOUS
 10
258.1610000221
 20
157.275869142
 11
262.4636862929
 21
157.9573476989
  0
LINE
  5
36D
100
AcDbEntity
  8
0
100
AcDbLine
 62
7
  6
CONTINUOUS
 10
258.9636862929
 20
157.7599293878
 11
261.2172361319
 21
157.7599293878
  0
LINE
  5
36E
100
AcDbEntity
  8
0
100
AcDbLine
 62
7
  6
CONTINUOUS
 10
263.710136454
 20
157.7599293878
 11
265.9636862929
 21
157.7599293878
  0
LINE
  5
36F
100
AcDbEntity
  8
KONSTRUKTIONSELEMENTE
100
AcDbLine
 62
7
  6
CONTINUOUS
 10
262.4636862929
 20
157.9573476989
 11
266.7663725638
 21
157.275869142
  0
LINE
  5
370
100
AcDbEntity
  8
KONSTRUKTIONSELEMENTE
100
AcDbLine
 62
7
  6
CONTINUOUS
 10
269.7271341667
 20
126.5420976839
 11
269.5700832262
 21
127.9938902825
  0
LINE
  5
371
100
AcDbEntity
  8
KONSTRUKTIONSELEMENTE
100
AcDbLine
 62
7
  6
CONTINUOUS
 10
269.5700832262
 20
127.9938902825
 11
269.3894464091
 21
129.7140404136
  0
LINE
  5
372
100
AcDbEntity
  8
KONSTRUKTIONSELEMENTE
100
AcDbLine
 62
7
  6
CONTINUOUS
 10
269.3894464091
 20
129.7140404136
 11
269.3043857698
 21
130.5421848303
  0
LINE
  5
373
100
AcDbEntity
  8
KONSTRUKTIONSELEMENTE
100
AcDbLine
 62
7
  6
CONTINUOUS
 10
269.3038650942
 20
130.5477153546
 11
269.0845953144
 21
132.7403736239
  0
LINE
  5
374
100
AcDbEntity
  8
KONSTRUKTIONSELEMENTE
100
AcDbLine
 62
7
  6
CONTINUOUS
 10
269.3043855302
 20
130.5421846985
 11
269.3038650942
 21
130.5477153546
  0
LINE
  5
375
100
AcDbEntity
  8
KONSTRUKTIONSELEMENTE
100
AcDbLine
 62
7
  6
CONTINUOUS
 10
269.0845935673
 20
132.7403911046
 11
269.0832592365
 21
132.7548703379
  0
LINE
  5
376
100
AcDbEntity
  8
KONSTRUKTIONSELEMENTE
100
AcDbLine
 62
7
  6
CONTINUOUS
 10
269.0832592365
 20
132.7548703379
 11
269.0804842583
 21
132.8026905292
  0
LINE
  5
377
100
AcDbEntity
  8
0
100
AcDbLine
 62
7
  6
CONTINUOUS
 10
264.4491951297
 20
177.8749099238
 11
264.4491951297
 21
176.5855474532
  0
LINE
  5
378
100
AcDbEntity
  8
0
100
AcDbLine
 62
7
  6
CONTINUOUS
 10
265.5091951297
 20
162.7734288152
 11
265.5091951297
 21
163.918736611
  0
LINE
  5
379
100
AcDbEntity
  8
0
100
AcDbLine
 62
7
  6
CONTINUOUS
 10
265.5091951297
 20
166.9690832967
 11
265.5091951297
 21
168.2741708006
  0
LINE
  5
37A
100
AcDbEntity
  8
0
100
AcDbLine
 62
7
  6
CONTINUOUS
 10
265.5091951297
 20
175.2258782431
 11
265.5091951297
 21
178.1347958562
  0
LINE
  5
37B
100
AcDbEntity
  8
KONSTRUKTIONSELEMENTE
100
AcDbLine
 62
7
  6
CONTINUOUS
 10
266.4636862929
 20
183.3945825917
 11
266.4636862929
 21
199.9899788205
  0
LINE
  5
37C
100
AcDbEntity
  8
0
100
AcDbLine
 62
7
  6
CONTINUOUS
 10
266.9636862929
 20
182.8035099937
 11
266.9636862929
 21
199.9899788205
  0
LINE
  5
37D
100
AcDbEntity
  8
0
100
AcDbLine
 62
7
  6
CONTINUOUS
 10
259.1291951297
 20
162.7734288152
 11
260.1891951297
 21
162.7734288152
  0
LINE
  5
37E
100
AcDbEntity
  8
0
100
AcDbLine
 62
7
  6
CONTINUOUS
 10
260.8291951297
 20
162.7734288152
 11
265.5091951297
 21
162.7734288152
  0
LINE
  5
37F
100
AcDbEntity
  8
0
100
AcDbLine
 62
7
  6
CONTINUOUS
 10
259.1291951297
 20
162.8859043423
 11
260.1891951297
 21
162.8859043423
  0
LINE
  5
380
100
AcDbEntity
  8
0
100
AcDbLine
 62
7
  6
CONTINUOUS
 10
260.8291951297
 20
162.8859043423
 11
265.5091951297
 21
162.8859043423
  0
LINE
  5
381
100
AcDbEntity
  8
0
100
AcDbLine
 62
7
  6
CONTINUOUS
 10
265.5091951297
 20
163.918736611
 11
262.8491951297
 21
163.918736611
  0
LINE
  5
382
100
AcDbEntity
  8
0
100
AcDbLine
 62
7
  6
CONTINUOUS
 10
261.7891951297
 20
163.918736611
 11
260.8291951297
 21
163.918736611
  0
LWPOLYLINE
  5
383
100
AcDbEntity
  8
KONSTRUKTIONSELEMENTE
100
AcDbPolyline
 62
7
  6
CONTINUOUS
 90
11
 70
0
 10
267.8908528039
 20
156.4289039632
 10
267.8164141515
 20
156.5686007932
 10
267.727668543
 20
156.6996754389
 10
267.6256042376
 20
156.8206682183
 10
267.5113578206
 20
156.9302317146
 10
267.3862015437
 20
157.0271457855
 10
267.2515291535
 20
157.1103311557
 10
267.1088403747
 20
157.178861432
 10
266.9597242091
 20
157.2319734203
 10
266.8058412401
 20
157.2690756269
 10
266.7663391366
 20
157.2758743676
  0
LINE
  5
384
100
AcDbEntity
  8
0
100
AcDbLine
 62
7
  6
CONTINUOUS
 10
270.9421008353
 20
152.6635397012
 11
270.4952252281
 21
153.5973056531
  0
LINE
  5
385
100
AcDbEntity
  8
0
100
AcDbLine
 62
7
  6
CONTINUOUS
 10
271.5698137535
 20
153.6235981349
 11
271.1229381463
 21
154.5573640869
  0
LINE
  5
386
100
AcDbEntity
  8
KONSTRUKTIONSELEMENTE
100
AcDbLine
 62
7
  6
CONTINUOUS
 10
267.8911490436
 20
156.4282694622
 11
272.182609654
 21
147.2252024841
  0
LINE
  5
387
100
AcDbEntity
  8
KONSTRUKTIONSELEMENTE
100
AcDbLine
 62
7
  6
CONTINUOUS
 10
270.7975495523
 20
118.2079993431
 11
270.6981590438
 21
118.8411041251
  0
LINE
  5
388
100
AcDbEntity
  8
KONSTRUKTIONSELEMENTE
100
AcDbLine
 62
7
  6
CONTINUOUS
 10
270.6981590438
 20
118.8411041251
 11
270.5994882705
 21
119.502250909
  0
LINE
  5
389
100
AcDbEntity
  8
KONSTRUKTIONSELEMENTE
100
AcDbLine
 62
7
  6
CONTINUOUS
 10
270.5994882705
 20
119.502250909
 11
270.5016785701
 21
120.1882926791
  0
LINE
  5
38A
100
AcDbEntity
  8
KONSTRUKTIONSELEMENTE
100
AcDbLine
 62
7
  6
CONTINUOUS
 10
270.5016785701
 20
120.1882926791
 11
270.4047992624
 21
120.8965648491
  0
LINE
  5
38B
100
AcDbEntity
  8
KONSTRUKTIONSELEMENTE
100
AcDbLine
 62
7
  6
CONTINUOUS
 10
270.4047992624
 20
120.8965648491
 11
270.3088783467
 21
121.6247444222
  0
LINE
  5
38C
100
AcDbEntity
  8
KONSTRUKTIONSELEMENTE
100
AcDbLine
 62
7
  6
CONTINUOUS
 10
270.3088783467
 20
121.6247444222
 11
270.1671773021
 21
122.7467939925
  0
LINE
  5
38D
100
AcDbEntity
  8
KONSTRUKTIONSELEMENTE
100
AcDbLine
 62
7
  6
CONTINUOUS
 10
270.1671773021
 20
122.7467939925
 11
270.0290913153
 21
123.889930124
  0
LINE
  5
38E
100
AcDbEntity
  8
KONSTRUKTIONSELEMENTE
100
AcDbLine
 62
7
  6
CONTINUOUS
 10
270.0290913153
 20
123.889930124
 11
269.895746761
 21
125.0368065471
  0
LINE
  5
38F
100
AcDbEntity
  8
KONSTRUKTIONSELEMENTE
100
AcDbLine
 62
7
  6
CONTINUOUS
 10
269.895746761
 20
125.0368065471
 11
269.7271341667
 21
126.5420976839
  0
LINE
  5
390
100
AcDbEntity
  8
KONSTRUKTIONSELEMENTE
100
AcDbLine
 62
7
  6
CONTINUOUS
 10
269.0804842583
 20
132.8026905292
 11
269.080227328
 21
132.8460530945
  0
LINE
  5
391
100
AcDbEntity
  8
KONSTRUKTIONSELEMENTE
100
AcDbLine
 62
7
  6
CONTINUOUS
 10
272.4636862929
 20
148.1874781912
 11
272.4636862929
 21
112.0583728749
  0
LINE
  5
392
100
AcDbEntity
  8
KONSTRUKTIONSELEMENTE
100
AcDbLine
 62
7
  6
CONTINUOUS
 10
269.080227328
 20
132.8460530945
 11
269.0820743296
 21
132.887090723
  0
LWPOLYLINE
  5
393
100
AcDbEntity
  8
KONSTRUKTIONSELEMENTE
100
AcDbPolyline
 62
7
  6
CONTINUOUS
 90
4
 70
0
 10
269.0820743296
 20
132.887090723
 10
269.0859447107
 20
132.9272212198
 10
269.0921447381
 20
132.9685222044
 10
269.101590925
 20
133.0137854911
  0
LINE
  5
394
100
AcDbEntity
  8
0
100
AcDbLine
 62
7
  6
CONTINUOUS
 10
271.5794039034
 20
175.1560137342
 11
271.6011680106
 21
175.3295217233
  0
LWPOLYLINE
  5
395
100
AcDbEntity
  8
DEFAULT_2
100
AcDbPolyline
 62
8
  6
HIDDEN
 90
21
 70
0
 10
253.439924787
 20
114.8937550068
 10
253.4318176471
 20
114.8700229336
 10
253.419892081
 20
114.8368054668
 10
253.4176303578
 20
114.8308285319
 10
253.4267595048
 20
114.8522216671
 10
253.449249234
 20
114.9008290581
 10
253.4874436942
 20
114.9763830884
 10
253.5443025423
 20
115.0787490107
 10
253.6219603928
 20
115.2053495535
 10
253.7233307136
 20
115.3542550889
 10
253.8497812126
 20
115.5208030491
 10
254.0027652711
 20
115.700600752
 10
254.1838866637
 20
115.889479942
 10
254.3942581491
 20
116.0827880727
 10
254.635645156
 20
116.2764522914
 10
254.9088544759
 20
116.465481676
 10
255.2164907074
 20
116.6458446242
 10
255.5601750328
 20
116.8121965526
 10
255.9420689571
 20
116.9587292923
 10
256.3644484785
 20
117.0785565713
 10
256.7038701384
 20
117.1450825589
  0
LINE
  5
396
100
AcDbEntity
  8
0
100
AcDbLine
 62
7
  6
CONTINUOUS
 10
259.1291951297
 20
168.9899098285
 11
262.9491951297
 21
168.9899098285
  0
LINE
  5
397
100
AcDbEntity
  8
0
100
AcDbLine
 62
7
  6
CONTINUOUS
 10
259.1291951297
 20
169.1023853557
 11
262.9491951297
 21
169.1023853557
  0
LINE
  5
398
100
AcDbEntity
  8
0
100
AcDbLine
 62
7
  6
CONTINUOUS
 10
262.9491951297
 20
170.3495790386
 11
259.1291951297
 21
170.3495790386
  0
LINE
  5
399
100
AcDbEntity
  8
0
100
AcDbLine
 62
7
  6
CONTINUOUS
 10
273.2301752056
 20
152.8880790638
 11
273.3163171577
 21
151.5383727378
  0
LINE
  5
39A
100
AcDbEntity
  8
0
100
AcDbLine
 62
7
  6
CONTINUOUS
 10
273.4516336003
 20
163.6770658
 11
273.4587481717
 21
163.5455777453
  0
LINE
  5
39B
100
AcDbEntity
  8
RUNDUNGEN
100
AcDbLine
 62
7
  6
CONTINUOUS
 10
273.7136862929
 20
222.1795699211
 11
273.7136862929
 21
215.8291444686
  0
LINE
  5
39C
100
AcDbEntity
  8
0
100
AcDbLine
 62
7
  6
CONTINUOUS
 10
274.9387543118
 20
160.3790548628
 11
274.9387543118
 21
160.9974853671
  0
LINE
  5
39D
100
AcDbEntity
  8
0
100
AcDbLine
 62
7
  6
CONTINUOUS
 10
274.9387543118
 20
178.5062887668
 11
274.9387543118
 21
181.4443278444
  0
LINE
  5
39E
100
AcDbEntity
  8
RUNDUNGEN
100
AcDbLine
 62
7
  6
CONTINUOUS
 10
276.4636862929
 20
209.4583708995
 11
276.4636862929
 21
179.3903976507
  0
LINE
  5
39F
100
AcDbEntity
  8
0
100
AcDbLine
 62
7
  6
CONTINUOUS
 10
275.6368352485
 20
158.4945989383
 11
276.3195884534
 21
192.4272216156
  0
LINE
  5
3A0
100
AcDbEntity
  8
KONSTRUKTIONSELEMENTE
100
AcDbLine
 62
7
  6
CONTINUOUS
 10
268.680755421
 20
106.8231726095
 11
266.7608755804
 21
93.1706937433
  0
LINE
  5
3A1
100
AcDbEntity
  8
KONSTRUKTIONSELEMENTE
100
AcDbLine
 62
7
  6
CONTINUOUS
 10
269.101590925
 20
133.0137854911
 11
269.1068478691
 21
133.034498702
  0
LINE
  5
3A2
100
AcDbEntity
  8
KONSTRUKTIONSELEMENTE
100
AcDbLine
 62
7
  6
CONTINUOUS
 10
272.3614637718
 20
145.1808905636
 11
267.1390499448
 21
125.6905768231
  0
LINE
  5
3A3
100
AcDbEntity
  8
0
100
AcDbLine
 62
7
  6
CONTINUOUS
 10
274.5993091998
 20
157.8667959862
 11
273.2301752056
 21
152.8880790638
  0
LINE
  5
3A4
100
AcDbEntity
  8
0
100
AcDbLine
 62
7
  6
CONTINUOUS
 10
272.8107636864
 20
149.6999788091
 11
273.3163171577
 21
151.5383727378
  0
LINE
  5
3A5
100
AcDbEntity
  8
0
100
AcDbLine
 62
7
  6
CONTINUOUS
 10
273.3200927535
 20
149.88914951
 11
273.0824884746
 21
149.0251256461
  0
LINE
  5
3A6
100
AcDbEntity
  8
0
100
AcDbLine
 62
7
  6
CONTINUOUS
 10
273.3200927535
 20
149.88914951
 11
275.249445506
 21
156.1117656601
  0
LINE
  5
3A7
100
AcDbEntity
  8
0
100
AcDbLine
 62
7
  6
CONTINUOUS
 10
259.1291951297
 20
172.7314908773
 11
262.9491951297
 21
172.7314908773
  0
LINE
  5
3A8
100
AcDbEntity
  8
0
100
AcDbLine
 62
7
  6
CONTINUOUS
 10
259.1291951297
 20
172.8439664045
 11
262.9491951297
 21
172.8439664045
  0
LINE
  5
3A9
100
AcDbEntity
  8
0
100
AcDbLine
 62
7
  6
CONTINUOUS
 10
262.9491951297
 20
174.0911600874
 11
259.1291951297
 21
174.0911600874
  0
LINE
  5
3AA
100
AcDbEntity
  8
0
100
AcDbLine
 62
7
  6
CONTINUOUS
 10
259.1291951297
 20
175.2258782431
 11
260.1891951297
 21
175.2258782431
  0
LINE
  5
3AB
100
AcDbEntity
  8
0
100
AcDbLine
 62
7
  6
CONTINUOUS
 10
260.8291951297
 20
175.2258782431
 11
265.5091951297
 21
175.2258782431
  0
LINE
  5
3AC
100
AcDbEntity
  8
0
100
AcDbLine
 62
7
  6
CONTINUOUS
 10
259.1291951297
 20
175.3383537703
 11
260.1891951297
 21
175.3383537703
  0
LINE
  5
3AD
100
AcDbEntity
  8
0
100
AcDbLine
 62
7
  6
CONTINUOUS
 10
260.8291951297
 20
175.3383537703
 11
265.5091951297
 21
175.3383537703
  0
LINE
  5
3AE
100
AcDbEntity
  8
KONSTRUKTIONSELEMENTE
100
AcDbLine
 62
7
  6
CONTINUOUS
 10
268.6744589938
 20
106.8032004614
 11
268.6737253067
 21
106.799975832
  0
LINE
  5
3AF
100
AcDbEntity
  8
0
100
AcDbLine
 62
7
  6
CONTINUOUS
 10
264.4491951297
 20
176.5855474532
 11
260.8291951297
 21
176.5855474532
  0
LINE
  5
3B0
100
AcDbEntity
  8
0
100
AcDbLine
 62
7
  6
CONTINUOUS
 10
261.5223918797
 20
179.0583465828
 11
263.1191951297
 21
179.0583465828
  0
LINE
  5
3B1
100
AcDbEntity
  8
0
100
AcDbLine
 62
7
  6
CONTINUOUS
 10
261.5223918797
 20
179.17082211
 11
263.1191951297
 21
179.17082211
  0
LINE
  5
3B2
100
AcDbEntity
  8
0
100
AcDbLine
 62
7
  6
CONTINUOUS
 10
263.1691951297
 20
180.4148218078
 11
261.4691951297
 21
180.4148218078
  0
LWPOLYLINE
  5
3B3
100
AcDbEntity
  8
KONSTRUKTIONSELEMENTE
100
AcDbPolyline
 62
7
  6
CONTINUOUS
 90
9
 70
0
 10
268.6736213909
 20
106.799525173
 10
268.6747063587
 20
106.8035656432
 10
268.677264378
 20
106.8123119506
 10
268.6818397226
 20
106.8265458795
 10
268.6889878668
 20
106.8466187721
 10
268.6997455821
 20
106.8736467549
 10
268.7153031568
 20
106.9082596095
 10
268.7373642584
 20
106.951233731
 10
268.7681581775
 20
107.003069434
  0
LINE
  5
3B4
100
AcDbEntity
  8
KONSTRUKTIONSELEMENTE
100
AcDbLine
 62
7
  6
CONTINUOUS
 10
262.4636862929
 20
184.7589126197
 11
266.4636862929
 21
185.392450381
  0
LINE
  5
3B5
100
AcDbEntity
  8
0
100
AcDbLine
 62
7
  6
CONTINUOUS
 10
266.9636862929
 20
182.8035099937
 11
257.9636862929
 21
182.8035099937
  0
LINE
  5
3B6
100
AcDbEntity
  8
0
100
AcDbLine
 62
7
  6
CONTINUOUS
 10
266.9636862929
 20
183.3945825917
 11
257.9636862929
 21
183.3945825917
  0
LINE
  5
3B7
100
AcDbEntity
  8
0
100
AcDbLine
 62
7
  6
CONTINUOUS
 10
258.4636862929
 20
185.392450381
 11
262.4636862929
 21
184.7589126197
  0
LINE
  5
3B8
100
AcDbEntity
  8
0
100
AcDbLine
 62
7
  6
CONTINUOUS
 10
274.4864912413
 20
208.9177129213
 11
275.4636862929
 21
206.4051467406
  0
LINE
  5
3B9
100
AcDbEntity
  8
KONSTRUKTIONSELEMENTE
100
AcDbLine
 62
7
  6
CONTINUOUS
 10
257.9636862929
 20
192.6589126197
 11
258.4636862929
 21
192.6589126197
  0
LINE
  5
3BA
100
AcDbEntity
  8
KONSTRUKTIONSELEMENTE
100
AcDbLine
 62
7
  6
CONTINUOUS
 10
266.4636862929
 20
192.6589126197
 11
266.9636862929
 21
192.6589126197
  0
LWPOLYLINE
  5
3BB
100
AcDbEntity
  8
KONSTRUKTIONSELEMENTE
100
AcDbPolyline
 62
7
  6
CONTINUOUS
 90
6
 70
0
 10
268.7681581775
 20
107.003069434
 10
268.8098072293
 20
107.0628019075
 10
268.8656656141
 20
107.1299058197
 10
268.9361728856
 20
107.1995258977
 10
269.0223364077
 20
107.2679241442
 10
269.1221347981
 20
107.3297050621
  0
LINE
  5
3BC
100
AcDbEntity
  8
RUNDUNGEN
100
AcDbLine
 62
7
  6
CONTINUOUS
 10
274.2495846778
 20
213.8291444686
 11
276.1957662066
 21
210.45825918
  0
LINE
  5
3BD
100
AcDbEntity
  8
0
100
AcDbLine
 62
7
  6
CONTINUOUS
 10
257.9636862929
 20
199.9899788205
 11
266.9636862929
 21
199.9899788205
  0
LINE
  5
3BE
100
AcDbEntity
  8
RUNDUNGEN
100
AcDbLine
 62
7
  6
CONTINUOUS
 10
271.9805504679
 20
225.5066640162
 11
273.4055732574
 21
223.2461150442
  0
LINE
  5
3BF
100
AcDbEntity
  8
KONSTRUKTIONSELEMENTE
100
AcDbLine
 62
7
  6
CONTINUOUS
 10
274.407790756
 20
209.0202326621
 11
250.5195818298
 21
209.0202326621
  0
LINE
  5
3C0
100
AcDbEntity
  8
KONSTRUKTIONSELEMENTE
100
AcDbLine
 62
7
  6
CONTINUOUS
 10
269.1221347981
 20
107.3297050621
 11
269.2071396818
 21
107.3703788344
  0
LINE
  5
3C1
100
AcDbEntity
  8
KONSTRUKTIONSELEMENTE
100
AcDbLine
 62
7
  6
CONTINUOUS
 10
269.2044186265
 20
107.3698301623
 11
269.2398548391
 21
107.3842103324
  0
LINE
  5
3C2
100
AcDbEntity
  8
BG_STARTBEZUEGE
100
AcDbLine
 62
7
  6
CENTER
 10
262.4636862929
 20
219.2573476989
 11
251.7234673929
 21
219.2573476989
  0
LINE
  5
3C3
100
AcDbEntity
  8
BG_STARTBEZUEGE
100
AcDbLine
 62
7
  6
CENTER
 10
262.4636862929
 20
219.2573476989
 11
274.8915698131
 21
219.2573476989
  0
ARC
  5
3C4
100
AcDbEntity
  8
0
100
AcDbCircle
 62
7
  6
CONTINUOUS
 10
25.4152961565
 20
125.2573476989
 40
49.9682077433
100
AcDbArc
 50
20.0
 51
31.8875180723
  0
ARC
  5
3C5
100
AcDbEntity
  8
KONSTRUKTIONSELEMENTE
100
AcDbCircle
 62
7
  6
CONTINUOUS
 10
25.4152961565
 20
125.2573476989
 40
49.5722466425
100
AcDbArc
 50
23.7003270332
 51
31.5888054721
  0
ARC
  5
3C6
100
AcDbEntity
  8
0
100
AcDbCircle
 62
7
  6
CONTINUOUS
 10
48.6575065482
 20
185.9433489312
 40
20.0
100
AcDbArc
 50
347.0
 51
41.7816955669
  0
ARC
  5
3C7
100
AcDbEntity
  8
0
100
AcDbCircle
 62
7
  6
CONTINUOUS
 10
53.7950933652
 20
172.4446288744
 40
14.9551616551
100
AcDbArc
 50
346.988671918
 51
23.9114835016
  0
ARC
  5
3C8
100
AcDbEntity
  8
0
100
AcDbCircle
 62
7
  6
CONTINUOUS
 10
53.7937631062
 20
172.438866816
 40
14.9551616551
100
AcDbArc
 50
310.0885163085
 51
347.0113278921
  0
ARC
  5
3C9
100
AcDbEntity
  8
0
100
AcDbCircle
 62
7
  6
CONTINUOUS
 10
65.4152961565
 20
146.651733162
 40
12.0
100
AcDbArc
 50
120.0
 51
188.7088912192
  0
ARC
  5
3CA
100
AcDbEntity
  8
0
100
AcDbCircle
 62
7
  6
CONTINUOUS
 10
61.8010425226
 20
154.9573476989
 40
3.0
100
AcDbArc
 50
72.7328637998
 51
120.0
  0
ARC
  5
3CB
100
AcDbEntity
  8
KONSTRUKTIONSELEMENTE
100
AcDbCircle
 62
7
  6
CONTINUOUS
 10
68.0962078024
 20
143.9952329652
 40
2.9592545985
100
AcDbArc
 50
23.6651470695
 51
75.0351799195
  0
ARC
  5
3CC
100
AcDbEntity
  8
0
100
AcDbCircle
 62
7
  6
CONTINUOUS
 10
65.7522179759
 20
163.5232498859
 40
1.0
100
AcDbArc
 50
70.3694644244
 51
216.9897545993
  0
ARC
  5
3CD
100
AcDbEntity
  8
0
100
AcDbCircle
 62
7
  6
CONTINUOUS
 10
65.5200610392
 20
165.6294557535
 40
1.0
100
AcDbArc
 50
81.6023344065
 51
218.4819254619
  0
ARC
  5
3CE
100
AcDbEntity
  8
0
100
AcDbCircle
 62
7
  6
CONTINUOUS
 10
67.7238292645
 20
167.1732839852
 40
1.0
100
AcDbArc
 50
84.9883551886
 51
233.77453068
  0
ARC
  5
3CF
100
AcDbEntity
  8
0
100
AcDbCircle
 62
7
  6
CONTINUOUS
 10
68.451630628
 20
175.2156906633
 40
1.0
100
AcDbArc
 50
117.0083802759
 51
263.6305355756
  0
ARC
  5
3D0
100
AcDbEntity
  8
0
100
AcDbCircle
 62
7
  6
CONTINUOUS
 10
67.319669474
 20
173.4244162717
 40
1.0
100
AcDbArc
 50
115.5130394636
 51
252.3982222845
  0
ARC
  5
3D1
100
AcDbEntity
  8
0
100
AcDbCircle
 62
7
  6
CONTINUOUS
 10
68.6236334819
 20
171.0707642444
 40
1.0
100
AcDbArc
 50
100.300744962
 51
249.0110769957
  0
ARC
  5
3D2
100
AcDbEntity
  8
0
100
AcDbCircle
 62
7
  6
CONTINUOUS
 10
66.907050289
 20
169.4144604854
 40
1.0
100
AcDbArc
 50
92.561922794
 51
241.4579604719
  0
ARC
  5
3D3
100
AcDbEntity
  8
0
100
AcDbCircle
 62
7
  6
CONTINUOUS
 10
78.6548209399
 20
197.183505927
 40
17.0
100
AcDbArc
 50
142.9274979894
 51
158.5644573944
  0
ARC
  5
3D4
100
AcDbEntity
  8
0
100
AcDbCircle
 62
7
  6
CONTINUOUS
 10
77.9152961565
 20
196.7589126197
 40
12.0
100
AcDbArc
 50
183.7269920711
 51
216.9339515074
  0
ARC
  5
3D5
100
AcDbEntity
  8
0
100
AcDbCircle
 62
7
  6
CONTINUOUS
 10
77.9152961565
 20
196.7589126197
 40
12.0
100
AcDbArc
 50
301.0325564598
 51
317.272304805
  0
ARC
  5
3D6
100
AcDbEntity
  8
KONSTRUKTIONSELEMENTE
100
AcDbCircle
 62
7
  6
CONTINUOUS
 10
77.9152961565
 20
196.7589126197
 40
11.6335377613
100
AcDbArc
 50
22.0
 51
75.0
  0
ARC
  5
3D7
100
AcDbEntity
  8
KONSTRUKTIONSELEMENTE
100
AcDbCircle
 62
7
  6
CONTINUOUS
 10
77.9152961565
 20
196.7589126197
 40
11.3664622387
100
AcDbArc
 50
306.1538478565
 51
317.272304805
  0
ARC
  5
3D8
100
AcDbEntity
  8
KONSTRUKTIONSELEMENTE
100
AcDbCircle
 62
7
  6
CONTINUOUS
 10
77.9152961565
 20
196.7589126197
 40
11.3664622387
100
AcDbArc
 50
192.3922023334
 51
207.9487894764
  0
ARC
  5
3D9
100
AcDbEntity
  8
0
100
AcDbCircle
 62
7
  6
CONTINUOUS
 10
77.8152961565
 20
196.6589126197
 40
10.0026001139
100
AcDbArc
 50
334.9721275148
 51
77.0
  0
ARC
  5
3DA
100
AcDbEntity
  8
0
100
AcDbCircle
 62
7
  6
CONTINUOUS
 10
68.282467587
 20
205.0202326621
 40
4.0
100
AcDbArc
 50
77.0
 51
142.9274979894
  0
ARC
  5
3DB
100
AcDbEntity
  8
0
100
AcDbCircle
 62
7
  6
CONTINUOUS
 10
66.5540401606
 20
201.9344115808
 40
4.0
100
AcDbArc
 50
158.5644573944
 51
221.7816955669
  0
CIRCLE
  5
3DC
100
AcDbEntity
  8
0
100
AcDbCircle
 62
7
  6
CONTINUOUS
 10
77.8152961565
 20
196.6589126197
 40
4.0
  0
ARC
  5
3DD
100
AcDbEntity
  8
KONSTRUKTIONSELEMENTE
100
AcDbCircle
 62
7
  6
CONTINUOUS
 10
69.8862670721
 20
208.2277701025
 40
2.6335377613
100
AcDbArc
 50
358.2542349417
 51
75.0
  0
ARC
  5
3DE
100
AcDbEntity
  8
0
100
AcDbCircle
 62
7
  6
CONTINUOUS
 10
69.8862670721
 20
208.2277701025
 40
2.0
100
AcDbArc
 50
1.9072643896
 51
75.0
  0
CIRCLE
  5
3DF
100
AcDbEntity
  8
BEZUGSACHSEN
100
AcDbCircle
 62
7
  6
CONTINUOUS
 10
81.2152961565
 20
219.2573476989
 40
1.75
  0
ARC
  5
3E0
100
AcDbEntity
  8
KONSTRUKTIONSELEMENTE
100
AcDbCircle
 62
7
  6
CONTINUOUS
 10
85.9152961565
 20
170.7573476989
 40
60.0
100
AcDbArc
 50
90.7646196715
 51
108.4163440224
  0
ARC
  5
3E1
100
AcDbEntity
  8
0
100
AcDbCircle
 62
7
  6
CONTINUOUS
 10
100.4152961565
 20
139.0573476989
 40
48.0
100
AcDbArc
 50
235.7711336722
 51
360.0
  0
ARC
  5
3E2
100
AcDbEntity
  8
0
100
AcDbCircle
 62
7
  6
CONTINUOUS
 10
95.9152961565
 20
132.4429694213
 40
40.0
100
AcDbArc
 50
188.0
 51
235.7711336722
  0
ARC
  5
3E3
100
AcDbEntity
  8
0
100
AcDbCircle
 62
7
  6
CONTINUOUS
 10
108.4152961565
 20
139.0573476989
 40
40.0
100
AcDbArc
 50
0.0
 51
57.6076345142
  0
ARC
  5
3E4
100
AcDbEntity
  8
0
100
AcDbCircle
 62
7
  6
CONTINUOUS
 10
95.9152961565
 20
139.0573476989
 40
21.0
100
AcDbArc
 50
200.0
 51
32.0
  0
ARC
  5
3E5
100
AcDbEntity
  8
RUNDUNGEN
100
AcDbCircle
 62
7
  6
CONTINUOUS
 10
100.9346045711
 20
142.634254606
 40
15.8773791331
100
AcDbArc
 50
30.3549656329
 51
30.6518280958
  0
ARC
  5
3E6
100
AcDbEntity
  8
KONSTRUKTIONSELEMENTE
100
AcDbCircle
 62
7
  6
CONTINUOUS
 10
88.199510036
 20
187.2597050274
 40
2.6335377613
100
AcDbArc
 50
32.0
 51
137.272304805
  0
ARC
  5
3E7
100
AcDbEntity
  8
0
100
AcDbCircle
 62
7
  6
CONTINUOUS
 10
88.199510036
 20
187.2597050274
 40
2.0
100
AcDbArc
 50
32.0000000153
 51
137.272304805
  0
ARC
  5
3E8
100
AcDbEntity
  8
0
100
AcDbCircle
 62
7
  6
CONTINUOUS
 10
145.9152961565
 20
198.1652997866
 40
30.0
100
AcDbArc
 50
180.0
 51
237.6076345142
  0
ARC
  5
3E9
100
AcDbEntity
  8
KONSTRUKTIONSELEMENTE
100
AcDbCircle
 62
7
  6
CONTINUOUS
 10
95.9152961565
 20
256.5851869195
 40
28.0
100
AcDbArc
 50
247.31114364
 51
260.6479649424
  0
ARC
  5
3EA
100
AcDbEntity
  8
KONSTRUKTIONSELEMENTE
100
AcDbCircle
 62
7
  6
CONTINUOUS
 10
95.9152961565
 20
256.5851869195
 40
28.0
100
AcDbArc
 50
279.3520350576
 51
292.717106662
  0
ARC
  5
3EB
100
AcDbEntity
  8
KONSTRUKTIONSELEMENTE
100
AcDbCircle
 62
7
  6
CONTINUOUS
 10
98.6580036639
 20
242.2066190622
 40
27.9126220422
100
AcDbArc
 50
250.9092409771
 51
251.0280493365
  0
ARC
  5
3EC
100
AcDbEntity
  8
KONSTRUKTIONSELEMENTE
100
AcDbCircle
 62
7
  6
CONTINUOUS
 10
93.1725886616
 20
242.206619026
 40
27.9126220038
100
AcDbArc
 50
288.9719506634
 51
289.0907590229
  0
ARC
  5
3ED
100
AcDbEntity
  8
RUNDUNGEN
100
AcDbCircle
 62
7
  6
CONTINUOUS
 10
120.7330797735
 20
195.4861538341
 40
15.0
100
AcDbArc
 50
145.0
 51
205.0
  0
ARC
  5
3EE
100
AcDbEntity
  8
RUNDUNGEN
100
AcDbCircle
 62
7
  6
CONTINUOUS
 10
124.1708941018
 20
233.5307266506
 40
13.4928340387
100
AcDbArc
 50
214.9841007402
 51
216.6491522095
  0
ARC
  5
3EF
100
AcDbEntity
  8
AUSFORMSCHRAEGEN
100
AcDbCircle
 62
7
  6
CONTINUOUS
 10
95.9152961565
 20
209.3073476989
 40
6.7673821645
100
AcDbArc
 50
180.0
 51
360.0
  0
ARC
  5
3F0
100
AcDbEntity
  8
0
100
AcDbCircle
 62
7
  6
CONTINUOUS
 10
95.9152961565
 20
209.3073476989
 40
4.55
100
AcDbArc
 50
180.0
 51
360.0
  0
ARC
  5
3F1
100
AcDbEntity
  8
KONSTRUKTIONSELEMENTE
100
AcDbCircle
 62
7
  6
CONTINUOUS
 10
-713.8848139108
 20
261.8519743547
 40
995.4497051566
100
AcDbArc
 50
350.7297772915
 51
350.9660197942
  0
ARC
  5
3F2
100
AcDbEntity
  8
RUNDUNGEN
100
AcDbCircle
 62
7
  6
CONTINUOUS
 10
3.8551361574
 20
56.0805951854
 40
317.1662379719
100
AcDbArc
 50
31.8023417061
 51
32.2875234817
  0
ARC
  5
3F3
100
AcDbEntity
  8
0
100
AcDbCircle
 62
7
  6
CONTINUOUS
 10
260.1470101636
 20
93.4492034027
 40
2.0
100
AcDbArc
 50
188.0047287565
 51
260.9999999837
  0
ARC
  5
3F4
100
AcDbEntity
  8
KONSTRUKTIONSELEMENTE
100
AcDbCircle
 62
7
  6
CONTINUOUS
 10
233.2992622054
 20
108.0870785395
 40
36.0072217239
100
AcDbArc
 50
355.9536103455
 51
356.3207514309
  0
ARC
  5
3F5
100
AcDbEntity
  8
KONSTRUKTIONSELEMENTE
100
AcDbCircle
 62
7
  6
CONTINUOUS
 10
234.9024219076
 20
108.0018015745
 40
34.4016756069
100
AcDbArc
 50
358.0825656047
 51
358.466142401
  0
ARC
  5
3F6
100
AcDbEntity
  8
0
100
AcDbCircle
 62
7
  6
CONTINUOUS
 10
257.4863384591
 20
112.0578762538
 40
5.0226521907
100
AcDbArc
 50
179.9943348063
 51
182.6676633933
  0
ARC
  5
3F7
100
AcDbEntity
  8
0
100
AcDbCircle
 62
7
  6
CONTINUOUS
 10
257.4636862929
 20
112.0573476991
 40
5.0
100
AcDbArc
 50
182.6736944711
 51
249.198859471
  0
ARC
  5
3F8
100
AcDbEntity
  8
0
100
AcDbCircle
 62
7
  6
CONTINUOUS
 10
257.4516626138
 20
111.5877484835
 40
4.9881359051
100
AcDbArc
 50
174.5862701585
 51
177.2841085452
  0
ARC
  5
3F9
100
AcDbEntity
  8
AUSFORMSCHRAEGEN
100
AcDbCircle
 62
7
  6
CONTINUOUS
 10
258.9418108422
 20
151.3512616855
 40
5.0553191346
100
AcDbArc
 50
114.925540252
 51
116.6620031594
  0
ARC
  5
3FA
100
AcDbEntity
  8
AUSFORMSCHRAEGEN
100
AcDbCircle
 62
7
  6
CONTINUOUS
 10
258.939620657
 20
151.3556369196
 40
5.0504263288
100
AcDbArc
 50
116.6620710262
 51
117.8189817133
  0
ARC
  5
3FB
100
AcDbEntity
  8
0
100
AcDbCircle
 62
7
  6
CONTINUOUS
 10
255.4636862929
 20
145.9573476989
 40
3.0
100
AcDbArc
 50
155.0
 51
195.0
  0
ARC
  5
3FC
100
AcDbEntity
  8
0
100
AcDbCircle
 62
7
  6
CONTINUOUS
 10
521.0722364337
 20
56.0805951821
 40
317.1662379782
100
AcDbArc
 50
147.7124765183
 51
148.1976582939
  0
ARC
  5
3FD
100
AcDbEntity
  8
KONSTRUKTIONSELEMENTE
100
AcDbCircle
 62
7
  6
CONTINUOUS
 10
264.7803624222
 20
93.4492034027
 40
2.0
100
AcDbArc
 50
279.0000000163
 51
351.9952712435
  0
ARC
  5
3FE
100
AcDbEntity
  8
KONSTRUKTIONSELEMENTE
100
AcDbCircle
 62
7
  6
CONTINUOUS
 10
267.4410341267
 20
112.0578762538
 40
5.0226521907
100
AcDbArc
 50
357.3323366067
 51
0.0056651937
  0
ARC
  5
3FF
100
AcDbEntity
  8
KONSTRUKTIONSELEMENTE
100
AcDbCircle
 62
7
  6
CONTINUOUS
 10
267.4636862929
 20
112.0573476989
 40
5.0
100
AcDbArc
 50
290.801140529
 51
357.3263055303
  0
ARC
  5
400
100
AcDbEntity
  8
KONSTRUKTIONSELEMENTE
100
AcDbCircle
 62
7
  6
CONTINUOUS
 10
267.4757099721
 20
111.5877484835
 40
4.9881359051
100
AcDbArc
 50
2.7158914548
 51
5.4137298415
  0
ARC
  5
401
100
AcDbEntity
  8
0
100
AcDbCircle
 62
7
  6
CONTINUOUS
 10
265.9855617436
 20
151.3512616855
 40
5.0553191346
100
AcDbArc
 50
63.3379968406
 51
65.074459748
  0
ARC
  5
402
100
AcDbEntity
  8
0
100
AcDbCircle
 62
7
  6
CONTINUOUS
 10
265.9877519286
 20
151.3556369192
 40
5.0504263292
100
AcDbArc
 50
62.1810182868
 51
63.3379289737
  0
ARC
  5
403
100
AcDbEntity
  8
KONSTRUKTIONSELEMENTE
100
AcDbCircle
 62
7
  6
CONTINUOUS
 10
269.4636862929
 20
145.9573476989
 40
3.0
100
AcDbArc
 50
345.0
 51
25.0
  0
ARC
  5
404
100
AcDbEntity
  8
RUNDUNGEN
100
AcDbCircle
 62
7
  6
CONTINUOUS
 10
256.4636862929
 20
179.3903976507
 40
20.0
100
AcDbArc
 50
347.2212284304
 51
360.0
  0
ARC
  5
405
100
AcDbEntity
  8
BEZUGSACHSEN
100
AcDbCircle
 62
7
  6
CONTINUOUS
 10
256.4680439291
 20
165.6300676677
 40
1.0047654029
100
AcDbArc
 50
180.0348938197
 51
194.9547569865
  0
ARC
  5
406
100
AcDbEntity
  8
BEZUGSACHSEN
100
AcDbCircle
 62
7
  6
CONTINUOUS
 10
256.4633176863
 20
165.6293936057
 40
1.0000458497
100
AcDbArc
 50
76.4863333215
 51
179.9964393343
  0
ARC
  5
407
100
AcDbEntity
  8
BEZUGSACHSEN
100
AcDbCircle
 62
7
  6
CONTINUOUS
 10
256.463310092
 20
173.4244406172
 40
1.0000313798
100
AcDbArc
 50
142.9058377782
 51
232.909663676
  0
ARC
  5
408
100
AcDbEntity
  8
BEZUGSACHSEN
100
AcDbCircle
 62
7
  6
CONTINUOUS
 10
252.46372203
 20
167.1732482565
 40
1.0000119481
100
AcDbArc
 50
71.0927302459
 51
168.2411929268
  0
ARC
  5
409
100
AcDbEntity
  8
BEZUGSACHSEN
100
AcDbCircle
 62
7
  6
CONTINUOUS
 10
256.4636591758
 20
169.4144550086
 40
0.9999756136
100
AcDbArc
 50
94.9186255707
 51
218.1686304408
  0
ARC
  5
40A
100
AcDbEntity
  8
BEZUGSACHSEN
100
AcDbCircle
 62
7
  6
CONTINUOUS
 10
252.4636761423
 20
163.5233023097
 40
0.999934646
100
AcDbArc
 50
46.0538276822
 51
171.154553722
  0
ARC
  5
40B
100
AcDbEntity
  8
0
100
AcDbCircle
 62
7
  6
CONTINUOUS
 10
247.2136862929
 20
215.8291444686
 40
4.0
100
AcDbArc
 50
330.0
 51
0.0016386787
  0
ARC
  5
40C
100
AcDbEntity
  8
0
100
AcDbCircle
 62
7
  6
CONTINUOUS
 10
253.2136862929
 20
222.1795699211
 40
2.0
100
AcDbArc
 50
147.7731635338
 51
180.0
  0
ARC
  5
40D
100
AcDbEntity
  8
0
100
AcDbCircle
 62
7
  6
CONTINUOUS
 10
250.4636862929
 20
209.4583095932
 40
2.0
100
AcDbArc
 50
150.0016676892
 51
180.0
  0
ARC
  5
40E
100
AcDbEntity
  8
0
100
AcDbCircle
 62
7
  6
CONTINUOUS
 10
268.4636862929
 20
179.3903976507
 40
20.0
100
AcDbArc
 50
180.0
 51
192.7787715696
  0
ARC
  5
40F
100
AcDbEntity
  8
0
100
AcDbCircle
 62
7
  6
CONTINUOUS
 10
268.4593286568
 20
165.6300676677
 40
1.0047654029
100
AcDbArc
 50
345.0452430135
 51
359.9651061802
  0
ARC
  5
410
100
AcDbEntity
  8
0
100
AcDbCircle
 62
7
  6
CONTINUOUS
 10
268.4640548996
 20
165.6293936058
 40
1.0000458497
100
AcDbArc
 50
0.0035606613
 51
103.5136666829
  0
ARC
  5
411
100
AcDbEntity
  8
0
100
AcDbCircle
 62
7
  6
CONTINUOUS
 10
268.4640624938
 20
173.4244406172
 40
1.0000313798
100
AcDbArc
 50
307.090336324
 51
37.0941622218
  0
ARC
  5
412
100
AcDbEntity
  8
0
100
AcDbCircle
 62
7
  6
CONTINUOUS
 10
272.4636506366
 20
167.1732483972
 40
1.0000118577
100
AcDbArc
 50
11.7588001257
 51
108.9072767437
  0
ARC
  5
413
100
AcDbEntity
  8
0
100
AcDbCircle
 62
7
  6
CONTINUOUS
 10
268.4637134101
 20
169.4144550087
 40
0.9999756135
100
AcDbArc
 50
321.8313695592
 51
85.0813744334
  0
ARC
  5
414
100
AcDbEntity
  8
0
100
AcDbCircle
 62
7
  6
CONTINUOUS
 10
272.4636963193
 20
163.5233021754
 40
0.9999348
100
AcDbArc
 50
8.8454527879
 51
133.9461618482
  0
ARC
  5
415
100
AcDbEntity
  8
0
100
AcDbCircle
 62
7
  6
CONTINUOUS
 10
262.4636862929
 20
219.5073476989
 40
11.25
100
AcDbArc
 50
32.2268364662
 51
147.7731635338
  0
ARC
  5
416
100
AcDbEntity
  8
0
100
AcDbCircle
 62
7
  6
CONTINUOUS
 10
262.4636862929
 20
219.5026331682
 40
11.2493387867
100
AcDbArc
 50
32.221614693
 51
147.778385307
  0
CIRCLE
  5
417
100
AcDbEntity
  8
BEZUGSACHSEN
100
AcDbCircle
 62
7
  6
CONTINUOUS
 10
262.4636862929
 20
219.2573476989
 40
4.9
  0
ARC
  5
418
100
AcDbEntity
  8
RUNDUNGEN
100
AcDbCircle
 62
7
  6
CONTINUOUS
 10
277.7136862929
 20
215.8291444686
 40
4.0
100
AcDbArc
 50
179.9983613213
 51
210.0
  0
ARC
  5
419
100
AcDbEntity
  8
KONSTRUKTIONSELEMENTE
100
AcDbCircle
 62
7
  6
CONTINUOUS
 10
277.7136862929
 20
215.8291444686
 40
4.0
100
AcDbArc
 50
190.6661237577
 51
210.0
  0
ARC
  5
41A
100
AcDbEntity
  8
KONSTRUKTIONSELEMENTE
100
AcDbCircle
 62
7
  6
CONTINUOUS
 10
277.7136862929
 20
215.8291444686
 40
4.0
100
AcDbArc
 50
180.2703464754
 51
189.7858862258
  0
ARC
  5
41B
100
AcDbEntity
  8
RUNDUNGEN
100
AcDbCircle
 62
7
  6
CONTINUOUS
 10
271.7136862929
 20
222.1795699211
 40
2.0
100
AcDbArc
 50
0.0
 51
32.2268364662
  0
ARC
  5
41C
100
AcDbEntity
  8
RUNDUNGEN
100
AcDbCircle
 62
7
  6
CONTINUOUS
 10
274.4636862929
 20
209.4583095932
 40
2.0
100
AcDbArc
 50
0.0017562669
 51
29.9983323108
  0
SPLINE
  5
41D
100
AcDbEntity
  8
0
100
AcDbSpline
 62
7
  6
CONTINUOUS
 70
0
 71
3
 72
17
 73
13
 74
0
 42
0.0000001
 43
0.0000001
 44
0.0000000001
 40
0.0
 40
0.0
 40
0.0
 40
0.0
 40
0.0186516065
 40
0.0393770941
 40
0.0657236429
 40
0.0993797304
 40
0.1902579113
 40
0.3116749488
 40
0.4595589844
 40
0.6282603522
 40
0.8111672873
 40
1.0
 40
1.0
 40
1.0
 40
1.0
 10
66.0904135329
 20
164.4643192266
 30
0.0
 10
66.0965908479
 20
164.4620949832
 30
0.0
 10
66.1086523785
 20
164.4537461099
 30
0.0
 10
66.1184022105
 20
164.4319371521
 30
0.0
 10
66.1210539223
 20
164.4033945337
 30
0.0
 10
66.1155856676
 20
164.3503534879
 30
0.0
 10
66.0902380282
 20
164.2669923662
 30
0.0
 10
66.0399917724
 20
164.1505379181
 30
0.0
 10
65.968163553
 20
164.0139386254
 30
0.0
 10
65.877749368
 20
163.8630723199
 30
0.0
 10
65.7724570651
 20
163.7045526709
 30
0.0
 10
65.6956195368
 20
163.5985801056
 30
0.0
 10
65.6555053913
 20
163.5455777453
 30
0.0
  0
SPLINE
  5
41E
100
AcDbEntity
  8
0
100
AcDbSpline
 62
7
  6
CONTINUOUS
 70
0
 71
3
 72
14
 73
10
 74
0
 42
0.0000001
 43
0.0000001
 44
0.0000000001
 40
0.0
 40
0.0
 40
0.0
 40
0.0
 40
0.0786944998
 40
0.1604256961
 40
0.2569933377
 40
0.3736909913
 40
0.5105255993
 40
0.66417675
 40
1.0
 40
1.0
 40
1.0
 40
1.0
 10
66.8878228189
 20
174.3263568224
 30
0.0
 10
66.9171521642
 20
174.340252821
 30
0.0
 10
66.9848372149
 20
174.3555281032
 30
0.0
 10
67.089749449
 20
174.3234651678
 30
0.0
 10
67.1855647849
 20
174.2453606621
 30
0.0
 10
67.2717815492
 20
174.1283065663
 30
0.0
 10
67.3460352816
 20
173.9769075062
 30
0.0
 10
67.4271965529
 20
173.7311585081
 30
0.0
 10
67.4569793787
 20
173.5294234105
 30
0.0
 10
67.4639706725
 20
173.3911017151
 30
0.0
  0
SPLINE
  5
41F
100
AcDbEntity
  8
0
100
AcDbSpline
 62
7
  6
CONTINUOUS
 70
0
 71
3
 72
17
 73
13
 74
0
 42
0.0000001
 43
0.0000001
 44
0.0000000001
 40
0.0
 40
0.0
 40
0.0
 40
0.0
 40
0.0188004956
 40
0.0398760043
 40
0.0665615488
 40
0.1004218217
 40
0.1912760535
 40
0.3121994727
 40
0.4594773242
 40
0.6276395975
 40
0.8102809025
 40
1.0
 40
1.0
 40
1.0
 40
1.0
 10
67.8131632605
 20
168.1692617837
 30
0.0
 10
67.8195837575
 20
168.1685724705
 30
0.0
 10
67.8330840759
 20
168.16342606
 30
0.0
 10
67.8479400053
 20
168.1451598453
 30
0.0
 10
67.8581132754
 20
168.1187905361
 30
0.0
 10
67.8673546846
 20
168.0674147116
 30
0.0
 10
67.8663430876
 20
167.9825240438
 30
0.0
 10
67.8510959447
 20
167.8600964713
 30
0.0
 10
67.8211494717
 20
167.7130918796
 30
0.0
 10
67.7777333023
 20
167.5475594735
 30
0.0
 10
67.7224080118
 20
167.3702794277
 30
0.0
 10
67.6793452433
 20
167.2498111564
 30
0.0
 10
67.6562004188
 20
167.1888973345
 30
0.0
  0
SPLINE
  5
420
100
AcDbEntity
  8
0
100
AcDbSpline
 62
7
  6
CONTINUOUS
 70
0
 71
3
 72
17
 73
13
 74
0
 42
0.0000001
 43
0.0000001
 44
0.0000000001
 40
0.0
 40
0.0
 40
0.0
 40
0.0
 40
0.1920807258
 40
0.3759414317
 40
0.544019587
 40
0.6903795227
 40
0.8101439256
 40
0.8998444112
 40
0.9332875515
 40
0.9597574467
 40
0.9808566532
 40
1.0
 40
1.0
 40
1.0
 40
1.0
 10
65.6555053913
 20
163.5455777453
 30
0.0
 10
65.6178068615
 20
163.4957671105
 30
0.0
 10
65.5421326705
 20
163.3996923239
 30
0.0
 10
65.4271510158
 20
163.265149607
 30
0.0
 10
65.3162453033
 20
163.1469157491
 30
0.0
 10
65.213875511
 20
163.0494376638
 30
0.0
 10
65.1240376433
 20
162.97643149
 30
0.0
 10
65.0569347401
 20
162.9337275698
 30
0.0
 10
65.0113876787
 20
162.9160858991
 30
0.0
 10
64.9852052878
 20
162.9114448868
 30
0.0
 10
64.963105731
 20
162.9148359656
 30
0.0
 10
64.9523154667
 20
162.9233879393
 30
0.0
 10
64.9485125901
 20
162.9283172767
 30
0.0
  0
SPLINE
  5
421
100
AcDbEntity
  8
0
100
AcDbSpline
 62
7
  6
CONTINUOUS
 70
0
 71
3
 72
14
 73
10
 74
0
 42
0.0000001
 43
0.0000001
 44
0.0000000001
 40
0.0
 40
0.0
 40
0.0
 40
0.0
 40
0.3358406197
 40
0.4894918189
 40
0.6263222945
 40
0.7430147377
 40
0.8395770843
 40
0.921304976
 40
1.0
 40
1.0
 40
1.0
 40
1.0
 10
65.6643622377
 20
165.5961411968
 30
0.0
 10
65.5974372582
 20
165.4748741909
 30
0.0
 10
65.4822258811
 20
165.3066023801
 30
0.0
 10
65.30153778
 20
165.1212984492
 30
0.0
 10
65.1684258653
 20
165.0177776264
 30
0.0
 10
65.0396209621
 20
164.9503719769
 30
0.0
 10
64.9192641289
 20
164.9221841284
 30
0.0
 10
64.8109167171
 20
164.9393696721
 30
0.0
 10
64.7567834884
 20
164.9827779333
 30
0.0
 10
64.7365169993
 20
165.0081283052
 30
0.0
  0
SPLINE
  5
422
100
AcDbEntity
  8
0
100
AcDbSpline
 62
7
  6
CONTINUOUS
 70
0
 71
3
 72
17
 73
13
 74
0
 42
0.0000001
 43
0.0000001
 44
0.0000000001
 40
0.0
 40
0.0
 40
0.0
 40
0.0
 40
0.1905558072
 40
0.3734306381
 40
0.5414468446
 40
0.6883578728
 40
0.8088770441
 40
0.8994433055
 40
0.9332342069
 40
0.9599329788
 40
0.9810823626
 40
1.0
 40
1.0
 40
1.0
 40
1.0
 10
67.6562004188
 20
167.1888973345
 30
0.0
 10
67.6333753096
 20
167.1288249568
 30
0.0
 10
67.5863406557
 20
167.0119624317
 30
0.0
 10
67.5113227679
 20
166.8454241499
 30
0.0
 10
67.4353903639
 20
166.6956399882
 30
0.0
 10
67.3617266992
 20
166.5684347438
 30
0.0
 10
67.2932889752
 20
166.4689216676
 30
0.0
 10
67.2387985774
 20
166.4061665252
 30
0.0
 10
67.1985352208
 20
166.3746469035
 30
0.0
 10
67.1738376683
 20
166.3619627783
 30
0.0
 10
67.1509505048
 20
166.3583118841
 30
0.0
 10
67.137619731
 20
166.3632963692
 30
0.0
 10
67.1323962296
 20
166.3669591638
 30
0.0
  0
SPLINE
  5
423
100
AcDbEntity
  8
0
100
AcDbSpline
 62
7
  6
CONTINUOUS
 70
0
 71
3
 72
17
 73
13
 74
0
 42
0.0000001
 43
0.0000001
 44
0.0000000001
 40
0.0
 40
0.0
 40
0.0
 40
0.0
 40
0.1888327127
 40
0.3717396478
 40
0.5404410156
 40
0.6883250512
 40
0.8097420887
 40
0.9006202696
 40
0.9342763571
 40
0.9606229059
 40
0.9813483935
 40
1.0
 40
1.0
 40
1.0
 40
1.0
 10
68.3549180434
 20
175.2380185227
 30
0.0
 10
68.3677376931
 20
175.1727954329
 30
0.0
 10
68.3903434911
 20
175.0438645668
 30
0.0
 10
68.4154891457
 20
174.8552309424
 30
0.0
 10
68.4306174416
 20
174.6799982353
 30
0.0
 10
68.435295029
 20
174.5257361854
 30
0.0
 10
68.4294057946
 20
174.399041112
 30
0.0
 10
68.4156449914
 20
174.3130049584
 30
0.0
 10
68.3973081621
 20
174.2629348571
 30
0.0
 10
68.382412559
 20
174.2384433556
 30
0.0
 10
68.3640890502
 20
174.2231156392
 30
0.0
 10
68.3495883131
 20
174.2208991486
 30
0.0
 10
68.3430611351
 20
174.2216079685
 30
0.0
  0
SPLINE
  5
424
100
AcDbEntity
  8
0
100
AcDbSpline
 62
7
  6
CONTINUOUS
 70
0
 71
3
 72
13
 73
9
 74
0
 42
0.0000001
 43
0.0000001
 44
0.0000000001
 40
0.0
 40
0.0
 40
0.0
 40
0.0
 40
0.3379506192
 40
0.6249003553
 40
0.7403095939
 40
0.8365699056
 40
0.9193470794
 40
1.0
 40
1.0
 40
1.0
 40
1.0
 10
67.4639706725
 20
173.3911017151
 30
0.0
 10
67.4705152257
 20
173.2616187136
 30
0.0
 10
67.4605994485
 20
173.0208115825
 30
0.0
 10
67.3885420124
 20
172.7414708445
 30
0.0
 10
67.2909244473
 20
172.5753945563
 30
0.0
 10
67.2093589656
 20
172.4945334633
 30
0.0
 10
67.1144303491
 20
172.454863721
 30
0.0
 10
67.0492975733
 20
172.4611659245
 30
0.0
 10
67.0197841844
 20
172.4704558251
 30
0.0
  0
SPLINE
  5
425
100
AcDbEntity
  8
0
100
AcDbSpline
 62
7
  6
CONTINUOUS
 70
0
 71
3
 72
17
 73
13
 74
0
 42
0.0000001
 43
0.0000001
 44
0.0000000001
 40
0.0
 40
0.0
 40
0.0
 40
0.0
 40
0.189713085
 40
0.3723492623
 40
0.5405102877
 40
0.6877886787
 40
0.8087141488
 40
0.8995721276
 40
0.9334347364
 40
0.960123313
 40
0.9812003967
 40
1.0
 40
1.0
 40
1.0
 40
1.0
 10
68.5560046362
 20
171.0863775936
 30
0.0
 10
68.5501044784
 20
171.0214856004
 30
0.0
 10
68.5360000676
 20
170.8943376129
 30
0.0
 10
68.5080131103
 20
170.7107531985
 30
0.0
 10
68.4744724625
 20
170.5429455319
 30
0.0
 10
68.4369473919
 20
170.397692341
 30
0.0
 10
68.3969842934
 20
170.2809704226
 30
0.0
 10
68.3606821765
 20
170.2042249781
 30
0.0
 10
68.3298557989
 20
170.1620961612
 30
0.0
 10
68.3091545376
 20
170.1428503875
 30
0.0
 10
68.287796607
 20
170.1329399596
 30
0.0
 10
68.2734064044
 20
170.1342264196
 30
0.0
 10
68.2673329338
 20
170.1364186116
 30
0.0
  0
SPLINE
  5
426
100
AcDbEntity
  8
0
100
AcDbSpline
 62
7
  6
CONTINUOUS
 70
0
 71
3
 72
14
 73
10
 74
0
 42
0.0000001
 43
0.0000001
 44
0.0000000001
 40
0.0
 40
0.0
 40
0.0
 40
0.0
 40
0.3331023954
 40
0.4853819774
 40
0.621731618
 40
0.7392556575
 40
0.837779936
 40
0.9214525648
 40
1.0
 40
1.0
 40
1.0
 40
1.0
 10
67.1364420115
 20
169.3615012334
 30
0.0
 10
67.1063282774
 20
169.2310643211
 30
0.0
 10
67.044777731
 20
169.0440380382
 30
0.0
 10
66.9281402516
 20
168.8225425305
 30
0.0
 10
66.8333916811
 20
168.6888790617
 30
0.0
 10
66.732547554
 20
168.5881854588
 30
0.0
 10
66.6285136186
 20
168.5243981196
 30
0.0
 10
66.5229797666
 20
168.5025997456
 30
0.0
 10
66.4574368101
 20
168.5208417961
 30
0.0
 10
66.4296425556
 20
168.5358065387
 30
0.0
  0
SPLINE
  5
427
100
AcDbEntity
  8
0
100
AcDbSpline
 62
7
  6
CONTINUOUS
 70
0
 71
3
 72
17
 73
13
 74
0
 42
0.0000001
 43
0.0000001
 44
0.0000000001
 40
0.0
 40
0.0
 40
0.0
 40
0.0
 40
0.0189627096
 40
0.0400041555
 40
0.0665043297
 40
0.1001399292
 40
0.1905420397
 40
0.3110537234
 40
0.4580477895
 40
0.6261983225
 40
0.8093287957
 40
1.0
 40
1.0
 40
1.0
 40
1.0
 10
68.4446409006
 20
172.0546139772
 30
0.0
 10
68.4509386696
 20
172.0557552639
 30
0.0
 10
68.4651317776
 20
172.0546929986
 30
0.0
 10
68.4842730745
 20
172.0417239536
 30
0.0
 10
68.5010722008
 20
172.0197679721
 30
0.0
 10
68.5235858797
 20
171.9739942178
 30
0.0
 10
68.5452016474
 20
171.8937764019
 30
0.0
 10
68.5632068199
 20
171.7742773976
 30
0.0
 10
68.5737433588
 20
171.6274633808
 30
0.0
 10
68.5763697046
 20
171.459249945
 30
0.0
 10
68.5707926934
 20
171.2763551467
 30
0.0
 10
68.5618320105
 20
171.1504690889
 30
0.0
 10
68.5560046362
 20
171.0863775936
 30
0.0
  0
SPLINE
  5
428
100
AcDbEntity
  8
0
100
AcDbSpline
 62
7
  6
CONTINUOUS
 70
0
 71
3
 72
17
 73
13
 74
0
 42
0.0000001
 43
0.0000001
 44
0.0000000001
 40
0.0
 40
0.0
 40
0.0
 40
0.0
 40
0.0191435868
 40
0.0402432781
 40
0.0667146851
 40
0.1001604121
 40
0.1898641044
 40
0.309633857
 40
0.4559962253
 40
0.6240727183
 40
0.8079237847
 40
1.0
 40
1.0
 40
1.0
 40
1.0
 10
67.9900691781
 20
176.1027347257
 30
0.0
 10
67.9956484235
 20
176.1054975087
 30
0.0
 10
68.0090959186
 20
176.1084521594
 30
0.0
 10
68.0304459815
 20
176.1018123752
 30
0.0
 10
68.0519443156
 20
176.0861609738
 30
0.0
 10
68.0851476998
 20
176.0503350859
 30
0.0
 10
68.1267413736
 20
175.9825345413
 30
0.0
 10
68.1754820399
 20
175.8775304707
 30
0.0
 10
68.2247604302
 20
175.7450404935
 30
0.0
 10
68.272608945
 20
175.5901574994
 30
0.0
 10
68.3169734267
 20
175.4188324385
 30
0.0
 10
68.3428706976
 20
175.2993123282
 30
0.0
 10
68.3549180434
 20
175.2380185227
 30
0.0
  0
SPLINE
  5
429
100
AcDbEntity
  8
0
100
AcDbSpline
 62
7
  6
CONTINUOUS
 70
0
 71
3
 72
13
 73
9
 74
0
 42
0.0000001
 43
0.0000001
 44
0.0000000001
 40
0.0
 40
0.0
 40
0.0
 40
0.0
 40
0.0806529749
 40
0.1634309561
 40
0.259694689
 40
0.3750976362
 40
0.6620303475
 40
1.0
 40
1.0
 40
1.0
 40
1.0
 10
65.6687139103
 20
166.6183306159
 30
0.0
 10
65.6993128542
 20
166.6137425769
 30
0.0
 10
65.7606175339
 20
166.5908561436
 30
0.0
 10
65.8285494702
 20
166.5135846265
 30
0.0
 10
65.866409289
 20
166.4051510779
 30
0.0
 10
65.8813512782
 20
166.2130984418
 30
0.0
 10
65.8236580384
 20
165.9304416074
 30
0.0
 10
65.7270096421
 20
165.709657304
 30
0.0
 10
65.6643622377
 20
165.5961411968
 30
0.0
  0
SPLINE
  5
42A
100
AcDbEntity
  8
0
100
AcDbSpline
 62
7
  6
CONTINUOUS
 70
0
 71
3
 72
14
 73
10
 74
0
 42
0.0000001
 43
0.0000001
 44
0.0000000001
 40
0.0
 40
0.0
 40
0.0
 40
0.0
 40
0.0785389667
 40
0.1622356929
 40
0.2608069121
 40
0.3783749715
 40
0.5147603862
 40
0.6670546914
 40
1.0
 40
1.0
 40
1.0
 40
1.0
 10
66.863746879
 20
170.4135102522
 30
0.0
 10
66.8952728805
 20
170.4146857141
 30
0.0
 10
66.962107021
 20
170.4021401144
 30
0.0
 10
67.0472382152
 20
170.336143243
 30
0.0
 10
67.1126399868
 20
170.2331386394
 30
0.0
 10
67.159036818
 20
170.0984183863
 30
0.0
 10
67.1855147134
 20
169.936777387
 30
0.0
 10
67.1931908103
 20
169.6867339295
 30
0.0
 10
67.1665267548
 20
169.4918125734
 30
0.0
 10
67.1364420115
 20
169.3615012334
 30
0.0
  0
SPLINE
  5
42B
100
AcDbEntity
  8
0
100
AcDbSpline
 62
7
  6
CONTINUOUS
 70
0
 71
3
 72
11
 73
7
 74
0
 42
0.0000001
 43
0.0000001
 44
0.0000000001
 40
0.0
 40
0.0
 40
0.0
 40
0.0
 40
0.2500247603
 40
0.5000000114
 40
0.7499752523
 40
1.0
 40
1.0
 40
1.0
 40
1.0
 10
67.3794077314
 20
210.9700333992
 30
0.0
 10
67.1720869944
 20
211.0255848233
 30
0.0
 10
66.7724459307
 20
211.2053336939
 30
0.0
 10
66.2938333027
 20
211.6528027089
 30
0.0
 10
65.9854855062
 20
212.2309205066
 30
0.0
 10
65.9152961565
 20
212.6634665425
 30
0.0
 10
65.9152961565
 20
212.8781007522
 30
0.0
  0
SPLINE
  5
42C
100
AcDbEntity
  8
0
100
AcDbSpline
 62
7
  6
CONTINUOUS
 70
0
 71
3
 72
11
 73
7
 74
0
 42
0.0000001
 43
0.0000001
 44
0.0000000001
 40
0.0
 40
0.0
 40
0.0
 40
0.0
 40
0.2499836436
 40
0.4999760804
 40
0.749980508
 40
1.0
 40
1.0
 40
1.0
 40
1.0
 10
65.9152961565
 20
226.2459587237
 30
0.0
 10
65.915333504
 20
226.4035406019
 30
0.0
 10
65.9660941735
 20
226.7209232857
 30
0.0
 10
66.1856279518
 20
227.1480958524
 30
0.0
 10
66.5250436152
 20
227.4877416797
 30
0.0
 10
66.8105816392
 20
227.6347124922
 30
0.0
 10
66.9601144979
 20
227.6845030173
 30
0.0
  0
SPLINE
  5
42D
100
AcDbEntity
  8
RUNDUNGEN
100
AcDbSpline
 62
7
  6
CONTINUOUS
 70
0
 71
3
 72
11
 73
7
 74
0
 42
0.0000001
 43
0.0000001
 44
0.0000000001
 40
0.0
 40
0.0
 40
0.0
 40
0.0
 40
0.2546146031
 40
0.5058787732
 40
0.7539796524
 40
1.0
 40
1.0
 40
1.0
 40
1.0
 10
84.3986586685
 20
223.2241992164
 30
0.0
 10
84.5022912772
 20
223.4007476424
 30
0.0
 10
84.694715598
 20
223.7597989377
 30
0.0
 10
84.9241937917
 20
224.3224581471
 30
0.0
 10
85.0741480966
 20
224.9049149476
 30
0.0
 10
85.109546405
 20
225.3029307048
 30
0.0
 10
85.1097641808
 20
225.5007376055
 30
0.0
  0
SPLINE
  5
42E
100
AcDbEntity
  8
0
100
AcDbSpline
 62
7
  6
CONTINUOUS
 70
0
 71
3
 72
21
 73
17
 74
0
 42
0.0000001
 43
0.0000001
 44
0.0000000001
 40
0.0
 40
0.0
 40
0.0
 40
0.0
 40
0.2095956445
 40
0.4022623156
 40
0.5733007952
 40
0.6491330244
 40
0.7176599581
 40
0.7783103571
 40
0.8306213612
 40
0.8743282092
 40
0.9094886123
 40
0.9367935645
 40
0.9581608419
 40
0.9678686316
 40
0.9777197277
 40
1.0
 40
1.0
 40
1.0
 40
1.0
 10
113.1160643643
 20
225.7946223422
 30
0.0
 10
112.8835066393
 20
226.1269633354
 30
0.0
 10
112.4439086779
 20
226.7695802631
 30
0.0
 10
111.8429941325
 20
227.7024329187
 30
0.0
 10
111.4085138729
 20
228.4341241319
 30
0.0
 10
111.1189680267
 20
228.9715648921
 30
0.0
 10
110.9427753703
 20
229.3271550281
 30
0.0
 10
110.8006881353
 20
229.6485261829
 30
0.0
 10
110.6945081218
 20
229.9327651381
 30
0.0
 10
110.6252637911
 20
230.1774378082
 30
0.0
 10
110.594088316
 20
230.3812955627
 30
0.0
 10
110.6004280516
 20
230.5449150672
 30
0.0
 10
110.6446823136
 20
230.6533577338
 30
0.0
 10
110.7020747101
 20
230.7094180671
 30
0.0
 10
110.7737181829
 20
230.7489120277
 30
0.0
 10
110.837579677
 20
230.7573476989
 30
0.0
 10
110.8806983694
 20
230.7573476989
 30
0.0
  0
SPLINE
  5
42F
100
AcDbEntity
  8
0
100
AcDbSpline
 62
7
  6
CONTINUOUS
 70
0
 71
3
 72
22
 73
18
 74
0
 42
0.0000001
 43
0.0000001
 44
0.0000000001
 40
0.0
 40
0.0
 40
0.0
 40
0.0
 40
0.1925743765
 40
0.3773136305
 40
0.5468792474
 40
0.6239129182
 40
0.6948179426
 40
0.7589797599
 40
0.8158830243
 40
0.8651245151
 40
0.9064402489
 40
0.9397670323
 40
0.9653979886
 40
0.9756474556
 40
0.9845077861
 40
0.9924202394
 40
1.0
 40
1.0
 40
1.0
 40
1.0
 10
102.0093962331
 20
219.5073476989
 30
0.0
 10
102.0093962331
 20
220.137659956
 30
0.0
 10
101.9899307459
 20
221.3727438652
 30
0.0
 10
101.9030814204
 20
223.1609238137
 30
0.0
 10
101.7830572722
 20
224.568077145
 30
0.0
 10
101.6584094895
 20
225.5998903635
 30
0.0
 10
101.5568323162
 20
226.2867414408
 30
0.0
 10
101.4453300821
 20
226.9052257056
 30
0.0
 10
101.3251342549
 20
227.4497367635
 30
0.0
 10
101.1976157192
 20
227.9154599355
 30
0.0
 10
101.0641738506
 20
228.2989462969
 30
0.0
 10
100.9262624371
 20
228.5972155231
 30
0.0
 10
100.800044501
 20
228.7878822034
 30
0.0
 10
100.6937754553
 20
228.8896044905
 30
0.0
 10
100.6185059445
 20
228.9374942969
 30
0.0
 10
100.5414768671
 20
228.9618526826
 30
0.0
 10
100.4897756049
 20
228.9613791937
 30
0.0
 10
100.4652961565
 20
228.9573476989
 30
0.0
  0
SPLINE
  5
430
100
AcDbEntity
  8
KONSTRUKTIONSELEMENTE
100
AcDbSpline
 62
7
  6
CONTINUOUS
 70
0
 71
3
 72
10
 73
6
 74
0
 42
0.0000001
 43
0.0000001
 44
0.0000000001
 40
0.0
 40
0.0
 40
0.0
 40
0.0
 40
0.2161088009
 40
0.4607841665
 40
1.0
 40
1.0
 40
1.0
 40
1.0
 10
102.2471281626
 20
215.8102707942
 30
0.0
 10
102.2064500268
 20
216.0742301908
 30
0.0
 10
102.1367513005
 20
216.639694687
 30
0.0
 10
102.0369212124
 20
217.8716800079
 30
0.0
 10
102.0093962331
 20
218.8409644312
 30
0.0
 10
102.0093962331
 20
219.5073476989
 30
0.0
  0
SPLINE
  5
431
100
AcDbEntity
  8
KONSTRUKTIONSELEMENTE
100
AcDbSpline
 62
7
  6
CONTINUOUS
 70
0
 71
3
 72
10
 73
6
 74
0
 42
0.0000001
 43
0.0000001
 44
0.0000000001
 40
0.0
 40
0.0
 40
0.0
 40
0.0
 40
0.5392158335
 40
0.7838911991
 40
1.0
 40
1.0
 40
1.0
 40
1.0
 10
89.8211960799
 20
219.5073476989
 30
0.0
 10
89.8211960799
 20
218.8409644312
 30
0.0
 10
89.7936711006
 20
217.8716800079
 30
0.0
 10
89.6938410125
 20
216.639694687
 30
0.0
 10
89.6241422862
 20
216.0742301908
 30
0.0
 10
89.5834641504
 20
215.8102707942
 30
0.0
  0
SPLINE
  5
432
100
AcDbEntity
  8
0
100
AcDbSpline
 62
7
  6
CONTINUOUS
 70
0
 71
3
 72
22
 73
18
 74
0
 42
0.0000001
 43
0.0000001
 44
0.0000000001
 40
0.0
 40
0.0
 40
0.0
 40
0.0
 40
0.0075797606
 40
0.0154922139
 40
0.0243525444
 40
0.0346020114
 40
0.0602329677
 40
0.0935597511
 40
0.1348754849
 40
0.1841169757
 40
0.2410202401
 40
0.3051820574
 40
0.3760870818
 40
0.4531207526
 40
0.6226863695
 40
0.8074256235
 40
1.0
 40
1.0
 40
1.0
 40
1.0
 10
91.3652961565
 20
228.9573476989
 30
0.0
 10
91.3408167081
 20
228.9613791937
 30
0.0
 10
91.2891154459
 20
228.9618526826
 30
0.0
 10
91.2120863685
 20
228.9374942969
 30
0.0
 10
91.1368168577
 20
228.8896044905
 30
0.0
 10
91.0305478121
 20
228.7878822034
 30
0.0
 10
90.9043298759
 20
228.5972155231
 30
0.0
 10
90.7664184624
 20
228.2989462969
 30
0.0
 10
90.6329765938
 20
227.9154599355
 30
0.0
 10
90.5054580581
 20
227.4497367635
 30
0.0
 10
90.3852622309
 20
226.9052257056
 30
0.0
 10
90.2737599968
 20
226.2867414408
 30
0.0
 10
90.1721828235
 20
225.5998903635
 30
0.0
 10
90.0475350408
 20
224.568077145
 30
0.0
 10
89.9275108926
 20
223.1609238137
 30
0.0
 10
89.8406615671
 20
221.3727438652
 30
0.0
 10
89.8211960799
 20
220.137659956
 30
0.0
 10
89.8211960799
 20
219.5073476989
 30
0.0
  0
SPLINE
  5
433
100
AcDbEntity
  8
RUNDUNGEN
100
AcDbSpline
 62
7
  6
CONTINUOUS
 70
0
 71
3
 72
11
 73
7
 74
0
 42
0.0000001
 43
0.0000001
 44
0.0000000001
 40
0.0
 40
0.0
 40
0.0
 40
0.0
 40
0.2618866833
 40
0.51847685
 40
0.7646980754
 40
1.0
 40
1.0
 40
1.0
 40
1.0
 10
107.4475833222
 20
222.1795699211
 30
0.0
 10
107.4918353371
 20
222.266117382
 30
0.0
 10
107.5635211963
 20
222.4465093419
 30
0.0
 10
107.6038456872
 20
222.7306851748
 30
0.0
 10
107.5663168098
 20
223.0057688031
 30
0.0
 10
107.4927604018
 20
223.1713702789
 30
0.0
 10
107.4475833222
 20
223.2461150442
 30
0.0
  0
SPLINE
  5
434
100
AcDbEntity
  8
RUNDUNGEN
100
AcDbSpline
 62
7
  6
CONTINUOUS
 70
0
 71
3
 72
11
 73
7
 74
0
 42
0.0000001
 43
0.0000001
 44
0.0000000001
 40
0.0
 40
0.0
 40
0.0
 40
0.0
 40
0.235681984
 40
0.4818922074
 40
0.7382438037
 40
1.0
 40
1.0
 40
1.0
 40
1.0
 10
84.3986586685
 20
223.2241992164
 30
0.0
 10
84.354413397
 20
223.1488230086
 30
0.0
 10
84.2821129184
 20
222.9829496239
 30
0.0
 10
84.2429830588
 20
222.7085372622
 30
0.0
 10
84.2801000255
 20
222.4243180774
 30
0.0
 10
84.3505177992
 20
222.2436267434
 30
0.0
 10
84.3944714195
 20
222.1570756203
 30
0.0
  0
SPLINE
  5
435
100
AcDbEntity
  8
RUNDUNGEN
100
AcDbSpline
 62
7
  6
CONTINUOUS
 70
0
 71
3
 72
11
 73
7
 74
0
 42
0.0000001
 43
0.0000001
 44
0.0000000001
 40
0.0
 40
0.0
 40
0.0
 40
0.0
 40
0.2462207061
 40
0.4943758623
 40
0.7455734358
 40
1.0
 40
1.0
 40
1.0
 40
1.0
 10
106.7283771788
 20
225.5066640162
 30
0.0
 10
106.7283771788
 20
225.3096405177
 30
0.0
 10
106.7636616422
 20
224.9132501839
 30
0.0
 10
106.9147896876
 20
224.3338017075
 30
0.0
 10
107.1469700413
 20
223.7754632427
 30
0.0
 10
107.3422718028
 20
223.4203512913
 30
0.0
 10
107.4475833222
 20
223.2461150442
 30
0.0
  0
SPLINE
  5
436
100
AcDbEntity
  8
RUNDUNGEN
100
AcDbSpline
 62
7
  6
CONTINUOUS
 70
0
 71
3
 72
9
 73
5
 74
0
 42
0.0000001
 43
0.0000001
 44
0.0000000001
 40
0.0
 40
0.0
 40
0.0
 40
0.0
 40
0.4958857115
 40
1.0
 40
1.0
 40
1.0
 40
1.0
 10
115.9138257956
 20
148.0217959759
 30
0.0
 10
115.7380347429
 20
148.4734523913
 30
0.0
 10
115.3451200391
 20
149.3696363242
 30
0.0
 10
114.8843647732
 20
150.2328203489
 30
0.0
 10
114.6353721618
 20
150.6579779154
 30
0.0
  0
LINE
  5
437
100
AcDbEntity
  8
0
100
AcDbLine
 62
7
  6
CONTINUOUS
 10
85.1149738735
 20
230.7520002382
 11
85.1097641931
 21
225.5007376057
  0
SPLINE
  5
438
100
AcDbEntity
  8
KONSTRUKTIONSELEMENTE
100
AcDbSpline
 62
7
  6
CONTINUOUS
 70
0
 71
3
 72
17
 73
13
 74
0
 42
0.0000001
 43
0.0000001
 44
0.0000000001
 40
0.0
 40
0.0
 40
0.0
 40
0.0
 40
0.0624937012
 40
0.1250014362
 40
0.1875184342
 40
0.2500369723
 40
0.3749644513
 40
0.4999508949
 40
0.624957534
 40
0.7499710478
 40
0.8749857524
 40
1.0
 40
1.0
 40
1.0
 40
1.0
 10
106.7283771788
 20
219.5073476989
 30
0.0
 10
106.7283771788
 20
219.3811302234
 30
0.0
 10
106.6992162323
 20
219.1278317886
 30
0.0
 10
106.5767420711
 20
218.767071355
 30
0.0
 10
106.3939511655
 20
218.4335683314
 30
0.0
 10
106.0926559906
 20
218.0270677476
 30
0.0
 10
105.6397025669
 20
217.5827379031
 30
0.0
 10
105.0321288869
 20
217.1286821613
 30
0.0
 10
104.3840460127
 20
216.7349226164
 30
0.0
 10
103.7087977147
 20
216.3905378447
 30
0.0
 10
103.0138121216
 20
216.0882956695
 30
0.0
 10
102.5404468316
 20
215.9117245607
 30
0.0
 10
102.3018440039
 20
215.8291444686
 30
0.0
  0
SPLINE
  5
439
100
AcDbEntity
  8
RUNDUNGEN
100
AcDbSpline
 62
7
  6
CONTINUOUS
 70
0
 71
3
 72
10
 73
6
 74
0
 42
0.0000001
 43
0.0000001
 44
0.0000000001
 40
0.0
 40
0.0
 40
0.0
 40
0.0
 40
0.499769468
 40
0.749897837
 40
1.0
 40
1.0
 40
1.0
 40
1.0
 10
107.4475833222
 20
222.1795699211
 30
0.0
 10
107.2359443746
 20
221.7656494802
 30
0.0
 10
106.9635091978
 20
221.1168150966
 30
0.0
 10
106.763326762
 20
220.2060392485
 30
0.0
 10
106.7283771788
 20
219.7399941263
 30
0.0
 10
106.7283771788
 20
219.5073476989
 30
0.0
  0
SPLINE
  5
43A
100
AcDbEntity
  8
RUNDUNGEN
100
AcDbSpline
 62
7
  6
CONTINUOUS
 70
0
 71
3
 72
10
 73
6
 74
0
 42
0.0000001
 43
0.0000001
 44
0.0000000001
 40
0.0
 40
0.0
 40
0.0
 40
0.0
 40
0.2501029188
 40
0.5002311388
 40
1.0
 40
1.0
 40
1.0
 40
1.0
 10
85.1022151342
 20
219.5073476989
 30
0.0
 10
85.1022151342
 20
219.7378951386
 30
0.0
 10
85.0679007379
 20
220.199723491
 30
0.0
 10
84.871205515
 20
221.1026101606
 30
0.0
 10
84.603069538
 20
221.7463153393
 30
0.0
 10
84.3944714195
 20
222.1570756203
 30
0.0
  0
SPLINE
  5
43B
100
AcDbEntity
  8
KONSTRUKTIONSELEMENTE
100
AcDbSpline
 62
7
  6
CONTINUOUS
 70
0
 71
3
 72
17
 73
13
 74
0
 42
0.0000001
 43
0.0000001
 44
0.0000000001
 40
0.0
 40
0.0
 40
0.0
 40
0.0
 40
0.1250264565
 40
0.2500503925
 40
0.375070226
 40
0.5000795646
 40
0.6250636553
 40
0.7499799313
 40
0.8124920759
 40
0.8750017895
 40
0.9375036082
 40
1.0
 40
1.0
 40
1.0
 40
1.0
 10
89.5287483091
 20
215.8291444686
 30
0.0
 10
89.2901222325
 20
215.9117326071
 30
0.0
 10
88.8167167987
 20
216.0883198502
 30
0.0
 10
88.1216812521
 20
216.3905874094
 30
0.0
 10
87.4464037932
 20
216.7349965275
 30
0.0
 10
86.7983235059
 20
217.1287867807
 30
0.0
 10
86.190784507
 20
217.5828511263
 30
0.0
 10
85.7378641351
 20
218.0271551629
 30
0.0
 10
85.4366018663
 20
218.4336182501
 30
0.0
 10
85.2538448244
 20
218.7670941178
 30
0.0
 10
85.1313751198
 20
219.1278324556
 30
0.0
 10
85.1022151342
 20
219.3811248172
 30
0.0
 10
85.1022151342
 20
219.5073476989
 30
0.0
  0
SPLINE
  5
43C
100
AcDbEntity
  8
0
100
AcDbSpline
 62
7
  6
CONTINUOUS
 70
0
 71
3
 72
11
 73
7
 74
0
 42
0.0000001
 43
0.0000001
 44
0.0000000001
 40
0.0
 40
0.0
 40
0.0
 40
0.0
 40
0.2470252311
 40
0.4957608121
 40
0.7469777798
 40
1.0
 40
1.0
 40
1.0
 40
1.0
 10
265.5091951297
 20
178.1347958562
 30
0.0
 10
265.5091951297
 20
178.4316718104
 30
0.0
 10
265.3863487723
 20
179.0342698692
 30
0.0
 10
264.8630791959
 20
179.7919256243
 30
0.0
 10
264.0857174798
 20
180.2972746744
 30
0.0
 10
263.4732782904
 20
180.4148218078
 30
0.0
 10
263.1691951297
 20
180.4148218078
 30
0.0
  0
SPLINE
  5
43D
100
AcDbEntity
  8
0
100
AcDbSpline
 62
7
  6
CONTINUOUS
 70
0
 71
3
 72
11
 73
7
 74
0
 42
0.0000001
 43
0.0000001
 44
0.0000000001
 40
0.0
 40
0.0
 40
0.0
 40
0.0
 40
0.2469906587
 40
0.4957639864
 40
0.7469778533
 40
1.0
 40
1.0
 40
1.0
 40
1.0
 10
264.2291404781
 20
171.5967727215
 30
0.0
 10
264.2291404781
 20
171.4344036539
 30
0.0
 10
264.1619423693
 20
171.1047918891
 30
0.0
 10
263.8757981818
 20
170.6902838467
 30
0.0
 10
263.450526491
 20
170.4138782409
 30
0.0
 10
263.1155292343
 20
170.3495790386
 30
0.0
 10
262.9491951297
 20
170.3495790386
 30
0.0
  0
SPLINE
  5
43E
100
AcDbEntity
  8
0
100
AcDbSpline
 62
7
  6
CONTINUOUS
 70
0
 71
3
 72
11
 73
7
 74
0
 42
0.0000001
 43
0.0000001
 44
0.0000000001
 40
0.0
 40
0.0
 40
0.0
 40
0.0
 40
0.2469936009
 40
0.4957647295
 40
0.7469767742
 40
1.0
 40
1.0
 40
1.0
 40
1.0
 10
265.5091951297
 20
171.5967727215
 30
0.0
 10
265.5091951297
 20
171.9215175211
 30
0.0
 10
265.3747187669
 20
172.5807366512
 30
0.0
 10
264.8024119917
 20
173.4097338783
 30
0.0
 10
263.951863066
 20
173.9625405559
 30
0.0
 10
263.2818676218
 20
174.0911600874
 30
0.0
 10
262.9491951297
 20
174.0911600874
 30
0.0
  0
SPLINE
  5
43F
100
AcDbEntity
  8
0
100
AcDbSpline
 62
7
  6
CONTINUOUS
 70
0
 71
3
 72
11
 73
7
 74
0
 42
0.0000001
 43
0.0000001
 44
0.0000000001
 40
0.0
 40
0.0
 40
0.0
 40
0.0
 40
0.2530222202
 40
0.5042391879
 40
0.7529747689
 40
1.0
 40
1.0
 40
1.0
 40
1.0
 10
261.4691951297
 20
180.4148218078
 30
0.0
 10
261.165111969
 20
180.4148218078
 30
0.0
 10
260.5526727796
 20
180.2972746744
 30
0.0
 10
259.7753110635
 20
179.7919256243
 30
0.0
 10
259.2520414871
 20
179.0342698692
 30
0.0
 10
259.1291951297
 20
178.4316718104
 30
0.0
 10
259.1291951297
 20
178.1347958562
 30
0.0
  0
SPLINE
  5
440
100
AcDbEntity
  8
0
100
AcDbSpline
 62
7
  6
CONTINUOUS
 70
0
 71
3
 72
15
 73
11
 74
0
 42
0.0000001
 43
0.0000001
 44
0.0000000001
 40
0.0
 40
0.0
 40
0.0
 40
0.0
 40
0.1240460835
 40
0.2491837039
 40
0.3752509055
 40
0.5016638887
 40
0.6276839469
 40
0.7527484841
 40
0.8767290476
 40
1.0
 40
1.0
 40
1.0
 40
1.0
 10
262.7236496224
 20
166.7071543225
 30
0.0
 10
262.6461681688
 20
166.902079312
 30
0.0
 10
262.4186663202
 20
167.2689033356
 30
0.0
 10
261.9105025707
 20
167.6688255089
 30
0.0
 10
261.2938508899
 20
167.8774710006
 30
0.0
 10
260.6416514798
 20
167.8701280379
 30
0.0
 10
260.0300775146
 20
167.6479548112
 30
0.0
 10
259.5312009503
 20
167.235925474
 30
0.0
 10
259.2049318746
 20
166.6828713031
 30
0.0
 10
259.1291951297
 20
166.2610560093
 30
0.0
 10
259.1291951297
 20
166.0526070529
 30
0.0
  0
SPLINE
  5
441
100
AcDbEntity
  8
BEZUGSACHSEN
100
AcDbSpline
 62
7
  6
CONTINUOUS
 70
0
 71
3
 72
15
 73
11
 74
0
 42
0.0000001
 43
0.0000001
 44
0.0000000001
 40
0.0
 40
0.0
 40
0.0
 40
0.0
 40
0.1172114794
 40
0.2329416196
 40
0.3507880689
 40
0.4733952407
 40
0.6015006744
 40
0.7338085761
 40
0.8677163369
 40
1.0
 40
1.0
 40
1.0
 40
1.0
 10
255.6775435033
 20
168.7964375365
 30
0.0
 10
255.7315034749
 20
168.7278353834
 30
0.0
 10
255.862813674
 20
168.6082014042
 30
0.0
 10
256.1107440796
 20
168.5097796555
 30
0.0
 10
256.3813365121
 20
168.5041216191
 30
0.0
 10
256.6468570574
 20
168.5901728374
 30
0.0
 10
256.8827925469
 20
168.7574743279
 30
0.0
 10
257.0685021037
 20
168.9896332176
 30
0.0
 10
257.18772016
 20
169.264987379
 30
0.0
 10
257.2161191913
 20
169.4641245698
 30
0.0
 10
257.2161191913
 20
169.5626287513
 30
0.0
  0
SPLINE
  5
442
100
AcDbEntity
  8
0
100
AcDbSpline
 62
7
  6
CONTINUOUS
 70
0
 71
3
 72
9
 73
5
 74
0
 42
0.0000001
 43
0.0000001
 44
0.0000000001
 40
0.0
 40
0.0
 40
0.0
 40
0.0
 40
0.5024936115
 40
1.0
 40
1.0
 40
1.0
 40
1.0
 10
263.3791951297
 20
165.7708457919
 30
0.0
 10
263.2478530486
 20
165.6969589338
 30
0.0
 10
263.0148606017
 20
165.4914221587
 30
0.0
 10
262.8928712269
 20
165.2051239775
 30
0.0
 10
262.8658880799
 20
165.058381463
 30
0.0
  0
SPLINE
  5
443
100
AcDbEntity
  8
0
100
AcDbSpline
 62
7
  6
CONTINUOUS
 70
0
 71
3
 72
11
 73
7
 74
0
 42
0.0000001
 43
0.0000001
 44
0.0000000001
 40
0.0
 40
0.0
 40
0.0
 40
0.0
 40
0.2530174175
 40
0.5042398848
 40
0.7530058346
 40
1.0
 40
1.0
 40
1.0
 40
1.0
 10
262.9491951297
 20
168.9899098285
 30
0.0
 10
263.2818615021
 20
168.9899098285
 30
0.0
 10
263.9518480268
 20
169.1185670483
 30
0.0
 10
264.8024680061
 20
169.6712690459
 30
0.0
 10
265.3747526641
 20
170.5003282068
 30
0.0
 10
265.5091509395
 20
171.1595501717
 30
0.0
 10
265.5091509395
 20
171.4842971944
 30
0.0
  0
SPLINE
  5
444
100
AcDbEntity
  8
0
100
AcDbSpline
 62
7
  6
CONTINUOUS
 70
0
 71
3
 72
15
 73
11
 74
0
 42
0.0000001
 43
0.0000001
 44
0.0000000001
 40
0.0
 40
0.0
 40
0.0
 40
0.0
 40
0.1236711492
 40
0.2481860791
 40
0.3738242195
 40
0.5001473112
 40
0.6264336389
 40
0.7519794806
 40
0.8763858744
 40
1.0
 40
1.0
 40
1.0
 40
1.0
 10
261.7766055084
 20
165.6487646843
 30
0.0
 10
261.7600649599
 20
165.7387438031
 30
0.0
 10
261.6933934188
 20
165.9148691086
 30
0.0
 10
261.5070019797
 20
166.1266671033
 30
0.0
 10
261.2576197165
 20
166.2629522085
 30
0.0
 10
260.975684199
 20
166.3069845601
 30
0.0
 10
260.6953768783
 20
166.2538843996
 30
0.0
 10
260.4507293837
 20
166.1095956306
 30
0.0
 10
260.2715986763
 20
165.8918360627
 30
0.0
 10
260.211022192
 20
165.713651173
 30
0.0
 10
260.1975305435
 20
165.6232073217
 30
0.0
  0
SPLINE
  5
445
100
AcDbEntity
  8
0
100
AcDbSpline
 62
7
  6
CONTINUOUS
 70
0
 71
3
 72
15
 73
11
 74
0
 42
0.0000001
 43
0.0000001
 44
0.0000000001
 40
0.0
 40
0.0
 40
0.0
 40
0.0
 40
0.1172114794
 40
0.2329416196
 40
0.3507880689
 40
0.4733952407
 40
0.6015006744
 40
0.7338085761
 40
0.8677163369
 40
1.0
 40
1.0
 40
1.0
 40
1.0
 10
269.2498290825
 20
168.7964375365
 30
0.0
 10
269.195869111
 20
168.7278353834
 30
0.0
 10
269.0645589118
 20
168.6082014042
 30
0.0
 10
268.8166285062
 20
168.5097796555
 30
0.0
 10
268.5460360738
 20
168.5041216191
 30
0.0
 10
268.2805155284
 20
168.5901728374
 30
0.0
 10
268.0445800389
 20
168.7574743279
 30
0.0
 10
267.8588704821
 20
168.9896332176
 30
0.0
 10
267.7396524259
 20
169.264987379
 30
0.0
 10
267.7112533945
 20
169.4641245698
 30
0.0
 10
267.7112533945
 20
169.5626287513
 30
0.0
  0
SPLINE
  5
446
100
AcDbEntity
  8
0
100
AcDbSpline
 62
7
  6
CONTINUOUS
 70
0
 71
3
 72
11
 73
7
 74
0
 42
0.0000001
 43
0.0000001
 44
0.0000000001
 40
0.0
 40
0.0
 40
0.0
 40
0.0
 40
0.2472162698
 40
0.4961805572
 40
0.7473448651
 40
1.0
 40
1.0
 40
1.0
 40
1.0
 10
264.4323431017
 20
177.9675979064
 30
0.0
 10
264.4076200901
 20
178.1177624205
 30
0.0
 10
264.3020785961
 20
178.4127722122
 30
0.0
 10
263.9981711379
 20
178.7706234444
 30
0.0
 10
263.5875383012
 20
179.0044357461
 30
0.0
 10
263.2747293884
 20
179.0583465828
 30
0.0
 10
263.1191951297
 20
179.0583465828
 30
0.0
  0
SPLINE
  5
447
100
AcDbEntity
  8
0
100
AcDbSpline
 62
7
  6
CONTINUOUS
 70
0
 71
3
 72
11
 73
7
 74
0
 42
0.0000001
 43
0.0000001
 44
0.0000000001
 40
0.0
 40
0.0
 40
0.0
 40
0.0
 40
0.2526541235
 40
0.5038215546
 40
0.7527868323
 40
1.0
 40
1.0
 40
1.0
 40
1.0
 10
261.5223918797
 20
179.0583465828
 30
0.0
 10
261.3666203011
 20
179.0587113959
 30
0.0
 10
261.0531974001
 20
179.0053663453
 30
0.0
 10
260.6415425175
 20
178.7718288588
 30
0.0
 10
260.3367663129
 20
178.4137340462
 30
0.0
 10
260.2308991422
 20
178.118306713
 30
0.0
 10
260.2061001172
 20
177.9679202778
 30
0.0
  0
SPLINE
  5
448
100
AcDbEntity
  8
AUSFORMSCHRAEGEN
100
AcDbSpline
 62
7
  6
CONTINUOUS
 70
0
 71
3
 72
23
 73
19
 74
0
 42
0.0000001
 43
0.0000001
 44
0.0000000001
 40
0.0
 40
0.0
 40
0.0
 40
0.0
 40
0.0632980095
 40
0.1264664459
 40
0.1893904373
 40
0.2520312676
 40
0.3143655796
 40
0.3764224286
 40
0.4382681634
 40
0.5
 40
0.5617318366
 40
0.6235775714
 40
0.6856344204
 40
0.7479687324
 40
0.8106095627
 40
0.8735335541
 40
0.9367019905
 40
1.0
 40
1.0
 40
1.0
 40
1.0
 10
249.9886182741
 20
178.5062887668
 30
0.0
 10
250.5536423805
 20
178.4741231854
 30
0.0
 10
251.6793515209
 20
178.3053061565
 30
0.0
 10
253.2880965134
 20
177.7479078608
 30
0.0
 10
254.7616240493
 20
176.9054248616
 30
0.0
 10
256.0468061979
 20
175.8081120563
 30
0.0
 10
257.0977953539
 20
174.494440106
 30
0.0
 10
257.8768707002
 20
173.0112276807
 30
0.0
 10
258.3558951262
 20
171.4112936086
 30
0.0
 10
258.5175322021
 20
169.7518870669
 30
0.0
 10
258.3558951262
 20
168.0924805253
 30
0.0
 10
257.8768707002
 20
166.4925464532
 30
0.0
 10
257.0977953539
 20
165.0093340279
 30
0.0
 10
256.0468061979
 20
163.6956620776
 30
0.0
 10
254.7616240493
 20
162.5983492723
 30
0.0
 10
253.2880965134
 20
161.7558662731
 30
0.0
 10
251.6793515209
 20
161.1984679774
 30
0.0
 10
250.5536423805
 20
161.0296509485
 30
0.0
 10
249.9886182741
 20
160.9974853671
 30
0.0
  0
SPLINE
  5
449
100
AcDbEntity
  8
BEZUGSACHSEN
100
AcDbSpline
 62
7
  6
CONTINUOUS
 70
0
 71
3
 72
11
 73
7
 74
0
 42
0.0000001
 43
0.0000001
 44
0.0000000001
 40
0.0
 40
0.0
 40
0.0
 40
0.0
 40
0.2649211258
 40
0.5157182723
 40
0.7571973394
 40
1.0
 40
1.0
 40
1.0
 40
1.0
 10
257.2161191913
 20
169.5626287513
 30
0.0
 10
257.2161191913
 20
169.6807980118
 30
0.0
 10
257.176404194
 20
169.9135390425
 30
0.0
 10
256.992350762
 20
170.20800753
 30
0.0
 10
256.7084998842
 20
170.3929703318
 30
0.0
 10
256.485822322
 20
170.4200465591
 30
0.0
 10
256.3779178159
 20
170.4107618981
 30
0.0
  0
SPLINE
  5
44A
100
AcDbEntity
  8
BEZUGSACHSEN
100
AcDbSpline
 62
7
  6
CONTINUOUS
 70
0
 71
3
 72
15
 73
11
 74
0
 42
0.0000001
 43
0.0000001
 44
0.0000000001
 40
0.0
 40
0.0
 40
0.0
 40
0.0
 40
0.1252997132
 40
0.2494314839
 40
0.3728122937
 40
0.4963763935
 40
0.6210281267
 40
0.7469622856
 40
0.8735834383
 40
1.0
 40
1.0
 40
1.0
 40
1.0
 10
251.4660979196
 20
171.0863775936
 30
0.0
 10
251.464892069
 20
170.9592750829
 30
0.0
 10
251.5131605014
 20
170.7028032074
 30
0.0
 10
251.7291211549
 20
170.3800433706
 30
0.0
 10
252.0547431873
 20
170.1703574777
 30
0.0
 10
252.4375386978
 20
170.1088696693
 30
0.0
 10
252.8155687796
 20
170.2048550063
 30
0.0
 10
253.1285150371
 20
170.4423579895
 30
0.0
 10
253.3275816367
 20
170.7823712449
 30
0.0
 10
253.363444429
 20
171.0445359532
 30
0.0
 10
253.3555037488
 20
171.1725310734
 30
0.0
  0
SPLINE
  5
44B
100
AcDbEntity
  8
BEZUGSACHSEN
100
AcDbSpline
 62
7
  6
CONTINUOUS
 70
0
 71
3
 72
17
 73
13
 74
0
 42
0.0000001
 43
0.0000001
 44
0.0000000001
 40
0.0
 40
0.0
 40
0.0
 40
0.0
 40
0.1252151463
 40
0.2493285011
 40
0.3727928411
 40
0.4348412657
 40
0.497039579
 40
0.6216061623
 40
0.7472266677
 40
0.8105741096
 40
0.873966749
 40
1.0
 40
1.0
 40
1.0
 40
1.0
 10
253.3555037488
 20
171.1725310734
 30
0.0
 10
253.3479827715
 20
171.29376104
 30
0.0
 10
253.2864860281
 20
171.5349080271
 30
0.0
 10
253.0663715986
 20
171.8327723001
 30
0.0
 10
252.8016970473
 20
171.9920170671
 30
0.0
 10
252.5673347444
 20
172.0508136315
 30
0.0
 10
252.324936451
 20
172.0633313849
 30
0.0
 10
252.022744909
 20
171.9891447989
 30
0.0
 10
251.7698842438
 20
171.8065300004
 30
0.0
 10
251.6180785586
 20
171.6128471268
 30
0.0
 10
251.5045726799
 20
171.3943252434
 30
0.0
 10
251.4672577441
 20
171.2086287213
 30
0.0
 10
251.4660979196
 20
171.0863775936
 30
0.0
  0
SPLINE
  5
44C
100
AcDbEntity
  8
BEZUGSACHSEN
100
AcDbSpline
 62
7
  6
CONTINUOUS
 70
0
 71
3
 72
14
 73
10
 74
0
 42
0.0000001
 43
0.0000001
 44
0.0000000001
 40
0.0
 40
0.0
 40
0.0
 40
0.0
 40
0.263468752
 40
0.3910416282
 40
0.5145162927
 40
0.6349728188
 40
0.7544845097
 40
0.8755052447
 40
1.0
 40
1.0
 40
1.0
 40
1.0
 10
257.1313441534
 20
173.5918029191
 30
0.0
 10
257.0962817369
 20
173.7583536595
 30
0.0
 10
256.9808824055
 20
173.9990988607
 30
0.0
 10
256.7294913577
 20
174.2214881513
 30
0.0
 10
256.5093990288
 20
174.3258817877
 30
0.0
 10
256.2731833252
 20
174.3590666102
 30
0.0
 10
256.0396745642
 20
174.3178747324
 30
0.0
 10
255.8281047129
 20
174.2058511758
 30
0.0
 10
255.7142278024
 20
174.0917495608
 30
0.0
 10
255.6657089569
 20
174.0276096763
 30
0.0
  0
SPLINE
  5
44D
100
AcDbEntity
  8
BEZUGSACHSEN
100
AcDbSpline
 62
7
  6
CONTINUOUS
 70
0
 71
3
 72
17
 73
13
 74
0
 42
0.0000001
 43
0.0000001
 44
0.0000000001
 40
0.0
 40
0.0
 40
0.0
 40
0.0
 40
0.1256644329
 40
0.189325319
 40
0.2531518391
 40
0.3800478265
 40
0.5056646259
 40
0.5681128083
 40
0.6301457229
 40
0.7527991683
 40
0.8756204833
 40
1.0
 40
1.0
 40
1.0
 40
1.0
 10
251.4686244141
 20
175.2380185227
 30
0.0
 10
251.4633977806
 20
175.1122026758
 30
0.0
 10
251.4947563267
 20
174.9185062033
 30
0.0
 10
251.6064310414
 20
174.6894671064
 30
0.0
 10
251.7606738245
 20
174.4847134207
 30
0.0
 10
252.0222470044
 20
174.2910960964
 30
0.0
 10
252.3370619008
 20
174.2123123158
 30
0.0
 10
252.5888057913
 20
174.2266054221
 30
0.0
 10
252.829686092
 20
174.2901708093
 30
0.0
 10
253.0976316487
 20
174.4613321715
 30
0.0
 10
253.3075206466
 20
174.7792482052
 30
0.0
 10
253.3505694952
 20
175.0314447022
 30
0.0
 10
253.3470472578
 20
175.1560317114
 30
0.0
  0
SPLINE
  5
44E
100
AcDbEntity
  8
BEZUGSACHSEN
100
AcDbSpline
 62
7
  6
CONTINUOUS
 70
0
 71
3
 72
15
 73
11
 74
0
 42
0.0000001
 43
0.0000001
 44
0.0000000001
 40
0.0
 40
0.0
 40
0.0
 40
0.0
 40
0.126765135
 40
0.2541519529
 40
0.3809687361
 40
0.5064007304
 40
0.6302198723
 40
0.7530124393
 40
0.8759261443
 40
1.0
 40
1.0
 40
1.0
 40
1.0
 10
253.3262045752
 20
175.3295217233
 30
0.0
 10
253.3022699606
 20
175.4411238451
 30
0.0
 10
253.2134678004
 20
175.6580693903
 30
0.0
 10
252.9784623765
 20
175.9169793327
 30
0.0
 10
252.6701578173
 20
176.0803692302
 30
0.0
 10
252.3273021912
 20
176.1264231517
 30
0.0
 10
251.993670375
 20
176.0482657866
 30
0.0
 10
251.7131644254
 20
175.8549329488
 30
0.0
 10
251.5230936168
 20
175.5724089617
 30
0.0
 10
251.4732613377
 20
175.3496388362
 30
0.0
 10
251.4686244141
 20
175.2380185227
 30
0.0
  0
SPLINE
  5
44F
100
AcDbEntity
  8
BEZUGSACHSEN
100
AcDbSpline
 62
7
  6
CONTINUOUS
 70
0
 71
3
 72
11
 73
7
 74
0
 42
0.0000001
 43
0.0000001
 44
0.0000000001
 40
0.0
 40
0.0
 40
0.0
 40
0.0
 40
0.2506898635
 40
0.4983592179
 40
0.7468392522
 40
1.0
 40
1.0
 40
1.0
 40
1.0
 10
253.3555037488
 20
167.2750508142
 30
0.0
 10
253.3614739886
 20
167.3659895603
 30
0.0
 10
253.3445454413
 20
167.5501567817
 30
0.0
 10
253.2306650009
 20
167.8021142124
 30
0.0
 10
253.0395322075
 20
168.0030514285
 30
0.0
 10
252.8748241724
 20
168.0894691214
 30
0.0
 10
252.7877562844
 20
168.1192887907
 30
0.0
  0
SPLINE
  5
450
100
AcDbEntity
  8
BEZUGSACHSEN
100
AcDbSpline
 62
7
  6
CONTINUOUS
 70
0
 71
3
 72
15
 73
11
 74
0
 42
0.0000001
 43
0.0000001
 44
0.0000000001
 40
0.0
 40
0.0
 40
0.0
 40
0.0
 40
0.1202076638
 40
0.239673613
 40
0.361461844
 40
0.4872667061
 40
0.6165555168
 40
0.7469090761
 40
0.8753675192
 40
1.0
 40
1.0
 40
1.0
 40
1.0
 10
251.4660979196
 20
167.1888973345
 30
0.0
 10
251.4672412076
 20
167.0757821642
 30
0.0
 10
251.5156135842
 20
166.8476690532
 30
0.0
 10
251.7224942955
 20
166.5653827318
 30
0.0
 10
252.0297824431
 20
166.3877025415
 30
0.0
 10
252.3895601728
 20
166.338937788
 30
0.0
 10
252.7503667909
 20
166.4226824927
 30
0.0
 10
253.0626150217
 20
166.626334537
 30
0.0
 10
253.2830324365
 20
166.9214953432
 30
0.0
 10
253.3478203917
 20
167.1580178493
 30
0.0
 10
253.3555037488
 20
167.2750508142
 30
0.0
  0
SPLINE
  5
451
100
AcDbEntity
  8
BEZUGSACHSEN
100
AcDbSpline
 62
7
  6
CONTINUOUS
 70
0
 71
3
 72
11
 73
7
 74
0
 42
0.0000001
 43
0.0000001
 44
0.0000000001
 40
0.0
 40
0.0
 40
0.0
 40
0.0
 40
0.2711941636
 40
0.5204136375
 40
0.7576708666
 40
1.0
 40
1.0
 40
1.0
 40
1.0
 10
257.1313441534
 20
165.7968424008
 30
0.0
 10
257.1519473487
 20
165.8863878693
 30
0.0
 10
257.166933783
 20
166.0657512503
 30
0.0
 10
257.0948583079
 20
166.3190446719
 30
0.0
 10
256.9300889695
 20
166.5134586609
 30
0.0
 10
256.7768240933
 20
166.5825227612
 30
0.0
 10
256.6970011859
 20
166.6017468964
 30
0.0
  0
SPLINE
  5
452
100
AcDbEntity
  8
0
100
AcDbSpline
 62
7
  6
CONTINUOUS
 70
0
 71
3
 72
14
 73
10
 74
0
 42
0.0000001
 43
0.0000001
 44
0.0000000001
 40
0.0
 40
0.0
 40
0.0
 40
0.0
 40
0.1106587837
 40
0.2189255281
 40
0.3325548036
 40
0.4562421699
 40
0.5898688224
 40
0.7294203219
 40
1.0
 40
1.0
 40
1.0
 40
1.0
 10
269.4300350188
 20
165.3707815385
 30
0.0
 10
269.4087648406
 20
165.2911126662
 30
0.0
 10
269.3352068544
 20
165.1391142879
 30
0.0
 10
269.1354973412
 20
164.9793627474
 30
0.0
 10
268.8791670345
 20
164.9146234454
 30
0.0
 10
268.5996865966
 20
164.9461168139
 30
0.0
 10
268.324854822
 20
165.0661290869
 30
0.0
 10
268.0059509279
 20
165.3199368654
 30
0.0
 10
267.8412388546
 20
165.6003491682
 30
0.0
 10
267.7960284324
 20
165.7968424008
 30
0.0
  0
SPLINE
  5
453
100
AcDbEntity
  8
BEZUGSACHSEN
100
AcDbSpline
 62
7
  6
CONTINUOUS
 70
0
 71
3
 72
9
 73
5
 74
0
 42
0.0000001
 43
0.0000001
 44
0.0000000001
 40
0.0
 40
0.0
 40
0.0
 40
0.0
 40
0.5026434293
 40
1.0
 40
1.0
 40
1.0
 40
1.0
 10
253.3262045752
 20
163.6370809459
 30
0.0
 10
253.3534036424
 20
163.7430467732
 30
0.0
 10
253.3571905927
 20
163.9727141812
 30
0.0
 10
253.2355798797
 20
164.1681619646
 30
0.0
 10
253.1576026118
 20
164.2432462015
 30
0.0
  0
SPLINE
  5
454
100
AcDbEntity
  8
BEZUGSACHSEN
100
AcDbSpline
 62
7
  6
CONTINUOUS
 70
0
 71
3
 72
15
 73
11
 74
0
 42
0.0000001
 43
0.0000001
 44
0.0000000001
 40
0.0
 40
0.0
 40
0.0
 40
0.0
 40
0.1087631545
 40
0.2208622407
 40
0.3423070064
 40
0.4738463659
 40
0.6114793605
 40
0.7487658565
 40
0.8794982817
 40
1.0
 40
1.0
 40
1.0
 40
1.0
 10
251.4686244141
 20
163.5455777453
 30
0.0
 10
251.4732286866
 20
163.4555102352
 30
0.0
 10
251.5251743635
 20
163.2717737039
 30
0.0
 10
251.7233133468
 20
163.0562777084
 30
0.0
 10
252.0052439705
 20
162.928458316
 30
0.0
 10
252.3328565966
 20
162.8979849583
 30
0.0
 10
252.6677050155
 20
162.9650727632
 30
0.0
 10
252.9707120588
 20
163.1213650089
 30
0.0
 10
253.205924658
 20
163.3486068237
 30
0.0
 10
253.3013629707
 20
163.5402996422
 30
0.0
 10
253.3262045752
 20
163.6370809459
 30
0.0
  0
SPLINE
  5
455
100
AcDbEntity
  8
0
100
AcDbSpline
 62
7
  6
CONTINUOUS
 70
0
 71
3
 72
11
 73
7
 74
0
 42
0.0000001
 43
0.0000001
 44
0.0000000001
 40
0.0
 40
0.0
 40
0.0
 40
0.0
 40
0.2470871055
 40
0.4961091948
 40
0.747305389
 40
1.0
 40
1.0
 40
1.0
 40
1.0
 10
264.2134023869
 20
171.679396053
 30
0.0
 10
264.1898833898
 20
171.824078915
 30
0.0
 10
264.0885841061
 20
172.1084842797
 30
0.0
 10
263.7962602221
 20
172.453791912
 30
0.0
 10
263.400594337
 20
172.6794433704
 30
0.0
 10
263.0991036961
 20
172.7314908773
 30
0.0
 10
262.9491951297
 20
172.7314908773
 30
0.0
  0
SPLINE
  5
456
100
AcDbEntity
  8
BEZUGSACHSEN
100
AcDbSpline
 62
7
  6
CONTINUOUS
 70
0
 71
3
 72
14
 73
10
 74
0
 42
0.0000001
 43
0.0000001
 44
0.0000000001
 40
0.0
 40
0.0
 40
0.0
 40
0.0
 40
0.1106587837
 40
0.2189255281
 40
0.3325548036
 40
0.4562421699
 40
0.5898688224
 40
0.7294203219
 40
1.0
 40
1.0
 40
1.0
 40
1.0
 10
255.497337567
 20
165.3707815385
 30
0.0
 10
255.5186077452
 20
165.2911126662
 30
0.0
 10
255.5921657315
 20
165.1391142879
 30
0.0
 10
255.7918752446
 20
164.9793627474
 30
0.0
 10
256.0482055513
 20
164.9146234454
 30
0.0
 10
256.3276859892
 20
164.9461168139
 30
0.0
 10
256.6025177639
 20
165.0661290869
 30
0.0
 10
256.9214216579
 20
165.3199368654
 30
0.0
 10
257.0861337312
 20
165.6003491682
 30
0.0
 10
257.1313441534
 20
165.7968424008
 30
0.0
  0
SPLINE
  5
457
100
AcDbEntity
  8
0
100
AcDbSpline
 62
7
  6
CONTINUOUS
 70
0
 71
3
 72
10
 73
6
 74
0
 42
0.0000001
 43
0.0000001
 44
0.0000000001
 40
0.0
 40
0.0
 40
0.0
 40
0.0
 40
0.5495305586
 40
0.7903215765
 40
1.0
 40
1.0
 40
1.0
 40
1.0
 10
275.2010190803
 20
169.0775512865
 30
0.0
 10
275.2010190803
 20
167.5963725871
 30
0.0
 10
275.1735192862
 20
165.4658318851
 30
0.0
 10
275.062662718
 20
162.772632974
 30
0.0
 10
274.9847491025
 20
161.5607679508
 30
0.0
 10
274.9387543118
 20
160.9974853671
 30
0.0
  0
SPLINE
  5
458
100
AcDbEntity
  8
0
100
AcDbSpline
 62
7
  6
CONTINUOUS
 70
0
 71
3
 72
9
 73
5
 74
0
 42
0.0000001
 43
0.0000001
 44
0.0000000001
 40
0.0
 40
0.0
 40
0.0
 40
0.0
 40
0.5077342738
 40
1.0
 40
1.0
 40
1.0
 40
1.0
 10
275.2010190803
 20
169.0775512865
 30
0.0
 10
275.2010190803
 20
170.6740886669
 30
0.0
 10
275.1557979049
 20
173.8186161919
 30
0.0
 10
275.0276230542
 20
176.9609444237
 30
0.0
 10
274.9387543118
 20
178.5062887668
 30
0.0
  0
SPLINE
  5
459
100
AcDbEntity
  8
0
100
AcDbSpline
 62
7
  6
CONTINUOUS
 70
0
 71
3
 72
8
 73
4
 74
0
 42
0.0000001
 43
0.0000001
 44
0.0000000001
 40
0.0
 40
0.0
 40
0.0
 40
0.0
 40
1.0
 40
1.0
 40
1.0
 40
1.0
 10
273.4426967893
 20
167.3770492225
 30
0.0
 10
273.45551101
 20
167.3153434401
 30
0.0
 10
273.4619116183
 20
167.2519163961
 30
0.0
 10
273.4612746662
 20
167.1888973345
 30
0.0
  0
SPLINE
  5
45A
100
AcDbEntity
  8
BEZUGSACHSEN
100
AcDbSpline
 62
7
  6
CONTINUOUS
 70
0
 71
3
 72
8
 73
4
 74
0
 42
0.0000001
 43
0.0000001
 44
0.0000000001
 40
0.0
 40
0.0
 40
0.0
 40
0.0
 40
1.0
 40
1.0
 40
1.0
 40
1.0
 10
251.4846757965
 20
167.3770492225
 30
0.0
 10
251.4718615758
 20
167.3153434401
 30
0.0
 10
251.4654609676
 20
167.2519163961
 30
0.0
 10
251.4660979196
 20
167.1888973345
 30
0.0
  0
SPLINE
  5
45B
100
AcDbEntity
  8
AUSFORMSCHRAEGEN
100
AcDbSpline
 62
7
  6
CONTINUOUS
 70
0
 71
3
 72
9
 73
5
 74
0
 42
0.0000001
 43
0.0000001
 44
0.0000000001
 40
0.0
 40
0.0
 40
0.0
 40
0.0
 40
0.5077342738
 40
1.0
 40
1.0
 40
1.0
 40
1.0
 10
249.7263535055
 20
169.0775512865
 30
0.0
 10
249.7263535055
 20
170.6740886669
 30
0.0
 10
249.771574681
 20
173.8186161919
 30
0.0
 10
249.8997495316
 20
176.9609444237
 30
0.0
 10
249.9886182741
 20
178.5062887668
 30
0.0
  0
SPLINE
  5
45C
100
AcDbEntity
  8
AUSFORMSCHRAEGEN
100
AcDbSpline
 62
7
  6
CONTINUOUS
 70
0
 71
3
 72
10
 73
6
 74
0
 42
0.0000001
 43
0.0000001
 44
0.0000000001
 40
0.0
 40
0.0
 40
0.0
 40
0.0
 40
0.5495305586
 40
0.7903215765
 40
1.0
 40
1.0
 40
1.0
 40
1.0
 10
249.7263535055
 20
169.0775512865
 30
0.0
 10
249.7263535055
 20
167.5963725871
 30
0.0
 10
249.7538532996
 20
165.4658318851
 30
0.0
 10
249.8647098678
 20
162.772632974
 30
0.0
 10
249.9426234833
 20
161.5607679508
 30
0.0
 10
249.9886182741
 20
160.9974853671
 30
0.0
  0
SPLINE
  5
45D
100
AcDbEntity
  8
0
100
AcDbSpline
 62
7
  6
CONTINUOUS
 70
0
 71
3
 72
15
 73
11
 74
0
 42
0.0000001
 43
0.0000001
 44
0.0000000001
 40
0.0
 40
0.0
 40
0.0
 40
0.0
 40
0.1233259122
 40
0.2431974
 40
0.3618495988
 40
0.482045656
 40
0.6059051902
 40
0.7341807597
 40
0.8662557417
 40
1.0
 40
1.0
 40
1.0
 40
1.0
 10
269.0671581081
 20
172.6267256103
 30
0.0
 10
268.998675773
 20
172.5749284543
 30
0.0
 10
268.8473495087
 20
172.4920736428
 30
0.0
 10
268.5950848377
 20
172.4463518795
 30
0.0
 10
268.34361444
 20
172.4860162948
 30
0.0
 10
268.1170205185
 20
172.6075015703
 30
0.0
 10
267.9356207606
 20
172.7983959592
 30
0.0
 10
267.8142915685
 20
173.0409343564
 30
0.0
 10
267.7625152997
 20
173.3136358606
 30
0.0
 10
267.7768455002
 20
173.5006816594
 30
0.0
 10
267.7960284324
 20
173.5918029191
 30
0.0
  0
SPLINE
  5
45E
100
AcDbEntity
  8
BEZUGSACHSEN
100
AcDbSpline
 62
7
  6
CONTINUOUS
 70
0
 71
3
 72
15
 73
11
 74
0
 42
0.0000001
 43
0.0000001
 44
0.0000000001
 40
0.0
 40
0.0
 40
0.0
 40
0.0
 40
0.1233259122
 40
0.2431974
 40
0.3618495988
 40
0.482045656
 40
0.6059051902
 40
0.7341807597
 40
0.8662557417
 40
1.0
 40
1.0
 40
1.0
 40
1.0
 10
255.8602144778
 20
172.6267256103
 30
0.0
 10
255.9286968128
 20
172.5749284543
 30
0.0
 10
256.0800230771
 20
172.4920736428
 30
0.0
 10
256.3322877481
 20
172.4463518795
 30
0.0
 10
256.5837581459
 20
172.4860162948
 30
0.0
 10
256.8103520673
 20
172.6075015703
 30
0.0
 10
256.9917518252
 20
172.7983959592
 30
0.0
 10
257.1130810173
 20
173.0409343564
 30
0.0
 10
257.1648572861
 20
173.3136358606
 30
0.0
 10
257.1505270857
 20
173.5006816594
 30
0.0
 10
257.1313441534
 20
173.5918029191
 30
0.0
  0
SPLINE
  5
45F
100
AcDbEntity
  8
0
100
AcDbSpline
 62
7
  6
CONTINUOUS
 70
0
 71
3
 72
11
 73
7
 74
0
 42
0.0000001
 43
0.0000001
 44
0.0000000001
 40
0.0
 40
0.0
 40
0.0
 40
0.0
 40
0.2469901684
 40
0.4957562105
 40
0.747009311
 40
1.0
 40
1.0
 40
1.0
 40
1.0
 10
260.1891951297
 20
177.8749136672
 30
0.0
 10
260.1891951297
 20
178.0438865042
 30
0.0
 10
260.2592685194
 20
178.3868982389
 30
0.0
 10
260.5574402074
 20
178.8180796854
 30
0.0
 10
261.0005392113
 20
179.1049901932
 30
0.0
 10
261.3493143945
 20
179.1712274531
 30
0.0
 10
261.5223918797
 20
179.17082211
 30
0.0
  0
SPLINE
  5
460
100
AcDbEntity
  8
0
100
AcDbSpline
 62
7
  6
CONTINUOUS
 70
0
 71
3
 72
11
 73
7
 74
0
 42
0.0000001
 43
0.0000001
 44
0.0000000001
 40
0.0
 40
0.0
 40
0.0
 40
0.0
 40
0.2529906846
 40
0.504239924
 40
0.7530055781
 40
1.0
 40
1.0
 40
1.0
 40
1.0
 10
263.1191951297
 20
179.17082211
 30
0.0
 10
263.2920085585
 20
179.17082211
 30
0.0
 10
263.6400821072
 20
179.1039777826
 30
0.0
 10
264.0820438973
 20
178.8168702951
 30
0.0
 10
264.3793402667
 20
178.3861062127
 30
0.0
 10
264.4491951297
 20
178.0436274124
 30
0.0
 10
264.4491951297
 20
177.8749099238
 30
0.0
  0
SPLINE
  5
461
100
AcDbEntity
  8
0
100
AcDbSpline
 62
7
  6
CONTINUOUS
 70
0
 71
3
 72
11
 73
7
 74
0
 42
0.0000001
 43
0.0000001
 44
0.0000000001
 40
0.0
 40
0.0
 40
0.0
 40
0.0
 40
0.2530232258
 40
0.5042352705
 40
0.7530063991
 40
1.0
 40
1.0
 40
1.0
 40
1.0
 10
262.9491951297
 20
169.1023853557
 30
0.0
 10
263.2818676218
 20
169.1023853557
 30
0.0
 10
263.951863066
 20
169.2310048872
 30
0.0
 10
264.8024119917
 20
169.7838115648
 30
0.0
 10
265.3747187669
 20
170.6128087918
 30
0.0
 10
265.5091951297
 20
171.272027922
 30
0.0
 10
265.5091951297
 20
171.5967727215
 30
0.0
  0
SPLINE
  5
462
100
AcDbEntity
  8
0
100
AcDbSpline
 62
7
  6
CONTINUOUS
 70
0
 71
3
 72
11
 73
7
 74
0
 42
0.0000001
 43
0.0000001
 44
0.0000000001
 40
0.0
 40
0.0
 40
0.0
 40
0.0
 40
0.2530221467
 40
0.5042360136
 40
0.7530093413
 40
1.0
 40
1.0
 40
1.0
 40
1.0
 10
262.9491951297
 20
172.8439664045
 30
0.0
 10
263.1155292343
 20
172.8439664045
 30
0.0
 10
263.450526491
 20
172.7796672021
 30
0.0
 10
263.8757981818
 20
172.5032615964
 30
0.0
 10
264.1619423693
 20
172.0887535539
 30
0.0
 10
264.2291404781
 20
171.7591417892
 30
0.0
 10
264.2291404781
 20
171.5967727215
 30
0.0
  0
SPLINE
  5
463
100
AcDbEntity
  8
AUSFORMSCHRAEGEN
100
AcDbSpline
 62
7
  6
CONTINUOUS
 70
0
 71
3
 72
11
 73
7
 74
0
 42
0.0000001
 43
0.0000001
 44
0.0000000001
 40
0.0
 40
0.0
 40
0.0
 40
0.0
 40
0.2519849312
 40
0.5030084752
 40
0.7524019697
 40
1.0
 40
1.0
 40
1.0
 40
1.0
 10
252.1726561765
 20
151.5383727378
 30
0.0
 10
252.3610051766
 20
151.5383727378
 30
0.0
 10
252.7390449497
 20
151.5907091791
 30
0.0
 10
253.2600936475
 20
151.8204838769
 30
0.0
 10
253.6951346929
 20
152.1830550262
 30
0.0
 10
253.9053798313
 20
152.4966020728
 30
0.0
 10
253.9852717506
 20
152.6635397012
 30
0.0
  0
SPLINE
  5
464
100
AcDbEntity
  8
0
100
AcDbSpline
 62
7
  6
CONTINUOUS
 70
0
 71
3
 72
11
 73
7
 74
0
 42
0.0000001
 43
0.0000001
 44
0.0000000001
 40
0.0
 40
0.0
 40
0.0
 40
0.0
 40
0.2519849312
 40
0.5030084752
 40
0.7524019697
 40
1.0
 40
1.0
 40
1.0
 40
1.0
 10
272.7547164093
 20
151.5383727378
 30
0.0
 10
272.5663674092
 20
151.5383727378
 30
0.0
 10
272.1883276361
 20
151.5907091791
 30
0.0
 10
271.6672789383
 20
151.8204838769
 30
0.0
 10
271.232237893
 20
152.1830550262
 30
0.0
 10
271.0219927545
 20
152.4966020728
 30
0.0
 10
270.9421008353
 20
152.6635397012
 30
0.0
  0
SPLINE
  5
465
100
AcDbEntity
  8
0
100
AcDbSpline
 62
7
  6
CONTINUOUS
 70
0
 71
3
 72
9
 73
5
 74
0
 42
0.0000001
 43
0.0000001
 44
0.0000000001
 40
0.0
 40
0.0
 40
0.0
 40
0.0
 40
0.4979633977
 40
1.0
 40
1.0
 40
1.0
 40
1.0
 10
270.4952252281
 20
153.5973056531
 30
0.0
 10
270.2706340678
 20
154.0665986179
 30
0.0
 10
269.6617822346
 20
154.9408847125
 30
0.0
 10
268.808583829
 20
155.5775826862
 30
0.0
 10
268.3446832242
 20
155.8223673762
 30
0.0
  0
SPLINE
  5
466
100
AcDbEntity
  8
0
100
AcDbSpline
 62
7
  6
CONTINUOUS
 70
0
 71
3
 72
23
 73
19
 74
0
 42
0.0000001
 43
0.0000001
 44
0.0000000001
 40
0.0
 40
0.0
 40
0.0
 40
0.0
 40
0.0632980095
 40
0.1264664459
 40
0.1893904373
 40
0.2520312676
 40
0.3143655796
 40
0.3764224286
 40
0.4382681634
 40
0.5
 40
0.5617318366
 40
0.6235775714
 40
0.6856344204
 40
0.7479687324
 40
0.8106095627
 40
0.8735335541
 40
0.9367019905
 40
1.0
 40
1.0
 40
1.0
 40
1.0
 10
274.9387543118
 20
178.5062887668
 30
0.0
 10
274.3737302054
 20
178.4741231854
 30
0.0
 10
273.2480210649
 20
178.3053061565
 30
0.0
 10
271.6392760724
 20
177.7479078608
 30
0.0
 10
270.1657485365
 20
176.9054248616
 30
0.0
 10
268.8805663879
 20
175.8081120563
 30
0.0
 10
267.8295772319
 20
174.494440106
 30
0.0
 10
267.0505018857
 20
173.0112276807
 30
0.0
 10
266.5714774596
 20
171.4112936086
 30
0.0
 10
266.4098403837
 20
169.7518870669
 30
0.0
 10
266.5714774596
 20
168.0924805253
 30
0.0
 10
267.0505018857
 20
166.4925464532
 30
0.0
 10
267.8295772319
 20
165.0093340279
 30
0.0
 10
268.8805663879
 20
163.6956620776
 30
0.0
 10
270.1657485365
 20
162.5983492723
 30
0.0
 10
271.6392760724
 20
161.7558662731
 30
0.0
 10
273.2480210649
 20
161.1984679774
 30
0.0
 10
274.3737302054
 20
161.0296509485
 30
0.0
 10
274.9387543118
 20
160.9974853671
 30
0.0
  0
SPLINE
  5
467
100
AcDbEntity
  8
0
100
AcDbSpline
 62
7
  6
CONTINUOUS
 70
0
 71
3
 72
11
 73
7
 74
0
 42
0.0000001
 43
0.0000001
 44
0.0000000001
 40
0.0
 40
0.0
 40
0.0
 40
0.0
 40
0.2649211258
 40
0.5157182723
 40
0.7571973394
 40
1.0
 40
1.0
 40
1.0
 40
1.0
 10
267.7112533945
 20
169.5626287513
 30
0.0
 10
267.7112533945
 20
169.6807980118
 30
0.0
 10
267.7509683918
 20
169.9135390425
 30
0.0
 10
267.9350218238
 20
170.20800753
 30
0.0
 10
268.2188727017
 20
170.3929703318
 30
0.0
 10
268.4415502638
 20
170.4200465591
 30
0.0
 10
268.54945477
 20
170.4107618981
 30
0.0
  0
SPLINE
  5
468
100
AcDbEntity
  8
0
100
AcDbSpline
 62
7
  6
CONTINUOUS
 70
0
 71
3
 72
15
 73
11
 74
0
 42
0.0000001
 43
0.0000001
 44
0.0000000001
 40
0.0
 40
0.0
 40
0.0
 40
0.0
 40
0.1252997132
 40
0.2494314839
 40
0.3728122937
 40
0.4963763935
 40
0.6210281267
 40
0.7469622856
 40
0.8735834383
 40
1.0
 40
1.0
 40
1.0
 40
1.0
 10
273.4612746662
 20
171.0863775936
 30
0.0
 10
273.4624805168
 20
170.9592750829
 30
0.0
 10
273.4142120844
 20
170.7028032074
 30
0.0
 10
273.198251431
 20
170.3800433706
 30
0.0
 10
272.8726293986
 20
170.1703574777
 30
0.0
 10
272.489833888
 20
170.1088696693
 30
0.0
 10
272.1118038063
 20
170.2048550063
 30
0.0
 10
271.7988575487
 20
170.4423579895
 30
0.0
 10
271.5997909491
 20
170.7823712449
 30
0.0
 10
271.5639281568
 20
171.0445359532
 30
0.0
 10
271.571868837
 20
171.1725310734
 30
0.0
  0
SPLINE
  5
469
100
AcDbEntity
  8
0
100
AcDbSpline
 62
7
  6
CONTINUOUS
 70
0
 71
3
 72
17
 73
13
 74
0
 42
0.0000001
 43
0.0000001
 44
0.0000000001
 40
0.0
 40
0.0
 40
0.0
 40
0.0
 40
0.1252151463
 40
0.2493285011
 40
0.3727928411
 40
0.4348412657
 40
0.497039579
 40
0.6216061623
 40
0.7472266677
 40
0.8105741096
 40
0.873966749
 40
1.0
 40
1.0
 40
1.0
 40
1.0
 10
271.571868837
 20
171.1725310734
 30
0.0
 10
271.5793898143
 20
171.29376104
 30
0.0
 10
271.6408865578
 20
171.5349080271
 30
0.0
 10
271.8610009872
 20
171.8327723001
 30
0.0
 10
272.1256755386
 20
171.9920170671
 30
0.0
 10
272.3600378414
 20
172.0508136315
 30
0.0
 10
272.6024361348
 20
172.0633313849
 30
0.0
 10
272.9046276768
 20
171.9891447989
 30
0.0
 10
273.157488342
 20
171.8065300004
 30
0.0
 10
273.3092940272
 20
171.6128471268
 30
0.0
 10
273.4227999059
 20
171.3943252434
 30
0.0
 10
273.4601148418
 20
171.2086287213
 30
0.0
 10
273.4612746662
 20
171.0863775936
 30
0.0
  0
SPLINE
  5
46A
100
AcDbEntity
  8
0
100
AcDbSpline
 62
7
  6
CONTINUOUS
 70
0
 71
3
 72
14
 73
10
 74
0
 42
0.0000001
 43
0.0000001
 44
0.0000000001
 40
0.0
 40
0.0
 40
0.0
 40
0.0
 40
0.263468752
 40
0.3910416282
 40
0.5145162927
 40
0.6349728188
 40
0.7544845097
 40
0.8755052447
 40
1.0
 40
1.0
 40
1.0
 40
1.0
 10
267.7960284324
 20
173.5918029191
 30
0.0
 10
267.831090849
 20
173.7583536595
 30
0.0
 10
267.9464901803
 20
173.9990988607
 30
0.0
 10
268.1978812281
 20
174.2214881513
 30
0.0
 10
268.4179735571
 20
174.3258817877
 30
0.0
 10
268.6541892606
 20
174.3590666102
 30
0.0
 10
268.8876980216
 20
174.3178747324
 30
0.0
 10
269.099267873
 20
174.2058511758
 30
0.0
 10
269.2131447834
 20
174.0917495608
 30
0.0
 10
269.261663629
 20
174.0276096763
 30
0.0
  0
SPLINE
  5
46B
100
AcDbEntity
  8
0
100
AcDbSpline
 62
7
  6
CONTINUOUS
 70
0
 71
3
 72
17
 73
13
 74
0
 42
0.0000001
 43
0.0000001
 44
0.0000000001
 40
0.0
 40
0.0
 40
0.0
 40
0.0
 40
0.1256644329
 40
0.189325319
 40
0.2531518391
 40
0.3800478265
 40
0.5056646259
 40
0.5681128083
 40
0.6301457229
 40
0.7527991683
 40
0.8756204833
 40
1.0
 40
1.0
 40
1.0
 40
1.0
 10
273.4587481717
 20
175.2380185227
 30
0.0
 10
273.4639748053
 20
175.1122026758
 30
0.0
 10
273.4326162592
 20
174.9185062033
 30
0.0
 10
273.3209415445
 20
174.6894671064
 30
0.0
 10
273.1666987613
 20
174.4847134207
 30
0.0
 10
272.9051255815
 20
174.2910960964
 30
0.0
 10
272.590310685
 20
174.2123123158
 30
0.0
 10
272.3385667945
 20
174.2266054221
 30
0.0
 10
272.0976864938
 20
174.2901708093
 30
0.0
 10
271.8297409371
 20
174.4613321715
 30
0.0
 10
271.6198519393
 20
174.7792482052
 30
0.0
 10
271.5768030906
 20
175.0314447022
 30
0.0
 10
271.5803253281
 20
175.1560317114
 30
0.0
  0
SPLINE
  5
46C
100
AcDbEntity
  8
0
100
AcDbSpline
 62
7
  6
CONTINUOUS
 70
0
 71
3
 72
15
 73
11
 74
0
 42
0.0000001
 43
0.0000001
 44
0.0000000001
 40
0.0
 40
0.0
 40
0.0
 40
0.0
 40
0.126765135
 40
0.2541519529
 40
0.3809687361
 40
0.5064007304
 40
0.6302198723
 40
0.7530124393
 40
0.8759261443
 40
1.0
 40
1.0
 40
1.0
 40
1.0
 10
271.6011680106
 20
175.3295217233
 30
0.0
 10
271.6251026252
 20
175.4411238451
 30
0.0
 10
271.7139047854
 20
175.6580693903
 30
0.0
 10
271.9489102093
 20
175.9169793327
 30
0.0
 10
272.2572147686
 20
176.0803692302
 30
0.0
 10
272.6000703946
 20
176.1264231517
 30
0.0
 10
272.9337022109
 20
176.0482657866
 30
0.0
 10
273.2142081604
 20
175.8549329488
 30
0.0
 10
273.4042789691
 20
175.5724089617
 30
0.0
 10
273.4541112481
 20
175.3496388362
 30
0.0
 10
273.4587481717
 20
175.2380185227
 30
0.0
  0
SPLINE
  5
46D
100
AcDbEntity
  8
0
100
AcDbSpline
 62
7
  6
CONTINUOUS
 70
0
 71
3
 72
11
 73
7
 74
0
 42
0.0000001
 43
0.0000001
 44
0.0000000001
 40
0.0
 40
0.0
 40
0.0
 40
0.0
 40
0.2506898635
 40
0.4983592179
 40
0.7468392522
 40
1.0
 40
1.0
 40
1.0
 40
1.0
 10
271.571868837
 20
167.2750508142
 30
0.0
 10
271.5658985972
 20
167.3659895603
 30
0.0
 10
271.5828271445
 20
167.5501567817
 30
0.0
 10
271.6967075849
 20
167.8021142124
 30
0.0
 10
271.8878403783
 20
168.0030514285
 30
0.0
 10
272.0525484135
 20
168.0894691214
 30
0.0
 10
272.1396163014
 20
168.1192887907
 30
0.0
  0
SPLINE
  5
46E
100
AcDbEntity
  8
0
100
AcDbSpline
 62
7
  6
CONTINUOUS
 70
0
 71
3
 72
15
 73
11
 74
0
 42
0.0000001
 43
0.0000001
 44
0.0000000001
 40
0.0
 40
0.0
 40
0.0
 40
0.0
 40
0.1202076638
 40
0.239673613
 40
0.361461844
 40
0.4872667061
 40
0.6165555168
 40
0.7469090761
 40
0.8753675192
 40
1.0
 40
1.0
 40
1.0
 40
1.0
 10
273.4612746662
 20
167.1888973345
 30
0.0
 10
273.4601313782
 20
167.0757821642
 30
0.0
 10
273.4117590017
 20
166.8476690532
 30
0.0
 10
273.2048782904
 20
166.5653827318
 30
0.0
 10
272.8975901427
 20
166.3877025415
 30
0.0
 10
272.537812413
 20
166.338937788
 30
0.0
 10
272.177005795
 20
166.4226824927
 30
0.0
 10
271.8647575641
 20
166.626334537
 30
0.0
 10
271.6443401494
 20
166.9214953432
 30
0.0
 10
271.5795521941
 20
167.1580178493
 30
0.0
 10
271.571868837
 20
167.2750508142
 30
0.0
  0
SPLINE
  5
46F
100
AcDbEntity
  8
0
100
AcDbSpline
 62
7
  6
CONTINUOUS
 70
0
 71
3
 72
11
 73
7
 74
0
 42
0.0000001
 43
0.0000001
 44
0.0000000001
 40
0.0
 40
0.0
 40
0.0
 40
0.0
 40
0.2711941636
 40
0.5204136375
 40
0.7576708666
 40
1.0
 40
1.0
 40
1.0
 40
1.0
 10
267.7960284324
 20
165.7968424008
 30
0.0
 10
267.7754252372
 20
165.8863878693
 30
0.0
 10
267.7604388029
 20
166.0657512503
 30
0.0
 10
267.8325142779
 20
166.3190446719
 30
0.0
 10
267.9972836164
 20
166.5134586609
 30
0.0
 10
268.1505484925
 20
166.5825227612
 30
0.0
 10
268.2303713999
 20
166.6017468964
 30
0.0
  0
SPLINE
  5
470
100
AcDbEntity
  8
AUSFORMSCHRAEGEN
100
AcDbSpline
 62
7
  6
CONTINUOUS
 70
0
 71
3
 72
9
 73
5
 74
0
 42
0.0000001
 43
0.0000001
 44
0.0000000001
 40
0.0
 40
0.0
 40
0.0
 40
0.0
 40
0.4979633977
 40
1.0
 40
1.0
 40
1.0
 40
1.0
 10
254.4321473577
 20
153.5973056531
 30
0.0
 10
254.656738518
 20
154.0665986179
 30
0.0
 10
255.2655903513
 20
154.9408847125
 30
0.0
 10
256.1187887568
 20
155.5775826862
 30
0.0
 10
256.5826893616
 20
155.8223673762
 30
0.0
  0
SPLINE
  5
471
100
AcDbEntity
  8
0
100
AcDbSpline
 62
7
  6
CONTINUOUS
 70
0
 71
3
 72
9
 73
5
 74
0
 42
0.0000001
 43
0.0000001
 44
0.0000000001
 40
0.0
 40
0.0
 40
0.0
 40
0.0
 40
0.5026434293
 40
1.0
 40
1.0
 40
1.0
 40
1.0
 10
271.6011680106
 20
163.6370809459
 30
0.0
 10
271.5739689435
 20
163.7430467732
 30
0.0
 10
271.5701819931
 20
163.9727141812
 30
0.0
 10
271.6917927061
 20
164.1681619646
 30
0.0
 10
271.769769974
 20
164.2432462015
 30
0.0
  0
SPLINE
  5
472
100
AcDbEntity
  8
0
100
AcDbSpline
 62
7
  6
CONTINUOUS
 70
0
 71
3
 72
15
 73
11
 74
0
 42
0.0000001
 43
0.0000001
 44
0.0000000001
 40
0.0
 40
0.0
 40
0.0
 40
0.0
 40
0.1087631545
 40
0.2208622407
 40
0.3423070064
 40
0.4738463659
 40
0.6114793605
 40
0.7487658565
 40
0.8794982817
 40
1.0
 40
1.0
 40
1.0
 40
1.0
 10
273.4587481717
 20
163.5455777453
 30
0.0
 10
273.4541438992
 20
163.4555102352
 30
0.0
 10
273.4021982223
 20
163.2717737039
 30
0.0
 10
273.204059239
 20
163.0562777084
 30
0.0
 10
272.9221286154
 20
162.928458316
 30
0.0
 10
272.5945159893
 20
162.8979849583
 30
0.0
 10
272.2596675704
 20
162.9650727632
 30
0.0
 10
271.9566605271
 20
163.1213650089
 30
0.0
 10
271.7214479278
 20
163.3486068237
 30
0.0
 10
271.6260096152
 20
163.5402996422
 30
0.0
 10
271.6011680106
 20
163.6370809459
 30
0.0
  0
SPLINE
  5
473
100
AcDbEntity
  8
0
100
AcDbSpline
 62
7
  6
CONTINUOUS
 70
0
 71
3
 72
11
 73
7
 74
0
 42
0.0000001
 43
0.0000001
 44
0.0000000001
 40
0.0
 40
0.0
 40
0.0
 40
0.0
 40
0.251986026
 40
0.5030084756
 40
0.752400888
 40
1.0
 40
1.0
 40
1.0
 40
1.0
 10
272.7547164093
 20
152.8880790638
 30
0.0
 10
272.6315925664
 20
152.8880790638
 30
0.0
 10
272.3844688435
 20
152.9222915354
 30
0.0
 10
272.0438610685
 20
153.0724945599
 30
0.0
 10
271.7594761472
 20
153.3095060552
 30
0.0
 10
271.6220391454
 20
153.5144709146
 30
0.0
 10
271.5698137535
 20
153.6235981349
 30
0.0
  0
SPLINE
  5
474
100
AcDbEntity
  8
0
100
AcDbSpline
 62
7
  6
CONTINUOUS
 70
0
 71
3
 72
9
 73
5
 74
0
 42
0.0000001
 43
0.0000001
 44
0.0000000001
 40
0.0
 40
0.0
 40
0.0
 40
0.0
 40
0.4971573002
 40
1.0
 40
1.0
 40
1.0
 40
1.0
 10
262.8491951297
 20
164.9888623365
 30
0.0
 10
262.8491951297
 20
165.1673940771
 30
0.0
 10
262.9489669119
 20
165.5330688596
 30
0.0
 10
263.2218153265
 20
165.7947868671
 30
0.0
 10
263.3791951297
 20
165.883321319
 30
0.0
  0
SPLINE
  5
475
100
AcDbEntity
  8
0
100
AcDbSpline
 62
7
  6
CONTINUOUS
 70
0
 71
3
 72
11
 73
7
 74
0
 42
0.0000001
 43
0.0000001
 44
0.0000000001
 40
0.0
 40
0.0
 40
0.0
 40
0.0
 40
0.2475980303
 40
0.4969915248
 40
0.7480150688
 40
1.0
 40
1.0
 40
1.0
 40
1.0
 10
271.1229381463
 20
154.5573640869
 30
0.0
 10
270.8955415938
 20
155.0325190403
 30
0.0
 10
270.2971203755
 20
155.9249687161
 30
0.0
 10
269.0588620533
 20
156.9569558073
 30
0.0
 10
267.5757999532
 20
157.6109640553
 30
0.0
 10
266.4997844827
 20
157.7599293878
 30
0.0
 10
265.9636862929
 20
157.7599293878
 30
0.0
  0
SPLINE
  5
476
100
AcDbEntity
  8
AUSFORMSCHRAEGEN
100
AcDbSpline
 62
7
  6
CONTINUOUS
 70
0
 71
3
 72
11
 73
7
 74
0
 42
0.0000001
 43
0.0000001
 44
0.0000000001
 40
0.0
 40
0.0
 40
0.0
 40
0.0
 40
0.2475980303
 40
0.4969915248
 40
0.7480150688
 40
1.0
 40
1.0
 40
1.0
 40
1.0
 10
253.8044344395
 20
154.5573640869
 30
0.0
 10
254.0318309921
 20
155.0325190403
 30
0.0
 10
254.6302522103
 20
155.9249687161
 30
0.0
 10
255.8685105325
 20
156.9569558073
 30
0.0
 10
257.3515726326
 20
157.6109640553
 30
0.0
 10
258.4275881032
 20
157.7599293878
 30
0.0
 10
258.9636862929
 20
157.7599293878
 30
0.0
  0
SPLINE
  5
477
100
AcDbEntity
  8
AUSFORMSCHRAEGEN
100
AcDbSpline
 62
7
  6
CONTINUOUS
 70
0
 71
3
 72
11
 73
7
 74
0
 42
0.0000001
 43
0.0000001
 44
0.0000000001
 40
0.0
 40
0.0
 40
0.0
 40
0.0
 40
0.251986026
 40
0.5030084756
 40
0.752400888
 40
1.0
 40
1.0
 40
1.0
 40
1.0
 10
252.1726561765
 20
152.8880790638
 30
0.0
 10
252.2957800195
 20
152.8880790638
 30
0.0
 10
252.5429037424
 20
152.9222915354
 30
0.0
 10
252.8835115174
 20
153.0724945599
 30
0.0
 10
253.1678964386
 20
153.3095060552
 30
0.0
 10
253.3053334404
 20
153.5144709146
 30
0.0
 10
253.3575588324
 20
153.6235981349
 30
0.0
  0
SPLINE
  5
478
100
AcDbEntity
  8
0
100
AcDbSpline
 62
7
  6
CONTINUOUS
 70
0
 71
3
 72
15
 73
11
 74
0
 42
0.0000001
 43
0.0000001
 44
0.0000000001
 40
0.0
 40
0.0
 40
0.0
 40
0.0
 40
0.123497211
 40
0.247880038
 40
0.3735046577
 40
0.5
 40
0.6264953423
 40
0.752119962
 40
0.876502789
 40
1.0
 40
1.0
 40
1.0
 40
1.0
 10
260.1891951297
 20
165.6238842244
 30
0.0
 10
260.1891951297
 20
165.7253684281
 30
0.0
 10
260.2312349846
 20
165.9313707139
 30
0.0
 10
260.4099604338
 20
166.1904769289
 30
0.0
 10
260.6761716478
 20
166.363173162
 30
0.0
 10
260.9891951297
 20
166.4235532631
 30
0.0
 10
261.3022186116
 20
166.363173162
 30
0.0
 10
261.5684298255
 20
166.1904769289
 30
0.0
 10
261.7471552747
 20
165.9313707139
 30
0.0
 10
261.7891951297
 20
165.7253684281
 30
0.0
 10
261.7891951297
 20
165.6238842244
 30
0.0
  0
LINE
  5
479
100
AcDbEntity
  8
KONSTRUKTIONSELEMENTE
100
AcDbLine
 62
7
  6
CONTINUOUS
 10
269.2229900757
 20
107.0809488452
 11
269.2313237293
 21
107.1479367314
  0
LINE
  5
47A
100
AcDbEntity
  8
KONSTRUKTIONSELEMENTE
100
AcDbLine
 62
7
  6
CONTINUOUS
 10
269.2313237293
 20
107.1479367314
 11
269.24467899
 21
107.2553264492
  0
LINE
  5
47B
100
AcDbEntity
  8
KONSTRUKTIONSELEMENTE
100
AcDbLine
 62
7
  6
CONTINUOUS
 10
269.24467899
 20
107.2553264492
 11
269.2580871184
 21
107.3631626605
  0
LINE
  5
47C
100
AcDbEntity
  8
KONSTRUKTIONSELEMENTE
100
AcDbLine
 62
7
  6
CONTINUOUS
 10
269.2580871184
 20
107.3631626605
 11
269.2603859008
 21
107.3816596663
  0
LINE
  5
47D
100
AcDbEntity
  8
KONSTRUKTIONSELEMENTE
100
AcDbLine
 62
7
  6
CONTINUOUS
 10
269.2603859008
 20
107.3816596663
 11
269.2617043633
 21
107.3922705402
  0
LINE
  5
47E
100
AcDbEntity
  8
KONSTRUKTIONSELEMENTE
100
AcDbLine
 62
7
  6
CONTINUOUS
 10
269.1348864194
 20
105.7764618753
 11
269.1367497435
 21
105.7898047402
  0
LINE
  5
47F
100
AcDbEntity
  8
KONSTRUKTIONSELEMENTE
100
AcDbLine
 62
7
  6
CONTINUOUS
 10
269.1367497435
 20
105.7898047402
 11
269.2848353615
 21
106.8507456877
  0
SPLINE
  5
480
100
AcDbEntity
  8
0
100
AcDbSpline
 62
7
  6
CONTINUOUS
 70
0
 71
3
 72
9
 73
5
 74
0
 42
0.0000001
 43
0.0000001
 44
0.0000000001
 40
0.0
 40
0.0
 40
0.0
 40
0.0
 40
0.4998247155
 40
1.0
 40
1.0
 40
1.0
 40
1.0
 10
251.5217993285
 20
223.2241992164
 30
0.0
 10
251.4234104356
 20
223.065362143
 30
0.0
 10
251.2683192113
 20
222.7196197721
 30
0.0
 10
251.2136862929
 20
222.3440477501
 30
0.0
 10
251.2136862929
 20
222.1570756203
 30
0.0
  0
SPLINE
  5
481
100
AcDbEntity
  8
RUNDUNGEN
100
AcDbSpline
 62
7
  6
CONTINUOUS
 70
0
 71
3
 72
9
 73
5
 74
0
 42
0.0000001
 43
0.0000001
 44
0.0000000001
 40
0.0
 40
0.0
 40
0.0
 40
0.0
 40
0.4998247155
 40
1.0
 40
1.0
 40
1.0
 40
1.0
 10
273.4055732574
 20
223.2241992164
 30
0.0
 10
273.5039621502
 20
223.065362143
 30
0.0
 10
273.6590533745
 20
222.7196197721
 30
0.0
 10
273.7136862929
 20
222.3440477501
 30
0.0
 10
273.7136862929
 20
222.1570756203
 30
0.0
  0
LINE
  5
482
100
AcDbEntity
  8
KONSTRUKTIONSELEMENTE
100
AcDbLine
 62
7
  6
CONTINUOUS
 10
268.5638905879
 20
101.4940667692
 11
268.558779238
 21
101.4627281865
  0
LINE
  5
483
100
AcDbEntity
  8
KONSTRUKTIONSELEMENTE
100
AcDbLine
 62
7
  6
CONTINUOUS
 10
268.558779238
 20
101.4627281865
 11
268.4184592115
 21
100.604361804
  0
ELLIPSE
  5
484
100
AcDbEntity
  8
BEZUGSACHSEN
100
AcDbEllipse
 62
7
  6
CONTINUOUS
 10
65.9152961565
 20
219.2573476989
 30
0.0
 11
-0.0
 21
4.9
 31
0.0
 40
0.1583844403
 41
-3.1415926536
 42
0.0
  0
ELLIPSE
  5
485
100
AcDbEntity
  8
KONSTRUKTIONSELEMENTE
100
AcDbEllipse
 62
7
  6
CONTINUOUS
 10
139.2133967565
 20
63.4102564941
 30
0.0
 11
-39.8665575359
 21
110.0626194153
 31
0.0
 40
0.044702011
 41
-0.1898180148
 42
-0.1476234317
  0
ELLIPSE
  5
486
100
AcDbEntity
  8
KONSTRUKTIONSELEMENTE
100
AcDbEllipse
 62
7
  6
CONTINUOUS
 10
116.7267765895
 20
185.8073228069
 30
0.0
 11
-4.6018793581
 21
25.0485190205
 31
0.0
 40
0.7853073263
 41
-4.4569419642
 42
-4.3037595735
  0
ELLIPSE
  5
487
100
AcDbEntity
  8
RUNDUNGEN
100
AcDbEllipse
 62
7
  6
CONTINUOUS
 10
113.233753456
 20
226.1440201541
 30
0.0
 11
-1.3016262228
 21
1.8875732819
 31
0.0
 40
0.1298238542
 41
-4.4418188874
 42
-3.1753703367
  0
ELLIPSE
  5
488
100
AcDbEntity
  8
KONSTRUKTIONSELEMENTE
100
AcDbEllipse
 62
7
  6
CONTINUOUS
 10
102.8806588715
 20
215.8291444686
 30
0.0
 11
-0.0
 21
4.0
 31
0.0
 40
0.1583844403
 41
-4.7076705443
 42
-4.1887902048
  0
ELLIPSE
  5
489
100
AcDbEntity
  8
RUNDUNGEN
100
AcDbEllipse
 62
7
  6
CONTINUOUS
 10
102.3659094404
 20
209.4583095932
 30
0.0
 11
-0.0
 21
2.0
 31
0.0
 40
0.1583844403
 41
-1.5707963268
 42
-1.0471975512
  0
ELLIPSE
  5
48A
100
AcDbEntity
  8
BEZUGSACHSEN
100
AcDbEllipse
 62
7
  6
CONTINUOUS
 10
100.4652961565
 20
219.2573476989
 30
0.0
 11
-0.0
 21
4.8
 31
0.0
 40
0.1583844403
 41
-3.1415926536
 42
-0.0
  0
ELLIPSE
  5
48B
100
AcDbEntity
  8
BEZUGSACHSEN
100
AcDbEllipse
 62
7
  6
CONTINUOUS
 10
91.3652961565
 20
219.2573476989
 30
0.0
 11
-0.0
 21
4.8
 31
0.0
 40
0.1583844403
 41
0.0
 42
3.1415926536
  0
ELLIPSE
  5
48C
100
AcDbEntity
  8
RUNDUNGEN
100
AcDbEllipse
 62
7
  6
CONTINUOUS
 10
89.4646828726
 20
209.4583095932
 30
0.0
 11
-0.0
 21
2.0
 31
0.0
 40
0.1583844403
 41
1.0471975512
 42
1.5707963268
  0
ELLIPSE
  5
48D
100
AcDbEntity
  8
KONSTRUKTIONSELEMENTE
100
AcDbEllipse
 62
7
  6
CONTINUOUS
 10
88.9499334416
 20
215.8291444686
 30
0.0
 11
0.0
 21
4.0
 31
0.0
 40
0.1583844403
 41
-2.0943951024
 42
-1.5755147629
  0
ELLIPSE
  5
48E
100
AcDbEntity
  8
RUNDUNGEN
100
AcDbEllipse
 62
7
  6
CONTINUOUS
 10
130.7160588585
 20
122.3566814089
 30
0.0
 11
-17.7345437313
 21
30.9919405633
 31
0.0
 40
0.0067656234
 41
-0.4180117512
 42
-0.1193389777
  0
ELLIPSE
  5
48F
100
AcDbEntity
  8
KONSTRUKTIONSELEMENTE
100
AcDbEllipse
 62
7
  6
CONTINUOUS
 10
63.5492277153
 20
149.3254468341
 30
0.0
 11
0.7631703539
 21
0.6735751942
 31
0.0
 40
0.9824090291
 41
2.1648787324
 42
3.7193224762
  0
ELLIPSE
  5
490
100
AcDbEntity
  8
AUSFORMSCHRAEGEN
100
AcDbEllipse
 62
7
  6
CONTINUOUS
 10
249.4636862929
 20
196.6589126197
 30
0.0
 11
0.1982980194
 21
10.0025858412
 31
0.0
 40
0.0852130878
 41
0.228582123
 42
2.0093044266
  0
ELLIPSE
  5
491
100
AcDbEntity
  8
KONSTRUKTIONSELEMENTE
100
AcDbEllipse
 62
7
  6
CONTINUOUS
 10
259.328549042
 20
158.5038764197
 30
0.0
 11
-9.9937030921
 21
1.0450614308
 31
0.0
 40
0.9188853218
 41
0.1143193839
 42
0.3751168497
  0
ELLIPSE
  5
492
100
AcDbEntity
  8
KONSTRUKTIONSELEMENTE
100
AcDbEllipse
 62
7
  6
CONTINUOUS
 10
253.3001005794
 20
149.4019644776
 30
0.0
 11
1.5061402956
 21
-0.0
 31
0.0
 40
0.9703977122
 41
-2.8808127543
 42
-1.7137579878
  0
ELLIPSE
  5
493
100
AcDbEntity
  8
0
100
AcDbEllipse
 62
7
  6
CONTINUOUS
 10
275.4636862929
 20
196.6589126197
 30
0.0
 11
-0.1982980194
 21
10.0025858412
 31
0.0
 40
0.0852130878
 41
-2.0093044266
 42
-0.228582123
  0
ELLIPSE
  5
494
100
AcDbEntity
  8
0
100
AcDbEllipse
 62
7
  6
CONTINUOUS
 10
265.5988235439
 20
158.5038764197
 30
0.0
 11
9.9937030921
 21
1.0450614308
 31
0.0
 40
0.9188853218
 41
-0.3751168497
 42
-0.1143193839
  0
ELLIPSE
  5
495
100
AcDbEntity
  8
0
100
AcDbEllipse
 62
7
  6
CONTINUOUS
 10
271.6272720064
 20
149.4019644776
 30
0.0
 11
1.5061402956
 21
0.0
 31
0.0
 40
0.9703977122
 41
-1.4278346658
 42
-0.2607798993
  0
ELLIPSE
  5
496
100
AcDbEntity
  8
0
100
AcDbEllipse
 62
7
  6
CONTINUOUS
 10
274.3998801558
 20
201.9344115808
 30
0.0
 11
-0.0792985892
 21
3.9999942924
 31
0.0
 40
0.0852130878
 41
1.1949862112
 42
2.2983351613
  0
ELLIPSE
  5
497
100
AcDbEntity
  8
AUSFORMSCHRAEGEN
100
AcDbEllipse
 62
7
  6
CONTINUOUS
 10
250.5274924301
 20
201.9344115808
 30
0.0
 11
0.0792985892
 21
3.9999942924
 31
0.0
 40
0.0852130878
 41
-2.2983351613
 42
-1.1949862112
  0
ELLIPSE
  5
498
100
AcDbEntity
  8
AUSFORMSCHRAEGEN
100
AcDbEllipse
 62
7
  6
CONTINUOUS
 10
249.4636862929
 20
196.6589126197
 30
0.0
 11
0.0792985892
 21
3.9999942924
 31
0.0
 40
0.0852130878
 41
0.0
 42
6.2831853072
  0
ELLIPSE
  5
499
100
AcDbEntity
  8
AUSFORMSCHRAEGEN
100
AcDbEllipse
 62
7
  6
CONTINUOUS
 10
249.4024442285
 20
197.183505927
 30
0.0
 11
0.3370190043
 21
16.9999757427
 31
0.0
 40
0.0852130878
 41
-1.1949862112
 42
-0.9220697845
  0
ELLIPSE
  5
49A
100
AcDbEntity
  8
AUSFORMSCHRAEGEN
100
AcDbEllipse
 62
7
  6
CONTINUOUS
 10
251.7383915446
 20
185.9433489312
 30
0.0
 11
0.3964929462
 21
19.999971462
 31
0.0
 40
0.0852130878
 41
0.8432574923
 42
1.7993784498
  0
ELLIPSE
  5
49B
100
AcDbEntity
  8
KONSTRUKTIONSELEMENTE
100
AcDbEllipse
 62
7
  6
CONTINUOUS
 10
260.0268166495
 20
160.3888362585
 30
0.0
 11
10.0368501483
 21
0.1694806935
 31
0.0
 40
0.9707102166
 41
3.1252028593
 42
3.3860003251
  0
ELLIPSE
  5
49C
100
AcDbEntity
  8
KONSTRUKTIONSELEMENTE
100
AcDbEllipse
 62
7
  6
CONTINUOUS
 10
253.5718253676
 20
150.0768176406
 30
0.0
 11
1.5061402956
 21
-0.0
 31
0.0
 40
0.9703977122
 41
-2.8808127543
 42
-1.6865137017
  0
ELLIPSE
  5
49D
100
AcDbEntity
  8
0
100
AcDbEllipse
 62
7
  6
CONTINUOUS
 10
275.4636862929
 20
196.6589126197
 30
0.0
 11
-0.0792985892
 21
3.9999942924
 31
0.0
 40
0.0852130878
 41
0.0
 42
6.2831853072
  0
ELLIPSE
  5
49E
100
AcDbEntity
  8
0
100
AcDbEllipse
 62
7
  6
CONTINUOUS
 10
273.1889810412
 20
185.9433489312
 30
0.0
 11
-0.3964929462
 21
19.999971462
 31
0.0
 40
0.0852130878
 41
-1.7993784498
 42
-0.8432574923
  0
ELLIPSE
  5
49F
100
AcDbEntity
  8
0
100
AcDbEllipse
 62
7
  6
CONTINUOUS
 10
275.5249283574
 20
197.183505927
 30
0.0
 11
-0.3370190043
 21
16.9999757427
 31
0.0
 40
0.0852130878
 41
0.9220697845
 42
1.1949862112
  0
ELLIPSE
  5
4A0
100
AcDbEntity
  8
0
100
AcDbEllipse
 62
7
  6
CONTINUOUS
 10
274.4864912413
 20
205.0202326621
 30
0.0
 11
-0.0792985892
 21
3.9999942924
 31
0.0
 40
0.0852130878
 41
6.0546031842
 42
7.2052550917
  0
ELLIPSE
  5
4A1
100
AcDbEntity
  8
0
100
AcDbEllipse
 62
7
  6
CONTINUOUS
 10
264.9005559363
 20
160.3888362585
 30
0.0
 11
10.0368501483
 21
-0.1694806935
 31
0.0
 40
0.9707102166
 41
-0.2444076715
 42
0.0163897943
  0
ELLIPSE
  5
4A2
100
AcDbEntity
  8
0
100
AcDbEllipse
 62
7
  6
CONTINUOUS
 10
271.3555472182
 20
150.0768176406
 30
0.0
 11
1.5061402956
 21
-0.0
 31
0.0
 40
0.9703977122
 41
-1.4550789519
 42
-0.2607798993
  0
ELLIPSE
  5
4A3
100
AcDbEntity
  8
AUSFORMSCHRAEGEN
100
AcDbEllipse
 62
7
  6
CONTINUOUS
 10
250.4408813446
 20
205.0202326621
 30
0.0
 11
0.0792985892
 21
3.9999942924
 31
0.0
 40
0.0852130878
 41
-0.9220697845
 42
0.228582123
  0
ENDSEC
  0
SECTION
  2
OBJECTS
  0
DICTIONARY
  5
C
100
AcDbDictionary
280
0
281
1
  3
ACAD_GROUP
350
D
  3
ACAD_MLINESTYLE
350
17
  3
ACAD_LAYOUT
350
1A
  3
ACAD_PLOTSETTINGS
350
19
  3
ACAD_PLOTSTYLENAME
350
E
  0
DICTIONARY
  5
D
102
{ACAD_REACTORS
330
C
102
}
100
AcDbDictionary
280
0
281
1
  0
ACDBDICTIONARYWDFLT
  5
E
102
{ACAD_REACTORS
330
C
102
}
100
AcDbDictionary
281
1
  3
Normal
350
F
100
AcDbDictionaryWithDefault
340
F
  0
DICTIONARY
  5
17
102
{ACAD_REACTORS
330
C
102
}
100
AcDbDictionary
280
0
281
1
  3
Standard
350
18
  0
DICTIONARY
  5
19
102
{ACAD_REACTORS
330
C
102
}
100
AcDbDictionary
281
1
  0
DICTIONARY
  5
1A
102
{ACAD_REACTORS
330
C
102
}
100
AcDbDictionary
281
1
  3
Model
350
4A4
  3
Layout1
350
4A5
  0
ACDBPLACEHOLDER
  5
F
102
{ACAD_REACTORS
330
E
102
}
  0
MLINESTYLE
  5
18
102
{ACAD_REACTORS
330
17
102
}
100
AcDbMlineStyle
  2
STANDARD
 70
0
  3

 62
256
 51
90.0
 52
90.0
 71
2
 49
0.5
 62
256
  6
BYLAYER
 49
-0.5
 62
256
  6
BYLAYER
  0
LAYOUT
  5
4A4
102
{ACAD_REACTORS
330
1A
102
}
100
AcDbPlotSettings
  1

  2
none_device
  4
ISO_A3_(420.00_x_297.00_MM)
  6

 40
0.0
 41
0.0
 42
0.0
 43
0.0
 44
420.0
 45
297.0
 46
0.0
 47
0.0
 48
0.0
 49
0.0
140
0.0
141
0.0
142
1.0
143
1.0
 70
1024
 72
1
 73
0
 74
0
  7

 75
0
147
1.0
148
0.0
149
0.0
100
AcDbLayout
  1
Model
 70
0
 71
0
 10
0.0
 20
0.0
 11
420.0
 21
297.0
 12
0.0
 22
0.0
 32
0.0
 14
0.0
 24
0.0
 34
0.0
 15
0.0
 25
0.0
 35
0.0
146
0.0
 13
0.0
 23
0.0
 33
0.0
 16
1.0
 26
0.0
 36
0.0
 17
0.0
 27
1.0
 37
0.0
 76
0
330
20D
345
0
346
0
  0
LAYOUT
  5
4A5
102
{ACAD_REACTORS
330
1A
102
}
100
AcDbPlotSettings
  1

  2
none_device
  4
ISO_A3_(420.00_x_297.00_MM)
  6

 40
0.0
 41
0.0
 42
0.0
 43
0.0
 44
420.0
 45
297.0
 46
0.0
 47
0.0
 48
0.0
 49
0.0
140
0.0
141
0.0
142
1.0
143
1.0
 70
0
 72
1
 73
0
 74
0
  7

 75
0
147
1.0
148
0.0
149
0.0
100
AcDbLayout
  1
Layout1
 70
0
 71
1
 10
0.0
 20
0.0
 11
420.0
 21
297.0
 12
0.0
 22
0.0
 32
0.0
 14
0.0
 24
0.0
 34
0.0
 15
0.0
 25
0.0
 35
0.0
146
0.0
 13
0.0
 23
0.0
 33
0.0
 16
1.0
 26
0.0
 36
0.0
 17
0.0
 27
1.0
 37
0.0
 76
0
330
20E
345
0
346
0
  0
ENDSEC
  0
EOF
