999
DXF file: vcgh-6_dxf.dxf
999
Pro/ENGINEER 2011490 by Parametric Technology Corporation
  0
SECTION
  2
HEADER
  9
$ACADVER
  1
AC1015
  9
$DWGCODEPAGE
  3
ANSI_1252
  9
$EXTMAX
 10
420.0
 20
297.0
 30
0.0
  9
$EXTMIN
 10
0.0
 20
0.0
 30
0.0
  9
$LIMMIN
 10
0.0
 20
0.0
  9
$LIMMAX
 10
420.0
 20
297.0
  9
$VIEWCTR
 10
210.0
 20
148.5
  9
$VIEWSIZE
 40
297.0
  9
$CLAYER
  8
0
  9
$LTSCALE
 40
23.1
  9
$CELTYPE
  6
BYLAYER
  9
$DIMSCALE
 40
1.0
  9
$DIMASZ
 40
3.5
  9
$DIMEXO
 40
2.625
  9
$DIMDLI
 40
15.96
  9
$DIMEXE
 40
7.56
  9
$DIMCEN
 40
3.78
  9
$DIMLFAC
 40
1.0
  9
$DIMBLK
  1
_FILLED
  9
$DIMTXT
 40
3.5
  9
$DIMTOL
 70
1
  9
$DIMLIM
 70
0
  9
$DIMTFAC
 40
1.0
  9
$DIMTP
 40
0.005
  9
$DIMTM
 40
0.005
  9
$PDMODE
 70
3
  9
$PDSIZE
 40
0.3125
  9
$HANDSEED
  5
501
  9
$TILEMODE
 70
1
  9
$MEASUREMENT
 70
1
  9
$INSUNITS
 70
4
  0
ENDSEC
  0
SECTION
  2
CLASSES
  0
CLASS
  1
ACDBDICTIONARYWDFLT
  2
AcDbDictionaryWithDefault
  3
AutoCAD 2000
 90
0
280
0
281
0
  0
CLASS
  1
ACDBPLACEHOLDER
  2
AcDbPlaceHolder
  3
AutoCAD 2000
 90
0
280
0
281
0
  0
CLASS
  1
LAYOUT
  2
AcDbLayout
  3
AutoCAD 2000
 90
0
280
0
281
0
  0
ENDSEC
  0
SECTION
  2
TABLES
  0
TABLE
  2
VPORT
  5
8
100
AcDbSymbolTable
 70
2
  0
VPORT
  5
1F4
100
AcDbSymbolTableRecord
100
AcDbViewportTableRecord
  2
*ACTIVE
 70
0
 10
0.0
 20
0.0
 11
1.0
 21
1.0
 12
210.0
 22
148.5
 13
0.0
 23
0.0
 14
1.0
 24
1.0
 15
0.0
 25
0.0
 16
0.0
 26
0.0
 36
1.0
 17
0.0
 27
0.0
 37
0.0
 40
297.0
 41
1.4141414141
 42
50.0
 43
0.0
 44
0.0
 50
0.0
 51
0.0
 71
0
 72
100
 73
1
 74
1
 75
0
 76
0
 77
0
 78
0
  0
ENDTAB
  0
TABLE
  2
LTYPE
  5
5
100
AcDbSymbolTable
 70
6
  0
LTYPE
  5
14
100
AcDbSymbolTableRecord
100
AcDbLinetypeTableRecord
  2
BYBLOCK
 70
0
  3

 72
65
 73
0
 40
0.0
  0
LTYPE
  5
15
100
AcDbSymbolTableRecord
100
AcDbLinetypeTableRecord
  2
BYLAYER
 70
0
  3

 72
65
 73
0
 40
0.0
  0
LTYPE
  5
16
100
AcDbSymbolTableRecord
100
AcDbLinetypeTableRecord
  2
CONTINUOUS
 70
64
  3
Solid line
 72
65
 73
0
 40
0.0
  0
LTYPE
  5
1F5
100
AcDbSymbolTableRecord
100
AcDbLinetypeTableRecord
  2
CENTER
 70
64
  3
____ _ ____ _ ____ _ ____ _ ____ _ ____ _ ____
 72
65
 73
4
 40
0.6
 49
0.375
 74
0
 49
-0.075
 74
0
 49
0.075
 74
0
 49
-0.075
 74
0
  0
LTYPE
  5
1F6
100
AcDbSymbolTableRecord
100
AcDbLinetypeTableRecord
  2
HIDDEN
 70
64
  3
- - - - - - - - - - - - - - - - - - - -
 72
65
 73
2
 40
0.2
 49
0.1
 74
0
 49
-0.1
 74
0
  0
LTYPE
  5
1F7
100
AcDbSymbolTableRecord
100
AcDbLinetypeTableRecord
  2
PHANTOM
 70
64
  3
_____ _ _ _____ _ _ _____ _ _ _____
 72
65
 73
6
 40
0.8
 49
0.45
 74
0
 49
-0.05
 74
0
 49
0.1
 74
0
 49
-0.05
 74
0
 49
0.1
 74
0
 49
-0.05
 74
0
  0
LTYPE
  5
1F8
100
AcDbSymbolTableRecord
100
AcDbLinetypeTableRecord
  2
DOT
 70
64
  3
. . . . . . . . . . . . . . . . . . . .
 72
65
 73
2
 40
0.2
 49
0.1
 74
0
 49
-0.1
 74
0
  0
LTYPE
  5
1F9
100
AcDbSymbolTableRecord
100
AcDbLinetypeTableRecord
  2
DASHED
 70
64
  3
- - - - - - - - - - - - - - - - - - - -
 72
65
 73
2
 40
0.2
 49
0.1
 74
0
 49
-0.1
 74
0
  0
ENDTAB
  0
TABLE
  2
LAYER
  5
2
100
AcDbSymbolTable
 70
36
  0
LAYER
  5
10
100
AcDbSymbolTableRecord
100
AcDbLayerTableRecord
  2
0
 70
0
 62
7
  6
CONTINUOUS
370
-3
390
F
  0
LAYER
  5
1FA
100
AcDbSymbolTableRecord
100
AcDbLayerTableRecord
  2
DEFAULT_1
 70
0
 62
7
  6
CENTER
370
-3
390
F
  0
LAYER
  5
1FB
100
AcDbSymbolTableRecord
100
AcDbLayerTableRecord
  2
DEFAULT_2
 70
0
 62
8
  6
HIDDEN
370
-3
390
F
  0
LAYER
  5
1FC
100
AcDbSymbolTableRecord
100
AcDbLayerTableRecord
  2
DEFAULT_3
 70
0
 62
7
  6
PHANTOM
370
-3
390
F
  0
LAYER
  5
1FD
100
AcDbSymbolTableRecord
100
AcDbLayerTableRecord
  2
AUSFORMSCHRAEGEN
 70
0
 62
7
  6
CONTINUOUS
370
-3
390
F
  0
LAYER
  5
1FE
100
AcDbSymbolTableRecord
100
AcDbLayerTableRecord
  2
BEZUGSACHSEN
 70
0
 62
7
  6
CONTINUOUS
370
-3
390
F
  0
LAYER
  5
1FF
100
AcDbSymbolTableRecord
100
AcDbLayerTableRecord
  2
BEZUGSEBENEN
 70
0
 62
7
  6
CONTINUOUS
370
-3
390
F
  0
LAYER
  5
200
100
AcDbSymbolTableRecord
100
AcDbLayerTableRecord
  2
BG_STARTBEZUEGE
 70
0
 62
7
  6
CONTINUOUS
370
-3
390
F
  0
LAYER
  5
201
100
AcDbSymbolTableRecord
100
AcDbLayerTableRecord
  2
BOHRUNGEN
 70
0
 62
7
  6
CONTINUOUS
370
-3
390
F
  0
LAYER
  5
202
100
AcDbSymbolTableRecord
100
AcDbLayerTableRecord
  2
FASEN
 70
0
 62
7
  6
CONTINUOUS
370
-3
390
F
  0
LAYER
  5
203
100
AcDbSymbolTableRecord
100
AcDbLayerTableRecord
  2
HILFEN
 70
0
 62
7
  6
CONTINUOUS
370
-3
390
F
  0
LAYER
  5
204
100
AcDbSymbolTableRecord
100
AcDbLayerTableRecord
  2
KONSTRUKTIONSELEMENTE
 70
0
 62
7
  6
CONTINUOUS
370
-3
390
F
  0
LAYER
  5
205
100
AcDbSymbolTableRecord
100
AcDbLayerTableRecord
  2
PLATZIERUNG
 70
0
 62
7
  6
CONTINUOUS
370
-3
390
F
  0
LAYER
  5
206
100
AcDbSymbolTableRecord
100
AcDbLayerTableRecord
  2
PLAZIERUNG
 70
0
 62
7
  6
CONTINUOUS
370
-3
390
F
  0
LAYER
  5
207
100
AcDbSymbolTableRecord
100
AcDbLayerTableRecord
  2
RUNDUNGEN
 70
0
 62
7
  6
CONTINUOUS
370
-3
390
F
  0
LAYER
  5
208
100
AcDbSymbolTableRecord
100
AcDbLayerTableRecord
  2
TEIL_STARTBEZUEGE
 70
0
 62
7
  6
CONTINUOUS
370
-3
390
F
  0
LAYER
  5
209
100
AcDbSymbolTableRecord
100
AcDbLayerTableRecord
  2
ZEICHNUNGSBEMASSUNGEN
 70
0
 62
7
  6
CONTINUOUS
370
-3
390
F
  0
ENDTAB
  0
TABLE
  2
STYLE
  5
3
100
AcDbSymbolTable
 70
1
  0
STYLE
  5
11
100
AcDbSymbolTableRecord
100
AcDbTextStyleTableRecord
  2
STANDARD
 70
0
 40
0.0
 41
0.7
 50
0.0
 71
0
 42
0.2
  3
txt
  4

  0
STYLE
  5
20A
100
AcDbSymbolTableRecord
100
AcDbTextStyleTableRecord
  2
TEXTSTYLE_1
 70
0
 40
0.0
 41
0.8
 50
0.0
 71
0
 42
0.2
  3
gdt
  4

  0
ENDTAB
  0
TABLE
  2
VIEW
  5
6
100
AcDbSymbolTable
 70
0
  0
ENDTAB
  0
TABLE
  2
UCS
  5
7
100
AcDbSymbolTable
 70
0
  0
ENDTAB
  0
TABLE
  2
APPID
  5
9
100
AcDbSymbolTable
 70
1
  0
APPID
  5
20B
100
AcDbSymbolTableRecord
100
AcDbRegAppTableRecord
  2
ACAD
 70
0
  0
ENDTAB
  0
TABLE
  2
BLOCK_RECORD
  5
1
100
AcDbSymbolTable
 70
0
  0
BLOCK_RECORD
  5
20C
100
AcDbSymbolTableRecord
100
AcDbBlockTableRecord
  2
*Model_Space
  0
BLOCK_RECORD
  5
20D
100
AcDbSymbolTableRecord
100
AcDbBlockTableRecord
  2
*Paper_Space
  0
ENDTAB
  0
TABLE
  2
DIMSTYLE
  5
A
100
AcDbSymbolTable
 70
1
100
AcDbDimStyleTable
 71
0
  0
DIMSTYLE
105
20E
100
AcDbSymbolTableRecord
100
AcDbDimStyleTableRecord
  2
STANDARD
 70
0
  3

  4

 40
1.0
 41
3.5
 42
0.0625
 43
0.38
 44
0.18
 45
0.0
 46
0.0
 47
0.005
 48
0.005
140
3.5
141
0.09
142
0.0
143
25.4
144
1.0
145
0.0
146
1.0
147
0.09
 71
1.0
 72
0.0
 73
0
 74
0
 75
0
 76
0
 77
1
 78
8
170
0
171
2
172
0
173
0
174
0
175
0
176
0
177
0
178
5
270
2
271
3
272
3
273
2
274
2
275
0
280
0
281
0
282
0
283
1
284
8
285
0
286
0
287
3
288
0
340
11
  0
ENDTAB
  0
ENDSEC
  0
SECTION
  2
BLOCKS
  0
BLOCK
  5
20
100
AcDbEntity
  8
0
100
AcDbBlockBegin
  2
*Model_Space
 70
0
 10
0.0
 20
0.0
 30
0.0
  3
*Model_Space
  1

  0
ENDBLK
  5
21
100
AcDbEntity
  8
0
100
AcDbBlockEnd
  0
BLOCK
  5
1C
100
AcDbEntity
  8
0
100
AcDbBlockBegin
  2
*Paper_Space
 70
0
 10
0.0
 20
0.0
 30
0.0
  3
*Paper_Space
  1

  0
ENDBLK
  5
1D
100
AcDbEntity
  8
0
100
AcDbBlockEnd
  0
ENDSEC
  0
SECTION
  2
ENTITIES
  0
MTEXT
  5
20F
100
AcDbEntity
  8
0
100
AcDbMText
 62
5
  6
CONTINUOUS
  7
STANDARD
 71
1
 72
1
 10
290.4515517453
 20
106.8496413601
 30
0.0
 11
0.0
 21
1.0
 31
0.0
 44
0.9
  1
VCGH
 40
3.5
 41
11.3333333333
  0
MTEXT
  5
210
100
AcDbEntity
  8
0
100
AcDbMText
 62
5
  6
CONTINUOUS
  7
STANDARD
 71
1
 72
1
 10
296.1636320923
 20
105.9855775737
 30
0.0
 11
0.0
 21
1.0
 31
0.0
 44
0.9
  1
6/VIP
 40
3.5
 41
13.3333333333
  0
LINE
  5
211
100
AcDbEntity
  8
0
100
AcDbLine
 62
7
  6
CONTINUOUS
 10
0.0
 20
0.0
 11
0.0
 21
297.0
  0
LINE
  5
212
100
AcDbEntity
  8
0
100
AcDbLine
 62
7
  6
CONTINUOUS
 10
0.0
 20
0.0
 11
420.0
 21
0.0
  0
LINE
  5
213
100
AcDbEntity
  8
0
100
AcDbLine
 62
7
  6
CONTINUOUS
 10
0.0
 20
297.0
 11
420.0
 21
297.0
  0
LINE
  5
214
100
AcDbEntity
  8
0
100
AcDbLine
 62
7
  6
CONTINUOUS
 10
420.0
 20
0.0
 11
420.0
 21
297.0
  0
LINE
  5
215
100
AcDbEntity
  8
0
100
AcDbLine
 62
7
  6
CONTINUOUS
 10
157.8293445524
 20
96.4662509179
 11
157.1852821669
 21
96.2941229567
  0
LINE
  5
216
100
AcDbEntity
  8
0
100
AcDbLine
 62
7
  6
CONTINUOUS
 10
158.0847014943
 20
100.6748813838
 11
157.6016546764
 21
100.5457854052
  0
LINE
  5
217
100
AcDbEntity
  8
0
100
AcDbLine
 62
7
  6
CONTINUOUS
 10
154.8643894516
 20
99.8142415467
 11
155.3474362695
 21
99.9433375254
  0
LINE
  5
218
100
AcDbEntity
  8
0
100
AcDbLine
 62
7
  6
CONTINUOUS
 10
161.5460445235
 20
97.7729458663
 11
161.1302875281
 21
97.6834998336
  0
LINE
  5
219
100
AcDbEntity
  8
0
100
AcDbLine
 62
7
  6
CONTINUOUS
 10
161.0014678381
 20
98.1846000439
 11
161.3409111238
 21
98.2405693883
  0
LINE
  5
21A
100
AcDbEntity
  8
0
100
AcDbLine
 62
7
  6
CONTINUOUS
 10
161.1705644968
 20
101.3256321645
 11
160.8311216477
 21
101.2696630117
  0
LINE
  5
21B
100
AcDbEntity
  8
0
100
AcDbLine
 62
7
  6
CONTINUOUS
 10
165.155452819
 20
99.7030954891
 11
164.7827556174
 21
99.6687431749
  0
LINE
  5
21C
100
AcDbEntity
  8
0
100
AcDbLine
 62
7
  6
CONTINUOUS
 10
161.1302875281
 20
97.6834998336
 11
160.756655774
 21
97.7054679458
  0
LINE
  5
21D
100
AcDbEntity
  8
0
100
AcDbLine
 62
7
  6
CONTINUOUS
 10
171.5645382642
 20
105.7465514282
 11
171.8563488479
 21
105.8260433272
  0
LINE
  5
21E
100
AcDbEntity
  8
0
100
AcDbLine
 62
7
  6
CONTINUOUS
 10
171.6872568328
 20
107.7243096433
 11
171.3954462491
 21
107.6448177443
  0
LINE
  5
21F
100
AcDbEntity
  8
0
100
AcDbLine
 62
7
  6
CONTINUOUS
 10
170.5331711062
 20
108.600828568
 11
170.2413605224
 21
108.5213366689
  0
LINE
  5
220
100
AcDbEntity
  8
0
100
AcDbLine
 62
7
  6
CONTINUOUS
 10
160.625988272
 20
101.7372864791
 11
161.0417448278
 21
101.826732327
  0
LINE
  5
221
100
AcDbEntity
  8
0
100
AcDbLine
 62
7
  6
CONTINUOUS
 10
164.4461303541
 20
103.7861186895
 11
164.8188275438
 21
103.8204710226
  0
LINE
  5
222
100
AcDbEntity
  8
0
100
AcDbLine
 62
7
  6
CONTINUOUS
 10
164.650619251
 20
100.189386397
 11
164.9528913277
 21
100.179188815
  0
LINE
  5
223
100
AcDbEntity
  8
0
100
AcDbLine
 62
7
  6
CONTINUOUS
 10
164.9509638625
 20
103.2998278759
 11
164.6486918176
 21
103.3100254076
  0
LINE
  5
224
100
AcDbEntity
  8
0
100
AcDbLine
 62
7
  6
CONTINUOUS
 10
161.0417448278
 20
101.826732327
 11
161.4153770095
 21
101.8047644268
  0
LINE
  5
225
100
AcDbEntity
  8
0
100
AcDbLine
 62
7
  6
CONTINUOUS
 10
160.704149339
 20
98.2400446938
 11
161.0014678381
 21
98.1846000439
  0
LINE
  5
226
100
AcDbEntity
  8
0
100
AcDbLine
 62
7
  6
CONTINUOUS
 10
161.4678829719
 20
101.2701875692
 11
161.1705644968
 21
101.3256321645
  0
LINE
  5
227
100
AcDbEntity
  8
0
100
AcDbLine
 62
7
  6
CONTINUOUS
 10
171.9249334022
 20
107.7404474501
 11
171.6872568328
 21
107.7243096433
  0
LINE
  5
228
100
AcDbEntity
  8
0
100
AcDbLine
 62
7
  6
CONTINUOUS
 10
171.5908492291
 20
108.135521376
 11
171.9473628441
 21
108.1597266361
  0
LINE
  5
229
100
AcDbEntity
  8
0
100
AcDbLine
 62
7
  6
CONTINUOUS
 10
171.6609458905
 20
105.3353396761
 11
171.2397292217
 21
105.3664210743
  0
LINE
  5
22A
100
AcDbEntity
  8
0
100
AcDbLine
 62
7
  6
CONTINUOUS
 10
164.7827556174
 20
99.6687431749
 11
164.3190626071
 21
99.7782385027
  0
LINE
  5
22B
100
AcDbEntity
  8
0
100
AcDbLine
 62
7
  6
CONTINUOUS
 10
164.8188275438
 20
103.8204710226
 11
165.2825205382
 21
103.7109757199
  0
LINE
  5
22C
100
AcDbEntity
  8
0
100
AcDbLine
 62
7
  6
CONTINUOUS
 10
160.756655774
 20
97.7054679458
 11
160.3146457884
 21
97.8833103624
  0
LINE
  5
22D
100
AcDbEntity
  8
0
100
AcDbLine
 62
7
  6
CONTINUOUS
 10
117.8043520899
 20
115.3084246438
 11
113.5722963208
 21
131.1026717945
  0
LINE
  5
22E
100
AcDbEntity
  8
0
100
AcDbLine
 62
7
  6
CONTINUOUS
 10
170.4367635025
 20
109.0120403006
 11
170.8579801487
 21
108.9809589218
  0
LINE
  5
22F
100
AcDbEntity
  8
0
100
AcDbLine
 62
7
  6
CONTINUOUS
 10
171.2621586183
 20
105.7857002991
 11
171.5645382642
 21
105.7465514282
  0
LINE
  5
230
100
AcDbEntity
  8
0
100
AcDbLine
 62
7
  6
CONTINUOUS
 10
170.8355494677
 20
108.5616782857
 11
170.5331711062
 21
108.600828568
  0
LINE
  5
231
100
AcDbEntity
  8
0
100
AcDbLine
 62
7
  6
CONTINUOUS
 10
161.4153770095
 20
101.8047644268
 11
161.8573865464
 21
101.6269218459
  0
LINE
  5
232
100
AcDbEntity
  8
0
100
AcDbLine
 62
7
  6
CONTINUOUS
 10
164.3732744484
 20
100.3160576113
 11
164.650619251
 21
100.189386397
  0
LINE
  5
233
100
AcDbEntity
  8
0
100
AcDbLine
 62
7
  6
CONTINUOUS
 10
160.4489556746
 20
98.4069032288
 11
160.704149339
 21
98.2400446938
  0
LINE
  5
234
100
AcDbEntity
  8
0
100
AcDbLine
 62
7
  6
CONTINUOUS
 10
171.2397292217
 20
105.3664210744
 11
170.8079441328
 21
105.5161439482
  0
LINE
  5
235
100
AcDbEntity
  8
0
100
AcDbLine
 62
7
  6
CONTINUOUS
 10
164.3190626071
 20
99.7782385027
 11
163.9962198704
 21
99.9768335853
  0
LINE
  5
236
100
AcDbEntity
  8
0
100
AcDbLine
 62
7
  6
CONTINUOUS
 10
160.3146457884
 20
97.8833103625
 11
160.0252632041
 21
98.1281061966
  0
LINE
  5
237
100
AcDbEntity
  8
BEZUGSACHSEN
100
AcDbLine
 62
7
  6
CONTINUOUS
 10
122.2315545837
 20
186.0793902066
 11
122.2315545837
 21
196.4804157732
  0
LINE
  5
238
100
AcDbEntity
  8
KONSTRUKTIONSELEMENTE
100
AcDbLine
 62
7
  6
CONTINUOUS
 10
121.9023590263
 20
151.7945841786
 11
123.090137462
 21
156.182869649
  0
LINE
  5
239
100
AcDbEntity
  8
KONSTRUKTIONSELEMENTE
100
AcDbLine
 62
7
  6
CONTINUOUS
 10
123.1607246611
 20
156.4436563166
 11
123.4551090783
 21
157.5312689738
  0
LINE
  5
23A
100
AcDbEntity
  8
KONSTRUKTIONSELEMENTE
100
AcDbLine
 62
7
  6
CONTINUOUS
 10
123.5860673205
 20
158.0150983937
 11
123.9255119308
 21
159.2691873772
  0
LINE
  5
23B
100
AcDbEntity
  8
KONSTRUKTIONSELEMENTE
100
AcDbLine
 62
7
  6
CONTINUOUS
 10
124.0637753978
 20
159.7800061843
 11
124.5476975326
 21
161.5678720091
  0
LINE
  5
23C
100
AcDbEntity
  8
0
100
AcDbLine
 62
7
  6
CONTINUOUS
 10
123.6032230604
 20
157.2104094345
 11
123.4742539576
 21
156.7339289537
  0
LINE
  5
23D
100
AcDbEntity
  8
0
100
AcDbLine
 62
7
  6
CONTINUOUS
 10
123.2152588075
 20
155.7770630774
 11
121.8935500148
 21
150.8939676141
  0
LINE
  5
23E
100
AcDbEntity
  8
0
100
AcDbLine
 62
7
  6
CONTINUOUS
 10
121.6345548531
 20
149.9371016945
 11
121.5055853719
 21
149.4606198161
  0
LINE
  5
23F
100
AcDbEntity
  8
0
100
AcDbLine
 62
7
  6
CONTINUOUS
 10
118.1585562694
 20
137.094913606
 11
121.2324074667
 21
148.4513552965
  0
LINE
  5
240
100
AcDbEntity
  8
0
100
AcDbLine
 62
7
  6
CONTINUOUS
 10
123.8764013439
 20
158.2196753517
 11
124.8470384257
 21
161.8057251355
  0
LINE
  5
241
100
AcDbEntity
  8
0
100
AcDbLine
 62
7
  6
CONTINUOUS
 10
119.108952545
 20
135.439091478
 11
119.4616654712
 21
136.7422006798
  0
LINE
  5
242
100
AcDbEntity
  8
0
100
AcDbLine
 62
7
  6
CONTINUOUS
 10
171.9473628441
 20
108.1597266361
 11
172.3791485072
 21
108.010004526
  0
LINE
  5
243
100
AcDbEntity
  8
0
100
AcDbLine
 62
7
  6
CONTINUOUS
 10
171.0139155102
 20
105.8882061237
 11
171.2621586183
 21
105.7857002991
  0
LINE
  5
244
100
AcDbEntity
  8
0
100
AcDbLine
 62
7
  6
CONTINUOUS
 10
172.1731766009
 20
107.637941548
 11
171.9249334022
 21
107.7404474501
  0
LINE
  5
245
100
AcDbEntity
  8
0
100
AcDbLine
 62
7
  6
CONTINUOUS
 10
170.8579801487
 20
108.9809589218
 11
171.1062232568
 21
108.8784530972
  0
LINE
  5
246
100
AcDbEntity
  8
0
100
AcDbLine
 62
7
  6
CONTINUOUS
 10
125.4435249397
 20
133.7026701551
 11
130.7185037271
 21
122.3371697792
  0
LINE
  5
247
100
AcDbEntity
  8
0
100
AcDbLine
 62
7
  6
CONTINUOUS
 10
121.2808012146
 20
134.851236601
 11
121.6758396919
 21
136.310718907
  0
LINE
  5
248
100
AcDbEntity
  8
0
100
AcDbLine
 62
7
  6
CONTINUOUS
 10
170.8079441328
 20
105.5161439482
 11
170.3008875701
 21
105.8397949559
  0
LINE
  5
249
100
AcDbEntity
  8
0
100
AcDbLine
 62
7
  6
CONTINUOUS
 10
165.1578836477
 20
103.1286065954
 11
164.9509638625
 21
103.2998278759
  0
LINE
  5
24A
100
AcDbEntity
  8
0
100
AcDbLine
 62
7
  6
CONTINUOUS
 10
164.1208576943
 20
100.5592030181
 11
164.3732744484
 21
100.3160576113
  0
LINE
  5
24B
100
AcDbEntity
  8
0
100
AcDbLine
 62
7
  6
CONTINUOUS
 10
163.9962198704
 20
99.9768335853
 11
163.6983048109
 21
100.291902555
  0
LINE
  5
24C
100
AcDbEntity
  8
0
100
AcDbLine
 62
7
  6
CONTINUOUS
 10
161.6467634622
 20
101.0698523122
 11
161.4678829719
 21
101.2701875692
  0
LINE
  5
24D
100
AcDbEntity
  8
0
100
AcDbLine
 62
7
  6
CONTINUOUS
 10
157.1852821669
 20
96.2941229567
 11
154.8643894516
 21
99.8142415467
  0
LINE
  5
24E
100
AcDbEntity
  8
0
100
AcDbLine
 62
7
  6
CONTINUOUS
 10
121.6758396919
 20
136.310718907
 11
137.4612811445
 21
170.842674863
  0
LINE
  5
24F
100
AcDbEntity
  8
0
100
AcDbLine
 62
7
  6
CONTINUOUS
 10
119.108952545
 20
135.439091478
 11
121.2808012146
 21
134.851236601
  0
LINE
  5
250
100
AcDbEntity
  8
0
100
AcDbLine
 62
7
  6
CONTINUOUS
 10
118.1585562694
 20
137.094913606
 11
119.4616654712
 21
136.7422006798
  0
LINE
  5
251
100
AcDbEntity
  8
0
100
AcDbLine
 62
7
  6
CONTINUOUS
 10
170.3008875701
 20
105.8397949559
 11
169.8479663514
 21
106.2268014285
  0
LINE
  5
252
100
AcDbEntity
  8
0
100
AcDbLine
 62
7
  6
CONTINUOUS
 10
170.11864076
 20
106.543576965
 11
170.2480468225
 21
106.4330036871
  0
LINE
  5
253
100
AcDbEntity
  8
0
100
AcDbLine
 62
7
  6
CONTINUOUS
 10
170.8198064165
 20
106.0540660405
 11
171.0139155102
 21
105.8882061236
  0
LINE
  5
254
100
AcDbEntity
  8
0
100
AcDbLine
 62
7
  6
CONTINUOUS
 10
165.2825205382
 20
103.7109757199
 11
165.5804361281
 21
103.3959068036
  0
LINE
  5
255
100
AcDbEntity
  8
0
100
AcDbLine
 62
7
  6
CONTINUOUS
 10
160.2358863842
 20
98.685175512
 11
160.4489556746
 21
98.4069032288
  0
LINE
  5
256
100
AcDbEntity
  8
0
100
AcDbLine
 62
7
  6
CONTINUOUS
 10
160.0252632041
 20
98.1281061966
 11
159.7780050177
 21
98.4843157243
  0
LINE
  5
257
100
AcDbEntity
  8
0
100
AcDbLine
 62
7
  6
CONTINUOUS
 10
157.3754706008
 20
96.8735113305
 11
155.3474362695
 21
99.9433375254
  0
LINE
  5
258
100
AcDbEntity
  8
0
100
AcDbLine
 62
7
  6
CONTINUOUS
 10
172.3672856946
 20
107.4720816312
 11
172.1731766009
 21
107.637941548
  0
LINE
  5
259
100
AcDbEntity
  8
0
100
AcDbLine
 62
7
  6
CONTINUOUS
 10
172.3791485072
 20
108.010004526
 11
172.702663754
 21
107.7335712538
  0
LINE
  5
25A
100
AcDbEntity
  8
0
100
AcDbLine
 62
7
  6
CONTINUOUS
 10
168.2019302867
 20
101.6410584123
 11
165.575601393
 21
104.658076235
  0
LINE
  5
25B
100
AcDbEntity
  8
0
100
AcDbLine
 62
7
  6
CONTINUOUS
 10
165.9527286209
 20
104.9863673467
 11
167.0144360759
 21
103.7667218094
  0
LINE
  5
25C
100
AcDbEntity
  8
0
100
AcDbLine
 62
7
  6
CONTINUOUS
 10
167.3497120649
 20
103.3815706439
 11
168.5790575145
 21
101.969349524
  0
LINE
  5
25D
100
AcDbEntity
  8
0
100
AcDbLine
 62
7
  6
CONTINUOUS
 10
170.3389850573
 20
103.5013751294
 11
169.1096396077
 21
104.9135962493
  0
LINE
  5
25E
100
AcDbEntity
  8
0
100
AcDbLine
 62
7
  6
CONTINUOUS
 10
168.7743636187
 20
105.2987474148
 11
167.7126561636
 21
106.5183929521
  0
LINE
  5
25F
100
AcDbEntity
  8
0
100
AcDbLine
 62
7
  6
CONTINUOUS
 10
161.8573865464
 20
101.6269218459
 11
162.1046448286
 21
101.2707120999
  0
LINE
  5
260
100
AcDbEntity
  8
0
100
AcDbLine
 62
7
  6
CONTINUOUS
 10
163.6983048109
 20
100.291902555
 11
163.0158362119
 21
101.3707599239
  0
LINE
  5
261
100
AcDbEntity
  8
0
100
AcDbLine
 62
7
  6
CONTINUOUS
 10
141.540329351
 20
166.3546089316
 11
141.4835779068
 21
165.9698668849
  0
LINE
  5
262
100
AcDbEntity
  8
0
100
AcDbLine
 62
7
  6
CONTINUOUS
 10
169.8479663514
 20
106.2268014285
 11
169.4491803862
 21
106.6771634434
  0
LINE
  5
263
100
AcDbEntity
  8
0
100
AcDbLine
 62
7
  6
CONTINUOUS
 10
168.0897833915
 20
106.8466840638
 11
170.7161122851
 21
103.8296662411
  0
LINE
  5
264
100
AcDbEntity
  8
0
100
AcDbLine
 62
7
  6
CONTINUOUS
 10
170.11864076
 20
106.543576965
 11
169.7845578261
 21
106.938652341
  0
LINE
  5
265
100
AcDbEntity
  8
0
100
AcDbLine
 62
7
  6
CONTINUOUS
 10
163.4383890953
 20
101.638060387
 11
164.1208576943
 21
100.5592030181
  0
LINE
  5
266
100
AcDbEntity
  8
0
100
AcDbLine
 62
7
  6
CONTINUOUS
 10
165.2065234624
 20
101.6487990149
 11
164.9335360483
 21
102.0803419222
  0
LINE
  5
267
100
AcDbEntity
  8
0
100
AcDbLine
 62
7
  6
CONTINUOUS
 10
166.2043354655
 20
101.4743586834
 11
165.840352183
 21
102.0497493272
  0
LINE
  5
268
100
AcDbEntity
  8
0
100
AcDbLine
 62
7
  6
CONTINUOUS
 10
165.9899172493
 20
102.7485924427
 11
166.6723858483
 21
101.6697350738
  0
LINE
  5
269
100
AcDbEntity
  8
0
100
AcDbLine
 62
7
  6
CONTINUOUS
 10
159.7780050177
 20
98.4843157243
 11
159.2651715307
 21
99.653374502
  0
LINE
  5
26A
100
AcDbEntity
  8
0
100
AcDbLine
 62
7
  6
CONTINUOUS
 10
159.7230528971
 20
99.8542342896
 11
160.2358863842
 21
98.6851755119
  0
LINE
  5
26B
100
AcDbEntity
  8
BEZUGSACHSEN
100
AcDbLine
 62
7
  6
CONTINUOUS
 10
141.9315545837
 20
184.6046386067
 11
141.9315545837
 21
188.7046386067
  0
LINE
  5
26C
100
AcDbEntity
  8
BEZUGSACHSEN
100
AcDbLine
 62
7
  6
CONTINUOUS
 10
141.9315545837
 20
196.3046386067
 11
141.9315545837
 21
198.5043430195
  0
LINE
  5
26D
100
AcDbEntity
  8
BEZUGSACHSEN
100
AcDbLine
 62
7
  6
CENTER
 10
145.2315545837
 20
90.0046386067
 11
145.2315545837
 21
204.0781919723
  0
LINE
  5
26E
100
AcDbEntity
  8
BEZUGSACHSEN
100
AcDbLine
 62
7
  6
CONTINUOUS
 10
148.5315545837
 20
198.5043430195
 11
148.5315545837
 21
196.3046386067
  0
LINE
  5
26F
100
AcDbEntity
  8
BEZUGSACHSEN
100
AcDbLine
 62
7
  6
CONTINUOUS
 10
148.5315545837
 20
188.7046386067
 11
148.5315545837
 21
184.6046386067
  0
LINE
  5
270
100
AcDbEntity
  8
KONSTRUKTIONSELEMENTE
100
AcDbLine
 62
7
  6
CONTINUOUS
 10
122.1212813722
 20
151.735328407
 11
121.9023590263
 21
151.7945841786
  0
LINE
  5
271
100
AcDbEntity
  8
KONSTRUKTIONSELEMENTE
100
AcDbLine
 62
7
  6
CONTINUOUS
 10
122.2778774712
 20
152.3138777099
 11
122.0589551253
 21
152.3731334815
  0
LINE
  5
272
100
AcDbEntity
  8
0
100
AcDbLine
 62
7
  6
CONTINUOUS
 10
169.6445825655
 20
107.167866505
 11
169.7845578261
 21
106.938652341
  0
LINE
  5
273
100
AcDbEntity
  8
0
100
AcDbLine
 62
7
  6
CONTINUOUS
 10
170.6798312465
 20
106.283280127
 11
170.8198064165
 21
106.0540660405
  0
LINE
  5
274
100
AcDbEntity
  8
0
100
AcDbLine
 62
7
  6
CONTINUOUS
 10
172.5072607739
 20
107.2428676221
 11
172.3672856946
 21
107.4720816312
  0
LINE
  5
275
100
AcDbEntity
  8
0
100
AcDbLine
 62
7
  6
CONTINUOUS
 10
169.4491803862
 20
106.6771634434
 11
169.2339349361
 21
107.0803071526
  0
LINE
  5
276
100
AcDbEntity
  8
0
100
AcDbLine
 62
7
  6
CONTINUOUS
 10
163.0158362119
 20
101.3707599239
 11
162.8587721204
 21
101.7749293345
  0
LINE
  5
277
100
AcDbEntity
  8
0
100
AcDbLine
 62
7
  6
CONTINUOUS
 10
163.3268226306
 20
101.9703055233
 11
163.4383890953
 21
101.638060387
  0
LINE
  5
278
100
AcDbEntity
  8
0
100
AcDbLine
 62
7
  6
CONTINUOUS
 10
159.2651715307
 20
99.653374502
 11
159.1705406618
 21
100.0765376383
  0
LINE
  5
279
100
AcDbEntity
  8
0
100
AcDbLine
 62
7
  6
CONTINUOUS
 10
156.7790712376
 20
146.2137282999
 11
156.7771426667
 21
146.2126160794
  0
LINE
  5
27A
100
AcDbEntity
  8
0
100
AcDbLine
 62
7
  6
CONTINUOUS
 10
172.702663754
 20
107.7335712539
 11
172.9179084486
 21
107.3304269357
  0
LINE
  5
27B
100
AcDbEntity
  8
0
100
AcDbLine
 62
7
  6
CONTINUOUS
 10
166.6723858483
 20
101.6697350738
 11
166.7839515389
 21
101.3374893773
  0
LINE
  5
27C
100
AcDbEntity
  8
0
100
AcDbLine
 62
7
  6
CONTINUOUS
 10
162.8909894833
 20
99.4781553657
 11
162.9856202803
 21
99.0549923931
  0
LINE
  5
27D
100
AcDbEntity
  8
0
100
AcDbLine
 62
7
  6
CONTINUOUS
 10
159.6626110199
 20
100.199459963
 11
159.7230528971
 21
99.8542342896
  0
LINE
  5
27E
100
AcDbEntity
  8
0
100
AcDbLine
 62
7
  6
CONTINUOUS
 10
162.8587721204
 20
101.7749293345
 11
162.8176316064
 21
102.1517248453
  0
LINE
  5
27F
100
AcDbEntity
  8
0
100
AcDbLine
 62
7
  6
CONTINUOUS
 10
162.459361098
 20
99.0100071492
 11
162.4331081168
 21
99.277295578
  0
LINE
  5
280
100
AcDbEntity
  8
0
100
AcDbLine
 62
7
  6
CONTINUOUS
 10
159.4519666542
 20
185.2412189208
 11
159.4560471781
 21
185.3084934669
  0
LINE
  5
281
100
AcDbEntity
  8
KONSTRUKTIONSELEMENTE
100
AcDbLine
 62
7
  6
CONTINUOUS
 10
124.1444342767
 20
159.2099316056
 11
123.9255119308
 21
159.2691873772
  0
LINE
  5
282
100
AcDbEntity
  8
KONSTRUKTIONSELEMENTE
100
AcDbLine
 62
7
  6
CONTINUOUS
 10
124.2826977437
 20
159.7207504127
 11
124.0637753978
 21
159.7800061843
  0
LINE
  5
283
100
AcDbEntity
  8
KONSTRUKTIONSELEMENTE
100
AcDbLine
 62
7
  6
CONTINUOUS
 10
124.7666198785
 20
161.5086162375
 11
124.5476975326
 21
161.5678720091
  0
LINE
  5
284
100
AcDbEntity
  8
0
100
AcDbLine
 62
7
  6
CONTINUOUS
 10
155.0818723209
 20
148.2482245771
 11
141.4835779068
 21
165.9698668849
  0
LINE
  5
285
100
AcDbEntity
  8
0
100
AcDbLine
 62
7
  6
CONTINUOUS
 10
137.9350142638
 20
176.9947158866
 11
145.6467653852
 21
163.4535187528
  0
LINE
  5
286
100
AcDbEntity
  8
0
100
AcDbLine
 62
7
  6
CONTINUOUS
 10
169.5587439786
 20
107.4604375065
 11
169.6445825655
 21
107.167866505
  0
LINE
  5
287
100
AcDbEntity
  8
0
100
AcDbLine
 62
7
  6
CONTINUOUS
 10
160.6863678043
 20
133.2141007185
 11
158.5333220413
 21
141.2493768969
  0
LINE
  5
288
100
AcDbEntity
  8
0
100
AcDbLine
 62
7
  6
CONTINUOUS
 10
166.2704032219
 20
101.2140368552
 11
166.2043354655
 21
101.4743586834
  0
LINE
  5
289
100
AcDbEntity
  8
BEZUGSACHSEN
100
AcDbLine
 62
7
  6
CONTINUOUS
 10
160.2315545837
 20
195.7806726029
 11
160.2315545837
 21
176.7939321099
  0
LINE
  5
28A
100
AcDbEntity
  8
0
100
AcDbLine
 62
7
  6
CONTINUOUS
 10
160.2315545837
 20
171.2984850004
 11
160.2315545837
 21
176.7939321098
  0
LINE
  5
28B
100
AcDbEntity
  8
0
100
AcDbLine
 62
7
  6
CONTINUOUS
 10
159.1705406618
 20
100.0765376383
 11
159.1864120546
 21
100.4552398153
  0
LINE
  5
28C
100
AcDbEntity
  8
0
100
AcDbLine
 62
7
  6
CONTINUOUS
 10
158.0847014943
 20
100.6748813838
 11
157.8293445524
 21
96.4662509179
  0
LINE
  5
28D
100
AcDbEntity
  8
0
100
AcDbLine
 62
7
  6
CONTINUOUS
 10
157.3754706008
 20
96.8735113305
 11
157.6016546764
 21
100.5457854052
  0
LINE
  5
28E
100
AcDbEntity
  8
0
100
AcDbLine
 62
7
  6
CONTINUOUS
 10
172.5930994061
 20
106.9502965819
 11
172.5072607739
 21
107.2428676221
  0
LINE
  5
28F
100
AcDbEntity
  8
0
100
AcDbLine
 62
7
  6
CONTINUOUS
 10
169.2339349361
 20
107.0803071526
 11
169.1375273324
 21
107.4915188853
  0
LINE
  5
290
100
AcDbEntity
  8
0
100
AcDbLine
 62
7
  6
CONTINUOUS
 10
170.6586956909
 20
106.5205644895
 11
170.6798312465
 21
106.283280127
  0
LINE
  5
291
100
AcDbEntity
  8
0
100
AcDbLine
 62
7
  6
CONTINUOUS
 10
163.3311798915
 20
102.2751774178
 11
163.3268226306
 21
101.9703055233
  0
LINE
  5
292
100
AcDbEntity
  8
0
100
AcDbLine
 62
7
  6
CONTINUOUS
 10
172.9179084486
 20
107.3304269357
 11
173.014316075
 21
106.9192151837
  0
LINE
  5
293
100
AcDbEntity
  8
0
100
AcDbLine
 62
7
  6
CONTINUOUS
 10
159.7126712129
 20
100.5002251137
 11
159.6626110199
 21
100.199459963
  0
LINE
  5
294
100
AcDbEntity
  8
0
100
AcDbLine
 62
7
  6
CONTINUOUS
 10
164.5181032674
 20
162.105951683
 11
170.9430589711
 21
156.7147737217
  0
LINE
  5
295
100
AcDbEntity
  8
0
100
AcDbLine
 62
7
  6
CONTINUOUS
 10
169.5917424374
 20
107.7610759613
 11
169.5587439786
 21
107.4604375065
  0
LINE
  5
296
100
AcDbEntity
  8
0
100
AcDbLine
 62
7
  6
CONTINUOUS
 10
170.2480468225
 20
106.4330036871
 11
170.3140437401
 21
107.0342805967
  0
LINE
  5
297
100
AcDbEntity
  8
0
100
AcDbLine
 62
7
  6
CONTINUOUS
 10
170.6916941497
 20
106.8212029443
 11
170.6586956909
 21
106.5205644895
  0
LINE
  5
298
100
AcDbEntity
  8
0
100
AcDbLine
 62
7
  6
CONTINUOUS
 10
169.1375273324
 20
107.4915188853
 11
169.2140920278
 21
107.9741536137
  0
LINE
  5
299
100
AcDbEntity
  8
0
100
AcDbLine
 62
7
  6
CONTINUOUS
 10
162.8176316064
 20
102.1517248453
 11
162.917341382
 21
102.6176200857
  0
LINE
  5
29A
100
AcDbEntity
  8
0
100
AcDbLine
 62
7
  6
CONTINUOUS
 10
159.1864120546
 20
100.4552398153
 11
159.3549108606
 21
100.9008953825
  0
LINE
  5
29B
100
AcDbEntity
  8
0
100
AcDbLine
 62
7
  6
CONTINUOUS
 10
172.5601009473
 20
106.6496581271
 11
172.5930994061
 21
106.9502965819
  0
LINE
  5
29C
100
AcDbEntity
  8
0
100
AcDbLine
 62
7
  6
CONTINUOUS
 10
173.014316075
 20
106.9192151837
 11
172.9377513966
 21
106.4365804408
  0
LINE
  5
29D
100
AcDbEntity
  8
0
100
AcDbLine
 62
7
  6
CONTINUOUS
 10
166.7839515389
 20
101.3374893773
 11
166.6842417793
 21
100.8715941117
  0
LINE
  5
29E
100
AcDbEntity
  8
0
100
AcDbLine
 62
7
  6
CONTINUOUS
 10
162.9856202803
 20
99.0549923931
 11
162.8171219229
 21
98.6093369902
  0
LINE
  5
29F
100
AcDbEntity
  8
0
100
AcDbLine
 62
7
  6
CONTINUOUS
 10
163.451460327
 20
102.5526751576
 11
163.3311798915
 21
102.2751774178
  0
LINE
  5
2A0
100
AcDbEntity
  8
0
100
AcDbLine
 62
7
  6
CONTINUOUS
 10
124.5837802975
 20
183.1599107006
 11
124.862951649
 21
183.1005709981
  0
LINE
  5
2A1
100
AcDbEntity
  8
0
100
AcDbLine
 62
7
  6
CONTINUOUS
 10
127.2963719645
 20
181.1890495463
 11
133.3775482393
 21
179.5430558907
  0
LINE
  5
2A2
100
AcDbEntity
  8
0
100
AcDbLine
 62
7
  6
CONTINUOUS
 10
169.6894439274
 20
108.0064277771
 11
169.5917424374
 21
107.7610759613
  0
LINE
  5
2A3
100
AcDbEntity
  8
0
100
AcDbLine
 62
7
  6
CONTINUOUS
 10
170.7893956397
 20
107.0665547602
 11
170.6916941497
 21
106.8212029443
  0
LINE
  5
2A4
100
AcDbEntity
  8
0
100
AcDbLine
 62
7
  6
CONTINUOUS
 10
166.1501228183
 20
100.936539065
 11
166.2704032219
 21
101.2140368552
  0
LINE
  5
2A5
100
AcDbEntity
  8
0
100
AcDbLine
 62
7
  6
CONTINUOUS
 10
162.917341382
 20
102.6176200857
 11
163.1080469622
 21
102.9396676903
  0
LINE
  5
2A6
100
AcDbEntity
  8
0
100
AcDbLine
 62
7
  6
CONTINUOUS
 10
159.8732341042
 20
100.7565294967
 11
159.7126712129
 21
100.5002251137
  0
LINE
  5
2A7
100
AcDbEntity
  8
0
100
AcDbLine
 62
7
  6
CONTINUOUS
 10
172.4623994573
 20
106.4043063113
 11
172.5601009473
 21
106.6496581271
  0
LINE
  5
2A8
100
AcDbEntity
  8
0
100
AcDbLine
 62
7
  6
CONTINUOUS
 10
169.4200627856
 20
108.3462150641
 11
169.2140920278
 21
107.9741536137
  0
LINE
  5
2A9
100
AcDbEntity
  8
0
100
AcDbLine
 62
7
  6
CONTINUOUS
 10
170.5200144979
 20
107.4063420472
 11
170.3140437401
 21
107.0342805967
  0
LINE
  5
2AA
100
AcDbEntity
  8
0
100
AcDbLine
 62
7
  6
CONTINUOUS
 10
166.6842417793
 20
100.8715941117
 11
166.493536211
 21
100.5495464882
  0
LINE
  5
2AB
100
AcDbEntity
  8
0
100
AcDbLine
 62
7
  6
CONTINUOUS
 10
162.2987982307
 20
98.7537027117
 11
162.459361098
 21
99.0100071492
  0
LINE
  5
2AC
100
AcDbEntity
  8
0
100
AcDbLine
 62
7
  6
CONTINUOUS
 10
159.3549108606
 20
100.9008953825
 11
159.5917870219
 21
101.190676269
  0
LINE
  5
2AD
100
AcDbEntity
  8
0
100
AcDbLine
 62
7
  6
CONTINUOUS
 10
172.9377513966
 20
106.4365804408
 11
172.7317806444
 21
106.0645189856
  0
LINE
  5
2AE
100
AcDbEntity
  8
0
100
AcDbLine
 62
7
  6
CONTINUOUS
 10
162.8171219229
 20
98.6093369902
 11
162.5802453339
 21
98.3195558916
  0
LINE
  5
2AF
100
AcDbEntity
  8
0
100
AcDbLine
 62
7
  6
CONTINUOUS
 10
169.4200627856
 20
108.3462150641
 11
169.6366025603
 21
108.5996357833
  0
LINE
  5
2B0
100
AcDbEntity
  8
0
100
AcDbLine
 62
7
  6
CONTINUOUS
 10
170.01425297
 20
108.386558131
 11
169.6894439274
 21
108.0064277771
  0
LINE
  5
2B1
100
AcDbEntity
  8
0
100
AcDbLine
 62
7
  6
CONTINUOUS
 10
171.1062232568
 20
108.8784530972
 11
170.8355494677
 21
108.5616782857
  0
LINE
  5
2B2
100
AcDbEntity
  8
0
100
AcDbLine
 62
7
  6
CONTINUOUS
 10
170.5200144979
 20
107.4063420472
 11
170.790689526
 21
107.7231183087
  0
LINE
  5
2B3
100
AcDbEntity
  8
0
100
AcDbLine
 62
7
  6
CONTINUOUS
 10
171.1683386966
 20
107.5100392063
 11
170.7893956397
 21
107.0665547602
  0
LINE
  5
2B4
100
AcDbEntity
  8
0
100
AcDbLine
 62
7
  6
CONTINUOUS
 10
163.6876638096
 20
102.8027989443
 11
163.451460327
 21
102.5526751576
  0
LINE
  5
2B5
100
AcDbEntity
  8
0
100
AcDbLine
 62
7
  6
CONTINUOUS
 10
163.1080469622
 20
102.9396676903
 11
163.4146763955
 21
103.2343418516
  0
LINE
  5
2B6
100
AcDbEntity
  8
0
100
AcDbLine
 62
7
  6
CONTINUOUS
 10
165.9527286209
 20
104.9863673467
 11
165.575601393
 21
104.658076235
  0
LINE
  5
2B7
100
AcDbEntity
  8
0
100
AcDbLine
 62
7
  6
CONTINUOUS
 10
167.7126561636
 20
106.5183929521
 11
168.0897833915
 21
106.8466840638
  0
LINE
  5
2B8
100
AcDbEntity
  8
0
100
AcDbLine
 62
7
  6
CONTINUOUS
 10
160.1442995981
 20
100.9683733302
 11
159.8732341042
 21
100.7565294967
  0
LINE
  5
2B9
100
AcDbEntity
  8
0
100
AcDbLine
 62
7
  6
CONTINUOUS
 10
169.6366025603
 20
108.5996357833
 11
169.9719793806
 21
108.8611239559
  0
LINE
  5
2BA
100
AcDbEntity
  8
0
100
AcDbLine
 62
7
  6
CONTINUOUS
 10
159.5917870219
 20
101.190676269
 11
159.9391662224
 21
101.4359967976
  0
LINE
  5
2BB
100
AcDbEntity
  8
0
100
AcDbLine
 62
7
  6
CONTINUOUS
 10
170.4367635025
 20
109.0120403006
 11
169.9719793806
 21
108.8611239559
  0
LINE
  5
2BC
100
AcDbEntity
  8
BEZUGSACHSEN
100
AcDbLine
 62
7
  6
CONTINUOUS
 10
141.9315545837
 20
188.7046386067
 11
148.5315545837
 21
188.7046386067
  0
LINE
  5
2BD
100
AcDbEntity
  8
0
100
AcDbLine
 62
7
  6
CONTINUOUS
 10
159.7661982066
 20
197.0592287408
 11
157.0637818613
 21
200.2798431291
  0
LINE
  5
2BE
100
AcDbEntity
  8
0
100
AcDbLine
 62
7
  6
CONTINUOUS
 10
172.4623994573
 20
106.4043063113
 11
172.0834564004
 21
105.9608218652
  0
LINE
  5
2BF
100
AcDbEntity
  8
0
100
AcDbLine
 62
7
  6
CONTINUOUS
 10
172.7317806444
 20
106.0645189856
 11
172.4611056163
 21
105.747742724
  0
LINE
  5
2C0
100
AcDbEntity
  8
0
100
AcDbLine
 62
7
  6
CONTINUOUS
 10
165.9139193357
 20
100.6864152783
 11
166.1501228183
 21
100.936539065
  0
LINE
  5
2C1
100
AcDbEntity
  8
0
100
AcDbLine
 62
7
  6
CONTINUOUS
 10
166.493536211
 20
100.5495464882
 11
166.1869067816
 21
100.2548723206
  0
LINE
  5
2C2
100
AcDbEntity
  8
0
100
AcDbLine
 62
7
  6
CONTINUOUS
 10
168.7743636187
 20
105.2987474148
 11
167.0144360759
 21
103.7667218094
  0
LINE
  5
2C3
100
AcDbEntity
  8
0
100
AcDbLine
 62
7
  6
CONTINUOUS
 10
169.1096396077
 20
104.9135962493
 11
167.3497120649
 21
103.3815706439
  0
LINE
  5
2C4
100
AcDbEntity
  8
0
100
AcDbLine
 62
7
  6
CONTINUOUS
 10
170.7161122851
 20
103.8296662411
 11
170.3389850573
 21
103.5013751294
  0
LINE
  5
2C5
100
AcDbEntity
  8
0
100
AcDbLine
 62
7
  6
CONTINUOUS
 10
168.5790575145
 20
101.969349524
 11
168.2019302867
 21
101.6410584123
  0
LINE
  5
2C6
100
AcDbEntity
  8
0
100
AcDbLine
 62
7
  6
CONTINUOUS
 10
162.0277331735
 20
98.5418590697
 11
162.2987982307
 21
98.7537027117
  0
LINE
  5
2C7
100
AcDbEntity
  8
0
100
AcDbLine
 62
7
  6
CONTINUOUS
 10
170.790689526
 20
107.7231183088
 11
171.1260663464
 21
107.9846064813
  0
LINE
  5
2C8
100
AcDbEntity
  8
0
100
AcDbLine
 62
7
  6
CONTINUOUS
 10
172.4611056163
 20
105.747742724
 11
172.1257287903
 21
105.4862545563
  0
LINE
  5
2C9
100
AcDbEntity
  8
0
100
AcDbLine
 62
7
  6
CONTINUOUS
 10
162.5802453339
 20
98.3195558916
 11
162.2328665731
 21
98.0742355477
  0
LINE
  5
2CA
100
AcDbEntity
  8
0
100
AcDbLine
 62
7
  6
CONTINUOUS
 10
164.0485051161
 20
103.6352921639
 11
163.4146763955
 21
103.2343418516
  0
LINE
  5
2CB
100
AcDbEntity
  8
0
100
AcDbLine
 62
7
  6
CONTINUOUS
 10
164.3214925302
 20
103.2037492566
 11
163.6876638096
 21
102.8027989443
  0
LINE
  5
2CC
100
AcDbEntity
  8
0
100
AcDbLine
 62
7
  6
CONTINUOUS
 10
165.5804361281
 20
103.3959068036
 11
165.1578836477
 21
103.1286065954
  0
LINE
  5
2CD
100
AcDbEntity
  8
0
100
AcDbLine
 62
7
  6
CONTINUOUS
 10
164.9335360483
 20
102.0803419222
 11
165.9899172493
 21
102.7485924427
  0
LINE
  5
2CE
100
AcDbEntity
  8
0
100
AcDbLine
 62
7
  6
CONTINUOUS
 10
165.840352183
 20
102.0497493272
 11
165.2065234624
 21
101.6487990149
  0
LINE
  5
2CF
100
AcDbEntity
  8
0
100
AcDbLine
 62
7
  6
CONTINUOUS
 10
165.9139193357
 20
100.6864152783
 11
165.280090615
 21
100.285464966
  0
LINE
  5
2D0
100
AcDbEntity
  8
0
100
AcDbLine
 62
7
  6
CONTINUOUS
 10
170.2413605224
 20
108.5213366689
 11
170.01425297
 21
108.386558131
  0
LINE
  5
2D1
100
AcDbEntity
  8
0
100
AcDbLine
 62
7
  6
CONTINUOUS
 10
171.3954462491
 20
107.6448177443
 11
171.1683386966
 21
107.5100392063
  0
LINE
  5
2D2
100
AcDbEntity
  8
0
100
AcDbLine
 62
7
  6
CONTINUOUS
 10
171.8563488479
 20
105.8260433272
 11
172.0834564004
 21
105.9608218652
  0
LINE
  5
2D3
100
AcDbEntity
  8
0
100
AcDbLine
 62
7
  6
CONTINUOUS
 10
159.9391662224
 20
101.4359967976
 11
160.625988272
 21
101.7372864791
  0
LINE
  5
2D4
100
AcDbEntity
  8
0
100
AcDbLine
 62
7
  6
CONTINUOUS
 10
160.8311216477
 20
101.2696630117
 11
160.1442995981
 21
100.9683733302
  0
LINE
  5
2D5
100
AcDbEntity
  8
0
100
AcDbLine
 62
7
  6
CONTINUOUS
 10
162.1046448286
 20
101.2707120999
 11
161.6467634622
 21
101.0698523122
  0
LINE
  5
2D6
100
AcDbEntity
  8
0
100
AcDbLine
 62
7
  6
CONTINUOUS
 10
164.0485051161
 20
103.6352921639
 11
164.4461303541
 21
103.7861186895
  0
LINE
  5
2D7
100
AcDbEntity
  8
0
100
AcDbLine
 62
7
  6
CONTINUOUS
 10
171.5908492291
 20
108.135521376
 11
171.1260663464
 21
107.9846064813
  0
LINE
  5
2D8
100
AcDbEntity
  8
0
100
AcDbLine
 62
7
  6
CONTINUOUS
 10
164.6486918176
 20
103.3100254076
 11
164.3214925302
 21
103.2037492566
  0
LINE
  5
2D9
100
AcDbEntity
  8
0
100
AcDbLine
 62
7
  6
CONTINUOUS
 10
172.1257287903
 20
105.4862545563
 11
171.6609458905
 21
105.3353396761
  0
LINE
  5
2DA
100
AcDbEntity
  8
BEZUGSACHSEN
100
AcDbLine
 62
7
  6
CENTER
 10
160.4886467254
 20
192.5046386067
 11
124.2653312174
 21
192.5046386067
  0
LINE
  5
2DB
100
AcDbEntity
  8
0
100
AcDbLine
 62
7
  6
CONTINUOUS
 10
166.1869067816
 20
100.2548723206
 11
165.553078061
 21
99.8539220083
  0
LINE
  5
2DC
100
AcDbEntity
  8
0
100
AcDbLine
 62
7
  6
CONTINUOUS
 10
162.8909894832
 20
99.4781553657
 11
162.4331081168
 21
99.277295578
  0
LINE
  5
2DD
100
AcDbEntity
  8
0
100
AcDbLine
 62
7
  6
CONTINUOUS
 10
161.3409111238
 20
98.2405693883
 11
162.0277331735
 21
98.5418590697
  0
LINE
  5
2DE
100
AcDbEntity
  8
0
100
AcDbLine
 62
7
  6
CONTINUOUS
 10
162.2328665731
 20
98.0742355477
 11
161.5460445235
 21
97.7729458663
  0
LINE
  5
2DF
100
AcDbEntity
  8
0
100
AcDbLine
 62
7
  6
CONTINUOUS
 10
165.553078061
 20
99.8539220083
 11
165.155452819
 21
99.7030954891
  0
LINE
  5
2E0
100
AcDbEntity
  8
0
100
AcDbLine
 62
7
  6
CONTINUOUS
 10
164.9528913277
 20
100.179188815
 11
165.280090615
 21
100.285464966
  0
LINE
  5
2E1
100
AcDbEntity
  8
BEZUGSACHSEN
100
AcDbLine
 62
7
  6
CONTINUOUS
 10
141.9315545837
 20
196.3046386067
 11
148.5315545837
 21
196.3046386067
  0
LINE
  5
2E2
100
AcDbEntity
  8
BEZUGSACHSEN
100
AcDbLine
 62
7
  6
CONTINUOUS
 10
122.2315545837
 20
196.4804157735
 11
122.4128408496
 21
196.4804157735
  0
LINE
  5
2E3
100
AcDbEntity
  8
0
100
AcDbLine
 62
7
  6
CONTINUOUS
 10
153.5832011279
 20
201.0046386067
 11
155.5086595452
 21
201.0046386067
  0
LINE
  5
2E4
100
AcDbEntity
  8
0
100
AcDbLine
 62
7
  6
CONTINUOUS
 10
297.3876576377
 20
93.2159535772
 11
295.3771299929
 21
93.0046386067
  0
LINE
  5
2E5
100
AcDbEntity
  8
0
100
AcDbLine
 62
7
  6
CONTINUOUS
 10
293.3666023482
 20
93.2159535772
 11
295.3771299929
 21
93.0046386067
  0
LINE
  5
2E6
100
AcDbEntity
  8
0
100
AcDbLine
 62
7
  6
CONTINUOUS
 10
299.4002576819
 20
96.2941229567
 11
299.1365672945
 21
96.2941229567
  0
LINE
  5
2E7
100
AcDbEntity
  8
0
100
AcDbLine
 62
7
  6
CONTINUOUS
 10
300.3086409988
 20
99.8142415467
 11
299.949250706
 21
99.8142415467
  0
LINE
  5
2E8
100
AcDbEntity
  8
0
100
AcDbLine
 62
7
  6
CONTINUOUS
 10
300.3155266574
 20
99.9433375254
 11
299.979054861
 21
99.9433375254
  0
LINE
  5
2E9
100
AcDbEntity
  8
0
100
AcDbLine
 62
7
  6
CONTINUOUS
 10
300.3260774778
 20
100.5457854052
 11
300.1181409133
 21
100.5457854052
  0
LINE
  5
2EA
100
AcDbEntity
  8
0
100
AcDbLine
 62
7
  6
CONTINUOUS
 10
300.323705044
 20
100.6748813838
 11
300.1479450684
 21
100.6748813838
  0
LINE
  5
2EB
100
AcDbEntity
  8
0
100
AcDbLine
 62
7
  6
CONTINUOUS
 10
300.2848570547
 20
100.9008953825
 11
300.2001245114
 21
100.9008953825
  0
LINE
  5
2EC
100
AcDbEntity
  8
0
100
AcDbLine
 62
7
  6
CONTINUOUS
 10
300.330468754
 20
101.190676269
 11
300.2670257005
 21
101.190676269
  0
LINE
  5
2ED
100
AcDbEntity
  8
0
100
AcDbLine
 62
7
  6
CONTINUOUS
 10
300.357141988
 20
101.4359967976
 11
300.3258698336
 21
101.4359967976
  0
LINE
  5
2EE
100
AcDbEntity
  8
0
100
AcDbLine
 62
7
  6
CONTINUOUS
 10
288.2306331774
 20
197.1065494344
 11
287.3548369998
 21
195.746489488
  0
LWPOLYLINE
  5
2EF
100
AcDbEntity
  8
0
100
AcDbPolyline
 62
7
  6
CONTINUOUS
 90
17
 70
0
 10
288.3531513737
 20
105.3689132823
 10
288.4621225298
 20
105.2408870127
 10
288.7201587451
 20
104.9191405647
 10
288.9577586353
 20
104.5966624945
 10
289.1755173115
 20
104.27505877
 10
289.3741411302
 20
103.9558110133
 10
289.5542442141
 20
103.6406035525
 10
289.7169237046
 20
103.3302831313
 10
289.861974031
 20
103.0283549545
 10
289.9900117712
 20
102.7372174136
 10
290.1010859376
 20
102.4611032
 10
290.1956693292
 20
102.2040496446
 10
290.2748265717
 20
101.9690373295
 10
290.3393737205
 20
101.7601055586
 10
290.3912895355
 20
101.5774613807
 10
290.4318505783
 20
101.4230200542
 10
290.4632351617
 20
101.2943434315
  0
LINE
  5
2F0
100
AcDbEntity
  8
0
100
AcDbLine
 62
7
  6
CONTINUOUS
 10
284.779053783
 20
183.3706640129
 11
286.4752062042
 21
186.3084861839
  0
LINE
  5
2F1
100
AcDbEntity
  8
AUSFORMSCHRAEGEN
100
AcDbLine
 62
7
  6
CONTINUOUS
 10
284.6783085731
 20
181.1890495463
 11
284.1271299929
 21
179.5430558907
  0
LINE
  5
2F2
100
AcDbEntity
  8
0
100
AcDbLine
 62
7
  6
CONTINUOUS
 10
290.4632351617
 20
101.2943434315
 11
292.0618399459
 21
94.3703098388
  0
LINE
  5
2F3
100
AcDbEntity
  8
KONSTRUKTIONSELEMENTE
100
AcDbLine
 62
7
  6
CONTINUOUS
 10
283.9701552386
 20
146.2798239311
 11
283.5833855657
 21
170.842674863
  0
LINE
  5
2F4
100
AcDbEntity
  8
0
100
AcDbLine
 62
7
  6
CONTINUOUS
 10
284.3771299929
 20
181.8706640098
 11
284.3771299929
 21
180.2896350008
  0
LINE
  5
2F5
100
AcDbEntity
  8
KONSTRUKTIONSELEMENTE
100
AcDbLine
 62
7
  6
CONTINUOUS
 10
284.4420891816
 20
147.7491412428
 11
284.4420891816
 21
148.1319521546
  0
LINE
  5
2F6
100
AcDbEntity
  8
AUSFORMSCHRAEGEN
100
AcDbLine
 62
7
  6
CONTINUOUS
 10
284.4420891816
 20
158.5390784936
 11
284.4420891816
 21
161.8057251355
  0
LINE
  5
2F7
100
AcDbEntity
  8
KONSTRUKTIONSELEMENTE
100
AcDbLine
 62
7
  6
CONTINUOUS
 10
293.8887549929
 20
160.9211971068
 11
293.8115799561
 21
160.8451177191
  0
LINE
  5
2F8
100
AcDbEntity
  8
KONSTRUKTIONSELEMENTE
100
AcDbLine
 62
7
  6
CONTINUOUS
 10
295.5480175665
 20
160.1223634824
 11
295.4322550665
 21
160.046284068
  0
LINE
  5
2F9
100
AcDbEntity
  8
KONSTRUKTIONSELEMENTE
100
AcDbLine
 62
7
  6
CONTINUOUS
 10
293.8501675297
 20
160.6549192498
 11
294.0045174929
 21
160.7309986375
  0
LINE
  5
2FA
100
AcDbEntity
  8
KONSTRUKTIONSELEMENTE
100
AcDbLine
 62
7
  6
CONTINUOUS
 10
293.8736658428
 20
160.6072458409
 11
294.0045174929
 21
160.6717428659
  0
LINE
  5
2FB
100
AcDbEntity
  8
KONSTRUKTIONSELEMENTE
100
AcDbLine
 62
7
  6
CONTINUOUS
 10
295.4708424193
 20
159.8180458815
 11
295.6251924929
 21
159.8941252792
  0
LINE
  5
2FC
100
AcDbEntity
  8
KONSTRUKTIONSELEMENTE
100
AcDbLine
 62
7
  6
CONTINUOUS
 10
295.4708424193
 20
159.7587901099
 11
295.6251924929
 21
159.8348695076
  0
LINE
  5
2FD
100
AcDbEntity
  8
KONSTRUKTIONSELEMENTE
100
AcDbLine
 62
7
  6
CONTINUOUS
 10
297.3230426401
 20
159.8180458815
 11
297.4773924929
 21
159.8941252792
  0
LINE
  5
2FE
100
AcDbEntity
  8
KONSTRUKTIONSELEMENTE
100
AcDbLine
 62
7
  6
CONTINUOUS
 10
297.3230426401
 20
159.7587901099
 11
297.4773924929
 21
159.8348695076
  0
LINE
  5
2FF
100
AcDbEntity
  8
KONSTRUKTIONSELEMENTE
100
AcDbLine
 62
7
  6
CONTINUOUS
 10
293.8115799561
 20
160.8451177191
 11
293.6958174561
 21
160.8070780252
  0
LINE
  5
300
100
AcDbEntity
  8
0
100
AcDbLine
 62
7
  6
CONTINUOUS
 10
302.5791829844
 20
135.439091478
 11
302.544942729
 21
135.439091478
  0
LINE
  5
301
100
AcDbEntity
  8
KONSTRUKTIONSELEMENTE
100
AcDbLine
 62
7
  6
CONTINUOUS
 10
288.1750770014
 20
135.439091478
 11
288.2093172569
 21
135.439091478
  0
LINE
  5
302
100
AcDbEntity
  8
KONSTRUKTIONSELEMENTE
100
AcDbLine
 62
7
  6
CONTINUOUS
 10
286.871990814
 20
136.310718907
 11
284.1397163344
 21
145.2122090396
  0
LINE
  5
303
100
AcDbEntity
  8
KONSTRUKTIONSELEMENTE
100
AcDbLine
 62
7
  6
CONTINUOUS
 10
286.871990814
 20
136.310718907
 11
287.0981535293
 21
135.4959853575
  0
LINE
  5
304
100
AcDbEntity
  8
KONSTRUKTIONSELEMENTE
100
AcDbLine
 62
7
  6
CONTINUOUS
 10
287.3019471205
 20
136.0838402345
 11
287.1191921743
 21
136.7422006798
  0
LINE
  5
305
100
AcDbEntity
  8
0
100
AcDbLine
 62
7
  6
CONTINUOUS
 10
287.4452783404
 20
132.6934327157
 11
290.9744678855
 21
119.5223180236
  0
LWPOLYLINE
  5
306
100
AcDbEntity
  8
0
100
AcDbPolyline
 62
7
  6
CONTINUOUS
 90
6
 70
0
 10
288.6840860976
 20
128.0697223354
 10
288.7150965412
 20
127.944234328
 10
288.7416711889
 20
127.8236515053
 10
288.7641950801
 20
127.7082260639
 10
288.7830456201
 20
127.5981946099
 10
288.7954959535
 20
127.5158394954
  0
LINE
  5
307
100
AcDbEntity
  8
0
100
AcDbLine
 62
7
  6
CONTINUOUS
 10
286.8771299929
 20
187.8084861839
 11
286.8771299929
 21
194.1222856643
  0
LINE
  5
308
100
AcDbEntity
  8
0
100
AcDbLine
 62
7
  6
CONTINUOUS
 10
287.377949822
 20
135.0654287974
 11
287.3771299929
 21
107.9870246053
  0
LINE
  5
309
100
AcDbEntity
  8
0
100
AcDbLine
 62
7
  6
CONTINUOUS
 10
287.3861030616
 20
113.7602135745
 11
287.3771301608
 21
113.0005018559
  0
LINE
  5
30A
100
AcDbEntity
  8
KONSTRUKTIONSELEMENTE
100
AcDbLine
 62
7
  6
CONTINUOUS
 10
295.6251924929
 20
160.236482564
 11
295.5480175665
 21
160.1223634824
  0
LINE
  5
30B
100
AcDbEntity
  8
KONSTRUKTIONSELEMENTE
100
AcDbLine
 62
7
  6
CONTINUOUS
 10
294.0045174929
 20
160.7309986375
 11
294.1202799929
 21
160.883157413
  0
LINE
  5
30C
100
AcDbEntity
  8
KONSTRUKTIONSELEMENTE
100
AcDbLine
 62
7
  6
CONTINUOUS
 10
294.0045174929
 20
160.6717428659
 11
294.1202799929
 21
160.8239016413
  0
LINE
  5
30D
100
AcDbEntity
  8
KONSTRUKTIONSELEMENTE
100
AcDbLine
 62
7
  6
CONTINUOUS
 10
295.6251924929
 20
159.8941252792
 11
295.7795425665
 21
160.046284068
  0
LINE
  5
30E
100
AcDbEntity
  8
KONSTRUKTIONSELEMENTE
100
AcDbLine
 62
7
  6
CONTINUOUS
 10
295.6251924929
 20
159.8348695076
 11
295.7795425665
 21
159.9870282964
  0
LINE
  5
30F
100
AcDbEntity
  8
KONSTRUKTIONSELEMENTE
100
AcDbLine
 62
7
  6
CONTINUOUS
 10
297.4773924929
 20
159.8941252792
 11
297.6317423457
 21
160.046284068
  0
LINE
  5
310
100
AcDbEntity
  8
KONSTRUKTIONSELEMENTE
100
AcDbLine
 62
7
  6
CONTINUOUS
 10
297.4773924929
 20
159.8348695076
 11
297.6317423457
 21
159.9870282964
  0
LINE
  5
311
100
AcDbEntity
  8
KONSTRUKTIONSELEMENTE
100
AcDbLine
 62
7
  6
CONTINUOUS
 10
297.4002173457
 20
160.1223634824
 11
297.2844548457
 21
160.046284068
  0
LINE
  5
312
100
AcDbEntity
  8
0
100
AcDbLine
 62
7
  6
CONTINUOUS
 10
303.6350678115
 20
136.7422006798
 11
302.8383436042
 21
136.7422006798
  0
LINE
  5
313
100
AcDbEntity
  8
AUSFORMSCHRAEGEN
100
AcDbLine
 62
7
  6
CONTINUOUS
 10
287.1191921743
 20
136.7422006798
 11
287.9159163816
 21
136.7422006798
  0
LINE
  5
314
100
AcDbEntity
  8
0
100
AcDbLine
 62
7
  6
CONTINUOUS
 10
303.5127916568
 20
137.094913606
 11
302.8383436042
 21
137.094913606
  0
LINE
  5
315
100
AcDbEntity
  8
AUSFORMSCHRAEGEN
100
AcDbLine
 62
7
  6
CONTINUOUS
 10
287.241468329
 20
137.094913606
 11
287.9159163816
 21
137.094913606
  0
LINE
  5
316
100
AcDbEntity
  8
KONSTRUKTIONSELEMENTE
100
AcDbLine
 62
7
  6
CONTINUOUS
 10
284.594839482
 20
146.6291876859
 11
287.241468329
 21
137.094913606
  0
LINE
  5
317
100
AcDbEntity
  8
0
100
AcDbLine
 62
7
  6
CONTINUOUS
 10
288.7954959443
 20
127.5158395008
 11
288.7958603104
 21
127.5132795164
  0
LWPOLYLINE
  5
318
100
AcDbEntity
  8
0
100
AcDbPolyline
 62
7
  6
CONTINUOUS
 90
5
 70
0
 10
288.7958603104
 20
127.5132795164
 10
288.8161196271
 20
127.3517123303
 10
288.8344255361
 20
127.142337075
 10
288.8438521346
 20
126.9326573252
 10
288.8444134095
 20
126.7229905357
  0
LINE
  5
319
100
AcDbEntity
  8
KONSTRUKTIONSELEMENTE
100
AcDbLine
 62
7
  6
CONTINUOUS
 10
289.5271299929
 20
165.5307205062
 11
289.5271299929
 21
176.9060970824
  0
LINE
  5
31A
100
AcDbEntity
  8
0
100
AcDbLine
 62
7
  6
CONTINUOUS
 10
291.3771299929
 20
176.9060970824
 11
291.3771299929
 21
166.1629563891
  0
LINE
  5
31B
100
AcDbEntity
  8
KONSTRUKTIONSELEMENTE
100
AcDbLine
 62
7
  6
CONTINUOUS
 10
291.6727299929
 20
158.6991127985
 11
291.6727299929
 21
159.2691873772
  0
LINE
  5
31C
100
AcDbEntity
  8
0
100
AcDbLine
 62
7
  6
CONTINUOUS
 10
288.8444134095
 20
126.7229905357
 11
288.840985433
 21
126.6086441564
  0
LINE
  5
31D
100
AcDbEntity
  8
0
100
AcDbLine
 62
7
  6
CONTINUOUS
 10
288.840995035
 20
126.6089619575
 11
288.8410004499
 21
126.6090920207
  0
LINE
  5
31E
100
AcDbEntity
  8
0
100
AcDbLine
 62
7
  6
CONTINUOUS
 10
288.840995035
 20
126.6089619575
 11
288.7990816351
 21
125.792244684
  0
LWPOLYLINE
  5
31F
100
AcDbEntity
  8
0
100
AcDbPolyline
 62
7
  6
CONTINUOUS
 90
6
 70
0
 10
288.7990816351
 20
125.792244684
 10
288.7309306164
 20
124.8502799985
 10
288.6416809188
 20
123.9098691891
 10
288.5314182906
 20
122.9714007445
 10
288.4002342686
 20
122.0352547873
 10
288.2622207082
 20
121.1825763486
  0
LINE
  5
320
100
AcDbEntity
  8
KONSTRUKTIONSELEMENTE
100
AcDbLine
 62
7
  6
CONTINUOUS
 10
293.9273424561
 20
161.0353161884
 11
293.8887549929
 21
160.9211971068
  0
LINE
  5
321
100
AcDbEntity
  8
KONSTRUKTIONSELEMENTE
100
AcDbLine
 62
7
  6
CONTINUOUS
 10
294.1202799929
 20
160.883157413
 11
294.1588674561
 21
160.9972764945
  0
LINE
  5
322
100
AcDbEntity
  8
KONSTRUKTIONSELEMENTE
100
AcDbLine
 62
7
  6
CONTINUOUS
 10
294.1202799929
 20
160.8239016413
 11
294.1588674561
 21
160.9380207229
  0
LINE
  5
323
100
AcDbEntity
  8
AUSFORMSCHRAEGEN
100
AcDbLine
 62
7
  6
CONTINUOUS
 10
287.241468329
 20
137.094913606
 11
287.1191921743
 21
136.7422006798
  0
LINE
  5
324
100
AcDbEntity
  8
KONSTRUKTIONSELEMENTE
100
AcDbLine
 62
7
  6
CONTINUOUS
 10
295.7795425665
 20
160.046284068
 11
295.8567174929
 21
160.1984428701
  0
LINE
  5
325
100
AcDbEntity
  8
KONSTRUKTIONSELEMENTE
100
AcDbLine
 62
7
  6
CONTINUOUS
 10
295.7795425665
 20
159.9870282964
 11
295.8567174929
 21
160.1391870985
  0
LINE
  5
326
100
AcDbEntity
  8
KONSTRUKTIONSELEMENTE
100
AcDbLine
 62
7
  6
CONTINUOUS
 10
297.6317423457
 20
160.046284068
 11
297.7089174929
 21
160.1984428701
  0
LINE
  5
327
100
AcDbEntity
  8
KONSTRUKTIONSELEMENTE
100
AcDbLine
 62
7
  6
CONTINUOUS
 10
297.6317423457
 20
159.9870282964
 11
297.7089174929
 21
160.1391870985
  0
LINE
  5
328
100
AcDbEntity
  8
KONSTRUKTIONSELEMENTE
100
AcDbLine
 62
7
  6
CONTINUOUS
 10
297.4773924929
 20
160.236482564
 11
297.4002173457
 21
160.1223634824
  0
LWPOLYLINE
  5
329
100
AcDbEntity
  8
0
100
AcDbPolyline
 62
7
  6
CONTINUOUS
 90
13
 70
0
 10
292.720739831
 20
141.7873528681
 10
292.5584102169
 20
141.755440313
 10
292.3018475017
 20
141.6858263444
 10
292.0511551167
 20
141.5937083856
 10
291.8059786333
 20
141.4786304077
 10
291.5672628462
 20
141.3402181418
 10
291.3366490051
 20
141.1784913002
 10
291.1157002709
 20
140.9934340809
 10
290.9049929987
 20
140.7841705021
 10
290.7054321446
 20
140.5495160421
 10
290.5181212585
 20
140.2879504507
 10
290.3440486556
 20
139.9969293016
 10
290.2200352239
 20
139.7510899162
  0
LWPOLYLINE
  5
32A
100
AcDbEntity
  8
0
100
AcDbPolyline
 62
7
  6
CONTINUOUS
 90
7
 70
0
 10
295.3771299929
 20
142.0729959969
 10
292.8921442401
 20
141.811703074
 10
292.8483581712
 20
141.8074701747
 10
292.8073513235
 20
141.802433457
 10
292.7684477376
 20
141.795919611
 10
292.7300351405
 20
141.7889748229
 10
292.7206721925
 20
141.7873676712
  0
LINE
  5
32B
100
AcDbEntity
  8
0
100
AcDbLine
 62
7
  6
CONTINUOUS
 10
297.1771299929
 20
142.8233769546
 11
293.5771299929
 21
142.8233769546
  0
LINE
  5
32C
100
AcDbEntity
  8
0
100
AcDbLine
 62
7
  6
CONTINUOUS
 10
293.5771299929
 20
143.1760898808
 11
297.1771299929
 21
143.1760898808
  0
LINE
  5
32D
100
AcDbEntity
  8
0
100
AcDbLine
 62
7
  6
CONTINUOUS
 10
297.8621157438
 20
141.8117030742
 11
295.3771299929
 21
142.0729959969
  0
LINE
  5
32E
100
AcDbEntity
  8
0
100
AcDbLine
 62
7
  6
CONTINUOUS
 10
298.0335773363
 20
141.7873694265
 11
298.0335281252
 21
141.7873774421
  0
LWPOLYLINE
  5
32F
100
AcDbEntity
  8
0
100
AcDbPolyline
 62
7
  6
CONTINUOUS
 90
6
 70
0
 10
298.0335773363
 20
141.7873694265
 10
298.0242248348
 20
141.7889748248
 10
297.9858122399
 20
141.7959196125
 10
297.946908656
 20
141.802433458
 10
297.9059018104
 20
141.8074701751
 10
297.8621157438
 20
141.8117030742
  0
LINE
  5
330
100
AcDbEntity
  8
KONSTRUKTIONSELEMENTE
100
AcDbLine
 62
7
  6
CONTINUOUS
 10
292.4665299929
 20
158.247549763
 11
292.4665299929
 21
153.1393616922
  0
LINE
  5
331
100
AcDbEntity
  8
KONSTRUKTIONSELEMENTE
100
AcDbLine
 62
7
  6
CONTINUOUS
 10
292.7311299929
 20
159.7207504127
 11
292.7311299929
 21
161.5678720091
  0
LINE
  5
332
100
AcDbEntity
  8
KONSTRUKTIONSELEMENTE
100
AcDbLine
 62
7
  6
CONTINUOUS
 10
292.9626549929
 20
159.7207504127
 11
292.9626549929
 21
160.578839862
  0
LINE
  5
333
100
AcDbEntity
  8
KONSTRUKTIONSELEMENTE
100
AcDbLine
 62
7
  6
CONTINUOUS
 10
292.9626549929
 20
160.8070780252
 11
292.9626549929
 21
161.3776735398
  0
LINE
  5
334
100
AcDbEntity
  8
KONSTRUKTIONSELEMENTE
100
AcDbLine
 62
7
  6
CONTINUOUS
 10
292.9957299929
 20
153.1393616922
 11
292.9957299929
 21
158.247549763
  0
LINE
  5
335
100
AcDbEntity
  8
KONSTRUKTIONSELEMENTE
100
AcDbLine
 62
7
  6
CONTINUOUS
 10
293.6186424745
 20
160.5195840904
 11
293.6186424745
 21
160.578839862
  0
LINE
  5
336
100
AcDbEntity
  8
KONSTRUKTIONSELEMENTE
100
AcDbLine
 62
7
  6
CONTINUOUS
 10
293.6958174561
 20
161.3184177682
 11
293.6958174561
 21
161.3776735398
  0
LINE
  5
337
100
AcDbEntity
  8
KONSTRUKTIONSELEMENTE
100
AcDbLine
 62
7
  6
CONTINUOUS
 10
293.8115799561
 20
161.2803780743
 11
293.8115799561
 21
161.3396338459
  0
LINE
  5
338
100
AcDbEntity
  8
KONSTRUKTIONSELEMENTE
100
AcDbLine
 62
7
  6
CONTINUOUS
 10
293.9273424561
 20
161.1494353766
 11
293.9273424561
 21
161.0353161884
  0
LINE
  5
339
100
AcDbEntity
  8
KONSTRUKTIONSELEMENTE
100
AcDbLine
 62
7
  6
CONTINUOUS
 10
293.9273424561
 20
159.7207504127
 11
293.9273424561
 21
159.7800061843
  0
LINE
  5
33A
100
AcDbEntity
  8
KONSTRUKTIONSELEMENTE
100
AcDbLine
 62
7
  6
CONTINUOUS
 10
294.0045174929
 20
160.6717428659
 11
294.0045174929
 21
160.7309986375
  0
LINE
  5
33B
100
AcDbEntity
  8
KONSTRUKTIONSELEMENTE
100
AcDbLine
 62
7
  6
CONTINUOUS
 10
294.1202799929
 20
160.8239016413
 11
294.1202799929
 21
160.883157413
  0
LINE
  5
33C
100
AcDbEntity
  8
KONSTRUKTIONSELEMENTE
100
AcDbLine
 62
7
  6
CONTINUOUS
 10
294.1588674561
 20
160.9972764945
 11
294.1588674561
 21
161.1494353766
  0
LINE
  5
33D
100
AcDbEntity
  8
KONSTRUKTIONSELEMENTE
100
AcDbLine
 62
7
  6
CONTINUOUS
 10
294.1974550297
 20
159.7207504127
 11
294.1974550297
 21
159.7800061843
  0
LINE
  5
33E
100
AcDbEntity
  8
KONSTRUKTIONSELEMENTE
100
AcDbLine
 62
7
  6
CONTINUOUS
 10
294.4245699929
 20
153.3355153241
 11
294.4245699929
 21
155.4380463241
  0
LINE
  5
33F
100
AcDbEntity
  8
KONSTRUKTIONSELEMENTE
100
AcDbLine
 62
7
  6
CONTINUOUS
 10
294.4245699929
 20
155.8896093595
 11
294.4245699929
 21
157.9921403595
  0
LINE
  5
340
100
AcDbEntity
  8
KONSTRUKTIONSELEMENTE
100
AcDbLine
 62
7
  6
CONTINUOUS
 10
294.5061549561
 20
161.5678720091
 11
294.5061549561
 21
160.3886413394
  0
LINE
  5
341
100
AcDbEntity
  8
KONSTRUKTIONSELEMENTE
100
AcDbLine
 62
7
  6
CONTINUOUS
 10
294.5447425297
 20
160.1391870985
 11
294.5447425297
 21
160.1984428701
  0
LINE
  5
342
100
AcDbEntity
  8
KONSTRUKTIONSELEMENTE
100
AcDbLine
 62
7
  6
CONTINUOUS
 10
294.6219175665
 20
159.9870282964
 11
294.6219175665
 21
160.046284068
  0
LINE
  5
343
100
AcDbEntity
  8
KONSTRUKTIONSELEMENTE
100
AcDbLine
 62
7
  6
CONTINUOUS
 10
294.7376800665
 20
160.3886413394
 11
294.7376800665
 21
161.5678720091
  0
LINE
  5
344
100
AcDbEntity
  8
KONSTRUKTIONSELEMENTE
100
AcDbLine
 62
7
  6
CONTINUOUS
 10
294.7762674193
 20
159.8348695076
 11
294.7762674193
 21
159.8941252792
  0
LINE
  5
345
100
AcDbEntity
  8
KONSTRUKTIONSELEMENTE
100
AcDbLine
 62
7
  6
CONTINUOUS
 10
294.8479299929
 20
153.8034261414
 11
294.8479299929
 21
155.0293912784
  0
LINE
  5
346
100
AcDbEntity
  8
KONSTRUKTIONSELEMENTE
100
AcDbLine
 62
7
  6
CONTINUOUS
 10
294.8479299929
 20
156.3575201768
 11
294.8479299929
 21
157.5834853138
  0
LINE
  5
347
100
AcDbEntity
  8
KONSTRUKTIONSELEMENTE
100
AcDbLine
 62
7
  6
CONTINUOUS
 10
294.9306174929
 20
159.7587901099
 11
294.9306174929
 21
159.8180458815
  0
LINE
  5
348
100
AcDbEntity
  8
KONSTRUKTIONSELEMENTE
100
AcDbLine
 62
7
  6
CONTINUOUS
 10
295.1125299929
 20
151.735328407
 11
295.1125299929
 21
151.9133965552
  0
LINE
  5
349
100
AcDbEntity
  8
KONSTRUKTIONSELEMENTE
100
AcDbLine
 62
7
  6
CONTINUOUS
 10
295.1235549193
 20
159.7207504127
 11
295.1235549193
 21
159.7800061843
  0
LINE
  5
34A
100
AcDbEntity
  8
KONSTRUKTIONSELEMENTE
100
AcDbLine
 62
7
  6
CONTINUOUS
 10
295.1654499929
 20
156.7661752225
 11
295.1654499929
 21
156.3575201768
  0
LINE
  5
34B
100
AcDbEntity
  8
KONSTRUKTIONSELEMENTE
100
AcDbLine
 62
7
  6
CONTINUOUS
 10
295.1654499929
 20
155.9488651311
 11
295.1654499929
 21
155.4380463241
  0
LINE
  5
34C
100
AcDbEntity
  8
KONSTRUKTIONSELEMENTE
100
AcDbLine
 62
7
  6
CONTINUOUS
 10
295.1654499929
 20
154.5614804611
 11
295.1654499929
 21
155.0293912784
  0
LINE
  5
34D
100
AcDbEntity
  8
KONSTRUKTIONSELEMENTE
100
AcDbLine
 62
7
  6
CONTINUOUS
 10
295.2779049929
 20
159.7207504127
 11
295.2779049929
 21
159.7800061843
  0
LINE
  5
34E
100
AcDbEntity
  8
BEZUGSACHSEN
100
AcDbLine
 62
7
  6
CENTER
 10
295.3771299929
 20
192.5046386067
 11
295.3771299929
 21
121.0698828072
  0
LINE
  5
34F
100
AcDbEntity
  8
0
100
AcDbLine
 62
7
  6
CONTINUOUS
 10
295.3771299929
 20
93.0046386067
 11
295.3771299929
 21
93.2513196236
  0
LINE
  5
350
100
AcDbEntity
  8
BEZUGSACHSEN
100
AcDbLine
 62
7
  6
CENTER
 10
295.3771299929
 20
192.5046386067
 11
295.3771299929
 21
199.3046386067
  0
LINE
  5
351
100
AcDbEntity
  8
KONSTRUKTIONSELEMENTE
100
AcDbLine
 62
7
  6
CONTINUOUS
 10
295.4708424193
 20
159.7587901099
 11
295.4708424193
 21
159.8180458815
  0
LINE
  5
352
100
AcDbEntity
  8
KONSTRUKTIONSELEMENTE
100
AcDbLine
 62
7
  6
CONTINUOUS
 10
295.5888099929
 20
154.5614804611
 11
295.5888099929
 21
155.0293912784
  0
LINE
  5
353
100
AcDbEntity
  8
KONSTRUKTIONSELEMENTE
100
AcDbLine
 62
7
  6
CONTINUOUS
 10
295.5888099929
 20
155.4380463241
 11
295.5888099929
 21
155.9488651311
  0
LINE
  5
354
100
AcDbEntity
  8
KONSTRUKTIONSELEMENTE
100
AcDbLine
 62
7
  6
CONTINUOUS
 10
295.5888099929
 20
156.3575201768
 11
295.5888099929
 21
156.7661752225
  0
LINE
  5
355
100
AcDbEntity
  8
KONSTRUKTIONSELEMENTE
100
AcDbLine
 62
7
  6
CONTINUOUS
 10
295.6251924929
 20
159.8348695076
 11
295.6251924929
 21
159.8941252792
  0
LINE
  5
356
100
AcDbEntity
  8
KONSTRUKTIONSELEMENTE
100
AcDbLine
 62
7
  6
CONTINUOUS
 10
295.6417299929
 20
151.735328407
 11
295.6417299929
 21
151.9133965552
  0
LINE
  5
357
100
AcDbEntity
  8
KONSTRUKTIONSELEMENTE
100
AcDbLine
 62
7
  6
CONTINUOUS
 10
295.6637800665
 20
161.5678720091
 11
295.6637800665
 21
160.3886413394
  0
LINE
  5
358
100
AcDbEntity
  8
KONSTRUKTIONSELEMENTE
100
AcDbLine
 62
7
  6
CONTINUOUS
 10
295.7795425665
 20
159.9870282964
 11
295.7795425665
 21
160.046284068
  0
LINE
  5
359
100
AcDbEntity
  8
KONSTRUKTIONSELEMENTE
100
AcDbLine
 62
7
  6
CONTINUOUS
 10
295.8567174929
 20
160.1391870985
 11
295.8567174929
 21
160.1984428701
  0
LWPOLYLINE
  5
35A
100
AcDbEntity
  8
0
100
AcDbPolyline
 62
7
  6
CONTINUOUS
 90
7
 70
0
 10
287.9654578647
 20
119.5457189585
 10
287.8005786631
 20
118.5047444125
 10
287.6640788786
 20
117.4893859036
 10
287.5553911854
 20
116.5035207634
 10
287.4736437621
 20
115.5508954302
 10
287.4176913392
 20
114.6353085898
 10
287.3861030616
 20
113.7602135745
  0
LINE
  5
35B
100
AcDbEntity
  8
0
100
AcDbLine
 62
7
  6
CONTINUOUS
 10
288.2622212779
 20
121.1825773568
 11
288.2286561668
 21
120.9906947923
  0
LINE
  5
35C
100
AcDbEntity
  8
0
100
AcDbLine
 62
7
  6
CONTINUOUS
 10
288.1385362984
 20
120.5023036158
 11
287.9654578647
 21
119.5457189585
  0
LINE
  5
35D
100
AcDbEntity
  8
0
100
AcDbLine
 62
7
  6
CONTINUOUS
 10
288.2286561668
 20
120.9906947923
 11
288.1759395641
 21
120.700558833
  0
LINE
  5
35E
100
AcDbEntity
  8
0
100
AcDbLine
 62
7
  6
CONTINUOUS
 10
288.1759395641
 20
120.700558833
 11
288.1385360282
 21
120.5023051028
  0
LINE
  5
35F
100
AcDbEntity
  8
KONSTRUKTIONSELEMENTE
100
AcDbLine
 62
7
  6
CONTINUOUS
 10
295.8567174929
 20
160.1984428701
 11
295.8953050665
 21
160.3886413394
  0
LINE
  5
360
100
AcDbEntity
  8
KONSTRUKTIONSELEMENTE
100
AcDbLine
 62
7
  6
CONTINUOUS
 10
295.8567174929
 20
160.1391870985
 11
295.8953050665
 21
160.3293855678
  0
LINE
  5
361
100
AcDbEntity
  8
KONSTRUKTIONSELEMENTE
100
AcDbLine
 62
7
  6
CONTINUOUS
 10
297.7089174929
 20
160.1984428701
 11
297.7475048457
 21
160.3886413394
  0
LINE
  5
362
100
AcDbEntity
  8
KONSTRUKTIONSELEMENTE
100
AcDbLine
 62
7
  6
CONTINUOUS
 10
297.7089174929
 20
160.1391870985
 11
297.7475048457
 21
160.3293855678
  0
LINE
  5
363
100
AcDbEntity
  8
KONSTRUKTIONSELEMENTE
100
AcDbLine
 62
7
  6
CONTINUOUS
 10
295.6637800665
 20
160.3886413394
 11
295.6251924929
 21
160.236482564
  0
LINE
  5
364
100
AcDbEntity
  8
KONSTRUKTIONSELEMENTE
100
AcDbLine
 62
7
  6
CONTINUOUS
 10
297.5159798457
 20
160.3886413394
 11
297.4773924929
 21
160.236482564
  0
LINE
  5
365
100
AcDbEntity
  8
0
100
AcDbLine
 62
7
  6
CONTINUOUS
 10
290.2199515325
 20
139.7509105225
 11
287.5645144158
 21
134.056307323
  0
LINE
  5
366
100
AcDbEntity
  8
KONSTRUKTIONSELEMENTE
100
AcDbLine
 62
7
  6
CONTINUOUS
 10
288.5276741378
 20
137.471109334
 11
290.3144219596
 21
141.1697126647
  0
LINE
  5
367
100
AcDbEntity
  8
KONSTRUKTIONSELEMENTE
100
AcDbLine
 62
7
  6
CONTINUOUS
 10
288.5276741378
 20
137.1183964078
 11
290.3144219596
 21
140.8169997385
  0
LINE
  5
368
100
AcDbEntity
  8
KONSTRUKTIONSELEMENTE
100
AcDbLine
 62
7
  6
CONTINUOUS
 10
295.8953050665
 20
160.3886413394
 11
295.8953050665
 21
161.5678720091
  0
LINE
  5
369
100
AcDbEntity
  8
KONSTRUKTIONSELEMENTE
100
AcDbLine
 62
7
  6
CONTINUOUS
 10
295.9063299929
 20
157.5834853138
 11
295.9063299929
 21
156.3575201768
  0
LINE
  5
36A
100
AcDbEntity
  8
KONSTRUKTIONSELEMENTE
100
AcDbLine
 62
7
  6
CONTINUOUS
 10
295.9063299929
 20
155.0293912784
 11
295.9063299929
 21
153.8034261414
  0
LINE
  5
36B
100
AcDbEntity
  8
KONSTRUKTIONSELEMENTE
100
AcDbLine
 62
7
  6
CONTINUOUS
 10
296.2040049929
 20
159.7207504127
 11
296.2040049929
 21
161.5678720091
  0
LINE
  5
36C
100
AcDbEntity
  8
KONSTRUKTIONSELEMENTE
100
AcDbLine
 62
7
  6
CONTINUOUS
 10
296.3296899929
 20
153.3355153241
 11
296.3296899929
 21
155.4380463241
  0
LINE
  5
36D
100
AcDbEntity
  8
KONSTRUKTIONSELEMENTE
100
AcDbLine
 62
7
  6
CONTINUOUS
 10
296.3296899929
 20
155.8896093595
 11
296.3296899929
 21
157.9921403595
  0
LINE
  5
36E
100
AcDbEntity
  8
KONSTRUKTIONSELEMENTE
100
AcDbLine
 62
7
  6
CONTINUOUS
 10
296.4355299929
 20
160.0082443741
 11
296.4355299929
 21
161.3396338459
  0
LINE
  5
36F
100
AcDbEntity
  8
KONSTRUKTIONSELEMENTE
100
AcDbLine
 62
7
  6
CONTINUOUS
 10
297.1301049929
 20
159.7207504127
 11
297.1301049929
 21
159.7800061843
  0
LINE
  5
370
100
AcDbEntity
  8
KONSTRUKTIONSELEMENTE
100
AcDbLine
 62
7
  6
CONTINUOUS
 10
297.1301049929
 20
161.2803780743
 11
297.1301049929
 21
161.3396338459
  0
LINE
  5
371
100
AcDbEntity
  8
KONSTRUKTIONSELEMENTE
100
AcDbLine
 62
7
  6
CONTINUOUS
 10
297.2844548457
 20
161.2423383804
 11
297.2844548457
 21
161.301594152
  0
LINE
  5
372
100
AcDbEntity
  8
KONSTRUKTIONSELEMENTE
100
AcDbLine
 62
7
  6
CONTINUOUS
 10
297.3230426401
 20
159.7587901099
 11
297.3230426401
 21
159.8180458815
  0
LINE
  5
373
100
AcDbEntity
  8
KONSTRUKTIONSELEMENTE
100
AcDbLine
 62
7
  6
CONTINUOUS
 10
297.4002173457
 20
161.1662589927
 11
297.4002173457
 21
161.2255147643
  0
LINE
  5
374
100
AcDbEntity
  8
KONSTRUKTIONSELEMENTE
100
AcDbLine
 62
7
  6
CONTINUOUS
 10
297.4773924929
 20
159.8348695076
 11
297.4773924929
 21
159.8941252792
  0
LINE
  5
375
100
AcDbEntity
  8
KONSTRUKTIONSELEMENTE
100
AcDbLine
 62
7
  6
CONTINUOUS
 10
297.4773924929
 20
161.0521398045
 11
297.4773924929
 21
161.1113955761
  0
LINE
  5
376
100
AcDbEntity
  8
KONSTRUKTIONSELEMENTE
100
AcDbLine
 62
7
  6
CONTINUOUS
 10
297.5159798457
 20
160.9592368007
 11
297.5159798457
 21
160.3886413394
  0
LINE
  5
377
100
AcDbEntity
  8
KONSTRUKTIONSELEMENTE
100
AcDbLine
 62
7
  6
CONTINUOUS
 10
297.6317423457
 20
159.9870282964
 11
297.6317423457
 21
160.046284068
  0
LINE
  5
378
100
AcDbEntity
  8
KONSTRUKTIONSELEMENTE
100
AcDbLine
 62
7
  6
CONTINUOUS
 10
297.7089174929
 20
160.1391870985
 11
297.7089174929
 21
160.1984428701
  0
LINE
  5
379
100
AcDbEntity
  8
KONSTRUKTIONSELEMENTE
100
AcDbLine
 62
7
  6
CONTINUOUS
 10
297.7475048457
 20
160.3886413394
 11
297.7475048457
 21
160.9592368007
  0
LINE
  5
37A
100
AcDbEntity
  8
KONSTRUKTIONSELEMENTE
100
AcDbLine
 62
7
  6
CONTINUOUS
 10
297.7585299929
 20
158.247549763
 11
297.7585299929
 21
153.1393616922
  0
LINE
  5
37B
100
AcDbEntity
  8
KONSTRUKTIONSELEMENTE
100
AcDbLine
 62
7
  6
CONTINUOUS
 10
298.2877299929
 20
153.1393616922
 11
298.2877299929
 21
158.247549763
  0
LINE
  5
37C
100
AcDbEntity
  8
KONSTRUKTIONSELEMENTE
100
AcDbLine
 62
7
  6
CONTINUOUS
 10
299.0815299929
 20
158.6991127985
 11
299.0815299929
 21
159.2691873772
  0
LINE
  5
37D
100
AcDbEntity
  8
0
100
AcDbLine
 62
7
  6
CONTINUOUS
 10
299.3771299929
 20
166.1629563891
 11
299.3771299929
 21
176.9060970824
  0
LWPOLYLINE
  5
37E
100
AcDbEntity
  8
0
100
AcDbPolyline
 62
7
  6
CONTINUOUS
 90
13
 70
0
 10
300.5342249187
 20
139.7510895805
 10
300.4102172308
 20
139.9969184613
 10
300.2361432575
 20
140.2879435445
 10
300.0488125309
 20
140.5495356359
 10
299.8492305224
 20
140.7842098893
 10
299.6385353708
 20
140.9934562858
 10
299.4176141963
 20
141.1784888335
 10
299.1870278914
 20
141.3401984948
 10
298.9483353045
 20
141.4786021884
 10
298.703161592
 20
141.5936846977
 10
298.4524585068
 20
141.6858116842
 10
298.1958776759
 20
141.7554340291
 10
298.033520171
 20
141.7873528654
  0
LINE
  5
37F
100
AcDbEntity
  8
0
100
AcDbLine
 62
7
  6
CONTINUOUS
 10
302.226585848
 20
137.1183964078
 11
300.4398380262
 21
140.8169997385
  0
LINE
  5
380
100
AcDbEntity
  8
0
100
AcDbLine
 62
7
  6
CONTINUOUS
 10
302.226585848
 20
137.471109334
 11
300.4398380262
 21
141.1697126647
  0
LINE
  5
381
100
AcDbEntity
  8
0
100
AcDbLine
 62
7
  6
CONTINUOUS
 10
303.18974557
 20
134.056307323
 11
300.5343524135
 21
139.7508163239
  0
LINE
  5
382
100
AcDbEntity
  8
KONSTRUKTIONSELEMENTE
100
AcDbLine
 62
7
  6
CONTINUOUS
 10
294.1974550297
 20
159.7800061843
 11
293.8501675297
 21
160.6549192498
  0
LINE
  5
383
100
AcDbEntity
  8
KONSTRUKTIONSELEMENTE
100
AcDbLine
 62
7
  6
CONTINUOUS
 10
293.6186424745
 20
160.5195840904
 11
293.9273424561
 21
159.7207504127
  0
LINE
  5
384
100
AcDbEntity
  8
KONSTRUKTIONSELEMENTE
100
AcDbLine
 62
7
  6
CONTINUOUS
 10
293.6186424745
 20
160.578839862
 11
293.9273424561
 21
159.7800061843
  0
LINE
  5
385
100
AcDbEntity
  8
KONSTRUKTIONSELEMENTE
100
AcDbLine
 62
7
  6
CONTINUOUS
 10
293.8887549929
 20
161.2042986866
 11
293.9093618974
 21
161.1433555507
  0
LINE
  5
386
100
AcDbEntity
  8
KONSTRUKTIONSELEMENTE
100
AcDbLine
 62
7
  6
CONTINUOUS
 10
293.8887549929
 20
161.2635544582
 11
293.9273424561
 21
161.1494353766
  0
LINE
  5
387
100
AcDbEntity
  8
KONSTRUKTIONSELEMENTE
100
AcDbLine
 62
7
  6
CONTINUOUS
 10
294.1588674561
 20
161.1494353766
 11
294.1202799929
 21
161.2635544582
  0
LINE
  5
388
100
AcDbEntity
  8
KONSTRUKTIONSELEMENTE
100
AcDbLine
 62
7
  6
CONTINUOUS
 10
294.7762674193
 20
160.236482564
 11
294.7376800665
 21
160.3886413394
  0
LINE
  5
389
100
AcDbEntity
  8
KONSTRUKTIONSELEMENTE
100
AcDbLine
 62
7
  6
CONTINUOUS
 10
294.5061549561
 20
160.3293855678
 11
294.5447425297
 21
160.1391870985
  0
LINE
  5
38A
100
AcDbEntity
  8
KONSTRUKTIONSELEMENTE
100
AcDbLine
 62
7
  6
CONTINUOUS
 10
294.5061549561
 20
160.3886413394
 11
294.5447425297
 21
160.1984428701
  0
LINE
  5
38B
100
AcDbEntity
  8
0
100
AcDbLine
 62
7
  6
CONTINUOUS
 10
302.6157239576
 20
120.5023051028
 11
302.5783204217
 21
120.700558833
  0
LINE
  5
38C
100
AcDbEntity
  8
0
100
AcDbLine
 62
7
  6
CONTINUOUS
 10
302.7888021211
 20
119.5457189585
 11
302.6157236874
 21
120.5023036158
  0
LINE
  5
38D
100
AcDbEntity
  8
0
100
AcDbLine
 62
7
  6
CONTINUOUS
 10
302.5783204217
 20
120.700558833
 11
302.525603819
 21
120.9906947923
  0
LINE
  5
38E
100
AcDbEntity
  8
0
100
AcDbLine
 62
7
  6
CONTINUOUS
 10
302.525603819
 20
120.9906947923
 11
302.492038708
 21
121.1825773568
  0
LWPOLYLINE
  5
38F
100
AcDbEntity
  8
0
100
AcDbPolyline
 62
7
  6
CONTINUOUS
 90
5
 70
0
 10
302.4920392776
 20
121.1825763486
 10
302.3540257174
 20
122.0352547859
 10
302.2228416956
 20
122.9714007417
 10
302.1125790675
 20
123.9098691848
 10
302.0233293699
 20
124.8502799928
  0
LWPOLYLINE
  5
390
100
AcDbEntity
  8
0
100
AcDbPolyline
 62
7
  6
CONTINUOUS
 90
3
 70
0
 10
302.0233293699
 20
124.8502799928
 10
301.9551783512
 20
125.7922446769
 10
301.9132579107
 20
126.6091313624
  0
LINE
  5
391
100
AcDbEntity
  8
0
100
AcDbLine
 62
7
  6
CONTINUOUS
 10
301.9132527737
 20
126.6092547718
 11
301.9132579107
 21
126.6091313624
  0
LINE
  5
392
100
AcDbEntity
  8
0
100
AcDbLine
 62
7
  6
CONTINUOUS
 10
301.913274581
 20
126.6086434772
 11
301.909983305
 21
126.7158561747
  0
LWPOLYLINE
  5
393
100
AcDbEntity
  8
0
100
AcDbPolyline
 62
7
  6
CONTINUOUS
 90
8
 70
0
 10
303.377129825
 20
113.0005018559
 10
303.3681569243
 20
113.7602135745
 10
303.3365686466
 20
114.6353085898
 10
303.2806162237
 20
115.5508954302
 10
303.1988688004
 20
116.5035207634
 10
303.0901811072
 20
117.4893859036
 10
302.9536813227
 20
118.5047444125
 10
302.7888021211
 20
119.5457189585
  0
LINE
  5
394
100
AcDbEntity
  8
0
100
AcDbLine
 62
7
  6
CONTINUOUS
 10
301.2271299929
 20
165.5307205062
 11
301.2271299929
 21
176.9060970824
  0
LWPOLYLINE
  5
395
100
AcDbEntity
  8
0
100
AcDbPolyline
 62
7
  6
CONTINUOUS
 90
5
 70
0
 10
301.909983305
 20
126.7158561747
 10
301.910275082
 20
126.9269400075
 10
301.9195526411
 20
127.1380489622
 10
301.9378307903
 20
127.3488589877
 10
301.9583981267
 20
127.513268615
  0
LINE
  5
396
100
AcDbEntity
  8
KONSTRUKTIONSELEMENTE
100
AcDbLine
 62
7
  6
CONTINUOUS
 10
295.1125299929
 20
151.735328407
 11
295.6417299929
 21
151.735328407
  0
LINE
  5
397
100
AcDbEntity
  8
KONSTRUKTIONSELEMENTE
100
AcDbLine
 62
7
  6
CONTINUOUS
 10
295.1125299929
 20
151.7945841786
 11
295.6417299929
 21
151.7945841786
  0
LINE
  5
398
100
AcDbEntity
  8
KONSTRUKTIONSELEMENTE
100
AcDbLine
 62
7
  6
CONTINUOUS
 10
293.2603299929
 20
152.3138777099
 11
294.6362499929
 21
152.3138777099
  0
LINE
  5
399
100
AcDbEntity
  8
KONSTRUKTIONSELEMENTE
100
AcDbLine
 62
7
  6
CONTINUOUS
 10
296.1180099929
 20
152.3138777099
 11
297.4939299929
 21
152.3138777099
  0
LINE
  5
39A
100
AcDbEntity
  8
KONSTRUKTIONSELEMENTE
100
AcDbLine
 62
7
  6
CONTINUOUS
 10
293.2603299929
 20
152.3731334815
 11
294.6362499929
 21
152.3731334815
  0
LINE
  5
39B
100
AcDbEntity
  8
KONSTRUKTIONSELEMENTE
100
AcDbLine
 62
7
  6
CONTINUOUS
 10
296.1180099929
 20
152.3731334815
 11
297.4939299929
 21
152.3731334815
  0
LINE
  5
39C
100
AcDbEntity
  8
KONSTRUKTIONSELEMENTE
100
AcDbLine
 62
7
  6
CONTINUOUS
 10
297.4939299929
 20
152.8839522886
 11
296.1180099929
 21
152.8839522886
  0
LINE
  5
39D
100
AcDbEntity
  8
KONSTRUKTIONSELEMENTE
100
AcDbLine
 62
7
  6
CONTINUOUS
 10
294.6362499929
 20
152.8839522886
 11
293.2603299929
 21
152.8839522886
  0
LINE
  5
39E
100
AcDbEntity
  8
KONSTRUKTIONSELEMENTE
100
AcDbLine
 62
7
  6
CONTINUOUS
 10
294.4245699929
 20
153.3355153241
 11
296.3296899929
 21
153.3355153241
  0
LINE
  5
39F
100
AcDbEntity
  8
KONSTRUKTIONSELEMENTE
100
AcDbLine
 62
7
  6
CONTINUOUS
 10
294.4245699929
 20
153.3947710957
 11
296.3296899929
 21
153.3947710957
  0
LINE
  5
3A0
100
AcDbEntity
  8
KONSTRUKTIONSELEMENTE
100
AcDbLine
 62
7
  6
CONTINUOUS
 10
295.9063299929
 20
153.8034261414
 11
294.8479299929
 21
153.8034261414
  0
LINE
  5
3A1
100
AcDbEntity
  8
KONSTRUKTIONSELEMENTE
100
AcDbLine
 62
7
  6
CONTINUOUS
 10
295.1654499929
 20
154.5614804611
 11
295.5888099929
 21
154.5614804611
  0
LINE
  5
3A2
100
AcDbEntity
  8
KONSTRUKTIONSELEMENTE
100
AcDbLine
 62
7
  6
CONTINUOUS
 10
295.1654499929
 20
154.6207362327
 11
295.5888099929
 21
154.6207362327
  0
LINE
  5
3A3
100
AcDbEntity
  8
KONSTRUKTIONSELEMENTE
100
AcDbLine
 62
7
  6
CONTINUOUS
 10
294.1202799929
 20
161.2635544582
 11
294.0045174929
 21
161.4157132336
  0
LINE
  5
3A4
100
AcDbEntity
  8
KONSTRUKTIONSELEMENTE
100
AcDbLine
 62
7
  6
CONTINUOUS
 10
294.8534425665
 20
160.1223634824
 11
294.7762674193
 21
160.236482564
  0
LINE
  5
3A5
100
AcDbEntity
  8
KONSTRUKTIONSELEMENTE
100
AcDbLine
 62
7
  6
CONTINUOUS
 10
294.5447425297
 20
160.1391870985
 11
294.6219175665
 21
159.9870282964
  0
LINE
  5
3A6
100
AcDbEntity
  8
KONSTRUKTIONSELEMENTE
100
AcDbLine
 62
7
  6
CONTINUOUS
 10
294.5447425297
 20
160.1984428701
 11
294.6219175665
 21
160.046284068
  0
LINE
  5
3A7
100
AcDbEntity
  8
0
100
AcDbLine
 62
7
  6
CONTINUOUS
 10
303.5127916568
 20
137.094913606
 11
303.6350678115
 21
136.7422006798
  0
LINE
  5
3A8
100
AcDbEntity
  8
KONSTRUKTIONSELEMENTE
100
AcDbLine
 62
7
  6
CONTINUOUS
 10
297.4773924929
 20
161.0521398045
 11
297.5018606668
 21
160.9556561874
  0
LINE
  5
3A9
100
AcDbEntity
  8
KONSTRUKTIONSELEMENTE
100
AcDbLine
 62
7
  6
CONTINUOUS
 10
297.4773924929
 20
161.1113955761
 11
297.5159798457
 21
160.9592368007
  0
LINE
  5
3AA
100
AcDbEntity
  8
KONSTRUKTIONSELEMENTE
100
AcDbLine
 62
7
  6
CONTINUOUS
 10
297.7475048457
 20
160.9592368007
 11
297.7089174929
 21
161.1494353766
  0
LINE
  5
3AB
100
AcDbEntity
  8
0
100
AcDbLine
 62
7
  6
CONTINUOUS
 10
303.3771299929
 20
107.9870246053
 11
303.3771299929
 21
135.0660864434
  0
LINE
  5
3AC
100
AcDbEntity
  8
0
100
AcDbLine
 62
7
  6
CONTINUOUS
 10
303.8771299929
 20
194.1222856643
 11
303.8771299929
 21
187.8084861839
  0
LINE
  5
3AD
100
AcDbEntity
  8
0
100
AcDbLine
 62
7
  6
CONTINUOUS
 10
306.3121708042
 20
147.7491412428
 11
306.3121708042
 21
148.1319521546
  0
LINE
  5
3AE
100
AcDbEntity
  8
0
100
AcDbLine
 62
7
  6
CONTINUOUS
 10
306.3121708042
 20
158.5390784936
 11
306.3121708042
 21
161.8057251355
  0
LINE
  5
3AF
100
AcDbEntity
  8
0
100
AcDbLine
 62
7
  6
CONTINUOUS
 10
306.3771299929
 20
180.2896350008
 11
306.3771299929
 21
181.8706640098
  0
LINE
  5
3B0
100
AcDbEntity
  8
0
100
AcDbLine
 62
7
  6
CONTINUOUS
 10
306.7841047472
 20
146.2798239311
 11
307.1708744202
 21
170.842674863
  0
LINE
  5
3B1
100
AcDbEntity
  8
0
100
AcDbLine
 62
7
  6
CONTINUOUS
 10
301.9587611571
 20
127.5158193323
 11
301.9583981173
 21
127.5132686085
  0
LWPOLYLINE
  5
3B2
100
AcDbEntity
  8
0
100
AcDbPolyline
 62
7
  6
CONTINUOUS
 90
6
 70
0
 10
301.9587611571
 20
127.5158193323
 10
301.971020312
 20
127.5969791059
 10
301.9896094017
 20
127.7057320197
 10
302.011796126
 20
127.8198225031
 10
302.0379493812
 20
127.93902026
 10
302.0684456631
 20
128.0630798657
  0
LINE
  5
3B3
100
AcDbEntity
  8
0
100
AcDbLine
 62
7
  6
CONTINUOUS
 10
303.3089816455
 20
132.6934327157
 11
299.7640048508
 21
119.4634265715
  0
LINE
  5
3B4
100
AcDbEntity
  8
0
100
AcDbLine
 62
7
  6
CONTINUOUS
 10
306.1594205038
 20
146.6291876859
 11
303.5127916568
 21
137.094913606
  0
LINE
  5
3B5
100
AcDbEntity
  8
0
100
AcDbLine
 62
7
  6
CONTINUOUS
 10
303.4523128654
 20
136.0838402345
 11
303.6350678115
 21
136.7422006798
  0
LINE
  5
3B6
100
AcDbEntity
  8
0
100
AcDbLine
 62
7
  6
CONTINUOUS
 10
303.8822691719
 20
136.310718907
 11
303.6561064565
 21
135.4959853575
  0
LINE
  5
3B7
100
AcDbEntity
  8
0
100
AcDbLine
 62
7
  6
CONTINUOUS
 10
303.8822691719
 20
136.310718907
 11
306.6145436514
 21
145.2122090396
  0
LINE
  5
3B8
100
AcDbEntity
  8
KONSTRUKTIONSELEMENTE
100
AcDbLine
 62
7
  6
CONTINUOUS
 10
294.8479299929
 20
154.9701355068
 11
295.1654499929
 21
154.9701355068
  0
LINE
  5
3B9
100
AcDbEntity
  8
KONSTRUKTIONSELEMENTE
100
AcDbLine
 62
7
  6
CONTINUOUS
 10
295.5888099929
 20
154.9701355068
 11
295.9063299929
 21
154.9701355068
  0
LINE
  5
3BA
100
AcDbEntity
  8
KONSTRUKTIONSELEMENTE
100
AcDbLine
 62
7
  6
CONTINUOUS
 10
294.8479299929
 20
155.0293912784
 11
295.1654499929
 21
155.0293912784
  0
LINE
  5
3BB
100
AcDbEntity
  8
KONSTRUKTIONSELEMENTE
100
AcDbLine
 62
7
  6
CONTINUOUS
 10
295.5888099929
 20
155.0293912784
 11
295.9063299929
 21
155.0293912784
  0
LINE
  5
3BC
100
AcDbEntity
  8
KONSTRUKTIONSELEMENTE
100
AcDbLine
 62
7
  6
CONTINUOUS
 10
296.3296899929
 20
155.4380463241
 11
295.5888099929
 21
155.4380463241
  0
LINE
  5
3BD
100
AcDbEntity
  8
KONSTRUKTIONSELEMENTE
100
AcDbLine
 62
7
  6
CONTINUOUS
 10
295.1654499929
 20
155.4380463241
 11
294.4245699929
 21
155.4380463241
  0
LINE
  5
3BE
100
AcDbEntity
  8
KONSTRUKTIONSELEMENTE
100
AcDbLine
 62
7
  6
CONTINUOUS
 10
294.4245699929
 20
155.8896093595
 11
295.1654499929
 21
155.8896093595
  0
LINE
  5
3BF
100
AcDbEntity
  8
KONSTRUKTIONSELEMENTE
100
AcDbLine
 62
7
  6
CONTINUOUS
 10
295.5888099929
 20
155.8896093595
 11
296.3296899929
 21
155.8896093595
  0
LINE
  5
3C0
100
AcDbEntity
  8
KONSTRUKTIONSELEMENTE
100
AcDbLine
 62
7
  6
CONTINUOUS
 10
294.4245699929
 20
155.9488651311
 11
295.1654499929
 21
155.9488651311
  0
LINE
  5
3C1
100
AcDbEntity
  8
KONSTRUKTIONSELEMENTE
100
AcDbLine
 62
7
  6
CONTINUOUS
 10
295.5888099929
 20
155.9488651311
 11
296.3296899929
 21
155.9488651311
  0
LINE
  5
3C2
100
AcDbEntity
  8
KONSTRUKTIONSELEMENTE
100
AcDbLine
 62
7
  6
CONTINUOUS
 10
295.9063299929
 20
156.3575201768
 11
295.5888099929
 21
156.3575201768
  0
LINE
  5
3C3
100
AcDbEntity
  8
KONSTRUKTIONSELEMENTE
100
AcDbLine
 62
7
  6
CONTINUOUS
 10
295.1654499929
 20
156.3575201768
 11
294.8479299929
 21
156.3575201768
  0
LINE
  5
3C4
100
AcDbEntity
  8
KONSTRUKTIONSELEMENTE
100
AcDbLine
 62
7
  6
CONTINUOUS
 10
295.5888099929
 20
156.7661752225
 11
295.1654499929
 21
156.7661752225
  0
LINE
  5
3C5
100
AcDbEntity
  8
KONSTRUKTIONSELEMENTE
100
AcDbLine
 62
7
  6
CONTINUOUS
 10
294.8479299929
 20
157.5242295422
 11
295.9063299929
 21
157.5242295422
  0
LINE
  5
3C6
100
AcDbEntity
  8
KONSTRUKTIONSELEMENTE
100
AcDbLine
 62
7
  6
CONTINUOUS
 10
294.8479299929
 20
157.5834853138
 11
295.9063299929
 21
157.5834853138
  0
LINE
  5
3C7
100
AcDbEntity
  8
KONSTRUKTIONSELEMENTE
100
AcDbLine
 62
7
  6
CONTINUOUS
 10
296.3296899929
 20
157.9921403595
 11
294.4245699929
 21
157.9921403595
  0
LINE
  5
3C8
100
AcDbEntity
  8
KONSTRUKTIONSELEMENTE
100
AcDbLine
 62
7
  6
CONTINUOUS
 10
294.7762674193
 20
159.8348695076
 11
294.9306174929
 21
159.7587901099
  0
LINE
  5
3C9
100
AcDbEntity
  8
KONSTRUKTIONSELEMENTE
100
AcDbLine
 62
7
  6
CONTINUOUS
 10
294.7762674193
 20
159.8941252792
 11
294.9306174929
 21
159.8180458815
  0
LINE
  5
3CA
100
AcDbEntity
  8
KONSTRUKTIONSELEMENTE
100
AcDbLine
 62
7
  6
CONTINUOUS
 10
294.9692050665
 20
160.046284068
 11
294.8534425665
 21
160.1223634824
  0
LINE
  5
3CB
100
AcDbEntity
  8
KONSTRUKTIONSELEMENTE
100
AcDbLine
 62
7
  6
CONTINUOUS
 10
294.0045174929
 20
161.4157132336
 11
293.8501675297
 21
161.5298323152
  0
LINE
  5
3CC
100
AcDbEntity
  8
KONSTRUKTIONSELEMENTE
100
AcDbLine
 62
7
  6
CONTINUOUS
 10
294.6219175665
 20
159.9870282964
 11
294.7762674193
 21
159.8348695076
  0
LINE
  5
3CD
100
AcDbEntity
  8
KONSTRUKTIONSELEMENTE
100
AcDbLine
 62
7
  6
CONTINUOUS
 10
294.6219175665
 20
160.046284068
 11
294.7762674193
 21
159.8941252792
  0
LINE
  5
3CE
100
AcDbEntity
  8
KONSTRUKTIONSELEMENTE
100
AcDbLine
 62
7
  6
CONTINUOUS
 10
293.8115799561
 20
161.2803780743
 11
293.8887549929
 21
161.2042986866
  0
LINE
  5
3CF
100
AcDbEntity
  8
KONSTRUKTIONSELEMENTE
100
AcDbLine
 62
7
  6
CONTINUOUS
 10
293.8115799561
 20
161.3396338459
 11
293.8887549929
 21
161.2635544582
  0
LINE
  5
3D0
100
AcDbEntity
  8
KONSTRUKTIONSELEMENTE
100
AcDbLine
 62
7
  6
CONTINUOUS
 10
297.4002173457
 20
161.1662589927
 11
297.4773924929
 21
161.0521398045
  0
LINE
  5
3D1
100
AcDbEntity
  8
KONSTRUKTIONSELEMENTE
100
AcDbLine
 62
7
  6
CONTINUOUS
 10
297.4002173457
 20
161.2255147643
 11
297.4773924929
 21
161.1113955761
  0
LINE
  5
3D2
100
AcDbEntity
  8
KONSTRUKTIONSELEMENTE
100
AcDbLine
 62
7
  6
CONTINUOUS
 10
297.7089174929
 20
161.1494353766
 11
297.6317423457
 21
161.301594152
  0
LINE
  5
3D3
100
AcDbEntity
  8
0
100
AcDbLine
 62
7
  6
CONTINUOUS
 10
298.6924200399
 20
94.3703098388
 11
300.289533108
 21
101.2879872172
  0
LINE
  5
3D4
100
AcDbEntity
  8
KONSTRUKTIONSELEMENTE
100
AcDbLine
 62
7
  6
CONTINUOUS
 10
297.2844548457
 20
160.046284068
 11
297.1301049929
 21
160.0082443741
  0
LINE
  5
3D5
100
AcDbEntity
  8
KONSTRUKTIONSELEMENTE
100
AcDbLine
 62
7
  6
CONTINUOUS
 10
295.4322550665
 20
160.046284068
 11
295.2779049929
 21
160.0082443741
  0
LINE
  5
3D6
100
AcDbEntity
  8
KONSTRUKTIONSELEMENTE
100
AcDbLine
 62
7
  6
CONTINUOUS
 10
297.1301049929
 20
159.7207504127
 11
297.3230426401
 21
159.7587901099
  0
LINE
  5
3D7
100
AcDbEntity
  8
KONSTRUKTIONSELEMENTE
100
AcDbLine
 62
7
  6
CONTINUOUS
 10
297.1301049929
 20
159.7800061843
 11
297.3230426401
 21
159.8180458815
  0
LINE
  5
3D8
100
AcDbEntity
  8
KONSTRUKTIONSELEMENTE
100
AcDbLine
 62
7
  6
CONTINUOUS
 10
295.2779049929
 20
159.7207504127
 11
295.4708424193
 21
159.7587901099
  0
LINE
  5
3D9
100
AcDbEntity
  8
KONSTRUKTIONSELEMENTE
100
AcDbLine
 62
7
  6
CONTINUOUS
 10
295.2779049929
 20
159.7800061843
 11
295.4708424193
 21
159.8180458815
  0
LINE
  5
3DA
100
AcDbEntity
  8
KONSTRUKTIONSELEMENTE
100
AcDbLine
 62
7
  6
CONTINUOUS
 10
291.6727299929
 20
158.6991127985
 11
291.9373299929
 21
158.6991127985
  0
LINE
  5
3DB
100
AcDbEntity
  8
KONSTRUKTIONSELEMENTE
100
AcDbLine
 62
7
  6
CONTINUOUS
 10
292.8858556917
 20
158.6991127985
 11
297.8684042941
 21
158.6991127985
  0
LINE
  5
3DC
100
AcDbEntity
  8
KONSTRUKTIONSELEMENTE
100
AcDbLine
 62
7
  6
CONTINUOUS
 10
298.8169299929
 20
158.6991127985
 11
299.0815299929
 21
158.6991127985
  0
LINE
  5
3DD
100
AcDbEntity
  8
KONSTRUKTIONSELEMENTE
100
AcDbLine
 62
7
  6
CONTINUOUS
 10
291.6727299929
 20
158.7583685701
 11
291.9373299929
 21
158.7583685701
  0
LINE
  5
3DE
100
AcDbEntity
  8
KONSTRUKTIONSELEMENTE
100
AcDbLine
 62
7
  6
CONTINUOUS
 10
292.8539312803
 20
158.7583685701
 11
297.9003287055
 21
158.7583685701
  0
LINE
  5
3DF
100
AcDbEntity
  8
KONSTRUKTIONSELEMENTE
100
AcDbLine
 62
7
  6
CONTINUOUS
 10
298.8169299929
 20
158.7583685701
 11
299.0815299929
 21
158.7583685701
  0
LINE
  5
3E0
100
AcDbEntity
  8
KONSTRUKTIONSELEMENTE
100
AcDbLine
 62
7
  6
CONTINUOUS
 10
299.0815299929
 20
159.2691873772
 11
291.6727299929
 21
159.2691873772
  0
LINE
  5
3E1
100
AcDbEntity
  8
KONSTRUKTIONSELEMENTE
100
AcDbLine
 62
7
  6
CONTINUOUS
 10
292.7311299929
 20
159.7207504127
 11
292.9626549929
 21
159.7207504127
  0
LINE
  5
3E2
100
AcDbEntity
  8
KONSTRUKTIONSELEMENTE
100
AcDbLine
 62
7
  6
CONTINUOUS
 10
293.9273424561
 20
159.7207504127
 11
294.1974550297
 21
159.7207504127
  0
LINE
  5
3E3
100
AcDbEntity
  8
KONSTRUKTIONSELEMENTE
100
AcDbLine
 62
7
  6
CONTINUOUS
 10
295.1235549193
 20
159.7207504127
 11
295.2779049929
 21
159.7207504127
  0
LINE
  5
3E4
100
AcDbEntity
  8
KONSTRUKTIONSELEMENTE
100
AcDbLine
 62
7
  6
CONTINUOUS
 10
296.2040049929
 20
159.7207504127
 11
297.1301049929
 21
159.7207504127
  0
LINE
  5
3E5
100
AcDbEntity
  8
KONSTRUKTIONSELEMENTE
100
AcDbLine
 62
7
  6
CONTINUOUS
 10
292.7311299929
 20
159.7800061843
 11
292.9626549929
 21
159.7800061843
  0
LINE
  5
3E6
100
AcDbEntity
  8
KONSTRUKTIONSELEMENTE
100
AcDbLine
 62
7
  6
CONTINUOUS
 10
293.9273424561
 20
159.7800061843
 11
294.1974550297
 21
159.7800061843
  0
LINE
  5
3E7
100
AcDbEntity
  8
KONSTRUKTIONSELEMENTE
100
AcDbLine
 62
7
  6
CONTINUOUS
 10
295.1235549193
 20
159.7800061843
 11
295.2779049929
 21
159.7800061843
  0
LINE
  5
3E8
100
AcDbEntity
  8
KONSTRUKTIONSELEMENTE
100
AcDbLine
 62
7
  6
CONTINUOUS
 10
296.2040049929
 20
159.7800061843
 11
297.1301049929
 21
159.7800061843
  0
LINE
  5
3E9
100
AcDbEntity
  8
KONSTRUKTIONSELEMENTE
100
AcDbLine
 62
7
  6
CONTINUOUS
 10
297.1301049929
 20
160.0082443741
 11
296.4355299929
 21
160.0082443741
  0
LINE
  5
3EA
100
AcDbEntity
  8
KONSTRUKTIONSELEMENTE
100
AcDbLine
 62
7
  6
CONTINUOUS
 10
295.2779049929
 20
160.0082443741
 11
295.1235549193
 21
160.0082443741
  0
LINE
  5
3EB
100
AcDbEntity
  8
KONSTRUKTIONSELEMENTE
100
AcDbLine
 62
7
  6
CONTINUOUS
 10
292.9626549929
 20
160.5195840904
 11
293.6186424745
 21
160.5195840904
  0
LINE
  5
3EC
100
AcDbEntity
  8
KONSTRUKTIONSELEMENTE
100
AcDbLine
 62
7
  6
CONTINUOUS
 10
292.9626549929
 20
160.578839862
 11
293.6186424745
 21
160.578839862
  0
LINE
  5
3ED
100
AcDbEntity
  8
KONSTRUKTIONSELEMENTE
100
AcDbLine
 62
7
  6
CONTINUOUS
 10
293.6958174561
 20
160.8070780252
 11
292.9626549929
 21
160.8070780252
  0
LINE
  5
3EE
100
AcDbEntity
  8
KONSTRUKTIONSELEMENTE
100
AcDbLine
 62
7
  6
CONTINUOUS
 10
296.4355299929
 20
161.2803780743
 11
297.1301049929
 21
161.2803780743
  0
LINE
  5
3EF
100
AcDbEntity
  8
KONSTRUKTIONSELEMENTE
100
AcDbLine
 62
7
  6
CONTINUOUS
 10
292.9626549929
 20
161.3184177682
 11
293.6958174561
 21
161.3184177682
  0
LINE
  5
3F0
100
AcDbEntity
  8
KONSTRUKTIONSELEMENTE
100
AcDbLine
 62
7
  6
CONTINUOUS
 10
296.4355299929
 20
161.3396338459
 11
297.1301049929
 21
161.3396338459
  0
LINE
  5
3F1
100
AcDbEntity
  8
KONSTRUKTIONSELEMENTE
100
AcDbLine
 62
7
  6
CONTINUOUS
 10
292.9626549929
 20
161.3776735398
 11
293.6958174561
 21
161.3776735398
  0
LINE
  5
3F2
100
AcDbEntity
  8
KONSTRUKTIONSELEMENTE
100
AcDbLine
 62
7
  6
CONTINUOUS
 10
297.1301049929
 20
161.5678720091
 11
296.2040049929
 21
161.5678720091
  0
LINE
  5
3F3
100
AcDbEntity
  8
KONSTRUKTIONSELEMENTE
100
AcDbLine
 62
7
  6
CONTINUOUS
 10
295.8953050665
 20
161.5678720091
 11
295.6637800665
 21
161.5678720091
  0
LINE
  5
3F4
100
AcDbEntity
  8
KONSTRUKTIONSELEMENTE
100
AcDbLine
 62
7
  6
CONTINUOUS
 10
294.7376800665
 20
161.5678720091
 11
294.5061549561
 21
161.5678720091
  0
LINE
  5
3F5
100
AcDbEntity
  8
KONSTRUKTIONSELEMENTE
100
AcDbLine
 62
7
  6
CONTINUOUS
 10
293.6572299929
 20
161.5678720091
 11
292.7311299929
 21
161.5678720091
  0
LINE
  5
3F6
100
AcDbEntity
  8
KONSTRUKTIONSELEMENTE
100
AcDbLine
 62
7
  6
CONTINUOUS
 10
294.9306174929
 20
159.7587901099
 11
295.1235549193
 21
159.7207504127
  0
LINE
  5
3F7
100
AcDbEntity
  8
KONSTRUKTIONSELEMENTE
100
AcDbLine
 62
7
  6
CONTINUOUS
 10
294.9306174929
 20
159.8180458815
 11
295.1235549193
 21
159.7800061843
  0
LINE
  5
3F8
100
AcDbEntity
  8
KONSTRUKTIONSELEMENTE
100
AcDbLine
 62
7
  6
CONTINUOUS
 10
293.8501675297
 20
161.5298323152
 11
293.6572299929
 21
161.5678720091
  0
LINE
  5
3F9
100
AcDbEntity
  8
KONSTRUKTIONSELEMENTE
100
AcDbLine
 62
7
  6
CONTINUOUS
 10
297.3230426401
 20
161.5298323152
 11
297.1301049929
 21
161.5678720091
  0
LINE
  5
3FA
100
AcDbEntity
  8
KONSTRUKTIONSELEMENTE
100
AcDbLine
 62
7
  6
CONTINUOUS
 10
295.1235549193
 20
160.0082443741
 11
294.9692050665
 21
160.046284068
  0
LINE
  5
3FB
100
AcDbEntity
  8
KONSTRUKTIONSELEMENTE
100
AcDbLine
 62
7
  6
CONTINUOUS
 10
297.1301049929
 20
161.2803780743
 11
297.2844548457
 21
161.2423383804
  0
LINE
  5
3FC
100
AcDbEntity
  8
KONSTRUKTIONSELEMENTE
100
AcDbLine
 62
7
  6
CONTINUOUS
 10
297.1301049929
 20
161.3396338459
 11
297.2844548457
 21
161.301594152
  0
LINE
  5
3FD
100
AcDbEntity
  8
KONSTRUKTIONSELEMENTE
100
AcDbLine
 62
7
  6
CONTINUOUS
 10
293.6958174561
 20
161.3184177682
 11
293.8115799561
 21
161.2803780743
  0
LINE
  5
3FE
100
AcDbEntity
  8
KONSTRUKTIONSELEMENTE
100
AcDbLine
 62
7
  6
CONTINUOUS
 10
293.6958174561
 20
161.3776735398
 11
293.8115799561
 21
161.3396338459
  0
LINE
  5
3FF
100
AcDbEntity
  8
KONSTRUKTIONSELEMENTE
100
AcDbLine
 62
7
  6
CONTINUOUS
 10
297.4773924929
 20
161.4537529275
 11
297.3230426401
 21
161.5298323152
  0
LINE
  5
400
100
AcDbEntity
  8
KONSTRUKTIONSELEMENTE
100
AcDbLine
 62
7
  6
CONTINUOUS
 10
297.2844548457
 20
161.2423383804
 11
297.4002173457
 21
161.1662589927
  0
LINE
  5
401
100
AcDbEntity
  8
KONSTRUKTIONSELEMENTE
100
AcDbLine
 62
7
  6
CONTINUOUS
 10
297.2844548457
 20
161.301594152
 11
297.4002173457
 21
161.2255147643
  0
LINE
  5
402
100
AcDbEntity
  8
KONSTRUKTIONSELEMENTE
100
AcDbLine
 62
7
  6
CONTINUOUS
 10
297.6317423457
 20
161.301594152
 11
297.4773924929
 21
161.4537529275
  0
LWPOLYLINE
  5
403
100
AcDbEntity
  8
0
100
AcDbPolyline
 62
7
  6
CONTINUOUS
 90
17
 70
0
 10
300.289533108
 20
101.2879872172
 10
300.320749697
 20
101.4164365362
 10
300.3611284842
 20
101.5706940658
 10
300.4128419386
 20
101.7531843102
 10
300.4771622491
 20
101.9619754782
 10
300.5560607324
 20
102.1968453741
 10
300.6503524364
 20
102.4537533659
 10
300.7610987118
 20
102.7297158043
 10
300.888773443
 20
103.0207013841
 10
301.0334217324
 20
103.3224714507
 10
301.1956790723
 20
103.6326693778
 10
301.3753550467
 20
103.9478103459
 10
301.5735823479
 20
104.2670975231
 10
301.7910130467
 20
104.5888817
 10
302.0284017942
 20
104.9117161755
 10
302.2864141767
 20
105.2340403146
 10
302.4011088963
 20
105.3689136103
  0
LINE
  5
404
100
AcDbEntity
  8
0
100
AcDbLine
 62
7
  6
CONTINUOUS
 10
301.2271299929
 20
165.5307205062
 11
289.5271299929
 21
165.5307205062
  0
LINE
  5
405
100
AcDbEntity
  8
0
100
AcDbLine
 62
7
  6
CONTINUOUS
 10
301.2271299929
 20
166.1629563891
 11
289.5271299929
 21
166.1629563891
  0
LINE
  5
406
100
AcDbEntity
  8
0
100
AcDbLine
 62
7
  6
CONTINUOUS
 10
306.0759514127
 20
181.1890495463
 11
306.6271299929
 21
179.5430558907
  0
LINE
  5
407
100
AcDbEntity
  8
KONSTRUKTIONSELEMENTE
100
AcDbLine
 62
7
  6
CONTINUOUS
 10
289.5271299929
 20
170.7618796159
 11
291.3771299929
 21
170.7618796159
  0
LINE
  5
408
100
AcDbEntity
  8
KONSTRUKTIONSELEMENTE
100
AcDbLine
 62
7
  6
CONTINUOUS
 10
299.3771299929
 20
170.7618796159
 11
301.2271299929
 21
170.7618796159
  0
LINE
  5
409
100
AcDbEntity
  8
KONSTRUKTIONSELEMENTE
100
AcDbLine
 62
7
  6
CONTINUOUS
 10
289.5271299929
 20
176.1618796159
 11
291.3771299929
 21
176.1618796159
  0
LINE
  5
40A
100
AcDbEntity
  8
KONSTRUKTIONSELEMENTE
100
AcDbLine
 62
7
  6
CONTINUOUS
 10
299.3771299929
 20
176.1618796159
 11
301.2271299929
 21
176.1618796159
  0
LINE
  5
40B
100
AcDbEntity
  8
0
100
AcDbLine
 62
7
  6
CONTINUOUS
 10
289.5271299929
 20
176.9060970824
 11
301.2271299929
 21
176.9060970824
  0
LINE
  5
40C
100
AcDbEntity
  8
0
100
AcDbLine
 62
7
  6
CONTINUOUS
 10
305.9752062029
 20
183.3706640129
 11
304.2790537816
 21
186.3084861839
  0
LINE
  5
40D
100
AcDbEntity
  8
0
100
AcDbLine
 62
7
  6
CONTINUOUS
 10
303.399422986
 20
195.746489488
 11
302.5236268084
 21
197.1065494344
  0
LINE
  5
40E
100
AcDbEntity
  8
KONSTRUKTIONSELEMENTE
100
AcDbLine
 62
7
  6
CONTINUOUS
 10
306.0245502363
 20
181.2672008767
 11
284.7297097496
 21
181.2672008767
  0
LINE
  5
40F
100
AcDbEntity
  8
BEZUGSACHSEN
100
AcDbLine
 62
7
  6
CENTER
 10
295.3771299929
 20
192.5046386067
 11
288.5771299929
 21
192.5046386067
  0
LINE
  5
410
100
AcDbEntity
  8
BEZUGSACHSEN
100
AcDbLine
 62
7
  6
CENTER
 10
295.3771299929
 20
192.5046386067
 11
302.1771299929
 21
192.5046386067
  0
LINE
  5
411
100
AcDbEntity
  8
0
100
AcDbLine
 62
7
  6
CONTINUOUS
 10
295.01424389
 20
200.9918284758
 11
294.8875834865
 21
200.9898777907
  0
LINE
  5
412
100
AcDbEntity
  8
0
100
AcDbLine
 62
7
  6
CONTINUOUS
 10
295.2394503879
 20
200.9938618452
 11
295.01424389
 21
200.9918284758
  0
LINE
  5
413
100
AcDbEntity
  8
0
100
AcDbLine
 62
7
  6
CONTINUOUS
 10
295.4040454071
 20
200.9941910791
 11
295.2394503879
 21
200.9938618452
  0
LINE
  5
414
100
AcDbEntity
  8
0
100
AcDbLine
 62
7
  6
CONTINUOUS
 10
295.6268496385
 20
200.9930790458
 11
295.4040454071
 21
200.9941910791
  0
LINE
  5
415
100
AcDbEntity
  8
0
100
AcDbLine
 62
7
  6
CONTINUOUS
 10
295.8666764866
 20
200.9898777909
 11
295.6268496385
 21
200.9930790458
  0
ARC
  5
416
100
AcDbEntity
  8
0
100
AcDbCircle
 62
7
  6
CONTINUOUS
 10
98.2315545837
 20
121.0729959969
 40
30.0
100
AcDbArc
 50
24.8970517033
 51
35.4523577772
  0
ARC
  5
417
100
AcDbEntity
  8
0
100
AcDbCircle
 62
7
  6
CONTINUOUS
 10
98.3161156795
 20
123.7113595987
 40
25.789053074
100
AcDbArc
 50
37.7499045371
 51
38.4585468509
  0
ARC
  5
418
100
AcDbEntity
  8
0
100
AcDbCircle
 62
7
  6
CONTINUOUS
 10
102.876946164
 20
166.8531713152
 40
34.5264311586
100
AcDbArc
 50
359.5724481855
 51
359.9316229486
  0
ARC
  5
419
100
AcDbEntity
  8
0
100
AcDbCircle
 62
7
  6
CONTINUOUS
 10
103.1285517298
 20
167.6842739056
 40
22.5
100
AcDbArc
 50
344.8546364013
 51
23.9834480886
  0
ARC
  5
41A
100
AcDbEntity
  8
0
100
AcDbCircle
 62
7
  6
CONTINUOUS
 10
123.2315545837
 20
133.6908622456
 40
10.0
100
AcDbArc
 50
128.3454484502
 51
195.0
  0
ARC
  5
41B
100
AcDbEntity
  8
0
100
AcDbCircle
 62
7
  6
CONTINUOUS
 10
123.2461593355
 20
133.5107472131
 40
9.4482231544
100
AcDbArc
 50
183.9882514798
 51
193.9219803991
  0
ARC
  5
41C
100
AcDbEntity
  8
0
100
AcDbCircle
 62
7
  6
CONTINUOUS
 10
118.578544533
 20
139.5729959969
 40
2.5
100
AcDbArc
 50
69.2982801541
 51
128.3454486768
  0
ARC
  5
41D
100
AcDbEntity
  8
0
100
AcDbCircle
 62
7
  6
CONTINUOUS
 10
112.8060630495
 20
155.973134026
 40
11.4471796987
100
AcDbArc
 50
316.7653287165
 51
12.9439440862
  0
ARC
  5
41E
100
AcDbEntity
  8
0
100
AcDbCircle
 62
7
  6
CONTINUOUS
 10
121.7063598868
 20
148.8658333293
 40
0.63
100
AcDbArc
 50
60.7989844774
 51
222.9193071274
  0
ARC
  5
41F
100
AcDbEntity
  8
0
100
AcDbCircle
 62
7
  6
CONTINUOUS
 10
122.1378854218
 20
150.3154396733
 40
0.63
100
AcDbArc
 50
64.5912853865
 51
233.2815792574
  0
ARC
  5
420
100
AcDbEntity
  8
0
100
AcDbCircle
 62
7
  6
CONTINUOUS
 10
123.2991521098
 20
151.5675267787
 40
0.63
100
AcDbArc
 50
75.573252545
 51
238.9849893362
  0
ARC
  5
421
100
AcDbEntity
  8
0
100
AcDbCircle
 62
7
  6
CONTINUOUS
 10
124.0765907509
 20
157.6227271651
 40
0.63
100
AcDbArc
 50
106.7899656753
 51
268.9210570219
  0
ARC
  5
422
100
AcDbEntity
  8
0
100
AcDbCircle
 62
7
  6
CONTINUOUS
 10
123.7180393312
 20
156.1533688972
 40
0.63
100
AcDbArc
 50
96.3804468955
 51
265.1174516157
  0
ARC
  5
423
100
AcDbEntity
  8
0
100
AcDbCircle
 62
7
  6
CONTINUOUS
 10
124.0892290645
 20
154.4864913906
 40
0.63
100
AcDbArc
 50
90.7202554347
 51
254.136550934
  0
ARC
  5
424
100
AcDbEntity
  8
0
100
AcDbCircle
 62
7
  6
CONTINUOUS
 10
123.2320211902
 20
153.1521046025
 40
0.63
100
AcDbArc
 50
70.2670701541
 51
259.4578936052
  0
ARC
  5
425
100
AcDbEntity
  8
BEZUGSACHSEN
100
AcDbCircle
 62
7
  6
CONTINUOUS
 10
121.7063598868
 20
148.8658333293
 40
0.63
100
AcDbArc
 50
108.6472677813
 51
220.4269038862
  0
ARC
  5
426
100
AcDbEntity
  8
BEZUGSACHSEN
100
AcDbCircle
 62
7
  6
CONTINUOUS
 10
122.1378854218
 20
150.3154396733
 40
0.63
100
AcDbArc
 50
112.9025565157
 51
216.9327491456
  0
ARC
  5
427
100
AcDbEntity
  8
BEZUGSACHSEN
100
AcDbCircle
 62
7
  6
CONTINUOUS
 10
124.0765907509
 20
157.6227271651
 40
0.63
100
AcDbArc
 50
141.3455126087
 51
164.8546364013
  0
ARC
  5
428
100
AcDbEntity
  8
BEZUGSACHSEN
100
AcDbCircle
 62
7
  6
CONTINUOUS
 10
124.0765907509
 20
157.6227271651
 40
0.63
100
AcDbArc
 50
175.4734361855
 51
188.3775041131
  0
ARC
  5
429
100
AcDbEntity
  8
BEZUGSACHSEN
100
AcDbCircle
 62
7
  6
CONTINUOUS
 10
123.7180393312
 20
156.1533688972
 40
0.63
100
AcDbArc
 50
164.8546364013
 51
175.7391626331
  0
ARC
  5
42A
100
AcDbEntity
  8
0
100
AcDbCircle
 62
7
  6
CONTINUOUS
 10
132.283495293
 20
173.7786783744
 40
9.9
100
AcDbArc
 50
136.7821494655
 51
148.7747034705
  0
ARC
  5
42B
100
AcDbEntity
  8
0
100
AcDbCircle
 62
7
  6
CONTINUOUS
 10
132.2315545837
 20
173.9618796159
 40
9.0
100
AcDbArc
 50
287.7291228589
 51
305.0672123741
  0
ARC
  5
42C
100
AcDbEntity
  8
0
100
AcDbCircle
 62
7
  6
CONTINUOUS
 10
132.2315545837
 20
173.9618796159
 40
9.0
100
AcDbArc
 50
161.5553316884
 51
222.7460105657
  0
ARC
  5
42D
100
AcDbEntity
  8
0
100
AcDbCircle
 62
7
  6
CONTINUOUS
 10
131.7315545837
 20
173.4618796159
 40
6.3
100
AcDbArc
 50
335.4336460289
 51
74.8546364013
  0
ARC
  5
42E
100
AcDbEntity
  8
BEZUGSACHSEN
100
AcDbCircle
 62
7
  6
CONTINUOUS
 10
125.2580705676
 20
195.4421192846
 40
3.028826866
100
AcDbArc
 50
112.9351273291
 51
159.9516915647
  0
CIRCLE
  5
42F
100
AcDbEntity
  8
0
100
AcDbCircle
 62
7
  6
CONTINUOUS
 10
131.7315545837
 20
173.4618796159
 40
2.7
  0
ARC
  5
430
100
AcDbEntity
  8
0
100
AcDbCircle
 62
7
  6
CONTINUOUS
 10
126.7085170875
 20
179.0172008767
 40
2.25
100
AcDbArc
 50
74.8546364013
 51
136.7821494655
  0
ARC
  5
431
100
AcDbEntity
  8
0
100
AcDbCircle
 62
7
  6
CONTINUOUS
 10
125.7417089944
 20
177.7444736317
 40
2.25
100
AcDbArc
 50
148.7747034705
 51
203.9834480886
  0
CIRCLE
  5
432
100
AcDbEntity
  8
BEZUGSACHSEN
100
AcDbCircle
 62
7
  6
CONTINUOUS
 10
133.9830558078
 20
192.5046386067
 40
1.5
  0
ARC
  5
433
100
AcDbEntity
  8
0
100
AcDbCircle
 62
7
  6
CONTINUOUS
 10
148.034144148
 20
134.5046386067
 40
41.5
100
AcDbArc
 50
263.7497583768
 51
299.0364750678
  0
ARC
  5
434
100
AcDbEntity
  8
0
100
AcDbCircle
 62
7
  6
CONTINUOUS
 10
145.2315545837
 20
126.0729959969
 40
40.0
100
AcDbArc
 50
8.2132107017
 51
50.0
  0
ARC
  5
435
100
AcDbEntity
  8
0
100
AcDbCircle
 62
7
  6
CONTINUOUS
 10
137.7315545837
 20
166.0046386067
 40
35.0
100
AcDbArc
 50
91.4519099279
 51
112.9612569029
  0
ARC
  5
436
100
AcDbEntity
  8
0
100
AcDbCircle
 62
7
  6
CONTINUOUS
 10
152.1597578139
 20
127.0729959969
 40
33.0
100
AcDbArc
 50
299.0364750678
 51
8.2132107017
  0
ARC
  5
437
100
AcDbEntity
  8
0
100
AcDbCircle
 62
7
  6
CONTINUOUS
 10
146.7821268785
 20
123.0729959969
 40
30.0
100
AcDbArc
 50
195.0
 51
263.7497583768
  0
ARC
  5
438
100
AcDbEntity
  8
0
100
AcDbCircle
 62
7
  6
CONTINUOUS
 10
145.3902513635
 20
129.5089606891
 40
21.5217918172
100
AcDbArc
 50
267.6572497171
 51
308.2409891147
  0
ARC
  5
439
100
AcDbEntity
  8
0
100
AcDbCircle
 62
7
  6
CONTINUOUS
 10
145.3811513704
 20
128.681232754
 40
20.6942300226
100
AcDbArc
 50
229.8942218734
 51
267.5887454015
  0
ARC
  5
43A
100
AcDbEntity
  8
0
100
AcDbCircle
 62
7
  6
CONTINUOUS
 10
139.214805515
 20
136.0729959969
 40
20.0
100
AcDbArc
 50
14.9999999939
 51
37.5
  0
ARC
  5
43B
100
AcDbEntity
  8
0
100
AcDbCircle
 62
7
  6
CONTINUOUS
 10
145.2315545837
 20
129.0729959969
 40
16.0
100
AcDbArc
 50
204.8970517032
 51
14.9999999998
  0
ARC
  5
43C
100
AcDbEntity
  8
0
100
AcDbCircle
 62
7
  6
CONTINUOUS
 10
145.2315545837
 20
221.0046386067
 40
21.5
100
AcDbArc
 50
249.7075698899
 51
257.9165349318
  0
ARC
  5
43D
100
AcDbEntity
  8
0
100
AcDbCircle
 62
7
  6
CONTINUOUS
 10
145.2315545837
 20
221.0046386067
 40
21.5
100
AcDbArc
 50
282.0834677632
 51
290.3641348063
  0
ARC
  5
43E
100
AcDbEntity
  8
0
100
AcDbCircle
 62
7
  6
CONTINUOUS
 10
172.2315545837
 20
171.2984850004
 40
12.0
100
AcDbArc
 50
179.9999999998
 51
230.0
  0
ARC
  5
43F
100
AcDbEntity
  8
0
100
AcDbCircle
 62
7
  6
CONTINUOUS
 10
145.2315545837
 20
184.6046386067
 40
3.3
100
AcDbArc
 50
180.0
 51
360.0
  0
ARC
  5
440
100
AcDbEntity
  8
0
100
AcDbCircle
 62
7
  6
CONTINUOUS
 10
153.5832011279
 20
198.5046386067
 40
2.5
100
AcDbArc
 50
90.0
 51
110.3641348063
  0
ARC
  5
441
100
AcDbEntity
  8
0
100
AcDbCircle
 62
7
  6
CONTINUOUS
 10
136.9080874852
 20
198.4943099987
 40
2.4998946883
100
AcDbArc
 50
70.185014537
 51
91.4523045564
  0
ARC
  5
442
100
AcDbEntity
  8
0
100
AcDbCircle
 62
7
  6
CONTINUOUS
 10
136.9101665332
 20
198.4998692766
 40
2.4939598004
100
AcDbArc
 50
69.7075455444
 51
70.186655922
  0
ARC
  5
443
100
AcDbEntity
  8
0
100
AcDbCircle
 62
7
  6
CONTINUOUS
 10
155.5085489132
 20
198.973580683
 40
2.0310502056
100
AcDbArc
 50
40.0273709477
 51
89.9968790815
  0
ARC
  5
444
100
AcDbEntity
  8
0
100
AcDbCircle
 62
7
  6
CONTINUOUS
 10
158.243167387
 20
195.7809248529
 40
1.9883872126
100
AcDbArc
 50
359.9927313658
 51
40.0072686341
  0
ARC
  5
445
100
AcDbEntity
  8
0
100
AcDbCircle
 62
7
  6
CONTINUOUS
 10
-627.9561508161
 20
337.4801131937
 40
958.2069663017
100
AcDbArc
 50
345.4215404863
 51
345.6389207325
  0
ARC
  5
446
100
AcDbEntity
  8
0
100
AcDbCircle
 62
7
  6
CONTINUOUS
 10
169.8769235921
 20
121.5756687035
 40
132.0366440117
100
AcDbArc
 50
350.9913484622
 51
351.1186437228
  0
ARC
  5
447
100
AcDbEntity
  8
0
100
AcDbCircle
 62
7
  6
CONTINUOUS
 10
244.7626266939
 20
107.3534970184
 40
55.9085452396
100
AcDbArc
 50
353.6714032877
 51
353.7978107982
  0
ARC
  5
448
100
AcDbEntity
  8
0
100
AcDbCircle
 62
7
  6
CONTINUOUS
 10
270.5877659396
 20
112.8485012247
 40
32.7893801781
100
AcDbArc
 50
0.4007458532
 51
1.1964293179
  0
ARC
  5
449
100
AcDbEntity
  8
0
100
AcDbCircle
 62
7
  6
CONTINUOUS
 10
271.0653028868
 20
112.8522832625
 40
32.3118284619
100
AcDbArc
 50
0.2002877894
 51
0.3999622358
  0
ARC
  5
44A
100
AcDbEntity
  8
0
100
AcDbCircle
 62
7
  6
CONTINUOUS
 10
271.2891752172
 20
112.8530623881
 40
32.0879547758
100
AcDbArc
 50
0.0001212607
 51
0.2002939746
  0
ARC
  5
44B
100
AcDbEntity
  8
0
100
AcDbCircle
 62
7
  6
CONTINUOUS
 10
290.128217937
 20
100.4229462033
 40
10.1985993491
100
AcDbArc
 50
0.690127906
 51
1.4155170299
  0
ARC
  5
44C
100
AcDbEntity
  8
0
100
AcDbCircle
 62
7
  6
CONTINUOUS
 10
283.8504607547
 20
126.8115905689
 40
4.9949327836
100
AcDbArc
 50
357.9069273015
 51
8.0756334033
  0
ARC
  5
44D
100
AcDbEntity
  8
0
100
AcDbCircle
 62
7
  6
CONTINUOUS
 10
291.3771317369
 20
107.9871773077
 40
4.0000031394
100
AcDbArc
 50
180.0046160072
 51
220.8804858438
  0
ARC
  5
44E
100
AcDbEntity
  8
0
100
AcDbCircle
 62
7
  6
CONTINUOUS
 10
289.3771299929
 20
133.2110708061
 40
2.0
100
AcDbArc
 50
155.0000002079
 51
195.0000000033
  0
ARC
  5
44F
100
AcDbEntity
  8
0
100
AcDbCircle
 62
7
  6
CONTINUOUS
 10
293.5233950431
 20
94.7077364203
 40
1.5
100
AcDbArc
 50
192.9999999998
 51
264.0
  0
ARC
  5
450
100
AcDbEntity
  8
0
100
AcDbCircle
 62
7
  6
CONTINUOUS
 10
172.8770408873
 20
152.9268079097
 40
133.5531035845
100
AcDbArc
 50
0.0242118156
 51
2.4084362368
  0
ARC
  5
451
100
AcDbEntity
  8
BEZUGSACHSEN
100
AcDbCircle
 62
7
  6
CONTINUOUS
 10
284.128907325
 20
152.9750864372
 40
5.5727991602
100
AcDbArc
 50
69.812836067
 51
86.7783771126
  0
ARC
  5
452
100
AcDbEntity
  8
BEZUGSACHSEN
100
AcDbCircle
 62
7
  6
CONTINUOUS
 10
284.1289074926
 20
153.6959434021
 40
5.5727983431
100
AcDbArc
 50
273.2216216346
 51
290.1871651858
  0
ARC
  5
453
100
AcDbEntity
  8
0
100
AcDbCircle
 62
7
  6
CONTINUOUS
 10
292.8771299929
 20
166.7329026234
 40
1.5
100
AcDbArc
 50
180.0
 51
202.3561655877
  0
ARC
  5
454
100
AcDbEntity
  8
KONSTRUKTIONSELEMENTE
100
AcDbCircle
 62
7
  6
CONTINUOUS
 10
293.1970879595
 20
153.1394890018
 40
0.7305579777
100
AcDbArc
 50
180.0099845638
 51
184.6327678304
  0
ARC
  5
455
100
AcDbEntity
  8
BEZUGSACHSEN
100
AcDbCircle
 62
7
  6
CONTINUOUS
 10
287.7271396678
 20
153.1520755956
 40
0.6300096755
100
AcDbArc
 50
40.9098413253
 51
242.791885496
  0
ARC
  5
456
100
AcDbEntity
  8
BEZUGSACHSEN
100
AcDbCircle
 62
7
  6
CONTINUOUS
 10
287.727142808
 20
150.3154134984
 40
0.6300087575
100
AcDbArc
 50
41.4777883313
 51
179.9976195547
  0
ARC
  5
457
100
AcDbEntity
  8
BEZUGSACHSEN
100
AcDbCircle
 62
7
  6
CONTINUOUS
 10
285.9271258595
 20
148.865817689
 40
0.6299989864
100
AcDbArc
 50
28.2582474873
 51
179.9985775692
  0
ARC
  5
458
100
AcDbEntity
  8
BEZUGSACHSEN
100
AcDbCircle
 62
7
  6
CONTINUOUS
 10
285.927117119
 20
157.6227307282
 40
0.6299887871
100
AcDbArc
 50
180.0003240531
 51
265.3848389497
  0
ARC
  5
459
100
AcDbEntity
  8
BEZUGSACHSEN
100
AcDbCircle
 62
7
  6
CONTINUOUS
 10
285.9271122089
 20
154.4864878233
 40
0.6299839592
100
AcDbArc
 50
94.9039902722
 51
185.7328868648
  0
ARC
  5
45A
100
AcDbEntity
  8
BEZUGSACHSEN
100
AcDbCircle
 62
7
  6
CONTINUOUS
 10
285.9271300795
 20
151.5675623394
 40
0.6299614389
100
AcDbArc
 50
42.3511903943
 51
182.0407443963
  0
ARC
  5
45B
100
AcDbEntity
  8
BEZUGSACHSEN
100
AcDbCircle
 62
7
  6
CONTINUOUS
 10
287.7270765917
 20
156.1533845219
 40
0.6299393058
100
AcDbArc
 50
109.7549017697
 51
255.7477778764
  0
ARC
  5
45C
100
AcDbEntity
  8
BEZUGSACHSEN
100
AcDbCircle
 62
7
  6
CONTINUOUS
 10
285.9280513268
 20
148.9888060711
 40
0.5378071938
100
AcDbArc
 50
283.3262054025
 51
298.5916807404
  0
ARC
  5
45D
100
AcDbEntity
  8
BEZUGSACHSEN
100
AcDbCircle
 62
7
  6
CONTINUOUS
 10
285.9280513268
 20
157.6822245772
 40
0.5378071938
100
AcDbArc
 50
61.4083192597
 51
76.6737945975
  0
ARC
  5
45E
100
AcDbEntity
  8
0
100
AcDbCircle
 62
7
  6
CONTINUOUS
 10
283.8771299929
 20
187.8084861839
 40
3.0
100
AcDbArc
 50
330.0
 51
359.9999999981
  0
ARC
  5
45F
100
AcDbEntity
  8
0
100
AcDbCircle
 62
7
  6
CONTINUOUS
 10
287.3771299929
 20
181.8706640104
 40
3.0
100
AcDbArc
 50
149.9999999463
 51
180.0
  0
ARC
  5
460
100
AcDbEntity
  8
0
100
AcDbCircle
 62
7
  6
CONTINUOUS
 10
289.8771299929
 20
194.1222856655
 40
3.0
100
AcDbArc
 50
147.2209193134
 51
180.0
  0
ARC
  5
461
100
AcDbEntity
  8
0
100
AcDbCircle
 62
7
  6
CONTINUOUS
 10
320.313323338
 20
112.8464545881
 40
32.9362202089
100
AcDbArc
 50
178.8053444155
 51
179.5974804143
  0
ARC
  5
462
100
AcDbEntity
  8
0
100
AcDbCircle
 62
7
  6
CONTINUOUS
 10
319.6889571043
 20
112.8522832625
 40
32.3118284672
100
AcDbArc
 50
179.6000377637
 51
179.7997122103
  0
ARC
  5
463
100
AcDbEntity
  8
0
100
AcDbCircle
 62
7
  6
CONTINUOUS
 10
319.4650847864
 20
112.8530623881
 40
32.0879547936
100
AcDbArc
 50
179.7997060251
 51
179.9998787393
  0
ARC
  5
464
100
AcDbEntity
  8
0
100
AcDbCircle
 62
7
  6
CONTINUOUS
 10
306.9037990785
 20
126.8115905764
 40
4.9949326419
100
AcDbArc
 50
171.9244928284
 51
182.0930531991
  0
ARC
  5
465
100
AcDbEntity
  8
0
100
AcDbCircle
 62
7
  6
CONTINUOUS
 10
299.3771282489
 20
107.9871773077
 40
4.0000031394
100
AcDbArc
 50
319.1256160394
 51
359.9953839928
  0
ARC
  5
466
100
AcDbEntity
  8
0
100
AcDbCircle
 62
7
  6
CONTINUOUS
 10
301.3771299929
 20
133.2110708061
 40
2.0
100
AcDbArc
 50
344.9999999967
 51
24.9999997921
  0
ARC
  5
467
100
AcDbEntity
  8
0
100
AcDbCircle
 62
7
  6
CONTINUOUS
 10
297.2308649428
 20
94.7077364203
 40
1.5
100
AcDbArc
 50
276.0
 51
347.0000000002
  0
ARC
  5
468
100
AcDbEntity
  8
0
100
AcDbCircle
 62
7
  6
CONTINUOUS
 10
306.6253526608
 20
152.9750864372
 40
5.5727991602
100
AcDbArc
 50
93.2216228874
 51
110.187163933
  0
ARC
  5
469
100
AcDbEntity
  8
0
100
AcDbCircle
 62
7
  6
CONTINUOUS
 10
306.6253524932
 20
153.6959434021
 40
5.5727983431
100
AcDbArc
 50
249.8128348142
 51
266.7783783654
  0
ARC
  5
46A
100
AcDbEntity
  8
0
100
AcDbCircle
 62
7
  6
CONTINUOUS
 10
297.8771299929
 20
166.7329026234
 40
1.5
100
AcDbArc
 50
337.6438344123
 51
360.0
  0
ARC
  5
46B
100
AcDbEntity
  8
0
100
AcDbCircle
 62
7
  6
CONTINUOUS
 10
303.0271203181
 20
153.1520755956
 40
0.6300096755
100
AcDbArc
 50
297.208114504
 51
139.0901586747
  0
ARC
  5
46C
100
AcDbEntity
  8
0
100
AcDbCircle
 62
7
  6
CONTINUOUS
 10
303.0271177386
 20
150.3154149794
 40
0.6300076316
100
AcDbArc
 50
0.0022457641
 51
138.522346353
  0
ARC
  5
46D
100
AcDbEntity
  8
0
100
AcDbCircle
 62
7
  6
CONTINUOUS
 10
304.8271341634
 20
148.8658176885
 40
0.6299990011
100
AcDbArc
 50
0.0014224732
 51
151.7417540739
  0
ARC
  5
46E
100
AcDbEntity
  8
0
100
AcDbCircle
 62
7
  6
CONTINUOUS
 10
304.8271428668
 20
157.6227307282
 40
0.6299887871
100
AcDbArc
 50
274.6151610509
 51
359.9996759464
  0
ARC
  5
46F
100
AcDbEntity
  8
0
100
AcDbCircle
 62
7
  6
CONTINUOUS
 10
304.8271477769
 20
154.4864878233
 40
0.6299839592
100
AcDbArc
 50
354.2671131352
 51
85.0960097279
  0
ARC
  5
470
100
AcDbEntity
  8
0
100
AcDbCircle
 62
7
  6
CONTINUOUS
 10
303.0271639227
 20
156.1533553294
 40
0.6299621341
100
AcDbArc
 50
284.2522324705
 51
70.2423985586
  0
ARC
  5
471
100
AcDbEntity
  8
0
100
AcDbCircle
 62
7
  6
CONTINUOUS
 10
304.8271297265
 20
151.5675623915
 40
0.6299614389
100
AcDbArc
 50
357.9592556037
 51
137.6488020908
  0
ARC
  5
472
100
AcDbEntity
  8
0
100
AcDbCircle
 62
7
  6
CONTINUOUS
 10
304.826208659
 20
157.6822245772
 40
0.5378071938
100
AcDbArc
 50
103.3262054025
 51
118.5916807403
  0
ARC
  5
473
100
AcDbEntity
  8
0
100
AcDbCircle
 62
7
  6
CONTINUOUS
 10
304.826208659
 20
148.9888060711
 40
0.5378071938
100
AcDbArc
 50
241.4083192596
 51
256.6737945975
  0
ARC
  5
474
100
AcDbEntity
  8
0
100
AcDbCircle
 62
7
  6
CONTINUOUS
 10
295.3771299929
 20
192.5046386067
 40
8.5
100
AcDbArc
 50
32.7790806665
 51
147.2209193335
  0
ARC
  5
475
100
AcDbEntity
  8
0
100
AcDbCircle
 62
7
  6
CONTINUOUS
 10
295.2665788963
 20
193.9650016428
 40
7.0355641203
100
AcDbArc
 50
93.3025389443
 51
93.5468339504
  0
ARC
  5
476
100
AcDbEntity
  8
0
100
AcDbCircle
 62
7
  6
CONTINUOUS
 10
295.4891560234
 20
193.9909571877
 40
7.0095670622
100
AcDbArc
 50
86.4520903092
 51
86.6975070211
  0
CIRCLE
  5
477
100
AcDbEntity
  8
BEZUGSACHSEN
100
AcDbCircle
 62
7
  6
CONTINUOUS
 10
295.3771299929
 20
192.4804157735
 40
4.0
  0
ARC
  5
478
100
AcDbEntity
  8
0
100
AcDbCircle
 62
7
  6
CONTINUOUS
 10
295.0834124527
 20
197.0578740477
 40
3.9372790462
100
AcDbArc
 50
93.1183669633
 51
93.2343296898
  0
ARC
  5
479
100
AcDbEntity
  8
0
100
AcDbCircle
 62
7
  6
CONTINUOUS
 10
295.6761584643
 20
197.1502286523
 40
3.8447722939
100
AcDbArc
 50
86.7674621944
 51
86.885791926
  0
ARC
  5
47A
100
AcDbEntity
  8
0
100
AcDbCircle
 62
7
  6
CONTINUOUS
 10
295.8032853313
 20
199.0541585229
 40
1.9366305518
100
AcDbArc
 50
86.2954284449
 51
86.4580206711
  0
ARC
  5
47B
100
AcDbEntity
  8
0
100
AcDbCircle
 62
7
  6
CONTINUOUS
 10
294.9499562962
 20
199.0701232111
 40
1.9206334303
100
AcDbArc
 50
93.5411408231
 51
93.7043088347
  0
ARC
  5
47C
100
AcDbEntity
  8
0
100
AcDbCircle
 62
7
  6
CONTINUOUS
 10
294.9020434195
 20
200.2127027953
 40
0.7773132239
100
AcDbArc
 50
91.7440569614
 51
92.4194867029
  0
ARC
  5
47D
100
AcDbEntity
  8
0
100
AcDbCircle
 62
7
  6
CONTINUOUS
 10
294.9004868705
 20
200.2641880839
 40
0.7258044125
100
AcDbArc
 50
91.0186822862
 51
91.744934654
  0
ARC
  5
47E
100
AcDbEntity
  8
0
100
AcDbCircle
 62
7
  6
CONTINUOUS
 10
295.8541349886
 20
200.2805096213
 40
0.7094865204
100
AcDbArc
 50
87.5041349297
 51
88.2443736621
  0
ARC
  5
47F
100
AcDbEntity
  8
0
100
AcDbCircle
 62
7
  6
CONTINUOUS
 10
295.854970758
 20
200.3080877407
 40
0.6818957414
100
AcDbArc
 50
88.2435733663
 51
89.016356986
  0
ARC
  5
480
100
AcDbEntity
  8
0
100
AcDbCircle
 62
7
  6
CONTINUOUS
 10
300.8771299929
 20
194.1222856655
 40
3.0
100
AcDbArc
 50
0.0
 51
32.7790806866
  0
ARC
  5
481
100
AcDbEntity
  8
0
100
AcDbCircle
 62
7
  6
CONTINUOUS
 10
303.3771299929
 20
181.8706640104
 40
3.0
100
AcDbArc
 50
0.0
 51
30.0000000537
  0
ARC
  5
482
100
AcDbEntity
  8
0
100
AcDbCircle
 62
7
  6
CONTINUOUS
 10
306.8771299929
 20
187.8084861839
 40
3.0
100
AcDbArc
 50
180.0000000019
 51
210.0
  0
ARC
  5
483
100
AcDbEntity
  8
AUSFORMSCHRAEGEN
100
AcDbCircle
 62
7
  6
CONTINUOUS
 10
417.8772190985
 20
152.9268079097
 40
133.5531035845
100
AcDbArc
 50
177.5915637632
 51
179.9757881844
  0
SPLINE
  5
484
100
AcDbEntity
  8
0
100
AcDbSpline
 62
7
  6
CONTINUOUS
 70
0
 71
3
 72
14
 73
10
 74
0
 42
0.0000001
 43
0.0000001
 44
0.0000000001
 40
0.0
 40
0.0
 40
0.0
 40
0.0
 40
0.0567342118
 40
0.1292353938
 40
0.2258785228
 40
0.3473691502
 40
0.4908023927
 40
0.6514645833
 40
1.0
 40
1.0
 40
1.0
 40
1.0
 10
123.6474955
 20
156.7794051057
 30
0.0
 10
123.6613445983
 20
156.7809468588
 30
0.0
 10
123.6943269487
 20
156.7720539182
 30
0.0
 10
123.7339004883
 20
156.7313507583
 30
0.0
 10
123.7695755898
 20
156.669172934
 30
0.0
 10
123.8008182183
 20
156.5857163488
 30
0.0
 10
123.8266509138
 20
156.4842873658
 30
0.0
 10
123.8528403587
 20
156.3260132239
 30
0.0
 10
123.8599882901
 20
156.2006550907
 30
0.0
 10
123.8596054144
 20
156.1150511665
 30
0.0
  0
SPLINE
  5
485
100
AcDbEntity
  8
0
100
AcDbSpline
 62
7
  6
CONTINUOUS
 70
0
 71
3
 72
15
 73
11
 74
0
 42
0.0000001
 43
0.0000001
 44
0.0000000001
 40
0.0
 40
0.0
 40
0.0
 40
0.0
 40
0.0330768953
 40
0.0589823165
 40
0.0927265052
 40
0.1843218944
 40
0.3064332115
 40
0.4549001469
 40
0.6244299365
 40
1.0
 40
1.0
 40
1.0
 40
1.0
 10
122.0172133213
 20
149.4137646285
 30
0.0
 10
122.0234199968
 20
149.4103095989
 30
0.0
 10
122.0279720302
 20
149.3956566743
 30
0.0
 10
122.025441597
 20
149.3763779786
 30
0.0
 10
122.0175151886
 20
149.3445704099
 30
0.0
 10
121.9965263356
 20
149.2956642454
 30
0.0
 10
121.9601739805
 20
149.2268309284
 30
0.0
 10
121.9109624378
 20
149.1460859324
 30
0.0
 10
121.8280522754
 20
149.0223128335
 30
0.0
 10
121.7576698415
 20
148.9286263287
 30
0.0
 10
121.7073994147
 20
148.86555196
 30
0.0
  0
SPLINE
  5
486
100
AcDbEntity
  8
0
100
AcDbSpline
 62
7
  6
CONTINUOUS
 70
0
 71
3
 72
15
 73
11
 74
0
 42
0.0000001
 43
0.0000001
 44
0.0000000001
 40
0.0
 40
0.0
 40
0.0
 40
0.0
 40
0.0335819289
 40
0.059849647
 40
0.0939518752
 40
0.1860584375
 40
0.3083278468
 40
0.4567059827
 40
0.6257922818
 40
1.0
 40
1.0
 40
1.0
 40
1.0
 10
123.457090187
 20
152.1773962751
 30
0.0
 10
123.4640315574
 20
152.1754445189
 30
0.0
 10
123.4719556633
 20
152.1621614331
 30
0.0
 10
123.4747110172
 20
152.1426886905
 30
0.0
 10
123.4755081314
 20
152.1096444931
 30
0.0
 10
123.468521795
 20
152.0567000152
 30
0.0
 10
123.4521574823
 20
151.9804738028
 30
0.0
 10
123.4267664668
 20
151.8894953966
 30
0.0
 10
123.3807831771
 20
151.7482509445
 30
0.0
 10
123.3387239674
 20
151.6393237834
 30
0.0
 10
123.3076576966
 20
151.5652245692
 30
0.0
  0
SPLINE
  5
487
100
AcDbEntity
  8
0
100
AcDbSpline
 62
7
  6
CONTINUOUS
 70
0
 71
3
 72
15
 73
11
 74
0
 42
0.0000001
 43
0.0000001
 44
0.0000000001
 40
0.0
 40
0.0
 40
0.0
 40
0.0
 40
0.0333720672
 40
0.059458233
 40
0.0934265392
 40
0.1854546835
 40
0.3077863427
 40
0.456302715
 40
0.6255260093
 40
1.0
 40
1.0
 40
1.0
 40
1.0
 10
124.0810075586
 20
155.1164348353
 30
0.0
 10
124.0882019365
 20
155.1165170226
 30
0.0
 10
124.0995100548
 20
155.1059445258
 30
0.0
 10
124.1073460119
 20
155.0879332232
 30
0.0
 10
124.1168889506
 20
155.0562344985
 30
0.0
 10
124.1240898901
 20
155.0031240771
 30
0.0
 10
124.1283567216
 20
154.9249342918
 30
0.0
 10
124.1277409311
 20
154.8300197722
 30
0.0
 10
124.1204047408
 20
154.6809340775
 30
0.0
 10
124.1083351476
 20
154.5642249114
 30
0.0
 10
124.0977346513
 20
154.4841891811
 30
0.0
  0
SPLINE
  5
488
100
AcDbEntity
  8
0
100
AcDbSpline
 62
7
  6
CONTINUOUS
 70
0
 71
3
 72
14
 73
10
 74
0
 42
0.0000001
 43
0.0000001
 44
0.0000000001
 40
0.0
 40
0.0
 40
0.0
 40
0.0
 40
0.0584416709
 40
0.130906405
 40
0.2258310059
 40
0.3448194265
 40
0.4859407429
 40
0.6456070652
 40
1.0
 40
1.0
 40
1.0
 40
1.0
 10
122.4105492817
 20
150.8833480942
 30
0.0
 10
122.4220900761
 20
150.8778497951
 30
0.0
 10
122.4437484443
 20
150.8562747811
 30
0.0
 10
122.4570594163
 20
150.8074818049
 30
0.0
 10
122.45743002
 20
150.7445317906
 30
0.0
 10
122.4448695942
 20
150.6676128632
 30
0.0
 10
122.4199320424
 20
150.5791067549
 30
0.0
 10
122.3692363135
 20
150.4449253532
 30
0.0
 10
122.3182521411
 20
150.344233353
 30
0.0
 10
122.279451505
 20
150.2771219426
 30
0.0
  0
SPLINE
  5
489
100
AcDbEntity
  8
0
100
AcDbSpline
 62
7
  6
CONTINUOUS
 70
0
 71
3
 72
10
 73
6
 74
0
 42
0.0000001
 43
0.0000001
 44
0.0000000001
 40
0.0
 40
0.0
 40
0.0
 40
0.0
 40
0.3264098565
 40
0.6160793967
 40
1.0
 40
1.0
 40
1.0
 40
1.0
 10
123.8902668693
 20
158.2244623173
 30
0.0
 10
123.9002504306
 20
158.2272001421
 30
0.0
 10
123.9193461578
 20
158.2109829597
 30
0.0
 10
123.9349585773
 20
158.1853885565
 30
0.0
 10
123.9447535791
 20
158.165832014
 30
0.0
 10
123.9497036336
 20
158.1547074937
 30
0.0
  0
SPLINE
  5
48A
100
AcDbEntity
  8
0
100
AcDbSpline
 62
7
  6
CONTINUOUS
 70
0
 71
3
 72
10
 73
6
 74
0
 42
0.0000001
 43
0.0000001
 44
0.0000000001
 40
0.0
 40
0.0
 40
0.0
 40
0.0
 40
0.1837722483
 40
0.4226979692
 40
1.0
 40
1.0
 40
1.0
 40
1.0
 10
123.9497036336
 20
158.1547074937
 30
0.0
 10
123.9633639231
 20
158.1240079994
 30
0.0
 10
123.9887167504
 20
158.0507736137
 30
0.0
 10
124.0357608787
 20
157.8740642509
 30
0.0
 10
124.0624579018
 20
157.7269054908
 30
0.0
 10
124.0776302788
 20
157.6224457958
 30
0.0
  0
SPLINE
  5
48B
100
AcDbEntity
  8
0
100
AcDbSpline
 62
7
  6
CONTINUOUS
 70
0
 71
3
 72
13
 73
9
 74
0
 42
0.0000001
 43
0.0000001
 44
0.0000000001
 40
0.0
 40
0.0
 40
0.0
 40
0.0
 40
0.1326350631
 40
0.2315109447
 40
0.3532897859
 40
0.4954307963
 40
0.6540661293
 40
1.0
 40
1.0
 40
1.0
 40
1.0
 10
123.4450041364
 20
153.7449866293
 30
0.0
 10
123.4734935047
 20
153.7346683039
 30
0.0
 10
123.5050770602
 20
153.6819506995
 30
0.0
 10
123.5221672871
 20
153.604851346
 30
0.0
 10
123.529334529
 20
153.5214617844
 30
0.0
 10
123.5270472695
 20
153.4250147779
 30
0.0
 10
123.5117650322
 20
153.2778864482
 30
0.0
 10
123.487927715
 20
153.1647103346
 30
0.0
 10
123.4672800871
 20
153.0884270121
 30
0.0
  0
SPLINE
  5
48C
100
AcDbEntity
  8
0
100
AcDbSpline
 62
7
  6
CONTINUOUS
 70
0
 71
3
 72
15
 73
11
 74
0
 42
0.0000001
 43
0.0000001
 44
0.0000000001
 40
0.0
 40
0.0
 40
0.0
 40
0.0
 40
0.3740693421
 40
0.5432225344
 40
0.6916266348
 40
0.8139815312
 40
0.9061091344
 40
0.9402040534
 40
0.9664804328
 40
1.0
 40
1.0
 40
1.0
 40
1.0
 10
121.7073994147
 20
148.86555196
 30
0.0
 10
121.6573113887
 20
148.8027064497
 30
0.0
 10
121.5819267576
 20
148.7134696298
 30
0.0
 10
121.4800648932
 20
148.6052538903
 30
0.0
 10
121.4123862511
 20
148.5392309935
 30
0.0
 10
121.3533317281
 20
148.4882258742
 30
0.0
 10
121.3102203332
 20
148.4566105415
 30
0.0
 10
121.2808395782
 20
148.4414320964
 30
0.0
 10
121.2624456201
 20
148.4344431526
 30
0.0
 10
121.2470016457
 20
148.4350808665
 30
0.0
 10
121.2419655442
 20
148.4402282579
 30
0.0
  0
SPLINE
  5
48D
100
AcDbEntity
  8
0
100
AcDbSpline
 62
7
  6
CONTINUOUS
 70
0
 71
3
 72
15
 73
11
 74
0
 42
0.0000001
 43
0.0000001
 44
0.0000000001
 40
0.0
 40
0.0
 40
0.0
 40
0.0
 40
0.3755239011
 40
0.5450378038
 40
0.6934969351
 40
0.8156114586
 40
0.9072236166
 40
0.9409804501
 40
0.9669002525
 40
1.0
 40
1.0
 40
1.0
 40
1.0
 10
124.0776302788
 20
157.6224457958
 30
0.0
 10
124.0892215766
 20
157.5426413308
 30
0.0
 10
124.1027389507
 20
157.4262655199
 30
0.0
 10
124.1119017936
 20
157.2775953925
 30
0.0
 10
124.1136706926
 20
157.1830626382
 30
0.0
 10
124.1103468658
 20
157.105292203
 30
0.0
 10
124.1038074526
 20
157.052473365
 30
0.0
 10
124.094620591
 20
157.0209983294
 30
0.0
 10
124.0870827097
 20
157.0030659507
 30
0.0
 10
124.0757884313
 20
156.9926814509
 30
0.0
 10
124.0686815058
 20
156.9928052768
 30
0.0
  0
SPLINE
  5
48E
100
AcDbEntity
  8
0
100
AcDbSpline
 62
7
  6
CONTINUOUS
 70
0
 71
3
 72
14
 73
10
 74
0
 42
0.0000001
 43
0.0000001
 44
0.0000000001
 40
0.0
 40
0.0
 40
0.0
 40
0.0
 40
0.3485635417
 40
0.5092037185
 40
0.6526327818
 40
0.774116175
 40
0.8707664685
 40
0.9432615166
 40
1.0
 40
1.0
 40
1.0
 40
1.0
 10
122.279451505
 20
150.2771219426
 30
0.0
 10
122.2365989376
 20
150.2030021207
 30
0.0
 10
122.1671944593
 20
150.0983556844
 30
0.0
 10
122.0647382736
 20
149.9748979213
 30
0.0
 10
121.9912768474
 20
149.9003446318
 30
0.0
 10
121.922195604
 20
149.8440497286
 30
0.0
 10
121.8600280666
 20
149.8083447797
 30
0.0
 10
121.8053203061
 20
149.7931841121
 30
0.0
 10
121.7723487857
 20
149.8021440862
 30
0.0
 10
121.7611760605
 20
149.8104743505
 30
0.0
  0
SPLINE
  5
48F
100
AcDbEntity
  8
0
100
AcDbSpline
 62
7
  6
CONTINUOUS
 70
0
 71
3
 72
15
 73
11
 74
0
 42
0.0000001
 43
0.0000001
 44
0.0000000001
 40
0.0
 40
0.0
 40
0.0
 40
0.0
 40
0.3744735777
 40
0.5436941262
 40
0.6922095852
 40
0.8145401948
 40
0.9065700604
 40
0.9405376719
 40
0.9666259573
 40
1.0
 40
1.0
 40
1.0
 40
1.0
 10
123.3076576966
 20
151.5652245692
 30
0.0
 10
123.2764420243
 20
151.4907690026
 30
0.0
 10
123.2279976707
 20
151.3839062833
 30
0.0
 10
123.1591356106
 20
151.2514750665
 30
0.0
 10
123.1117947849
 20
151.1692086111
 30
0.0
 10
123.0686720338
 20
151.1038462271
 30
0.0
 10
123.0356675526
 20
151.061617631
 30
0.0
 10
123.0114376022
 20
151.0390599389
 30
0.0
 10
122.9955873582
 20
151.0274594284
 30
0.0
 10
122.9804888886
 20
151.024029907
 30
0.0
 10
122.974318172
 20
151.0277304499
 30
0.0
  0
SPLINE
  5
490
100
AcDbEntity
  8
0
100
AcDbSpline
 62
7
  6
CONTINUOUS
 70
0
 71
3
 72
14
 73
10
 74
0
 42
0.0000001
 43
0.0000001
 44
0.0000000001
 40
0.0
 40
0.0
 40
0.0
 40
0.0
 40
0.3543911093
 40
0.5140546586
 40
0.6551753342
 40
0.7741665557
 40
0.8690921493
 40
0.9415577212
 40
1.0
 40
1.0
 40
1.0
 40
1.0
 10
123.8596054144
 20
156.1150511665
 30
0.0
 10
123.8592586969
 20
156.0375315194
 30
0.0
 10
123.8524943303
 20
155.9248711162
 30
0.0
 10
123.828590335
 20
155.7834386056
 30
0.0
 10
123.8054810556
 20
155.6944374748
 30
0.0
 10
123.7775304064
 20
155.6216829688
 30
0.0
 10
123.7454577902
 20
155.5675134754
 30
0.0
 10
123.7093528129
 20
155.5320949575
 30
0.0
 10
123.6797682331
 20
155.5243910532
 30
0.0
 10
123.6670295906
 20
155.5254647838
 30
0.0
  0
SPLINE
  5
491
100
AcDbEntity
  8
0
100
AcDbSpline
 62
7
  6
CONTINUOUS
 70
0
 71
3
 72
15
 73
11
 74
0
 42
0.0000001
 43
0.0000001
 44
0.0000000001
 40
0.0
 40
0.0
 40
0.0
 40
0.0
 40
0.374205347
 40
0.5432902445
 40
0.6916661708
 40
0.8139346456
 40
0.9060423843
 40
0.9401462557
 40
0.9664155176
 40
1.0
 40
1.0
 40
1.0
 40
1.0
 10
124.0977346513
 20
154.4841891811
 30
0.0
 10
124.0871850411
 20
154.4045376506
 30
0.0
 10
124.068560913
 20
154.2892687575
 30
0.0
 10
124.0370250703
 20
154.1441159008
 30
0.0
 10
124.0130617589
 20
154.0527525986
 30
0.0
 10
123.9887451881
 20
153.9786795471
 30
0.0
 10
123.9680734371
 20
153.9294393165
 30
0.0
 10
123.9507188887
 20
153.9013069094
 30
0.0
 10
123.9385176236
 20
153.8858814774
 30
0.0
 10
123.9249766862
 20
153.8784053551
 30
0.0
 10
123.9179976496
 20
153.8802198553
 30
0.0
  0
SPLINE
  5
492
100
AcDbEntity
  8
0
100
AcDbSpline
 62
7
  6
CONTINUOUS
 70
0
 71
3
 72
13
 73
9
 74
0
 42
0.0000001
 43
0.0000001
 44
0.0000000001
 40
0.0
 40
0.0
 40
0.0
 40
0.0
 40
0.3454918003
 40
0.5039961381
 40
0.6461775278
 40
0.7680007247
 40
0.8670293637
 40
1.0
 40
1.0
 40
1.0
 40
1.0
 10
123.4672800871
 20
153.0884270121
 30
0.0
 10
123.4466759827
 20
153.0123044886
 30
0.0
 10
123.4102591396
 20
152.9027691378
 30
0.0
 10
123.3493924586
 20
152.7682225647
 30
0.0
 10
123.3028342312
 20
152.6838306177
 30
0.0
 10
123.2546653444
 20
152.615405182
 30
0.0
 10
123.2010685254
 20
152.5573323194
 30
0.0
 10
123.147407328
 20
152.5274091763
 30
0.0
 10
123.1175050394
 20
152.5326133635
 30
0.0
  0
SPLINE
  5
493
100
AcDbEntity
  8
0
100
AcDbSpline
 62
7
  6
CONTINUOUS
 70
0
 71
3
 72
11
 73
7
 74
0
 42
0.0000001
 43
0.0000001
 44
0.0000000001
 40
0.0
 40
0.0
 40
0.0
 40
0.0
 40
0.2500828119
 40
0.5000668229
 40
0.7500199644
 40
1.0
 40
1.0
 40
1.0
 40
1.0
 10
124.8629627319
 20
183.100568643
 30
0.0
 10
125.0708186852
 20
183.0563861344
 30
0.0
 10
125.474628666
 20
182.8925214104
 30
0.0
 10
125.9497437102
 20
182.4462255854
 30
0.0
 10
126.2277303901
 20
181.8561452525
 30
0.0
 10
126.2536664439
 20
181.4202858474
 30
0.0
 10
126.2272252493
 20
181.2095254463
 30
0.0
  0
SPLINE
  5
494
100
AcDbEntity
  8
0
100
AcDbSpline
 62
7
  6
CONTINUOUS
 70
0
 71
3
 72
11
 73
7
 74
0
 42
0.0000001
 43
0.0000001
 44
0.0000000001
 40
0.0
 40
0.0
 40
0.0
 40
0.0
 40
0.2499838108
 40
0.4999742832
 40
0.7499778231
 40
1.0
 40
1.0
 40
1.0
 40
1.0
 10
141.9315545837
 20
198.5043430195
 30
0.0
 10
141.9315542916
 20
198.6750024302
 30
0.0
 10
141.8718297109
 20
199.0191525399
 30
0.0
 10
141.6148630559
 20
199.4731065709
 30
0.0
 10
141.2220077973
 20
199.8161538744
 30
0.0
 10
140.8977238353
 20
199.9452569478
 30
0.0
 10
140.7308198707
 20
199.9809870683
 30
0.0
  0
SPLINE
  5
495
100
AcDbEntity
  8
0
100
AcDbSpline
 62
7
  6
CONTINUOUS
 70
0
 71
3
 72
11
 73
7
 74
0
 42
0.0000001
 43
0.0000001
 44
0.0000000001
 40
0.0
 40
0.0
 40
0.0
 40
0.0
 40
0.2500214055
 40
0.5000249964
 40
0.7500170948
 40
1.0
 40
1.0
 40
1.0
 40
1.0
 10
149.7322906071
 20
199.9809857776
 30
0.0
 10
149.5653874129
 20
199.9452553019
 30
0.0
 10
149.2411045661
 20
199.8161520183
 30
0.0
 10
148.8482488491
 20
199.4731052259
 30
0.0
 10
148.5912810355
 20
199.0191517016
 30
0.0
 10
148.5315554519
 20
198.6750016596
 30
0.0
 10
148.5315545837
 20
198.5043430195
 30
0.0
  0
SPLINE
  5
496
100
AcDbEntity
  8
0
100
AcDbSpline
 62
7
  6
CONTINUOUS
 70
0
 71
3
 72
15
 73
11
 74
0
 42
0.0000001
 43
0.0000001
 44
0.0000000001
 40
0.0
 40
0.0
 40
0.0
 40
0.0
 40
0.1250052646
 40
0.250001336
 40
0.3750021192
 40
0.4999997452
 40
0.6249974724
 40
0.7499982125
 40
0.8749943859
 40
1.0
 40
1.0
 40
1.0
 40
1.0
 10
137.4024160382
 20
166.5955310245
 30
0.0
 10
137.5577503214
 20
166.7045969181
 30
0.0
 10
137.8899506209
 20
166.8937655991
 30
0.0
 10
138.4322801938
 20
167.0777488703
 30
0.0
 10
138.9999003982
 20
167.155380309
 30
0.0
 10
139.5718757047
 20
167.1232649035
 30
0.0
 10
140.1272019168
 20
166.98255488
 30
0.0
 10
140.6455014166
 20
166.7384574204
 30
0.0
 10
141.1078303072
 20
166.4004904398
 30
0.0
 10
141.3681408391
 20
166.1205274804
 30
0.0
 10
141.4836942354
 20
165.9699561593
 30
0.0
  0
SPLINE
  5
497
100
AcDbEntity
  8
0
100
AcDbSpline
 62
7
  6
CONTINUOUS
 70
0
 71
3
 72
11
 73
7
 74
0
 42
0.0000001
 43
0.0000001
 44
0.0000000001
 40
0.0
 40
0.0
 40
0.0
 40
0.0
 40
0.2500265487
 40
0.5000237462
 40
0.7500083732
 40
1.0
 40
1.0
 40
1.0
 40
1.0
 10
122.2315545989
 20
186.079390222
 30
0.0
 10
122.2315563283
 20
185.7429438519
 30
0.0
 10
122.3454337167
 20
185.0645584838
 30
0.0
 10
122.8441602192
 20
184.1652265837
 30
0.0
 10
123.6152274237
 20
183.484500578
 30
0.0
 10
124.2547209969
 20
183.2298557655
 30
0.0
 10
124.5837689688
 20
183.1599131213
 30
0.0
  0
SPLINE
  5
498
100
AcDbEntity
  8
BEZUGSACHSEN
100
AcDbSpline
 62
7
  6
CONTINUOUS
 70
0
 71
3
 72
18
 73
14
 74
0
 42
0.0000001
 43
0.0000001
 44
0.0000000001
 40
0.0
 40
0.0
 40
0.0
 40
0.0
 40
0.2226995335
 40
0.419198027
 40
0.5881118497
 40
0.7281934631
 40
0.8383819881
 40
0.8820729887
 40
0.9181891423
 40
0.946940417
 40
0.968901509
 40
0.9855141236
 40
1.0
 40
1.0
 40
1.0
 40
1.0
 10
122.509713773
 20
195.4797483523
 30
0.0
 10
122.500746546
 20
195.5550295491
 30
0.0
 10
122.4873164818
 20
195.6971661206
 30
0.0
 10
122.4765994673
 20
195.8971239701
 30
0.0
 10
122.472197972
 20
196.0691674166
 30
0.0
 10
122.4700153851
 20
196.2118396511
 30
0.0
 10
122.4671082008
 20
196.3119060162
 30
0.0
 10
122.4618249937
 20
196.3763928606
 30
0.0
 10
122.4566822355
 20
196.4130166049
 30
0.0
 10
122.4497407169
 20
196.4418389308
 30
0.0
 10
122.4407667567
 20
196.4630632664
 30
0.0
 10
122.4286139823
 20
196.4772524077
 30
0.0
 10
122.4177722626
 20
196.4804157735
 30
0.0
 10
122.4128408496
 20
196.4804157735
 30
0.0
  0
SPLINE
  5
499
100
AcDbEntity
  8
KONSTRUKTIONSELEMENTE
100
AcDbSpline
 62
7
  6
CONTINUOUS
 70
0
 71
3
 72
9
 73
5
 74
0
 42
0.0000001
 43
0.0000001
 44
0.0000000001
 40
0.0
 40
0.0
 40
0.0
 40
0.0
 40
0.4988218645
 40
1.0
 40
1.0
 40
1.0
 40
1.0
 10
292.9957299929
 20
158.247549763
 30
0.0
 10
292.9957299929
 20
158.336505635
 30
0.0
 10
292.9713410777
 20
158.5156668757
 30
0.0
 10
292.8998091262
 20
158.6816658635
 30
0.0
 10
292.8539312803
 20
158.7583685701
 30
0.0
  0
SPLINE
  5
49A
100
AcDbEntity
  8
0
100
AcDbSpline
 62
7
  6
CONTINUOUS
 70
0
 71
3
 72
8
 73
4
 74
0
 42
0.0000001
 43
0.0000001
 44
0.0000000001
 40
0.0
 40
0.0
 40
0.0
 40
0.0
 40
1.0
 40
1.0
 40
1.0
 40
1.0
 10
303.6052731575
 20
150.0651009639
 30
0.0
 10
303.6391038033
 20
150.143315759
 30
0.0
 10
303.6571299929
 20
150.2302219125
 30
0.0
 10
303.6571299929
 20
150.3154396733
 30
0.0
  0
SPLINE
  5
49B
100
AcDbEntity
  8
BEZUGSACHSEN
100
AcDbSpline
 62
7
  6
CONTINUOUS
 70
0
 71
3
 72
8
 73
4
 74
0
 42
0.0000001
 43
0.0000001
 44
0.0000000001
 40
0.0
 40
0.0
 40
0.0
 40
0.0
 40
1.0
 40
1.0
 40
1.0
 40
1.0
 10
287.1489868283
 20
150.0651009639
 30
0.0
 10
287.1151561825
 20
150.143315759
 30
0.0
 10
287.0971299929
 20
150.2302219125
 30
0.0
 10
287.0971299929
 20
150.3154396733
 30
0.0
  0
SPLINE
  5
49C
100
AcDbEntity
  8
KONSTRUKTIONSELEMENTE
100
AcDbSpline
 62
7
  6
CONTINUOUS
 70
0
 71
3
 72
9
 73
5
 74
0
 42
0.0000001
 43
0.0000001
 44
0.0000000001
 40
0.0
 40
0.0
 40
0.0
 40
0.0
 40
0.5011781355
 40
1.0
 40
1.0
 40
1.0
 40
1.0
 10
297.9003287055
 20
158.7583685701
 30
0.0
 10
297.8544508596
 20
158.6816658635
 30
0.0
 10
297.7829189081
 20
158.5156668757
 30
0.0
 10
297.7585299929
 20
158.336505635
 30
0.0
 10
297.7585299929
 20
158.247549763
 30
0.0
  0
SPLINE
  5
49D
100
AcDbEntity
  8
KONSTRUKTIONSELEMENTE
100
AcDbSpline
 62
7
  6
CONTINUOUS
 70
0
 71
3
 72
10
 73
6
 74
0
 42
0.0000001
 43
0.0000001
 44
0.0000000001
 40
0.0
 40
0.0
 40
0.0
 40
0.0
 40
0.5014273495
 40
0.7516760071
 40
1.0
 40
1.0
 40
1.0
 40
1.0
 10
293.2603299929
 20
152.8839522886
 30
0.0
 10
293.2025653817
 20
152.8839522886
 30
0.0
 10
293.1127358569
 20
152.9138238006
 30
0.0
 10
293.0330744662
 20
152.9992961937
 30
0.0
 10
293.0096398118
 20
153.0532515342
 30
0.0
 10
293.0028465321
 20
153.0810402472
 30
0.0
  0
SPLINE
  5
49E
100
AcDbEntity
  8
KONSTRUKTIONSELEMENTE
100
AcDbSpline
 62
7
  6
CONTINUOUS
 70
0
 71
3
 72
8
 73
4
 74
0
 42
0.0000001
 43
0.0000001
 44
0.0000000001
 40
0.0
 40
0.0
 40
0.0
 40
0.0
 40
1.0
 40
1.0
 40
1.0
 40
1.0
 10
293.0028465321
 20
153.0810402472
 30
0.0
 10
292.9981957779
 20
153.1000647064
 30
0.0
 10
292.9957299929
 20
153.1197770154
 30
0.0
 10
292.9957299929
 20
153.1393616922
 30
0.0
  0
SPLINE
  5
49F
100
AcDbEntity
  8
KONSTRUKTIONSELEMENTE
100
AcDbSpline
 62
7
  6
CONTINUOUS
 70
0
 71
3
 72
9
 73
5
 74
0
 42
0.0000001
 43
0.0000001
 44
0.0000000001
 40
0.0
 40
0.0
 40
0.0
 40
0.0
 40
0.4974358959
 40
1.0
 40
1.0
 40
1.0
 40
1.0
 10
295.3771299929
 20
152.5695551934
 30
0.0
 10
295.2832750541
 20
152.6682945374
 30
0.0
 10
295.0506351166
 20
152.8287745421
 30
0.0
 10
294.7738829237
 20
152.8839522886
 30
0.0
 10
294.6362499929
 20
152.8839522886
 30
0.0
  0
SPLINE
  5
4A0
100
AcDbEntity
  8
KONSTRUKTIONSELEMENTE
100
AcDbSpline
 62
7
  6
CONTINUOUS
 70
0
 71
3
 72
9
 73
5
 74
0
 42
0.0000001
 43
0.0000001
 44
0.0000000001
 40
0.0
 40
0.0
 40
0.0
 40
0.0
 40
0.5025641041
 40
1.0
 40
1.0
 40
1.0
 40
1.0
 10
296.1180099929
 20
152.8839522886
 30
0.0
 10
295.9803770621
 20
152.8839522886
 30
0.0
 10
295.7036248692
 20
152.8287745421
 30
0.0
 10
295.4709849317
 20
152.6682945374
 30
0.0
 10
295.3771299929
 20
152.5695551934
 30
0.0
  0
SPLINE
  5
4A1
100
AcDbEntity
  8
KONSTRUKTIONSELEMENTE
100
AcDbSpline
 62
7
  6
CONTINUOUS
 70
0
 71
3
 72
11
 73
7
 74
0
 42
0.0000001
 43
0.0000001
 44
0.0000000001
 40
0.0
 40
0.0
 40
0.0
 40
0.0
 40
0.2456557084
 40
0.4942210669
 40
0.7461938373
 40
1.0
 40
1.0
 40
1.0
 40
1.0
 10
297.7585299929
 20
153.1393616922
 30
0.0
 10
297.7585299929
 20
153.1061352229
 30
0.0
 10
297.744424061
 20
153.0385929541
 30
0.0
 10
297.6854525886
 20
152.9534655503
 30
0.0
 10
297.5973136881
 20
152.897246157
 30
0.0
 10
297.5282588621
 20
152.8839522886
 30
0.0
 10
297.4939299929
 20
152.8839522886
 30
0.0
  0
SPLINE
  5
4A2
100
AcDbEntity
  8
KONSTRUKTIONSELEMENTE
100
AcDbSpline
 62
7
  6
CONTINUOUS
 70
0
 71
3
 72
11
 73
7
 74
0
 42
0.0000001
 43
0.0000001
 44
0.0000000001
 40
0.0
 40
0.0
 40
0.0
 40
0.0
 40
0.2461479672
 40
0.4945296164
 40
0.7462145994
 40
1.0
 40
1.0
 40
1.0
 40
1.0
 10
292.4689168249
 20
153.0804825823
 30
0.0
 10
292.4765884111
 20
152.9856444754
 30
0.0
 10
292.5295018871
 20
152.7961196422
 30
0.0
 10
292.7100300281
 20
152.5625824371
 30
0.0
 10
292.9650028893
 20
152.4087624751
 30
0.0
 10
293.1622298784
 20
152.3731334815
 30
0.0
 10
293.2603299929
 20
152.3731334815
 30
0.0
  0
SPLINE
  5
4A3
100
AcDbEntity
  8
BEZUGSACHSEN
100
AcDbSpline
 62
7
  6
CONTINUOUS
 70
0
 71
3
 72
15
 73
11
 74
0
 42
0.0000001
 43
0.0000001
 44
0.0000000001
 40
0.0
 40
0.0
 40
0.0
 40
0.0
 40
0.1102511704
 40
0.2242508652
 40
0.3460077256
 40
0.4758270636
 40
0.6107579496
 40
0.7460625398
 40
0.8769471964
 40
1.0
 40
1.0
 40
1.0
 40
1.0
 10
287.148998821
 20
150.0651060975
 30
0.0
 10
287.1714977001
 20
150.0131807891
 30
0.0
 10
287.2402001275
 20
149.9159872853
 30
0.0
 10
287.3959626649
 20
149.8219280808
 30
0.0
 10
287.5840954227
 20
149.7875747922
 30
0.0
 10
287.7835887366
 20
149.8141022543
 30
0.0
 10
287.9740802111
 20
149.8973153501
 30
0.0
 10
288.1361925488
 20
150.0283465853
 30
0.0
 10
288.2529788678
 20
150.1936663812
 30
0.0
 10
288.2932519176
 20
150.3206274924
 30
0.0
 10
288.3010987738
 20
150.383299111
 30
0.0
  0
SPLINE
  5
4A4
100
AcDbEntity
  8
BEZUGSACHSEN
100
AcDbSpline
 62
7
  6
CONTINUOUS
 70
0
 71
3
 72
16
 73
12
 74
0
 42
0.0000001
 43
0.0000001
 44
0.0000000001
 40
0.0
 40
0.0
 40
0.0
 40
0.0
 40
0.1190034135
 40
0.2385247967
 40
0.3616366053
 40
0.4892036554
 40
0.5544565716
 40
0.6200610162
 40
0.7502132561
 40
0.8772943117
 40
1.0
 40
1.0
 40
1.0
 40
1.0
 10
285.2975335869
 20
151.5450996317
 30
0.0
 10
285.3001311216
 20
151.4729290861
 30
0.0
 10
285.3357854646
 20
151.3274005695
 30
0.0
 10
285.4756259048
 20
151.1501768869
 30
0.0
 10
285.6782736532
 20
151.0404179239
 30
0.0
 10
285.8732715609
 20
151.0174197375
 30
0.0
 10
286.0290611621
 20
151.0405384483
 30
0.0
 10
286.1800263006
 20
151.0907192411
 30
0.0
 10
286.3474006034
 20
151.2007957114
 30
0.0
 10
286.4868083379
 20
151.3905705214
 30
0.0
 10
286.5254926843
 20
151.54205289
 30
0.0
 10
286.5286590343
 20
151.6164495423
 30
0.0
  0
SPLINE
  5
4A5
100
AcDbEntity
  8
KONSTRUKTIONSELEMENTE
100
AcDbSpline
 62
7
  6
CONTINUOUS
 70
0
 71
3
 72
9
 73
5
 74
0
 42
0.0000001
 43
0.0000001
 44
0.0000000001
 40
0.0
 40
0.0
 40
0.0
 40
0.0
 40
0.5042496877
 40
1.0
 40
1.0
 40
1.0
 40
1.0
 10
287.9159163816
 20
136.7422006798
 30
0.0
 10
288.0415053568
 20
136.7422006798
 30
0.0
 10
288.2958107067
 20
136.8114652849
 30
0.0
 10
288.4739651307
 20
137.0072177008
 30
0.0
 10
288.5276741378
 20
137.1183964078
 30
0.0
  0
SPLINE
  5
4A6
100
AcDbEntity
  8
KONSTRUKTIONSELEMENTE
100
AcDbSpline
 62
7
  6
CONTINUOUS
 70
0
 71
3
 72
11
 73
7
 74
0
 42
0.0000001
 43
0.0000001
 44
0.0000000001
 40
0.0
 40
0.0
 40
0.0
 40
0.0
 40
0.2467375386
 40
0.4959168483
 40
0.7473075012
 40
1.0
 40
1.0
 40
1.0
 40
1.0
 10
290.3144219596
 20
140.8169997385
 30
0.0
 10
290.4583946981
 20
141.1150261549
 30
0.0
 10
290.8375822519
 20
141.674803406
 30
0.0
 10
291.6207803406
 20
142.3209313576
 30
0.0
 10
292.5583259061
 20
142.730204391
 30
0.0
 10
293.2381616509
 20
142.8233769546
 30
0.0
 10
293.5771299929
 20
142.8233769546
 30
0.0
  0
SPLINE
  5
4A7
100
AcDbEntity
  8
BEZUGSACHSEN
100
AcDbSpline
 62
7
  6
CONTINUOUS
 70
0
 71
3
 72
9
 73
5
 74
0
 42
0.0000001
 43
0.0000001
 44
0.0000000001
 40
0.0
 40
0.0
 40
0.0
 40
0.0
 40
0.5064804516
 40
1.0
 40
1.0
 40
1.0
 40
1.0
 10
288.3383507255
 20
153.1919934456
 30
0.0
 10
288.3383507255
 20
153.2599983526
 30
0.0
 10
288.3158443454
 20
153.3954654362
 30
0.0
 10
288.2466506313
 20
153.5145653307
 30
0.0
 10
288.2032649416
 20
153.564652116
 30
0.0
  0
SPLINE
  5
4A8
100
AcDbEntity
  8
BEZUGSACHSEN
100
AcDbSpline
 62
7
  6
CONTINUOUS
 70
0
 71
3
 72
11
 73
7
 74
0
 42
0.0000001
 43
0.0000001
 44
0.0000000001
 40
0.0
 40
0.0
 40
0.0
 40
0.0
 40
0.250883234
 40
0.5002076398
 40
0.7494031694
 40
1.0
 40
1.0
 40
1.0
 40
1.0
 10
286.5286590343
 20
154.5354141542
 30
0.0
 10
286.5254335168
 20
154.616615408
 30
0.0
 10
286.4862020075
 20
154.7791496043
 30
0.0
 10
286.3364623191
 20
154.9785260224
 30
0.0
 10
286.1201791314
 20
155.1024046661
 30
0.0
 10
285.954131548
 20
155.1211353401
 30
0.0
 10
285.873259727
 20
155.1141548912
 30
0.0
  0
SPLINE
  5
4A9
100
AcDbEntity
  8
BEZUGSACHSEN
100
AcDbSpline
 62
7
  6
CONTINUOUS
 70
0
 71
3
 72
11
 73
7
 74
0
 42
0.0000001
 43
0.0000001
 44
0.0000000001
 40
0.0
 40
0.0
 40
0.0
 40
0.0
 40
0.2566874589
 40
0.5085931521
 40
0.7552012851
 40
1.0
 40
1.0
 40
1.0
 40
1.0
 10
288.3010987738
 20
156.2212283348
 30
0.0
 10
288.2910497699
 20
156.3130921246
 30
0.0
 10
288.231723214
 20
156.4933029851
 30
0.0
 10
288.0396517109
 20
156.6979722969
 30
0.0
 10
287.7806999471
 20
156.796759406
 30
0.0
 10
287.5970863286
 20
156.7760869368
 30
0.0
 10
287.51414993
 20
156.7462751989
 30
0.0
  0
SPLINE
  5
4AA
100
AcDbEntity
  8
BEZUGSACHSEN
100
AcDbSpline
 62
7
  6
CONTINUOUS
 70
0
 71
3
 72
9
 73
5
 74
0
 42
0.0000001
 43
0.0000001
 44
0.0000000001
 40
0.0
 40
0.0
 40
0.0
 40
0.0
 40
0.5006397836
 40
1.0
 40
1.0
 40
1.0
 40
1.0
 10
286.5286590343
 20
151.6164495423
 30
0.0
 10
286.5315486601
 20
151.6843442763
 30
0.0
 10
286.5111565643
 20
151.8225588459
 30
0.0
 10
286.4383755089
 20
151.9418772284
 30
0.0
 10
286.3927018012
 20
151.9919609706
 30
0.0
  0
SPLINE
  5
4AB
100
AcDbEntity
  8
BEZUGSACHSEN
100
AcDbSpline
 62
7
  6
CONTINUOUS
 70
0
 71
3
 72
9
 73
5
 74
0
 42
0.0000001
 43
0.0000001
 44
0.0000000001
 40
0.0
 40
0.0
 40
0.0
 40
0.0
 40
0.5096502798
 40
1.0
 40
1.0
 40
1.0
 40
1.0
 10
288.3010987738
 20
150.383299111
 30
0.0
 10
288.308960824
 20
150.4460920812
 30
0.0
 10
288.3014922889
 20
150.5740455561
 30
0.0
 10
288.2394833326
 20
150.6870724519
 30
0.0
 10
288.1991540905
 20
150.7326876006
 30
0.0
  0
SPLINE
  5
4AC
100
AcDbEntity
  8
BEZUGSACHSEN
100
AcDbSpline
 62
7
  6
CONTINUOUS
 70
0
 71
3
 72
9
 73
5
 74
0
 42
0.0000001
 43
0.0000001
 44
0.0000000001
 40
0.0
 40
0.0
 40
0.0
 40
0.0
 40
0.5023429624
 40
1.0
 40
1.0
 40
1.0
 40
1.0
 10
286.5213448622
 20
148.9205182689
 30
0.0
 10
286.5282660186
 20
148.9618319211
 30
0.0
 10
286.5291657649
 20
149.046903694
 30
0.0
 10
286.5017130496
 20
149.1275462369
 30
0.0
 10
286.4820532235
 20
149.1640924768
 30
0.0
  0
SPLINE
  5
4AD
100
AcDbEntity
  8
BEZUGSACHSEN
100
AcDbSpline
 62
7
  6
CONTINUOUS
 70
0
 71
3
 72
12
 73
8
 74
0
 42
0.0000001
 43
0.0000001
 44
0.0000000001
 40
0.0
 40
0.0
 40
0.0
 40
0.0
 40
0.1103204734
 40
0.221398484
 40
0.4558072906
 40
0.7182774155
 40
1.0
 40
1.0
 40
1.0
 40
1.0
 10
285.2971309134
 20
148.86555196
 30
0.0
 10
285.2970996172
 20
148.8295160512
 30
0.0
 10
285.3075217672
 20
148.7567350832
 30
0.0
 10
285.3710090424
 20
148.6198814877
 30
0.0
 10
285.5301410907
 20
148.4854179023
 30
0.0
 10
285.7825591378
 20
148.4208641827
 30
0.0
 10
285.9634766101
 20
148.4403860859
 30
0.0
 10
286.0520130973
 20
148.4654801142
 30
0.0
  0
SPLINE
  5
4AE
100
AcDbEntity
  8
BEZUGSACHSEN
100
AcDbSpline
 62
7
  6
CONTINUOUS
 70
0
 71
3
 72
11
 73
7
 74
0
 42
0.0000001
 43
0.0000001
 44
0.0000000001
 40
0.0
 40
0.0
 40
0.0
 40
0.0
 40
0.251518694
 40
0.5007385747
 40
0.7495439391
 40
1.0
 40
1.0
 40
1.0
 40
1.0
 10
286.0520130973
 20
158.205550534
 30
0.0
 10
285.9633111409
 20
158.2283450302
 30
0.0
 10
285.7736963236
 20
158.2342613272
 30
0.0
 10
285.5167841549
 20
158.1169714693
 30
0.0
 10
285.3386142185
 20
157.8982758882
 30
0.0
 10
285.2970683265
 20
157.7136428281
 30
0.0
 10
285.2971309134
 20
157.6224457958
 30
0.0
  0
SPLINE
  5
4AF
100
AcDbEntity
  8
BEZUGSACHSEN
100
AcDbSpline
 62
7
  6
CONTINUOUS
 70
0
 71
3
 72
9
 73
5
 74
0
 42
0.0000001
 43
0.0000001
 44
0.0000000001
 40
0.0
 40
0.0
 40
0.0
 40
0.0
 40
0.4993352125
 40
1.0
 40
1.0
 40
1.0
 40
1.0
 10
286.5213448622
 20
157.6774121046
 30
0.0
 10
286.5080526618
 20
157.7764743693
 30
0.0
 10
286.4319308423
 20
157.9711082445
 30
0.0
 10
286.2743368836
 20
158.1082061514
 30
0.0
 10
286.1854266883
 20
158.1544475128
 30
0.0
  0
SPLINE
  5
4B0
100
AcDbEntity
  8
BEZUGSACHSEN
100
AcDbSpline
 62
7
  6
CONTINUOUS
 70
0
 71
3
 72
15
 73
11
 74
0
 42
0.0000001
 43
0.0000001
 44
0.0000000001
 40
0.0
 40
0.0
 40
0.0
 40
0.0
 40
0.126674178
 40
0.2521063208
 40
0.376394775
 40
0.5000000132
 40
0.6236051966
 40
0.7478937134
 40
0.8733258983
 40
1.0
 40
1.0
 40
1.0
 40
1.0
 10
286.1854266883
 20
158.1544475128
 30
0.0
 10
286.672254881
 20
157.9607040898
 30
0.0
 10
287.5914834409
 20
157.4327471496
 30
0.0
 10
288.6750626411
 20
156.2845345015
 30
0.0
 10
289.3681872317
 20
154.8779938118
 30
0.0
 10
289.6063459633
 20
153.3355153957
 30
0.0
 10
289.3681872169
 20
151.7930367353
 30
0.0
 10
288.675062446
 20
150.3864958707
 30
0.0
 10
287.591483039
 20
149.2382832431
 30
0.0
 10
286.6722545878
 20
148.7103264417
 30
0.0
 10
286.1854266883
 20
148.5165831354
 30
0.0
  0
SPLINE
  5
4B1
100
AcDbEntity
  8
BEZUGSACHSEN
100
AcDbSpline
 62
7
  6
CONTINUOUS
 70
0
 71
3
 72
9
 73
5
 74
0
 42
0.0000001
 43
0.0000001
 44
0.0000000001
 40
0.0
 40
0.0
 40
0.0
 40
0.0
 40
0.5292808723
 40
1.0
 40
1.0
 40
1.0
 40
1.0
 10
286.1854266883
 20
148.5165831354
 30
0.0
 10
286.2709354048
 20
148.5585963554
 30
0.0
 10
286.420559171
 20
148.6681822533
 30
0.0
 10
286.5073451866
 20
148.8369516368
 30
0.0
 10
286.5213448622
 20
148.9205182689
 30
0.0
  0
SPLINE
  5
4B2
100
AcDbEntity
  8
0
100
AcDbSpline
 62
7
  6
CONTINUOUS
 70
0
 71
3
 72
15
 73
11
 74
0
 42
0.0000001
 43
0.0000001
 44
0.0000000001
 40
0.0
 40
0.0
 40
0.0
 40
0.0
 40
0.1102511704
 40
0.2242508652
 40
0.3460077256
 40
0.4758270636
 40
0.6107579496
 40
0.7460625398
 40
0.8769471964
 40
1.0
 40
1.0
 40
1.0
 40
1.0
 10
303.6052611648
 20
150.0651060975
 30
0.0
 10
303.5827622858
 20
150.0131807891
 30
0.0
 10
303.5140598583
 20
149.9159872853
 30
0.0
 10
303.3582973209
 20
149.8219280808
 30
0.0
 10
303.1701645632
 20
149.7875747922
 30
0.0
 10
302.9706712492
 20
149.8141022543
 30
0.0
 10
302.7801797747
 20
149.8973153501
 30
0.0
 10
302.618067437
 20
150.0283465853
 30
0.0
 10
302.501281118
 20
150.1936663812
 30
0.0
 10
302.4610080682
 20
150.3206274924
 30
0.0
 10
302.453161212
 20
150.383299111
 30
0.0
  0
SPLINE
  5
4B3
100
AcDbEntity
  8
0
100
AcDbSpline
 62
7
  6
CONTINUOUS
 70
0
 71
3
 72
11
 73
7
 74
0
 42
0.0000001
 43
0.0000001
 44
0.0000000001
 40
0.0
 40
0.0
 40
0.0
 40
0.0
 40
0.2441272821
 40
0.4906828189
 40
0.7431250567
 40
1.0
 40
1.0
 40
1.0
 40
1.0
 10
303.1822563233
 20
155.5427779132
 30
0.0
 10
303.0908939858
 20
155.519541056
 30
0.0
 10
302.8917287686
 20
155.5196490335
 30
0.0
 10
302.6312735958
 20
155.665836966
 30
0.0
 10
302.4659308564
 20
155.9192049478
 30
0.0
 10
302.4423747416
 20
156.1226229352
 30
0.0
 10
302.453161212
 20
156.2212283348
 30
0.0
  0
SPLINE
  5
4B4
100
AcDbEntity
  8
KONSTRUKTIONSELEMENTE
100
AcDbSpline
 62
7
  6
CONTINUOUS
 70
0
 71
3
 72
11
 73
7
 74
0
 42
0.0000001
 43
0.0000001
 44
0.0000000001
 40
0.0
 40
0.0
 40
0.0
 40
0.0
 40
0.2459351458
 40
0.4942287544
 40
0.7459004102
 40
1.0
 40
1.0
 40
1.0
 40
1.0
 10
292.4665299929
 20
153.0801059206
 30
0.0
 10
292.4665299929
 20
152.980299619
 30
0.0
 10
292.5083474911
 20
152.7774174771
 30
0.0
 10
292.6861341449
 20
152.5228076396
 30
0.0
 10
292.9498036759
 20
152.3532583905
 30
0.0
 10
293.1572103668
 20
152.3138777099
 30
0.0
 10
293.2603299929
 20
152.3138777099
 30
0.0
  0
SPLINE
  5
4B5
100
AcDbEntity
  8
AUSFORMSCHRAEGEN
100
AcDbSpline
 62
7
  6
CONTINUOUS
 70
0
 71
3
 72
9
 73
5
 74
0
 42
0.0000001
 43
0.0000001
 44
0.0000000001
 40
0.0
 40
0.0
 40
0.0
 40
0.0
 40
0.534342492
 40
1.0
 40
1.0
 40
1.0
 40
1.0
 10
284.3241274383
 20
152.9832442309
 30
0.0
 10
284.3241274383
 20
152.1188241791
 30
0.0
 10
284.3410192954
 20
150.5010516144
 30
0.0
 10
284.3995481826
 20
148.8840565276
 30
0.0
 10
284.4420891816
 20
148.1319521546
 30
0.0
  0
SPLINE
  5
4B6
100
AcDbEntity
  8
0
100
AcDbSpline
 62
7
  6
CONTINUOUS
 70
0
 71
3
 72
9
 73
5
 74
0
 42
0.0000001
 43
0.0000001
 44
0.0000000001
 40
0.0
 40
0.0
 40
0.0
 40
0.0
 40
0.5042496877
 40
1.0
 40
1.0
 40
1.0
 40
1.0
 10
302.8383436042
 20
137.094913606
 30
0.0
 10
302.712754629
 20
137.094913606
 30
0.0
 10
302.4584492791
 20
137.1641782112
 30
0.0
 10
302.2802948551
 20
137.359930627
 30
0.0
 10
302.226585848
 20
137.471109334
 30
0.0
  0
SPLINE
  5
4B7
100
AcDbEntity
  8
0
100
AcDbSpline
 62
7
  6
CONTINUOUS
 70
0
 71
3
 72
11
 73
7
 74
0
 42
0.0000001
 43
0.0000001
 44
0.0000000001
 40
0.0
 40
0.0
 40
0.0
 40
0.0
 40
0.2467539178
 40
0.4959172008
 40
0.7472907413
 40
1.0
 40
1.0
 40
1.0
 40
1.0
 10
300.4398380262
 20
141.1697126647
 30
0.0
 10
300.2958560274
 20
141.4677582501
 30
0.0
 10
299.9166875378
 20
142.0275599325
 30
0.0
 10
299.1334312642
 20
142.6735657758
 30
0.0
 10
298.195968446
 20
143.0829460655
 30
0.0
 10
297.5161201178
 20
143.1760898808
 30
0.0
 10
297.1771299929
 20
143.1760898808
 30
0.0
  0
SPLINE
  5
4B8
100
AcDbEntity
  8
KONSTRUKTIONSELEMENTE
100
AcDbSpline
 62
7
  6
CONTINUOUS
 70
0
 71
3
 72
11
 73
7
 74
0
 42
0.0000001
 43
0.0000001
 44
0.0000000001
 40
0.0
 40
0.0
 40
0.0
 40
0.0
 40
0.2467539178
 40
0.4959172008
 40
0.7472907413
 40
1.0
 40
1.0
 40
1.0
 40
1.0
 10
290.3144219596
 20
141.1697126647
 30
0.0
 10
290.4584039584
 20
141.4677582501
 30
0.0
 10
290.837572448
 20
142.0275599325
 30
0.0
 10
291.6208287216
 20
142.6735657758
 30
0.0
 10
292.5582915398
 20
143.0829460655
 30
0.0
 10
293.238139868
 20
143.1760898808
 30
0.0
 10
293.5771299929
 20
143.1760898808
 30
0.0
  0
SPLINE
  5
4B9
100
AcDbEntity
  8
KONSTRUKTIONSELEMENTE
100
AcDbSpline
 62
7
  6
CONTINUOUS
 70
0
 71
3
 72
9
 73
5
 74
0
 42
0.0000001
 43
0.0000001
 44
0.0000000001
 40
0.0
 40
0.0
 40
0.0
 40
0.0
 40
0.5042496877
 40
1.0
 40
1.0
 40
1.0
 40
1.0
 10
287.9159163816
 20
137.094913606
 30
0.0
 10
288.0415053568
 20
137.094913606
 30
0.0
 10
288.2958107067
 20
137.1641782112
 30
0.0
 10
288.4739651307
 20
137.359930627
 30
0.0
 10
288.5276741378
 20
137.471109334
 30
0.0
  0
SPLINE
  5
4BA
100
AcDbEntity
  8
KONSTRUKTIONSELEMENTE
100
AcDbSpline
 62
7
  6
CONTINUOUS
 70
0
 71
3
 72
11
 73
7
 74
0
 42
0.0000001
 43
0.0000001
 44
0.0000000001
 40
0.0
 40
0.0
 40
0.0
 40
0.0
 40
0.2536507169
 40
0.5053346771
 40
0.7537641365
 40
1.0
 40
1.0
 40
1.0
 40
1.0
 10
298.8169299929
 20
158.6991127985
 30
0.0
 10
298.7532050726
 20
158.6991127985
 30
0.0
 10
298.6251177461
 20
158.6765701112
 30
0.0
 10
298.4582117389
 20
158.5790835054
 30
0.0
 10
298.3373625569
 20
158.4303504526
 30
0.0
 10
298.2987504571
 20
158.3085967776
 30
0.0
 10
298.291305542
 20
158.2471843187
 30
0.0
  0
SPLINE
  5
4BB
100
AcDbEntity
  8
0
100
AcDbSpline
 62
7
  6
CONTINUOUS
 70
0
 71
3
 72
9
 73
5
 74
0
 42
0.0000001
 43
0.0000001
 44
0.0000000001
 40
0.0
 40
0.0
 40
0.0
 40
0.0
 40
0.5042496877
 40
1.0
 40
1.0
 40
1.0
 40
1.0
 10
302.8383436042
 20
136.7422006798
 30
0.0
 10
302.712754629
 20
136.7422006798
 30
0.0
 10
302.4584492791
 20
136.8114652849
 30
0.0
 10
302.2802948551
 20
137.0072177008
 30
0.0
 10
302.226585848
 20
137.1183964078
 30
0.0
  0
SPLINE
  5
4BC
100
AcDbEntity
  8
0
100
AcDbSpline
 62
7
  6
CONTINUOUS
 70
0
 71
3
 72
11
 73
7
 74
0
 42
0.0000001
 43
0.0000001
 44
0.0000000001
 40
0.0
 40
0.0
 40
0.0
 40
0.0
 40
0.2467375386
 40
0.4959168483
 40
0.7473075012
 40
1.0
 40
1.0
 40
1.0
 40
1.0
 10
300.4398380262
 20
140.8169997385
 30
0.0
 10
300.2958652877
 20
141.1150261549
 30
0.0
 10
299.9166777339
 20
141.674803406
 30
0.0
 10
299.1334796452
 20
142.3209313576
 30
0.0
 10
298.1959340797
 20
142.730204391
 30
0.0
 10
297.5160983349
 20
142.8233769546
 30
0.0
 10
297.1771299929
 20
142.8233769546
 30
0.0
  0
SPLINE
  5
4BD
100
AcDbEntity
  8
0
100
AcDbSpline
 62
7
  6
CONTINUOUS
 70
0
 71
3
 72
9
 73
5
 74
0
 42
0.0000001
 43
0.0000001
 44
0.0000000001
 40
0.0
 40
0.0
 40
0.0
 40
0.0
 40
0.534342492
 40
1.0
 40
1.0
 40
1.0
 40
1.0
 10
306.4301325475
 20
152.9832442309
 30
0.0
 10
306.4301325475
 20
152.1188241791
 30
0.0
 10
306.4132406905
 20
150.5010516144
 30
0.0
 10
306.3547118032
 20
148.8840565276
 30
0.0
 10
306.3121708042
 20
148.1319521546
 30
0.0
  0
SPLINE
  5
4BE
100
AcDbEntity
  8
BEZUGSACHSEN
100
AcDbSpline
 62
7
  6
CONTINUOUS
 70
0
 71
3
 72
11
 73
7
 74
0
 42
0.0000001
 43
0.0000001
 44
0.0000000001
 40
0.0
 40
0.0
 40
0.0
 40
0.0
 40
0.2504117845
 40
0.4992654602
 40
0.7485351046
 40
1.0
 40
1.0
 40
1.0
 40
1.0
 10
285.8764254743
 20
156.9947879575
 30
0.0
 10
285.9653837214
 20
156.9876391766
 30
0.0
 10
286.1485618456
 20
157.0128435998
 30
0.0
 10
286.3778356188
 20
157.1659987417
 30
0.0
 10
286.5179583722
 20
157.403840588
 30
0.0
 10
286.5332633304
 20
157.588587801
 30
0.0
 10
286.5213448622
 20
157.6774121046
 30
0.0
  0
SPLINE
  5
4BF
100
AcDbEntity
  8
0
100
AcDbSpline
 62
7
  6
CONTINUOUS
 70
0
 71
3
 72
9
 73
5
 74
0
 42
0.0000001
 43
0.0000001
 44
0.0000000001
 40
0.0
 40
0.0
 40
0.0
 40
0.0
 40
0.5064804516
 40
1.0
 40
1.0
 40
1.0
 40
1.0
 10
302.4159092603
 20
153.1919934456
 30
0.0
 10
302.4159092603
 20
153.2599983526
 30
0.0
 10
302.4384156404
 20
153.3954654362
 30
0.0
 10
302.5076093545
 20
153.5145653307
 30
0.0
 10
302.5509950442
 20
153.564652116
 30
0.0
  0
SPLINE
  5
4C0
100
AcDbEntity
  8
0
100
AcDbSpline
 62
7
  6
CONTINUOUS
 70
0
 71
3
 72
16
 73
12
 74
0
 42
0.0000001
 43
0.0000001
 44
0.0000000001
 40
0.0
 40
0.0
 40
0.0
 40
0.0
 40
0.1241411803
 40
0.2475954848
 40
0.3711204662
 40
0.4954547229
 40
0.6209052935
 40
0.7472084064
 40
0.810718533
 40
0.8741952772
 40
1.0
 40
1.0
 40
1.0
 40
1.0
 10
305.4539739812
 20
154.4235396409
 30
0.0
 10
305.4461569939
 20
154.3456863145
 30
0.0
 10
305.4000766887
 20
154.1917308293
 30
0.0
 10
305.248731121
 20
154.0057669771
 30
0.0
 10
305.0373777725
 20
153.8916824
 30
0.0
 10
304.7973643979
 20
153.8668503019
 30
0.0
 10
304.5641326661
 20
153.9342832804
 30
0.0
 10
304.4033222081
 20
154.0595975922
 30
0.0
 10
304.3092882646
 20
154.1896615068
 30
0.0
 10
304.2412734428
 20
154.3345092846
 30
0.0
 10
304.2224537051
 20
154.4561833451
 30
0.0
 10
304.2256009516
 20
154.5354141542
 30
0.0
  0
SPLINE
  5
4C1
100
AcDbEntity
  8
0
100
AcDbSpline
 62
7
  6
CONTINUOUS
 70
0
 71
3
 72
11
 73
7
 74
0
 42
0.0000001
 43
0.0000001
 44
0.0000000001
 40
0.0
 40
0.0
 40
0.0
 40
0.0
 40
0.250883234
 40
0.5002076398
 40
0.7494031694
 40
1.0
 40
1.0
 40
1.0
 40
1.0
 10
304.2256009516
 20
154.5354141542
 30
0.0
 10
304.228826469
 20
154.616615408
 30
0.0
 10
304.2680579784
 20
154.7791496043
 30
0.0
 10
304.4177976667
 20
154.9785260224
 30
0.0
 10
304.6340808545
 20
155.1024046661
 30
0.0
 10
304.8001284378
 20
155.1211353401
 30
0.0
 10
304.8810002588
 20
155.1141548912
 30
0.0
  0
SPLINE
  5
4C2
100
AcDbEntity
  8
BEZUGSACHSEN
100
AcDbSpline
 62
7
  6
CONTINUOUS
 70
0
 71
3
 72
11
 73
7
 74
0
 42
0.0000001
 43
0.0000001
 44
0.0000000001
 40
0.0
 40
0.0
 40
0.0
 40
0.0
 40
0.2441272821
 40
0.4906828189
 40
0.7431250567
 40
1.0
 40
1.0
 40
1.0
 40
1.0
 10
287.5720036625
 20
155.5427779132
 30
0.0
 10
287.663366
 20
155.519541056
 30
0.0
 10
287.8625312173
 20
155.5196490335
 30
0.0
 10
288.12298639
 20
155.665836966
 30
0.0
 10
288.2883291294
 20
155.9192049478
 30
0.0
 10
288.3118852442
 20
156.1226229352
 30
0.0
 10
288.3010987738
 20
156.2212283348
 30
0.0
  0
SPLINE
  5
4C3
100
AcDbEntity
  8
0
100
AcDbSpline
 62
7
  6
CONTINUOUS
 70
0
 71
3
 72
11
 73
7
 74
0
 42
0.0000001
 43
0.0000001
 44
0.0000000001
 40
0.0
 40
0.0
 40
0.0
 40
0.0
 40
0.2566874589
 40
0.5085931521
 40
0.7552012851
 40
1.0
 40
1.0
 40
1.0
 40
1.0
 10
302.453161212
 20
156.2212283348
 30
0.0
 10
302.4632102159
 20
156.3130921246
 30
0.0
 10
302.5225367719
 20
156.4933029851
 30
0.0
 10
302.7146082749
 20
156.6979722969
 30
0.0
 10
302.9735600387
 20
156.796759406
 30
0.0
 10
303.1571736572
 20
156.7760869368
 30
0.0
 10
303.2401100558
 20
156.7462751989
 30
0.0
  0
SPLINE
  5
4C4
100
AcDbEntity
  8
0
100
AcDbSpline
 62
7
  6
CONTINUOUS
 70
0
 71
3
 72
9
 73
5
 74
0
 42
0.0000001
 43
0.0000001
 44
0.0000000001
 40
0.0
 40
0.0
 40
0.0
 40
0.0
 40
0.5006397836
 40
1.0
 40
1.0
 40
1.0
 40
1.0
 10
304.2256009516
 20
151.6164495423
 30
0.0
 10
304.2227113258
 20
151.6843442763
 30
0.0
 10
304.2431034216
 20
151.8225588459
 30
0.0
 10
304.3158844769
 20
151.9418772284
 30
0.0
 10
304.3615581847
 20
151.9919609706
 30
0.0
  0
SPLINE
  5
4C5
100
AcDbEntity
  8
0
100
AcDbSpline
 62
7
  6
CONTINUOUS
 70
0
 71
3
 72
9
 73
5
 74
0
 42
0.0000001
 43
0.0000001
 44
0.0000000001
 40
0.0
 40
0.0
 40
0.0
 40
0.0
 40
0.5096502798
 40
1.0
 40
1.0
 40
1.0
 40
1.0
 10
302.453161212
 20
150.383299111
 30
0.0
 10
302.4452991618
 20
150.4460920812
 30
0.0
 10
302.4527676969
 20
150.5740455561
 30
0.0
 10
302.5147766532
 20
150.6870724519
 30
0.0
 10
302.5551058954
 20
150.7326876006
 30
0.0
  0
SPLINE
  5
4C6
100
AcDbEntity
  8
0
100
AcDbSpline
 62
7
  6
CONTINUOUS
 70
0
 71
3
 72
9
 73
5
 74
0
 42
0.0000001
 43
0.0000001
 44
0.0000000001
 40
0.0
 40
0.0
 40
0.0
 40
0.0
 40
0.5023429624
 40
1.0
 40
1.0
 40
1.0
 40
1.0
 10
304.2329151236
 20
148.9205182689
 30
0.0
 10
304.2259939672
 20
148.9618319211
 30
0.0
 10
304.2250942209
 20
149.046903694
 30
0.0
 10
304.2525469363
 20
149.1275462369
 30
0.0
 10
304.2722067623
 20
149.1640924768
 30
0.0
  0
SPLINE
  5
4C7
100
AcDbEntity
  8
0
100
AcDbSpline
 62
7
  6
CONTINUOUS
 70
0
 71
3
 72
9
 73
5
 74
0
 42
0.0000001
 43
0.0000001
 44
0.0000000001
 40
0.0
 40
0.0
 40
0.0
 40
0.0
 40
0.5292808723
 40
1.0
 40
1.0
 40
1.0
 40
1.0
 10
304.5688332975
 20
148.5165831354
 30
0.0
 10
304.483324581
 20
148.5585963554
 30
0.0
 10
304.3337008149
 20
148.6681822533
 30
0.0
 10
304.2469147992
 20
148.8369516368
 30
0.0
 10
304.2329151236
 20
148.9205182689
 30
0.0
  0
SPLINE
  5
4C8
100
AcDbEntity
  8
0
100
AcDbSpline
 62
7
  6
CONTINUOUS
 70
0
 71
3
 72
15
 73
11
 74
0
 42
0.0000001
 43
0.0000001
 44
0.0000000001
 40
0.0
 40
0.0
 40
0.0
 40
0.0
 40
0.126674178
 40
0.2521063208
 40
0.376394775
 40
0.5000000132
 40
0.6236051966
 40
0.7478937134
 40
0.8733258983
 40
1.0
 40
1.0
 40
1.0
 40
1.0
 10
304.5688332975
 20
158.1544475128
 30
0.0
 10
304.0820051048
 20
157.9607040898
 30
0.0
 10
303.1627765449
 20
157.4327471496
 30
0.0
 10
302.0791973447
 20
156.2845345015
 30
0.0
 10
301.3860727541
 20
154.8779938118
 30
0.0
 10
301.1479140225
 20
153.3355153957
 30
0.0
 10
301.3860727689
 20
151.7930367353
 30
0.0
 10
302.0791975398
 20
150.3864958707
 30
0.0
 10
303.1627769468
 20
149.2382832431
 30
0.0
 10
304.082005398
 20
148.7103264417
 30
0.0
 10
304.5688332975
 20
148.5165831354
 30
0.0
  0
SPLINE
  5
4C9
100
AcDbEntity
  8
0
100
AcDbSpline
 62
7
  6
CONTINUOUS
 70
0
 71
3
 72
9
 73
5
 74
0
 42
0.0000001
 43
0.0000001
 44
0.0000000001
 40
0.0
 40
0.0
 40
0.0
 40
0.0
 40
0.4993352125
 40
1.0
 40
1.0
 40
1.0
 40
1.0
 10
304.2329151236
 20
157.6774121046
 30
0.0
 10
304.2462073241
 20
157.7764743693
 30
0.0
 10
304.3223291436
 20
157.9711082445
 30
0.0
 10
304.4799231022
 20
158.1082061514
 30
0.0
 10
304.5688332975
 20
158.1544475128
 30
0.0
  0
SPLINE
  5
4CA
100
AcDbEntity
  8
0
100
AcDbSpline
 62
7
  6
CONTINUOUS
 70
0
 71
3
 72
11
 73
7
 74
0
 42
0.0000001
 43
0.0000001
 44
0.0000000001
 40
0.0
 40
0.0
 40
0.0
 40
0.0
 40
0.251518694
 40
0.5007385747
 40
0.7495439391
 40
1.0
 40
1.0
 40
1.0
 40
1.0
 10
304.7022468886
 20
158.205550534
 30
0.0
 10
304.790948845
 20
158.2283450302
 30
0.0
 10
304.9805636623
 20
158.2342613272
 30
0.0
 10
305.2374758309
 20
158.1169714693
 30
0.0
 10
305.4156457674
 20
157.8982758882
 30
0.0
 10
305.4571916593
 20
157.7136428281
 30
0.0
 10
305.4571290724
 20
157.6224457958
 30
0.0
  0
SPLINE
  5
4CB
100
AcDbEntity
  8
0
100
AcDbSpline
 62
7
  6
CONTINUOUS
 70
0
 71
3
 72
12
 73
8
 74
0
 42
0.0000001
 43
0.0000001
 44
0.0000000001
 40
0.0
 40
0.0
 40
0.0
 40
0.0
 40
0.1103204734
 40
0.221398484
 40
0.4558072906
 40
0.7182774155
 40
1.0
 40
1.0
 40
1.0
 40
1.0
 10
305.4571290724
 20
148.86555196
 30
0.0
 10
305.4571603686
 20
148.8295160512
 30
0.0
 10
305.4467382186
 20
148.7567350832
 30
0.0
 10
305.3832509434
 20
148.6198814877
 30
0.0
 10
305.2241188951
 20
148.4854179023
 30
0.0
 10
304.971700848
 20
148.4208641827
 30
0.0
 10
304.7907833757
 20
148.4403860859
 30
0.0
 10
304.7022468886
 20
148.4654801142
 30
0.0
  0
SPLINE
  5
4CC
100
AcDbEntity
  8
BEZUGSACHSEN
100
AcDbSpline
 62
7
  6
CONTINUOUS
 70
0
 71
3
 72
16
 73
12
 74
0
 42
0.0000001
 43
0.0000001
 44
0.0000000001
 40
0.0
 40
0.0
 40
0.0
 40
0.0
 40
0.1241411803
 40
0.2475954848
 40
0.3711204662
 40
0.4954547229
 40
0.6209052935
 40
0.7472084064
 40
0.810718533
 40
0.8741952772
 40
1.0
 40
1.0
 40
1.0
 40
1.0
 10
285.3002860046
 20
154.4235396409
 30
0.0
 10
285.3081029919
 20
154.3456863145
 30
0.0
 10
285.3541832971
 20
154.1917308293
 30
0.0
 10
285.5055288649
 20
154.0057669771
 30
0.0
 10
285.7168822133
 20
153.8916824
 30
0.0
 10
285.9568955879
 20
153.8668503019
 30
0.0
 10
286.1901273197
 20
153.9342832804
 30
0.0
 10
286.3509377778
 20
154.0595975922
 30
0.0
 10
286.4449717212
 20
154.1896615068
 30
0.0
 10
286.512986543
 20
154.3345092846
 30
0.0
 10
286.5318062807
 20
154.4561833451
 30
0.0
 10
286.5286590343
 20
154.5354141542
 30
0.0
  0
SPLINE
  5
4CD
100
AcDbEntity
  8
KONSTRUKTIONSELEMENTE
100
AcDbSpline
 62
7
  6
CONTINUOUS
 70
0
 71
3
 72
11
 73
7
 74
0
 42
0.0000001
 43
0.0000001
 44
0.0000000001
 40
0.0
 40
0.0
 40
0.0
 40
0.0
 40
0.2456557084
 40
0.4942210669
 40
0.7461938373
 40
1.0
 40
1.0
 40
1.0
 40
1.0
 10
298.2877299929
 20
158.247549763
 30
0.0
 10
298.2877299929
 20
158.3140027017
 30
0.0
 10
298.3159418568
 20
158.4490872391
 30
0.0
 10
298.4338848015
 20
158.6193420468
 30
0.0
 10
298.6101626025
 20
158.7317808333
 30
0.0
 10
298.7482722546
 20
158.7583685701
 30
0.0
 10
298.8169299929
 20
158.7583685701
 30
0.0
  0
SPLINE
  5
4CE
100
AcDbEntity
  8
KONSTRUKTIONSELEMENTE
100
AcDbSpline
 62
7
  6
CONTINUOUS
 70
0
 71
3
 72
11
 73
7
 74
0
 42
0.0000001
 43
0.0000001
 44
0.0000000001
 40
0.0
 40
0.0
 40
0.0
 40
0.0
 40
0.253364101
 40
0.5050570804
 40
0.7536237809
 40
1.0
 40
1.0
 40
1.0
 40
1.0
 10
296.1180099929
 20
152.3138777099
 30
0.0
 10
296.06395505
 20
152.3138777099
 30
0.0
 10
295.9553558219
 20
152.2958638412
 30
0.0
 10
295.811483658
 20
152.2177133422
 30
0.0
 10
295.7026103165
 20
152.0972543952
 30
0.0
 10
295.6621039766
 20
151.9969333125
 30
0.0
 10
295.6512932293
 20
151.9454929499
 30
0.0
  0
SPLINE
  5
4CF
100
AcDbEntity
  8
KONSTRUKTIONSELEMENTE
100
AcDbSpline
 62
7
  6
CONTINUOUS
 70
0
 71
3
 72
11
 73
7
 74
0
 42
0.0000001
 43
0.0000001
 44
0.0000000001
 40
0.0
 40
0.0
 40
0.0
 40
0.0
 40
0.2540679248
 40
0.5057722477
 40
0.7540955301
 40
1.0
 40
1.0
 40
1.0
 40
1.0
 10
297.4939299929
 20
152.3731334815
 30
0.0
 10
297.5970375907
 20
152.3731334815
 30
0.0
 10
297.8044312169
 20
152.41253412
 30
0.0
 10
298.0681764852
 20
152.5820112569
 30
0.0
 10
298.2458936826
 20
152.8366990063
 30
0.0
 10
298.2877299929
 20
153.039567044
 30
0.0
 10
298.2877299929
 20
153.1393616922
 30
0.0
  0
SPLINE
  5
4D0
100
AcDbEntity
  8
KONSTRUKTIONSELEMENTE
100
AcDbSpline
 62
7
  6
CONTINUOUS
 70
0
 71
3
 72
11
 73
7
 74
0
 42
0.0000001
 43
0.0000001
 44
0.0000000001
 40
0.0
 40
0.0
 40
0.0
 40
0.0
 40
0.2456557084
 40
0.4942210669
 40
0.7461938373
 40
1.0
 40
1.0
 40
1.0
 40
1.0
 10
295.6417299929
 20
151.9133965552
 30
0.0
 10
295.6417299929
 20
151.9732041999
 30
0.0
 10
295.6671206704
 20
152.0947802836
 30
0.0
 10
295.7732693207
 20
152.2480096106
 30
0.0
 10
295.9319193415
 20
152.3492045184
 30
0.0
 10
296.0562180284
 20
152.3731334815
 30
0.0
 10
296.1180099929
 20
152.3731334815
 30
0.0
  0
SPLINE
  5
4D1
100
AcDbEntity
  8
KONSTRUKTIONSELEMENTE
100
AcDbSpline
 62
7
  6
CONTINUOUS
 70
0
 71
3
 72
11
 73
7
 74
0
 42
0.0000001
 43
0.0000001
 44
0.0000000001
 40
0.0
 40
0.0
 40
0.0
 40
0.0
 40
0.2540995898
 40
0.5057712456
 40
0.7540648542
 40
1.0
 40
1.0
 40
1.0
 40
1.0
 10
297.4939299929
 20
152.3138777099
 30
0.0
 10
297.597049619
 20
152.3138777099
 30
0.0
 10
297.8044563099
 20
152.3532583905
 30
0.0
 10
298.0681258409
 20
152.5228076396
 30
0.0
 10
298.2459124948
 20
152.7774174771
 30
0.0
 10
298.2877299929
 20
152.980299619
 30
0.0
 10
298.2877299929
 20
153.0801059206
 30
0.0
  0
SPLINE
  5
4D2
100
AcDbEntity
  8
KONSTRUKTIONSELEMENTE
100
AcDbSpline
 62
7
  6
CONTINUOUS
 70
0
 71
3
 72
11
 73
7
 74
0
 42
0.0000001
 43
0.0000001
 44
0.0000000001
 40
0.0
 40
0.0
 40
0.0
 40
0.0
 40
0.2538061627
 40
0.5057789331
 40
0.7543442916
 40
1.0
 40
1.0
 40
1.0
 40
1.0
 10
294.6362499929
 20
152.3731334815
 30
0.0
 10
294.6980419574
 20
152.3731334815
 30
0.0
 10
294.8223406443
 20
152.3492045184
 30
0.0
 10
294.9809906652
 20
152.2480096106
 30
0.0
 10
295.0871393154
 20
152.0947802836
 30
0.0
 10
295.1125299929
 20
151.9732041999
 30
0.0
 10
295.1125299929
 20
151.9133965552
 30
0.0
  0
SPLINE
  5
4D3
100
AcDbEntity
  8
KONSTRUKTIONSELEMENTE
100
AcDbSpline
 62
7
  6
CONTINUOUS
 70
0
 71
3
 72
11
 73
7
 74
0
 42
0.0000001
 43
0.0000001
 44
0.0000000001
 40
0.0
 40
0.0
 40
0.0
 40
0.0
 40
0.2538061627
 40
0.5057789331
 40
0.7543442916
 40
1.0
 40
1.0
 40
1.0
 40
1.0
 10
291.9373299929
 20
158.7583685701
 30
0.0
 10
292.0059877312
 20
158.7583685701
 30
0.0
 10
292.1440973833
 20
158.7317808333
 30
0.0
 10
292.3203751843
 20
158.6193420468
 30
0.0
 10
292.438318129
 20
158.4490872391
 30
0.0
 10
292.4665299929
 20
158.3140027017
 30
0.0
 10
292.4665299929
 20
158.247549763
 30
0.0
  0
SPLINE
  5
4D4
100
AcDbEntity
  8
0
100
AcDbSpline
 62
7
  6
CONTINUOUS
 70
0
 71
3
 72
16
 73
12
 74
0
 42
0.0000001
 43
0.0000001
 44
0.0000000001
 40
0.0
 40
0.0
 40
0.0
 40
0.0
 40
0.1190034135
 40
0.2385247967
 40
0.3616366053
 40
0.4892036554
 40
0.5544565716
 40
0.6200610162
 40
0.7502132561
 40
0.8772943117
 40
1.0
 40
1.0
 40
1.0
 40
1.0
 10
305.4567263989
 20
151.5450996317
 30
0.0
 10
305.4541288643
 20
151.4729290861
 30
0.0
 10
305.4184745212
 20
151.3274005695
 30
0.0
 10
305.278634081
 20
151.1501768869
 30
0.0
 10
305.0759863326
 20
151.0404179239
 30
0.0
 10
304.8809884249
 20
151.0174197375
 30
0.0
 10
304.7251988237
 20
151.0405384483
 30
0.0
 10
304.5742336852
 20
151.0907192411
 30
0.0
 10
304.4068593824
 20
151.2007957114
 30
0.0
 10
304.2674516479
 20
151.3905705214
 30
0.0
 10
304.2287673015
 20
151.54205289
 30
0.0
 10
304.2256009516
 20
151.6164495423
 30
0.0
  0
SPLINE
  5
4D5
100
AcDbEntity
  8
0
100
AcDbSpline
 62
7
  6
CONTINUOUS
 70
0
 71
3
 72
12
 73
8
 74
0
 42
0.0000001
 43
0.0000001
 44
0.0000000001
 40
0.0
 40
0.0
 40
0.0
 40
0.0
 40
0.1192751949
 40
0.2408288399
 40
0.4904074205
 40
0.7469728319
 40
1.0
 40
1.0
 40
1.0
 40
1.0
 10
303.3151748182
 20
152.5918142472
 30
0.0
 10
303.2701392614
 20
152.568668508
 30
0.0
 10
303.1718998902
 20
152.534915099
 30
0.0
 10
302.9618103805
 20
152.5235307612
 30
0.0
 10
302.6992206683
 20
152.6184989094
 30
0.0
 10
302.4743756938
 20
152.8653230436
 30
0.0
 10
302.4159092603
 20
153.0845772378
 30
0.0
 10
302.4159092603
 20
153.1919934456
 30
0.0
  0
SPLINE
  5
4D6
100
AcDbEntity
  8
BEZUGSACHSEN
100
AcDbSpline
 62
7
  6
CONTINUOUS
 70
0
 71
3
 72
12
 73
8
 74
0
 42
0.0000001
 43
0.0000001
 44
0.0000000001
 40
0.0
 40
0.0
 40
0.0
 40
0.0
 40
0.1192751949
 40
0.2408288399
 40
0.4904074205
 40
0.7469728319
 40
1.0
 40
1.0
 40
1.0
 40
1.0
 10
287.4390851676
 20
152.5918142472
 30
0.0
 10
287.4841207244
 20
152.568668508
 30
0.0
 10
287.5823600957
 20
152.534915099
 30
0.0
 10
287.7924496053
 20
152.5235307612
 30
0.0
 10
288.0550393175
 20
152.6184989094
 30
0.0
 10
288.279884292
 20
152.8653230436
 30
0.0
 10
288.3383507255
 20
153.0845772378
 30
0.0
 10
288.3383507255
 20
153.1919934456
 30
0.0
  0
SPLINE
  5
4D7
100
AcDbEntity
  8
KONSTRUKTIONSELEMENTE
100
AcDbSpline
 62
7
  6
CONTINUOUS
 70
0
 71
3
 72
11
 73
7
 74
0
 42
0.0000001
 43
0.0000001
 44
0.0000000001
 40
0.0
 40
0.0
 40
0.0
 40
0.0
 40
0.2463762191
 40
0.4949429196
 40
0.746635899
 40
1.0
 40
1.0
 40
1.0
 40
1.0
 10
295.1029667565
 20
151.9454929499
 30
0.0
 10
295.0921560092
 20
151.9969333125
 30
0.0
 10
295.0516496694
 20
152.0972543952
 30
0.0
 10
294.9427763278
 20
152.2177133422
 30
0.0
 10
294.7989041639
 20
152.2958638412
 30
0.0
 10
294.6903049358
 20
152.3138777099
 30
0.0
 10
294.6362499929
 20
152.3138777099
 30
0.0
  0
SPLINE
  5
4D8
100
AcDbEntity
  8
KONSTRUKTIONSELEMENTE
100
AcDbSpline
 62
7
  6
CONTINUOUS
 70
0
 71
3
 72
11
 73
7
 74
0
 42
0.0000001
 43
0.0000001
 44
0.0000000001
 40
0.0
 40
0.0
 40
0.0
 40
0.0
 40
0.2463762191
 40
0.4949429196
 40
0.746635899
 40
1.0
 40
1.0
 40
1.0
 40
1.0
 10
292.4559041746
 20
158.2897963985
 30
0.0
 10
292.4438922333
 20
158.3469523569
 30
0.0
 10
292.398885189
 20
158.4584202265
 30
0.0
 10
292.2779148095
 20
158.592263501
 30
0.0
 10
292.1180568496
 20
158.6790973888
 30
0.0
 10
291.9973910405
 20
158.6991127985
 30
0.0
 10
291.9373299929
 20
158.6991127985
 30
0.0
  0
SPLINE
  5
4D9
100
AcDbEntity
  8
0
100
AcDbSpline
 62
7
  6
CONTINUOUS
 70
0
 71
3
 72
11
 73
7
 74
0
 42
0.0000001
 43
0.0000001
 44
0.0000000001
 40
0.0
 40
0.0
 40
0.0
 40
0.0
 40
0.2504117845
 40
0.4992654602
 40
0.7485351046
 40
1.0
 40
1.0
 40
1.0
 40
1.0
 10
304.8778345115
 20
156.9947879575
 30
0.0
 10
304.7888762645
 20
156.9876391766
 30
0.0
 10
304.6056981403
 20
157.0128435998
 30
0.0
 10
304.376424367
 20
157.1659987417
 30
0.0
 10
304.2363016136
 20
157.403840588
 30
0.0
 10
304.2209966554
 20
157.588587801
 30
0.0
 10
304.2329151236
 20
157.6774121046
 30
0.0
  0
SPLINE
  5
4DA
100
AcDbEntity
  8
0
100
AcDbSpline
 62
7
  6
CONTINUOUS
 70
0
 71
3
 72
9
 73
5
 74
0
 42
0.0000001
 43
0.0000001
 44
0.0000000001
 40
0.0
 40
0.0
 40
0.0
 40
0.0
 40
0.2525905375
 40
1.0
 40
1.0
 40
1.0
 40
1.0
 10
306.3771268787
 20
181.0533198805
 30
0.0
 10
306.3771175104
 20
180.9890399882
 30
0.0
 10
306.3769138953
 20
180.7345574729
 30
0.0
 10
306.3769132643
 20
180.4800747947
 30
0.0
 10
306.377049336
 20
180.2898721512
 30
0.0
  0
SPLINE
  5
4DB
100
AcDbEntity
  8
0
100
AcDbSpline
 62
7
  6
CONTINUOUS
 70
0
 71
3
 72
9
 73
5
 74
0
 42
0.0000001
 43
0.0000001
 44
0.0000000001
 40
0.0
 40
0.0
 40
0.0
 40
0.0
 40
0.2526006132
 40
1.0
 40
1.0
 40
1.0
 40
1.0
 10
284.3771332467
 20
181.0523648503
 30
0.0
 10
284.3771429414
 20
180.9881533868
 30
0.0
 10
284.37734743
 20
180.7339519201
 30
0.0
 10
284.3773468635
 20
180.4797502892
 30
0.0
 10
284.3772108717
 20
180.2897602648
 30
0.0
  0
SPLINE
  5
4DC
100
AcDbEntity
  8
0
100
AcDbSpline
 62
7
  6
CONTINUOUS
 70
0
 71
3
 72
9
 73
5
 74
0
 42
0.0000001
 43
0.0000001
 44
0.0000000001
 40
0.0
 40
0.0
 40
0.0
 40
0.0
 40
0.5003291906
 40
1.0
 40
1.0
 40
1.0
 40
1.0
 10
300.357141988
 20
101.4359967976
 30
0.0
 10
300.3580495201
 20
101.4592955508
 30
0.0
 10
300.3619141379
 20
101.5057554885
 30
0.0
 10
300.3628862915
 20
101.5523856217
 30
0.0
 10
300.3626673615
 20
101.575670332
 30
0.0
  0
LINE
  5
4DD
100
AcDbEntity
  8
0
100
AcDbLine
 62
7
  6
CONTINUOUS
 10
300.3439300896
 20
101.3132864558
 11
300.348362496
 21
101.3541787773
  0
LINE
  5
4DE
100
AcDbEntity
  8
0
100
AcDbLine
 62
7
  6
CONTINUOUS
 10
300.348362496
 20
101.3541787773
 11
300.357141988
 21
101.4359967976
  0
LINE
  5
4DF
100
AcDbEntity
  8
0
100
AcDbLine
 62
7
  6
CONTINUOUS
 10
300.2416292801
 20
100.6748813587
 11
300.2445332803
 21
100.6900405792
  0
LINE
  5
4E0
100
AcDbEntity
  8
0
100
AcDbLine
 62
7
  6
CONTINUOUS
 10
300.2445332803
 20
100.6900405792
 11
300.2848570547
 21
100.9008953825
  0
LINE
  5
4E1
100
AcDbEntity
  8
0
100
AcDbLine
 62
7
  6
CONTINUOUS
 10
300.1943964965
 20
99.9433355682
 11
300.1999253216
 21
99.9686069987
  0
LINE
  5
4E2
100
AcDbEntity
  8
0
100
AcDbLine
 62
7
  6
CONTINUOUS
 10
300.1999253216
 20
99.9686069987
 11
300.3260774778
 21
100.5457854052
  0
SPLINE
  5
4E3
100
AcDbEntity
  8
0
100
AcDbSpline
 62
7
  6
CONTINUOUS
 70
0
 71
3
 72
11
 73
7
 74
0
 42
0.0000001
 43
0.0000001
 44
0.0000000001
 40
0.0
 40
0.0
 40
0.0
 40
0.0
 40
0.2504886122
 40
0.4377181714
 40
0.624875204
 40
1.0
 40
1.0
 40
1.0
 40
1.0
 10
300.3086409988
 20
99.8142415467
 30
0.0
 10
300.3092840235
 20
99.8250237521
 30
0.0
 10
300.311846845
 20
99.8437541511
 30
0.0
 10
300.3127277738
 20
99.870715533
 30
0.0
 10
300.3112675914
 20
99.9030525154
 30
0.0
 10
300.3147667142
 20
99.9271795655
 30
0.0
 10
300.3155266574
 20
99.9433375254
 30
0.0
  0
LINE
  5
4E4
100
AcDbEntity
  8
0
100
AcDbLine
 62
7
  6
CONTINUOUS
 10
290.9744678855
 20
119.5223180236
 11
290.9902542494
 21
119.4634298731
  0
SPLINE
  5
4E5
100
AcDbEntity
  8
0
100
AcDbSpline
 62
7
  6
CONTINUOUS
 70
0
 71
3
 72
8
 73
4
 74
0
 42
0.0000001
 43
0.0000001
 44
0.0000000001
 40
0.0
 40
0.0
 40
0.0
 40
0.0
 40
1.0
 40
1.0
 40
1.0
 40
1.0
 10
301.9116427821
 20
126.6279365747
 30
0.0
 10
301.9097562103
 20
126.6265013447
 30
0.0
 10
301.9077634445
 20
126.6251809757
 30
0.0
 10
301.9056486968
 20
126.6241100508
 30
0.0
  0
SPLINE
  5
4E6
100
AcDbEntity
  8
0
100
AcDbSpline
 62
7
  6
CONTINUOUS
 70
0
 71
3
 72
8
 73
4
 74
0
 42
0.0000001
 43
0.0000001
 44
0.0000000001
 40
0.0
 40
0.0
 40
0.0
 40
0.0
 40
1.0
 40
1.0
 40
1.0
 40
1.0
 10
288.8426172037
 20
126.6279365747
 30
0.0
 10
288.8445031743
 20
126.6265018021
 30
0.0
 10
288.8464952641
 20
126.6251818238
 30
0.0
 10
288.8486092545
 20
126.6241110756
 30
0.0
  0
ELLIPSE
  5
4E7
100
AcDbEntity
  8
BEZUGSACHSEN
100
AcDbEllipse
 62
7
  6
CONTINUOUS
 10
122.2315545837
 20
192.4804157735
 30
0.0
 11
-0.0
 21
4.0
 31
0.0
 40
0.1051042353
 41
-3.1415926536
 42
-0.7229864732
  0
ELLIPSE
  5
4E8
100
AcDbEntity
  8
BEZUGSACHSEN
100
AcDbEllipse
 62
7
  6
CONTINUOUS
 10
160.2315545837
 20
192.4976326406
 30
0.0
 11
0.0
 21
3.0024357327
 31
0.0
 40
0.1051042353
 41
0.0
 42
3.1415926536
  0
ELLIPSE
  5
4E9
100
AcDbEntity
  8
BEZUGSACHSEN
100
AcDbEllipse
 62
7
  6
CONTINUOUS
 10
141.9315545837
 20
192.5046386067
 30
0.0
 11
0.0
 21
3.8
 31
0.0
 40
0.1405408347
 41
0.0
 42
3.1415926536
  0
ELLIPSE
  5
4EA
100
AcDbEntity
  8
BEZUGSACHSEN
100
AcDbEllipse
 62
7
  6
CONTINUOUS
 10
148.5315545837
 20
192.5046386067
 30
0.0
 11
0.0
 21
3.8
 31
0.0
 40
0.1405408347
 41
-3.1415926536
 42
0.0
  0
ELLIPSE
  5
4EB
100
AcDbEntity
  8
AUSFORMSCHRAEGEN
100
AcDbEllipse
 62
7
  6
CONTINUOUS
 10
284.1271299929
 20
173.4618796159
 30
0.0
 11
0.1450393573
 21
6.2999881056
 31
0.0
 40
0.0844054212
 41
0.2662796542
 42
2.0015032818
  0
ELLIPSE
  5
4EC
100
AcDbEntity
  8
KONSTRUKTIONSELEMENTE
100
AcDbEllipse
 62
7
  6
CONTINUOUS
 10
288.4872790553
 20
146.2839806538
 30
0.0
 11
4.5065249313
 21
-0.3451584801
 31
0.0
 40
0.915687509
 41
-3.0571401195
 42
-2.7963426537
  0
ELLIPSE
  5
4ED
100
AcDbEntity
  8
KONSTRUKTIONSELEMENTE
100
AcDbEllipse
 62
7
  6
CONTINUOUS
 10
287.9712834102
 20
135.7199760689
 30
0.0
 11
0.9036841774
 21
0.0
 31
0.0
 40
0.9613308383
 41
-2.8808127543
 42
-1.6100483422
  0
ELLIPSE
  5
4EE
100
AcDbEntity
  8
0
100
AcDbEllipse
 62
7
  6
CONTINUOUS
 10
306.6271299929
 20
173.4618796159
 30
0.0
 11
-0.1450393573
 21
6.2999881056
 31
0.0
 40
0.0844054212
 41
-2.0015032818
 42
-0.2662796542
  0
ELLIPSE
  5
4EF
100
AcDbEntity
  8
0
100
AcDbEllipse
 62
7
  6
CONTINUOUS
 10
302.2669809305
 20
146.2839806538
 30
0.0
 11
4.5065249313
 21
0.3451584801
 31
0.0
 40
0.915687509
 41
-0.3452499999
 42
-0.0844525341
  0
ELLIPSE
  5
4F0
100
AcDbEntity
  8
0
100
AcDbEllipse
 62
7
  6
CONTINUOUS
 10
302.7829765756
 20
135.7199760689
 30
0.0
 11
0.9036841774
 21
0.0
 31
0.0
 40
0.9613308383
 41
-1.5315443114
 42
-0.2607798993
  0
ELLIPSE
  5
4F1
100
AcDbEntity
  8
0
100
AcDbEllipse
 62
7
  6
CONTINUOUS
 10
306.0759514127
 20
179.0172008767
 30
0.0
 11
-0.0517997705
 21
2.249995752
 31
0.0
 40
0.0844054212
 41
6.016905653
 42
7.0977446535
  0
ELLIPSE
  5
4F2
100
AcDbEntity
  8
AUSFORMSCHRAEGEN
100
AcDbEllipse
 62
7
  6
CONTINUOUS
 10
284.6783085731
 20
179.0172008767
 30
0.0
 11
0.0517997705
 21
2.249995752
 31
0.0
 40
0.0844054212
 41
-0.8145593464
 42
0.2662796542
  0
ELLIPSE
  5
4F3
100
AcDbEntity
  8
0
100
AcDbEllipse
 62
7
  6
CONTINUOUS
 10
306.0233967022
 20
177.7444736317
 30
0.0
 11
-0.0517997705
 21
2.249995752
 31
0.0
 40
0.0844054212
 41
1.0238688995
 42
1.9874432689
  0
ELLIPSE
  5
4F4
100
AcDbEntity
  8
AUSFORMSCHRAEGEN
100
AcDbEllipse
 62
7
  6
CONTINUOUS
 10
284.7308632836
 20
177.7444736317
 30
0.0
 11
0.0517997705
 21
2.249995752
 31
0.0
 40
0.0844054212
 41
-1.9874432689
 42
-1.0238688995
  0
ELLIPSE
  5
4F5
100
AcDbEntity
  8
KONSTRUKTIONSELEMENTE
100
AcDbEllipse
 62
7
  6
CONTINUOUS
 10
288.9592784505
 20
147.7535017444
 30
0.0
 11
4.516845405
 21
0.0579588441
 31
0.0
 40
0.9616443341
 41
3.1292537399
 42
3.3900512057
  0
ELLIPSE
  5
4F6
100
AcDbEntity
  8
KONSTRUKTIONSELEMENTE
100
AcDbEllipse
 62
7
  6
CONTINUOUS
 10
288.1750770014
 20
136.3078309459
 30
0.0
 11
0.9036841774
 21
-0.0
 31
0.0
 40
0.9613308383
 41
-2.8808127543
 42
-1.5707963268
  0
ELLIPSE
  5
4F7
100
AcDbEntity
  8
AUSFORMSCHRAEGEN
100
AcDbEllipse
 62
7
  6
CONTINUOUS
 10
284.0877600943
 20
173.7786783744
 30
0.0
 11
0.22791899
 21
9.8999813088
 31
0.0
 40
0.0844054212
 41
-1.0238688995
 42
-0.8145593464
  0
ELLIPSE
  5
4F8
100
AcDbEntity
  8
AUSFORMSCHRAEGEN
100
AcDbEllipse
 62
7
  6
CONTINUOUS
 10
286.4105841109
 20
167.6842739056
 30
0.0
 11
0.5179977045
 21
22.49995752
 31
0.0
 40
0.0844054212
 41
1.1541493846
 42
1.837075981
  0
ELLIPSE
  5
4F9
100
AcDbEntity
  8
0
100
AcDbEllipse
 62
7
  6
CONTINUOUS
 10
304.3436758749
 20
167.6842739056
 30
0.0
 11
-0.5179977045
 21
22.49995752
 31
0.0
 40
0.0844054212
 41
-1.837075981
 42
-1.1541493846
  0
ELLIPSE
  5
4FA
100
AcDbEntity
  8
0
100
AcDbEllipse
 62
7
  6
CONTINUOUS
 10
306.6664998915
 20
173.7786783744
 30
0.0
 11
-0.22791899
 21
9.8999813088
 31
0.0
 40
0.0844054212
 41
0.8145593464
 42
1.0238688995
  0
ELLIPSE
  5
4FB
100
AcDbEntity
  8
0
100
AcDbEllipse
 62
7
  6
CONTINUOUS
 10
301.7949815353
 20
147.7535017444
 30
0.0
 11
4.516845405
 21
-0.0579588441
 31
0.0
 40
0.9616443341
 41
-0.2484585521
 42
0.0123389137
  0
ELLIPSE
  5
4FC
100
AcDbEntity
  8
0
100
AcDbEllipse
 62
7
  6
CONTINUOUS
 10
302.5791829844
 20
136.3078309459
 30
0.0
 11
0.9036841774
 21
-0.0
 31
0.0
 40
0.9613308383
 41
-1.5707963268
 42
-0.2607798993
  0
ELLIPSE
  5
4FD
100
AcDbEntity
  8
AUSFORMSCHRAEGEN
100
AcDbEllipse
 62
7
  6
CONTINUOUS
 10
284.1271299929
 20
173.4618796159
 30
0.0
 11
0.0621597245
 21
2.6999949024
 31
0.0
 40
0.0844054212
 41
0.0
 42
6.2831853072
  0
ELLIPSE
  5
4FE
100
AcDbEntity
  8
0
100
AcDbEllipse
 62
7
  6
CONTINUOUS
 10
306.6271299929
 20
173.4618796159
 30
0.0
 11
-0.0621597245
 21
2.6999949024
 31
0.0
 40
0.0844054212
 41
0.0
 42
6.2831853072
  0
ENDSEC
  0
SECTION
  2
OBJECTS
  0
DICTIONARY
  5
C
100
AcDbDictionary
280
0
281
1
  3
ACAD_GROUP
350
D
  3
ACAD_MLINESTYLE
350
17
  3
ACAD_LAYOUT
350
1A
  3
ACAD_PLOTSETTINGS
350
19
  3
ACAD_PLOTSTYLENAME
350
E
  0
DICTIONARY
  5
D
102
{ACAD_REACTORS
330
C
102
}
100
AcDbDictionary
280
0
281
1
  0
ACDBDICTIONARYWDFLT
  5
E
102
{ACAD_REACTORS
330
C
102
}
100
AcDbDictionary
281
1
  3
Normal
350
F
100
AcDbDictionaryWithDefault
340
F
  0
DICTIONARY
  5
17
102
{ACAD_REACTORS
330
C
102
}
100
AcDbDictionary
280
0
281
1
  3
Standard
350
18
  0
DICTIONARY
  5
19
102
{ACAD_REACTORS
330
C
102
}
100
AcDbDictionary
281
1
  0
DICTIONARY
  5
1A
102
{ACAD_REACTORS
330
C
102
}
100
AcDbDictionary
281
1
  3
Model
350
4FF
  3
Layout1
350
500
  0
ACDBPLACEHOLDER
  5
F
102
{ACAD_REACTORS
330
E
102
}
  0
MLINESTYLE
  5
18
102
{ACAD_REACTORS
330
17
102
}
100
AcDbMlineStyle
  2
STANDARD
 70
0
  3

 62
256
 51
90.0
 52
90.0
 71
2
 49
0.5
 62
256
  6
BYLAYER
 49
-0.5
 62
256
  6
BYLAYER
  0
LAYOUT
  5
4FF
102
{ACAD_REACTORS
330
1A
102
}
100
AcDbPlotSettings
  1

  2
none_device
  4
ISO_A3_(420.00_x_297.00_MM)
  6

 40
0.0
 41
0.0
 42
0.0
 43
0.0
 44
420.0
 45
297.0
 46
0.0
 47
0.0
 48
0.0
 49
0.0
140
0.0
141
0.0
142
1.0
143
1.0
 70
1024
 72
1
 73
0
 74
0
  7

 75
0
147
1.0
148
0.0
149
0.0
100
AcDbLayout
  1
Model
 70
0
 71
0
 10
0.0
 20
0.0
 11
420.0
 21
297.0
 12
0.0
 22
0.0
 32
0.0
 14
0.0
 24
0.0
 34
0.0
 15
0.0
 25
0.0
 35
0.0
146
0.0
 13
0.0
 23
0.0
 33
0.0
 16
1.0
 26
0.0
 36
0.0
 17
0.0
 27
1.0
 37
0.0
 76
0
330
20C
345
0
346
0
  0
LAYOUT
  5
500
102
{ACAD_REACTORS
330
1A
102
}
100
AcDbPlotSettings
  1

  2
none_device
  4
ISO_A3_(420.00_x_297.00_MM)
  6

 40
0.0
 41
0.0
 42
0.0
 43
0.0
 44
420.0
 45
297.0
 46
0.0
 47
0.0
 48
0.0
 49
0.0
140
0.0
141
0.0
142
1.0
143
1.0
 70
0
 72
1
 73
0
 74
0
  7

 75
0
147
1.0
148
0.0
149
0.0
100
AcDbLayout
  1
Layout1
 70
0
 71
1
 10
0.0
 20
0.0
 11
420.0
 21
297.0
 12
0.0
 22
0.0
 32
0.0
 14
0.0
 24
0.0
 34
0.0
 15
0.0
 25
0.0
 35
0.0
146
0.0
 13
0.0
 23
0.0
 33
0.0
 16
1.0
 26
0.0
 36
0.0
 17
0.0
 27
1.0
 37
0.0
 76
0
330
20D
345
0
346
0
  0
ENDSEC
  0
EOF
