999
DXF file: C:\Aktuell-Internet\CAD-Daten\2vcgh20.dxf
999
Pro/ENGINEER 2001400 by Parametric Technology Corporation
0
SECTION
2
HEADER
9
$ACADVER
1
AC1014
9
$EXTMAX
10
420.0000000000
20
297.0000000000
9
$EXTMIN
10
0.0000000000
20
0.0000000000
9
$LIMMIN
10
0.0000000000
20
0.0000000000
9
$LIMMAX
10
420.0000000000
20
297.0000000000
9
$VIEWCTR
10
210.0000000000
20
148.5000000000
9
$VIEWSIZE
40
297.0000000000
9
$CLAYER
8
0
9
$LTSCALE
40
23.1000000000
9
$CELTYPE
6
BYLAYER
9
$DIMSCALE
40
1
9
$DIMASZ
40
3.5000000000
9
$DIMEXO
40
2.6250000000
9
$DIMDLI
40
15.9600000000
9
$DIMEXE
40
7.5600000000
9
$DIMCEN
40
3.7800000000
9
$DIMLFAC
40
1.0000000000
9
$DIMTXT
40
3.5000000000
9
$DIMTOL
70
1
9
$DIMTFAC
40
0.6000000000
9
$DIMTP
40
0.0050000000
9
$DIMTM
40
0.0050000000
9
$HANDSEED
5
493
0
ENDSEC
0
SECTION
2
CLASSES
0
ENDSEC
0
SECTION
2
TABLES
0
TABLE
2
VPORT
5
8
100
AcDbSymbolTable
70
2
0
VPORT
5
1F4
100
AcDbSymbolTableRecord
100
AcDbViewportTableRecord
2
*ACTIVE
70
0
10
0.0
20
0.0
11
1.0
21
1.0
12
210.0000000000
22
148.5000000000
13
0.0
23
0.0
14
1.0
24
1.0
15
0.0
25
0.0
16
0.0
26
0.0
36
1.0
17
0.0
27
0.0
37
0.0
40
297.0000000000
41
1.4141414141
42
50.0
43
0.0
44
0.0
50
0.0
51
0.0
71
0
72
100
73
1
74
1
75
0
76
0
77
0
78
0
0
ENDTAB
0
TABLE
2
LTYPE
5
5
100
AcDbSymbolTable
70
6
0
LTYPE
5
14
100
AcDbSymbolTableRecord
100
AcDbLinetypeTableRecord
2
BYBLOCK
70
0
3

72
65
73
0
40
0.0
0
LTYPE
5
15
100
AcDbSymbolTableRecord
100
AcDbLinetypeTableRecord
2
BYLAYER
70
0
3

72
65
73
0
40
0.0
0
LTYPE
5
16
100
AcDbSymbolTableRecord
100
AcDbLinetypeTableRecord
2
CONTINUOUS
70
64
3
Solid line
72
65
73
0
40
0
0
LTYPE
5
1F5
100
AcDbSymbolTableRecord
100
AcDbLinetypeTableRecord
2
CENTER
70
64
3
____ _ ____ _ ____ _ ____ _ ____ _ ____ _ ____
72
65
73
4
40
0.6
49
0.375
74
0
49
-0.075
74
0
49
0.075
74
0
49
-0.075
74
0
0
LTYPE
5
1F6
100
AcDbSymbolTableRecord
100
AcDbLinetypeTableRecord
2
HIDDEN
70
64
3
- - - - - - - - - - - - - - - - - - - -
72
65
73
2
40
0.2
49
0.1
74
0
49
-0.1
74
0
0
LTYPE
5
1F7
100
AcDbSymbolTableRecord
100
AcDbLinetypeTableRecord
2
PHANTOM
70
64
3
_____ _ _ _____ _ _ _____ _ _ _____
72
65
73
6
40
0.8
49
0.45
74
0
49
-0.05
74
0
49
0.1
74
0
49
-0.05
74
0
49
0.1
74
0
49
-0.05
74
0
0
LTYPE
5
1F8
100
AcDbSymbolTableRecord
100
AcDbLinetypeTableRecord
2
DOT
70
64
3
. . . . . . . . . . . . . . . . . . . .
72
65
73
2
40
0.2
49
0.1
74
0
49
-0.1
74
0
0
LTYPE
5
1F9
100
AcDbSymbolTableRecord
100
AcDbLinetypeTableRecord
2
DASHED
70
64
3
- - - - - - - - - - - - - - - - - - - -
72
65
73
2
40
0.2
49
0.1
74
0
49
-0.1
74
0
0
ENDTAB
0
TABLE
2
LAYER
5
2
100
AcDbSymbolTable
70
36
0
LAYER
5
10
100
AcDbSymbolTableRecord
100
AcDbLayerTableRecord
2
0
70
0
62
7
6
CONTINUOUS
0
LAYER
5
1FA
100
AcDbSymbolTableRecord
100
AcDbLayerTableRecord
2
DEFAULT_1
70
0
62
7
6
CENTER
0
LAYER
5
1FB
100
AcDbSymbolTableRecord
100
AcDbLayerTableRecord
2
DEFAULT_2
70
0
62
8
6
HIDDEN
0
LAYER
5
1FC
100
AcDbSymbolTableRecord
100
AcDbLayerTableRecord
2
DEFAULT_3
70
0
62
7
6
PHANTOM
0
LAYER
5
1FD
100
AcDbSymbolTableRecord
100
AcDbLayerTableRecord
2
ZEICHNUNGSBEMASSUNGEN
70
0
62
7
6
CONTINUOUS
0
ENDTAB
0
TABLE
2
STYLE
5
3
100
AcDbSymbolTable
70
1
0
STYLE
5
11
100
AcDbSymbolTableRecord
100
AcDbTextStyleTableRecord
2
STANDARD
70
0
40
0.0
41
1.0
50
0.0
71
0
42
0.0
3
txt
4

0
STYLE
5
1FE
100
AcDbSymbolTableRecord
100
AcDbTextStyleTableRecord
2
TEXTSTYLE_0
70
0
40
0.0
41
0.80
50
0.0
71
0
42
0.2
3
txt
4

0
ENDTAB
0
TABLE
2
VIEW
5
6
100
AcDbSymbolTable
70
0
0
ENDTAB
0
TABLE
2
UCS
5
7
100
AcDbSymbolTable
70
0
0
ENDTAB
0
TABLE
2
APPID
5
9
100
AcDbSymbolTable
70
1
0
APPID
5
1FF
100
AcDbSymbolTableRecord
100
AcDbRegAppTableRecord
2
ACAD
70
0
0
ENDTAB
0
TABLE
2
DIMSTYLE
5
A
100
AcDbSymbolTable
70
1
0
DIMSTYLE
105
200
100
AcDbSymbolTableRecord
100
AcDbDimStyleTableRecord
2
STANDARD
70
0
3

4

5

6

7

40
1.0
41
0.18
42
0.0625
43
0.38
44
0.18
45
0.0
46
0.0
47
0.0050000000
48
0.0050000000
140
3.5000000000
141
0.09
142
0.0
143
25.4
144
1.0000000000
145
0.0
146
0.6000000000
147
0.09
71
1
72
0
73
1
74
1
75
0
76
0
77
0
78
0
170
0
171
2
172
0
173
0
174
0
175
0
176
0
177
0
178
0
270
2
271
3
272
4
273
2
274
2
340
11
275
0
280
0
281
0
282
0
283
1
284
0
285
0
286
0
287
3
288
0
0
ENDTAB
0
TABLE
2
BLOCK_RECORD
5
1
100
AcDbSymbolTable
70
0
0
BLOCK_RECORD
5
1B
100
AcDbSymbolTableRecord
100
AcDbBlockTableRecord
2
*MODEL_SPACE
0
BLOCK_RECORD
5
1C
100
AcDbSymbolTableRecord
100
AcDbBlockTableRecord
2
*PAPER_SPACE
0
ENDTAB
0
ENDSEC
0
SECTION
2
BLOCKS
0
BLOCK
5
1E
100
AcDbEntity
8
0
100
AcDbBlockBegin
2
*MODEL_SPACE
70
0
10
0.0
20
0.0
30
0.0
3
*MODEL_SPACE
1

0
ENDBLK
5
1F
100
AcDbEntity
8
0
100
AcDbBlockEnd
0
BLOCK
5
20
100
AcDbEntity
8
0
100
AcDbBlockBegin
2
*PAPER_SPACE
70
0
10
0.0
20
0.0
30
0.0
3
*PAPER_SPACE
1

0
ENDBLK
5
21
100
AcDbEntity
8
0
100
AcDbBlockEnd
0
ENDSEC
0
SECTION
2
ENTITIES
0
TEXT
5
201
100
AcDbEntity
8
0
100
AcDbText
62
2
6
CONTINUOUS
10
97.5934416213
20
61.0218178267
7
TEXTSTYLE_0
40
10.0000000000
1
RUD
72
5
11
122.3553463832
21
61.0218178267
100
AcDbText
0
TEXT
5
202
100
AcDbEntity
8
0
100
AcDbText
62
2
6
CONTINUOUS
10
163.5490107875
20
61.6107066845
7
TEXTSTYLE_0
40
10.0000000000
1
VCGH 20-VIP
50
45.0000000000
72
5
11
224.1581634606
21
122.2198593577
100
AcDbText
0
LINE
5
203
100
AcDbEntity
8
0
100
AcDbLine
62
7
6
CONTINUOUS
10
0.0000000000
20
0.0000000000
11
0.0000000000
21
297.0000000000
0
LINE
5
204
100
AcDbEntity
8
0
100
AcDbLine
62
7
6
CONTINUOUS
10
0.0000000000
20
0.0000000000
11
420.0000000000
21
0.0000000000
0
LINE
5
205
100
AcDbEntity
8
0
100
AcDbLine
62
7
6
CONTINUOUS
10
0.0000000000
20
297.0000000000
11
420.0000000000
21
297.0000000000
0
LINE
5
206
100
AcDbEntity
8
0
100
AcDbLine
62
7
6
CONTINUOUS
10
420.0000000000
20
0.0000000000
11
420.0000000000
21
297.0000000000
0
LINE
5
207
100
AcDbEntity
8
0
100
AcDbLine
62
7
6
CONTINUOUS
10
23.7676678376
20
165.2156263651
11
30.3176937520
21
111.0684348596
0
LINE
5
208
100
AcDbEntity
8
0
100
AcDbLine
62
7
6
CONTINUOUS
10
43.4265800364
20
187.9050856941
11
43.3383924094
21
189.5578271962
0
LINE
5
209
100
AcDbEntity
8
0
100
AcDbLine
62
7
6
CONTINUOUS
10
48.6187013402
20
209.2425650161
11
54.2141396632
21
228.7561774437
0
LINE
5
20A
100
AcDbEntity
8
0
100
AcDbLine
62
7
6
CONTINUOUS
10
54.6000319614
20
230.1019438180
11
55.9506550049
21
234.8121261281
0
LINE
5
20B
100
AcDbEntity
8
0
100
AcDbLine
62
7
6
CONTINUOUS
10
59.0333408597
20
241.9347740254
11
41.7221527856
21
181.5634636008
0
LINE
5
20C
100
AcDbEntity
8
0
100
AcDbLine
62
7
6
CONTINUOUS
10
43.4313777213
20
190.2763581378
11
43.4313205530
21
190.2761802225
0
LINE
5
20D
100
AcDbEntity
8
0
100
AcDbLine
62
7
6
CONTINUOUS
10
53.0336202936
20
134.2455427855
11
48.0336202936
21
142.9057968234
0
LINE
5
20E
100
AcDbEntity
8
0
100
AcDbLine
62
7
6
CONTINUOUS
10
62.2068253744
20
136.0775935931
11
54.2068253744
21
149.9340000537
0
LINE
5
20F
100
AcDbEntity
8
0
100
AcDbLine
62
7
6
CONTINUOUS
10
44.9550214165
20
171.0701077829
11
46.4570259686
21
176.3082201526
0
LINE
5
210
100
AcDbEntity
8
0
100
AcDbLine
62
7
6
CONTINUOUS
10
51.2738663038
20
171.3388070399
11
51.5162055575
21
172.1839444537
0
LINE
5
211
100
AcDbEntity
8
0
100
AcDbLine
62
7
6
CONTINUOUS
10
48.7532135318
20
206.3309486542
11
43.8932816009
21
198.2426636560
0
LINE
5
212
100
AcDbEntity
8
0
100
AcDbLine
62
7
6
CONTINUOUS
10
63.9388761819
20
137.0775935931
11
55.9388761819
21
150.9340000537
0
LINE
5
213
100
AcDbEntity
8
0
100
AcDbLine
62
7
6
CONTINUOUS
10
82.4659705177
20
124.1014439826
11
60.4814538126
21
171.2473922008
0
LINE
5
214
100
AcDbEntity
8
0
100
AcDbLine
62
7
6
CONTINUOUS
10
52.3282489367
20
174.2628712858
11
99.4658037303
21
268.0999684233
0
LINE
5
215
100
AcDbEntity
8
0
100
AcDbLine
62
7
6
CONTINUOUS
10
42.7456383933
20
177.4336030787
11
42.7455880715
21
177.4336452291
0
LINE
5
216
100
AcDbEntity
8
0
100
AcDbLine
62
7
6
CONTINUOUS
10
42.7455824216
20
177.4336500353
11
45.9852784739
21
174.6777416028
0
LINE
5
217
100
AcDbEntity
8
0
100
AcDbLine
62
7
6
CONTINUOUS
10
43.9526904710
20
196.0903578316
11
43.9530715881
21
196.0897962560
0
LINE
5
218
100
AcDbEntity
8
0
100
AcDbLine
62
7
6
CONTINUOUS
10
41.4783107211
20
192.2797567085
11
35.5939754436
21
188.8824341520
0
LINE
5
219
100
AcDbEntity
8
0
100
AcDbLine
62
7
6
CONTINUOUS
10
53.0336202936
20
134.2455427855
11
58.0336202936
21
142.9057968234
0
LINE
5
21A
100
AcDbEntity
8
0
100
AcDbLine
62
7
6
CONTINUOUS
10
48.0336202936
20
142.9057968234
11
58.0336202936
21
142.9057968234
0
LINE
5
21B
100
AcDbEntity
8
0
100
AcDbLine
62
7
6
CONTINUOUS
10
44.9550214165
20
171.0701077829
11
48.8000682002
21
169.9675583597
0
LINE
5
21C
100
AcDbEntity
8
0
100
AcDbLine
62
7
6
CONTINUOUS
10
118.3939754436
20
295.1365342610
11
118.3939754436
21
309.6365342610
0
LINE
5
21D
100
AcDbEntity
8
0
100
AcDbLine
62
7
6
CONTINUOUS
10
118.3939754436
20
334.2365342610
11
118.3939754436
21
341.3462195300
0
LINE
5
21E
100
AcDbEntity
8
DEFAULT_1
100
AcDbLine
62
2
6
CENTER
10
129.5939754436
20
146.0775935931
11
129.5939754436
21
17.3036310599
0
LINE
5
21F
100
AcDbEntity
8
DEFAULT_1
100
AcDbLine
62
2
6
CENTER
10
129.5939754436
20
146.0775935931
11
129.5939754436
21
340.7057351596
0
LINE
5
220
100
AcDbEntity
8
0
100
AcDbLine
62
7
6
CONTINUOUS
10
163.3260262512
20
212.9340000537
11
161.5939754436
21
211.9340000537
0
LINE
5
221
100
AcDbEntity
8
0
100
AcDbLine
62
7
6
CONTINUOUS
10
55.9388761819
20
150.9340000537
11
54.2068253744
21
149.9340000537
0
LINE
5
222
100
AcDbEntity
8
0
100
AcDbLine
62
7
6
CONTINUOUS
10
140.7939754436
20
341.3461796431
11
140.7939754436
21
334.2365342610
0
LINE
5
223
100
AcDbEntity
8
0
100
AcDbLine
62
7
6
CONTINUOUS
10
140.7939754436
20
309.6365342610
11
140.7939754436
21
295.1365342610
0
LINE
5
224
100
AcDbEntity
8
0
100
AcDbLine
62
7
6
CONTINUOUS
10
49.5799630361
20
208.9669276603
11
48.6187013402
21
209.2425650161
0
LINE
5
225
100
AcDbEntity
8
0
100
AcDbLine
62
7
6
CONTINUOUS
10
49.9658553342
20
210.3126940346
11
49.0045936383
21
210.5883313904
0
LINE
5
226
100
AcDbEntity
8
0
100
AcDbLine
62
7
6
CONTINUOUS
10
172.4549854068
20
214.8426870516
11
167.4549854068
21
206.1824330138
0
LINE
5
227
100
AcDbEntity
8
0
100
AcDbLine
62
7
6
CONTINUOUS
10
62.2068253744
20
136.0775935931
11
63.9388761819
21
137.0775935931
0
LINE
5
228
100
AcDbEntity
8
0
100
AcDbLine
62
7
6
CONTINUOUS
10
169.5939754436
20
198.0775935931
11
171.3260262512
21
199.0775935931
0
LINE
5
229
100
AcDbEntity
8
0
100
AcDbLine
62
7
6
CONTINUOUS
10
167.4549854068
20
206.1824330138
11
177.4549854068
21
206.1824330138
0
LINE
5
22A
100
AcDbEntity
8
0
100
AcDbLine
62
7
6
CONTINUOUS
10
54.7895090610
20
227.1347737135
11
53.8282473651
21
227.4104110694
0
LINE
5
22B
100
AcDbEntity
8
0
100
AcDbLine
62
7
6
CONTINUOUS
10
55.1754013592
20
228.4805400879
11
54.2141396632
21
228.7561774437
0
LINE
5
22C
100
AcDbEntity
8
0
100
AcDbLine
62
7
6
CONTINUOUS
10
55.5612936573
20
229.8263064622
11
54.6000319614
21
230.1019438180
0
LINE
5
22D
100
AcDbEntity
8
0
100
AcDbLine
62
7
6
CONTINUOUS
10
55.5900303169
20
229.9265231039
11
54.6287686210
21
230.2021604597
0
LINE
5
22E
100
AcDbEntity
8
0
100
AcDbLine
62
7
6
CONTINUOUS
10
55.6475036386
20
230.1269563961
11
54.6862419427
21
230.4025937519
0
LINE
5
22F
100
AcDbEntity
8
0
100
AcDbLine
62
7
6
CONTINUOUS
10
55.7624502770
20
230.5278229630
11
54.8011885810
21
230.8034603188
0
LINE
5
230
100
AcDbEntity
8
0
100
AcDbLine
62
7
6
CONTINUOUS
10
55.8773969254
20
230.9286895650
11
54.9161352295
21
231.2043269208
0
LINE
5
231
100
AcDbEntity
8
0
100
AcDbLine
62
7
6
CONTINUOUS
10
56.0210802108
20
231.4297727297
11
55.0598185148
21
231.7054100855
0
LINE
5
232
100
AcDbEntity
8
0
100
AcDbLine
62
7
6
CONTINUOUS
10
56.4521301071
20
232.9330223643
11
55.4908684112
21
233.2086597202
0
LINE
5
233
100
AcDbEntity
8
0
100
AcDbLine
62
7
6
CONTINUOUS
10
56.5958134730
20
233.4341058098
11
55.6345517771
21
233.7097431656
0
LINE
5
234
100
AcDbEntity
8
0
100
AcDbLine
62
7
6
CONTINUOUS
10
56.7107601013
20
233.8349723416
11
55.7494984054
21
234.1106096974
0
LINE
5
235
100
AcDbEntity
8
0
100
AcDbLine
62
7
6
CONTINUOUS
10
56.8257067296
20
234.2358388734
11
55.8644450337
21
234.5114762292
0
LINE
5
236
100
AcDbEntity
8
0
100
AcDbLine
62
7
6
CONTINUOUS
10
56.8831800438
20
234.4362721393
11
55.9219183478
21
234.7119094951
0
LINE
5
237
100
AcDbEntity
8
0
100
AcDbLine
62
7
6
CONTINUOUS
10
56.9119167008
20
234.5364887723
11
55.9506550049
21
234.8121261281
0
LINE
5
238
100
AcDbEntity
8
0
100
AcDbLine
62
7
6
CONTINUOUS
10
105.8683010765
20
260.9070727326
11
170.5705343418
21
178.0919906805
0
LINE
5
239
100
AcDbEntity
8
0
100
AcDbLine
62
7
6
CONTINUOUS
10
179.5939754436
20
334.7795993207
11
179.5939754436
21
332.9365342610
0
LINE
5
23A
100
AcDbEntity
8
0
100
AcDbLine
62
7
6
CONTINUOUS
10
179.5939754436
20
310.9365342610
11
179.5939754436
21
289.1859441531
0
LINE
5
23B
100
AcDbEntity
8
0
100
AcDbLine
62
7
6
CONTINUOUS
10
161.5939754436
20
211.9340000537
11
169.5939754436
21
198.0775935931
0
LINE
5
23C
100
AcDbEntity
8
0
100
AcDbLine
62
7
6
CONTINUOUS
10
171.3260262512
20
199.0775935931
11
163.3260262512
21
212.9340000537
0
LINE
5
23D
100
AcDbEntity
8
0
100
AcDbLine
62
7
6
CONTINUOUS
10
177.4549854068
20
206.1824330138
11
172.4549854068
21
214.8426870516
0
LINE
5
23E
100
AcDbEntity
8
0
100
AcDbLine
62
7
6
CONTINUOUS
10
190.4802565182
20
193.6471698481
11
166.5358683392
21
235.1200667303
0
LINE
5
23F
100
AcDbEntity
8
0
100
AcDbLine
62
7
6
CONTINUOUS
10
87.1067225600
20
296.3028275119
11
64.4163329225
21
302.8091920415
0
LINE
5
240
100
AcDbEntity
8
0
100
AcDbLine
62
7
6
CONTINUOUS
10
63.4932496403
20
307.0776299986
11
68.2115776190
21
305.3602990589
0
LINE
5
241
100
AcDbEntity
8
0
100
AcDbLine
62
7
6
CONTINUOUS
10
118.2201155439
20
309.6865342610
11
140.9678353434
21
309.6865342610
0
LINE
5
242
100
AcDbEntity
8
DEFAULT_1
100
AcDbLine
62
2
6
CENTER
10
52.5939754436
20
321.9365342610
11
186.5939754436
21
321.9365342610
0
LINE
5
243
100
AcDbEntity
8
0
100
AcDbLine
62
7
6
CONTINUOUS
10
170.5401183921
20
347.7265009290
11
178.2075243891
21
338.5888422861
0
LINE
5
244
100
AcDbEntity
8
0
100
AcDbLine
62
7
6
CONTINUOUS
10
118.2201160148
20
334.1865342610
11
140.9678348725
21
334.1865342610
0
LINE
5
245
100
AcDbEntity
8
0
100
AcDbLine
62
7
6
CONTINUOUS
10
165.7886545011
20
349.9365342610
11
157.6070390861
21
349.9365342610
0
LINE
5
246
100
AcDbEntity
8
0
100
AcDbLine
62
7
6
CONTINUOUS
10
354.7891308195
20
23.5068750203
11
349.9253906839
21
22.7365342610
0
LINE
5
247
100
AcDbEntity
8
0
100
AcDbLine
62
7
6
CONTINUOUS
10
349.9253906839
20
22.7365342610
11
345.0616505482
21
23.5068750203
0
LINE
5
248
100
AcDbEntity
8
0
100
AcDbLine
62
7
6
CONTINUOUS
10
329.8438560755
20
68.7321561391
11
329.8380535331
21
68.7355734757
0
LINE
5
249
100
AcDbEntity
8
0
100
AcDbLine
62
7
6
CONTINUOUS
10
314.9971874536
20
301.9365342610
11
320.8535939141
21
312.0801278004
0
LINE
5
24A
100
AcDbEntity
8
DEFAULT_2
100
AcDbLine
62
8
6
HIDDEN
10
349.9253906839
20
94.0775935931
11
334.0968549203
21
91.5705998150
0
LINE
5
24B
100
AcDbEntity
8
DEFAULT_2
100
AcDbLine
62
8
6
HIDDEN
10
365.7539264475
20
91.5705998150
11
349.9253906839
21
94.0775935931
0
LINE
5
24C
100
AcDbEntity
8
0
100
AcDbLine
62
7
6
CONTINUOUS
10
314.4990021748
20
287.7121927903
11
314.4986270995
21
287.7084564334
0
LINE
5
24D
100
AcDbEntity
8
0
100
AcDbLine
62
7
6
CONTINUOUS
10
318.2766477207
20
298.1630913795
11
318.2750033247
21
298.1544046045
0
LINE
5
24E
100
AcDbEntity
8
0
100
AcDbLine
62
7
6
CONTINUOUS
10
317.0440582147
20
291.6825173805
11
317.0430203455
21
291.6771798704
0
LINE
5
24F
100
AcDbEntity
8
0
100
AcDbLine
62
7
6
CONTINUOUS
10
345.7837239198
20
232.9080098213
11
345.4774739198
21
232.8077931884
0
LINE
5
250
100
AcDbEntity
8
0
100
AcDbLine
62
7
6
CONTINUOUS
10
365.3170969752
20
134.2455427855
11
369.3253906839
21
134.2455427855
0
LINE
5
251
100
AcDbEntity
8
0
100
AcDbLine
62
7
6
CONTINUOUS
10
367.4669479236
20
142.9057968234
11
369.6018642666
21
142.9057968234
0
LINE
5
252
100
AcDbEntity
8
0
100
AcDbLine
62
7
6
CONTINUOUS
10
316.6792029842
20
211.8640364174
11
316.0551964186
21
269.4144993214
0
LINE
5
253
100
AcDbEntity
8
0
100
AcDbLine
62
7
6
CONTINUOUS
10
313.9253908886
20
292.8490675760
11
313.9253906839
21
297.9365342610
0
LINE
5
254
100
AcDbEntity
8
0
100
AcDbLine
62
7
6
CONTINUOUS
10
313.9253906839
20
231.5436934966
11
313.9253989395
21
282.5283460640
0
LINE
5
255
100
AcDbEntity
8
0
100
AcDbLine
62
7
6
CONTINUOUS
10
345.9878906839
20
233.1084430872
11
345.7837239198
21
232.9080098213
0
LINE
5
256
100
AcDbEntity
8
0
100
AcDbLine
62
7
6
CONTINUOUS
10
350.3774742119
20
231.0038936549
11
350.0712242119
21
230.8034603188
0
LINE
5
257
100
AcDbEntity
8
0
100
AcDbLine
62
7
6
CONTINUOUS
10
355.2774736278
20
231.0038936549
11
354.9712236278
21
230.8034603188
0
LINE
5
258
100
AcDbEntity
8
0
100
AcDbLine
62
7
6
CONTINUOUS
10
345.8858074479
20
232.4069266566
11
346.2941406839
21
232.6073599225
0
LINE
5
259
100
AcDbEntity
8
0
100
AcDbLine
62
7
6
CONTINUOUS
10
350.1733071558
20
230.2021604597
11
350.5816406839
21
230.4025937519
0
LINE
5
25A
100
AcDbEntity
8
0
100
AcDbLine
62
7
6
CONTINUOUS
10
355.0733077399
20
230.2021604597
11
355.4816406839
21
230.4025937519
0
LINE
5
25B
100
AcDbEntity
8
0
100
AcDbLine
62
7
6
CONTINUOUS
10
369.2574773544
20
149.9340000537
11
371.3213614836
21
149.9340000537
0
LINE
5
25C
100
AcDbEntity
8
0
100
AcDbLine
62
7
6
CONTINUOUS
10
369.5122408227
20
150.9340000537
11
371.5761249519
21
150.9340000537
0
LINE
5
25D
100
AcDbEntity
8
0
100
AcDbLine
62
7
6
CONTINUOUS
10
338.4763046627
20
29.8008286142
11
330.7311968532
21
67.5582095561
0
LINE
5
25E
100
AcDbEntity
8
0
100
AcDbLine
62
7
6
CONTINUOUS
10
321.9253906839
20
320.1448942960
11
321.9253906839
21
316.0801278004
0
LINE
5
25F
100
AcDbEntity
8
DEFAULT_2
100
AcDbLine
62
8
6
HIDDEN
10
323.9253906839
20
186.9371763615
11
323.9253906839
21
182.0765821189
0
LINE
5
260
100
AcDbEntity
8
DEFAULT_2
100
AcDbLine
62
8
6
HIDDEN
10
323.9253906839
20
79.8392361181
11
323.9253906839
21
79.7106299191
0
LINE
5
261
100
AcDbEntity
8
0
100
AcDbLine
62
7
6
CONTINUOUS
10
323.9253906839
20
182.0765821189
11
323.9253906839
21
79.8392361181
0
LINE
5
262
100
AcDbEntity
8
0
100
AcDbLine
62
7
6
CONTINUOUS
10
323.9253906839
20
79.0775935931
11
323.9253906839
21
79.7106299191
0
LINE
5
263
100
AcDbEntity
8
0
100
AcDbLine
62
7
6
CONTINUOUS
10
350.5816406839
20
231.3045435537
11
350.3774742119
21
231.0038936549
0
LINE
5
264
100
AcDbEntity
8
0
100
AcDbLine
62
7
6
CONTINUOUS
10
346.2941406839
20
232.6073599225
11
346.6003906839
21
233.0082264543
0
LINE
5
265
100
AcDbEntity
8
0
100
AcDbLine
62
7
6
CONTINUOUS
10
350.5816406839
20
230.4025937519
11
350.9899742119
21
230.8034603188
0
LINE
5
266
100
AcDbEntity
8
0
100
AcDbLine
62
7
6
CONTINUOUS
10
355.4816406839
20
230.4025937519
11
355.8899736278
21
230.8034603188
0
LINE
5
267
100
AcDbEntity
8
0
100
AcDbLine
62
7
6
CONTINUOUS
10
316.6324638866
20
216.1746588608
11
315.2883576323
21
221.1909316925
0
LINE
5
268
100
AcDbEntity
8
0
100
AcDbLine
62
7
6
CONTINUOUS
10
317.2516327285
20
207.6601155770
11
317.2516071597
21
207.6602122066
0
LINE
5
269
100
AcDbEntity
8
0
100
AcDbLine
62
7
6
CONTINUOUS
10
327.1111107881
20
163.6023381739
11
337.7274893382
21
121.9308276489
0
LINE
5
26A
100
AcDbEntity
8
0
100
AcDbLine
62
7
6
CONTINUOUS
10
326.5030281919
20
172.1680088313
11
326.5029494313
21
172.1683350360
0
LINE
5
26B
100
AcDbEntity
8
0
100
AcDbLine
62
7
6
CONTINUOUS
10
325.9900604182
20
176.3082201526
11
326.7110926331
21
173.3060714099
0
LINE
5
26C
100
AcDbEntity
8
0
100
AcDbLine
62
7
6
CONTINUOUS
10
335.9253906839
20
286.8724901527
11
335.9253906839
21
258.0032935195
0
LINE
5
26D
100
AcDbEntity
8
0
100
AcDbLine
62
7
6
CONTINUOUS
10
340.1253906839
20
228.7561774437
11
340.1253906839
21
227.4104110694
0
LINE
5
26E
100
AcDbEntity
8
0
100
AcDbLine
62
7
6
CONTINUOUS
10
332.1781756137
20
141.8605525244
11
332.1781859030
21
141.8607787864
0
LINE
5
26F
100
AcDbEntity
8
0
100
AcDbLine
62
7
6
CONTINUOUS
10
331.1746949640
20
120.3394391151
11
331.1747025304
21
120.3395308203
0
LINE
5
270
100
AcDbEntity
8
0
100
AcDbLine
62
7
6
CONTINUOUS
10
330.7394593506
20
115.9143340501
11
330.7394765830
21
115.9144903435
0
LINE
5
271
100
AcDbEntity
8
0
100
AcDbLine
62
7
6
CONTINUOUS
10
350.6837242119
20
231.7054100855
11
350.5816406839
21
231.3045435537
0
LINE
5
272
100
AcDbEntity
8
0
100
AcDbLine
62
7
6
CONTINUOUS
10
346.0899739198
20
233.4090929860
11
345.9878906839
21
233.1084430872
0
LINE
5
273
100
AcDbEntity
8
0
100
AcDbLine
62
7
6
CONTINUOUS
10
346.6003906839
20
233.0082264543
11
346.7024739198
21
233.3088763531
0
LINE
5
274
100
AcDbEntity
8
0
100
AcDbLine
62
7
6
CONTINUOUS
10
329.7339564563
20
175.8277375457
11
334.1557363105
21
185.3744890062
0
LINE
5
275
100
AcDbEntity
8
0
100
AcDbLine
62
7
6
CONTINUOUS
10
337.7164401790
20
189.5552525835
11
327.4875439616
21
167.6193138562
0
POLYLINE
5
276
100
AcDbEntity
8
0
100
AcDb2dPolyline
62
7
6
CONTINUOUS
66
1
70
0
0
VERTEX
5
277
100
AcDbEntity
8
0
100
AcDbVertex
62
7
6
CONTINUOUS
100
AcDb2dVertex
10
334.1557363105
20
185.3744890062
0
VERTEX
5
278
100
AcDbEntity
8
0
100
AcDbVertex
62
7
6
CONTINUOUS
100
AcDb2dVertex
10
334.5363857959
20
186.1221907936
0
VERTEX
5
279
100
AcDbEntity
8
0
100
AcDbVertex
62
7
6
CONTINUOUS
100
AcDb2dVertex
10
334.9695479418
20
186.8380430769
0
VERTEX
5
27A
100
AcDbEntity
8
0
100
AcDbVertex
62
7
6
CONTINUOUS
100
AcDb2dVertex
10
335.4565471925
20
187.5237742761
0
VERTEX
5
27B
100
AcDbEntity
8
0
100
AcDbVertex
62
7
6
CONTINUOUS
100
AcDb2dVertex
10
335.9934102150
20
188.1741991307
0
VERTEX
5
27C
100
AcDbEntity
8
0
100
AcDbVertex
62
7
6
CONTINUOUS
100
AcDb2dVertex
10
336.5777324250
20
188.7856602273
0
SEQEND
5
27D
100
AcDbEntity
8
0
0
LINE
5
27E
100
AcDbEntity
8
0
100
AcDbLine
62
7
6
CONTINUOUS
10
350.9899742119
20
230.8034603188
11
351.1941406839
21
231.2043269208
0
LINE
5
27F
100
AcDbEntity
8
0
100
AcDbLine
62
7
6
CONTINUOUS
10
355.8899736278
20
230.8034603188
11
356.0941406839
21
231.2043269208
0
POLYLINE
5
280
100
AcDbEntity
8
0
100
AcDb2dPolyline
62
7
6
CONTINUOUS
66
1
70
0
0
VERTEX
5
281
100
AcDbEntity
8
0
100
AcDbVertex
62
7
6
CONTINUOUS
100
AcDb2dVertex
10
356.6005195533
20
227.4104110694
0
VERTEX
5
282
100
AcDbEntity
8
0
100
AcDbVertex
62
7
6
CONTINUOUS
100
AcDb2dVertex
10
356.4873922198
20
227.2013034281
0
VERTEX
5
283
100
AcDbEntity
8
0
100
AcDbVertex
62
7
6
CONTINUOUS
100
AcDb2dVertex
10
356.3942513457
20
226.9852031115
0
VERTEX
5
284
100
AcDbEntity
8
0
100
AcDbVertex
62
7
6
CONTINUOUS
100
AcDb2dVertex
10
356.3208570408
20
226.7612495192
0
VERTEX
5
285
100
AcDbEntity
8
0
100
AcDbVertex
62
7
6
CONTINUOUS
100
AcDb2dVertex
10
356.2679289754
20
226.5320244520
0
VERTEX
5
286
100
AcDbEntity
8
0
100
AcDbVertex
62
7
6
CONTINUOUS
100
AcDb2dVertex
10
356.2361868198
20
226.3001097107
0
VERTEX
5
287
100
AcDbEntity
8
0
100
AcDbVertex
62
7
6
CONTINUOUS
100
AcDb2dVertex
10
356.2253906839
20
226.0646446950
0
SEQEND
5
288
100
AcDbEntity
8
0
0
LINE
5
289
100
AcDbEntity
8
0
100
AcDbLine
62
7
6
CONTINUOUS
10
355.4816406839
20
231.3045435537
11
355.2774736278
21
231.0038936549
0
LINE
5
28A
100
AcDbEntity
8
0
100
AcDbLine
62
7
6
CONTINUOUS
10
336.5777324250
20
188.7856602273
11
337.2061320210
21
189.3553024432
0
LINE
5
28B
100
AcDbEntity
8
0
100
AcDbLine
62
7
6
CONTINUOUS
10
337.2061320210
20
189.3553024432
11
337.8756833413
21
189.8798378885
0
LINE
5
28C
100
AcDbEntity
8
0
100
AcDbLine
62
7
6
CONTINUOUS
10
342.2253906839
20
212.6069809519
11
342.2683959502
21
212.2060282439
0
POLYLINE
5
28D
100
AcDbEntity
8
0
100
AcDb2dPolyline
62
7
6
CONTINUOUS
66
1
70
0
0
VERTEX
5
28E
100
AcDbEntity
8
0
100
AcDbVertex
62
7
6
CONTINUOUS
100
AcDb2dVertex
10
343.6253906839
20
226.0646446950
0
VERTEX
5
28F
100
AcDbEntity
8
0
100
AcDbVertex
62
7
6
CONTINUOUS
100
AcDb2dVertex
10
343.6145945479
20
226.3001097107
0
VERTEX
5
290
100
AcDbEntity
8
0
100
AcDbVertex
62
7
6
CONTINUOUS
100
AcDb2dVertex
10
343.5828523923
20
226.5320244520
0
VERTEX
5
291
100
AcDbEntity
8
0
100
AcDbVertex
62
7
6
CONTINUOUS
100
AcDb2dVertex
10
343.5299243269
20
226.7612495192
0
VERTEX
5
292
100
AcDbEntity
8
0
100
AcDbVertex
62
7
6
CONTINUOUS
100
AcDb2dVertex
10
343.4565300221
20
226.9852031115
0
VERTEX
5
293
100
AcDbEntity
8
0
100
AcDbVertex
62
7
6
CONTINUOUS
100
AcDb2dVertex
10
343.3633891479
20
227.2013034281
0
VERTEX
5
294
100
AcDbEntity
8
0
100
AcDbVertex
62
7
6
CONTINUOUS
100
AcDb2dVertex
10
343.2502618145
20
227.4104110694
0
SEQEND
5
295
100
AcDbEntity
8
0
0
LINE
5
296
100
AcDbEntity
8
0
100
AcDbLine
62
7
6
CONTINUOUS
10
342.2253906839
20
226.0646446950
11
342.2253906839
21
212.6069809519
0
LINE
5
297
100
AcDbEntity
8
0
100
AcDbLine
62
7
6
CONTINUOUS
10
342.9253906839
20
234.8121261281
11
342.9253906839
21
230.1019438180
0
LINE
5
298
100
AcDbEntity
8
0
100
AcDbLine
62
7
6
CONTINUOUS
10
343.5378906839
20
230.1019438180
11
343.5378906839
21
232.2064933907
0
LINE
5
299
100
AcDbEntity
8
0
100
AcDbLine
62
7
6
CONTINUOUS
10
343.5378906839
20
232.8077931884
11
343.5378906839
21
234.3110429633
0
LINE
5
29A
100
AcDbEntity
8
0
100
AcDbLine
62
7
6
CONTINUOUS
10
343.6253906839
20
212.6069809519
11
343.6253906839
21
226.0646446950
0
LINE
5
29B
100
AcDbEntity
8
0
100
AcDbLine
62
7
6
CONTINUOUS
10
346.0899739198
20
233.7097431656
11
346.0899739198
21
233.4090929860
0
LINE
5
29C
100
AcDbEntity
8
0
100
AcDbLine
62
7
6
CONTINUOUS
10
346.7024739198
20
233.3088763531
11
346.7024739198
21
233.7097431656
0
LINE
5
29D
100
AcDbEntity
8
0
100
AcDbLine
62
7
6
CONTINUOUS
10
347.4053906839
20
225.3917615079
11
347.4053906839
21
220.0086960106
0
LINE
5
29E
100
AcDbEntity
8
0
100
AcDbLine
62
7
6
CONTINUOUS
10
347.4053906839
20
218.6629296363
11
347.4053906839
21
213.2798641391
0
LINE
5
29F
100
AcDbEntity
8
0
100
AcDbLine
62
7
6
CONTINUOUS
10
347.6212239198
20
234.8121261281
11
347.6212239198
21
231.7054100855
0
LINE
5
2A0
100
AcDbEntity
8
0
100
AcDbLine
62
7
6
CONTINUOUS
10
348.2337242119
20
231.7054100855
11
348.2337242119
21
234.8121261281
0
LINE
5
2A1
100
AcDbEntity
8
0
100
AcDbLine
62
7
6
CONTINUOUS
10
348.5253906839
20
214.3564772385
11
348.5253906839
21
217.5863165369
0
LINE
5
2A2
100
AcDbEntity
8
0
100
AcDbLine
62
7
6
CONTINUOUS
10
348.5253906839
20
221.0853091101
11
348.5253906839
21
224.3151484084
0
LINE
5
2A3
100
AcDbEntity
8
0
100
AcDbLine
62
7
6
CONTINUOUS
10
349.2253906839
20
209.3771416536
11
349.2253906839
21
209.2425650161
0
LINE
5
2A4
100
AcDbEntity
8
0
100
AcDbLine
62
7
6
CONTINUOUS
10
349.3653906839
20
222.1619222095
11
349.3653906839
21
221.0853091101
0
LINE
5
2A5
100
AcDbEntity
8
0
100
AcDbLine
62
7
6
CONTINUOUS
10
349.3653906839
20
220.0086960106
11
349.3653906839
21
218.6629296363
0
LINE
5
2A6
100
AcDbEntity
8
0
100
AcDbLine
62
7
6
CONTINUOUS
10
349.3653906839
20
217.5863165369
11
349.3653906839
21
216.5097034374
0
LINE
5
2A7
100
AcDbEntity
8
DEFAULT_1
100
AcDbLine
62
2
6
CENTER
10
349.9253906839
20
355.4058308005
11
349.9253906839
21
16.7967312102
0
LINE
5
2A8
100
AcDbEntity
8
0
100
AcDbLine
62
7
6
CONTINUOUS
10
350.4853906839
20
216.5097034374
11
350.4853906839
21
217.5863165369
0
LINE
5
2A9
100
AcDbEntity
8
0
100
AcDbLine
62
7
6
CONTINUOUS
10
350.4853906839
20
218.6629296363
11
350.4853906839
21
220.0086960106
0
LINE
5
2AA
100
AcDbEntity
8
0
100
AcDbLine
62
7
6
CONTINUOUS
10
350.4853906839
20
221.0853091101
11
350.4853906839
21
222.1619222095
0
LINE
5
2AB
100
AcDbEntity
8
0
100
AcDbLine
62
7
6
CONTINUOUS
10
350.6253906839
20
209.2425650161
11
350.6253906839
21
209.3771416536
0
LINE
5
2AC
100
AcDbEntity
8
0
100
AcDbLine
62
7
6
CONTINUOUS
10
350.6837242119
20
234.8121261281
11
350.6837242119
21
231.7054100855
0
LINE
5
2AD
100
AcDbEntity
8
0
100
AcDbLine
62
7
6
CONTINUOUS
10
351.2962242119
20
231.7054100855
11
351.2962242119
21
234.8121261281
0
LINE
5
2AE
100
AcDbEntity
8
0
100
AcDbLine
62
7
6
CONTINUOUS
10
351.3253906839
20
224.3151484084
11
351.3253906839
21
221.0853091101
0
LINE
5
2AF
100
AcDbEntity
8
0
100
AcDbLine
62
7
6
CONTINUOUS
10
351.3253906839
20
217.5863165369
11
351.3253906839
21
214.3564772385
0
POLYLINE
5
2B0
100
AcDbEntity
8
0
100
AcDb2dPolyline
62
7
6
CONTINUOUS
66
1
70
0
0
VERTEX
5
2B1
100
AcDbEntity
8
0
100
AcDbVertex
62
7
6
CONTINUOUS
100
AcDb2dVertex
10
350.6253906839
20
209.3771416536
0
VERTEX
5
2B2
100
AcDbEntity
8
0
100
AcDbVertex
62
7
6
CONTINUOUS
100
AcDb2dVertex
10
350.6732466773
20
209.7002226698
0
VERTEX
5
2B3
100
AcDbEntity
8
0
100
AcDbVertex
62
7
6
CONTINUOUS
100
AcDb2dVertex
10
350.7941986751
20
209.9827365220
0
VERTEX
5
2B4
100
AcDbEntity
8
0
100
AcDbVertex
62
7
6
CONTINUOUS
100
AcDb2dVertex
10
350.9959701789
20
210.2321075165
0
VERTEX
5
2B5
100
AcDbEntity
8
0
100
AcDbVertex
62
7
6
CONTINUOUS
100
AcDb2dVertex
10
351.2553906839
20
210.4260627345
0
VERTEX
5
2B6
100
AcDbEntity
8
0
100
AcDbVertex
62
7
6
CONTINUOUS
100
AcDb2dVertex
10
351.5492896850
20
210.5423292570
0
VERTEX
5
2B7
100
AcDbEntity
8
0
100
AcDbVertex
62
7
6
CONTINUOUS
100
AcDb2dVertex
10
351.8853906839
20
210.5883313904
0
SEQEND
5
2B8
100
AcDbEntity
8
0
0
LINE
5
2B9
100
AcDbEntity
8
0
100
AcDbLine
62
7
6
CONTINUOUS
10
351.1941406839
20
231.2043269208
11
351.2962242119
21
231.7054100855
0
LINE
5
2BA
100
AcDbEntity
8
0
100
AcDbLine
62
7
6
CONTINUOUS
10
356.0941406839
20
231.2043269208
11
356.1962236278
21
231.7054100855
0
LINE
5
2BB
100
AcDbEntity
8
0
100
AcDbLine
62
7
6
CONTINUOUS
10
355.5837236278
20
231.7054100855
11
355.4816406839
21
231.3045435537
0
LINE
5
2BC
100
AcDbEntity
8
0
100
AcDbLine
62
7
6
CONTINUOUS
10
337.8756833413
20
189.8798378885
11
337.9379003497
21
189.9218248452
0
LINE
5
2BD
100
AcDbEntity
8
0
100
AcDbLine
62
7
6
CONTINUOUS
10
339.1471371695
20
190.6820594098
11
339.3235359574
21
190.7836608170
0
POLYLINE
5
2BE
100
AcDbEntity
8
0
100
AcDb2dPolyline
62
7
6
CONTINUOUS
66
1
70
0
0
VERTEX
5
2BF
100
AcDbEntity
8
0
100
AcDbVertex
62
7
6
CONTINUOUS
100
AcDb2dVertex
10
339.3235359574
20
190.7836608170
0
VERTEX
5
2C0
100
AcDbEntity
8
0
100
AcDbVertex
62
7
6
CONTINUOUS
100
AcDb2dVertex
10
340.0943649518
20
191.1582837114
0
VERTEX
5
2C1
100
AcDbEntity
8
0
100
AcDbVertex
62
7
6
CONTINUOUS
100
AcDb2dVertex
10
340.8913237399
20
191.4784223852
0
VERTEX
5
2C2
100
AcDbEntity
8
0
100
AcDbVertex
62
7
6
CONTINUOUS
100
AcDb2dVertex
10
341.7100976658
20
191.7428449556
0
SEQEND
5
2C3
100
AcDbEntity
8
0
0
LINE
5
2C4
100
AcDbEntity
8
0
100
AcDbLine
62
7
6
CONTINUOUS
10
343.0434368997
20
191.7898309376
11
343.0432745589
21
191.7897782146
0
LINE
5
2C5
100
AcDbEntity
8
0
100
AcDbLine
62
7
6
CONTINUOUS
10
338.9708121803
20
190.6308057756
11
341.8272381828
21
191.4611033639
0
LINE
5
2C6
100
AcDbEntity
8
0
100
AcDbLine
62
7
6
CONTINUOUS
10
343.0432061237
20
191.7897694043
11
342.9088316133
21
191.7512615655
0
POLYLINE
5
2C7
100
AcDbEntity
8
0
100
AcDb2dPolyline
62
7
6
CONTINUOUS
66
1
70
0
0
VERTEX
5
2C8
100
AcDbEntity
8
0
100
AcDbVertex
62
7
6
CONTINUOUS
100
AcDb2dVertex
10
342.2683959502
20
212.2060282439
0
VERTEX
5
2C9
100
AcDbEntity
8
0
100
AcDbVertex
62
7
6
CONTINUOUS
100
AcDb2dVertex
10
342.3852436656
20
211.8344772090
0
VERTEX
5
2CA
100
AcDbEntity
8
0
100
AcDbVertex
62
7
6
CONTINUOUS
100
AcDb2dVertex
10
342.5802653013
20
211.4860964633
0
VERTEX
5
2CB
100
AcDbEntity
8
0
100
AcDbVertex
62
7
6
CONTINUOUS
100
AcDb2dVertex
10
342.8404664434
20
211.1795801582
0
VERTEX
5
2CC
100
AcDbEntity
8
0
100
AcDbVertex
62
7
6
CONTINUOUS
100
AcDb2dVertex
10
343.1593351827
20
210.9294587670
0
VERTEX
5
2CD
100
AcDbEntity
8
0
100
AcDbVertex
62
7
6
CONTINUOUS
100
AcDb2dVertex
10
343.5217554759
20
210.7419919388
0
VERTEX
5
2CE
100
AcDbEntity
8
0
100
AcDbVertex
62
7
6
CONTINUOUS
100
AcDb2dVertex
10
343.9082798079
20
210.6296707057
0
VERTEX
5
2CF
100
AcDbEntity
8
0
100
AcDbVertex
62
7
6
CONTINUOUS
100
AcDb2dVertex
10
344.3253906839
20
210.5883313904
0
SEQEND
5
2D0
100
AcDbEntity
8
0
0
LINE
5
2D1
100
AcDbEntity
8
0
100
AcDbLine
62
7
6
CONTINUOUS
10
343.6519773469
20
212.4274914985
11
343.6253906839
21
212.6069809519
0
LINE
5
2D2
100
AcDbEntity
8
0
100
AcDbLine
62
7
6
CONTINUOUS
10
352.1128906839
20
234.8121261281
11
352.1128906839
21
230.1019438180
0
LINE
5
2D3
100
AcDbEntity
8
0
100
AcDbLine
62
7
6
CONTINUOUS
10
352.4453906839
20
213.2798641391
11
352.4453906839
21
218.6629296363
0
LINE
5
2D4
100
AcDbEntity
8
0
100
AcDbLine
62
7
6
CONTINUOUS
10
352.4453906839
20
220.0086960106
11
352.4453906839
21
225.3917615079
0
LINE
5
2D5
100
AcDbEntity
8
0
100
AcDbLine
62
7
6
CONTINUOUS
10
352.7253906839
20
230.7032436859
11
352.7253906839
21
234.2108263304
0
LINE
5
2D6
100
AcDbEntity
8
0
100
AcDbLine
62
7
6
CONTINUOUS
10
355.5837236278
20
233.2086597202
11
355.5837236278
21
231.7054100855
0
LINE
5
2D7
100
AcDbEntity
8
0
100
AcDbLine
62
7
6
CONTINUOUS
10
356.1962236278
20
231.7054100855
11
356.1962236278
21
233.2086597202
0
LINE
5
2D8
100
AcDbEntity
8
0
100
AcDbLine
62
7
6
CONTINUOUS
10
356.2253906839
20
226.0646446950
11
356.2253906839
21
212.6069809519
0
LINE
5
2D9
100
AcDbEntity
8
0
100
AcDbLine
62
7
6
CONTINUOUS
10
357.6253906839
20
212.6069809519
11
357.6253906839
21
226.0646446950
0
LINE
5
2DA
100
AcDbEntity
8
0
100
AcDbLine
62
7
6
CONTINUOUS
10
359.7253906839
20
227.4104110694
11
359.7253906839
21
228.7561774437
0
POLYLINE
5
2DB
100
AcDbEntity
8
0
100
AcDb2dPolyline
62
7
6
CONTINUOUS
66
1
70
0
0
VERTEX
5
2DC
100
AcDbEntity
8
0
100
AcDbVertex
62
7
6
CONTINUOUS
100
AcDb2dVertex
10
357.6253906839
20
226.0646446950
0
VERTEX
5
2DD
100
AcDbEntity
8
0
100
AcDbVertex
62
7
6
CONTINUOUS
100
AcDb2dVertex
10
357.6785640099
20
226.4236236019
0
VERTEX
5
2DE
100
AcDbEntity
8
0
100
AcDbVertex
62
7
6
CONTINUOUS
100
AcDb2dVertex
10
357.8129551186
20
226.7375278822
0
VERTEX
5
2DF
100
AcDbEntity
8
0
100
AcDbVertex
62
7
6
CONTINUOUS
100
AcDb2dVertex
10
358.0371456784
20
227.0146067650
0
VERTEX
5
2E0
100
AcDbEntity
8
0
100
AcDbVertex
62
7
6
CONTINUOUS
100
AcDb2dVertex
10
358.3253906839
20
227.2301125628
0
VERTEX
5
2E1
100
AcDbEntity
8
0
100
AcDbVertex
62
7
6
CONTINUOUS
100
AcDb2dVertex
10
358.6519451295
20
227.3592975878
0
VERTEX
5
2E2
100
AcDbEntity
8
0
100
AcDbVertex
62
7
6
CONTINUOUS
100
AcDb2dVertex
10
359.0253906839
20
227.4104110694
0
SEQEND
5
2E3
100
AcDbEntity
8
0
0
POLYLINE
5
2E4
100
AcDbEntity
8
0
100
AcDb2dPolyline
62
7
6
CONTINUOUS
66
1
70
0
0
VERTEX
5
2E5
100
AcDbEntity
8
0
100
AcDbVertex
62
7
6
CONTINUOUS
100
AcDb2dVertex
10
356.2253906839
20
212.6069809519
0
VERTEX
5
2E6
100
AcDbEntity
8
0
100
AcDbVertex
62
7
6
CONTINUOUS
100
AcDb2dVertex
10
356.1988040208
20
212.4274914985
0
VERTEX
5
2E7
100
AcDbEntity
8
0
100
AcDbVertex
62
7
6
CONTINUOUS
100
AcDb2dVertex
10
356.1316084665
20
212.2705393583
0
VERTEX
5
2E8
100
AcDbEntity
8
0
100
AcDbVertex
62
7
6
CONTINUOUS
100
AcDb2dVertex
10
356.0195131866
20
212.1319999169
0
VERTEX
5
2E9
100
AcDbEntity
8
0
100
AcDbVertex
62
7
6
CONTINUOUS
100
AcDb2dVertex
10
355.8753906839
20
212.0242470180
0
VERTEX
5
2EA
100
AcDbEntity
8
0
100
AcDbVertex
62
7
6
CONTINUOUS
100
AcDb2dVertex
10
355.7121134610
20
211.9596545055
0
VERTEX
5
2EB
100
AcDbEntity
8
0
100
AcDbVertex
62
7
6
CONTINUOUS
100
AcDb2dVertex
10
355.5253906839
20
211.9340977648
0
SEQEND
5
2EC
100
AcDbEntity
8
0
0
LINE
5
2ED
100
AcDbEntity
8
0
100
AcDbLine
62
7
6
CONTINUOUS
10
341.7100976658
20
191.7428449556
11
342.5465978302
21
191.9497429555
0
LINE
5
2EE
100
AcDbEntity
8
0
100
AcDbLine
62
7
6
CONTINUOUS
10
342.5465978302
20
191.9497429555
11
343.3963703383
21
192.0984923881
0
LINE
5
2EF
100
AcDbEntity
8
0
100
AcDbLine
62
7
6
CONTINUOUS
10
344.8270394448
20
192.2761047782
11
349.9253906839
21
193.0836042858
0
POLYLINE
5
2F0
100
AcDbEntity
8
0
100
AcDb2dPolyline
62
7
6
CONTINUOUS
66
1
70
0
0
VERTEX
5
2F1
100
AcDbEntity
8
0
100
AcDbVertex
62
7
6
CONTINUOUS
100
AcDb2dVertex
10
343.3963703383
20
192.0984923881
0
VERTEX
5
2F2
100
AcDbEntity
8
0
100
AcDbVertex
62
7
6
CONTINUOUS
100
AcDb2dVertex
10
344.2528712214
20
192.1877130817
0
VERTEX
5
2F3
100
AcDbEntity
8
0
100
AcDbVertex
62
7
6
CONTINUOUS
100
AcDb2dVertex
10
344.4263768514
20
192.1937582399
0
SEQEND
5
2F4
100
AcDbEntity
8
0
0
LINE
5
2F5
100
AcDbEntity
8
0
100
AcDbLine
62
7
6
CONTINUOUS
10
380.0868991445
20
198.0775935931
11
380.4397758181
21
198.0775935931
0
POLYLINE
5
2F6
100
AcDbEntity
8
0
100
AcDb2dPolyline
62
7
6
CONTINUOUS
66
1
70
0
0
VERTEX
5
2F7
100
AcDbEntity
8
0
100
AcDbVertex
62
7
6
CONTINUOUS
100
AcDb2dVertex
10
356.4544110294
20
192.0984923881
0
VERTEX
5
2F8
100
AcDbEntity
8
0
100
AcDbVertex
62
7
6
CONTINUOUS
100
AcDb2dVertex
10
355.5979101464
20
192.1877130817
0
VERTEX
5
2F9
100
AcDbEntity
8
0
100
AcDbVertex
62
7
6
CONTINUOUS
100
AcDb2dVertex
10
355.4243704403
20
192.1937594271
0
SEQEND
5
2FA
100
AcDbEntity
8
0
0
LINE
5
2FB
100
AcDbEntity
8
0
100
AcDbLine
62
7
6
CONTINUOUS
10
349.9253906839
20
193.0836042858
11
355.0237419229
21
192.2761047782
0
LINE
5
2FC
100
AcDbEntity
8
0
100
AcDbLine
62
7
6
CONTINUOUS
10
357.3041835375
20
191.9497429555
11
356.4544110294
21
192.0984923881
0
LINE
5
2FD
100
AcDbEntity
8
0
100
AcDbLine
62
7
6
CONTINUOUS
10
358.1406837019
20
191.7428449556
11
357.3041835375
21
191.9497429555
0
LINE
5
2FE
100
AcDbEntity
8
0
100
AcDbLine
62
7
6
CONTINUOUS
10
356.9419497549
20
191.7512615654
11
356.8075752457
21
191.7897694038
0
LINE
5
2FF
100
AcDbEntity
8
0
100
AcDbLine
62
7
6
CONTINUOUS
10
358.0235431849
20
191.4611033639
11
360.8799691874
21
190.6308057756
0
LINE
5
300
100
AcDbEntity
8
0
100
AcDbLine
62
7
6
CONTINUOUS
10
356.8074261238
20
191.7898044346
11
356.8075068104
21
191.7897782141
0
POLYLINE
5
301
100
AcDbEntity
8
0
100
AcDb2dPolyline
62
7
6
CONTINUOUS
66
1
70
0
0
VERTEX
5
302
100
AcDbEntity
8
0
100
AcDbVertex
62
7
6
CONTINUOUS
100
AcDb2dVertex
10
360.5272454104
20
190.7836608170
0
VERTEX
5
303
100
AcDbEntity
8
0
100
AcDbVertex
62
7
6
CONTINUOUS
100
AcDb2dVertex
10
359.7564164159
20
191.1582837114
0
VERTEX
5
304
100
AcDbEntity
8
0
100
AcDbVertex
62
7
6
CONTINUOUS
100
AcDb2dVertex
10
358.9594576279
20
191.4784223852
0
VERTEX
5
305
100
AcDbEntity
8
0
100
AcDbVertex
62
7
6
CONTINUOUS
100
AcDb2dVertex
10
358.1406837019
20
191.7428449556
0
SEQEND
5
306
100
AcDbEntity
8
0
0
LINE
5
307
100
AcDbEntity
8
0
100
AcDbLine
62
7
6
CONTINUOUS
10
360.7036441982
20
190.6820594098
11
360.5272454104
21
190.7836608170
0
LINE
5
308
100
AcDbEntity
8
0
100
AcDbLine
62
7
6
CONTINUOUS
10
361.9750980264
20
189.8798378885
11
361.9128817666
21
189.9218243401
0
LINE
5
309
100
AcDbEntity
8
0
100
AcDbLine
62
7
6
CONTINUOUS
10
362.6446493467
20
189.3553024432
11
361.9750980264
21
189.8798378885
0
LINE
5
30A
100
AcDbEntity
8
0
100
AcDbLine
62
7
6
CONTINUOUS
10
363.2730489427
20
188.7856602273
11
362.6446493467
21
189.3553024432
0
LINE
5
30B
100
AcDbEntity
8
0
100
AcDbLine
62
7
6
CONTINUOUS
10
362.1345282266
20
189.5548514795
11
372.3632374061
21
167.6193138562
0
LINE
5
30C
100
AcDbEntity
8
0
100
AcDbLine
62
7
6
CONTINUOUS
10
345.2733073018
20
232.2064933907
11
346.0899739198
21
230.1019438180
0
LINE
5
30D
100
AcDbEntity
8
0
100
AcDbLine
62
7
6
CONTINUOUS
10
345.9878906839
20
234.0103930645
11
346.0899739198
21
233.7097431656
0
LINE
5
30E
100
AcDbEntity
8
0
100
AcDbLine
62
7
6
CONTINUOUS
10
346.7024739198
20
233.7097431656
11
346.6003906839
21
234.0103930645
0
LINE
5
30F
100
AcDbEntity
8
0
100
AcDbLine
62
7
6
CONTINUOUS
10
348.3358071558
20
231.3045435537
11
348.2337242119
21
231.7054100855
0
LINE
5
310
100
AcDbEntity
8
0
100
AcDbLine
62
7
6
CONTINUOUS
10
347.6212239198
20
231.7054100855
11
347.7233074479
21
231.2043269208
0
LINE
5
311
100
AcDbEntity
8
0
100
AcDbLine
62
7
6
CONTINUOUS
10
369.1113220184
20
115.9143340387
11
369.1113047847
21
115.9144903435
0
LINE
5
312
100
AcDbEntity
8
0
100
AcDbLine
62
7
6
CONTINUOUS
10
368.6760864037
20
120.3394391151
11
368.6760788373
21
120.3395308203
0
LINE
5
313
100
AcDbEntity
8
0
100
AcDbLine
62
7
6
CONTINUOUS
10
363.9253906839
20
286.8724901527
11
363.9253906839
21
258.0032935195
0
LINE
5
314
100
AcDbEntity
8
0
100
AcDbLine
62
7
6
CONTINUOUS
10
369.3253906839
20
134.2455427855
11
369.3253906839
21
139.5918104520
0
POLYLINE
5
315
100
AcDbEntity
8
0
100
AcDb2dPolyline
62
7
6
CONTINUOUS
66
1
70
0
0
VERTEX
5
316
100
AcDbEntity
8
0
100
AcDbVertex
62
7
6
CONTINUOUS
100
AcDb2dVertex
10
355.5253906839
20
210.5883313904
0
VERTEX
5
317
100
AcDbEntity
8
0
100
AcDbVertex
62
7
6
CONTINUOUS
100
AcDb2dVertex
10
355.9425015598
20
210.6296707057
0
VERTEX
5
318
100
AcDbEntity
8
0
100
AcDbVertex
62
7
6
CONTINUOUS
100
AcDb2dVertex
10
356.3290258918
20
210.7419919388
0
VERTEX
5
319
100
AcDbEntity
8
0
100
AcDbVertex
62
7
6
CONTINUOUS
100
AcDb2dVertex
10
356.6914461850
20
210.9294587670
0
VERTEX
5
31A
100
AcDbEntity
8
0
100
AcDbVertex
62
7
6
CONTINUOUS
100
AcDb2dVertex
10
357.0103149243
20
211.1795801582
0
VERTEX
5
31B
100
AcDbEntity
8
0
100
AcDbVertex
62
7
6
CONTINUOUS
100
AcDb2dVertex
10
357.2705160664
20
211.4860964633
0
VERTEX
5
31C
100
AcDbEntity
8
0
100
AcDbVertex
62
7
6
CONTINUOUS
100
AcDb2dVertex
10
357.4655377021
20
211.8344772090
0
VERTEX
5
31D
100
AcDbEntity
8
0
100
AcDbVertex
62
7
6
CONTINUOUS
100
AcDb2dVertex
10
357.5823854175
20
212.2060282439
0
VERTEX
5
31E
100
AcDbEntity
8
0
100
AcDbVertex
62
7
6
CONTINUOUS
100
AcDb2dVertex
10
357.6253906839
20
212.6069809519
0
SEQEND
5
31F
100
AcDbEntity
8
0
0
LINE
5
320
100
AcDbEntity
8
0
100
AcDbLine
62
7
6
CONTINUOUS
10
349.2253906839
20
209.2425650161
11
350.6253906839
21
209.2425650161
0
POLYLINE
5
321
100
AcDbEntity
8
0
100
AcDb2dPolyline
62
7
6
CONTINUOUS
66
1
70
0
0
VERTEX
5
322
100
AcDbEntity
8
0
100
AcDbVertex
62
7
6
CONTINUOUS
100
AcDb2dVertex
10
347.9653906839
20
210.5883313904
0
VERTEX
5
323
100
AcDbEntity
8
0
100
AcDbVertex
62
7
6
CONTINUOUS
100
AcDb2dVertex
10
348.3014916828
20
210.5423292570
0
VERTEX
5
324
100
AcDbEntity
8
0
100
AcDbVertex
62
7
6
CONTINUOUS
100
AcDb2dVertex
10
348.5953906839
20
210.4260627345
0
VERTEX
5
325
100
AcDbEntity
8
0
100
AcDbVertex
62
7
6
CONTINUOUS
100
AcDb2dVertex
10
348.8548111888
20
210.2321075165
0
VERTEX
5
326
100
AcDbEntity
8
0
100
AcDbVertex
62
7
6
CONTINUOUS
100
AcDb2dVertex
10
349.0565826926
20
209.9827365220
0
VERTEX
5
327
100
AcDbEntity
8
0
100
AcDbVertex
62
7
6
CONTINUOUS
100
AcDb2dVertex
10
349.1775346904
20
209.7002226698
0
VERTEX
5
328
100
AcDbEntity
8
0
100
AcDbVertex
62
7
6
CONTINUOUS
100
AcDb2dVertex
10
349.2253906839
20
209.3771416536
0
SEQEND
5
329
100
AcDbEntity
8
0
0
POLYLINE
5
32A
100
AcDbEntity
8
0
100
AcDb2dPolyline
62
7
6
CONTINUOUS
66
1
70
0
0
VERTEX
5
32B
100
AcDbEntity
8
0
100
AcDbVertex
62
7
6
CONTINUOUS
100
AcDb2dVertex
10
349.9253906839
20
211.1058098610
0
VERTEX
5
32C
100
AcDbEntity
8
0
100
AcDbVertex
62
7
6
CONTINUOUS
100
AcDb2dVertex
10
349.6563392406
20
211.3505136179
0
VERTEX
5
32D
100
AcDbEntity
8
0
100
AcDbVertex
62
7
6
CONTINUOUS
100
AcDb2dVertex
10
349.3608562641
20
211.5539857402
0
VERTEX
5
32E
100
AcDbEntity
8
0
100
AcDbVertex
62
7
6
CONTINUOUS
100
AcDb2dVertex
10
349.0357679007
20
211.7175674854
0
VERTEX
5
32F
100
AcDbEntity
8
0
100
AcDbVertex
62
7
6
CONTINUOUS
100
AcDb2dVertex
10
348.6905957113
20
211.8372350812
0
VERTEX
5
330
100
AcDbEntity
8
0
100
AcDbVertex
62
7
6
CONTINUOUS
100
AcDb2dVertex
10
348.3348612569
20
211.9089647551
0
VERTEX
5
331
100
AcDbEntity
8
0
100
AcDbVertex
62
7
6
CONTINUOUS
100
AcDb2dVertex
10
347.9653906839
20
211.9340977648
0
SEQEND
5
332
100
AcDbEntity
8
0
0
LINE
5
333
100
AcDbEntity
8
0
100
AcDbLine
62
7
6
CONTINUOUS
10
347.7233074479
20
231.2043269208
11
347.9274742119
21
230.8034603188
0
POLYLINE
5
334
100
AcDbEntity
8
0
100
AcDb2dPolyline
62
7
6
CONTINUOUS
66
1
70
0
0
VERTEX
5
335
100
AcDbEntity
8
0
100
AcDbVertex
62
7
6
CONTINUOUS
100
AcDb2dVertex
10
365.6950450572
20
185.3744890062
0
VERTEX
5
336
100
AcDbEntity
8
0
100
AcDbVertex
62
7
6
CONTINUOUS
100
AcDb2dVertex
10
365.3143955718
20
186.1221907936
0
VERTEX
5
337
100
AcDbEntity
8
0
100
AcDbVertex
62
7
6
CONTINUOUS
100
AcDb2dVertex
10
364.8812334259
20
186.8380430769
0
VERTEX
5
338
100
AcDbEntity
8
0
100
AcDbVertex
62
7
6
CONTINUOUS
100
AcDb2dVertex
10
364.3942341752
20
187.5237742761
0
VERTEX
5
339
100
AcDbEntity
8
0
100
AcDbVertex
62
7
6
CONTINUOUS
100
AcDb2dVertex
10
363.8573711527
20
188.1741991307
0
VERTEX
5
33A
100
AcDbEntity
8
0
100
AcDbVertex
62
7
6
CONTINUOUS
100
AcDb2dVertex
10
363.2730489427
20
188.7856602273
0
SEQEND
5
33B
100
AcDbEntity
8
0
0
LINE
5
33C
100
AcDbEntity
8
0
100
AcDbLine
62
7
6
CONTINUOUS
10
370.1168249114
20
175.8277375457
11
365.6950450572
21
185.3744890062
0
LINE
5
33D
100
AcDbEntity
8
0
100
AcDbLine
62
7
6
CONTINUOUS
10
346.8045574479
20
230.1019438180
11
345.8858074479
21
232.4069266566
0
LINE
5
33E
100
AcDbEntity
8
0
100
AcDbLine
62
7
6
CONTINUOUS
10
355.4816406839
20
233.6095262519
11
355.5837236278
21
233.2086597202
0
LINE
5
33F
100
AcDbEntity
8
0
100
AcDbLine
62
7
6
CONTINUOUS
10
356.1962236278
20
233.2086597202
11
356.0941406839
21
233.7097431656
0
LINE
5
340
100
AcDbEntity
8
0
100
AcDbLine
62
7
6
CONTINUOUS
10
375.9253906839
20
182.0765821189
11
375.9253906839
21
79.8392361181
0
LINE
5
341
100
AcDbEntity
8
0
100
AcDbLine
62
7
6
CONTINUOUS
10
375.9253906839
20
79.0775935931
11
375.9253906839
21
79.7106299191
0
LINE
5
342
100
AcDbEntity
8
0
100
AcDbLine
62
7
6
CONTINUOUS
10
377.9253906839
20
320.1448936556
11
377.9253906839
21
316.0801278004
0
LINE
5
343
100
AcDbEntity
8
0
100
AcDbLine
62
7
6
CONTINUOUS
10
383.7955849491
20
269.4144993214
11
383.1715783835
21
211.8640364174
0
LINE
5
344
100
AcDbEntity
8
0
100
AcDbLine
62
7
6
CONTINUOUS
10
373.8607209496
20
176.3082201526
11
373.1396887347
21
173.3060714099
0
LINE
5
345
100
AcDbEntity
8
0
100
AcDbLine
62
7
6
CONTINUOUS
10
373.3477531758
20
172.1680088313
11
373.3478319364
21
172.1683350360
0
LINE
5
346
100
AcDbEntity
8
0
100
AcDbLine
62
7
6
CONTINUOUS
10
372.7396705796
20
163.6023381739
11
362.1232920295
21
121.9308276489
0
LINE
5
347
100
AcDbEntity
8
0
100
AcDbLine
62
7
6
CONTINUOUS
10
371.5761249519
20
150.9340000537
11
369.9444576981
21
144.5293641581
0
LINE
5
348
100
AcDbEntity
8
0
100
AcDbLine
62
7
6
CONTINUOUS
10
382.5991486393
20
207.6601155770
11
382.5991742081
21
207.6602122066
0
LINE
5
349
100
AcDbEntity
8
0
100
AcDbLine
62
7
6
CONTINUOUS
10
383.2183174812
20
216.1746588608
11
384.5624237354
21
221.1909316925
0
LINE
5
34A
100
AcDbEntity
8
0
100
AcDbLine
62
7
6
CONTINUOUS
10
384.9319690714
20
214.8426870516
11
380.4397758181
21
198.0775935931
0
POLYLINE
5
34B
100
AcDbEntity
8
0
100
AcDb2dPolyline
62
7
6
CONTINUOUS
66
1
70
0
0
VERTEX
5
34C
100
AcDbEntity
8
0
100
AcDbVertex
62
7
6
CONTINUOUS
100
AcDb2dVertex
10
351.8853906839
20
211.9340977648
0
VERTEX
5
34D
100
AcDbEntity
8
0
100
AcDbVertex
62
7
6
CONTINUOUS
100
AcDb2dVertex
10
351.5159201108
20
211.9089647551
0
VERTEX
5
34E
100
AcDbEntity
8
0
100
AcDbVertex
62
7
6
CONTINUOUS
100
AcDb2dVertex
10
351.1601856564
20
211.8372350812
0
VERTEX
5
34F
100
AcDbEntity
8
0
100
AcDbVertex
62
7
6
CONTINUOUS
100
AcDb2dVertex
10
350.8150134671
20
211.7175674854
0
VERTEX
5
350
100
AcDbEntity
8
0
100
AcDbVertex
62
7
6
CONTINUOUS
100
AcDb2dVertex
10
350.4899251036
20
211.5539857402
0
VERTEX
5
351
100
AcDbEntity
8
0
100
AcDbVertex
62
7
6
CONTINUOUS
100
AcDb2dVertex
10
350.1944421271
20
211.3505136179
0
VERTEX
5
352
100
AcDbEntity
8
0
100
AcDbVertex
62
7
6
CONTINUOUS
100
AcDb2dVertex
10
349.9253906839
20
211.1058098610
0
SEQEND
5
353
100
AcDbEntity
8
0
0
LINE
5
354
100
AcDbEntity
8
0
100
AcDbLine
62
7
6
CONTINUOUS
10
344.3253906839
20
210.5883313904
11
347.9653906839
21
210.5883313904
0
LINE
5
355
100
AcDbEntity
8
0
100
AcDbLine
62
7
6
CONTINUOUS
10
351.8853906839
20
210.5883313904
11
355.5253906839
21
210.5883313904
0
LINE
5
356
100
AcDbEntity
8
0
100
AcDbLine
62
7
6
CONTINUOUS
10
383.1715783835
20
211.9340000537
11
384.1525887392
21
211.9340000537
0
LINE
5
357
100
AcDbEntity
8
0
100
AcDbLine
62
7
6
CONTINUOUS
10
355.5253906839
20
211.9340977648
11
351.8853906839
21
211.9340977648
0
LINE
5
358
100
AcDbEntity
8
0
100
AcDbLine
62
7
6
CONTINUOUS
10
347.9653906839
20
211.9340977648
11
344.3253906839
21
211.9340977648
0
LINE
5
359
100
AcDbEntity
8
0
100
AcDbLine
62
7
6
CONTINUOUS
10
383.1831797556
20
212.9340000537
11
384.4205379317
21
212.9340000537
0
LINE
5
35A
100
AcDbEntity
8
0
100
AcDbLine
62
7
6
CONTINUOUS
10
347.4053906839
20
213.2798641391
11
352.4453906839
21
213.2798641391
0
LINE
5
35B
100
AcDbEntity
8
0
100
AcDbLine
62
7
6
CONTINUOUS
10
351.3253906839
20
214.3564772385
11
348.5253906839
21
214.3564772385
0
LINE
5
35C
100
AcDbEntity
8
0
100
AcDbLine
62
7
6
CONTINUOUS
10
383.2038752141
20
214.8426870516
11
384.9319690714
21
214.8426870516
0
LINE
5
35D
100
AcDbEntity
8
0
100
AcDbLine
62
7
6
CONTINUOUS
10
349.3653906839
20
216.5097034374
11
350.4853906839
21
216.5097034374
0
LINE
5
35E
100
AcDbEntity
8
0
100
AcDbLine
62
7
6
CONTINUOUS
10
348.5253906839
20
217.5863165369
11
349.3653906839
21
217.5863165369
0
LINE
5
35F
100
AcDbEntity
8
0
100
AcDbLine
62
7
6
CONTINUOUS
10
350.4853906839
20
217.5863165369
11
351.3253906839
21
217.5863165369
0
LINE
5
360
100
AcDbEntity
8
0
100
AcDbLine
62
7
6
CONTINUOUS
10
352.4453906839
20
218.6629296363
11
350.4853906839
21
218.6629296363
0
LINE
5
361
100
AcDbEntity
8
0
100
AcDbLine
62
7
6
CONTINUOUS
10
349.3653906839
20
218.6629296363
11
347.4053906839
21
218.6629296363
0
LINE
5
362
100
AcDbEntity
8
0
100
AcDbLine
62
7
6
CONTINUOUS
10
347.4053906839
20
220.0086960106
11
349.3653906839
21
220.0086960106
0
LINE
5
363
100
AcDbEntity
8
0
100
AcDbLine
62
7
6
CONTINUOUS
10
350.4853906839
20
220.0086960106
11
352.4453906839
21
220.0086960106
0
LINE
5
364
100
AcDbEntity
8
0
100
AcDbLine
62
7
6
CONTINUOUS
10
351.3253906839
20
221.0853091101
11
350.4853906839
21
221.0853091101
0
LINE
5
365
100
AcDbEntity
8
0
100
AcDbLine
62
7
6
CONTINUOUS
10
349.3653906839
20
221.0853091101
11
348.5253906839
21
221.0853091101
0
POLYLINE
5
366
100
AcDbEntity
8
0
100
AcDb2dPolyline
62
7
6
CONTINUOUS
66
1
70
0
0
VERTEX
5
367
100
AcDbEntity
8
0
100
AcDbVertex
62
7
6
CONTINUOUS
100
AcDb2dVertex
10
344.3253906839
20
211.9340977648
0
VERTEX
5
368
100
AcDbEntity
8
0
100
AcDbVertex
62
7
6
CONTINUOUS
100
AcDb2dVertex
10
344.1386679067
20
211.9596545055
0
VERTEX
5
369
100
AcDbEntity
8
0
100
AcDbVertex
62
7
6
CONTINUOUS
100
AcDb2dVertex
10
343.9753906839
20
212.0242470180
0
VERTEX
5
36A
100
AcDbEntity
8
0
100
AcDbVertex
62
7
6
CONTINUOUS
100
AcDb2dVertex
10
343.8312681811
20
212.1319999169
0
VERTEX
5
36B
100
AcDbEntity
8
0
100
AcDbVertex
62
7
6
CONTINUOUS
100
AcDb2dVertex
10
343.7191729012
20
212.2705393583
0
VERTEX
5
36C
100
AcDbEntity
8
0
100
AcDbVertex
62
7
6
CONTINUOUS
100
AcDb2dVertex
10
343.6519773469
20
212.4274914985
0
SEQEND
5
36D
100
AcDbEntity
8
0
0
LINE
5
36E
100
AcDbEntity
8
0
100
AcDbLine
62
7
6
CONTINUOUS
10
347.9274742119
20
230.8034603188
11
348.3358071558
21
230.4025937519
0
LINE
5
36F
100
AcDbEntity
8
0
100
AcDbLine
62
7
6
CONTINUOUS
10
345.7837239198
20
234.2108263304
11
345.9878906839
21
234.0103930645
0
LINE
5
370
100
AcDbEntity
8
0
100
AcDbLine
62
7
6
CONTINUOUS
10
346.6003906839
20
234.0103930645
11
346.2941406839
21
234.4112595963
0
LINE
5
371
100
AcDbEntity
8
0
100
AcDbLine
62
7
6
CONTINUOUS
10
348.5399742119
20
231.0038936549
11
348.3358071558
21
231.3045435537
0
LINE
5
372
100
AcDbEntity
8
0
100
AcDbLine
62
7
6
CONTINUOUS
10
355.2774736278
20
233.9101764315
11
355.4816406839
21
233.6095262519
0
LINE
5
373
100
AcDbEntity
8
0
100
AcDbLine
62
7
6
CONTINUOUS
10
356.0941406839
20
233.7097431656
11
355.8899736278
21
234.1106096974
0
LINE
5
374
100
AcDbEntity
8
0
100
AcDbLine
62
7
6
CONTINUOUS
10
385.3517796421
20
287.7121884634
11
385.3521540424
21
287.7084587630
0
LINE
5
375
100
AcDbEntity
8
0
100
AcDbLine
62
7
6
CONTINUOUS
10
385.9253906839
20
231.5436934966
11
385.9253824282
21
282.5283460640
0
LINE
5
376
100
AcDbEntity
8
0
100
AcDbLine
62
7
6
CONTINUOUS
10
385.9253906839
20
292.8503568993
11
385.9253906839
21
297.9365342610
0
LINE
5
377
100
AcDbEntity
8
0
100
AcDbLine
62
7
6
CONTINUOUS
10
369.1192636689
20
67.5566650631
11
361.3744767050
21
29.8008286142
0
LINE
5
378
100
AcDbEntity
8
0
100
AcDbLine
62
7
6
CONTINUOUS
10
354.9712236278
20
230.8034603188
11
354.5628906839
21
230.7032436859
0
LINE
5
379
100
AcDbEntity
8
0
100
AcDbLine
62
7
6
CONTINUOUS
10
350.0712242119
20
230.8034603188
11
349.6628906839
21
230.7032436859
0
LINE
5
37A
100
AcDbEntity
8
0
100
AcDbLine
62
7
6
CONTINUOUS
10
354.5628906839
20
230.1019438180
11
355.0733077399
21
230.2021604597
0
LINE
5
37B
100
AcDbEntity
8
0
100
AcDbLine
62
7
6
CONTINUOUS
10
349.6628906839
20
230.1019438180
11
350.1733071558
21
230.2021604597
0
LINE
5
37C
100
AcDbEntity
8
0
100
AcDbLine
62
7
6
CONTINUOUS
10
350.4853906839
20
222.1619222095
11
349.3653906839
21
222.1619222095
0
LINE
5
37D
100
AcDbEntity
8
0
100
AcDbLine
62
7
6
CONTINUOUS
10
348.5253906839
20
224.3151484084
11
351.3253906839
21
224.3151484084
0
LINE
5
37E
100
AcDbEntity
8
0
100
AcDbLine
62
7
6
CONTINUOUS
10
352.4453906839
20
225.3917615079
11
347.4053906839
21
225.3917615079
0
LINE
5
37F
100
AcDbEntity
8
0
100
AcDbLine
62
7
6
CONTINUOUS
10
340.1253906839
20
227.4104110694
11
340.8253906839
21
227.4104110694
0
LINE
5
380
100
AcDbEntity
8
0
100
AcDbLine
62
7
6
CONTINUOUS
10
343.2502618145
20
227.4104110694
11
356.6005195533
21
227.4104110694
0
LINE
5
381
100
AcDbEntity
8
0
100
AcDbLine
62
7
6
CONTINUOUS
10
359.0253906839
20
227.4104110694
11
359.7253906839
21
227.4104110694
0
LINE
5
382
100
AcDbEntity
8
0
100
AcDbLine
62
7
6
CONTINUOUS
10
359.7253906839
20
228.7561774437
11
340.1253906839
21
228.7561774437
0
LINE
5
383
100
AcDbEntity
8
0
100
AcDbLine
62
7
6
CONTINUOUS
10
342.9253906839
20
230.1019438180
11
343.5378906839
21
230.1019438180
0
LINE
5
384
100
AcDbEntity
8
0
100
AcDbLine
62
7
6
CONTINUOUS
10
346.0899739198
20
230.1019438180
11
346.8045574479
21
230.1019438180
0
LINE
5
385
100
AcDbEntity
8
0
100
AcDbLine
62
7
6
CONTINUOUS
10
349.2545571558
20
230.1019438180
11
349.6628906839
21
230.1019438180
0
LINE
5
386
100
AcDbEntity
8
0
100
AcDbLine
62
7
6
CONTINUOUS
10
352.1128906839
20
230.1019438180
11
354.5628906839
21
230.1019438180
0
LINE
5
387
100
AcDbEntity
8
0
100
AcDbLine
62
7
6
CONTINUOUS
10
354.5628906839
20
230.7032436859
11
352.7253906839
21
230.7032436859
0
LINE
5
388
100
AcDbEntity
8
0
100
AcDbLine
62
7
6
CONTINUOUS
10
349.6628906839
20
230.7032436859
11
349.2545571558
21
230.7032436859
0
LINE
5
389
100
AcDbEntity
8
0
100
AcDbLine
62
7
6
CONTINUOUS
10
343.5378906839
20
232.2064933907
11
345.2733073018
21
232.2064933907
0
POLYLINE
5
38A
100
AcDbEntity
8
0
100
AcDb2dPolyline
62
7
6
CONTINUOUS
66
1
70
0
0
VERTEX
5
38B
100
AcDbEntity
8
0
100
AcDbVertex
62
7
6
CONTINUOUS
100
AcDb2dVertex
10
340.8253906839
20
227.4104110694
0
VERTEX
5
38C
100
AcDbEntity
8
0
100
AcDbVertex
62
7
6
CONTINUOUS
100
AcDb2dVertex
10
341.1988362382
20
227.3592975878
0
VERTEX
5
38D
100
AcDbEntity
8
0
100
AcDbVertex
62
7
6
CONTINUOUS
100
AcDb2dVertex
10
341.5253906839
20
227.2301125628
0
VERTEX
5
38E
100
AcDbEntity
8
0
100
AcDbVertex
62
7
6
CONTINUOUS
100
AcDb2dVertex
10
341.8136356893
20
227.0146067650
0
VERTEX
5
38F
100
AcDbEntity
8
0
100
AcDbVertex
62
7
6
CONTINUOUS
100
AcDb2dVertex
10
342.0378262492
20
226.7375278822
0
VERTEX
5
390
100
AcDbEntity
8
0
100
AcDbVertex
62
7
6
CONTINUOUS
100
AcDb2dVertex
10
342.1722173578
20
226.4236236019
0
VERTEX
5
391
100
AcDbEntity
8
0
100
AcDbVertex
62
7
6
CONTINUOUS
100
AcDb2dVertex
10
342.2253906839
20
226.0646446950
0
SEQEND
5
392
100
AcDbEntity
8
0
0
LINE
5
393
100
AcDbEntity
8
0
100
AcDbLine
62
7
6
CONTINUOUS
10
348.7441406839
20
230.2021604597
11
349.2545571558
21
230.1019438180
0
LINE
5
394
100
AcDbEntity
8
0
100
AcDbLine
62
7
6
CONTINUOUS
10
349.2545571558
20
230.7032436859
11
348.8462242119
21
230.8034603188
0
LINE
5
395
100
AcDbEntity
8
0
100
AcDbLine
62
7
6
CONTINUOUS
10
345.4774739198
20
234.3110429633
11
345.7837239198
21
234.2108263304
0
LINE
5
396
100
AcDbEntity
8
0
100
AcDbLine
62
7
6
CONTINUOUS
10
348.3358071558
20
230.4025937519
11
348.7441406839
21
230.2021604597
0
LINE
5
397
100
AcDbEntity
8
0
100
AcDbLine
62
7
6
CONTINUOUS
10
355.4816406839
20
234.5114762292
11
355.0733077399
21
234.7119094951
0
LINE
5
398
100
AcDbEntity
8
0
100
AcDbLine
62
7
6
CONTINUOUS
10
348.8462242119
20
230.8034603188
11
348.5399742119
21
231.0038936549
0
LINE
5
399
100
AcDbEntity
8
0
100
AcDbLine
62
7
6
CONTINUOUS
10
354.9712236278
20
234.1106096974
11
355.2774736278
21
233.9101764315
0
LINE
5
39A
100
AcDbEntity
8
0
100
AcDbLine
62
7
6
CONTINUOUS
10
346.2941406839
20
234.4112595963
11
345.8858074479
21
234.7119094951
0
LINE
5
39B
100
AcDbEntity
8
0
100
AcDbLine
62
7
6
CONTINUOUS
10
355.8899736278
20
234.1106096974
11
355.4816406839
21
234.5114762292
0
LINE
5
39C
100
AcDbEntity
8
0
100
AcDbLine
62
7
6
CONTINUOUS
10
345.4774739198
20
232.8077931884
11
343.5378906839
21
232.8077931884
0
LINE
5
39D
100
AcDbEntity
8
0
100
AcDbLine
62
7
6
CONTINUOUS
10
352.7253906839
20
234.2108263304
11
354.5628906839
21
234.2108263304
0
LINE
5
39E
100
AcDbEntity
8
0
100
AcDbLine
62
7
6
CONTINUOUS
10
343.5378906839
20
234.3110429633
11
345.4774739198
21
234.3110429633
0
LINE
5
39F
100
AcDbEntity
8
0
100
AcDbLine
62
7
6
CONTINUOUS
10
354.5628906839
20
234.8121261281
11
352.1128906839
21
234.8121261281
0
LINE
5
3A0
100
AcDbEntity
8
0
100
AcDbLine
62
7
6
CONTINUOUS
10
351.2962242119
20
234.8121261281
11
350.6837242119
21
234.8121261281
0
LINE
5
3A1
100
AcDbEntity
8
0
100
AcDbLine
62
7
6
CONTINUOUS
10
348.2337242119
20
234.8121261281
11
347.6212239198
21
234.8121261281
0
LINE
5
3A2
100
AcDbEntity
8
0
100
AcDbLine
62
7
6
CONTINUOUS
10
345.3753906839
20
234.8121261281
11
342.9253906839
21
234.8121261281
0
LINE
5
3A3
100
AcDbEntity
8
0
100
AcDbLine
62
7
6
CONTINUOUS
10
345.8858074479
20
234.7119094951
11
345.3753906839
21
234.8121261281
0
LINE
5
3A4
100
AcDbEntity
8
0
100
AcDbLine
62
7
6
CONTINUOUS
10
355.0733077399
20
234.7119094951
11
354.5628906839
21
234.8121261281
0
LINE
5
3A5
100
AcDbEntity
8
0
100
AcDbLine
62
7
6
CONTINUOUS
10
354.5628906839
20
234.2108263304
11
354.9712236278
21
234.1106096974
0
LINE
5
3A6
100
AcDbEntity
8
0
100
AcDbLine
62
7
6
CONTINUOUS
10
382.8067231531
20
291.6825173805
11
382.8077610222
21
291.6771798704
0
LINE
5
3A7
100
AcDbEntity
8
0
100
AcDbLine
62
7
6
CONTINUOUS
10
381.5741336470
20
298.1630913795
11
381.5757780430
21
298.1544046045
0
LINE
5
3A8
100
AcDbEntity
8
0
100
AcDbLine
62
7
6
CONTINUOUS
10
349.9253906839
20
254.0775935931
11
362.2382596139
21
256.0277604474
0
LINE
5
3A9
100
AcDbEntity
8
0
100
AcDbLine
62
7
6
CONTINUOUS
10
363.6419890927
20
249.1780080103
11
336.2087922750
21
249.1780080103
0
LINE
5
3AA
100
AcDbEntity
8
0
100
AcDbLine
62
7
6
CONTINUOUS
10
335.8208812612
20
250.5059947100
11
364.0299001066
21
250.5059947100
0
LINE
5
3AB
100
AcDbEntity
8
0
100
AcDbLine
62
7
6
CONTINUOUS
10
337.6125217538
20
256.0277604474
11
349.9253906839
21
254.0775935931
0
LINE
5
3AC
100
AcDbEntity
8
0
100
AcDbLine
62
7
6
CONTINUOUS
10
333.4951939630
20
269.0775935931
11
335.9253906839
21
269.0775935931
0
LINE
5
3AD
100
AcDbEntity
8
0
100
AcDbLine
62
7
6
CONTINUOUS
10
363.9253906839
20
269.0775935931
11
366.3555874047
21
269.0775935931
0
LINE
5
3AE
100
AcDbEntity
8
0
100
AcDbLine
62
7
6
CONTINUOUS
10
384.8535939141
20
301.9365342610
11
378.9971874536
21
312.0801278004
0
LINE
5
3AF
100
AcDbEntity
8
0
100
AcDbLine
62
7
6
CONTINUOUS
10
334.2350925871
20
285.0775935931
11
335.9253906839
21
285.0775935931
0
LINE
5
3B0
100
AcDbEntity
8
0
100
AcDbLine
62
7
6
CONTINUOUS
10
363.9253906839
20
285.0775935931
11
365.6156887806
21
285.0775935931
0
LINE
5
3B1
100
AcDbEntity
8
0
100
AcDbLine
62
7
6
CONTINUOUS
10
337.1709591811
20
287.1190753876
11
362.6798221866
21
287.1190753876
0
LINE
5
3B2
100
AcDbEntity
8
0
100
AcDbLine
62
7
6
CONTINUOUS
10
370.0080380662
20
68.7328135434
11
370.0127278346
21
68.7355734757
0
LINE
5
3B3
100
AcDbEntity
8
0
100
AcDbLine
62
7
6
CONTINUOUS
10
375.6788893317
20
303.0416218659
11
324.1718920360
21
303.0416218659
0
LINE
5
3B4
100
AcDbEntity
8
DEFAULT_1
100
AcDbLine
62
2
6
CENTER
10
380.9227754584
20
321.9365342610
11
318.9280059094
21
321.9365342610
0
ARC
5
3B5
100
AcDbEntity
8
0
100
AcDbCircle
62
7
6
CONTINUOUS
10
81.5939754436
20
277.0775935931
40
20.0000000000
100
AcDbArc
50
333.3280707142
51
74.0000000000
0
ARC
5
3B6
100
AcDbEntity
8
0
100
AcDbCircle
62
7
6
CONTINUOUS
10
63.0513459088
20
168.8762961839
40
12.0000000000
100
AcDbArc
50
153.3280707142
51
164.0000000000
0
ARC
5
3B7
100
AcDbEntity
8
0
100
AcDbCircle
62
7
6
CONTINUOUS
10
49.3513429119
20
171.8900817515
40
2.0000000000
100
AcDbArc
50
254.0000000000
51
344.0000000000
0
ARC
5
3B8
100
AcDbEntity
8
0
100
AcDbCircle
62
7
6
CONTINUOUS
10
1.3576391034
20
258.4730153744
40
60.0000000000
100
AcDbArc
50
344.0000000000
51
29.7807390401
0
ARC
5
3B9
100
AcDbEntity
8
0
100
AcDbCircle
62
7
6
CONTINUOUS
10
58.6411821671
20
291.2540418085
40
6.0000000000
100
AcDbArc
50
151.8344679880
51
209.7807390401
0
ARC
5
3BA
100
AcDbEntity
8
0
100
AcDbCircle
62
7
6
CONTINUOUS
10
83.3256341161
20
278.0374676693
40
34.0000000000
100
AcDbArc
50
137.2563160496
51
151.8344679880
0
ARC
5
3BB
100
AcDbEntity
8
0
100
AcDbCircle
62
7
6
CONTINUOUS
10
41.4294210891
20
187.7985205064
40
2.0000000000
100
AcDbArc
50
344.0000000000
51
3.0543141303
0
ARC
5
3BC
100
AcDbEntity
8
0
100
AcDbCircle
62
7
6
CONTINUOUS
10
47.0388789304
20
207.3610248040
40
2.0000000000
100
AcDbArc
50
329.0000000000
51
344.0000000000
0
ARC
5
3BD
100
AcDbEntity
8
0
100
AcDbCircle
62
7
6
CONTINUOUS
10
62.7625087876
20
297.0416218659
40
6.0000000000
100
AcDbArc
50
74.0000000000
51
137.2563160496
0
CIRCLE
5
3BE
100
AcDbEntity
8
0
100
AcDbCircle
62
7
6
CONTINUOUS
10
81.5939754436
20
277.0775935931
40
8.0000000000
0
ARC
5
3BF
100
AcDbEntity
8
0
100
AcDbCircle
62
7
6
CONTINUOUS
10
-57.3385585022
20
116.3070181745
40
130.0000000000
100
AcDbArc
50
25.0000000000
51
29.7046443159
0
ARC
5
3C0
100
AcDbEntity
8
0
100
AcDbCircle
62
7
6
CONTINUOUS
10
44.4783107211
20
187.0836042858
40
6.0000000000
100
AcDbArc
50
93.5057044161
51
120.0000000000
0
ARC
5
3C1
100
AcDbEntity
8
0
100
AcDbCircle
62
7
6
CONTINUOUS
10
47.5939754436
20
168.0978244612
40
24.0000000000
100
AcDbArc
50
120.0000000000
51
186.8973883721
0
ARC
5
3C2
100
AcDbEntity
8
0
100
AcDbCircle
62
7
6
CONTINUOUS
10
239.5939754436
20
289.1859441531
40
60.0000000000
100
AcDbArc
50
180.0000000000
51
238.4118644948
0
ARC
5
3C3
100
AcDbEntity
8
0
100
AcDbCircle
62
7
6
CONTINUOUS
10
151.5939754436
20
146.0775935931
40
108.0000000000
100
AcDbArc
50
351.5052419594
51
58.4118644948
0
ARC
5
3C4
100
AcDbEntity
8
0
100
AcDbCircle
62
7
6
CONTINUOUS
10
133.7914465636
20
148.7365342610
40
126.0000000000
100
AcDbArc
50
260.7094416574
51
351.5052419594
0
ARC
5
3C5
100
AcDbEntity
8
0
100
AcDbCircle
62
7
6
CONTINUOUS
10
129.5939754436
20
123.0775935931
40
100.0000000000
100
AcDbArc
50
186.8973883721
51
260.7094416574
0
ARC
5
3C6
100
AcDbEntity
8
0
100
AcDbCircle
62
7
6
CONTINUOUS
10
157.6070390861
20
344.9365342610
40
5.0000000000
100
AcDbArc
50
90.0000000000
51
111.3341216772
0
ARC
5
3C7
100
AcDbEntity
8
0
100
AcDbCircle
62
7
6
CONTINUOUS
10
66.5014769023
20
300.6618359549
40
5.0000000000
100
AcDbArc
50
1.3509773026
51
70.0000000000
0
ARC
5
3C8
100
AcDbEntity
8
0
100
AcDbCircle
62
7
6
CONTINUOUS
10
81.5939754436
20
277.0775935931
40
23.0000000000
100
AcDbArc
50
181.6084523098
51
204.3673796927
0
ARC
5
3C9
100
AcDbEntity
8
0
100
AcDbCircle
62
7
6
CONTINUOUS
10
101.9282472998
20
257.8287653670
40
5.0000000000
100
AcDbArc
50
37.9999998391
51
136.5707652339
0
ARC
5
3CA
100
AcDbEntity
8
0
100
AcDbCircle
62
7
6
CONTINUOUS
10
209.8371385284
20
260.1200667303
40
50.0000000000
100
AcDbArc
50
207.1560206635
51
210.0000000000
0
ARC
5
3CB
100
AcDbEntity
8
0
100
AcDbCircle
62
7
6
CONTINUOUS
10
129.5939754436
20
416.6600887278
40
72.0000000000
100
AcDbArc
50
248.9521955939
51
257.8198090634
0
ARC
5
3CC
100
AcDbEntity
8
0
100
AcDbCircle
62
7
6
CONTINUOUS
10
129.5939754436
20
416.6600887278
40
72.0000000000
100
AcDbArc
50
282.1802132275
51
291.3341216772
0
ARC
5
3CD
100
AcDbEntity
8
0
100
AcDbCircle
62
7
6
CONTINUOUS
10
139.3010579404
20
164.0988457724
40
59.0966481516
100
AcDbArc
50
25.1522089788
51
30.0000000000
0
ARC
5
3CE
100
AcDbEntity
8
0
100
AcDbCircle
62
7
6
CONTINUOUS
10
107.5939754436
20
229.9365342610
40
120.0000000000
100
AcDbArc
50
92.8182398280
51
110.2256023801
0
CIRCLE
5
3CF
100
AcDbEntity
8
0
100
AcDbCircle
62
7
6
CONTINUOUS
10
94.1939754436
20
321.9365342610
40
5.0000000000
0
ARC
5
3D0
100
AcDbEntity
8
0
100
AcDbCircle
62
7
6
CONTINUOUS
10
129.5939754436
20
295.1365342610
40
11.2000000000
100
AcDbArc
50
180.0000000000
51
360.0000000000
0
ARC
5
3D1
100
AcDbEntity
8
0
100
AcDbCircle
62
7
6
CONTINUOUS
10
101.9396725859
20
344.7974376519
40
4.9999985474
100
AcDbArc
50
68.9521871562
51
92.8182555689
0
ARC
5
3D2
100
AcDbEntity
8
0
100
AcDbCircle
62
7
6
CONTINUOUS
10
129.5939754436
20
146.0775935931
40
52.0000000000
100
AcDbArc
50
205.0000000000
51
38.0000005179
0
ARC
5
3D3
100
AcDbEntity
8
0
100
AcDbCircle
62
7
6
CONTINUOUS
10
81.5939754436
20
277.0775935931
40
23.0000000000
100
AcDbArc
50
303.7469328949
51
316.5707652339
0
ARC
5
3D4
100
AcDbEntity
8
DEFAULT_2
100
AcDbCircle
62
8
6
HIDDEN
10
363.9253906839
20
79.7106299191
40
12.0000000000
100
AcDbArc
50
39.8455109140
51
81.0000000000
0
ARC
5
3D5
100
AcDbEntity
8
DEFAULT_2
100
AcDbCircle
62
8
6
HIDDEN
10
335.9253906839
20
79.7106299191
40
12.0000000000
100
AcDbArc
50
99.0000000000
51
140.1545643004
0
CIRCLE
5
3D6
100
AcDbEntity
8
0
100
AcDbCircle
62
7
6
CONTINUOUS
10
349.9253906839
20
321.9365342610
40
12.2500000000
0
CIRCLE
5
3D7
100
AcDbEntity
8
0
100
AcDbCircle
62
7
6
CONTINUOUS
10
349.9253906839
20
321.9365342610
40
11.2500000000
0
ARC
5
3D8
100
AcDbEntity
8
0
100
AcDbCircle
62
7
6
CONTINUOUS
10
337.9253906839
20
258.0031371286
40
2.0000000000
100
AcDbArc
50
180.0000000000
51
261.0000000000
0
ARC
5
3D9
100
AcDbEntity
8
0
100
AcDbCircle
62
7
6
CONTINUOUS
10
363.9253906839
20
79.7106299191
40
12.0000000000
100
AcDbArc
50
0.0000000000
51
39.8455109140
0
ARC
5
3DA
100
AcDbEntity
8
0
100
AcDbCircle
62
7
6
CONTINUOUS
10
346.3131262718
20
31.4083817445
40
8.0000000000
100
AcDbArc
50
191.5921752680
51
260.9999999762
0
ARC
5
3DB
100
AcDbEntity
8
0
100
AcDbCircle
62
7
6
CONTINUOUS
10
366.9253906839
20
165.0836042858
40
6.0000000000
100
AcDbArc
50
345.7071737103
51
25.0000000000
0
ARC
5
3DC
100
AcDbEntity
8
0
100
AcDbCircle
62
7
6
CONTINUOUS
10
335.9253906839
20
79.0775935931
40
12.0000000000
100
AcDbArc
50
224.1775763020
51
232.0809890057
0
ARC
5
3DD
100
AcDbEntity
8
0
100
AcDbCircle
62
7
6
CONTINUOUS
10
361.9253906839
20
258.0031371286
40
2.0000000000
100
AcDbArc
50
279.0000000000
51
360.0000000000
0
ARC
5
3DE
100
AcDbEntity
8
0
100
AcDbCircle
62
7
6
CONTINUOUS
10
377.9253906839
20
297.9365342610
40
8.0000000000
100
AcDbArc
50
0.0000000000
51
30.0000000000
0
ARC
5
3DF
100
AcDbEntity
8
0
100
AcDbCircle
62
7
6
CONTINUOUS
10
345.9253906839
20
231.5436934966
40
40.0000000000
100
AcDbArc
50
345.0000000000
51
360.0000000000
0
ARC
5
3E0
100
AcDbEntity
8
0
100
AcDbCircle
62
7
6
CONTINUOUS
10
353.5376550959
20
31.4083817445
40
8.0000000000
100
AcDbArc
50
279.0000000238
51
348.4078247320
0
ARC
5
3E1
100
AcDbEntity
8
0
100
AcDbCircle
62
7
6
CONTINUOUS
10
363.9253906839
20
79.0775935931
40
12.0000000000
100
AcDbArc
50
307.9190109943
51
315.8224236980
0
ARC
5
3E2
100
AcDbEntity
8
0
100
AcDbCircle
62
7
6
CONTINUOUS
10
389.3253906839
20
139.5918104520
40
20.0000000000
100
AcDbArc
50
165.7071737103
51
180.0000000000
0
ARC
5
3E3
100
AcDbEntity
8
0
100
AcDbCircle
62
7
6
CONTINUOUS
10
385.9253906839
20
316.0801278004
40
8.0000000000
100
AcDbArc
50
180.0000000000
51
210.0000000000
0
ARC
5
3E4
100
AcDbEntity
8
0
100
AcDbCircle
62
7
6
CONTINUOUS
10
349.9253906839
20
321.9365342610
40
28.0000000000
100
AcDbArc
50
0.4131253237
51
179.5868775682
0
ARC
5
3E5
100
AcDbEntity
8
0
100
AcDbCircle
62
7
6
CONTINUOUS
10
335.9253906839
20
79.7106299191
40
12.0000000000
100
AcDbArc
50
140.1545643004
51
180.0000000000
0
ARC
5
3E6
100
AcDbEntity
8
0
100
AcDbCircle
62
7
6
CONTINUOUS
10
332.9253906839
20
165.0836042858
40
6.0000000000
100
AcDbArc
50
155.0000000000
51
194.2928262897
0
CIRCLE
5
3E7
100
AcDbEntity
8
0
100
AcDbCircle
62
7
6
CONTINUOUS
10
349.9253906839
20
321.9365342610
40
12.3000000000
0
ARC
5
3E8
100
AcDbEntity
8
0
100
AcDbCircle
62
7
6
CONTINUOUS
10
353.9253906839
20
231.5436934966
40
40.0000000000
100
AcDbArc
50
180.0000000000
51
195.0000000000
0
ARC
5
3E9
100
AcDbEntity
8
0
100
AcDbCircle
62
7
6
CONTINUOUS
10
321.9253906839
20
297.9365342610
40
8.0000000000
100
AcDbArc
50
150.0000000000
51
180.0000000000
0
ARC
5
3EA
100
AcDbEntity
8
0
100
AcDbCircle
62
7
6
CONTINUOUS
10
313.9253906839
20
316.0801278004
40
8.0000000000
100
AcDbArc
50
330.0000000000
51
360.0000000000
0
ARC
5
3EB
100
AcDbEntity
8
0
100
AcDbCircle
62
7
6
CONTINUOUS
10
363.9253906839
20
79.0775935931
40
12.0000000000
100
AcDbArc
50
326.0347019135
51
360.0000000000
0
ARC
5
3EC
100
AcDbEntity
8
0
100
AcDbCircle
62
7
6
CONTINUOUS
10
335.9253906839
20
79.0775935942
40
12.0000000000
100
AcDbArc
50
180.0000000050
51
213.9652980907
0
SPLINE
5
3ED
100
AcDbEntity
8
0
100
AcDbSpline
62
7
6
CONTINUOUS
70
0
71
3
72
15
73
11
74
9
42
0.0000001000
43
0.0000001000
44
0.0000000001
40
0.0000000000
40
0.0000000000
40
0.0000000000
40
0.0000000000
40
0.0336033819
40
0.0971366370
40
0.1939102945
40
0.3264566381
40
0.4950197283
40
0.6981774538
40
0.9315423985
40
1.0000000000
40
1.0000000000
40
1.0000000000
40
1.0000000000
10
51.2754220895
20
171.3442160678
30
0.0000000000
10
51.2749204982
20
171.3423593259
30
0.0000000000
10
51.2880272261
20
171.3883172602
30
0.0000000000
10
51.2972301237
20
171.4202197258
30
0.0000000000
10
51.3201136892
20
171.5001266391
30
0.0000000000
10
51.3472534181
20
171.5947267991
30
0.0000000000
10
51.3832020875
20
171.7201097237
30
0.0000000000
10
51.4257754626
20
171.8685819647
30
0.0000000000
10
51.4614484738
20
171.9929765327
30
0.0000000000
10
51.4827492138
20
172.0672724439
30
0.0000000000
10
51.4875800408
20
172.0841221000
30
0.0000000000
11
51.2754220895
21
171.3442160678
31
0.0000000000
11
51.2829719332
21
171.3705691898
31
0.0000000000
11
51.2964250730
21
171.4174787880
31
0.0000000000
11
51.3169128923
21
171.4889324787
31
0.0000000000
11
51.3449763302
21
171.5867986105
31
0.0000000000
11
51.3806648090
21
171.7112580319
31
0.0000000000
11
51.4236768768
21
171.8612608229
31
0.0000000000
11
51.4730855324
21
172.0335669648
31
0.0000000000
11
51.4875800408
21
172.0841221000
31
0.0000000000
0
SPLINE
5
3EE
100
AcDbEntity
8
0
100
AcDbSpline
62
7
6
CONTINUOUS
70
0
71
3
72
8
73
4
74
2
42
0.0000001000
43
0.0000001000
44
0.0000000001
40
0.0000000000
40
0.0000000000
40
0.0000000000
40
0.0000000000
40
1.0000000000
40
1.0000000000
40
1.0000000000
40
1.0000000000
10
43.8935400738
20
198.2430938270
30
0.0000000000
10
43.8393648781
20
198.1529309197
30
0.0000000000
10
43.7922295453
20
198.0580988370
30
0.0000000000
10
43.7527524867
20
197.9600369364
30
0.0000000000
11
43.8935400738
21
198.2430938270
31
0.0000000000
11
43.7527524867
21
197.9600369364
31
0.0000000000
0
SPLINE
5
3EF
100
AcDbEntity
8
0
100
AcDbSpline
62
7
6
CONTINUOUS
70
0
71
3
72
10
73
6
74
4
42
0.0000001000
43
0.0000001000
44
0.0000000001
40
0.0000000000
40
0.0000000000
40
0.0000000000
40
0.0000000000
40
0.3333640646
40
0.6662543147
40
1.0000000000
40
1.0000000000
40
1.0000000000
40
1.0000000000
10
43.4313205530
20
190.2761802225
30
0.0000000000
10
43.4065976916
20
190.1991957315
30
0.0000000000
10
43.3664883243
20
190.0421621820
30
0.0000000000
10
43.3352694182
20
189.8010918035
30
0.0000000000
10
43.3340650302
20
189.6389274537
30
0.0000000000
10
43.3383782214
20
189.5580930969
30
0.0000000000
11
43.4313205530
21
190.2761802225
31
0.0000000000
11
43.3712940777
21
190.0411540745
31
0.0000000000
11
43.3401853660
21
189.8009344154
31
0.0000000000
11
43.3383782214
21
189.5580930969
31
0.0000000000
0
SPLINE
5
3F0
100
AcDbEntity
8
0
100
AcDbSpline
62
7
6
CONTINUOUS
70
0
71
3
72
12
73
8
74
6
42
0.0000001000
43
0.0000001000
44
0.0000000001
40
0.0000000000
40
0.0000000000
40
0.0000000000
40
0.0000000000
40
0.2055190158
40
0.4642829446
40
0.7022791082
40
0.9232603130
40
1.0000000000
40
1.0000000000
40
1.0000000000
40
1.0000000000
10
41.7221029852
20
181.5633719871
30
0.0000000000
10
41.6378281720
20
181.2684266124
30
0.0000000000
10
41.5181650326
20
180.5797184125
30
0.0000000000
10
41.5695910872
20
179.5257947328
30
0.0000000000
10
41.8896231928
20
178.4927701004
30
0.0000000000
10
42.3352313616
20
177.8175248440
30
0.0000000000
10
42.6581633808
20
177.5082323179
30
0.0000000000
10
42.7457754346
20
177.4337635945
30
0.0000000000
11
41.7221029852
21
181.5633719871
31
0.0000000000
11
41.5619977236
21
180.6571234800
31
0.0000000000
11
41.6213431169
21
179.5029107260
31
0.0000000000
11
41.9448348953
21
178.4903490754
31
0.0000000000
11
42.4966893833
21
177.6720600093
31
0.0000000000
11
42.7457754346
21
177.4337635945
31
0.0000000000
0
SPLINE
5
3F1
100
AcDbEntity
8
0
100
AcDbSpline
62
7
6
CONTINUOUS
70
0
71
3
72
12
73
8
74
6
42
0.0000001000
43
0.0000001000
44
0.0000000001
40
0.0000000000
40
0.0000000000
40
0.0000000000
40
0.0000000000
40
0.0789450209
40
0.2437397801
40
0.4893168536
40
0.8110351754
40
1.0000000000
40
1.0000000000
40
1.0000000000
40
1.0000000000
10
43.9501029938
20
196.0891086482
30
0.0000000000
10
44.0199244582
20
195.9687491712
30
0.0000000000
10
44.1837674765
20
195.5785769190
30
0.0000000000
10
44.2707746881
20
194.7195428829
30
0.0000000000
10
44.2054383834
20
193.4503155880
30
0.0000000000
10
43.9615268097
20
192.1554291744
30
0.0000000000
10
43.7362547676
20
191.2971235790
30
0.0000000000
10
43.6458404884
20
190.9816204797
30
0.0000000000
11
43.9501029938
21
196.0891086482
31
0.0000000000
11
44.1134175258
21
195.7120446494
31
0.0000000000
11
44.2387371794
21
194.8628101697
31
0.0000000000
11
44.1874344594
21
193.5846054577
31
0.0000000000
11
43.8946743384
21
191.9345143593
31
0.0000000000
11
43.6458404884
21
190.9816204797
31
0.0000000000
0
SPLINE
5
3F2
100
AcDbEntity
8
0
100
AcDbSpline
62
7
6
CONTINUOUS
70
0
71
3
72
8
73
4
74
2
42
0.0000001000
43
0.0000001000
44
0.0000000001
40
0.0000000000
40
0.0000000000
40
0.0000000000
40
0.0000000000
40
1.0000000000
40
1.0000000000
40
1.0000000000
40
1.0000000000
10
43.6458404884
20
190.9816204797
30
0.0000000000
10
43.6172802759
20
190.8819588373
30
0.0000000000
10
43.5880157772
20
190.7825057618
30
0.0000000000
10
43.5580858894
20
190.6832576643
30
0.0000000000
11
43.6458404884
21
190.9816204797
31
0.0000000000
11
43.5580858894
21
190.6832576643
31
0.0000000000
0
SPLINE
5
3F3
100
AcDbEntity
8
0
100
AcDbSpline
62
7
6
CONTINUOUS
70
0
71
3
72
8
73
4
74
2
42
0.0000001000
43
0.0000001000
44
0.0000000001
40
0.0000000000
40
0.0000000000
40
0.0000000000
40
0.0000000000
40
1.0000000000
40
1.0000000000
40
1.0000000000
40
1.0000000000
10
43.5580858894
20
190.6832576643
30
0.0000000000
10
43.5170680979
20
190.5472418601
30
0.0000000000
10
43.4748005939
20
190.4116110391
30
0.0000000000
10
43.4313834964
20
190.2763559641
30
0.0000000000
11
43.5580858894
21
190.6832576643
31
0.0000000000
11
43.4313834964
21
190.2763559641
31
0.0000000000
0
SPLINE
5
3F4
100
AcDbEntity
8
0
100
AcDbSpline
62
7
6
CONTINUOUS
70
0
71
3
72
11
73
7
74
5
42
0.0000001000
43
0.0000001000
44
0.0000000001
40
0.0000000000
40
0.0000000000
40
0.0000000000
40
0.0000000000
40
0.2789378019
40
0.5597586118
40
0.8440616568
40
1.0000000000
40
1.0000000000
40
1.0000000000
40
1.0000000000
10
43.8935400738
20
198.2430938270
30
0.0000000000
10
43.7850684948
20
198.0625663216
30
0.0000000000
10
43.6240285604
20
197.6627292654
30
0.0000000000
10
43.5827169152
20
197.0163052886
30
0.0000000000
10
43.7237217832
20
196.4803718365
30
0.0000000000
10
43.8866603681
20
196.1876409404
30
0.0000000000
10
43.9530669698
20
196.0897931217
30
0.0000000000
11
43.8935400738
21
198.2430938270
31
0.0000000000
11
43.6577566808
21
197.6569093401
31
0.0000000000
11
43.6170055215
21
197.0221250022
31
0.0000000000
11
43.7808729418
21
196.3993441147
31
0.0000000000
11
43.9530669698
21
196.0897931217
31
0.0000000000
0
SPLINE
5
3F5
100
AcDbEntity
8
0
100
AcDbSpline
62
7
6
CONTINUOUS
70
0
71
3
72
25
73
21
74
19
42
0.0000001000
43
0.0000001000
44
0.0000000001
40
0.0000000000
40
0.0000000000
40
0.0000000000
40
0.0000000000
40
0.0153447823
40
0.0410017457
40
0.0790387277
40
0.1290049593
40
0.1896119536
40
0.2591210463
40
0.3355109037
40
0.4165758782
40
0.5000036752
40
0.5834311352
40
0.6644951623
40
0.7408836799
40
0.8103912937
40
0.8709969550
40
0.9209621818
40
0.9589985538
40
0.9846552604
40
1.0000000000
40
1.0000000000
40
1.0000000000
40
1.0000000000
10
118.3939754436
20
309.6365342610
30
0.0000000000
10
118.2639741808
20
309.6365342610
30
0.0000000000
10
117.9511316673
20
309.8764361594
30
0.0000000000
10
117.6698127992
20
310.4777468057
30
0.0000000000
10
117.3678503218
20
311.3981938452
30
0.0000000000
10
117.1070019112
20
312.6300026610
30
0.0000000000
10
116.8745854462
20
314.1387767517
30
0.0000000000
10
116.6876338370
20
315.8786681487
30
0.0000000000
10
116.5492761297
20
317.7968785395
30
0.0000000000
10
116.4647469966
20
319.8361718435
30
0.0000000000
10
116.4362597560
20
321.9366248920
30
0.0000000000
10
116.4647518286
20
324.0370698469
30
0.0000000000
10
116.5492848171
20
326.0763407363
30
0.0000000000
10
116.6876446816
20
327.9945189766
30
0.0000000000
10
116.8745965343
20
329.7343749630
30
0.0000000000
10
117.1070114670
20
331.2431165519
30
0.0000000000
10
117.3678575078
20
332.4749003398
30
0.0000000000
10
117.6698169313
20
333.3953315786
30
0.0000000000
10
117.9511340111
20
333.9966346535
30
0.0000000000
10
118.2639745422
20
334.2365342610
30
0.0000000000
10
118.3939754436
20
334.2365342610
30
0.0000000000
11
118.3939754436
21
309.6365342610
31
0.0000000000
11
118.0531905304
21
309.8261881507
31
0.0000000000
11
117.7232042195
21
310.3886308409
31
0.0000000000
11
117.4143633311
21
311.3047218413
31
0.0000000000
11
117.1361702041
21
312.5438212115
31
0.0000000000
11
116.8969518198
21
314.0655234067
31
0.0000000000
11
116.7036555126
21
315.8215636180
31
0.0000000000
11
116.5617132895
21
317.7578966835
31
0.0000000000
11
116.4750047801
21
319.8164229714
31
0.0000000000
11
116.4458468277
21
321.9366277367
31
0.0000000000
11
116.4750097223
21
324.0568238654
31
0.0000000000
11
116.5617221030
21
326.1153258903
31
0.0000000000
11
116.7036663811
21
328.0516246641
31
0.0000000000
11
116.8969626287
21
329.8076270661
31
0.0000000000
11
117.1361791851
21
331.3292952528
31
0.0000000000
11
117.4143694335
21
332.5683690949
31
0.0000000000
11
117.7232072763
21
333.4844447594
31
0.0000000000
11
118.0531912942
21
334.0468812281
31
0.0000000000
11
118.3939754436
21
334.2365342610
31
0.0000000000
0
SPLINE
5
3F6
100
AcDbEntity
8
0
100
AcDbSpline
62
7
6
CONTINUOUS
70
0
71
3
72
25
73
21
74
19
42
0.0000001000
43
0.0000001000
44
0.0000000001
40
0.0000000000
40
0.0000000000
40
0.0000000000
40
0.0000000000
40
0.0153447823
40
0.0410017457
40
0.0790387277
40
0.1290049593
40
0.1896119536
40
0.2591210463
40
0.3355109037
40
0.4165758782
40
0.5000036752
40
0.5834311352
40
0.6644951623
40
0.7408836799
40
0.8103912937
40
0.8709969550
40
0.9209621818
40
0.9589985538
40
0.9846552604
40
1.0000000000
40
1.0000000000
40
1.0000000000
40
1.0000000000
10
179.5939754436
20
310.9365342610
30
0.0000000000
10
179.4777141517
20
310.9365342610
30
0.0000000000
10
179.1979362941
20
311.1510806742
30
0.0000000000
10
178.9463503144
20
311.6888381628
30
0.0000000000
10
178.6763025704
20
312.5120021819
30
0.0000000000
10
178.4430235041
20
313.6136198221
30
0.0000000000
10
178.2351713809
20
314.9629299845
30
0.0000000000
10
178.0679788849
20
316.5189304208
30
0.0000000000
10
177.9442443499
20
318.2344031280
30
0.0000000000
10
177.8686491902
20
320.0581613673
30
0.0000000000
10
177.8431727962
20
321.9366153131
30
0.0000000000
10
177.8686535115
20
323.8150620207
30
0.0000000000
10
177.9442521190
20
325.6388002144
30
0.0000000000
10
178.0679885832
20
327.3542441692
30
0.0000000000
10
178.2351812970
20
328.9102129375
30
0.0000000000
10
178.4430320499
20
330.2594940333
30
0.0000000000
10
178.6763089969
20
331.3610892908
30
0.0000000000
10
178.9463540099
20
332.1842391791
30
0.0000000000
10
179.1979383901
20
332.7219898966
30
0.0000000000
10
179.4777144749
20
332.9365342610
30
0.0000000000
10
179.5939754436
20
332.9365342610
30
0.0000000000
11
179.5939754436
21
310.9365342610
31
0.0000000000
11
179.2892084480
21
311.1061434307
31
0.0000000000
11
178.9940987391
21
311.6091409585
31
0.0000000000
11
178.7178995706
21
312.4284093328
31
0.0000000000
11
178.4691089693
21
313.5365469810
31
0.0000000000
11
178.2551738288
21
314.8974188629
31
0.0000000000
11
178.0823072126
21
316.4678613283
31
0.0000000000
11
177.9553670131
21
318.1995413056
31
0.0000000000
11
177.8778228177
21
320.0404997744
31
0.0000000000
11
177.8517466001
21
321.9366178571
31
0.0000000000
11
177.8778272376
21
323.8327282161
31
0.0000000000
11
177.9553748951
21
325.6736649863
31
0.0000000000
11
178.0823169324
21
327.4053142962
31
0.0000000000
11
178.2551834953
21
328.9757229484
31
0.0000000000
11
178.4691170010
21
330.3365644162
31
0.0000000000
11
178.7179050281
21
331.4446792344
31
0.0000000000
11
178.9941014729
21
332.2639338937
31
0.0000000000
11
179.2892091311
21
332.7669258576
31
0.0000000000
11
179.5939754436
21
332.9365342610
31
0.0000000000
0
SPLINE
5
3F7
100
AcDbEntity
8
0
100
AcDbSpline
62
7
6
CONTINUOUS
70
0
71
3
72
19
73
15
74
13
42
0.0000001000
43
0.0000001000
44
0.0000000001
40
0.0000000000
40
0.0000000000
40
0.0000000000
40
0.0000000000
40
0.0817938523
40
0.1723838576
40
0.2693128514
40
0.3699815904
40
0.4717152260
40
0.5718188548
40
0.6676289346
40
0.7565714126
40
0.8362307371
40
0.9044416149
40
0.9594202338
40
1.0000000000
40
1.0000000000
40
1.0000000000
40
1.0000000000
10
61.0343614923
20
313.6549398396
30
0.0000000000
10
61.1131308899
20
314.2010716131
30
0.0000000000
10
61.2504860274
20
315.3562487346
30
0.0000000000
10
61.3994471024
20
317.1672110432
30
0.0000000000
10
61.4991621929
20
319.1090574032
30
0.0000000000
10
61.5468912577
20
321.1280281234
30
0.0000000000
10
61.5413255067
20
323.1689671160
30
0.0000000000
10
61.4826251750
20
325.1762951577
30
0.0000000000
10
61.3723892845
20
327.0950418389
30
0.0000000000
10
61.2137520683
20
328.8721043917
30
0.0000000000
10
61.0112905532
20
330.4570849957
30
0.0000000000
10
60.7717023849
20
331.8055875278
30
0.0000000000
10
60.5024458850
20
332.8771546589
30
0.0000000000
10
60.2775054255
20
333.4857714857
30
0.0000000000
10
60.1487073043
20
333.7273313696
30
0.0000000000
11
61.0343614923
21
313.6549398396
31
0.0000000000
11
61.2340199166
21
315.2982040611
31
0.0000000000
11
61.3868770736
21
317.1251869495
31
0.0000000000
11
61.4889980287
21
319.0841821032
31
0.0000000000
11
61.5378165348
21
321.1209374197
31
0.0000000000
11
61.5321262823
21
323.1798212925
31
0.0000000000
11
61.4720717523
21
325.2048345443
31
0.0000000000
11
61.3591497993
21
327.1405540797
31
0.0000000000
11
61.1962188541
21
328.9331884675
31
0.0000000000
11
60.9875055875
21
330.5317715264
31
0.0000000000
11
60.7385864107
21
331.8895999931
31
0.0000000000
11
60.4563192585
21
332.9658616803
31
0.0000000000
11
60.1487073043
21
333.7273313696
31
0.0000000000
0
SPLINE
5
3F8
100
AcDbEntity
8
0
100
AcDbSpline
62
7
6
CONTINUOUS
70
0
71
3
72
10
73
6
74
4
42
0.0000001000
43
0.0000001000
44
0.0000000001
40
0.0000000000
40
0.0000000000
40
0.0000000000
40
0.0000000000
40
0.3335972645
40
0.6669701302
40
1.0000000000
40
1.0000000000
40
1.0000000000
40
1.0000000000
10
165.3487901031
20
237.2993122112
30
0.0000000000
10
165.3388335033
20
237.3187222942
30
0.0000000000
10
165.3189538514
20
237.3575431841
30
0.0000000000
10
165.2892287040
20
237.4157893043
30
0.0000000000
10
165.2694734805
20
237.4546320388
30
0.0000000000
10
165.2596142844
20
237.4740501754
30
0.0000000000
11
165.3487901031
21
237.2993122112
31
0.0000000000
11
165.3189606387
21
237.3575631329
31
0.0000000000
11
165.2892319462
21
237.4158161297
31
0.0000000000
11
165.2596142844
21
237.4740501754
31
0.0000000000
0
SPLINE
5
3F9
100
AcDbEntity
8
0
100
AcDbSpline
62
7
6
CONTINUOUS
70
0
71
3
72
9
73
5
74
3
42
0.0000001000
43
0.0000001000
44
0.0000000001
40
0.0000000000
40
0.0000000000
40
0.0000000000
40
0.0000000000
40
0.3542034226
40
1.0000000000
40
1.0000000000
40
1.0000000000
40
1.0000000000
10
59.6747410694
20
334.2365342610
30
0.0000000000
10
59.7589819560
20
334.2365342610
30
0.0000000000
10
59.9679652610
20
334.0658961658
30
0.0000000000
10
60.0764333772
20
333.8628608750
30
0.0000000000
10
60.1486967475
20
333.7273314814
30
0.0000000000
11
59.6747410694
21
334.2365342610
31
0.0000000000
11
59.8944165177
21
334.1115885121
31
0.0000000000
11
60.1486967475
21
333.7273314814
31
0.0000000000
0
SPLINE
5
3FA
100
AcDbEntity
8
0
100
AcDbSpline
62
7
6
CONTINUOUS
70
0
71
3
72
16
73
12
74
10
42
0.0000001000
43
0.0000001000
44
0.0000000001
40
0.0000000000
40
0.0000000000
40
0.0000000000
40
0.0000000000
40
0.1066661626
40
0.2133056862
40
0.3202680727
40
0.4284768214
40
0.5389583709
40
0.6519019244
40
0.7668431674
40
0.8831528808
40
1.0000000000
40
1.0000000000
40
1.0000000000
40
1.0000000000
10
59.6747347306
20
334.2365404920
30
0.0000000000
10
59.7154285652
20
334.5733270451
30
0.0000000000
10
59.8285008691
20
335.2434289546
30
0.0000000000
10
60.0929833881
20
336.2286159013
30
0.0000000000
10
60.4542611996
20
337.1880107940
30
0.0000000000
10
60.9152356880
20
338.1174399822
30
0.0000000000
10
61.4799057025
20
339.0105666779
30
0.0000000000
10
62.1499631087
20
339.8553177686
30
0.0000000000
10
62.9218031099
20
340.6347828795
30
0.0000000000
10
63.7857076579
20
341.3306816127
30
0.0000000000
10
64.4138295541
20
341.7283559959
30
0.0000000000
10
64.7386331649
20
341.9089120091
30
0.0000000000
11
59.6747347306
21
334.2365404920
31
0.0000000000
11
59.8442886689
21
335.2400254181
31
0.0000000000
11
60.1085194707
21
336.2225707620
31
0.0000000000
11
60.4684358534
21
337.1775322271
31
0.0000000000
11
60.9273931006
21
338.1023362490
31
0.0000000000
11
61.4908784851
21
338.9931981277
31
0.0000000000
11
62.1606831734
21
339.8373465519
31
0.0000000000
11
62.9324075390
21
340.6165179128
31
0.0000000000
11
63.7966861757
21
341.3125760259
31
0.0000000000
11
64.7386331649
21
341.9089120091
31
0.0000000000
0
SPLINE
5
3FB
100
AcDbEntity
8
0
100
AcDbSpline
62
7
6
CONTINUOUS
70
0
71
3
72
9
73
5
74
3
42
0.0000001000
43
0.0000001000
44
0.0000000001
40
0.0000000000
40
0.0000000000
40
0.0000000000
40
0.0000000000
40
0.5012146744
40
1.0000000000
40
1.0000000000
40
1.0000000000
40
1.0000000000
10
64.7386331649
20
341.9089120091
30
0.0000000000
10
64.9587806332
20
342.0312904183
30
0.0000000000
10
65.4076215455
20
342.2585509347
30
0.0000000000
10
65.8726501073
20
342.4505056933
30
0.0000000000
10
66.1078492624
20
342.5371615630
30
0.0000000000
11
64.7386331649
21
341.9089120091
31
0.0000000000
11
65.4127785356
21
342.2502336532
31
0.0000000000
11
66.1078492624
21
342.5371615630
31
0.0000000000
0
SPLINE
5
3FC
100
AcDbEntity
8
0
100
AcDbSpline
62
7
6
CONTINUOUS
70
0
71
3
72
18
73
14
74
12
42
0.0000001000
43
0.0000001000
44
0.0000000001
40
0.0000000000
40
0.0000000000
40
0.0000000000
40
0.0000000000
40
0.1300144010
40
0.2518084788
40
0.3645451869
40
0.4680565539
40
0.5635664564
40
0.6528031047
40
0.7359013177
40
0.8114991385
40
0.8778384579
40
0.9361523168
40
1.0000000000
40
1.0000000000
40
1.0000000000
40
1.0000000000
10
61.0343614923
20
313.6549398396
30
0.0000000000
10
61.0078524610
20
313.4711448033
30
0.0000000000
10
60.9664174501
20
313.1136782904
30
0.0000000000
10
60.9320097657
20
312.5939823786
30
0.0000000000
10
60.9195057429
20
312.1112238907
30
0.0000000000
10
60.9211878567
20
311.6659101082
30
0.0000000000
10
60.9298183532
20
311.2542836923
30
0.0000000000
10
60.9380111081
20
310.8718154214
30
0.0000000000
10
60.9370878472
20
310.5176143715
30
0.0000000000
10
60.9130438726
20
310.1965406149
30
0.0000000000
10
60.8489589510
20
309.9159716383
30
0.0000000000
10
60.6873571685
20
309.6825468011
30
0.0000000000
10
60.5024666647
20
309.6365342610
30
0.0000000000
10
60.4112743223
20
309.6365342610
30
0.0000000000
11
61.0343614923
21
313.6549398396
31
0.0000000000
11
60.9697748948
21
313.1016057014
31
0.0000000000
11
60.9347850945
21
312.5809120223
31
0.0000000000
11
60.9216556054
21
312.0980318684
31
0.0000000000
11
60.9225524246
21
311.6545032580
31
0.0000000000
11
60.9300381474
21
311.2453271948
31
0.0000000000
11
60.9366134152
21
310.8630190853
31
0.0000000000
11
60.9325728097
21
310.5069795691
31
0.0000000000
11
60.9034711494
21
310.1843650048
31
0.0000000000
11
60.8274219481
21
309.9104736939
31
0.0000000000
11
60.6738354636
21
309.7133850052
31
0.0000000000
11
60.4112743223
21
309.6365342610
31
0.0000000000
0
SPLINE
5
3FD
100
AcDbEntity
8
0
100
AcDbSpline
62
7
6
CONTINUOUS
70
0
71
3
72
11
73
7
74
5
42
0.0000001000
43
0.0000001000
44
0.0000000001
40
0.0000000000
40
0.0000000000
40
0.0000000000
40
0.0000000000
40
0.2490052622
40
0.4983238166
40
0.7485037119
40
1.0000000000
40
1.0000000000
40
1.0000000000
40
1.0000000000
10
60.4112743223
20
309.6365342610
30
0.0000000000
10
60.5830838309
20
309.3445703272
30
0.0000000000
10
60.9782930001
20
308.7888302061
30
0.0000000000
10
61.7059634850
20
308.0694814322
30
0.0000000000
10
62.5490744273
20
307.4837430305
30
0.0000000000
10
63.1717304669
20
307.1946534075
30
0.0000000000
10
63.4932496403
20
307.0776299986
30
0.0000000000
11
60.4112743223
21
309.6365342610
31
0.0000000000
11
61.0003276700
21
308.8083620769
31
0.0000000000
11
61.7238540024
21
308.0928459593
31
0.0000000000
11
62.5623798773
21
307.5101840392
31
0.0000000000
11
63.4932496403
21
307.0776299986
31
0.0000000000
0
SPLINE
5
3FE
100
AcDbEntity
8
0
100
AcDbSpline
62
7
6
CONTINUOUS
70
0
71
3
72
11
73
7
74
5
42
0.0000001000
43
0.0000001000
44
0.0000000001
40
0.0000000000
40
0.0000000000
40
0.0000000000
40
0.0000000000
40
0.2502286915
40
0.4999994725
40
0.7497713214
40
1.0000000000
40
1.0000000000
40
1.0000000000
40
1.0000000000
10
178.2075243891
20
338.5888422861
30
0.0000000000
10
178.4290643630
20
338.3248212263
30
0.0000000000
10
178.8265991785
20
337.7574183478
30
0.0000000000
10
179.2651770447
20
336.8168622084
30
0.0000000000
10
179.5337851186
20
335.8144420456
30
0.0000000000
10
179.5939754436
20
335.1242543190
30
0.0000000000
10
179.5939754436
20
334.7795993207
30
0.0000000000
11
178.2075243891
21
338.5888422861
31
0.0000000000
11
178.8006499433
21
337.7419150180
31
0.0000000000
11
179.2368655240
21
336.8065592085
31
0.0000000000
11
179.5039416335
21
335.8096369529
31
0.0000000000
11
179.5939754436
21
334.7795993207
31
0.0000000000
0
SPLINE
5
3FF
100
AcDbEntity
8
0
100
AcDbSpline
62
7
6
CONTINUOUS
70
0
71
3
72
13
73
9
74
7
42
0.0000001000
43
0.0000001000
44
0.0000000001
40
0.0000000000
40
0.0000000000
40
0.0000000000
40
0.0000000000
40
0.1667430948
40
0.3334960700
40
0.5002073472
40
0.6668878213
40
0.8335675733
40
1.0000000000
40
1.0000000000
40
1.0000000000
40
1.0000000000
10
165.7908900027
20
349.9364784411
30
0.0000000000
10
166.0912493372
20
349.9364473758
30
0.0000000000
10
166.6928907464
20
349.8925935532
30
0.0000000000
10
167.5755527844
20
349.6970944553
30
0.0000000000
10
168.4207893148
20
349.3761526968
30
0.0000000000
10
169.2106230456
20
348.9364264114
30
0.0000000000
10
169.9279631956
20
348.3873900415
30
0.0000000000
10
170.3480081635
20
347.9553529167
30
0.0000000000
10
170.5407630090
20
347.7257327045
30
0.0000000000
11
165.7908900027
21
349.9364784411
31
0.0000000000
11
166.6895839143
21
349.8709740119
31
0.0000000000
11
167.5694049988
21
349.6761595788
31
0.0000000000
11
168.4116261961
21
349.3563233797
31
0.0000000000
11
169.1986093240
21
348.9181574342
31
0.0000000000
11
169.9137809173
21
348.3705678056
31
0.0000000000
11
170.5407630090
21
347.7257327045
31
0.0000000000
0
SPLINE
5
400
100
AcDbEntity
8
0
100
AcDbSpline
62
7
6
CONTINUOUS
70
0
71
3
72
25
73
21
74
19
42
0.0000001000
43
0.0000001000
44
0.0000000001
40
0.0000000000
40
0.0000000000
40
0.0000000000
40
0.0000000000
40
0.0153447823
40
0.0410017457
40
0.0790387277
40
0.1290049593
40
0.1896119536
40
0.2591210463
40
0.3355109037
40
0.4165758782
40
0.5000036752
40
0.5834311352
40
0.6644951623
40
0.7408836799
40
0.8103912937
40
0.8709969550
40
0.9209621818
40
0.9589985538
40
0.9846552604
40
1.0000000000
40
1.0000000000
40
1.0000000000
40
1.0000000000
10
140.7939754436
20
309.6365342610
30
0.0000000000
10
140.9239767064
20
309.6365342610
30
0.0000000000
10
141.2368192200
20
309.8764361594
30
0.0000000000
10
141.5181380881
20
310.4777468057
30
0.0000000000
10
141.8201005655
20
311.3981938452
30
0.0000000000
10
142.0809489760
20
312.6300026610
30
0.0000000000
10
142.3133654410
20
314.1387767517
30
0.0000000000
10
142.5003170502
20
315.8786681487
30
0.0000000000
10
142.6386747575
20
317.7968785395
30
0.0000000000
10
142.7232038907
20
319.8361718435
30
0.0000000000
10
142.7516911312
20
321.9366248919
30
0.0000000000
10
142.7231990587
20
324.0370698469
30
0.0000000000
10
142.6386660702
20
326.0763407363
30
0.0000000000
10
142.5003062057
20
327.9945189766
30
0.0000000000
10
142.3133543530
20
329.7343749630
30
0.0000000000
10
142.0809394202
20
331.2431165519
30
0.0000000000
10
141.8200933795
20
332.4749003398
30
0.0000000000
10
141.5181339559
20
333.3953315786
30
0.0000000000
10
141.2368168762
20
333.9966346535
30
0.0000000000
10
140.9239763451
20
334.2365342610
30
0.0000000000
10
140.7939754436
20
334.2365342610
30
0.0000000000
11
140.7939754436
21
309.6365342610
31
0.0000000000
11
141.1347603569
21
309.8261881507
31
0.0000000000
11
141.4647466678
21
310.3886308409
31
0.0000000000
11
141.7735875562
21
311.3047218413
31
0.0000000000
11
142.0517806831
21
312.5438212115
31
0.0000000000
11
142.2909990675
21
314.0655234067
31
0.0000000000
11
142.4842953746
21
315.8215636180
31
0.0000000000
11
142.6262375978
21
317.7578966835
31
0.0000000000
11
142.7129461071
21
319.8164229714
31
0.0000000000
11
142.7421040596
21
321.9366277367
31
0.0000000000
11
142.7129411649
21
324.0568238654
31
0.0000000000
11
142.6262287843
21
326.1153258903
31
0.0000000000
11
142.4842845062
21
328.0516246641
31
0.0000000000
11
142.2909882585
21
329.8076270661
31
0.0000000000
11
142.0517717021
21
331.3292952528
31
0.0000000000
11
141.7735814537
21
332.5683690949
31
0.0000000000
11
141.4647436109
21
333.4844447594
31
0.0000000000
11
141.1347595930
21
334.0468812281
31
0.0000000000
11
140.7939754436
21
334.2365342610
31
0.0000000000
0
SPLINE
5
401
100
AcDbEntity
8
0
100
AcDbSpline
62
7
6
CONTINUOUS
70
0
71
3
72
15
73
11
74
9
42
0.0000001000
43
0.0000001000
44
0.0000000001
40
0.0000000000
40
0.0000000000
40
0.0000000000
40
0.0000000000
40
0.1246810898
40
0.2495994478
40
0.3745263157
40
0.4995688814
40
0.6247618449
40
0.7500198193
40
0.8752426321
40
1.0000000000
40
1.0000000000
40
1.0000000000
40
1.0000000000
10
140.7939754437
20
341.3461771795
30
0.0000000000
10
140.7940331394
20
341.6309770421
30
0.0000000000
10
140.8428598239
20
342.2023029792
30
0.0000000000
10
141.0604112752
20
343.0337672886
30
0.0000000000
10
141.4157235960
20
343.8174741851
30
0.0000000000
10
141.8985230758
20
344.5304447976
30
0.0000000000
10
142.4951606774
20
345.1523430619
30
0.0000000000
10
143.1885796515
20
345.6649103304
30
0.0000000000
10
143.9574504382
20
346.0525513135
30
0.0000000000
10
144.5065027865
20
346.2207691298
30
0.0000000000
10
144.7850617875
20
346.2808950277
30
0.0000000000
11
140.7939754437
21
341.3461771795
31
0.0000000000
11
140.8668073223
21
342.1974669088
31
0.0000000000
11
141.0833225853
21
343.0256582196
31
0.0000000000
11
141.4367870380
21
343.8053648500
31
0.0000000000
11
141.9172017667
21
344.5148994439
31
0.0000000000
11
142.5111316393
21
345.1339731578
31
0.0000000000
11
143.2013737921
21
345.6442038113
31
0.0000000000
11
143.9676479100
21
346.0304420014
31
0.0000000000
11
144.7850617875
21
346.2808950277
31
0.0000000000
0
SPLINE
5
402
100
AcDbEntity
8
0
100
AcDbSpline
62
7
6
CONTINUOUS
70
0
71
3
72
15
73
11
74
9
42
0.0000001000
43
0.0000001000
44
0.0000000001
40
0.0000000000
40
0.0000000000
40
0.0000000000
40
0.0000000000
40
0.1247575682
40
0.2499805289
40
0.3752386170
40
0.5004316390
40
0.6254742166
40
0.7504010307
40
0.8753192499
40
1.0000000000
40
1.0000000000
40
1.0000000000
40
1.0000000000
10
114.4029160565
20
346.2808892734
30
0.0000000000
10
114.6814732992
20
346.2207638872
30
0.0000000000
10
115.2305221215
20
346.0525476052
30
0.0000000000
10
115.9993881063
20
345.6649100925
30
0.0000000000
10
116.6928027011
20
345.1523472877
30
0.0000000000
10
117.2894364575
20
344.5304543074
30
0.0000000000
10
117.7722326136
20
343.8174897122
30
0.0000000000
10
118.1275421950
20
343.0337895816
30
0.0000000000
10
118.3450916045
20
342.2023331083
30
0.0000000000
10
118.3939177674
20
341.6310128455
30
0.0000000000
10
118.3939754436
20
341.3462160415
30
0.0000000000
11
114.4029160565
21
346.2808892734
31
0.0000000000
11
115.2203248707
21
346.0304384283
31
0.0000000000
11
115.9865941507
21
345.6442036682
31
0.0000000000
11
116.6768319604
21
345.1339774039
31
0.0000000000
11
117.2707579583
21
344.5149089465
31
0.0000000000
11
117.7511693768
21
343.8053803070
31
0.0000000000
11
118.1046311064
21
343.0256803813
31
0.0000000000
11
118.3211444110
21
342.1974966337
31
0.0000000000
11
118.3939754436
21
341.3462160415
31
0.0000000000
0
SPLINE
5
403
100
AcDbEntity
8
0
100
AcDbSpline
62
7
6
CONTINUOUS
70
0
71
3
72
15
73
11
74
9
42
0.0000001000
43
0.0000001000
44
0.0000000001
40
0.0000000000
40
0.0000000000
40
0.0000000000
40
0.0000000000
40
0.2171034612
40
0.4178139495
40
0.5957851185
40
0.7448695462
40
0.8643336933
40
0.9512606481
40
0.9964654802
40
1.0000000000
40
1.0000000000
40
1.0000000000
40
1.0000000000
10
317.3446529181
20
279.2826924397
30
0.0000000000
10
317.3446529181
20
279.7038387166
30
0.0000000000
10
317.3411263203
20
280.5149072391
30
0.0000000000
10
317.3238360375
20
281.6682220117
30
0.0000000000
10
317.2967405769
20
282.6986941676
30
0.0000000000
10
317.2567199990
20
283.5438740928
30
0.0000000000
10
317.2162714763
20
284.2857712127
30
0.0000000000
10
317.1498375619
20
284.6499361973
30
0.0000000000
10
317.1172609700
20
285.0863405797
30
0.0000000000
10
317.0560411904
20
285.0607520110
30
0.0000000000
10
317.0514160234
20
285.0580924404
30
0.0000000000
11
317.3446529181
21
279.2826924397
31
0.0000000000
11
317.3386662619
21
280.5461170870
31
0.0000000000
11
317.3208018029
21
281.7140199957
31
0.0000000000
11
317.2915495397
21
282.7493143288
31
0.0000000000
11
317.2520656781
21
283.6160158466
31
0.0000000000
11
317.2021786720
21
284.3094481603
31
0.0000000000
11
317.1401891665
21
284.8115092227
31
0.0000000000
11
317.0646599562
21
285.0635042321
31
0.0000000000
11
317.0514160234
21
285.0580924404
31
0.0000000000
0
SPLINE
5
404
100
AcDbEntity
8
0
100
AcDbSpline
62
7
6
CONTINUOUS
70
0
71
3
72
13
73
9
74
7
42
0.0000001000
43
0.0000001000
44
0.0000000001
40
0.0000000000
40
0.0000000000
40
0.0000000000
40
0.0000000000
40
0.0898965756
40
0.2686348296
40
0.4512967516
40
0.6381277257
40
0.8312613381
40
1.0000000000
40
1.0000000000
40
1.0000000000
40
1.0000000000
10
381.5756569275
20
298.1543817145
30
0.0000000000
10
381.5294302051
20
298.3989768211
30
0.0000000000
10
381.3459331156
20
299.1219313447
30
0.0000000000
10
380.8157157020
20
300.2628566712
30
0.0000000000
10
379.8479682113
20
301.4478471305
30
0.0000000000
10
378.5791123897
20
302.3734815871
30
0.0000000000
10
377.1480952445
20
302.9239306931
30
0.0000000000
10
376.1464061727
20
303.0414898632
30
0.0000000000
10
375.6788864351
20
303.0414859632
30
0.0000000000
11
381.5756569275
21
298.1543817145
31
0.0000000000
11
381.3918234334
21
298.8779322052
31
0.0000000000
11
380.7681399031
21
300.2205280120
31
0.0000000000
11
379.8110786040
21
301.3922157357
31
0.0000000000
11
378.5609195231
21
302.3041326337
31
0.0000000000
11
377.0679732304
21
302.8784844886
31
0.0000000000
11
375.6788864351
21
303.0414859632
31
0.0000000000
0
SPLINE
5
405
100
AcDbEntity
8
0
100
AcDbSpline
62
7
6
CONTINUOUS
70
0
71
3
72
10
73
6
74
4
42
0.0000001000
43
0.0000001000
44
0.0000000001
40
0.0000000000
40
0.0000000000
40
0.0000000000
40
0.0000000000
40
0.3563532217
40
0.7756172406
40
1.0000000000
40
1.0000000000
40
1.0000000000
40
1.0000000000
10
382.8077099767
20
291.6771699877
30
0.0000000000
10
382.6851293038
20
292.3103120540
30
0.0000000000
10
382.4260565435
20
293.6898581635
30
0.0000000000
10
382.0867703293
20
295.4674870293
30
0.0000000000
10
381.8691885917
20
296.6118059015
30
0.0000000000
10
381.7933630605
20
297.0107337855
30
0.0000000000
11
382.8077099767
21
291.6771699877
31
0.0000000000
11
382.4462081176
21
293.5777962950
31
0.0000000000
11
382.0209887158
21
295.8139788313
31
0.0000000000
11
381.7933630605
21
297.0107337855
31
0.0000000000
0
SPLINE
5
406
100
AcDbEntity
8
0
100
AcDbSpline
62
7
6
CONTINUOUS
70
0
71
3
72
8
73
4
74
2
42
0.0000001000
43
0.0000001000
44
0.0000000001
40
0.0000000000
40
0.0000000000
40
0.0000000000
40
0.0000000000
40
1.0000000000
40
1.0000000000
40
1.0000000000
40
1.0000000000
10
381.7933630605
20
297.0107337855
30
0.0000000000
10
381.7848532009
20
297.0555052531
30
0.0000000000
10
381.7763436686
20
297.1002767838
30
0.0000000000
10
381.7678343633
20
297.1450483582
30
0.0000000000
11
381.7933630605
21
297.0107337855
31
0.0000000000
11
381.7678343633
21
297.1450483582
31
0.0000000000
0
SPLINE
5
407
100
AcDbEntity
8
0
100
AcDbSpline
62
7
6
CONTINUOUS
70
0
71
3
72
8
73
4
74
2
42
0.0000001000
43
0.0000001000
44
0.0000000001
40
0.0000000000
40
0.0000000000
40
0.0000000000
40
0.0000000000
40
1.0000000000
40
1.0000000000
40
1.0000000000
40
1.0000000000
10
381.7678343633
20
297.1450483582
30
0.0000000000
10
381.7033923524
20
297.4841089726
30
0.0000000000
10
381.6389633578
20
297.8231720927
30
0.0000000000
10
381.5745037412
20
298.1622293166
30
0.0000000000
11
381.7678343633
21
297.1450483582
31
0.0000000000
11
381.5745037412
21
298.1622293166
31
0.0000000000
0
SPLINE
5
408
100
AcDbEntity
8
0
100
AcDbSpline
62
7
6
CONTINUOUS
70
0
71
3
72
8
73
4
74
2
42
0.0000001000
43
0.0000001000
44
0.0000000001
40
0.0000000000
40
0.0000000000
40
0.0000000000
40
0.0000000000
40
1.0000000000
40
1.0000000000
40
1.0000000000
40
1.0000000000
10
383.7966245044
20
269.4139886335
30
0.0000000000
10
383.7968998038
20
269.4392686300
30
0.0000000000
10
383.7971698635
20
269.4645486891
30
0.0000000000
10
383.7974347222
20
269.4898288086
30
0.0000000000
11
383.7966245044
21
269.4139886335
31
0.0000000000
11
383.7974347222
21
269.4898288086
31
0.0000000000
0
SPLINE
5
409
100
AcDbEntity
8
0
100
AcDbSpline
62
7
6
CONTINUOUS
70
0
71
3
72
16
73
12
74
10
42
0.0000001000
43
0.0000001000
44
0.0000000001
40
0.0000000000
40
0.0000000000
40
0.0000000000
40
0.0000000000
40
0.1184702482
40
0.2722017768
40
0.4298759332
40
0.5782097084
40
0.7070462812
40
0.8132110852
40
0.8992675675
40
0.9698016217
40
1.0000000000
40
1.0000000000
40
1.0000000000
40
1.0000000000
10
383.7974347222
20
269.4898288086
30
0.0000000000
10
383.8060198303
20
270.3092565188
30
0.0000000000
10
383.8131899569
20
272.1921508694
30
0.0000000000
10
383.7899809149
20
275.1656212847
30
0.0000000000
10
383.7282738095
20
278.3451614007
30
0.0000000000
10
383.6349657893
20
281.3516520623
30
0.0000000000
10
383.5197755370
20
284.0007901343
30
0.0000000000
10
383.3925182962
20
286.2180248478
30
0.0000000000
10
383.2585220697
20
288.0306550180
30
0.0000000000
10
383.1372640806
20
289.3171666804
30
0.0000000000
10
383.0563960782
20
290.0092263108
30
0.0000000000
10
383.0303986369
20
290.2164903469
30
0.0000000000
11
383.7974347222
21
269.4898288086
31
0.0000000000
11
383.8081191088
21
271.9482270083
31
0.0000000000
11
383.7841047782
21
275.1382678142
31
0.0000000000
11
383.7204917275
21
278.4095952745
31
0.0000000000
11
383.6239616810
21
281.4862020275
31
0.0000000000
11
383.5061909370
21
284.1571349802
31
0.0000000000
11
383.3778871763
21
286.3564548340
31
0.0000000000
11
383.2440226459
21
288.1372155160
31
0.0000000000
11
383.1034917786
21
289.5941278388
31
0.0000000000
11
383.0303986369
21
290.2164903469
31
0.0000000000
0
SPLINE
5
40A
100
AcDbEntity
8
0
100
AcDbSpline
62
7
6
CONTINUOUS
70
0
71
3
72
8
73
4
74
2
42
0.0000001000
43
0.0000001000
44
0.0000000001
40
0.0000000000
40
0.0000000000
40
0.0000000000
40
0.0000000000
40
1.0000000000
40
1.0000000000
40
1.0000000000
40
1.0000000000
10
383.0303986369
20
290.2164903469
30
0.0000000000
10
383.0066548275
20
290.4057873512
30
0.0000000000
10
382.9814477829
20
290.5949115528
30
0.0000000000
10
382.9545006818
20
290.7838240319
30
0.0000000000
11
383.0303986369
21
290.2164903469
31
0.0000000000
11
382.9545006818
21
290.7838240319
31
0.0000000000
0
SPLINE
5
40B
100
AcDbEntity
8
0
100
AcDbSpline
62
7
6
CONTINUOUS
70
0
71
3
72
8
73
4
74
2
42
0.0000001000
43
0.0000001000
44
0.0000000001
40
0.0000000000
40
0.0000000000
40
0.0000000000
40
0.0000000000
40
1.0000000000
40
1.0000000000
40
1.0000000000
40
1.0000000000
10
382.9545006818
20
290.7838240319
30
0.0000000000
10
382.9116229625
20
291.0844180078
30
0.0000000000
10
382.8643396680
20
291.3844759325
30
0.0000000000
10
382.8065933575
20
291.6824890294
30
0.0000000000
11
382.9545006818
21
290.7838240319
31
0.0000000000
11
382.8065933575
21
291.6824890294
31
0.0000000000
0
SPLINE
5
40C
100
AcDbEntity
8
0
100
AcDbSpline
62
7
6
CONTINUOUS
70
0
71
3
72
8
73
4
74
2
42
0.0000001000
43
0.0000001000
44
0.0000000001
40
0.0000000000
40
0.0000000000
40
0.0000000000
40
0.0000000000
40
1.0000000000
40
1.0000000000
40
1.0000000000
40
1.0000000000
10
382.5991676711
20
207.6602139366
30
0.0000000000
10
382.6130363964
20
207.7126206439
30
0.0000000000
10
382.6266625993
20
207.7650941655
30
0.0000000000
10
382.6400449762
20
207.8176318840
30
0.0000000000
11
382.5991676711
21
207.6602139366
31
0.0000000000
11
382.6400449762
21
207.8176318840
31
0.0000000000
0
SPLINE
5
40D
100
AcDbEntity
8
0
100
AcDbSpline
62
7
6
CONTINUOUS
70
0
71
3
72
8
73
4
74
2
42
0.0000001000
43
0.0000001000
44
0.0000000001
40
0.0000000000
40
0.0000000000
40
0.0000000000
40
0.0000000000
40
1.0000000000
40
1.0000000000
40
1.0000000000
40
1.0000000000
10
382.6400449762
20
207.8176318840
30
0.0000000000
10
382.6644353727
20
207.9133858591
30
0.0000000000
10
382.6880158322
20
208.0093530827
30
0.0000000000
10
382.7107784622
20
208.1055177100
30
0.0000000000
11
382.6400449762
21
207.8176318840
31
0.0000000000
11
382.7107784622
21
208.1055177100
31
0.0000000000
0
SPLINE
5
40E
100
AcDbEntity
8
0
100
AcDbSpline
62
7
6
CONTINUOUS
70
0
71
3
72
10
73
6
74
4
42
0.0000001000
43
0.0000001000
44
0.0000000001
40
0.0000000000
40
0.0000000000
40
0.0000000000
40
0.0000000000
40
0.2191072497
40
0.6555879471
40
1.0000000000
40
1.0000000000
40
1.0000000000
40
1.0000000000
10
382.7107784622
20
208.1055177100
30
0.0000000000
10
382.7746132029
20
208.3751985011
30
0.0000000000
10
382.9463678125
20
209.1867520226
30
0.0000000000
10
383.1181450206
20
210.4410820451
30
0.0000000000
10
383.1668312977
20
211.4284964267
30
0.0000000000
10
383.1715723421
20
211.8640015448
30
0.0000000000
11
382.7107784622
21
208.1055177100
31
0.0000000000
11
382.8828132342
21
208.9188680514
31
0.0000000000
11
383.1072624745
21
210.5590400377
31
0.0000000000
11
383.1715723421
21
211.8640015448
31
0.0000000000
0
SPLINE
5
40F
100
AcDbEntity
8
0
100
AcDbSpline
62
7
6
CONTINUOUS
70
0
71
3
72
14
73
10
74
8
42
0.0000001000
43
0.0000001000
44
0.0000000001
40
0.0000000000
40
0.0000000000
40
0.0000000000
40
0.0000000000
40
0.1465387482
40
0.2933625572
40
0.4395334899
40
0.5841555034
40
0.7263494949
40
0.8652573704
40
1.0000000000
40
1.0000000000
40
1.0000000000
40
1.0000000000
10
333.1317447334
20
252.4835650555
30
0.0000000000
10
333.1513337938
20
254.0468405029
30
0.0000000000
10
333.1988816576
20
257.1763341531
30
0.0000000000
10
333.2947481994
20
261.8646862201
30
0.0000000000
10
333.4147763293
20
266.5320275796
30
0.0000000000
10
333.5582068510
20
271.1492902008
30
0.0000000000
10
333.7241461623
20
275.6882611926
30
0.0000000000
10
333.9115488476
20
280.1209028239
30
0.0000000000
10
334.0524241714
20
283.0370575194
30
0.0000000000
10
334.1264942567
20
284.4726953052
30
0.0000000000
11
333.1317447334
21
252.4835650555
31
0.0000000000
11
333.2029368160
21
257.1732192421
31
0.0000000000
11
333.2990231169
21
261.8715551401
31
0.0000000000
11
333.4193878636
21
266.5484285710
31
0.0000000000
11
333.5632788519
21
271.1750380836
31
0.0000000000
11
333.7298055925
21
275.7231244553
31
0.0000000000
11
333.9179488370
21
280.1650986583
31
0.0000000000
11
334.1264942567
21
284.4726953052
31
0.0000000000
0
SPLINE
5
410
100
AcDbEntity
8
0
100
AcDbSpline
62
7
6
CONTINUOUS
70
0
71
3
72
8
73
4
74
2
42
0.0000001000
43
0.0000001000
44
0.0000000001
40
0.0000000000
40
0.0000000000
40
0.0000000000
40
0.0000000000
40
1.0000000000
40
1.0000000000
40
1.0000000000
40
1.0000000000
10
373.9719167667
20
174.6482175538
30
0.0000000000
10
373.9812285546
20
174.6833530170
30
0.0000000000
10
373.9905392927
20
174.7184887583
30
0.0000000000
10
373.9998489870
20
174.7536247761
30
0.0000000000
11
373.9719167667
21
174.6482175538
31
0.0000000000
11
373.9998489870
21
174.7536247761
31
0.0000000000
0
SPLINE
5
411
100
AcDbEntity
8
0
100
AcDbSpline
62
7
6
CONTINUOUS
70
0
71
3
72
10
73
6
74
4
42
0.0000001000
43
0.0000001000
44
0.0000000001
40
0.0000000000
40
0.0000000000
40
0.0000000000
40
0.0000000000
40
0.3584985585
40
0.7011036421
40
1.0000000000
40
1.0000000000
40
1.0000000000
40
1.0000000000
10
373.9998489870
20
174.7536247761
30
0.0000000000
10
375.0408284593
20
178.6824190320
30
0.0000000000
10
377.0511123264
20
186.3725896159
30
0.0000000000
10
379.8922279075
20
197.3479951706
30
0.0000000000
10
381.7320428685
20
204.3842905215
30
0.0000000000
10
382.5991486348
20
207.6601162582
30
0.0000000000
11
373.9998489870
21
174.7536247761
31
0.0000000000
11
377.0918815066
21
186.5481555416
31
0.0000000000
11
380.0213254185
21
197.8264488548
31
0.0000000000
11
382.5991486348
21
207.6601162582
31
0.0000000000
0
SPLINE
5
412
100
AcDbEntity
8
0
100
AcDbSpline
62
7
6
CONTINUOUS
70
0
71
3
72
8
73
4
74
2
42
0.0000001000
43
0.0000001000
44
0.0000000001
40
0.0000000000
40
0.0000000000
40
0.0000000000
40
0.0000000000
40
1.0000000000
40
1.0000000000
40
1.0000000000
40
1.0000000000
10
373.3718063669
20
172.2681605174
30
0.0000000000
10
373.3831975095
20
172.3155899388
30
0.0000000000
10
373.3946188008
20
172.3630121411
30
0.0000000000
10
373.4060704948
20
172.4104270135
30
0.0000000000
11
373.3718063669
21
172.2681605174
31
0.0000000000
11
373.4060704948
21
172.4104270135
31
0.0000000000
0
SPLINE
5
413
100
AcDbEntity
8
0
100
AcDbSpline
62
7
6
CONTINUOUS
70
0
71
3
72
8
73
4
74
2
42
0.0000001000
43
0.0000001000
44
0.0000000001
40
0.0000000000
40
0.0000000000
40
0.0000000000
40
0.0000000000
40
1.0000000000
40
1.0000000000
40
1.0000000000
40
1.0000000000
10
373.4060704948
20
172.4104270135
30
0.0000000000
10
373.4489131002
20
172.5878135789
30
0.0000000000
10
373.4921812302
20
172.7650975542
30
0.0000000000
10
373.5358881868
20
172.9422731467
30
0.0000000000
11
373.4060704948
21
172.4104270135
31
0.0000000000
11
373.5358881868
21
172.9422731467
31
0.0000000000
0
SPLINE
5
414
100
AcDbEntity
8
0
100
AcDbSpline
62
7
6
CONTINUOUS
70
0
71
3
72
8
73
4
74
2
42
0.0000001000
43
0.0000001000
44
0.0000000001
40
0.0000000000
40
0.0000000000
40
0.0000000000
40
0.0000000000
40
1.0000000000
40
1.0000000000
40
1.0000000000
40
1.0000000000
10
373.5358881868
20
172.9422731467
30
0.0000000000
10
373.5564176116
20
173.0254936057
30
0.0000000000
10
373.5770438520
20
173.1086901529
30
0.0000000000
10
373.5977689971
20
173.1918620307
30
0.0000000000
11
373.5358881868
21
172.9422731467
31
0.0000000000
11
373.5977689971
21
173.1918620307
31
0.0000000000
0
SPLINE
5
415
100
AcDbEntity
8
0
100
AcDbSpline
62
7
6
CONTINUOUS
70
0
71
3
72
9
73
5
74
3
42
0.0000001000
43
0.0000001000
44
0.0000000001
40
0.0000000000
40
0.0000000000
40
0.0000000000
40
0.0000000000
40
0.6092700560
40
1.0000000000
40
1.0000000000
40
1.0000000000
40
1.0000000000
10
373.5977689971
20
173.1918620307
30
0.0000000000
10
373.6633741529
20
173.4551414417
30
0.0000000000
10
373.7726790673
20
173.8868584014
30
0.0000000000
10
373.8848322913
20
174.3178447123
30
0.0000000000
10
373.9291138264
20
174.4861226009
30
0.0000000000
11
373.5977689971
21
173.1918620307
31
0.0000000000
11
373.7976238966
21
173.9809346500
31
0.0000000000
11
373.9291138264
21
174.4861226009
31
0.0000000000
0
SPLINE
5
416
100
AcDbEntity
8
0
100
AcDbSpline
62
7
6
CONTINUOUS
70
0
71
3
72
8
73
4
74
2
42
0.0000001000
43
0.0000001000
44
0.0000000001
40
0.0000000000
40
0.0000000000
40
0.0000000000
40
0.0000000000
40
1.0000000000
40
1.0000000000
40
1.0000000000
40
1.0000000000
10
373.9291138264
20
174.4861226009
30
0.0000000000
10
373.9433344828
20
174.5401636819
30
0.0000000000
10
373.9576025709
20
174.5941922459
30
0.0000000000
10
373.9719189207
20
174.6482079676
30
0.0000000000
11
373.9291138264
21
174.4861226009
31
0.0000000000
11
373.9719189207
21
174.6482079676
31
0.0000000000
0
SPLINE
5
417
100
AcDbEntity
8
0
100
AcDbSpline
62
7
6
CONTINUOUS
70
0
71
3
72
8
73
4
74
2
42
0.0000001000
43
0.0000001000
44
0.0000000001
40
0.0000000000
40
0.0000000000
40
0.0000000000
40
0.0000000000
40
1.0000000000
40
1.0000000000
40
1.0000000000
40
1.0000000000
10
373.3512687254
20
172.1826428121
30
0.0000000000
10
373.3558181544
20
172.2015826073
30
0.0000000000
10
373.3603676177
20
172.2205223942
30
0.0000000000
10
373.3649171120
20
172.2394621736
30
0.0000000000
11
373.3512687254
21
172.1826428121
31
0.0000000000
11
373.3649171120
21
172.2394621736
31
0.0000000000
0
SPLINE
5
418
100
AcDbEntity
8
0
100
AcDbSpline
62
7
6
CONTINUOUS
70
0
71
3
72
8
73
4
74
2
42
0.0000001000
43
0.0000001000
44
0.0000000001
40
0.0000000000
40
0.0000000000
40
0.0000000000
40
0.0000000000
40
1.0000000000
40
1.0000000000
40
1.0000000000
40
1.0000000000
10
373.3649171120
20
172.2394621736
30
0.0000000000
10
373.3672136488
20
172.2490227743
30
0.0000000000
10
373.3695101934
20
172.2585833730
30
0.0000000000
10
373.3718067456
20
172.2681439700
30
0.0000000000
11
373.3649171120
21
172.2394621736
31
0.0000000000
11
373.3718067456
21
172.2681439700
31
0.0000000000
0
SPLINE
5
419
100
AcDbEntity
8
0
100
AcDbSpline
62
7
6
CONTINUOUS
70
0
71
3
72
11
73
7
74
5
42
0.0000001000
43
0.0000001000
44
0.0000000001
40
0.0000000000
40
0.0000000000
40
0.0000000000
40
0.0000000000
40
0.2097022053
40
0.5222237773
40
0.8333370580
40
1.0000000000
40
1.0000000000
40
1.0000000000
40
1.0000000000
10
371.2498915380
20
170.0034732428
30
0.0000000000
10
371.4625301782
20
170.0632633314
30
0.0000000000
10
371.9754235406
20
170.2697392624
30
0.0000000000
10
372.6803503118
20
170.8132479344
30
0.0000000000
10
373.1448276076
20
171.5172724303
30
0.0000000000
10
373.3064584842
20
171.9972651252
30
0.0000000000
10
373.3475415184
20
172.1680597425
30
0.0000000000
11
371.2498915380
21
170.0034732428
31
0.0000000000
11
371.8629700910
21
170.2507135959
31
0.0000000000
11
372.6411064660
21
170.8515386714
31
0.0000000000
11
373.1791939921
21
171.6690091728
31
0.0000000000
11
373.3475415184
21
172.1680597425
31
0.0000000000
0
SPLINE
5
41A
100
AcDbEntity
8
0
100
AcDbSpline
62
7
6
CONTINUOUS
70
0
71
3
72
8
73
4
74
2
42
0.0000001000
43
0.0000001000
44
0.0000000001
40
0.0000000000
40
0.0000000000
40
0.0000000000
40
0.0000000000
40
1.0000000000
40
1.0000000000
40
1.0000000000
40
1.0000000000
10
366.7101839207
20
252.1944083050
30
0.0000000000
10
366.6833583149
20
252.1348183656
30
0.0000000000
10
366.6556085203
20
252.0797761042
30
0.0000000000
10
366.6265374962
20
252.0272988627
30
0.0000000000
11
366.7101839207
21
252.1944083050
31
0.0000000000
11
366.6265374962
21
252.0272988627
31
0.0000000000
0
SPLINE
5
41B
100
AcDbEntity
8
0
100
AcDbSpline
62
7
6
CONTINUOUS
70
0
71
3
72
14
73
10
74
8
42
0.0000001000
43
0.0000001000
44
0.0000000001
40
0.0000000000
40
0.0000000000
40
0.0000000000
40
0.0000000000
40
0.0735660337
40
0.2254361550
40
0.3882135703
40
0.5601482564
40
0.7400601890
40
0.9273478016
40
1.0000000000
40
1.0000000000
40
1.0000000000
40
1.0000000000
10
366.6265374962
20
252.0272988627
30
0.0000000000
10
366.5894469281
20
251.9603452287
30
0.0000000000
10
366.4691957003
20
251.7679672347
30
0.0000000000
10
366.2140021194
20
251.4376141528
30
0.0000000000
10
365.8333237524
20
251.0945077853
30
0.0000000000
10
365.3711826144
20
250.8052590684
30
0.0000000000
10
364.8392007834
20
250.5983705858
30
0.0000000000
10
364.3806045034
20
250.5165040793
30
0.0000000000
10
364.1063383572
20
250.5059855909
30
0.0000000000
10
364.0296984607
20
250.5059916104
30
0.0000000000
11
366.6265374962
21
252.0272988627
31
0.0000000000
11
366.5079890194
21
251.8348464049
31
0.0000000000
11
366.2120093701
21
251.4575849204
31
0.0000000000
11
365.8313316474
21
251.1122911758
31
0.0000000000
11
365.3708925099
21
250.8247245649
31
0.0000000000
11
364.8415526643
21
250.6186208878
31
0.0000000000
11
364.2593972734
21
250.5148230776
31
0.0000000000
11
364.0296984607
21
250.5059916104
31
0.0000000000
0
SPLINE
5
41C
100
AcDbEntity
8
0
100
AcDbSpline
62
7
6
CONTINUOUS
70
0
71
3
72
9
73
5
74
3
42
0.0000001000
43
0.0000001000
44
0.0000000001
40
0.0000000000
40
0.0000000000
40
0.0000000000
40
0.0000000000
40
0.2779711316
40
1.0000000000
40
1.0000000000
40
1.0000000000
40
1.0000000000
10
366.6181613879
20
251.6239024711
30
0.0000000000
10
366.6376957870
20
251.7019098858
30
0.0000000000
10
366.6979895398
20
251.9850802765
30
0.0000000000
10
366.7216501871
20
252.2749944152
30
0.0000000000
10
366.7190366343
20
252.4835650555
30
0.0000000000
11
366.6181613879
21
251.6239024711
31
0.0000000000
11
366.6683850675
21
251.8598573493
31
0.0000000000
11
366.7190366343
21
252.4835650555
31
0.0000000000
0
SPLINE
5
41D
100
AcDbEntity
8
0
100
AcDbSpline
62
7
6
CONTINUOUS
70
0
71
3
72
17
73
13
74
11
42
0.0000001000
43
0.0000001000
44
0.0000000001
40
0.0000000000
40
0.0000000000
40
0.0000000000
40
0.0000000000
40
0.0105082060
40
0.0618003030
40
0.1462236582
40
0.2488041405
40
0.3618053735
40
0.4810075518
40
0.6064109624
40
0.7377469398
40
0.8703167968
40
1.0000000000
40
1.0000000000
40
1.0000000000
40
1.0000000000
10
383.0514160234
20
269.0970947458
30
0.0000000000
10
383.0272484397
20
269.1109916263
30
0.0000000000
10
382.8553158796
20
269.3218090782
30
0.0000000000
10
382.9074391138
20
269.8052872901
30
0.0000000000
10
382.7559416657
20
270.6195462349
30
0.0000000000
10
382.7119103856
20
271.6379012287
30
0.0000000000
10
382.6432462178
20
272.7784070108
30
0.0000000000
10
382.5964654873
20
273.9964553339
30
0.0000000000
10
382.5566005888
20
275.2776541901
30
0.0000000000
10
382.5280444177
20
276.6046419158
30
0.0000000000
10
382.5102827645
20
277.9464343598
30
0.0000000000
10
382.5061284496
20
278.8405546898
30
0.0000000000
10
382.5061284496
20
279.2826924397
30
0.0000000000
11
383.0514160234
21
269.0970947458
31
0.0000000000
11
382.9743871838
21
269.1824969359
31
0.0000000000
11
382.8763947064
21
269.6978847012
31
0.0000000000
11
382.7861218707
21
270.5566438243
31
0.0000000000
11
382.7105926042
21
271.6031255308
31
0.0000000000
11
382.6486030338
21
272.7572502868
31
0.0000000000
11
382.5987159457
21
273.9754414724
31
0.0000000000
11
382.5592319900
21
275.2574726902
31
0.0000000000
11
382.5299796363
21
276.6004721450
31
0.0000000000
11
382.5121151215
21
277.9562927004
31
0.0000000000
11
382.5061284496
21
279.2826924397
31
0.0000000000
0
SPLINE
5
41E
100
AcDbEntity
8
0
100
AcDbSpline
62
7
6
CONTINUOUS
70
0
71
3
72
13
73
9
74
7
42
0.0000001000
43
0.0000001000
44
0.0000000001
40
0.0000000000
40
0.0000000000
40
0.0000000000
40
0.0000000000
40
0.0898965756
40
0.2686348296
40
0.4512967516
40
0.6381277257
40
0.8312613381
40
1.0000000000
40
1.0000000000
40
1.0000000000
40
1.0000000000
10
318.2751244402
20
298.1543817145
30
0.0000000000
10
318.3213511626
20
298.3989768211
30
0.0000000000
10
318.5048482522
20
299.1219313447
30
0.0000000000
10
319.0350656657
20
300.2628566712
30
0.0000000000
10
320.0028131565
20
301.4478471305
30
0.0000000000
10
321.2716689780
20
302.3734815871
30
0.0000000000
10
322.7026861232
20
302.9239306931
30
0.0000000000
10
323.7043751950
20
303.0414898632
30
0.0000000000
10
324.1718949326
20
303.0414859632
30
0.0000000000
11
318.2751244402
21
298.1543817145
31
0.0000000000
11
318.4589579343
21
298.8779322052
31
0.0000000000
11
319.0826414647
21
300.2205280120
31
0.0000000000
11
320.0397027637
21
301.3922157357
31
0.0000000000
11
321.2898618446
21
302.3041326337
31
0.0000000000
11
322.7828081373
21
302.8784844886
31
0.0000000000
11
324.1718949326
21
303.0414859632
31
0.0000000000
0
SPLINE
5
41F
100
AcDbEntity
8
0
100
AcDbSpline
62
7
6
CONTINUOUS
70
0
71
3
72
8
73
4
74
2
42
0.0000001000
43
0.0000001000
44
0.0000000001
40
0.0000000000
40
0.0000000000
40
0.0000000000
40
0.0000000000
40
1.0000000000
40
1.0000000000
40
1.0000000000
40
1.0000000000
10
318.2762776265
20
298.1622293166
30
0.0000000000
10
318.2118180099
20
297.8231720927
30
0.0000000000
10
318.1473890153
20
297.4841089726
30
0.0000000000
10
318.0829470044
20
297.1450483582
30
0.0000000000
11
318.2762776265
21
298.1622293166
31
0.0000000000
11
318.0829470044
21
297.1450483582
31
0.0000000000
0
SPLINE
5
420
100
AcDbEntity
8
0
100
AcDbSpline
62
7
6
CONTINUOUS
70
0
71
3
72
8
73
4
74
2
42
0.0000001000
43
0.0000001000
44
0.0000000001
40
0.0000000000
40
0.0000000000
40
0.0000000000
40
0.0000000000
40
1.0000000000
40
1.0000000000
40
1.0000000000
40
1.0000000000
10
318.0829470044
20
297.1450483582
30
0.0000000000
10
318.0744376991
20
297.1002767838
30
0.0000000000
10
318.0659281669
20
297.0555052531
30
0.0000000000
10
318.0574183072
20
297.0107337855
30
0.0000000000
11
318.0829470044
21
297.1450483582
31
0.0000000000
11
318.0574183072
21
297.0107337855
31
0.0000000000
0
SPLINE
5
421
100
AcDbEntity
8
0
100
AcDbSpline
62
7
6
CONTINUOUS
70
0
71
3
72
10
73
6
74
4
42
0.0000001000
43
0.0000001000
44
0.0000000001
40
0.0000000000
40
0.0000000000
40
0.0000000000
40
0.0000000000
40
0.2243827594
40
0.6436467783
40
1.0000000000
40
1.0000000000
40
1.0000000000
40
1.0000000000
10
318.0574183072
20
297.0107337855
30
0.0000000000
10
317.9815927761
20
296.6118059015
30
0.0000000000
10
317.7640110384
20
295.4674870293
30
0.0000000000
10
317.4247248242
20
293.6898581635
30
0.0000000000
10
317.1656520639
20
292.3103120540
30
0.0000000000
10
317.0430713910
20
291.6771699877
30
0.0000000000
11
318.0574183072
21
297.0107337855
31
0.0000000000
11
317.8297926519
21
295.8139788313
31
0.0000000000
11
317.4045732501
21
293.5777962950
31
0.0000000000
11
317.0430713910
21
291.6771699877
31
0.0000000000
0
SPLINE
5
422
100
AcDbEntity
8
0
100
AcDbSpline
62
7
6
CONTINUOUS
70
0
71
3
72
8
73
4
74
2
42
0.0000001000
43
0.0000001000
44
0.0000000001
40
0.0000000000
40
0.0000000000
40
0.0000000000
40
0.0000000000
40
1.0000000000
40
1.0000000000
40
1.0000000000
40
1.0000000000
10
317.0441880102
20
291.6824890294
30
0.0000000000
10
316.9864416997
20
291.3844759325
30
0.0000000000
10
316.9391584052
20
291.0844180078
30
0.0000000000
10
316.8962806859
20
290.7838240319
30
0.0000000000
11
317.0441880102
21
291.6824890294
31
0.0000000000
11
316.8962806859
21
290.7838240319
31
0.0000000000
0
SPLINE
5
423
100
AcDbEntity
8
0
100
AcDbSpline
62
7
6
CONTINUOUS
70
0
71
3
72
8
73
4
74
2
42
0.0000001000
43
0.0000001000
44
0.0000000001
40
0.0000000000
40
0.0000000000
40
0.0000000000
40
0.0000000000
40
1.0000000000
40
1.0000000000
40
1.0000000000
40
1.0000000000
10
316.8962806859
20
290.7838240319
30
0.0000000000
10
316.8693335848
20
290.5949115528
30
0.0000000000
10
316.8441265402
20
290.4057873512
30
0.0000000000
10
316.8203827308
20
290.2164903469
30
0.0000000000
11
316.8962806859
21
290.7838240319
31
0.0000000000
11
316.8203827308
21
290.2164903469
31
0.0000000000
0
SPLINE
5
424
100
AcDbEntity
8
0
100
AcDbSpline
62
7
6
CONTINUOUS
70
0
71
3
72
16
73
12
74
10
42
0.0000001000
43
0.0000001000
44
0.0000000001
40
0.0000000000
40
0.0000000000
40
0.0000000000
40
0.0000000000
40
0.0301983783
40
0.1007324325
40
0.1867889148
40
0.2929537188
40
0.4217902916
40
0.5701240668
40
0.7277982232
40
0.8815297518
40
1.0000000000
40
1.0000000000
40
1.0000000000
40
1.0000000000
10
316.8203827308
20
290.2164903469
30
0.0000000000
10
316.7943852895
20
290.0092263108
30
0.0000000000
10
316.7135172872
20
289.3171666804
30
0.0000000000
10
316.5922592980
20
288.0306550180
30
0.0000000000
10
316.4582630715
20
286.2180248478
30
0.0000000000
10
316.3310058308
20
284.0007901343
30
0.0000000000
10
316.2158155784
20
281.3516520623
30
0.0000000000
10
316.1225075583
20
278.3451614007
30
0.0000000000
10
316.0608004528
20
275.1656212847
30
0.0000000000
10
316.0375914108
20
272.1921508694
30
0.0000000000
10
316.0447615374
20
270.3092565188
30
0.0000000000
10
316.0533466455
20
269.4898288086
30
0.0000000000
11
316.8203827308
21
290.2164903469
31
0.0000000000
11
316.7472895891
21
289.5941278388
31
0.0000000000
11
316.6067587218
21
288.1372155160
31
0.0000000000
11
316.4728941914
21
286.3564548340
31
0.0000000000
11
316.3445904307
21
284.1571349802
31
0.0000000000
11
316.2268196867
21
281.4862020275
31
0.0000000000
11
316.1302896402
21
278.4095952745
31
0.0000000000
11
316.0666765895
21
275.1382678142
31
0.0000000000
11
316.0426622589
21
271.9482270083
31
0.0000000000
11
316.0533466455
21
269.4898288086
31
0.0000000000
0
SPLINE
5
425
100
AcDbEntity
8
0
100
AcDbSpline
62
7
6
CONTINUOUS
70
0
71
3
72
8
73
4
74
2
42
0.0000001000
43
0.0000001000
44
0.0000000001
40
0.0000000000
40
0.0000000000
40
0.0000000000
40
0.0000000000
40
1.0000000000
40
1.0000000000
40
1.0000000000
40
1.0000000000
10
316.0533466455
20
269.4898288086
30
0.0000000000
10
316.0536115042
20
269.4645486891
30
0.0000000000
10
316.0538815639
20
269.4392686300
30
0.0000000000
10
316.0541568634
20
269.4139886335
30
0.0000000000
11
316.0533466455
21
269.4898288086
31
0.0000000000
11
316.0541568634
21
269.4139886335
31
0.0000000000
0
SPLINE
5
426
100
AcDbEntity
8
0
100
AcDbSpline
62
7
6
CONTINUOUS
70
0
71
3
72
10
73
6
74
4
42
0.0000001000
43
0.0000001000
44
0.0000000001
40
0.0000000000
40
0.0000000000
40
0.0000000000
40
0.0000000000
40
0.3444120529
40
0.7808927503
40
1.0000000000
40
1.0000000000
40
1.0000000000
40
1.0000000000
10
316.6792090256
20
211.8640015448
30
0.0000000000
10
316.6839500700
20
211.4284964267
30
0.0000000000
10
316.7326363471
20
210.4410820451
30
0.0000000000
10
316.9044135552
20
209.1867520226
30
0.0000000000
10
317.0761681648
20
208.3751985011
30
0.0000000000
10
317.1400029056
20
208.1055177100
30
0.0000000000
11
316.6792090256
21
211.8640015448
31
0.0000000000
11
316.7435188932
21
210.5590400377
31
0.0000000000
11
316.9679681335
21
208.9188680514
31
0.0000000000
11
317.1400029056
21
208.1055177100
31
0.0000000000
0
SPLINE
5
427
100
AcDbEntity
8
0
100
AcDbSpline
62
7
6
CONTINUOUS
70
0
71
3
72
8
73
4
74
2
42
0.0000001000
43
0.0000001000
44
0.0000000001
40
0.0000000000
40
0.0000000000
40
0.0000000000
40
0.0000000000
40
1.0000000000
40
1.0000000000
40
1.0000000000
40
1.0000000000
10
317.1400029056
20
208.1055177100
30
0.0000000000
10
317.1627655355
20
208.0093530827
30
0.0000000000
10
317.1863459950
20
207.9133858591
30
0.0000000000
10
317.2107363915
20
207.8176318840
30
0.0000000000
11
317.1400029056
21
208.1055177100
31
0.0000000000
11
317.2107363915
21
207.8176318840
31
0.0000000000
0
SPLINE
5
428
100
AcDbEntity
8
0
100
AcDbSpline
62
7
6
CONTINUOUS
70
0
71
3
72
8
73
4
74
2
42
0.0000001000
43
0.0000001000
44
0.0000000001
40
0.0000000000
40
0.0000000000
40
0.0000000000
40
0.0000000000
40
1.0000000000
40
1.0000000000
40
1.0000000000
40
1.0000000000
10
317.2107363915
20
207.8176318840
30
0.0000000000
10
317.2241187684
20
207.7650941655
30
0.0000000000
10
317.2377449713
20
207.7126206439
30
0.0000000000
10
317.2516136966
20
207.6602139366
30
0.0000000000
11
317.2107363915
21
207.8176318840
31
0.0000000000
11
317.2516136966
21
207.6602139366
31
0.0000000000
0
SPLINE
5
429
100
AcDbEntity
8
0
100
AcDbSpline
62
7
6
CONTINUOUS
70
0
71
3
72
10
73
6
74
4
42
0.0000001000
43
0.0000001000
44
0.0000000001
40
0.0000000000
40
0.0000000000
40
0.0000000000
40
0.0000000000
40
0.2988963579
40
0.6415014415
40
1.0000000000
40
1.0000000000
40
1.0000000000
40
1.0000000000
10
317.2516327329
20
207.6601162582
30
0.0000000000
10
318.1187384992
20
204.3842905215
30
0.0000000000
10
319.9585534602
20
197.3479951706
30
0.0000000000
10
322.7996690413
20
186.3725896159
30
0.0000000000
10
324.8099529084
20
178.6824190320
30
0.0000000000
10
325.8509323808
20
174.7536247761
30
0.0000000000
11
317.2516327329
21
207.6601162582
31
0.0000000000
11
319.8294559492
21
197.8264488548
31
0.0000000000
11
322.7588998611
21
186.5481555416
31
0.0000000000
11
325.8509323808
21
174.7536247761
31
0.0000000000
0
SPLINE
5
42A
100
AcDbEntity
8
0
100
AcDbSpline
62
7
6
CONTINUOUS
70
0
71
3
72
8
73
4
74
2
42
0.0000001000
43
0.0000001000
44
0.0000000001
40
0.0000000000
40
0.0000000000
40
0.0000000000
40
0.0000000000
40
1.0000000000
40
1.0000000000
40
1.0000000000
40
1.0000000000
10
325.8509323808
20
174.7536247761
30
0.0000000000
10
325.8602420750
20
174.7184887583
30
0.0000000000
10
325.8695528131
20
174.6833530170
30
0.0000000000
10
325.8788646010
20
174.6482175538
30
0.0000000000
11
325.8509323808
21
174.7536247761
31
0.0000000000
11
325.8788646010
21
174.6482175538
31
0.0000000000
0
SPLINE
5
42B
100
AcDbEntity
8
0
100
AcDbSpline
62
7
6
CONTINUOUS
70
0
71
3
72
8
73
4
74
2
42
0.0000001000
43
0.0000001000
44
0.0000000001
40
0.0000000000
40
0.0000000000
40
0.0000000000
40
0.0000000000
40
1.0000000000
40
1.0000000000
40
1.0000000000
40
1.0000000000
10
325.8788624471
20
174.6482079676
30
0.0000000000
10
325.8931787969
20
174.5941922459
30
0.0000000000
10
325.9074468849
20
174.5401636819
30
0.0000000000
10
325.9216675413
20
174.4861226009
30
0.0000000000
11
325.8788624471
21
174.6482079676
31
0.0000000000
11
325.9216675413
21
174.4861226009
31
0.0000000000
0
SPLINE
5
42C
100
AcDbEntity
8
0
100
AcDbSpline
62
7
6
CONTINUOUS
70
0
71
3
72
9
73
5
74
3
42
0.0000001000
43
0.0000001000
44
0.0000000001
40
0.0000000000
40
0.0000000000
40
0.0000000000
40
0.0000000000
40
0.3907299440
40
1.0000000000
40
1.0000000000
40
1.0000000000
40
1.0000000000
10
325.9216675413
20
174.4861226009
30
0.0000000000
10
325.9659490764
20
174.3178447123
30
0.0000000000
10
326.0781023004
20
173.8868584014
30
0.0000000000
10
326.1874072148
20
173.4551414417
30
0.0000000000
10
326.2530123706
20
173.1918620307
30
0.0000000000
11
325.9216675413
21
174.4861226009
31
0.0000000000
11
326.0531574712
21
173.9809346500
31
0.0000000000
11
326.2530123706
21
173.1918620307
31
0.0000000000
0
SPLINE
5
42D
100
AcDbEntity
8
0
100
AcDbSpline
62
7
6
CONTINUOUS
70
0
71
3
72
8
73
4
74
2
42
0.0000001000
43
0.0000001000
44
0.0000000001
40
0.0000000000
40
0.0000000000
40
0.0000000000
40
0.0000000000
40
1.0000000000
40
1.0000000000
40
1.0000000000
40
1.0000000000
10
326.2530123706
20
173.1918620307
30
0.0000000000
10
326.2737375157
20
173.1086901529
30
0.0000000000
10
326.2943637561
20
173.0254936057
30
0.0000000000
10
326.3148931809
20
172.9422731467
30
0.0000000000
11
326.2530123706
21
173.1918620307
31
0.0000000000
11
326.3148931809
21
172.9422731467
31
0.0000000000
0
SPLINE
5
42E
100
AcDbEntity
8
0
100
AcDbSpline
62
7
6
CONTINUOUS
70
0
71
3
72
8
73
4
74
2
42
0.0000001000
43
0.0000001000
44
0.0000000001
40
0.0000000000
40
0.0000000000
40
0.0000000000
40
0.0000000000
40
1.0000000000
40
1.0000000000
40
1.0000000000
40
1.0000000000
10
326.3148931809
20
172.9422731467
30
0.0000000000
10
326.3586001375
20
172.7650975542
30
0.0000000000
10
326.4018682675
20
172.5878135789
30
0.0000000000
10
326.4447108729
20
172.4104270135
30
0.0000000000
11
326.3148931809
21
172.9422731467
31
0.0000000000
11
326.4447108729
21
172.4104270135
31
0.0000000000
0
SPLINE
5
42F
100
AcDbEntity
8
0
100
AcDbSpline
62
7
6
CONTINUOUS
70
0
71
3
72
8
73
4
74
2
42
0.0000001000
43
0.0000001000
44
0.0000000001
40
0.0000000000
40
0.0000000000
40
0.0000000000
40
0.0000000000
40
1.0000000000
40
1.0000000000
40
1.0000000000
40
1.0000000000
10
326.4447108729
20
172.4104270135
30
0.0000000000
10
326.4561625669
20
172.3630121411
30
0.0000000000
10
326.4675838582
20
172.3155899388
30
0.0000000000
10
326.4789750008
20
172.2681605174
30
0.0000000000
11
326.4447108729
21
172.4104270135
31
0.0000000000
11
326.4789750008
21
172.2681605174
31
0.0000000000
0
SPLINE
5
430
100
AcDbEntity
8
0
100
AcDbSpline
62
7
6
CONTINUOUS
70
0
71
3
72
9
73
5
74
3
42
0.0000001000
43
0.0000001000
44
0.0000000001
40
0.0000000000
40
0.0000000000
40
0.0000000000
40
0.0000000000
40
0.5035625618
40
1.0000000000
40
1.0000000000
40
1.0000000000
40
1.0000000000
10
326.4789746221
20
172.2681439700
30
0.0000000000
10
326.4812711681
20
172.2585833988
30
0.0000000000
10
326.4858317504
20
172.2395975294
30
0.0000000000
10
326.4903923013
20
172.2206116524
30
0.0000000000
10
326.4926563214
20
172.2111863504
30
0.0000000000
11
326.4789746221
21
172.2681439700
31
0.0000000000
11
326.4858642371
21
172.2394622508
31
0.0000000000
11
326.4926563214
21
172.2111863504
31
0.0000000000
0
SPLINE
5
431
100
AcDbEntity
8
0
100
AcDbSpline
62
7
6
CONTINUOUS
70
0
71
3
72
8
73
4
74
2
42
0.0000001000
43
0.0000001000
44
0.0000000001
40
0.0000000000
40
0.0000000000
40
0.0000000000
40
0.0000000000
40
1.0000000000
40
1.0000000000
40
1.0000000000
40
1.0000000000
10
326.4926563214
20
172.2111863504
30
0.0000000000
10
326.4949417684
20
172.2016718466
30
0.0000000000
10
326.4972272071
20
172.1921573409
30
0.0000000000
10
326.4995126372
20
172.1826428331
30
0.0000000000
11
326.4926563214
21
172.2111863504
31
0.0000000000
11
326.4995126372
21
172.1826428331
31
0.0000000000
0
SPLINE
5
432
100
AcDbEntity
8
0
100
AcDbSpline
62
7
6
CONTINUOUS
70
0
71
3
72
11
73
7
74
5
42
0.0000001000
43
0.0000001000
44
0.0000000001
40
0.0000000000
40
0.0000000000
40
0.0000000000
40
0.0000000000
40
0.1666629420
40
0.4777762227
40
0.7902977947
40
1.0000000000
40
1.0000000000
40
1.0000000000
40
1.0000000000
10
326.5032398493
20
172.1680597425
30
0.0000000000
10
326.5443228835
20
171.9972651252
30
0.0000000000
10
326.7059537601
20
171.5172724303
30
0.0000000000
10
327.1704310559
20
170.8132479344
30
0.0000000000
10
327.8753578272
20
170.2697392624
30
0.0000000000
10
328.3882511895
20
170.0632633314
30
0.0000000000
10
328.6008898297
20
170.0034732428
30
0.0000000000
11
326.5032398493
21
172.1680597425
31
0.0000000000
11
326.6715873756
21
171.6690091728
31
0.0000000000
11
327.2096749017
21
170.8515386714
31
0.0000000000
11
327.9878112767
21
170.2507135959
31
0.0000000000
11
328.6008898297
21
170.0034732428
31
0.0000000000
0
SPLINE
5
433
100
AcDbEntity
8
0
100
AcDbSpline
62
7
6
CONTINUOUS
70
0
71
3
72
14
73
10
74
8
42
0.0000001000
43
0.0000001000
44
0.0000000001
40
0.0000000000
40
0.0000000000
40
0.0000000000
40
0.0000000000
40
0.0827312185
40
0.2694330015
40
0.4485618334
40
0.6196635920
40
0.7816639592
40
0.9328859159
40
1.0000000000
40
1.0000000000
40
1.0000000000
40
1.0000000000
10
335.8210815321
20
250.5060035749
30
0.0000000000
10
335.7335824915
20
250.5060013655
30
0.0000000000
10
335.4485283979
20
250.5184854536
30
0.0000000000
10
334.9805785172
20
250.6071327588
30
0.0000000000
10
334.4514821132
20
250.8200794894
30
0.0000000000
10
333.9937247023
20
251.1110832412
30
0.0000000000
10
333.6157519388
20
251.4655616702
30
0.0000000000
10
333.3725052562
20
251.7690912112
30
0.0000000000
10
333.2508570346
20
251.9898324848
30
0.0000000000
10
333.2164654964
20
252.0547757494
30
0.0000000000
11
335.8210815321
21
250.5060035749
31
0.0000000000
11
335.5589017544
21
250.5175112830
31
0.0000000000
11
334.9781872048
21
250.6275881935
31
0.0000000000
11
334.4519782199
21
250.8389764297
31
0.0000000000
11
333.9955438116
21
251.1306493353
31
0.0000000000
11
333.6191423222
21
251.4789931428
31
0.0000000000
11
333.3273435132
21
251.8585190400
31
0.0000000000
11
333.2164654964
21
252.0547757494
31
0.0000000000
0
SPLINE
5
434
100
AcDbEntity
8
0
100
AcDbSpline
62
7
6
CONTINUOUS
70
0
71
3
72
9
73
5
74
3
42
0.0000001000
43
0.0000001000
44
0.0000000001
40
0.0000000000
40
0.0000000000
40
0.0000000000
40
0.0000000000
40
0.2779711316
40
1.0000000000
40
1.0000000000
40
1.0000000000
40
1.0000000000
10
333.2326199798
20
251.6239024711
30
0.0000000000
10
333.2130855807
20
251.7019098858
30
0.0000000000
10
333.1527918279
20
251.9850802765
30
0.0000000000
10
333.1291311807
20
252.2749944152
30
0.0000000000
10
333.1317447334
20
252.4835650555
30
0.0000000000
11
333.2326199798
21
251.6239024711
31
0.0000000000
11
333.1823963003
21
251.8598573493
31
0.0000000000
11
333.1317447334
21
252.4835650555
31
0.0000000000
0
SPLINE
5
435
100
AcDbEntity
8
0
100
AcDbSpline
62
7
6
CONTINUOUS
70
0
71
3
72
17
73
13
74
11
42
0.0000001000
43
0.0000001000
44
0.0000000001
40
0.0000000000
40
0.0000000000
40
0.0000000000
40
0.0000000000
40
0.0105082060
40
0.0618003030
40
0.1462236582
40
0.2488041405
40
0.3618053735
40
0.4810075518
40
0.6064109624
40
0.7377469398
40
0.8703167968
40
1.0000000000
40
1.0000000000
40
1.0000000000
40
1.0000000000
10
316.7993653444
20
269.0970947458
30
0.0000000000
10
316.8235329280
20
269.1109916263
30
0.0000000000
10
316.9954654881
20
269.3218090782
30
0.0000000000
10
316.9433422539
20
269.8052872901
30
0.0000000000
10
317.0948397020
20
270.6195462349
30
0.0000000000
10
317.1388709821
20
271.6379012287
30
0.0000000000
10
317.2075351499
20
272.7784070108
30
0.0000000000
10
317.2543158804
20
273.9964553339
30
0.0000000000
10
317.2941807789
20
275.2776541901
30
0.0000000000
10
317.3227369500
20
276.6046419158
30
0.0000000000
10
317.3404986032
20
277.9464343598
30
0.0000000000
10
317.3446529181
20
278.8405546898
30
0.0000000000
10
317.3446529181
20
279.2826924397
30
0.0000000000
11
316.7993653444
21
269.0970947458
31
0.0000000000
11
316.8763941839
21
269.1824969359
31
0.0000000000
11
316.9743866613
21
269.6978847012
31
0.0000000000
11
317.0646594970
21
270.5566438243
31
0.0000000000
11
317.1401887635
21
271.6031255308
31
0.0000000000
11
317.2021783339
21
272.7572502868
31
0.0000000000
11
317.2520654220
21
273.9754414724
31
0.0000000000
11
317.2915493777
21
275.2574726902
31
0.0000000000
11
317.3208017314
21
276.6004721450
31
0.0000000000
11
317.3386662462
21
277.9562927004
31
0.0000000000
11
317.3446529181
21
279.2826924397
31
0.0000000000
0
SPLINE
5
436
100
AcDbEntity
8
0
100
AcDbSpline
62
7
6
CONTINUOUS
70
0
71
3
72
15
73
11
74
9
42
0.0000001000
43
0.0000001000
44
0.0000000001
40
0.0000000000
40
0.0000000000
40
0.0000000000
40
0.0000000000
40
0.1189566339
40
0.2384879467
40
0.3595475484
40
0.4828679658
40
0.6088984335
40
0.7374927993
40
0.8681988315
40
1.0000000000
40
1.0000000000
40
1.0000000000
40
1.0000000000
10
334.1264942567
20
284.4726953052
30
0.0000000000
10
334.1355643749
20
284.6484937312
30
0.0000000000
10
334.1908972710
20
285.0001053016
30
0.0000000000
10
334.3810811964
20
285.5007887902
30
0.0000000000
10
334.6709450446
20
285.9588705955
30
0.0000000000
10
335.0504213439
20
286.3590185469
30
0.0000000000
10
335.5068840349
20
286.6876762537
30
0.0000000000
10
336.0251330586
20
286.9328707916
30
0.0000000000
10
336.5865949216
20
287.0847047109
30
0.0000000000
10
336.9759195629
20
287.1190753876
30
0.0000000000
10
337.1709591811
20
287.1190753876
30
0.0000000000
11
334.1264942567
21
284.4726953052
31
0.0000000000
11
334.2083827505
21
284.9944044743
31
0.0000000000
11
334.3961627061
21
285.4907168504
31
0.0000000000
11
334.6828144798
21
285.9453206873
31
0.0000000000
11
335.0588228048
21
286.3432408291
31
0.0000000000
11
335.5123459597
21
286.6708952434
31
0.0000000000
11
336.0280737631
21
286.9157048139
31
0.0000000000
11
336.5881147143
21
287.0675350992
31
0.0000000000
11
337.1709591811
21
287.1190753876
31
0.0000000000
0
SPLINE
5
437
100
AcDbEntity
8
0
100
AcDbSpline
62
7
6
CONTINUOUS
70
0
71
3
72
15
73
11
74
9
42
0.0000001000
43
0.0000001000
44
0.0000000001
40
0.0000000000
40
0.0000000000
40
0.0000000000
40
0.0000000000
40
0.2171034612
40
0.4178139495
40
0.5957851185
40
0.7448695462
40
0.8643336933
40
0.9512606481
40
0.9964654802
40
1.0000000000
40
1.0000000000
40
1.0000000000
40
1.0000000000
10
382.5061284496
20
279.2826924397
30
0.0000000000
10
382.5061284496
20
279.7038387166
30
0.0000000000
10
382.5096550474
20
280.5149072391
30
0.0000000000
10
382.5269453302
20
281.6682220117
30
0.0000000000
10
382.5540407909
20
282.6986941676
30
0.0000000000
10
382.5940613687
20
283.5438740928
30
0.0000000000
10
382.6345098915
20
284.2857712127
30
0.0000000000
10
382.7009438059
20
284.6499361973
30
0.0000000000
10
382.7335203977
20
285.0863405797
30
0.0000000000
10
382.7947401773
20
285.0607520110
30
0.0000000000
10
382.7993653444
20
285.0580924404
30
0.0000000000
11
382.5061284496
21
279.2826924397
31
0.0000000000
11
382.5121151058
21
280.5461170870
31
0.0000000000
11
382.5299795648
21
281.7140199957
31
0.0000000000
11
382.5592318281
21
282.7493143288
31
0.0000000000
11
382.5987156896
21
283.6160158466
31
0.0000000000
11
382.6486026957
21
284.3094481603
31
0.0000000000
11
382.7105922013
21
284.8115092227
31
0.0000000000
11
382.7861214115
21
285.0635042321
31
0.0000000000
11
382.7993653444
21
285.0580924404
31
0.0000000000
0
SPLINE
5
438
100
AcDbEntity
8
0
100
AcDbSpline
62
7
6
CONTINUOUS
70
0
71
3
72
14
73
10
74
8
42
0.0000001000
43
0.0000001000
44
0.0000000001
40
0.0000000000
40
0.0000000000
40
0.0000000000
40
0.0000000000
40
0.1465387482
40
0.2933625572
40
0.4395334899
40
0.5841555034
40
0.7263494949
40
0.8652573704
40
1.0000000000
40
1.0000000000
40
1.0000000000
40
1.0000000000
10
366.7190366343
20
252.4835650555
30
0.0000000000
10
366.6994475739
20
254.0468405029
30
0.0000000000
10
366.6518997101
20
257.1763341531
30
0.0000000000
10
366.5560331683
20
261.8646862201
30
0.0000000000
10
366.4360050385
20
266.5320275796
30
0.0000000000
10
366.2925745167
20
271.1492902008
30
0.0000000000
10
366.1266352055
20
275.6882611926
30
0.0000000000
10
365.9392325201
20
280.1209028239
30
0.0000000000
10
365.7983571963
20
283.0370575194
30
0.0000000000
10
365.7242871111
20
284.4726953052
30
0.0000000000
11
366.7190366343
21
252.4835650555
31
0.0000000000
11
366.6478445517
21
257.1732192421
31
0.0000000000
11
366.5517582508
21
261.8715551401
31
0.0000000000
11
366.4313935041
21
266.5484285710
31
0.0000000000
11
366.2875025158
21
271.1750380836
31
0.0000000000
11
366.1209757752
21
275.7231244553
31
0.0000000000
11
365.9328325307
21
280.1650986583
31
0.0000000000
11
365.7242871111
21
284.4726953052
31
0.0000000000
0
SPLINE
5
439
100
AcDbEntity
8
0
100
AcDbSpline
62
7
6
CONTINUOUS
70
0
71
3
72
15
73
11
74
9
42
0.0000001000
43
0.0000001000
44
0.0000000001
40
0.0000000000
40
0.0000000000
40
0.0000000000
40
0.0000000000
40
0.1189566339
40
0.2384879467
40
0.3595475484
40
0.4828679658
40
0.6088984335
40
0.7374927993
40
0.8681988315
40
1.0000000000
40
1.0000000000
40
1.0000000000
40
1.0000000000
10
365.7242871111
20
284.4726953052
30
0.0000000000
10
365.7152169929
20
284.6484937312
30
0.0000000000
10
365.6598840967
20
285.0001053016
30
0.0000000000
10
365.4697001713
20
285.5007887902
30
0.0000000000
10
365.1798363231
20
285.9588705955
30
0.0000000000
10
364.8003600238
20
286.3590185469
30
0.0000000000
10
364.3438973328
20
286.6876762537
30
0.0000000000
10
363.8256483091
20
286.9328707916
30
0.0000000000
10
363.2641864461
20
287.0847047109
30
0.0000000000
10
362.8748618048
20
287.1190753876
30
0.0000000000
10
362.6798221866
20
287.1190753876
30
0.0000000000
11
365.7242871111
21
284.4726953052
31
0.0000000000
11
365.6423986172
21
284.9944044743
31
0.0000000000
11
365.4546186616
21
285.4907168504
31
0.0000000000
11
365.1679668879
21
285.9453206873
31
0.0000000000
11
364.7919585629
21
286.3432408291
31
0.0000000000
11
364.3384354080
21
286.6708952434
31
0.0000000000
11
363.8227076046
21
286.9157048139
31
0.0000000000
11
363.2626666534
21
287.0675350992
31
0.0000000000
11
362.6798221866
21
287.1190753876
31
0.0000000000
0
SPLINE
5
43A
100
AcDbEntity
8
0
100
AcDbSpline
62
7
6
CONTINUOUS
70
0
71
3
72
19
73
15
74
13
42
0.0000001000
43
0.0000001000
44
0.0000000001
40
0.0000000000
40
0.0000000000
40
0.0000000000
40
0.0000000000
40
0.0822996433
40
0.1650336315
40
0.2486160067
40
0.3328687180
40
0.4179409979
40
0.5032033793
40
0.5881009047
40
0.6723262067
40
0.7552290801
40
0.8373136469
40
0.9187251247
40
1.0000000000
40
1.0000000000
40
1.0000000000
40
1.0000000000
10
329.7339564563
20
175.8277375457
30
0.0000000000
10
329.6764903574
20
175.7036665648
30
0.0000000000
10
329.5365574109
20
175.4654202498
30
0.0000000000
10
329.2581934570
20
175.1564612297
30
0.0000000000
10
328.9184327725
20
174.9103268590
30
0.0000000000
10
328.5296513921
20
174.7420812772
30
0.0000000000
10
328.1103216035
20
174.6637808279
30
0.0000000000
10
327.6830636057
20
174.6810991250
30
0.0000000000
10
327.2715763297
20
174.7913308640
30
0.0000000000
10
326.8965714967
20
174.9844052396
30
0.0000000000
10
326.5723640307
20
175.2462986979
30
0.0000000000
10
326.3080930641
20
175.5622257477
30
0.0000000000
10
326.1087655950
20
175.9192192102
30
0.0000000000
10
326.0215942708
20
176.1769232229
30
0.0000000000
10
325.9900604182
20
176.3082201526
30
0.0000000000
11
329.7339564563
21
175.8277375457
31
0.0000000000
11
329.5257727203
21
175.4742928125
31
0.0000000000
11
329.2494181175
21
175.1682331370
31
0.0000000000
11
328.9117955725
21
174.9241825399
31
0.0000000000
11
328.5263061895
21
174.7576216347
31
0.0000000000
11
328.1094917085
21
174.6797900240
31
0.0000000000
11
327.6848633257
21
174.6967378362
31
0.0000000000
11
327.2760127301
21
174.8058037199
31
0.0000000000
11
326.9025426847
21
174.9975066299
31
0.0000000000
11
326.5808136700
21
175.2567936631
31
0.0000000000
11
326.3180114882
21
175.5703544248
31
0.0000000000
11
326.1200011743
21
175.9245343326
31
0.0000000000
11
325.9900604182
21
176.3082201526
31
0.0000000000
0
SPLINE
5
43B
100
AcDbEntity
8
0
100
AcDbSpline
62
7
6
CONTINUOUS
70
0
71
3
72
14
73
10
74
8
42
0.0000001000
43
0.0000001000
44
0.0000000001
40
0.0000000000
40
0.0000000000
40
0.0000000000
40
0.0000000000
40
0.1519418759
40
0.3039770184
40
0.4555428279
40
0.6067215756
40
0.7572466476
40
0.9076217859
40
1.0000000000
40
1.0000000000
40
1.0000000000
40
1.0000000000
10
336.2087922750
20
249.1780080103
30
0.0000000000
10
335.9991153092
20
249.1780080103
30
0.0000000000
10
335.5781918058
20
249.2254745823
30
0.0000000000
10
334.9794527661
20
249.4317318867
30
0.0000000000
10
334.4378975713
20
249.7576458874
30
0.0000000000
10
333.9739991563
20
250.1831835305
30
0.0000000000
10
333.6009934008
20
250.6878577557
30
0.0000000000
10
333.3634946783
20
251.1793223250
30
0.0000000000
10
333.2636306003
20
251.5000666511
30
0.0000000000
10
333.2326199798
20
251.6239024711
30
0.0000000000
11
336.2087922750
21
249.1780080103
31
0.0000000000
11
335.5836661131
21
249.2479876605
31
0.0000000000
11
334.9882411868
21
249.4520340693
31
0.0000000000
11
334.4501357920
21
249.7747819726
31
0.0000000000
11
333.9883564940
21
250.1972451377
31
0.0000000000
11
333.6175257011
21
250.6980641155
31
0.0000000000
11
333.3464034707
21
251.2584698869
31
0.0000000000
11
333.2326199798
21
251.6239024711
31
0.0000000000
0
SPLINE
5
43C
100
AcDbEntity
8
0
100
AcDbSpline
62
7
6
CONTINUOUS
70
0
71
3
72
15
73
11
74
9
42
0.0000001000
43
0.0000001000
44
0.0000000001
40
0.0000000000
40
0.0000000000
40
0.0000000000
40
0.0000000000
40
0.2171034612
40
0.4178139495
40
0.5957851185
40
0.7448695462
40
0.8643336933
40
0.9512606481
40
0.9964654802
40
1.0000000000
40
1.0000000000
40
1.0000000000
40
1.0000000000
10
316.5061284496
20
274.8724947466
30
0.0000000000
10
316.5061284496
20
274.4513484696
30
0.0000000000
10
316.5096550474
20
273.6402799472
30
0.0000000000
10
316.5269453302
20
272.4869651745
30
0.0000000000
10
316.5540407909
20
271.4564930187
30
0.0000000000
10
316.5940613687
20
270.6113130934
30
0.0000000000
10
316.6345098915
20
269.8694159735
30
0.0000000000
10
316.7009438059
20
269.5052509889
30
0.0000000000
10
316.7335203977
20
269.0688466065
30
0.0000000000
10
316.7947401773
20
269.0944351752
30
0.0000000000
10
316.7993653444
20
269.0970947458
30
0.0000000000
11
316.5061284496
21
274.8724947466
31
0.0000000000
11
316.5121151058
21
273.6090700992
31
0.0000000000
11
316.5299795648
21
272.4411671905
31
0.0000000000
11
316.5592318281
21
271.4058728575
31
0.0000000000
11
316.5987156896
21
270.5391713397
31
0.0000000000
11
316.6486026957
21
269.8457390260
31
0.0000000000
11
316.7105922013
21
269.3436779636
31
0.0000000000
11
316.7861214115
21
269.0916829541
31
0.0000000000
11
316.7993653444
21
269.0970947458
31
0.0000000000
0
SPLINE
5
43D
100
AcDbEntity
8
0
100
AcDbSpline
62
7
6
CONTINUOUS
70
0
71
3
72
17
73
13
74
11
42
0.0000001000
43
0.0000001000
44
0.0000000001
40
0.0000000000
40
0.0000000000
40
0.0000000000
40
0.0000000000
40
0.0105082060
40
0.0618003030
40
0.1462236582
40
0.2488041405
40
0.3618053735
40
0.4810075518
40
0.6064109624
40
0.7377469398
40
0.8703167968
40
1.0000000000
40
1.0000000000
40
1.0000000000
40
1.0000000000
10
382.7993653444
20
285.0580924404
30
0.0000000000
10
382.8235329280
20
285.0441955599
30
0.0000000000
10
382.9954654881
20
284.8333781081
30
0.0000000000
10
382.9433422539
20
284.3498998961
30
0.0000000000
10
383.0948397020
20
283.5356409513
30
0.0000000000
10
383.1388709821
20
282.5172859575
30
0.0000000000
10
383.2075351499
20
281.3767801754
30
0.0000000000
10
383.2543158804
20
280.1587318523
30
0.0000000000
10
383.2941807789
20
278.8775329962
30
0.0000000000
10
383.3227369500
20
277.5505452704
30
0.0000000000
10
383.3404986032
20
276.2087528265
30
0.0000000000
10
383.3446529181
20
275.3146324964
30
0.0000000000
10
383.3446529181
20
274.8724947466
30
0.0000000000
11
382.7993653444
21
285.0580924404
31
0.0000000000
11
382.8763941839
21
284.9726902503
31
0.0000000000
11
382.9743866613
21
284.4573024850
31
0.0000000000
11
383.0646594970
21
283.5985433619
31
0.0000000000
11
383.1401887635
21
282.5520616554
31
0.0000000000
11
383.2021783339
21
281.3979368994
31
0.0000000000
11
383.2520654220
21
280.1797457139
31
0.0000000000
11
383.2915493777
21
278.8977144961
31
0.0000000000
11
383.3208017314
21
277.5547150412
31
0.0000000000
11
383.3386662462
21
276.1988944859
31
0.0000000000
11
383.3446529181
21
274.8724947466
31
0.0000000000
0
SPLINE
5
43E
100
AcDbEntity
8
0
100
AcDbSpline
62
7
6
CONTINUOUS
70
0
71
3
72
11
73
7
74
5
42
0.0000001000
43
0.0000001000
44
0.0000000001
40
0.0000000000
40
0.0000000000
40
0.0000000000
40
0.0000000000
40
0.1406629782
40
0.4310019281
40
0.7174589456
40
1.0000000000
40
1.0000000000
40
1.0000000000
40
1.0000000000
10
370.7331883550
20
171.1139747641
30
0.0000000000
10
370.8926342766
20
171.1409304684
30
0.0000000000
10
371.3753869660
20
171.2613449233
30
0.0000000000
10
372.1136199588
20
171.6512372345
30
0.0000000000
10
372.7985761875
20
172.3810552628
30
0.0000000000
10
373.0642308972
20
172.9918889820
30
0.0000000000
10
373.1396887347
20
173.3060714099
30
0.0000000000
11
370.7331883550
21
171.1139747641
31
0.0000000000
11
371.2035564080
21
171.2316499499
31
0.0000000000
11
372.0837258692
21
171.6980450318
31
0.0000000000
11
372.7540788812
21
172.4167203037
31
0.0000000000
11
373.1396887347
21
173.3060714099
31
0.0000000000
0
SPLINE
5
43F
100
AcDbEntity
8
0
100
AcDbSpline
62
7
6
CONTINUOUS
70
0
71
3
72
11
73
7
74
5
42
0.0000001000
43
0.0000001000
44
0.0000000001
40
0.0000000000
40
0.0000000000
40
0.0000000000
40
0.0000000000
40
0.1406629782
40
0.4310019281
40
0.7174589456
40
1.0000000000
40
1.0000000000
40
1.0000000000
40
1.0000000000
10
329.1175930127
20
171.1139747641
30
0.0000000000
10
328.9581470911
20
171.1409304684
30
0.0000000000
10
328.4753944017
20
171.2613449233
30
0.0000000000
10
327.7371614089
20
171.6512372345
30
0.0000000000
10
327.0522051802
20
172.3810552628
30
0.0000000000
10
326.7865504705
20
172.9918889820
30
0.0000000000
10
326.7110926331
20
173.3060714099
30
0.0000000000
11
329.1175930127
21
171.1139747641
31
0.0000000000
11
328.6472249597
21
171.2316499499
31
0.0000000000
11
327.7670554985
21
171.6980450318
31
0.0000000000
11
327.0967024865
21
172.4167203037
31
0.0000000000
11
326.7110926331
21
173.3060714099
31
0.0000000000
0
SPLINE
5
440
100
AcDbEntity
8
0
100
AcDbSpline
62
7
6
CONTINUOUS
70
0
71
3
72
15
73
11
74
9
42
0.0000001000
43
0.0000001000
44
0.0000000001
40
0.0000000000
40
0.0000000000
40
0.0000000000
40
0.0000000000
40
0.2171034612
40
0.4178139495
40
0.5957851185
40
0.7448695462
40
0.8643336933
40
0.9512606481
40
0.9964654802
40
1.0000000000
40
1.0000000000
40
1.0000000000
40
1.0000000000
10
383.3446529181
20
274.8724947466
30
0.0000000000
10
383.3446529181
20
274.4513484696
30
0.0000000000
10
383.3411263203
20
273.6402799472
30
0.0000000000
10
383.3238360375
20
272.4869651745
30
0.0000000000
10
383.2967405769
20
271.4564930187
30
0.0000000000
10
383.2567199990
20
270.6113130934
30
0.0000000000
10
383.2162714763
20
269.8694159735
30
0.0000000000
10
383.1498375619
20
269.5052509889
30
0.0000000000
10
383.1172609700
20
269.0688466065
30
0.0000000000
10
383.0560411904
20
269.0944351752
30
0.0000000000
10
383.0514160234
20
269.0970947458
30
0.0000000000
11
383.3446529181
21
274.8724947466
31
0.0000000000
11
383.3386662619
21
273.6090700992
31
0.0000000000
11
383.3208018029
21
272.4411671905
31
0.0000000000
11
383.2915495397
21
271.4058728575
31
0.0000000000
11
383.2520656781
21
270.5391713397
31
0.0000000000
11
383.2021786720
21
269.8457390260
31
0.0000000000
11
383.1401891665
21
269.3436779636
31
0.0000000000
11
383.0646599562
21
269.0916829541
31
0.0000000000
11
383.0514160234
21
269.0970947458
31
0.0000000000
0
SPLINE
5
441
100
AcDbEntity
8
0
100
AcDbSpline
62
7
6
CONTINUOUS
70
0
71
3
72
19
73
15
74
13
42
0.0000001000
43
0.0000001000
44
0.0000000001
40
0.0000000000
40
0.0000000000
40
0.0000000000
40
0.0000000000
40
0.0822996433
40
0.1650336315
40
0.2486160067
40
0.3328687180
40
0.4179409979
40
0.5032033793
40
0.5881009047
40
0.6723262067
40
0.7552290801
40
0.8373136469
40
0.9187251247
40
1.0000000000
40
1.0000000000
40
1.0000000000
40
1.0000000000
10
370.1168249114
20
175.8277375457
30
0.0000000000
10
370.1742910103
20
175.7036665648
30
0.0000000000
10
370.3142239568
20
175.4654202498
30
0.0000000000
10
370.5925879107
20
175.1564612297
30
0.0000000000
10
370.9323485952
20
174.9103268590
30
0.0000000000
10
371.3211299756
20
174.7420812772
30
0.0000000000
10
371.7404597642
20
174.6637808279
30
0.0000000000
10
372.1677177620
20
174.6810991250
30
0.0000000000
10
372.5792050380
20
174.7913308640
30
0.0000000000
10
372.9542098710
20
174.9844052396
30
0.0000000000
10
373.2784173370
20
175.2462986979
30
0.0000000000
10
373.5426883036
20
175.5622257477
30
0.0000000000
10
373.7420157727
20
175.9192192102
30
0.0000000000
10
373.8291870969
20
176.1769232229
30
0.0000000000
10
373.8607209496
20
176.3082201526
30
0.0000000000
11
370.1168249114
21
175.8277375457
31
0.0000000000
11
370.3250086474
21
175.4742928125
31
0.0000000000
11
370.6013632502
21
175.1682331370
31
0.0000000000
11
370.9389857952
21
174.9241825399
31
0.0000000000
11
371.3244751782
21
174.7576216347
31
0.0000000000
11
371.7412896593
21
174.6797900240
31
0.0000000000
11
372.1659180420
21
174.6967378362
31
0.0000000000
11
372.5747686376
21
174.8058037199
31
0.0000000000
11
372.9482386830
21
174.9975066299
31
0.0000000000
11
373.2699676977
21
175.2567936631
31
0.0000000000
11
373.5327698795
21
175.5703544248
31
0.0000000000
11
373.7307801934
21
175.9245343326
31
0.0000000000
11
373.8607209496
21
176.3082201526
31
0.0000000000
0
SPLINE
5
442
100
AcDbEntity
8
0
100
AcDbSpline
62
7
6
CONTINUOUS
70
0
71
3
72
14
73
10
74
8
42
0.0000001000
43
0.0000001000
44
0.0000000001
40
0.0000000000
40
0.0000000000
40
0.0000000000
40
0.0000000000
40
0.1519418759
40
0.3039770184
40
0.4555428279
40
0.6067215756
40
0.7572466476
40
0.9076217859
40
1.0000000000
40
1.0000000000
40
1.0000000000
40
1.0000000000
10
363.6419890927
20
249.1780080103
30
0.0000000000
10
363.8516660585
20
249.1780080103
30
0.0000000000
10
364.2725895620
20
249.2254745823
30
0.0000000000
10
364.8713286017
20
249.4317318867
30
0.0000000000
10
365.4128837964
20
249.7576458874
30
0.0000000000
10
365.8767822114
20
250.1831835305
30
0.0000000000
10
366.2497879669
20
250.6878577557
30
0.0000000000
10
366.4872866894
20
251.1793223250
30
0.0000000000
10
366.5871507674
20
251.5000666511
30
0.0000000000
10
366.6181613879
20
251.6239024711
30
0.0000000000
11
363.6419890927
21
249.1780080103
31
0.0000000000
11
364.2671152546
21
249.2479876605
31
0.0000000000
11
364.8625401809
21
249.4520340693
31
0.0000000000
11
365.4006455757
21
249.7747819726
31
0.0000000000
11
365.8624248737
21
250.1972451377
31
0.0000000000
11
366.2332556666
21
250.6980641155
31
0.0000000000
11
366.5043778970
21
251.2584698869
31
0.0000000000
11
366.6181613879
21
251.6239024711
31
0.0000000000
0
SPLINE
5
443
100
AcDbEntity
8
0
100
AcDbSpline
62
7
6
CONTINUOUS
70
0
71
3
72
17
73
13
74
11
42
0.0000001000
43
0.0000001000
44
0.0000000001
40
0.0000000000
40
0.0000000000
40
0.0000000000
40
0.0000000000
40
0.0105082060
40
0.0618003030
40
0.1462236582
40
0.2488041405
40
0.3618053735
40
0.4810075518
40
0.6064109624
40
0.7377469398
40
0.8703167968
40
1.0000000000
40
1.0000000000
40
1.0000000000
40
1.0000000000
10
317.0514160234
20
285.0580924404
30
0.0000000000
10
317.0272484397
20
285.0441955599
30
0.0000000000
10
316.8553158796
20
284.8333781081
30
0.0000000000
10
316.9074391138
20
284.3498998961
30
0.0000000000
10
316.7559416657
20
283.5356409513
30
0.0000000000
10
316.7119103856
20
282.5172859575
30
0.0000000000
10
316.6432462178
20
281.3767801754
30
0.0000000000
10
316.5964654873
20
280.1587318523
30
0.0000000000
10
316.5566005888
20
278.8775329962
30
0.0000000000
10
316.5280444177
20
277.5505452704
30
0.0000000000
10
316.5102827645
20
276.2087528265
30
0.0000000000
10
316.5061284496
20
275.3146324964
30
0.0000000000
10
316.5061284496
20
274.8724947466
30
0.0000000000
11
317.0514160234
21
285.0580924404
31
0.0000000000
11
316.9743871838
21
284.9726902503
31
0.0000000000
11
316.8763947064
21
284.4573024850
31
0.0000000000
11
316.7861218707
21
283.5985433619
31
0.0000000000
11
316.7105926042
21
282.5520616554
31
0.0000000000
11
316.6486030338
21
281.3979368994
31
0.0000000000
11
316.5987159457
21
280.1797457139
31
0.0000000000
11
316.5592319900
21
278.8977144961
31
0.0000000000
11
316.5299796363
21
277.5547150412
31
0.0000000000
11
316.5121151215
21
276.1988944859
31
0.0000000000
11
316.5061284496
21
274.8724947466
31
0.0000000000
0
SPLINE
5
444
100
AcDbEntity
8
0
100
AcDbSpline
62
7
6
CONTINUOUS
70
0
71
3
72
15
73
11
74
9
42
0.0000001000
43
0.0000001000
44
0.0000000001
40
0.0000000000
40
0.0000000000
40
0.0000000000
40
0.0000000000
40
0.0193077865
40
0.0760825953
40
0.1682920704
40
0.2923838252
40
0.4437794868
40
0.6167946005
40
0.8047134269
40
1.0000000000
40
1.0000000000
40
1.0000000000
40
1.0000000000
10
322.5586389496
20
326.9365513736
30
0.0000000000
10
322.5679538293
20
326.9334837285
30
0.0000000000
10
322.5708005092
20
326.7364614560
30
0.0000000000
10
322.5286162335
20
326.5214023593
30
0.0000000000
10
322.4668627057
20
326.0316421999
30
0.0000000000
10
322.3728031866
20
325.4363767987
30
0.0000000000
10
322.2660963295
20
324.6855817892
30
0.0000000000
10
322.1559781269
20
323.8342369143
30
0.0000000000
10
322.0567779115
20
322.9050430571
30
0.0000000000
10
322.0056526332
20
322.2637324655
30
0.0000000000
10
321.9847309705
20
321.9365342610
30
0.0000000000
11
322.5586389496
21
326.9365513736
31
0.0000000000
11
322.5679871334
21
326.8399125056
31
0.0000000000
11
322.5380288482
21
326.5555286351
31
0.0000000000
11
322.4729064047
21
326.0956858778
31
0.0000000000
11
322.3807876625
21
325.4774991834
31
0.0000000000
11
322.2728637263
21
324.7226412165
31
0.0000000000
11
322.1622160285
21
323.8582697766
31
0.0000000000
11
322.0622325496
21
322.9170754046
31
0.0000000000
11
321.9847309705
21
321.9365342610
31
0.0000000000
0
SPLINE
5
445
100
AcDbEntity
8
0
100
AcDbSpline
62
7
6
CONTINUOUS
70
0
71
3
72
24
73
20
74
18
42
0.0000001000
43
0.0000001000
44
0.0000000001
40
0.0000000000
40
0.0000000000
40
0.0000000000
40
0.0000000000
40
0.0300574815
40
0.1183484174
40
0.2043806292
40
0.2878172567
40
0.3682539382
40
0.4454853802
40
0.5193474874
40
0.5895077913
40
0.6555009694
40
0.7169077074
40
0.7734860197
40
0.8256183880
40
0.8729767134
40
0.9140754657
40
0.9501669610
40
0.9869390826
40
1.0000000000
40
1.0000000000
40
1.0000000000
40
1.0000000000
10
313.9253910708
20
292.8483000522
30
0.0000000000
10
313.9254012889
20
292.7964027167
30
0.0000000000
10
313.9269679475
20
292.5920605308
30
0.0000000000
10
313.9396237060
20
292.2393620776
30
0.0000000000
10
313.9717722424
20
291.7954446156
30
0.0000000000
10
314.0161449491
20
291.3662415910
30
0.0000000000
10
314.0694293717
20
290.9533885843
30
0.0000000000
10
314.1286041597
20
290.5580599586
30
0.0000000000
10
314.1909160481
20
290.1811952649
30
0.0000000000
10
314.2537526466
20
289.8241089090
30
0.0000000000
10
314.3145866709
20
289.4885114556
30
0.0000000000
10
314.3710705442
20
289.1759550255
30
0.0000000000
10
314.4212486533
20
288.8865789203
30
0.0000000000
10
314.4632542806
20
288.6204185219
30
0.0000000000
10
314.4947246962
20
288.3797130366
30
0.0000000000
10
314.5135130894
20
288.1654091902
30
0.0000000000
10
314.5176113173
20
287.9685250330
30
0.0000000000
10
314.5092046174
20
287.8203064953
30
0.0000000000
10
314.5012457310
20
287.7346313408
30
0.0000000000
10
314.4989773233
20
287.7121953218
30
0.0000000000
11
313.9253910708
21
292.8483000522
31
0.0000000000
11
313.9265687234
21
292.6926143348
31
0.0000000000
11
313.9425718450
21
292.2356198391
31
0.0000000000
11
313.9744035396
21
291.7911820392
31
0.0000000000
11
314.0185231687
21
291.3613069106
31
0.0000000000
11
314.0715567614
21
290.9481003292
31
0.0000000000
11
314.1304936500
21
290.5524706443
31
0.0000000000
11
314.1926241062
21
290.1750046569
31
0.0000000000
11
314.2553149564
21
289.8170805621
31
0.0000000000
11
314.3159677610
21
289.4807146957
31
0.0000000000
11
314.3721677486
21
289.1676830828
31
0.0000000000
11
314.4217999194
21
288.8788876843
31
0.0000000000
11
314.4633017023
21
288.6120934451
31
0.0000000000
11
314.4942751230
21
288.3687796833
31
0.0000000000
11
314.5117543603
21
288.1566407503
31
0.0000000000
11
314.5151948848
21
287.9697480818
31
0.0000000000
11
314.5052058743
21
287.7795608016
31
0.0000000000
11
314.4989773233
21
287.7121953218
31
0.0000000000
0
SPLINE
5
446
100
AcDbEntity
8
0
100
AcDbSpline
62
7
6
CONTINUOUS
70
0
71
3
72
14
73
10
74
8
42
0.0000001000
43
0.0000001000
44
0.0000000001
40
0.0000000000
40
0.0000000000
40
0.0000000000
40
0.0000000000
40
0.0854739664
40
0.2207604325
40
0.3666017603
40
0.5220795272
40
0.6870161549
40
0.8615545486
40
1.0000000000
40
1.0000000000
40
1.0000000000
40
1.0000000000
10
314.4986640473
20
287.7084526916
30
0.0000000000
10
314.4829544095
20
287.5533324942
30
0.0000000000
10
314.4352425056
20
287.1533707442
30
0.0000000000
10
314.3415967965
20
286.4912807190
30
0.0000000000
10
314.2260532661
20
285.7033091903
30
0.0000000000
10
314.1107281905
20
284.8606655316
30
0.0000000000
10
314.0084273989
20
283.9635233890
30
0.0000000000
10
313.9415555168
20
283.0941075350
30
0.0000000000
10
313.9254377300
20
282.5230296312
30
0.0000000000
10
313.9253822361
20
282.2704685785
30
0.0000000000
11
314.4986640473
21
287.7084526916
31
0.0000000000
11
314.4447070844
21
287.2438078138
31
0.0000000000
11
314.3436941395
21
286.5104245345
31
0.0000000000
11
314.2298244695
21
285.7205250318
31
0.0000000000
11
314.1161349475
21
284.8773583941
31
0.0000000000
11
314.0157622623
21
283.9803998337
31
0.0000000000
11
313.9451120087
21
283.0279171115
31
0.0000000000
11
313.9253822361
21
282.2704685785
31
0.0000000000
0
SPLINE
5
447
100
AcDbEntity
8
0
100
AcDbSpline
62
7
6
CONTINUOUS
70
0
71
3
72
11
73
7
74
5
42
0.0000001000
43
0.0000001000
44
0.0000000001
40
0.0000000000
40
0.0000000000
40
0.0000000000
40
0.0000000000
40
0.1398304243
40
0.4376905183
40
0.7382998699
40
1.0000000000
40
1.0000000000
40
1.0000000000
40
1.0000000000
10
313.9341759063
20
292.4197072695
30
0.0000000000
10
313.9388258501
20
291.9586743551
30
0.0000000000
10
313.9573159198
20
290.5155879536
30
0.0000000000
10
313.9844896529
20
288.0813127291
30
0.0000000000
10
313.9601056949
20
285.2451592588
30
0.0000000000
10
313.9252484653
20
283.3912223502
30
0.0000000000
10
313.9253041667
20
282.5283573566
30
0.0000000000
11
313.9341759063
21
292.4197072695
31
0.0000000000
11
313.9503970540
21
291.0366153057
31
0.0000000000
11
313.9747297002
21
288.0903675433
31
0.0000000000
11
313.9535963340
21
285.1168995188
31
0.0000000000
11
313.9253041667
21
282.5283573566
31
0.0000000000
0
SPLINE
5
448
100
AcDbEntity
8
0
100
AcDbSpline
62
7
6
CONTINUOUS
70
0
71
3
72
17
73
13
74
11
42
0.0000001000
43
0.0000001000
44
0.0000000001
40
0.0000000000
40
0.0000000000
40
0.0000000000
40
0.0000000000
40
0.0961763991
40
0.2000396370
40
0.3039695457
40
0.4079852820
40
0.5120734838
40
0.6162205595
40
0.7204211286
40
0.8246626004
40
0.9289316607
40
1.0000000000
40
1.0000000000
40
1.0000000000
40
1.0000000000
10
349.9253906839
20
349.7974354814
30
0.0000000000
10
348.6830729111
20
349.7973811339
30
0.0000000000
10
346.0959043652
20
349.6247549553
30
0.0000000000
10
342.2402112034
20
348.8212619124
30
0.0000000000
10
338.4435069319
20
347.4377042857
30
0.0000000000
10
334.8825265754
20
345.5218286912
30
0.0000000000
10
331.6314139033
20
343.1125410444
30
0.0000000000
10
328.7585085794
20
340.2594613567
30
0.0000000000
10
326.3240647514
20
337.0216713687
30
0.0000000000
10
324.3790307790
20
333.4665456928
30
0.0000000000
10
323.1142453313
20
330.0712445388
30
0.0000000000
10
322.5845823985
20
327.8651843757
30
0.0000000000
10
322.4141049657
20
326.9625226035
30
0.0000000000
11
349.9253906839
21
349.7974354814
31
0.0000000000
11
346.2068253483
21
349.5490632919
31
0.0000000000
11
342.2674343190
21
348.7283097961
31
0.0000000000
11
338.4842483770
21
347.3496376276
31
0.0000000000
11
334.9353591405
21
345.4403425862
31
0.0000000000
11
331.6953295649
21
343.0393289021
31
0.0000000000
11
328.8322587687
21
340.1961113493
31
0.0000000000
11
326.4060653248
21
336.9694451033
31
0.0000000000
11
324.4675880776
21
333.4264388716
31
0.0000000000
11
323.0572489159
21
329.6409183902
31
0.0000000000
11
322.4141049657
21
326.9625226035
31
0.0000000000
0
SPLINE
5
449
100
AcDbEntity
8
0
100
AcDbSpline
62
7
6
CONTINUOUS
70
0
71
3
72
18
73
14
74
12
42
0.0000001000
43
0.0000001000
44
0.0000000001
40
0.0000000000
40
0.0000000000
40
0.0000000000
40
0.0000000000
40
0.0700271565
40
0.1429294823
40
0.2194814147
40
0.3005797376
40
0.3871172684
40
0.4799867729
40
0.5800791645
40
0.6882813649
40
0.8054736350
40
0.9325182548
40
1.0000000000
40
1.0000000000
40
1.0000000000
40
1.0000000000
10
370.0128031197
20
68.7362500930
30
0.0000000000
10
370.0440869781
20
68.7546658210
30
0.0000000000
10
370.1077688603
20
68.7925435122
30
0.0000000000
10
370.2050152263
20
68.8516112194
30
0.0000000000
10
370.3065617487
20
68.9146445419
30
0.0000000000
10
370.4134268495
20
68.9825004567
30
0.0000000000
10
370.5266407680
20
69.0561243907
30
0.0000000000
10
370.6471836592
20
69.1365228361
30
0.0000000000
10
370.7759775368
20
69.2247704017
30
0.0000000000
10
370.9138738420
20
69.3220155438
30
0.0000000000
10
371.0616355506
20
69.4294836451
30
0.0000000000
10
371.1908048563
20
69.5265925454
30
0.0000000000
10
371.2706400146
20
69.5882028872
30
0.0000000000
10
371.2982410720
20
69.6096964095
30
0.0000000000
11
370.0128031197
21
68.7362500930
31
0.0000000000
11
370.1064029474
21
68.7919227237
31
0.0000000000
11
370.2033048379
21
68.8507811214
31
0.0000000000
11
370.3044547138
21
68.9135681995
31
0.0000000000
11
370.4109271344
21
68.9811747774
31
0.0000000000
11
370.5237506821
21
69.0545448905
31
0.0000000000
11
370.6439064096
21
69.1346851813
31
0.0000000000
11
370.7723173509
21
69.2226704570
31
0.0000000000
11
370.9098361769
21
69.3196494877
31
0.0000000000
11
371.0572306779
21
69.4268505723
31
0.0000000000
11
371.2151569956
21
69.5455788348
31
0.0000000000
11
371.2982410720
21
69.6096964095
31
0.0000000000
0
SPLINE
5
44A
100
AcDbEntity
8
0
100
AcDbSpline
62
7
6
CONTINUOUS
70
0
71
3
72
8
73
4
74
2
42
0.0000001000
43
0.0000001000
44
0.0000000001
40
0.0000000000
40
0.0000000000
40
0.0000000000
40
0.0000000000
40
1.0000000000
40
1.0000000000
40
1.0000000000
40
1.0000000000
10
330.7394758232
20
115.9143383635
30
0.0000000000
10
330.7319916416
20
115.8464460923
30
0.0000000000
10
330.7245022535
20
115.7785543930
30
0.0000000000
10
330.7170075848
20
115.7106632750
30
0.0000000000
11
330.7394758232
21
115.9143383635
31
0.0000000000
11
330.7170075848
21
115.7106632750
31
0.0000000000
0
SPLINE
5
44B
100
AcDbEntity
8
0
100
AcDbSpline
62
7
6
CONTINUOUS
70
0
71
3
72
24
73
20
74
18
42
0.0000001000
43
0.0000001000
44
0.0000000001
40
0.0000000000
40
0.0000000000
40
0.0000000000
40
0.0000000000
40
0.0907047319
40
0.1930588993
40
0.2898554540
40
0.3809633431
40
0.4662833581
40
0.5457377607
40
0.6192618457
40
0.6867899551
40
0.7482816683
40
0.8036773941
40
0.8529158799
40
0.8958644564
40
0.9323109212
40
0.9619096809
40
0.9841071722
40
0.9979872451
40
1.0000000000
40
1.0000000000
40
1.0000000000
40
1.0000000000
10
330.7170075848
20
115.7106632750
30
0.0000000000
10
330.6172778784
20
114.8072529298
30
0.0000000000
10
330.4030197777
20
112.8846240373
30
0.0000000000
10
330.0737912225
20
109.9988697321
30
0.0000000000
10
329.7339116945
20
107.1102802686
30
0.0000000000
10
329.4027332756
20
104.3925555108
30
0.0000000000
10
329.0802284531
20
101.8488615431
30
0.0000000000
10
328.7664638750
20
99.4817053996
30
0.0000000000
10
328.4616596162
20
97.2932375457
30
0.0000000000
10
328.1662255168
20
95.2852853646
30
0.0000000000
10
327.8807685544
20
93.4594337869
30
0.0000000000
10
327.6063669309
20
91.8177905435
30
0.0000000000
10
327.3439780196
20
90.3615178485
30
0.0000000000
10
327.0977201179
20
89.0988424606
30
0.0000000000
10
326.8661779070
20
88.0238026418
30
0.0000000000
10
326.6702500490
20
87.1823752047
30
0.0000000000
10
326.4825174708
20
86.5002804773
30
0.0000000000
10
326.4055432648
20
86.2134847461
30
0.0000000000
10
326.3298711554
20
86.0016701950
30
0.0000000000
10
326.3219968955
20
85.9794086511
30
0.0000000000
11
330.7170075848
21
115.7106632750
31
0.0000000000
11
330.4148391092
21
113.0007629024
31
0.0000000000
11
330.0656313340
21
109.9437526395
31
0.0000000000
11
329.7251982953
21
107.0539133157
31
0.0000000000
11
329.3934475158
21
104.3352658294
31
0.0000000000
11
329.0703473637
21
101.7908747013
31
0.0000000000
11
328.7559482162
21
99.4231612762
31
0.0000000000
11
328.4504462328
21
97.2341531360
31
0.0000000000
11
328.1542651203
21
95.2258991082
31
0.0000000000
11
327.8679725074
21
93.3996879549
31
0.0000000000
11
327.5924971571
21
91.7573682095
31
0.0000000000
11
327.3292051908
21
90.3008047287
31
0.0000000000
11
327.0803947014
21
89.0339196740
31
0.0000000000
11
326.8497007428
21
87.9628572575
31
0.0000000000
11
326.6430235368
21
87.0974188306
31
0.0000000000
11
326.4701822796
21
86.4529086805
31
0.0000000000
11
326.3483396297
21
86.0538428791
31
0.0000000000
11
326.3219968955
21
85.9794086511
31
0.0000000000
0
SPLINE
5
44C
100
AcDbEntity
8
0
100
AcDbSpline
62
7
6
CONTINUOUS
70
0
71
3
72
8
73
4
74
2
42
0.0000001000
43
0.0000001000
44
0.0000000001
40
0.0000000000
40
0.0000000000
40
0.0000000000
40
0.0000000000
40
1.0000000000
40
1.0000000000
40
1.0000000000
40
1.0000000000
10
331.1747025596
20
120.3395309286
30
0.0000000000
10
331.1618645385
20
120.1839337162
30
0.0000000000
10
331.1486945950
20
120.0283634554
30
0.0000000000
10
331.1352184147
20
119.8728193811
30
0.0000000000
11
331.1747025596
21
120.3395309286
31
0.0000000000
11
331.1352184147
21
119.8728193811
31
0.0000000000
0
SPLINE
5
44D
100
AcDbEntity
8
0
100
AcDbSpline
62
7
6
CONTINUOUS
70
0
71
3
72
10
73
6
74
4
42
0.0000001000
43
0.0000001000
44
0.0000000001
40
0.0000000000
40
0.0000000000
40
0.0000000000
40
0.0000000000
40
0.1999942573
40
0.6245910434
40
1.0000000000
40
1.0000000000
40
1.0000000000
40
1.0000000000
10
331.1352184147
20
119.8728193811
30
0.0000000000
10
331.1123272081
20
119.6086056755
30
0.0000000000
10
331.0380773848
20
118.7836903833
30
0.0000000000
10
330.9073675668
20
117.4640830515
30
0.0000000000
10
330.7940711385
20
116.4092974664
30
0.0000000000
10
330.7394764049
20
115.9144903631
30
0.0000000000
11
331.1352184147
21
119.8728193811
31
0.0000000000
11
331.0640198520
21
119.0804011883
31
0.0000000000
11
330.8984797180
21
117.3994301632
31
0.0000000000
11
330.7394764049
21
115.9144903631
31
0.0000000000
0
SPLINE
5
44E
100
AcDbEntity
8
0
100
AcDbSpline
62
7
6
CONTINUOUS
70
0
71
3
72
8
73
4
74
2
42
0.0000001000
43
0.0000001000
44
0.0000000001
40
0.0000000000
40
0.0000000000
40
0.0000000000
40
0.0000000000
40
1.0000000000
40
1.0000000000
40
1.0000000000
40
1.0000000000
10
331.4832265412
20
125.2220782274
30
0.0000000000
10
331.4752288402
20
125.0371077376
30
0.0000000000
10
331.4668141059
20
124.8521544486
30
0.0000000000
10
331.4579792932
20
124.6672208422
30
0.0000000000
11
331.4832265412
21
125.2220782274
31
0.0000000000
11
331.4579792932
21
124.6672208422
31
0.0000000000
0
SPLINE
5
44F
100
AcDbEntity
8
0
100
AcDbSpline
62
7
6
CONTINUOUS
70
0
71
3
72
8
73
4
74
2
42
0.0000001000
43
0.0000001000
44
0.0000000001
40
0.0000000000
40
0.0000000000
40
0.0000000000
40
0.0000000000
40
1.0000000000
40
1.0000000000
40
1.0000000000
40
1.0000000000
10
331.4579792932
20
124.6672208422
30
0.0000000000
10
331.4557994741
20
124.6215920527
30
0.0000000000
10
331.4535940824
20
124.5759644613
30
0.0000000000
10
331.4513630721
20
124.5303381055
30
0.0000000000
11
331.4579792932
21
124.6672208422
31
0.0000000000
11
331.4513630721
21
124.5303381055
31
0.0000000000
0
SPLINE
5
450
100
AcDbEntity
8
0
100
AcDbSpline
62
7
6
CONTINUOUS
70
0
71
3
72
10
73
6
74
4
42
0.0000001000
43
0.0000001000
44
0.0000000001
40
0.0000000000
40
0.0000000000
40
0.0000000000
40
0.0000000000
40
0.2240337534
40
0.6573074807
40
1.0000000000
40
1.0000000000
40
1.0000000000
40
1.0000000000
10
331.4513630721
20
124.5303381055
30
0.0000000000
10
331.4360439956
20
124.2170479082
30
0.0000000000
10
331.3875545367
20
123.2980359325
30
0.0000000000
10
331.2977726192
20
121.9008105857
30
0.0000000000
10
331.2141407912
20
120.8176068010
30
0.0000000000
10
331.1746946208
20
120.3394391434
30
0.0000000000
11
331.4513630721
21
124.5303381055
31
0.0000000000
11
331.4017674714
21
123.5906543304
31
0.0000000000
11
331.2852864328
21
121.7745587283
31
0.0000000000
11
331.1746946208
21
120.3394391434
31
0.0000000000
0
SPLINE
5
451
100
AcDbEntity
8
0
100
AcDbSpline
62
7
6
CONTINUOUS
70
0
71
3
72
8
73
4
74
2
42
0.0000001000
43
0.0000001000
44
0.0000000001
40
0.0000000000
40
0.0000000000
40
0.0000000000
40
0.0000000000
40
1.0000000000
40
1.0000000000
40
1.0000000000
40
1.0000000000
10
332.1781857778
20
141.8607787923
30
0.0000000000
10
332.1716707881
20
141.7179866529
30
0.0000000000
10
332.1651897055
20
141.5751929656
30
0.0000000000
10
332.1587409856
20
141.4323978088
30
0.0000000000
11
332.1781857778
21
141.8607787923
31
0.0000000000
11
332.1587409856
21
141.4323978088
31
0.0000000000
0
SPLINE
5
452
100
AcDbEntity
8
0
100
AcDbSpline
62
7
6
CONTINUOUS
70
0
71
3
72
10
73
6
74
4
42
0.0000001000
43
0.0000001000
44
0.0000000001
40
0.0000000000
40
0.0000000000
40
0.0000000000
40
0.0000000000
40
0.2935892608
40
0.6482853603
40
1.0000000000
40
1.0000000000
40
1.0000000000
40
1.0000000000
10
332.1587409856
20
141.4323978088
30
0.0000000000
10
332.0871094209
20
139.8462472771
30
0.0000000000
10
331.9377543601
20
136.3434089339
30
0.0000000000
10
331.7214844270
20
130.9396156273
30
0.0000000000
10
331.5653730879
20
127.1224419466
30
0.0000000000
10
331.4832284581
20
125.2221003331
30
0.0000000000
11
332.1587409856
21
141.4323978088
31
0.0000000000
11
331.9537091201
21
136.6735093699
31
0.0000000000
11
331.7199985883
21
130.9235356832
31
0.0000000000
11
331.4832284581
21
125.2221003331
31
0.0000000000
0
SPLINE
5
453
100
AcDbEntity
8
0
100
AcDbSpline
62
7
6
CONTINUOUS
70
0
71
3
72
10
73
6
74
4
42
0.0000001000
43
0.0000001000
44
0.0000000001
40
0.0000000000
40
0.0000000000
40
0.0000000000
40
0.0000000000
40
0.3041180005
40
0.6851272768
40
1.0000000000
40
1.0000000000
40
1.0000000000
40
1.0000000000
10
331.8866561747
20
144.8572367710
30
0.0000000000
10
331.9622445299
20
144.5604048135
30
0.0000000000
10
332.1023298056
20
143.8835599332
30
0.0000000000
10
332.1976282510
20
142.8790447344
30
0.0000000000
10
332.1926264414
20
142.1773524706
30
0.0000000000
10
332.1781720709
20
141.8605526860
30
0.0000000000
11
331.8866561747
21
144.8572367710
31
0.0000000000
11
332.0718712261
21
143.9572802439
31
0.0000000000
11
332.1825513029
21
142.8118096881
31
0.0000000000
11
332.1781720709
21
141.8605526860
31
0.0000000000
0
SPLINE
5
454
100
AcDbEntity
8
0
100
AcDbSpline
62
7
6
CONTINUOUS
70
0
71
3
72
8
73
4
74
2
42
0.0000001000
43
0.0000001000
44
0.0000000001
40
0.0000000000
40
0.0000000000
40
0.0000000000
40
0.0000000000
40
1.0000000000
40
1.0000000000
40
1.0000000000
40
1.0000000000
10
337.7149594720
20
189.5520782095
30
0.0000000000
10
337.7144237289
20
189.5509301820
30
0.0000000000
10
337.7137169715
20
189.5494138791
30
0.0000000000
10
337.7129930537
20
189.5478605307
30
0.0000000000
11
337.7149594720
21
189.5520782095
31
0.0000000000
11
337.7129930537
21
189.5478605307
31
0.0000000000
0
SPLINE
5
455
100
AcDbEntity
8
0
100
AcDbSpline
62
7
6
CONTINUOUS
70
0
71
3
72
14
73
10
74
8
42
0.0000001000
43
0.0000001000
44
0.0000000001
40
0.0000000000
40
0.0000000000
40
0.0000000000
40
0.0000000000
40
0.0384999601
40
0.2145105622
40
0.4455972414
40
0.5816105131
40
0.7311441397
40
0.8946373725
40
1.0000000000
40
1.0000000000
40
1.0000000000
40
1.0000000000
10
337.7129930537
20
189.5478605307
30
0.0000000000
10
337.7125626372
20
189.5469369634
30
0.0000000000
10
337.7101306818
20
189.5417181491
30
0.0000000000
10
337.7067729871
20
189.5345222433
30
0.0000000000
10
337.7017461288
20
189.5237401712
30
0.0000000000
10
337.6972286131
20
189.5140539843
30
0.0000000000
10
337.6932572704
20
189.5055363241
30
0.0000000000
10
337.6895682646
20
189.4976261053
30
0.0000000000
10
337.6871964274
20
189.4925391997
30
0.0000000000
10
337.6862668240
20
189.4905455492
30
0.0000000000
11
337.7129930537
21
189.5478605307
31
0.0000000000
11
337.7117159426
21
189.5451201603
31
0.0000000000
11
337.7070570782
21
189.5351298252
31
0.0000000000
11
337.7009405724
21
189.5220132964
31
0.0000000000
11
337.6973403627
21
189.5142932240
31
0.0000000000
11
337.6933826527
21
189.5058055644
31
0.0000000000
11
337.6890552399
21
189.4965256542
31
0.0000000000
11
337.6862668240
21
189.4905455492
31
0.0000000000
0
SPLINE
5
456
100
AcDbEntity
8
0
100
AcDbSpline
62
7
6
CONTINUOUS
70
0
71
3
72
8
73
4
74
2
42
0.0000001000
43
0.0000001000
44
0.0000000001
40
0.0000000000
40
0.0000000000
40
0.0000000000
40
0.0000000000
40
1.0000000000
40
1.0000000000
40
1.0000000000
40
1.0000000000
10
337.7146460307
20
189.5514042703
30
0.0000000000
10
337.7140853274
20
189.5502019291
30
0.0000000000
10
337.7135135645
20
189.5489756932
30
0.0000000000
10
337.7129935039
20
189.5478603208
30
0.0000000000
11
337.7146460307
21
189.5514042703
31
0.0000000000
11
337.7129935039
21
189.5478603208
31
0.0000000000
0
SPLINE
5
457
100
AcDbEntity
8
0
100
AcDbSpline
62
7
6
CONTINUOUS
70
0
71
3
72
9
73
5
74
3
42
0.0000001000
43
0.0000001000
44
0.0000000001
40
0.0000000000
40
0.0000000000
40
0.0000000000
40
0.0000000000
40
0.6356327167
40
1.0000000000
40
1.0000000000
40
1.0000000000
40
1.0000000000
10
337.6983565354
20
189.5164720924
30
0.0000000000
10
337.6967320399
20
189.5129888119
30
0.0000000000
10
337.6941515451
20
189.5074509815
30
0.0000000000
10
337.6915797719
20
189.5019358502
30
0.0000000000
10
337.6906431420
20
189.4999275080
30
0.0000000000
11
337.6983565354
21
189.5164720924
31
0.0000000000
11
337.6934550698
21
189.5059579306
31
0.0000000000
11
337.6906431420
21
189.4999275080
31
0.0000000000
0
SPLINE
5
458
100
AcDbEntity
8
0
100
AcDbSpline
62
7
6
CONTINUOUS
70
0
71
3
72
8
73
4
74
2
42
0.0000001000
43
0.0000001000
44
0.0000000001
40
0.0000000000
40
0.0000000000
40
0.0000000000
40
0.0000000000
40
1.0000000000
40
1.0000000000
40
1.0000000000
40
1.0000000000
10
337.7170995598
20
189.5566630789
30
0.0000000000
10
337.7165185352
20
189.5554190496
30
0.0000000000
10
337.7155982308
20
189.5534461156
30
0.0000000000
10
337.7146460307
20
189.5514042703
30
0.0000000000
11
337.7170995598
21
189.5566630789
31
0.0000000000
11
337.7146460307
21
189.5514042703
31
0.0000000000
0
SPLINE
5
459
100
AcDbEntity
8
0
100
AcDbSpline
62
7
6
CONTINUOUS
70
0
71
3
72
50
73
46
74
44
42
0.0000001000
43
0.0000001000
44
0.0000000001
40
0.0000000000
40
0.0000000000
40
0.0000000000
40
0.0000000000
40
0.0188527156
40
0.0463520001
40
0.0735499509
40
0.1004574915
40
0.1270855455
40
0.1534450367
40
0.1795468887
40
0.2054020257
40
0.2310213716
40
0.2564158507
40
0.2815963873
40
0.3065739058
40
0.3313593310
40
0.3559635874
40
0.3803976001
40
0.4046722940
40
0.4287985945
40
0.4527874270
40
0.4766497105
40
0.5003932166
40
0.5240175834
40
0.5475211548
40
0.5709022753
40
0.5941592907
40
0.6172905480
40
0.6402943954
40
0.6631691826
40
0.6859132606
40
0.7085249823
40
0.7310027022
40
0.7533447772
40
0.7755495664
40
0.7976154317
40
0.8195407380
40
0.8413238543
40
0.8629631540
40
0.8844570159
40
0.9058038256
40
0.9270019771
40
0.9480498751
40
0.9689459379
40
0.9896885215
40
1.0000000000
40
1.0000000000
40
1.0000000000
40
1.0000000000
10
338.9709564390
20
190.6308476762
30
0.0000000000
10
338.9629838574
20
190.6285302238
30
0.0000000000
10
338.9434176479
20
190.6227103909
30
0.0000000000
10
338.9125149269
20
190.6130012214
30
0.0000000000
10
338.8784281358
20
190.6016111234
30
0.0000000000
10
338.8449120506
20
190.5897418231
30
0.0000000000
10
338.8119569559
20
190.5774111810
30
0.0000000000
10
338.7795528374
20
190.5646358524
30
0.0000000000
10
338.7476894345
20
190.5514313146
30
0.0000000000
10
338.7163562903
20
190.5378118934
30
0.0000000000
10
338.6855427990
20
190.5237907904
30
0.0000000000
10
338.6552382512
20
190.5093801104
30
0.0000000000
10
338.6254318763
20
190.4945908884
30
0.0000000000
10
338.5961128837
20
190.4794331175
30
0.0000000000
10
338.5672705013
20
190.4639157759
30
0.0000000000
10
338.5388940127
20
190.4480468538
30
0.0000000000
10
338.5109727921
20
190.4318333807
30
0.0000000000
10
338.4834963386
20
190.4152814515
30
0.0000000000
10
338.4564543080
20
190.3983962533
30
0.0000000000
10
338.4298365465
20
190.3811820927
30
0.0000000000
10
338.4036342724
20
190.3636431928
30
0.0000000000
10
338.3778429821
20
190.3457858567
30
0.0000000000
10
338.3524626906
20
190.3276191691
30
0.0000000000
10
338.3274965700
20
190.3091545369
30
0.0000000000
10
338.3029479462
20
190.2904037287
30
0.0000000000
10
338.2788198311
20
190.2713785413
30
0.0000000000
10
338.2551149240
20
190.2520907908
30
0.0000000000
10
338.2318356134
20
190.2325523040
30
0.0000000000
10
338.2089839797
20
190.2127749102
30
0.0000000000
10
338.1865617969
20
190.1927704323
30
0.0000000000
10
338.1645705355
20
190.1725506791
30
0.0000000000
10
338.1430113656
20
190.1521274368
30
0.0000000000
10
338.1218851594
20
190.1315124613
30
0.0000000000
10
338.1011924949
20
190.1107174699
30
0.0000000000
10
338.0809336591
20
190.0897541338
30
0.0000000000
10
338.0611086519
20
190.0686340700
30
0.0000000000
10
338.0417171893
20
190.0473688340
30
0.0000000000
10
338.0227587076
20
190.0259699117
30
0.0000000000
10
338.0042323675
20
190.0044487119
30
0.0000000000
10
337.9861370574
20
189.9828165580
30
0.0000000000
10
337.9684713979
20
189.9610846800
30
0.0000000000
10
337.9512337450
20
189.9392642058
30
0.0000000000
10
337.9344222154
20
189.9173661792
30
0.0000000000
10
337.9207409186
20
189.8990287837
30
0.0000000000
10
337.9126756956
20
189.8879841875
30
0.0000000000
10
337.9100101654
20
189.8843077595
30
0.0000000000
11
338.9709564390
21
190.6308476762
31
0.0000000000
11
338.9470826058
21
190.6237465687
31
0.0000000000
11
338.9124222435
21
190.6128568051
31
0.0000000000
11
338.8783418486
21
190.6014688445
31
0.0000000000
11
338.8448320627
21
190.5896017752
31
0.0000000000
11
338.8118831729
21
190.5772734549
31
0.0000000000
11
338.7794851672
21
190.5645005364
31
0.0000000000
11
338.7476277873
21
190.5512984947
31
0.0000000000
11
338.7163005783
21
190.5376816535
31
0.0000000000
11
338.6854929367
21
190.5236632124
31
0.0000000000
11
338.6551941547
21
190.5092552743
31
0.0000000000
11
338.6253934638
21
190.4944688727
31
0.0000000000
11
338.5960800751
21
190.4793139991
31
0.0000000000
11
338.5672432181
21
190.4637996302
31
0.0000000000
11
338.5388721779
21
190.4479337551
31
0.0000000000
11
338.5109563302
21
190.4317234020
31
0.0000000000
11
338.4834851754
21
190.4151746649
31
0.0000000000
11
338.4564483707
21
190.3982927298
31
0.0000000000
11
338.4298357608
21
190.3810819009
31
0.0000000000
11
338.4036374158
21
190.3635456311
31
0.0000000000
11
338.3778470520
21
190.3456889365
31
0.0000000000
11
338.3524671975
21
190.3275225618
31
0.0000000000
11
338.3275014938
21
190.3090582379
31
0.0000000000
11
338.3029532671
21
190.2903077331
31
0.0000000000
11
338.2788255295
21
190.2712828434
31
0.0000000000
11
338.2551209805
21
190.2519953843
31
0.0000000000
11
338.2318420092
21
190.2324571823
31
0.0000000000
11
338.2089906960
21
190.2126800659
31
0.0000000000
11
338.1865688154
21
190.1926758577
31
0.0000000000
11
338.1645778384
21
190.1724563660
31
0.0000000000
11
338.1430189352
21
190.1520333766
31
0.0000000000
11
338.1218929788
21
190.1314186448
31
0.0000000000
11
338.1012005474
21
190.1106238878
31
0.0000000000
11
338.0809419287
21
190.0896607762
31
0.0000000000
11
338.0611171229
21
190.0685409271
31
0.0000000000
11
338.0417258467
21
190.0472758957
31
0.0000000000
11
338.0227675373
21
190.0258771678
31
0.0000000000
11
338.0042413557
21
190.0043561523
31
0.0000000000
11
337.9861461915
21
189.9827241729
31
0.0000000000
11
337.9684806661
21
189.9609924600
31
0.0000000000
11
337.9512431369
21
189.9391721422
31
0.0000000000
11
337.9344317002
21
189.9172742367
31
0.0000000000
11
337.9180442576
21
189.8953097243
31
0.0000000000
11
337.9100101654
21
189.8843077595
31
0.0000000000
0
SPLINE
5
45A
100
AcDbEntity
8
0
100
AcDbSpline
62
7
6
CONTINUOUS
70
0
71
3
72
26
73
22
74
20
42
0.0000001000
43
0.0000001000
44
0.0000000001
40
0.0000000000
40
0.0000000000
40
0.0000000000
40
0.0000000000
40
0.0334162064
40
0.0997806375
40
0.1654516762
40
0.2303471840
40
0.2943855136
40
0.3574856504
40
0.4195674127
40
0.4805517560
40
0.5403612616
40
0.5989209717
40
0.6561608044
40
0.7119864598
40
0.7662859153
40
0.8191138225
40
0.8717154045
40
0.9204331023
40
0.9625169869
40
0.9904570827
40
1.0000000000
40
1.0000000000
40
1.0000000000
40
1.0000000000
10
337.9100101654
20
189.8843077595
30
0.0000000000
10
337.9073559843
20
189.8806469846
30
0.0000000000
10
337.8994676821
20
189.8696890511
30
0.0000000000
10
337.8865721081
20
189.8513872807
30
0.0000000000
10
337.8715162645
20
189.8293996641
30
0.0000000000
10
337.8569274759
20
189.8074765457
30
0.0000000000
10
337.8428157252
20
189.7856565466
30
0.0000000000
10
337.8291893289
20
189.7639786809
30
0.0000000000
10
337.8160548683
20
189.7424820437
30
0.0000000000
10
337.8034174421
20
189.7212061747
30
0.0000000000
10
337.7912796841
20
189.7001887354
30
0.0000000000
10
337.7796450406
20
189.6794723933
30
0.0000000000
10
337.7685071752
20
189.6590809970
30
0.0000000000
10
337.7578958598
20
189.6391185471
30
0.0000000000
10
337.7477062334
20
189.6194030167
30
0.0000000000
10
337.7382028608
20
189.6005658019
30
0.0000000000
10
337.7282419096
20
189.5801490501
30
0.0000000000
10
337.7224664093
20
189.5682251211
30
0.0000000000
10
337.7083054403
20
189.5377308905
30
0.0000000000
10
337.7186281870
20
189.5599305984
30
0.0000000000
10
337.7175188160
20
189.5575609128
30
0.0000000000
10
337.7170181595
20
189.5564887779
30
0.0000000000
11
337.9100101654
21
189.8843077595
31
0.0000000000
11
337.9020849273
21
189.8732985163
31
0.0000000000
11
337.8865677399
21
189.8512760767
31
0.0000000000
11
337.8715060628
21
189.8292799410
31
0.0000000000
11
337.8569115749
21
189.8073482577
31
0.0000000000
11
337.8427942703
21
189.7855196725
31
0.0000000000
11
337.8291624651
21
189.7638331978
31
0.0000000000
11
337.8160228027
21
189.7423280612
31
0.0000000000
11
337.8033802506
21
189.7210435156
31
0.0000000000
11
337.7912380757
21
189.7000185819
31
0.0000000000
11
337.7795977700
21
189.6792916659
31
0.0000000000
11
337.7684586985
21
189.6588996020
31
0.0000000000
11
337.7578237497
21
189.6388880021
31
0.0000000000
11
337.7476977251
21
189.6193091031
31
0.0000000000
11
337.7380537895
21
189.6001548273
31
0.0000000000
11
337.7286557759
21
189.5809809643
31
0.0000000000
11
337.7201347133
21
189.5631342678
31
0.0000000000
11
337.7129162855
21
189.5476505726
31
0.0000000000
11
337.7176965824
21
189.5579360625
31
0.0000000000
11
337.7170181595
21
189.5564887779
31
0.0000000000
0
SPLINE
5
45B
100
AcDbEntity
8
0
100
AcDbSpline
62
7
6
CONTINUOUS
70
0
71
3
72
9
73
5
74
3
42
0.0000001000
43
0.0000001000
44
0.0000000001
40
0.0000000000
40
0.0000000000
40
0.0000000000
40
0.0000000000
40
0.7439910119
40
1.0000000000
40
1.0000000000
40
1.0000000000
40
1.0000000000
10
330.5292255529
20
68.0504976755
30
0.0000000000
10
330.5722228522
20
67.9782055940
30
0.0000000000
10
330.6236788397
20
67.8769708504
30
0.0000000000
10
330.6651757080
20
67.7735022191
30
0.0000000000
10
330.6751587447
20
67.7464674685
30
0.0000000000
11
330.5292255529
21
68.0504976755
31
0.0000000000
11
330.6432758388
21
67.8263336080
31
0.0000000000
11
330.6751587447
21
67.7464674685
31
0.0000000000
0
SPLINE
5
45C
100
AcDbEntity
8
0
100
AcDbSpline
62
7
6
CONTINUOUS
70
0
71
3
72
11
73
7
74
5
42
0.0000001000
43
0.0000001000
44
0.0000000001
40
0.0000000000
40
0.0000000000
40
0.0000000000
40
0.0000000000
40
0.3306935281
40
0.7678634616
40
0.9807601448
40
1.0000000000
40
1.0000000000
40
1.0000000000
40
1.0000000000
10
330.6751587447
20
67.7464674685
30
0.0000000000
10
330.6826089367
20
67.7262918354
30
0.0000000000
10
330.6990797834
20
67.6787385388
30
0.0000000000
10
330.7176955351
20
67.6147638504
30
0.0000000000
10
330.7271892647
20
67.5775165560
30
0.0000000000
10
330.7308868826
20
67.5595884026
30
0.0000000000
10
330.7311716685
20
67.5582043740
30
0.0000000000
11
330.6751587447
21
67.7464674685
31
0.0000000000
11
330.6964441674
21
67.6848625254
31
0.0000000000
11
330.7205422926
21
67.6029508043
31
0.0000000000
11
330.7302767347
21
67.5625258189
31
0.0000000000
11
330.7311716685
21
67.5582043740
31
0.0000000000
0
SPLINE
5
45D
100
AcDbEntity
8
0
100
AcDbSpline
62
7
6
CONTINUOUS
70
0
71
3
72
13
73
9
74
7
42
0.0000001000
43
0.0000001000
44
0.0000000001
40
0.0000000000
40
0.0000000000
40
0.0000000000
40
0.0000000000
40
0.0828112941
40
0.2585057565
40
0.4488722295
40
0.6556041697
40
0.8803523511
40
1.0000000000
40
1.0000000000
40
1.0000000000
40
1.0000000000
10
327.3215684958
20
70.7125327449
30
0.0000000000
10
327.2804542965
20
70.7548204417
30
0.0000000000
10
327.1530842266
20
70.8877731185
30
0.0000000000
10
326.9372672293
20
71.1236855837
30
0.0000000000
10
326.6718171047
20
71.4335492605
30
0.0000000000
10
326.3956952265
20
71.7799366552
30
0.0000000000
10
326.1629349649
20
72.0961186818
30
0.0000000000
10
326.0236315180
20
72.2980340047
30
0.0000000000
10
325.9759877857
20
72.3686903340
30
0.0000000000
11
327.3215684958
21
70.7125327449
31
0.0000000000
11
327.1991654743
21
70.8403007385
31
0.0000000000
11
326.9457860026
21
71.1172733162
31
0.0000000000
11
326.6811714529
21
71.4261617204
31
0.0000000000
11
326.4058445464
21
71.7715522008
31
0.0000000000
11
326.1211651158
21
72.1582611852
31
0.0000000000
11
325.9759877857
21
72.3686903340
31
0.0000000000
0
SPLINE
5
45E
100
AcDbEntity
8
0
100
AcDbSpline
62
7
6
CONTINUOUS
70
0
71
3
72
11
73
7
74
5
42
0.0000001000
43
0.0000001000
44
0.0000000001
40
0.0000000000
40
0.0000000000
40
0.0000000000
40
0.0000000000
40
0.1025059391
40
0.5178262906
40
0.9924381926
40
1.0000000000
40
1.0000000000
40
1.0000000000
40
1.0000000000
10
344.8386788315
20
192.2778822266
30
0.0000000000
10
344.7757353787
20
192.2679419525
30
0.0000000000
10
344.4587446978
20
192.2114803165
30
0.0000000000
10
343.8634388365
20
192.0518319165
30
0.0000000000
10
343.3323500658
20
191.8840901792
30
0.0000000000
10
343.0478879906
20
191.7912613413
30
0.0000000000
10
343.0434270601
20
191.7898048547
30
0.0000000000
11
344.8386788315
21
192.2778822266
31
0.0000000000
11
344.6504859270
21
192.2445366186
31
0.0000000000
11
343.9005734874
21
192.0563235572
31
0.0000000000
11
343.0568104951
21
191.7941722967
31
0.0000000000
11
343.0434270601
21
191.7898048547
31
0.0000000000
0
SPLINE
5
45F
100
AcDbEntity
8
0
100
AcDbSpline
62
7
6
CONTINUOUS
70
0
71
3
72
8
73
4
74
2
42
0.0000001000
43
0.0000001000
44
0.0000000001
40
0.0000000000
40
0.0000000000
40
0.0000000000
40
0.0000000000
40
1.0000000000
40
1.0000000000
40
1.0000000000
40
1.0000000000
10
342.9088496252
20
191.7512558948
30
0.0000000000
10
342.8507202964
20
191.7367763621
30
0.0000000000
10
342.7926257061
20
191.7221570678
30
0.0000000000
10
342.7345677214
20
191.7073934283
30
0.0000000000
11
342.9088496252
21
191.7512558948
31
0.0000000000
11
342.7345677214
21
191.7073934283
31
0.0000000000
0
SPLINE
5
460
100
AcDbEntity
8
0
100
AcDbSpline
62
7
6
CONTINUOUS
70
0
71
3
72
8
73
4
74
2
42
0.0000001000
43
0.0000001000
44
0.0000000001
40
0.0000000000
40
0.0000000000
40
0.0000000000
40
0.0000000000
40
1.0000000000
40
1.0000000000
40
1.0000000000
40
1.0000000000
10
342.7345677214
20
191.7073934283
30
0.0000000000
10
342.7154859501
20
191.7025411001
30
0.0000000000
10
342.6964081330
20
191.6976731795
30
0.0000000000
10
342.6773344628
20
191.6927890674
30
0.0000000000
11
342.7345677214
21
191.7073934283
31
0.0000000000
11
342.6773344628
21
191.6927890674
31
0.0000000000
0
SPLINE
5
461
100
AcDbEntity
8
0
100
AcDbSpline
62
7
6
CONTINUOUS
70
0
71
3
72
9
73
5
74
3
42
0.0000001000
43
0.0000001000
44
0.0000000001
40
0.0000000000
40
0.0000000000
40
0.0000000000
40
0.0000000000
40
0.6714252827
40
1.0000000000
40
1.0000000000
40
1.0000000000
40
1.0000000000
10
342.6773344628
20
191.6927890674
30
0.0000000000
10
342.4862867640
20
191.6438683105
30
0.0000000000
10
342.2023658748
20
191.5685878695
30
0.0000000000
10
341.9197971880
20
191.4883688546
30
0.0000000000
10
341.8271270972
20
191.4614140553
30
0.0000000000
11
342.6773344628
21
191.6927890674
31
0.0000000000
11
342.1056330263
21
191.5405515598
31
0.0000000000
11
341.8271270972
21
191.4614140553
31
0.0000000000
0
SPLINE
5
462
100
AcDbEntity
8
0
100
AcDbSpline
62
7
6
CONTINUOUS
70
0
71
3
72
24
73
20
74
18
42
0.0000001000
43
0.0000001000
44
0.0000000001
40
0.0000000000
40
0.0000000000
40
0.0000000000
40
0.0000000000
40
0.0129848102
40
0.0497190214
40
0.0857899700
40
0.1268866068
40
0.1742881184
40
0.2265115199
40
0.2832492210
40
0.3448403508
40
0.4109355861
40
0.4811191204
40
0.5549399629
40
0.6320869931
40
0.7124170592
40
0.7957447714
40
0.8816874038
40
0.9699296989
40
1.0000000000
40
1.0000000000
40
1.0000000000
40
1.0000000000
10
385.3518046531
20
287.7121910110
30
0.0000000000
10
385.3495494488
20
287.7344962868
30
0.0000000000
10
385.3416045307
20
287.8199749771
30
0.0000000000
10
385.3331854287
20
287.9679594717
30
0.0000000000
10
385.3372287265
20
288.1647400857
30
0.0000000000
10
385.3559831276
20
288.3790830213
30
0.0000000000
10
385.3874648076
20
288.6200172786
30
0.0000000000
10
385.4295460339
20
288.8866790450
30
0.0000000000
10
385.4798583905
20
289.1767937783
30
0.0000000000
10
385.5364851778
20
289.4901065521
30
0.0000000000
10
385.5974101937
20
289.8262308855
30
0.0000000000
10
385.6602538212
20
290.1834633493
30
0.0000000000
10
385.7225073980
20
290.5601584744
30
0.0000000000
10
385.7815875877
20
290.9550957749
30
0.0000000000
10
385.8347716107
20
291.3674395608
30
0.0000000000
10
385.8790637349
20
291.7961212185
30
0.0000000000
10
385.9111670779
20
292.2396139765
30
0.0000000000
10
385.9238131361
20
292.5920960082
30
0.0000000000
10
385.9253800528
20
292.7963763637
30
0.0000000000
10
385.9253902963
20
292.8482958386
30
0.0000000000
11
385.3518046531
21
287.7121910110
31
0.0000000000
11
385.3456086979
21
287.7791635943
31
0.0000000000
11
385.3355971746
21
287.9691530864
31
0.0000000000
11
385.3389902711
21
288.1559402021
31
0.0000000000
11
385.3564301532
21
288.3680713948
31
0.0000000000
11
385.3874102278
21
288.6116097988
31
0.0000000000
11
385.4289786643
21
288.8788708353
31
0.0000000000
11
385.4787544644
21
289.1684791748
31
0.0000000000
11
385.5351276918
21
289.4824499743
31
0.0000000000
11
385.5958695846
21
289.8193368965
31
0.0000000000
11
385.6585632926
21
290.1773826608
31
0.0000000000
11
385.7206300814
21
290.5546425594
31
0.0000000000
11
385.7794680348
21
290.9498450000
31
0.0000000000
11
385.8323980289
21
291.3625081947
31
0.0000000000
11
385.8764344563
21
291.7918248354
31
0.0000000000
11
385.9082193641
21
292.2358008792
31
0.0000000000
11
385.9242115967
21
292.6925437134
31
0.0000000000
11
385.9253902963
21
292.8482958386
31
0.0000000000
0
SPLINE
5
463
100
AcDbEntity
8
0
100
AcDbSpline
62
7
6
CONTINUOUS
70
0
71
3
72
14
73
10
74
8
42
0.0000001000
43
0.0000001000
44
0.0000000001
40
0.0000000000
40
0.0000000000
40
0.0000000000
40
0.0000000000
40
0.1381104184
40
0.3125094014
40
0.4774543664
40
0.6330382768
40
0.7790300748
40
0.9144618626
40
1.0000000000
40
1.0000000000
40
1.0000000000
40
1.0000000000
10
385.9253990877
20
282.2704491153
30
0.0000000000
10
385.9253440122
20
282.5224000016
30
0.0000000000
10
385.9092896167
20
283.0926141191
30
0.0000000000
10
385.8425775219
20
283.9611933306
30
0.0000000000
10
385.7403565310
20
284.8583028478
30
0.0000000000
10
385.6250003569
20
285.7014338156
30
0.0000000000
10
385.5093517945
20
286.4901342875
30
0.0000000000
10
385.4156009559
20
287.1528752726
30
0.0000000000
10
385.3678384374
20
287.5532177170
30
0.0000000000
10
385.3521170314
20
287.7084550148
30
0.0000000000
11
385.9253990877
21
282.2704491153
31
0.0000000000
11
385.9057611511
21
283.0260687220
31
0.0000000000
11
385.8352682270
21
283.9778020930
31
0.0000000000
11
385.7349657483
21
284.8748181699
31
0.0000000000
11
385.6212344332
21
285.7185688116
31
0.0000000000
11
385.5072508733
21
286.5092871399
31
0.0000000000
11
385.4061187415
21
287.2434598244
31
0.0000000000
11
385.3521170314
21
287.7084550148
31
0.0000000000
0
SPLINE
5
464
100
AcDbEntity
8
0
100
AcDbSpline
62
7
6
CONTINUOUS
70
0
71
3
72
11
73
7
74
5
42
0.0000001000
43
0.0000001000
44
0.0000000001
40
0.0000000000
40
0.0000000000
40
0.0000000000
40
0.0000000000
40
0.2617002477
40
0.5623097344
40
0.8601699622
40
1.0000000000
40
1.0000000000
40
1.0000000000
40
1.0000000000
10
385.9254772010
20
282.5283573566
30
0.0000000000
10
385.9255329024
20
283.3912223502
30
0.0000000000
10
385.8906756728
20
285.2451592588
30
0.0000000000
10
385.8662917148
20
288.0813127291
30
0.0000000000
10
385.8934654314
20
290.5155864720
30
0.0000000000
10
385.9119554796
20
291.9586713921
30
0.0000000000
10
385.9166054166
20
292.4197028249
30
0.0000000000
11
385.9254772010
21
282.5283573566
31
0.0000000000
11
385.8971850338
21
285.1168995188
31
0.0000000000
11
385.8760516675
21
288.0903675433
31
0.0000000000
11
385.9003843137
21
291.0366153057
31
0.0000000000
11
385.9166054166
21
292.4197028249
31
0.0000000000
0
SPLINE
5
465
100
AcDbEntity
8
0
100
AcDbSpline
62
7
6
CONTINUOUS
70
0
71
3
72
17
73
13
74
11
42
0.0000001000
43
0.0000001000
44
0.0000000001
40
0.0000000000
40
0.0000000000
40
0.0000000000
40
0.0000000000
40
0.0710683393
40
0.1753373996
40
0.2795788714
40
0.3837794405
40
0.4879265162
40
0.5920147180
40
0.6960304543
40
0.7999603630
40
0.9038236009
40
1.0000000000
40
1.0000000000
40
1.0000000000
40
1.0000000000
10
377.4366764020
20
326.9625226035
30
0.0000000000
10
377.2661989692
20
327.8651843757
30
0.0000000000
10
376.7365360364
20
330.0712445388
30
0.0000000000
10
375.4717505888
20
333.4665456928
30
0.0000000000
10
373.5267166163
20
337.0216713687
30
0.0000000000
10
371.0922727883
20
340.2594613567
30
0.0000000000
10
368.2193674644
20
343.1125410444
30
0.0000000000
10
364.9682547924
20
345.5218286912
30
0.0000000000
10
361.4072744359
20
347.4377042857
30
0.0000000000
10
357.6105701644
20
348.8212619124
30
0.0000000000
10
353.7548770025
20
349.6247549553
30
0.0000000000
10
351.1677084567
20
349.7973811339
30
0.0000000000
10
349.9253906838
20
349.7974354814
30
0.0000000000
11
377.4366764020
21
326.9625226035
31
0.0000000000
11
376.7935324518
21
329.6409183902
31
0.0000000000
11
375.3831932901
21
333.4264388716
31
0.0000000000
11
373.4447160429
21
336.9694451033
31
0.0000000000
11
371.0185225990
21
340.1961113493
31
0.0000000000
11
368.1554518028
21
343.0393289021
31
0.0000000000
11
364.9154222272
21
345.4403425862
31
0.0000000000
11
361.3665329907
21
347.3496376275
31
0.0000000000
11
357.5833470487
21
348.7283097961
31
0.0000000000
11
353.6439560195
21
349.5490632919
31
0.0000000000
11
349.9253906838
21
349.7974354814
31
0.0000000000
0
SPLINE
5
466
100
AcDbEntity
8
0
100
AcDbSpline
62
7
6
CONTINUOUS
70
0
71
3
72
15
73
11
74
9
42
0.0000001000
43
0.0000001000
44
0.0000000001
40
0.0000000000
40
0.0000000000
40
0.0000000000
40
0.0000000000
40
0.1952865731
40
0.3832053995
40
0.5562205132
40
0.7076161748
40
0.8317079296
40
0.9239174047
40
0.9806922135
40
1.0000000000
40
1.0000000000
40
1.0000000000
40
1.0000000000
10
377.8660503973
20
321.9365342610
30
0.0000000000
10
377.8451287345
20
322.2637324655
30
0.0000000000
10
377.7940034562
20
322.9050430571
30
0.0000000000
10
377.6948032408
20
323.8342369143
30
0.0000000000
10
377.5846850382
20
324.6855817892
30
0.0000000000
10
377.4779781812
20
325.4363767987
30
0.0000000000
10
377.3839186620
20
326.0316421999
30
0.0000000000
10
377.3221651343
20
326.5214023593
30
0.0000000000
10
377.2799808585
20
326.7364614560
30
0.0000000000
10
377.2828275384
20
326.9334837285
30
0.0000000000
10
377.2921424181
20
326.9365513736
30
0.0000000000
11
377.8660503973
21
321.9365342610
31
0.0000000000
11
377.7885488181
21
322.9170754046
31
0.0000000000
11
377.6885653392
21
323.8582697766
31
0.0000000000
11
377.5779176414
21
324.7226412165
31
0.0000000000
11
377.4699937052
21
325.4774991834
31
0.0000000000
11
377.3778749630
21
326.0956858778
31
0.0000000000
11
377.3127525195
21
326.5555286351
31
0.0000000000
11
377.2827942343
21
326.8399125056
31
0.0000000000
11
377.2921424181
21
326.9365513736
31
0.0000000000
0
SPLINE
5
467
100
AcDbEntity
8
0
100
AcDbSpline
62
7
6
CONTINUOUS
70
0
71
3
72
10
73
6
74
4
42
0.0000001000
43
0.0000001000
44
0.0000000001
40
0.0000000000
40
0.0000000000
40
0.0000000000
40
0.0000000000
40
0.3420348233
40
0.6768579331
40
1.0000000000
40
1.0000000000
40
1.0000000000
40
1.0000000000
10
321.9847309705
20
321.9365342610
30
0.0000000000
10
321.9716872150
20
321.7325402760
30
0.0000000000
10
321.9498134349
20
321.3285877547
30
0.0000000000
10
321.9299218806
20
320.7312469924
30
0.0000000000
10
321.9253906870
20
320.3380139606
30
0.0000000000
10
321.9253906839
20
320.1448942751
30
0.0000000000
11
321.9847309705
21
321.9365342610
31
0.0000000000
11
321.9517279242
21
321.3241912459
31
0.0000000000
11
321.9319053451
21
320.7242167031
31
0.0000000000
11
321.9253906839
21
320.1448942751
31
0.0000000000
0
SPLINE
5
468
100
AcDbEntity
8
0
100
AcDbSpline
62
7
6
CONTINUOUS
70
0
71
3
72
10
73
6
74
4
42
0.0000001000
43
0.0000001000
44
0.0000000001
40
0.0000000000
40
0.0000000000
40
0.0000000000
40
0.0000000000
40
0.3231337688
40
0.6579562951
40
1.0000000000
40
1.0000000000
40
1.0000000000
40
1.0000000000
10
377.9253906839
20
320.1448941178
30
0.0000000000
10
377.9253906839
20
320.3380088611
30
0.0000000000
10
377.9208596663
20
320.7312366187
30
0.0000000000
10
377.9009684405
20
321.3285774444
30
0.0000000000
10
377.8790944925
20
321.7325349610
30
0.0000000000
10
377.8660503973
20
321.9365342610
30
0.0000000000
11
377.9253906839
21
320.1448941178
31
0.0000000000
11
377.9188763554
21
320.7242017218
31
0.0000000000
11
377.8990541396
21
321.3241752828
31
0.0000000000
11
377.8660503973
21
321.9365342610
31
0.0000000000
0
SPLINE
5
469
100
AcDbEntity
8
0
100
AcDbSpline
62
7
6
CONTINUOUS
70
0
71
3
72
11
73
7
74
5
42
0.0000001000
43
0.0000001000
44
0.0000000001
40
0.0000000000
40
0.0000000000
40
0.0000000000
40
0.0000000000
40
0.2698776708
40
0.5254581639
40
0.7684897465
40
1.0000000000
40
1.0000000000
40
1.0000000000
40
1.0000000000
10
378.2999620795
20
313.6608831512
30
0.0000000000
10
378.2651884582
20
313.7704993544
30
0.0000000000
10
378.2009585557
20
313.9850352128
30
0.0000000000
10
378.1144410478
20
314.3008819217
30
0.0000000000
10
378.0363553677
20
314.6020457515
30
0.0000000000
10
377.9865361404
20
314.7980229593
30
0.0000000000
10
377.9620737326
20
314.8935924752
30
0.0000000000
11
378.2999620795
21
313.6608831512
31
0.0000000000
11
378.2005491792
21
313.9912485943
31
0.0000000000
11
378.1137661634
21
314.3062343438
31
0.0000000000
11
378.0353677412
21
314.6068600841
31
0.0000000000
11
377.9620737326
21
314.8935924752
31
0.0000000000
0
SPLINE
5
46A
100
AcDbEntity
8
0
100
AcDbSpline
62
7
6
CONTINUOUS
70
0
71
3
72
24
73
20
74
18
42
0.0000001000
43
0.0000001000
44
0.0000000001
40
0.0000000000
40
0.0000000000
40
0.0000000000
40
0.0000000000
40
0.0029576182
40
0.0168004796
40
0.0389543369
40
0.0685060685
40
0.1049038365
40
0.1478030763
40
0.1969919299
40
0.2523377113
40
0.3137786603
40
0.3812544295
40
0.4547235063
40
0.5341188608
40
0.6193741691
40
0.7104098698
40
0.8071247700
40
0.9093857321
40
1.0000000000
40
1.0000000000
40
1.0000000000
40
1.0000000000
10
373.5386228271
20
85.9513083277
30
0.0000000000
10
373.5302409289
20
85.9756337554
30
0.0000000000
10
373.4474597654
20
86.2054310912
30
0.0000000000
10
373.3685549169
20
86.4992130961
30
0.0000000000
10
373.1810018620
20
87.1805222927
30
0.0000000000
10
372.9851288304
20
88.0214590445
30
0.0000000000
10
372.7536258065
20
89.0960797437
30
0.0000000000
10
372.5073641366
20
90.3585180679
30
0.0000000000
10
372.2449458914
20
91.8147164975
30
0.0000000000
10
371.9704927967
20
93.4564515758
30
0.0000000000
10
371.6849696241
20
95.2825440094
30
0.0000000000
10
371.3894599478
20
97.2908619544
30
0.0000000000
10
371.0845765808
20
99.4797866961
30
0.0000000000
10
370.7707347847
20
101.8474485385
30
0.0000000000
10
370.4481600509
20
104.3916468924
30
0.0000000000
10
370.1169243746
20
107.1098181368
30
0.0000000000
10
369.7770055334
20
109.9987342585
30
0.0000000000
10
369.4477609505
20
112.8846294634
30
0.0000000000
10
369.2335001750
20
114.8072829547
30
0.0000000000
10
369.1337737830
20
115.7106632746
30
0.0000000000
11
373.5386228271
21
85.9513083277
31
0.0000000000
11
373.5026055754
21
86.0533474933
31
0.0000000000
11
373.3809405966
21
86.4517178412
31
0.0000000000
11
373.2082259291
21
87.0955693189
31
0.0000000000
11
373.0016254168
21
87.9604540228
31
0.0000000000
11
372.7709649161
21
89.0311063530
31
0.0000000000
11
372.5221517720
21
90.2977477681
31
0.0000000000
11
372.2588286422
21
91.7542395877
31
0.0000000000
11
371.9833001613
21
93.3966561413
31
0.0000000000
11
371.6969391459
21
95.2231161487
31
0.0000000000
11
371.4006801156
21
97.2317469860
31
0.0000000000
11
371.0950964119
21
99.4212261740
31
0.0000000000
11
370.7806173419
21
101.7894619254
31
0.0000000000
11
370.4574445117
21
104.3343762715
31
0.0000000000
11
370.1256336847
21
107.0534909132
31
0.0000000000
11
369.7851585846
21
109.9436789012
31
0.0000000000
11
369.4359321109
21
113.0008529552
31
0.0000000000
11
369.1337737830
21
115.7106632746
31
0.0000000000
0
SPLINE
5
46B
100
AcDbEntity
8
0
100
AcDbSpline
62
7
6
CONTINUOUS
70
0
71
3
72
8
73
4
74
2
42
0.0000001000
43
0.0000001000
44
0.0000000001
40
0.0000000000
40
0.0000000000
40
0.0000000000
40
0.0000000000
40
1.0000000000
40
1.0000000000
40
1.0000000000
40
1.0000000000
10
369.1337737830
20
115.7106632746
30
0.0000000000
10
369.1262791147
20
115.7785543889
30
0.0000000000
10
369.1187897269
20
115.8464460845
30
0.0000000000
10
369.1113055458
20
115.9143383521
30
0.0000000000
11
369.1337737830
21
115.7106632746
31
0.0000000000
11
369.1113055458
21
115.9143383521
31
0.0000000000
0
SPLINE
5
46C
100
AcDbEntity
8
0
100
AcDbSpline
62
7
6
CONTINUOUS
70
0
71
3
72
10
73
6
74
4
42
0.0000001000
43
0.0000001000
44
0.0000000001
40
0.0000000000
40
0.0000000000
40
0.0000000000
40
0.0000000000
40
0.3754089566
40
0.8000057427
40
1.0000000000
40
1.0000000000
40
1.0000000000
40
1.0000000000
10
369.1113049628
20
115.9144903631
30
0.0000000000
10
369.0567102292
20
116.4092974664
30
0.0000000000
10
368.9434138009
20
117.4640830515
30
0.0000000000
10
368.8127039829
20
118.7836903833
30
0.0000000000
10
368.7384541596
20
119.6086056755
30
0.0000000000
10
368.7155629530
20
119.8728193811
30
0.0000000000
11
369.1113049628
21
115.9144903631
31
0.0000000000
11
368.9523016497
21
117.3994301632
31
0.0000000000
11
368.7867615158
21
119.0804011883
31
0.0000000000
11
368.7155629530
21
119.8728193811
31
0.0000000000
0
SPLINE
5
46D
100
AcDbEntity
8
0
100
AcDbSpline
62
7
6
CONTINUOUS
70
0
71
3
72
8
73
4
74
2
42
0.0000001000
43
0.0000001000
44
0.0000000001
40
0.0000000000
40
0.0000000000
40
0.0000000000
40
0.0000000000
40
1.0000000000
40
1.0000000000
40
1.0000000000
40
1.0000000000
10
368.7155629530
20
119.8728193811
30
0.0000000000
10
368.7020867727
20
120.0283634554
30
0.0000000000
10
368.6889168292
20
120.1839337162
30
0.0000000000
10
368.6760788082
20
120.3395309286
30
0.0000000000
11
368.7155629530
21
119.8728193811
31
0.0000000000
11
368.6760788082
21
120.3395309286
31
0.0000000000
0
SPLINE
5
46E
100
AcDbEntity
8
0
100
AcDbSpline
62
7
6
CONTINUOUS
70
0
71
3
72
10
73
6
74
4
42
0.0000001000
43
0.0000001000
44
0.0000000001
40
0.0000000000
40
0.0000000000
40
0.0000000000
40
0.0000000000
40
0.3426925193
40
0.7759662466
40
1.0000000000
40
1.0000000000
40
1.0000000000
40
1.0000000000
10
368.6760867469
20
120.3394391434
30
0.0000000000
10
368.6366405766
20
120.8176068010
30
0.0000000000
10
368.5530087485
20
121.9008105857
30
0.0000000000
10
368.4632268310
20
123.2980359325
30
0.0000000000
10
368.4147373721
20
124.2170479082
30
0.0000000000
10
368.3994182956
20
124.5303381055
30
0.0000000000
11
368.6760867469
21
120.3394391434
31
0.0000000000
11
368.5654949349
21
121.7745587283
31
0.0000000000
11
368.4490138963
21
123.5906543304
31
0.0000000000
11
368.3994182956
21
124.5303381055
31
0.0000000000
0
SPLINE
5
46F
100
AcDbEntity
8
0
100
AcDbSpline
62
7
6
CONTINUOUS
70
0
71
3
72
8
73
4
74
2
42
0.0000001000
43
0.0000001000
44
0.0000000001
40
0.0000000000
40
0.0000000000
40
0.0000000000
40
0.0000000000
40
1.0000000000
40
1.0000000000
40
1.0000000000
40
1.0000000000
10
368.3994182956
20
124.5303381055
30
0.0000000000
10
368.3971872854
20
124.5759644613
30
0.0000000000
10
368.3949818936
20
124.6215920527
30
0.0000000000
10
368.3928020745
20
124.6672208422
30
0.0000000000
11
368.3994182956
21
124.5303381055
31
0.0000000000
11
368.3928020745
21
124.6672208422
31
0.0000000000
0
SPLINE
5
470
100
AcDbEntity
8
0
100
AcDbSpline
62
7
6
CONTINUOUS
70
0
71
3
72
8
73
4
74
2
42
0.0000001000
43
0.0000001000
44
0.0000000001
40
0.0000000000
40
0.0000000000
40
0.0000000000
40
0.0000000000
40
1.0000000000
40
1.0000000000
40
1.0000000000
40
1.0000000000
10
368.3928020745
20
124.6672208422
30
0.0000000000
10
368.3839672618
20
124.8521544486
30
0.0000000000
10
368.3755525275
20
125.0371077376
30
0.0000000000
10
368.3675548265
20
125.2220782274
30
0.0000000000
11
368.3928020745
21
124.6672208422
31
0.0000000000
11
368.3675548265
21
125.2220782274
31
0.0000000000
0
SPLINE
5
471
100
AcDbEntity
8
0
100
AcDbSpline
62
7
6
CONTINUOUS
70
0
71
3
72
9
73
5
74
3
42
0.0000001000
43
0.0000001000
44
0.0000000001
40
0.0000000000
40
0.0000000000
40
0.0000000000
40
0.0000000000
40
0.6318571650
40
1.0000000000
40
1.0000000000
40
1.0000000000
40
1.0000000000
10
368.3675529097
20
125.2221003331
30
0.0000000000
10
368.2854082799
20
127.1224419466
30
0.0000000000
10
368.1623959377
20
130.1302918391
30
0.0000000000
10
368.0414549107
20
133.1382186891
30
0.0000000000
10
367.9965216551
20
134.2455489289
30
0.0000000000
11
368.3675529097
21
125.2221003331
31
0.0000000000
11
368.1307827794
21
130.9235356832
31
0.0000000000
11
367.9965216551
21
134.2455489289
31
0.0000000000
0
SPLINE
5
472
100
AcDbEntity
8
0
100
AcDbSpline
62
7
6
CONTINUOUS
70
0
71
3
72
8
73
4
74
2
42
0.0000001000
43
0.0000001000
44
0.0000000001
40
0.0000000000
40
0.0000000000
40
0.0000000000
40
0.0000000000
40
1.0000000000
40
1.0000000000
40
1.0000000000
40
1.0000000000
10
362.1392070090
20
189.5447308606
30
0.0000000000
10
362.1379518336
20
189.5474548887
30
0.0000000000
10
362.1360864466
20
189.5514939850
30
0.0000000000
10
362.1345546883
20
189.5547943279
30
0.0000000000
11
362.1392070090
21
189.5447308606
31
0.0000000000
11
362.1345546883
21
189.5547943279
31
0.0000000000
0
SPLINE
5
473
100
AcDbEntity
8
0
100
AcDbSpline
62
7
6
CONTINUOUS
70
0
71
3
72
15
73
11
74
9
42
0.0000001000
43
0.0000001000
44
0.0000000001
40
0.0000000000
40
0.0000000000
40
0.0000000000
40
0.0000000000
40
0.1086154864
40
0.2308298650
40
0.3651126148
40
0.5057773306
40
0.6476340558
40
0.7874997683
40
0.9286306262
40
1.0000000000
40
1.0000000000
40
1.0000000000
40
1.0000000000
10
362.1345546883
20
189.5547943279
30
0.0000000000
10
362.1314032144
20
189.5615845269
30
0.0000000000
10
362.1277070025
20
189.5693692819
30
0.0000000000
10
362.1191319670
20
189.5872339635
30
0.0000000000
10
362.1104275148
20
189.6048436534
30
0.0000000000
10
362.1008608960
20
189.6237385546
30
0.0000000000
10
362.0910283900
20
189.6426397748
30
0.0000000000
10
362.0809656812
20
189.6614938888
30
0.0000000000
10
362.0724175491
20
189.6771064997
30
0.0000000000
10
362.0671863859
20
189.6864810645
30
0.0000000000
10
362.0654209500
20
189.6896248330
30
0.0000000000
11
362.1345546883
21
189.5547943279
31
0.0000000000
11
362.1275428104
21
189.5696877171
31
0.0000000000
11
362.1195067921
21
189.5863761583
31
0.0000000000
11
362.1104994636
21
189.6046258723
31
0.0000000000
11
362.1008654159
21
189.6236436004
31
0.0000000000
11
362.0909449888
21
189.6427173888
31
0.0000000000
11
362.0809636188
21
189.6614179932
31
0.0000000000
11
362.0706916355
21
189.6801794544
31
0.0000000000
11
362.0654209500
21
189.6896248330
31
0.0000000000
0
SPLINE
5
474
100
AcDbEntity
8
0
100
AcDbSpline
62
7
6
CONTINUOUS
70
0
71
3
72
11
73
7
74
5
42
0.0000001000
43
0.0000001000
44
0.0000000001
40
0.0000000000
40
0.0000000000
40
0.0000000000
40
0.0000000000
40
0.1621327870
40
0.4913510496
40
0.8282562757
40
1.0000000000
40
1.0000000000
40
1.0000000000
40
1.0000000000
10
362.0654209500
20
189.6896248330
30
0.0000000000
10
362.0636398792
20
189.6927964429
30
0.0000000000
10
362.0582159779
20
189.7023935642
30
0.0000000000
10
362.0489397446
20
189.7184947172
30
0.0000000000
10
362.0393738108
20
189.7346766974
30
0.0000000000
10
362.0334827779
20
189.7444501894
30
0.0000000000
10
362.0314841698
20
189.7477444021
30
0.0000000000
11
362.0654209500
21
189.6896248330
31
0.0000000000
11
362.0600517811
21
189.6991250955
31
0.0000000000
11
362.0489904811
21
189.7183246978
31
0.0000000000
11
362.0374514035
21
189.7378444887
31
0.0000000000
11
362.0314841698
21
189.7477444021
31
0.0000000000
0
SPLINE
5
475
100
AcDbEntity
8
0
100
AcDbSpline
62
7
6
CONTINUOUS
70
0
71
3
72
14
73
10
74
8
42
0.0000001000
43
0.0000001000
44
0.0000000001
40
0.0000000000
40
0.0000000000
40
0.0000000000
40
0.0000000000
40
0.0711985204
40
0.2167931134
40
0.3666241998
40
0.5202873690
40
0.6773560627
40
0.8374028734
40
1.0000000000
40
1.0000000000
40
1.0000000000
40
1.0000000000
10
362.0314841698
20
189.7477444021
30
0.0000000000
10
362.0294576251
20
189.7510846614
30
0.0000000000
10
362.0232571765
20
189.7612373683
30
0.0000000000
10
362.0126185205
20
189.7783128720
30
0.0000000000
10
361.9993335598
20
189.7990692022
30
0.0000000000
10
361.9854443428
20
189.8201840491
30
0.0000000000
10
361.9709721881
20
189.8415839492
30
0.0000000000
10
361.9559420520
20
189.8631956649
30
0.0000000000
10
361.9456409959
20
189.8775957229
30
0.0000000000
10
361.9404014274
20
189.8848176022
30
0.0000000000
11
362.0314841698
21
189.7477444021
31
0.0000000000
11
362.0253752077
21
189.7577473077
31
0.0000000000
11
362.0127009745
21
189.7780899998
31
0.0000000000
11
361.9994043872
21
189.7988644955
31
0.0000000000
11
361.9855026773
21
189.8199983344
31
0.0000000000
11
361.9710177871
21
189.8414170660
31
0.0000000000
11
361.9559746826
21
189.8630474290
31
0.0000000000
11
361.9404014274
21
189.8848176022
31
0.0000000000
0
SPLINE
5
476
100
AcDbEntity
8
0
100
AcDbSpline
62
7
6
CONTINUOUS
70
0
71
3
72
47
73
43
74
41
42
0.0000001000
43
0.0000001000
44
0.0000000001
40
0.0000000000
40
0.0000000000
40
0.0000000000
40
0.0000000000
40
0.0205474383
40
0.0413636890
40
0.0624447989
40
0.0837867953
40
0.1053856900
40
0.1272374820
40
0.1493381603
40
0.1716837046
40
0.1942700872
40
0.2170932740
40
0.2401492249
40
0.2634338943
40
0.2869432321
40
0.3106731838
40
0.3346196907
40
0.3587801831
40
0.3831582315
40
0.4077589825
40
0.4325875821
40
0.4576491751
40
0.4829489057
40
0.5084919176
40
0.5342833536
40
0.5603283562
40
0.5866320673
40
0.6131996282
40
0.6400361800
40
0.6671468630
40
0.6945374635
40
0.7222233108
40
0.7502270185
40
0.7785713835
40
0.8072792024
40
0.8363732718
40
0.8658763880
40
0.8958113470
40
0.9262009447
40
0.9570679766
40
0.9884352382
40
1.0000000000
40
1.0000000000
40
1.0000000000
40
1.0000000000
10
361.9404014274
20
189.8848176022
30
0.0000000000
10
361.9350901254
20
189.8921383543
30
0.0000000000
10
361.9242980648
20
189.9068031043
30
0.0000000000
10
361.9077050026
20
189.9287172628
30
0.0000000000
10
361.8905954437
20
189.9506757321
30
0.0000000000
10
361.8729644929
20
189.9726612129
30
0.0000000000
10
361.8548076707
20
189.9946561913
30
0.0000000000
10
361.8361209275
20
190.0166429537
30
0.0000000000
10
361.8169006564
20
190.0386036014
30
0.0000000000
10
361.7971437071
20
190.0605200657
30
0.0000000000
10
361.7768473985
20
190.0823741225
30
0.0000000000
10
361.7560095312
20
190.1041474074
30
0.0000000000
10
361.7346283999
20
190.1258214317
30
0.0000000000
10
361.7127028047
20
190.1473775981
30
0.0000000000
10
361.6902320620
20
190.1687972175
30
0.0000000000
10
361.6672160152
20
190.1900615256
30
0.0000000000
10
361.6436545543
20
190.2111521391
30
0.0000000000
10
361.6195455436
20
190.2320528015
30
0.0000000000
10
361.5948841057
20
190.2527496214
30
0.0000000000
10
361.5696629246
20
190.2732303967
30
0.0000000000
10
361.5438742410
20
190.2934827524
30
0.0000000000
10
361.5175103993
20
190.3134936706
30
0.0000000000
10
361.4905638707
20
190.3332494767
30
0.0000000000
10
361.4630272779
20
190.3527358252
30
0.0000000000
10
361.4348934205
20
190.3719376859
30
0.0000000000
10
361.4061553026
20
190.3908393301
30
0.0000000000
10
361.3768061605
20
190.4094243180
30
0.0000000000
10
361.3468394931
20
190.4276754859
30
0.0000000000
10
361.3162490927
20
190.4455749340
30
0.0000000000
10
361.2850288295
20
190.4631041540
30
0.0000000000
10
361.2531689728
20
190.4802459843
30
0.0000000000
10
361.2206531665
20
190.4969856693
30
0.0000000000
10
361.1874583166
20
190.5133100515
30
0.0000000000
10
361.1535581866
20
190.5292051439
30
0.0000000000
10
361.1189263134
20
190.5446545146
30
0.0000000000
10
361.0835361808
20
190.5596391581
30
0.0000000000
10
361.0473613297
20
190.5741374017
30
0.0000000000
10
361.0103754754
20
190.5881248108
30
0.0000000000
10
360.9725526352
20
190.6015740918
30
0.0000000000
10
360.9338672646
20
190.6144549948
30
0.0000000000
10
360.9028398790
20
190.6240826065
30
0.0000000000
10
360.8847132049
20
190.6294267629
30
0.0000000000
10
360.8798249286
20
190.6308476758
30
0.0000000000
11
361.9404014274
21
189.8848176022
31
0.0000000000
11
361.9243190322
21
189.9066711029
31
0.0000000000
11
361.9077254419
21
189.9285859586
31
0.0000000000
11
361.8906153607
21
189.9505450983
31
0.0000000000
11
361.8729838950
21
189.9725312210
31
0.0000000000
11
361.8548265672
21
189.9945268119
31
0.0000000000
11
361.8361393287
21
190.0165141567
31
0.0000000000
11
361.8169185743
21
190.0384753566
31
0.0000000000
11
361.7971611547
21
190.0603923426
31
0.0000000000
11
361.7768643899
21
190.0822468904
31
0.0000000000
11
361.7560260817
21
190.1040206360
31
0.0000000000
11
361.7346445256
21
190.1256950907
31
0.0000000000
11
361.7127185227
21
190.1472516578
31
0.0000000000
11
361.6902473905
21
190.1686716484
31
0.0000000000
11
361.6672309732
21
190.1899362988
31
0.0000000000
11
361.6436696511
21
190.2110267878
31
0.0000000000
11
361.6195628504
21
190.2319255343
31
0.0000000000
11
361.5949042126
21
190.2526200041
31
0.0000000000
11
361.5696858987
21
190.2730984509
31
0.0000000000
11
361.5439001512
21
190.2933485007
31
0.0000000000
11
361.5175393162
21
190.3133571366
31
0.0000000000
11
361.4905958667
21
190.3331106853
31
0.0000000000
11
361.4630624271
21
190.3525948023
31
0.0000000000
11
361.4349317990
21
190.3717944587
31
0.0000000000
11
361.4061969883
21
190.3906939275
31
0.0000000000
11
361.3768512335
21
190.4092767704
31
0.0000000000
11
361.3468880355
21
190.4275258251
31
0.0000000000
11
361.3163011887
21
190.4454231937
31
0.0000000000
11
361.2850848134
21
190.4629502305
31
0.0000000000
11
361.2532326355
21
190.4800879293
31
0.0000000000
11
361.2207274898
21
190.4968221258
31
0.0000000000
11
361.1875435357
21
190.5131411495
31
0.0000000000
11
361.1536544698
21
190.5290310540
31
0.0000000000
11
361.1190338340
21
190.5444754114
31
0.0000000000
11
361.0836551179
21
190.5594552206
31
0.0000000000
11
361.0474918684
21
190.5739488142
31
0.0000000000
11
361.0105178074
21
190.5879317630
31
0.0000000000
11
360.9727069590
21
190.6013767795
31
0.0000000000
11
360.9340337862
21
190.6142536206
31
0.0000000000
11
360.8944733386
21
190.6265289898
31
0.0000000000
11
360.8798249286
21
190.6308476758
31
0.0000000000
0
SPLINE
5
477
100
AcDbEntity
8
0
100
AcDbSpline
62
7
6
CONTINUOUS
70
0
71
3
72
10
73
6
74
4
42
0.0000001000
43
0.0000001000
44
0.0000000001
40
0.0000000000
40
0.0000000000
40
0.0000000000
40
0.0000000000
40
0.1988951260
40
0.6304239556
40
1.0000000000
40
1.0000000000
40
1.0000000000
40
1.0000000000
10
362.1363967758
20
189.5508484035
30
0.0000000000
10
362.1350591187
20
189.5537215643
30
0.0000000000
10
362.1316520686
20
189.5610318794
30
0.0000000000
10
362.1448463974
20
189.5324898880
30
0.0000000000
10
362.1378610801
20
189.5476608638
30
0.0000000000
10
362.1352001152
20
189.5534026164
30
0.0000000000
11
362.1363967758
21
189.5508484035
31
0.0000000000
11
362.1340763832
21
189.5558156273
31
0.0000000000
11
362.1405699208
21
189.5417582731
31
0.0000000000
11
362.1352001152
21
189.5534026164
31
0.0000000000
0
SPLINE
5
478
100
AcDbEntity
8
0
100
AcDbSpline
62
7
6
CONTINUOUS
70
0
71
3
72
11
73
7
74
5
42
0.0000001000
43
0.0000001000
44
0.0000000001
40
0.0000000000
40
0.0000000000
40
0.0000000000
40
0.0000000000
40
0.1902761691
40
0.5119715748
40
0.8882656521
40
1.0000000000
40
1.0000000000
40
1.0000000000
40
1.0000000000
10
362.1526054984
20
189.5160802018
30
0.0000000000
10
362.1516340792
20
189.5181631973
30
0.0000000000
10
362.1490001631
20
189.5238117256
30
0.0000000000
10
362.1441992492
20
189.5341146594
30
0.0000000000
10
362.1410280607
20
189.5408973769
30
0.0000000000
10
362.1373327718
20
189.5488378582
30
0.0000000000
10
362.1365600483
20
189.5504976983
30
0.0000000000
11
362.1526054984
21
189.5160802018
31
0.0000000000
11
362.1496578714
21
189.5224018195
31
0.0000000000
11
362.1447150290
21
189.5330036087
31
0.0000000000
11
362.1389313348
21
189.5454038441
31
0.0000000000
11
362.1365600483
21
189.5504976983
31
0.0000000000
0
SPLINE
5
479
100
AcDbEntity
8
0
100
AcDbSpline
62
7
6
CONTINUOUS
70
0
71
3
72
10
73
6
74
4
42
0.0000001000
43
0.0000001000
44
0.0000000001
40
0.0000000000
40
0.0000000000
40
0.0000000000
40
0.0000000000
40
0.1257392242
40
0.4416515193
40
1.0000000000
40
1.0000000000
40
1.0000000000
40
1.0000000000
10
369.1192723524
20
67.5562820862
30
0.0000000000
10
369.1203213427
20
67.5607406742
30
0.0000000000
10
369.1285139102
20
67.5994034113
30
0.0000000000
10
369.1417277682
20
67.6448232955
30
0.0000000000
10
369.1583978836
20
67.6976841545
30
0.0000000000
10
369.1697456618
20
67.7299650724
30
0.0000000000
11
369.1192723524
21
67.5562820862
31
0.0000000000
11
369.1247952101
21
67.5812475460
31
0.0000000000
11
369.1391924883
21
67.6355291636
31
0.0000000000
11
369.1697456618
21
67.7299650724
31
0.0000000000
0
SPLINE
5
47A
100
AcDbEntity
8
0
100
AcDbSpline
62
7
6
CONTINUOUS
70
0
71
3
72
8
73
4
74
2
42
0.0000001000
43
0.0000001000
44
0.0000000001
40
0.0000000000
40
0.0000000000
40
0.0000000000
40
0.0000000000
40
1.0000000000
40
1.0000000000
40
1.0000000000
40
1.0000000000
10
369.1697456618
20
67.7299650724
30
0.0000000000
10
369.1778306163
20
67.7529642664
30
0.0000000000
10
369.1862715980
20
67.7752128108
30
0.0000000000
10
369.1951013400
20
67.7970102651
30
0.0000000000
11
369.1697456618
21
67.7299650724
31
0.0000000000
11
369.1951013400
21
67.7970102651
31
0.0000000000
0
SPLINE
5
47B
100
AcDbEntity
8
0
100
AcDbSpline
62
7
6
CONTINUOUS
70
0
71
3
72
12
73
8
74
6
42
0.0000001000
43
0.0000001000
44
0.0000000001
40
0.0000000000
40
0.0000000000
40
0.0000000000
40
0.0000000000
40
0.0722994969
40
0.2686028989
40
0.5448546706
40
0.8798722641
40
1.0000000000
40
1.0000000000
40
1.0000000000
40
1.0000000000
10
369.1951013400
20
67.7970102651
30
0.0000000000
10
369.2064861903
20
67.8251153624
30
0.0000000000
10
369.2511836577
20
67.9267436861
30
0.0000000000
10
369.3619110052
20
68.1298760805
30
0.0000000000
10
369.5699929303
20
68.3995387566
30
0.0000000000
10
369.8032121140
20
68.6036335734
30
0.0000000000
10
369.9646256050
20
68.7077186745
30
0.0000000000
10
370.0082053649
20
68.7335177664
30
0.0000000000
11
369.1951013400
21
67.7970102651
31
0.0000000000
11
369.2312649851
21
67.8797178882
31
0.0000000000
11
369.3501029545
21
68.0968974783
31
0.0000000000
11
369.5624923426
21
68.3730655241
31
0.0000000000
11
369.8805552320
21
68.6511789767
31
0.0000000000
11
370.0082053649
21
68.7335177664
31
0.0000000000
0
SPLINE
5
47C
100
AcDbEntity
8
0
100
AcDbSpline
62
7
6
CONTINUOUS
70
0
71
3
72
13
73
9
74
7
42
0.0000001000
43
0.0000001000
44
0.0000000001
40
0.0000000000
40
0.0000000000
40
0.0000000000
40
0.0000000000
40
0.0828112941
40
0.2585057565
40
0.4488722295
40
0.6556041697
40
0.8803523511
40
1.0000000000
40
1.0000000000
40
1.0000000000
40
1.0000000000
10
372.5292128720
20
70.7125327449
30
0.0000000000
10
372.5703270712
20
70.7548204417
30
0.0000000000
10
372.6976971411
20
70.8877731185
30
0.0000000000
10
372.9135141384
20
71.1236855837
30
0.0000000000
10
373.1789642630
20
71.4335492605
30
0.0000000000
10
373.4550861412
20
71.7799366552
30
0.0000000000
10
373.6878464028
20
72.0961186818
30
0.0000000000
10
373.8271498497
20
72.2980340047
30
0.0000000000
10
373.8747935820
20
72.3686903340
30
0.0000000000
11
372.5292128720
21
70.7125327449
31
0.0000000000
11
372.6516158934
21
70.8403007385
31
0.0000000000
11
372.9049953651
21
71.1172733162
31
0.0000000000
11
373.1696099148
21
71.4261617204
31
0.0000000000
11
373.4449368213
21
71.7715522008
31
0.0000000000
11
373.7296162520
21
72.1582611852
31
0.0000000000
11
373.8747935820
21
72.3686903340
31
0.0000000000
0
SPLINE
5
47D
100
AcDbEntity
8
0
100
AcDbSpline
62
7
6
CONTINUOUS
70
0
71
3
72
10
73
6
74
4
42
0.0000001000
43
0.0000001000
44
0.0000000001
40
0.0000000000
40
0.0000000000
40
0.0000000000
40
0.0000000000
40
0.4701336297
40
0.8808688631
40
1.0000000000
40
1.0000000000
40
1.0000000000
40
1.0000000000
10
356.8074415399
20
191.7897959854
30
0.0000000000
10
356.5300454534
20
191.8803598667
30
0.0000000000
10
356.0087334794
20
192.0451284178
30
0.0000000000
10
355.4092506631
20
192.2075465225
30
0.0000000000
10
355.0850065823
20
192.2663659671
30
0.0000000000
10
355.0118521117
20
192.2779200781
30
0.0000000000
11
356.8074415399
21
191.7897959854
31
0.0000000000
11
355.9716567498
21
192.0500578668
31
0.0000000000
11
355.2304742020
21
192.2385399371
31
0.0000000000
11
355.0118521117
21
192.2779200781
31
0.0000000000
0
SPLINE
5
47E
100
AcDbEntity
8
0
100
AcDbSpline
62
7
6
CONTINUOUS
70
0
71
3
72
9
73
5
74
3
42
0.0000001000
43
0.0000001000
44
0.0000000001
40
0.0000000000
40
0.0000000000
40
0.0000000000
40
0.0000000000
40
0.3079329752
40
1.0000000000
40
1.0000000000
40
1.0000000000
40
1.0000000000
10
358.0236542705
20
191.4614140553
30
0.0000000000
10
357.9309841797
20
191.4883688546
30
0.0000000000
10
357.6294740010
20
191.5739652092
30
0.0000000000
10
357.3264242587
20
191.6539387016
30
0.0000000000
10
357.1162136463
20
191.7073934283
30
0.0000000000
11
358.0236542705
21
191.4614140553
31
0.0000000000
11
357.7451483414
21
191.5405515598
31
0.0000000000
11
357.1162136463
21
191.7073934283
31
0.0000000000
0
SPLINE
5
47F
100
AcDbEntity
8
0
100
AcDbSpline
62
7
6
CONTINUOUS
70
0
71
3
72
8
73
4
74
2
42
0.0000001000
43
0.0000001000
44
0.0000000001
40
0.0000000000
40
0.0000000000
40
0.0000000000
40
0.0000000000
40
1.0000000000
40
1.0000000000
40
1.0000000000
40
1.0000000000
10
357.1162136463
20
191.7073934283
30
0.0000000000
10
357.0581556616
20
191.7221570678
30
0.0000000000
10
357.0000610713
20
191.7367763621
30
0.0000000000
10
356.9419317425
20
191.7512558948
30
0.0000000000
11
357.1162136463
21
191.7073934283
31
0.0000000000
11
356.9419317425
21
191.7512558948
31
0.0000000000
0
SPLINE
5
480
100
AcDbEntity
8
0
100
AcDbSpline
62
7
6
CONTINUOUS
70
0
71
3
72
18
73
14
74
12
42
0.0000001000
43
0.0000001000
44
0.0000000001
40
0.0000000000
40
0.0000000000
40
0.0000000000
40
0.0000000000
40
0.0700271565
40
0.1429294823
40
0.2194814147
40
0.3005797376
40
0.3871172684
40
0.4799867729
40
0.5800791645
40
0.6882813649
40
0.8054736350
40
0.9325182548
40
1.0000000000
40
1.0000000000
40
1.0000000000
40
1.0000000000
10
329.8379782480
20
68.7362500930
30
0.0000000000
10
329.8066943896
20
68.7546658210
30
0.0000000000
10
329.7430125075
20
68.7925435122
30
0.0000000000
10
329.6457661414
20
68.8516112194
30
0.0000000000
10
329.5442196190
20
68.9146445419
30
0.0000000000
10
329.4373545183
20
68.9825004567
30
0.0000000000
10
329.3241405997
20
69.0561243907
30
0.0000000000
10
329.2035977085
20
69.1365228361
30
0.0000000000
10
329.0748038309
20
69.2247704017
30
0.0000000000
10
328.9369075257
20
69.3220155438
30
0.0000000000
10
328.7891458171
20
69.4294836451
30
0.0000000000
10
328.6599765114
20
69.5265925454
30
0.0000000000
10
328.5801413531
20
69.5882028872
30
0.0000000000
10
328.5525402957
20
69.6096964095
30
0.0000000000
11
329.8379782480
21
68.7362500930
31
0.0000000000
11
329.7443784203
21
68.7919227237
31
0.0000000000
11
329.6474765298
21
68.8507811214
31
0.0000000000
11
329.5463266539
21
68.9135681995
31
0.0000000000
11
329.4398542334
21
68.9811747774
31
0.0000000000
11
329.3270306856
21
69.0545448905
31
0.0000000000
11
329.2068749581
21
69.1346851813
31
0.0000000000
11
329.0784640168
21
69.2226704570
31
0.0000000000
11
328.9409451908
21
69.3196494877
31
0.0000000000
11
328.7935506898
21
69.4268505723
31
0.0000000000
11
328.6356243721
21
69.5455788348
31
0.0000000000
11
328.5525402957
21
69.6096964095
31
0.0000000000
0
SPLINE
5
481
100
AcDbEntity
8
0
100
AcDbSpline
62
7
6
CONTINUOUS
70
0
71
3
72
11
73
7
74
5
42
0.0000001000
43
0.0000001000
44
0.0000000001
40
0.0000000000
40
0.0000000000
40
0.0000000000
40
0.0000000000
40
0.2698776708
40
0.5254581639
40
0.7684897465
40
1.0000000000
40
1.0000000000
40
1.0000000000
40
1.0000000000
10
321.5508192883
20
313.6608831512
30
0.0000000000
10
321.5855929095
20
313.7704993544
30
0.0000000000
10
321.6498228120
20
313.9850352128
30
0.0000000000
10
321.7363403199
20
314.3008819217
30
0.0000000000
10
321.8144260000
20
314.6020457515
30
0.0000000000
10
321.8642452273
20
314.7980229593
30
0.0000000000
10
321.8887076351
20
314.8935924752
30
0.0000000000
11
321.5508192883
21
313.6608831512
31
0.0000000000
11
321.6502321885
21
313.9912485943
31
0.0000000000
11
321.7370152043
21
314.3062343438
31
0.0000000000
11
321.8154136265
21
314.6068600841
31
0.0000000000
11
321.8887076351
21
314.8935924752
31
0.0000000000
0
SPLINE
5
482
100
AcDbEntity
8
0
100
AcDbSpline
62
7
6
CONTINUOUS
70
0
71
3
72
14
73
10
74
8
42
0.0000001000
43
0.0000001000
44
0.0000000001
40
0.0000000000
40
0.0000000000
40
0.0000000000
40
0.0000000000
40
0.0660761141
40
0.2065393995
40
0.3588898236
40
0.5241158243
40
0.7032071375
40
0.8971535672
40
1.0000000000
40
1.0000000000
40
1.0000000000
40
1.0000000000
10
371.2982410720
20
69.6096964095
30
0.0000000000
10
371.3269845151
20
69.6320795314
30
0.0000000000
10
371.4165115998
20
69.7024534765
30
0.0000000000
10
371.5703263243
20
69.8269444173
30
0.0000000000
10
371.7633913590
20
69.9897588535
30
0.0000000000
10
371.9688272165
20
70.1708454019
30
0.0000000000
10
372.1867524875
20
70.3723283872
30
0.0000000000
10
372.3747827465
20
70.5553586819
30
0.0000000000
10
372.4896845380
20
70.6718761777
30
0.0000000000
10
372.5292128720
20
70.7125327449
30
0.0000000000
11
371.2982410720
21
69.6096964095
31
0.0000000000
11
371.3841644404
21
69.6772376000
31
0.0000000000
11
371.5647544905
21
69.8233992466
31
0.0000000000
11
371.7573887462
21
69.9858504014
31
0.0000000000
11
371.9623974818
21
70.1665605066
31
0.0000000000
11
372.1798998899
21
70.3676526200
31
0.0000000000
11
372.4097674815
21
70.5914078157
31
0.0000000000
11
372.5292128720
21
70.7125327449
31
0.0000000000
0
SPLINE
5
483
100
AcDbEntity
8
0
100
AcDbSpline
62
7
6
CONTINUOUS
70
0
71
3
72
9
73
5
74
3
42
0.0000001000
43
0.0000001000
44
0.0000000001
40
0.0000000000
40
0.0000000000
40
0.0000000000
40
0.0000000000
40
0.3191004554
40
1.0000000000
40
1.0000000000
40
1.0000000000
40
1.0000000000
10
373.8747935820
20
72.3686903340
30
0.0000000000
10
373.9245104834
20
72.4424212025
30
0.0000000000
10
374.0777471847
20
72.6752142014
30
0.0000000000
10
374.2228265382
20
72.9132756437
30
0.0000000000
10
374.3176961720
20
73.0775947090
30
0.0000000000
11
373.8747935820
21
72.3686903340
31
0.0000000000
11
374.0214756630
21
72.5915263662
31
0.0000000000
11
374.3176961720
21
73.0775947090
31
0.0000000000
0
SPLINE
5
484
100
AcDbEntity
8
0
100
AcDbSpline
62
7
6
CONTINUOUS
70
0
71
3
72
9
73
5
74
3
42
0.0000001000
43
0.0000001000
44
0.0000000001
40
0.0000000000
40
0.0000000000
40
0.0000000000
40
0.0000000000
40
0.4977862987
40
1.0000000000
40
1.0000000000
40
1.0000000000
40
1.0000000000
10
365.3170969752
20
134.2455427855
30
0.0000000000
10
365.3374273112
20
134.3991202722
30
0.0000000000
10
365.3874428121
20
134.7064939226
30
0.0000000000
10
365.4554850782
20
135.0103836430
30
0.0000000000
10
365.4940708639
20
135.1618409378
30
0.0000000000
11
365.3170969752
21
134.2455427855
31
0.0000000000
11
365.3916882471
21
134.7042697685
31
0.0000000000
11
365.4940708639
21
135.1618409378
31
0.0000000000
0
SPLINE
5
485
100
AcDbEntity
8
0
100
AcDbSpline
62
7
6
CONTINUOUS
70
0
71
3
72
15
73
11
74
9
42
0.0000001000
43
0.0000001000
44
0.0000000001
40
0.0000000000
40
0.0000000000
40
0.0000000000
40
0.0000000000
40
0.0211945717
40
0.0798503942
40
0.1735683641
40
0.2983641146
40
0.4492978038
40
0.6207435488
40
0.8065950613
40
1.0000000000
40
1.0000000000
40
1.0000000000
40
1.0000000000
10
377.2921424181
20
326.9365513736
30
0.0000000000
10
377.3024098890
20
326.9399327331
30
0.0000000000
10
377.3802726211
20
326.7386986232
30
0.0000000000
10
377.4251451680
20
326.5232272297
30
0.0000000000
10
377.5397182983
20
326.0299201454
30
0.0000000000
10
377.6414049301
20
325.4314867862
30
0.0000000000
10
377.7483829031
20
324.6793583814
30
0.0000000000
10
377.8360097686
20
323.8286989656
30
0.0000000000
10
377.8985394661
20
322.9016493487
30
0.0000000000
10
377.9183376946
20
322.2625555344
30
0.0000000000
10
377.9227754584
20
321.9365342610
30
0.0000000000
11
377.2921424181
21
326.9365513736
31
0.0000000000
11
377.3397126547
21
326.8402998040
31
0.0000000000
11
377.4195767331
21
326.5545977870
31
0.0000000000
11
377.5213197108
21
326.0916634274
31
0.0000000000
11
377.6321768255
21
325.4703148927
31
0.0000000000
11
377.7387542944
21
324.7144374222
31
0.0000000000
11
377.8286829505
21
323.8520186100
31
0.0000000000
11
377.8920950273
21
322.9142074127
31
0.0000000000
11
377.9227754584
21
321.9365342610
31
0.0000000000
0
SPLINE
5
486
100
AcDbEntity
8
0
100
AcDbSpline
62
7
6
CONTINUOUS
70
0
71
3
72
9
73
5
74
3
42
0.0000001000
43
0.0000001000
44
0.0000000001
40
0.0000000000
40
0.0000000000
40
0.0000000000
40
0.0000000000
40
0.3191004554
40
1.0000000000
40
1.0000000000
40
1.0000000000
40
1.0000000000
10
325.9759877857
20
72.3686903340
30
0.0000000000
10
325.9262708843
20
72.4424212025
30
0.0000000000
10
325.7730341830
20
72.6752142014
30
0.0000000000
10
325.6279548295
20
72.9132756437
30
0.0000000000
10
325.5330851957
20
73.0775947090
30
0.0000000000
11
325.9759877857
21
72.3686903340
31
0.0000000000
11
325.8293057047
21
72.5915263662
31
0.0000000000
11
325.5330851957
21
73.0775947090
31
0.0000000000
0
SPLINE
5
487
100
AcDbEntity
8
0
100
AcDbSpline
62
7
6
CONTINUOUS
70
0
71
3
72
15
73
11
74
9
42
0.0000001000
43
0.0000001000
44
0.0000000001
40
0.0000000000
40
0.0000000000
40
0.0000000000
40
0.0000000000
40
0.1934049387
40
0.3792564512
40
0.5507021962
40
0.7016358854
40
0.8264316359
40
0.9201496058
40
0.9788054283
40
1.0000000000
40
1.0000000000
40
1.0000000000
40
1.0000000000
10
321.9280059094
20
321.9365342610
30
0.0000000000
10
321.9324436731
20
322.2625555344
30
0.0000000000
10
321.9522419016
20
322.9016493487
30
0.0000000000
10
322.0147715992
20
323.8286989656
30
0.0000000000
10
322.1023984646
20
324.6793583814
30
0.0000000000
10
322.2093764377
20
325.4314867862
30
0.0000000000
10
322.3110630694
20
326.0299201454
30
0.0000000000
10
322.4256361997
20
326.5232272297
30
0.0000000000
10
322.4705087466
20
326.7386986232
30
0.0000000000
10
322.5483714787
20
326.9399327331
30
0.0000000000
10
322.5586389496
20
326.9365513736
30
0.0000000000
11
321.9280059094
21
321.9365342610
31
0.0000000000
11
321.9586863404
21
322.9142074127
31
0.0000000000
11
322.0220984172
21
323.8520186100
31
0.0000000000
11
322.1120270733
21
324.7144374222
31
0.0000000000
11
322.2186045422
21
325.4703148927
31
0.0000000000
11
322.3294616569
21
326.0916634274
31
0.0000000000
11
322.4312046346
21
326.5545977870
31
0.0000000000
11
322.5110687130
21
326.8402998040
31
0.0000000000
11
322.5586389496
21
326.9365513736
31
0.0000000000
0
SPLINE
5
488
100
AcDbEntity
8
0
100
AcDbSpline
62
7
6
CONTINUOUS
70
0
71
3
72
9
73
5
74
3
42
0.0000001000
43
0.0000001000
44
0.0000000001
40
0.0000000000
40
0.0000000000
40
0.0000000000
40
0.0000000000
40
0.4991870161
40
1.0000000000
40
1.0000000000
40
1.0000000000
40
1.0000000000
10
321.9253906839
20
321.5508869230
30
0.0000000000
10
321.9253906843
20
321.6150588180
30
0.0000000000
10
321.9258227303
20
321.7436120003
30
0.0000000000
10
321.9271296450
20
321.8721593068
30
0.0000000000
10
321.9280059094
20
321.9365342610
30
0.0000000000
11
321.9253906839
21
321.5508869230
31
0.0000000000
11
321.9260400343
21
321.7434015128
31
0.0000000000
11
321.9280059094
21
321.9365342610
31
0.0000000000
0
SPLINE
5
489
100
AcDbEntity
8
0
100
AcDbSpline
62
7
6
CONTINUOUS
70
0
71
3
72
8
73
4
74
2
42
0.0000001000
43
0.0000001000
44
0.0000000001
40
0.0000000000
40
0.0000000000
40
0.0000000000
40
0.0000000000
40
1.0000000000
40
1.0000000000
40
1.0000000000
40
1.0000000000
10
377.9227754584
20
321.9365342610
30
0.0000000000
10
377.9236517300
20
321.8721587766
30
0.0000000000
10
377.9243062534
20
321.8077800862
30
0.0000000000
10
377.9247413442
20
321.7433999221
30
0.0000000000
11
377.9227754584
21
321.9365342610
31
0.0000000000
11
377.9247413442
21
321.7433999221
31
0.0000000000
0
SPLINE
5
48A
100
AcDbEntity
8
0
100
AcDbSpline
62
7
6
CONTINUOUS
70
0
71
3
72
8
73
4
74
2
42
0.0000001000
43
0.0000001000
44
0.0000000001
40
0.0000000000
40
0.0000000000
40
0.0000000000
40
0.0000000000
40
1.0000000000
40
1.0000000000
40
1.0000000000
40
1.0000000000
10
377.9247413442
20
321.7433999221
30
0.0000000000
10
377.9249583959
20
321.7112828921
30
0.0000000000
10
377.9251208382
20
321.6791654954
30
0.0000000000
10
377.9252289638
20
321.6470479387
30
0.0000000000
11
377.9247413442
21
321.7433999221
31
0.0000000000
11
377.9252289638
21
321.6470479387
31
0.0000000000
0
SPLINE
5
48B
100
AcDbEntity
8
0
100
AcDbSpline
62
7
6
CONTINUOUS
70
0
71
3
72
8
73
4
74
2
42
0.0000001000
43
0.0000001000
44
0.0000000001
40
0.0000000000
40
0.0000000000
40
0.0000000000
40
0.0000000000
40
1.0000000000
40
1.0000000000
40
1.0000000000
40
1.0000000000
10
377.9252289638
20
321.6470479387
30
0.0000000000
10
377.9253368739
20
321.6149943852
30
0.0000000000
10
377.9253906836
20
321.5829406723
30
0.0000000000
10
377.9253906839
20
321.5508870055
30
0.0000000000
11
377.9252289638
21
321.6470479387
31
0.0000000000
11
377.9253906839
21
321.5508870055
31
0.0000000000
0
SPLINE
5
48C
100
AcDbEntity
8
0
100
AcDbSpline
62
7
6
CONTINUOUS
70
0
71
3
72
14
73
10
74
8
42
0.0000001000
43
0.0000001000
44
0.0000000001
40
0.0000000000
40
0.0000000000
40
0.0000000000
40
0.0000000000
40
0.0660761141
40
0.2065393995
40
0.3588898236
40
0.5241158243
40
0.7032071375
40
0.8971535672
40
1.0000000000
40
1.0000000000
40
1.0000000000
40
1.0000000000
10
328.5525402957
20
69.6096964095
30
0.0000000000
10
328.5237968527
20
69.6320795314
30
0.0000000000
10
328.4342697679
20
69.7024534765
30
0.0000000000
10
328.2804550434
20
69.8269444173
30
0.0000000000
10
328.0873900087
20
69.9897588535
30
0.0000000000
10
327.8819541513
20
70.1708454019
30
0.0000000000
10
327.6640288802
20
70.3723283872
30
0.0000000000
10
327.4759986212
20
70.5553586819
30
0.0000000000
10
327.3610968297
20
70.6718761777
30
0.0000000000
10
327.3215684958
20
70.7125327449
30
0.0000000000
11
328.5525402957
21
69.6096964095
31
0.0000000000
11
328.4666169273
21
69.6772376000
31
0.0000000000
11
328.2860268772
21
69.8233992466
31
0.0000000000
11
328.0933926215
21
69.9858504014
31
0.0000000000
11
327.8883838859
21
70.1665605066
31
0.0000000000
11
327.6708814778
21
70.3676526200
31
0.0000000000
11
327.4410138862
21
70.5914078157
31
0.0000000000
11
327.3215684958
21
70.7125327449
31
0.0000000000
0
SPLINE
5
48D
100
AcDbEntity
8
0
100
AcDbSpline
62
7
6
CONTINUOUS
70
0
71
3
72
10
73
6
74
4
42
0.0000001000
43
0.0000001000
44
0.0000000001
40
0.0000000000
40
0.0000000000
40
0.0000000000
40
0.0000000000
40
0.3347726282
40
0.6695076468
40
1.0000000000
40
1.0000000000
40
1.0000000000
40
1.0000000000
10
330.7832751734
20
67.4136602749
30
0.0000000000
10
330.7460325977
20
67.5952826497
30
0.0000000000
10
330.6198839909
20
67.9500290452
30
0.0000000000
10
330.2942420730
20
68.4061899930
30
0.0000000000
10
330.0012923434
20
68.6387548843
30
0.0000000000
10
329.8438510291
20
68.7321476320
30
0.0000000000
11
330.7832751734
21
67.4136602749
31
0.0000000000
11
330.5969065372
21
67.9377117988
31
0.0000000000
11
330.2735353662
21
68.3901770994
31
0.0000000000
11
329.8438510291
21
68.7321476320
31
0.0000000000
0
SPLINE
5
48E
100
AcDbEntity
8
0
100
AcDbSpline
62
7
6
CONTINUOUS
70
0
71
3
72
10
73
6
74
4
42
0.0000001000
43
0.0000001000
44
0.0000000001
40
0.0000000000
40
0.0000000000
40
0.0000000000
40
0.0000000000
40
0.3345124414
40
0.6689873025
40
1.0000000000
40
1.0000000000
40
1.0000000000
40
1.0000000000
10
369.0675061943
20
67.4136602749
30
0.0000000000
10
369.1047487701
20
67.5952826497
30
0.0000000000
10
369.2308973768
20
67.9500290452
30
0.0000000000
10
369.5567925819
20
68.4065447991
30
0.0000000000
10
369.8501741844
20
68.6392986347
30
0.0000000000
10
370.0080421438
20
68.7328066593
30
0.0000000000
11
369.0675061943
21
67.4136602749
31
0.0000000000
11
369.2538748306
21
67.9377117988
31
0.0000000000
11
369.5772460015
21
68.3901770994
31
0.0000000000
11
370.0080421438
21
68.7328066593
31
0.0000000000
0
ENDSEC
0
SECTION
2
OBJECTS
0
DICTIONARY
5
48F
100
AcDbDictionary
3
ACAD_GROUP
350
490
3
ACAD_MLINESTYLE
350
491
0
DICTIONARY
5
490
102
{ACAD_REACTORS
330
48F
102
}
100
AcDbDictionary
0
DICTIONARY
5
491
102
{ACAD_REACTORS
330
48F
102
}
100
AcDbDictionary
3
STANDARD
350
492
0
MLINESTYLE
5
492
102
{ACAD_REACTORS
330
491
102
}
100
AcDbMlineStyle
2
STANDARD
70
0
3

62
256
51
90.0
52
90.0
71
2
49
0.5
62
256
6
BYLAYER
49
-0.5
62
256
6
BYLAYER
0
ENDSEC
0
EOF
