999
DXF file: 2-VCGH-28.dxf
999
Pro/ENGINEER 2010140 by Parametric Technology Corporation
  0
SECTION
  2
HEADER
  9
$ACADVER
  1
AC1021
  9
$DWGCODEPAGE
  3
ANSI_1252
  9
$EXTMAX
 10
420.0
 20
297.0
 30
0.0
  9
$EXTMIN
 10
0.0
 20
0.0
 30
0.0
  9
$LIMMIN
 10
0.0
 20
0.0
  9
$LIMMAX
 10
420.0
 20
297.0
  9
$VIEWCTR
 10
210.0
 20
148.5
  9
$VIEWSIZE
 40
297.0
  9
$CLAYER
  8
0
  9
$LTSCALE
 40
23.1
  9
$CELTYPE
  6
BYLAYER
  9
$DIMSCALE
 40
1.0
  9
$DIMASZ
 40
3.5
  9
$DIMEXO
 40
2.625
  9
$DIMDLI
 40
15.96
  9
$DIMEXE
 40
7.56
  9
$DIMCEN
 40
3.78
  9
$DIMLFAC
 40
1.0
  9
$DIMBLK
  1
_FILLED
  9
$DIMTXT
 40
3.5
  9
$DIMTOL
 70
1
  9
$DIMLIM
 70
0
  9
$DIMTFAC
 40
1.0
  9
$DIMTP
 40
0.005
  9
$DIMTM
 40
0.005
  9
$PDMODE
 70
3
  9
$PDSIZE
 40
0.3125
  9
$HANDSEED
  5
8EB
  9
$TILEMODE
 70
1
  9
$MEASUREMENT
 70
1
  9
$INSUNITS
 70
4
  0
ENDSEC
  0
SECTION
  2
CLASSES
  0
CLASS
  1
ACDBDICTIONARYWDFLT
  2
AcDbDictionaryWithDefault
  3
AutoCAD 2000
 90
0
 91
1
280
0
281
0
  0
CLASS
  1
ACDBPLACEHOLDER
  2
AcDbPlaceHolder
  3
AutoCAD 2000
 90
0
 91
1
280
0
281
0
  0
CLASS
  1
LAYOUT
  2
AcDbLayout
  3
AutoCAD 2000
 90
0
 91
0
280
0
281
0
  0
ENDSEC
  0
SECTION
  2
TABLES
  0
TABLE
  2
VPORT
  5
8
100
AcDbSymbolTable
 70
2
  0
VPORT
  5
1F4
100
AcDbSymbolTableRecord
100
AcDbViewportTableRecord
  2
*ACTIVE
 70
0
 10
0.0
 20
0.0
 11
1.0
 21
1.0
 12
210.0
 22
148.5
 13
0.0
 23
0.0
 14
1.0
 24
1.0
 15
0.0
 25
0.0
 16
0.0
 26
0.0
 36
1.0
 17
0.0
 27
0.0
 37
0.0
 40
297.0
 41
1.4141414141
 42
50.0
 43
0.0
 44
0.0
 50
0.0
 51
0.0
 71
0
 72
100
 73
1
 74
1
 75
0
 76
0
 77
0
 78
0
  0
ENDTAB
  0
TABLE
  2
LTYPE
  5
5
100
AcDbSymbolTable
 70
6
  0
LTYPE
  5
14
100
AcDbSymbolTableRecord
100
AcDbLinetypeTableRecord
  2
BYBLOCK
 70
0
  3

 72
65
 73
0
 40
0.0
  0
LTYPE
  5
15
100
AcDbSymbolTableRecord
100
AcDbLinetypeTableRecord
  2
BYLAYER
 70
0
  3

 72
65
 73
0
 40
0.0
  0
LTYPE
  5
16
100
AcDbSymbolTableRecord
100
AcDbLinetypeTableRecord
  2
CONTINUOUS
 70
64
  3
Solid line
 72
65
 73
0
 40
0.0
  0
LTYPE
  5
1F5
100
AcDbSymbolTableRecord
100
AcDbLinetypeTableRecord
  2
CENTER
 70
64
  3
____ _ ____ _ ____ _ ____ _ ____ _ ____ _ ____
 72
65
 73
4
 40
0.6
 49
0.375
 74
0
 49
-0.075
 74
0
 49
0.075
 74
0
 49
-0.075
 74
0
  0
LTYPE
  5
1F6
100
AcDbSymbolTableRecord
100
AcDbLinetypeTableRecord
  2
HIDDEN
 70
64
  3
- - - - - - - - - - - - - - - - - - - -
 72
65
 73
2
 40
0.2
 49
0.1
 74
0
 49
-0.1
 74
0
  0
LTYPE
  5
1F7
100
AcDbSymbolTableRecord
100
AcDbLinetypeTableRecord
  2
PHANTOM
 70
64
  3
_____ _ _ _____ _ _ _____ _ _ _____
 72
65
 73
6
 40
0.8
 49
0.45
 74
0
 49
-0.05
 74
0
 49
0.1
 74
0
 49
-0.05
 74
0
 49
0.1
 74
0
 49
-0.05
 74
0
  0
LTYPE
  5
1F8
100
AcDbSymbolTableRecord
100
AcDbLinetypeTableRecord
  2
DOT
 70
64
  3
. . . . . . . . . . . . . . . . . . . .
 72
65
 73
2
 40
0.2
 49
0.1
 74
0
 49
-0.1
 74
0
  0
LTYPE
  5
1F9
100
AcDbSymbolTableRecord
100
AcDbLinetypeTableRecord
  2
DASHED
 70
64
  3
- - - - - - - - - - - - - - - - - - - -
 72
65
 73
2
 40
0.2
 49
0.1
 74
0
 49
-0.1
 74
0
  0
ENDTAB
  0
TABLE
  2
LAYER
  5
2
100
AcDbSymbolTable
 70
36
  0
LAYER
  5
10
100
AcDbSymbolTableRecord
100
AcDbLayerTableRecord
  2
0
 70
0
 62
7
  6
CONTINUOUS
370
-3
390
F
  0
LAYER
  5
1FA
100
AcDbSymbolTableRecord
100
AcDbLayerTableRecord
  2
DEFAULT_1
 70
0
 62
7
  6
CENTER
370
-3
390
F
  0
LAYER
  5
1FB
100
AcDbSymbolTableRecord
100
AcDbLayerTableRecord
  2
DEFAULT_2
 70
0
 62
8
  6
HIDDEN
370
-3
390
F
  0
LAYER
  5
1FC
100
AcDbSymbolTableRecord
100
AcDbLayerTableRecord
  2
DEFAULT_3
 70
0
 62
7
  6
PHANTOM
370
-3
390
F
  0
LAYER
  5
1FD
100
AcDbSymbolTableRecord
100
AcDbLayerTableRecord
  2
AUSFORMSCHRAEGEN
 70
0
 62
7
  6
CONTINUOUS
370
-3
390
F
  0
LAYER
  5
1FE
100
AcDbSymbolTableRecord
100
AcDbLayerTableRecord
  2
BEZUGSACHSEN
 70
0
 62
7
  6
CONTINUOUS
370
-3
390
F
  0
LAYER
  5
1FF
100
AcDbSymbolTableRecord
100
AcDbLayerTableRecord
  2
BEZUGSEBENEN
 70
0
 62
7
  6
CONTINUOUS
370
-3
390
F
  0
LAYER
  5
200
100
AcDbSymbolTableRecord
100
AcDbLayerTableRecord
  2
BG_STARTBEZUEGE
 70
0
 62
7
  6
CONTINUOUS
370
-3
390
F
  0
LAYER
  5
201
100
AcDbSymbolTableRecord
100
AcDbLayerTableRecord
  2
BOHRUNGEN
 70
0
 62
7
  6
CONTINUOUS
370
-3
390
F
  0
LAYER
  5
202
100
AcDbSymbolTableRecord
100
AcDbLayerTableRecord
  2
FASEN
 70
0
 62
7
  6
CONTINUOUS
370
-3
390
F
  0
LAYER
  5
203
100
AcDbSymbolTableRecord
100
AcDbLayerTableRecord
  2
FLAECHEN
 70
0
 62
7
  6
CONTINUOUS
370
-3
390
F
  0
LAYER
  5
204
100
AcDbSymbolTableRecord
100
AcDbLayerTableRecord
  2
HILFEN
 70
0
 62
7
  6
CONTINUOUS
370
-3
390
F
  0
LAYER
  5
205
100
AcDbSymbolTableRecord
100
AcDbLayerTableRecord
  2
KONSTRUKTIONSELEMENTE
 70
0
 62
7
  6
CONTINUOUS
370
-3
390
F
  0
LAYER
  5
206
100
AcDbSymbolTableRecord
100
AcDbLayerTableRecord
  2
KURVEN
 70
0
 62
7
  6
CONTINUOUS
370
-3
390
F
  0
LAYER
  5
207
100
AcDbSymbolTableRecord
100
AcDbLayerTableRecord
  2
PLATZIERUNG
 70
0
 62
7
  6
CONTINUOUS
370
-3
390
F
  0
LAYER
  5
208
100
AcDbSymbolTableRecord
100
AcDbLayerTableRecord
  2
PLAZIERUNG
 70
0
 62
7
  6
CONTINUOUS
370
-3
390
F
  0
LAYER
  5
209
100
AcDbSymbolTableRecord
100
AcDbLayerTableRecord
  2
RUNDUNGEN
 70
0
 62
7
  6
CONTINUOUS
370
-3
390
F
  0
LAYER
  5
20A
100
AcDbSymbolTableRecord
100
AcDbLayerTableRecord
  2
TEIL_STARTBEZUEGE
 70
0
 62
7
  6
CONTINUOUS
370
-3
390
F
  0
LAYER
  5
20B
100
AcDbSymbolTableRecord
100
AcDbLayerTableRecord
  2
XSEC_DATUMS
 70
0
 62
7
  6
CONTINUOUS
370
-3
390
F
  0
LAYER
  5
20C
100
AcDbSymbolTableRecord
100
AcDbLayerTableRecord
  2
ZEICHNUNGSBEMASSUNGEN
 70
0
 62
7
  6
CONTINUOUS
370
-3
390
F
  0
ENDTAB
  0
TABLE
  2
STYLE
  5
3
100
AcDbSymbolTable
 70
1
  0
STYLE
  5
11
100
AcDbSymbolTableRecord
100
AcDbTextStyleTableRecord
  2
STANDARD
 70
0
 40
0.0
 41
0.7
 50
0.0
 71
0
 42
0.2
  3
txt
  4

  0
STYLE
  5
20D
100
AcDbSymbolTableRecord
100
AcDbTextStyleTableRecord
  2
TEXTSTYLE_1
 70
0
 40
0.0
 41
0.8
 50
0.0
 71
0
 42
0.2
  3
gdt
  4

  0
ENDTAB
  0
TABLE
  2
VIEW
  5
6
100
AcDbSymbolTable
 70
0
  0
ENDTAB
  0
TABLE
  2
UCS
  5
7
100
AcDbSymbolTable
 70
0
  0
ENDTAB
  0
TABLE
  2
APPID
  5
9
100
AcDbSymbolTable
 70
1
  0
APPID
  5
20E
100
AcDbSymbolTableRecord
100
AcDbRegAppTableRecord
  2
ACAD
 70
0
  0
ENDTAB
  0
TABLE
  2
BLOCK_RECORD
  5
1
100
AcDbSymbolTable
 70
0
  0
BLOCK_RECORD
  5
20F
100
AcDbSymbolTableRecord
100
AcDbBlockTableRecord
  2
*Model_Space
  0
BLOCK_RECORD
  5
210
100
AcDbSymbolTableRecord
100
AcDbBlockTableRecord
  2
*Paper_Space
  0
ENDTAB
  0
TABLE
  2
DIMSTYLE
  5
A
100
AcDbSymbolTable
 70
1
100
AcDbDimStyleTable
 71
0
  0
DIMSTYLE
105
211
100
AcDbSymbolTableRecord
100
AcDbDimStyleTableRecord
  2
STANDARD
 70
0
  3

  4

 40
1.0
 41
3.5
 42
0.0625
 43
0.38
 44
0.18
 45
0.0
 46
0.0
 47
0.005
 48
0.005
140
3.5
141
0.09
142
0.0
143
25.4
144
1.0
145
0.0
146
1.0
147
0.09
 71
1.0
 72
0.0
 73
0
 74
0
 75
0
 76
0
 77
1
 78
8
170
0
171
2
172
0
173
0
174
0
175
0
176
0
177
0
178
5
270
2
271
3
272
3
273
2
274
2
275
0
280
0
281
0
282
0
283
1
284
8
285
0
286
0
287
3
288
0
340
11
  0
ENDTAB
  0
ENDSEC
  0
SECTION
  2
BLOCKS
  0
BLOCK
  5
20
100
AcDbEntity
  8
0
100
AcDbBlockBegin
  2
*Model_Space
 70
0
 10
0.0
 20
0.0
 30
0.0
  3
*Model_Space
  1

  0
ENDBLK
  5
21
100
AcDbEntity
  8
0
100
AcDbBlockEnd
  0
BLOCK
  5
1C
100
AcDbEntity
  8
0
100
AcDbBlockBegin
  2
*Paper_Space
 70
0
 10
0.0
 20
0.0
 30
0.0
  3
*Paper_Space
  1

  0
ENDBLK
  5
1D
100
AcDbEntity
  8
0
100
AcDbBlockEnd
  0
ENDSEC
  0
SECTION
  2
ENTITIES
  0
LINE
  5
212
100
AcDbEntity
  8
0
100
AcDbLine
 62
7
  6
CONTINUOUS
 10
0.0
 20
0.0
 11
0.0
 21
297.0
  0
LINE
  5
213
100
AcDbEntity
  8
0
100
AcDbLine
 62
7
  6
CONTINUOUS
 10
0.0
 20
0.0
 11
420.0
 21
0.0
  0
LINE
  5
214
100
AcDbEntity
  8
0
100
AcDbLine
 62
7
  6
CONTINUOUS
 10
0.0
 20
297.0
 11
420.0
 21
297.0
  0
LINE
  5
215
100
AcDbEntity
  8
0
100
AcDbLine
 62
7
  6
CONTINUOUS
 10
420.0
 20
0.0
 11
420.0
 21
297.0
  0
LINE
  5
216
100
AcDbEntity
  8
0
100
AcDbLine
 62
7
  6
CONTINUOUS
 10
168.7366472229
 20
432.6940364228
 11
155.8706396358
 21
426.6945185551
  0
LINE
  5
217
100
AcDbEntity
  8
0
100
AcDbLine
 62
7
  6
CONTINUOUS
 10
107.8035678369
 20
72.1721765904
 11
109.0984288952
 21
72.0520764411
  0
LINE
  5
218
100
AcDbEntity
  8
0
100
AcDbLine
 62
7
  6
CONTINUOUS
 10
108.7469532212
 20
70.1281708926
 11
107.155382079
 21
70.3540521375
  0
LINE
  5
219
100
AcDbEntity
  8
0
100
AcDbLine
 62
7
  6
CONTINUOUS
 10
91.8890747347
 20
79.3141354706
 11
93.1422209858
 21
78.9666901917
  0
LINE
  5
21A
100
AcDbEntity
  8
0
100
AcDbLine
 62
7
  6
CONTINUOUS
 10
92.4556871825
 20
77.135401909
 11
90.9292482913
 21
77.6394849094
  0
LINE
  5
21B
100
AcDbEntity
  8
0
100
AcDbLine
 62
7
  6
CONTINUOUS
 10
107.155382079
 20
70.3540521375
 11
100.0343946204
 21
72.8927796957
  0
LINE
  5
21C
100
AcDbEntity
  8
0
100
AcDbLine
 62
7
  6
CONTINUOUS
 10
102.462827243
 20
74.0762222591
 11
107.8035678369
 21
72.1721765904
  0
LINE
  5
21D
100
AcDbEntity
  8
0
100
AcDbLine
 62
7
  6
CONTINUOUS
 10
90.9292482913
 20
77.6394849094
 11
89.8360730955
 21
78.2660385825
  0
LINE
  5
21E
100
AcDbEntity
  8
0
100
AcDbLine
 62
7
  6
CONTINUOUS
 10
90.7958995389
 20
79.9406891437
 11
91.8890747347
 21
79.3141354706
  0
LINE
  5
21F
100
AcDbEntity
  8
0
100
AcDbLine
 62
7
  6
CONTINUOUS
 10
81.1984165052
 20
83.7037688809
 11
79.5042205293
 21
85.1150546934
  0
LINE
  5
220
100
AcDbEntity
  8
0
100
AcDbLine
 62
7
  6
CONTINUOUS
 10
73.4535224948
 20
90.1553596013
 11
72.0013549112
 21
91.3650328254
  0
LINE
  5
221
100
AcDbEntity
  8
0
100
AcDbLine
 62
7
  6
CONTINUOUS
 10
89.8360730955
 20
78.2660385825
 11
88.6295763428
 21
79.3283384204
  0
LINE
  5
222
100
AcDbEntity
  8
RUNDUNGEN
100
AcDbLine
 62
7
  6
CONTINUOUS
 10
14.8671688423
 20
172.2732497107
 11
33.4917640448
 21
97.5740783775
  0
LINE
  5
223
100
AcDbEntity
  8
0
100
AcDbLine
 62
7
  6
CONTINUOUS
 10
200.9123283582
 20
91.9180542983
 11
202.0394575466
 21
92.1092976497
  0
LINE
  5
224
100
AcDbEntity
  8
0
100
AcDbLine
 62
7
  6
CONTINUOUS
 10
110.1498452549
 20
70.3110915296
 11
108.7469532212
 21
70.1281708926
  0
LINE
  5
225
100
AcDbEntity
  8
0
100
AcDbLine
 62
7
  6
CONTINUOUS
 10
189.2067314117
 20
79.9634690121
 11
187.8008120366
 21
79.8055207798
  0
LINE
  5
226
100
AcDbEntity
  8
0
100
AcDbLine
 62
7
  6
CONTINUOUS
 10
93.1422209858
 20
78.9666901917
 11
94.2820442142
 21
79.054992145
  0
LINE
  5
227
100
AcDbEntity
  8
0
100
AcDbLine
 62
7
  6
CONTINUOUS
 10
187.262144501
 20
81.7631867361
 11
188.4052747729
 21
81.7474575112
  0
LINE
  5
228
100
AcDbEntity
  8
0
100
AcDbLine
 62
7
  6
CONTINUOUS
 10
93.8688045308
 20
77.0670650977
 11
92.4556871825
 21
77.135401909
  0
LINE
  5
229
100
AcDbEntity
  8
0
100
AcDbLine
 62
7
  6
CONTINUOUS
 10
85.1358222187
 20
90.8912665752
 11
83.7559071254
 21
91.2033603358
  0
LINE
  5
22A
100
AcDbEntity
  8
0
100
AcDbLine
 62
7
  6
CONTINUOUS
 10
111.5846515131
 20
82.7779028138
 11
106.2439109192
 21
84.6819484825
  0
LINE
  5
22B
100
AcDbEntity
  8
0
100
AcDbLine
 62
7
  6
CONTINUOUS
 10
105.1118497368
 20
87.1347546128
 11
112.2328371954
 21
84.5960270546
  0
LINE
  5
22C
100
AcDbEntity
  8
0
100
AcDbLine
 62
7
  6
CONTINUOUS
 10
83.6114021447
 20
92.9985192627
 11
84.5433877373
 21
92.6408600822
  0
LINE
  5
22D
100
AcDbEntity
  8
RUNDUNGEN
100
AcDbLine
 62
7
  6
CONTINUOUS
 10
187.1540216319
 20
59.48846529
 11
215.8602608899
 21
45.9190881576
  0
LINE
  5
22E
100
AcDbEntity
  8
0
100
AcDbLine
 62
7
  6
CONTINUOUS
 10
92.98201515
 20
93.8903480252
 11
94.6217779438
 21
92.9505175156
  0
LINE
  5
22F
100
AcDbEntity
  8
0
100
AcDbLine
 62
7
  6
CONTINUOUS
 10
101.1808259911
 20
89.1911972695
 11
102.820588003
 21
88.251367208
  0
LINE
  5
230
100
AcDbEntity
  8
0
100
AcDbLine
 62
7
  6
CONTINUOUS
 10
112.2328371954
 20
84.5960270546
 11
113.6083464341
 21
83.7641043697
  0
LINE
  5
231
100
AcDbEntity
  8
0
100
AcDbLine
 62
7
  6
CONTINUOUS
 10
112.6634506773
 20
82.0517612509
 11
111.5846515131
 21
82.7779028138
  0
LINE
  5
232
100
AcDbEntity
  8
0
100
AcDbLine
 62
7
  6
CONTINUOUS
 10
81.8919355939
 20
91.9186789851
 11
77.7774608889
 21
95.346086357
  0
LINE
  5
233
100
AcDbEntity
  8
0
100
AcDbLine
 62
7
  6
CONTINUOUS
 10
79.0128716939
 20
96.8291509465
 11
83.6114021447
 21
92.9985192627
  0
LINE
  5
234
100
AcDbEntity
  8
0
100
AcDbLine
 62
7
  6
CONTINUOUS
 10
86.6999297338
 20
96.7061814289
 11
82.101399283
 21
100.5368131127
  0
LINE
  5
235
100
AcDbEntity
  8
0
100
AcDbLine
 62
7
  6
CONTINUOUS
 10
81.6787407035
 20
102.9823734947
 11
87.4874110381
 21
98.1436805985
  0
LINE
  5
236
100
AcDbEntity
  8
0
100
AcDbLine
 62
7
  6
CONTINUOUS
 10
89.8626969621
 20
80.8463503148
 11
90.7958995389
 21
79.9406891437
  0
LINE
  5
237
100
AcDbEntity
  8
0
100
AcDbLine
 62
7
  6
CONTINUOUS
 10
87.4874110381
 20
98.1436805985
 11
88.4916491212
 21
96.8884419546
  0
LINE
  5
238
100
AcDbEntity
  8
0
100
AcDbLine
 62
7
  6
CONTINUOUS
 10
88.6295763428
 20
79.3283384204
 11
87.8563432994
 21
80.5131089554
  0
LINE
  5
239
100
AcDbEntity
  8
0
100
AcDbLine
 62
7
  6
CONTINUOUS
 10
95.6018640035
 20
77.5569450994
 11
93.8688045308
 21
77.0670650977
  0
LINE
  5
23A
100
AcDbEntity
  8
0
100
AcDbLine
 62
7
  6
CONTINUOUS
 10
109.0984288952
 20
72.0520764411
 11
110.2046142973
 21
72.3407771221
  0
LINE
  5
23B
100
AcDbEntity
  8
0
100
AcDbLine
 62
7
  6
CONTINUOUS
 10
199.6680490403
 20
103.6644856256
 11
198.540920008
 21
103.4732421118
  0
LINE
  5
23C
100
AcDbEntity
  8
0
100
AcDbLine
 62
7
  6
CONTINUOUS
 10
186.2179151188
 20
95.340694272
 11
187.6238404622
 21
95.49864655
  0
LINE
  5
23D
100
AcDbEntity
  8
0
100
AcDbLine
 62
7
  6
CONTINUOUS
 10
84.5433877373
 20
92.6408600822
 11
85.439247431
 21
92.7319903451
  0
LINE
  5
23E
100
AcDbEntity
  8
0
100
AcDbLine
 62
7
  6
CONTINUOUS
 10
188.1625017966
 20
93.5409769005
 11
187.019371649
 21
93.5567059375
  0
LINE
  5
23F
100
AcDbEntity
  8
0
100
AcDbLine
 62
7
  6
CONTINUOUS
 10
201.796116816
 20
90.0900647588
 11
199.9959651971
 21
90.1442518749
  0
LINE
  5
240
100
AcDbEntity
  8
0
100
AcDbLine
 62
7
  6
CONTINUOUS
 10
187.8008120366
 20
79.8055207798
 11
186.0401360558
 21
80.1843376024
  0
LINE
  5
241
100
AcDbEntity
  8
0
100
AcDbLine
 62
7
  6
CONTINUOUS
 10
187.6238404622
 20
95.49864655
 11
189.384510366
 21
95.1198258463
  0
LINE
  5
242
100
AcDbEntity
  8
0
100
AcDbLine
 62
7
  6
CONTINUOUS
 10
199.7892666653
 20
92.1770303564
 11
200.9123283582
 21
91.9180542983
  0
LINE
  5
243
100
AcDbEntity
  8
0
100
AcDbLine
 62
7
  6
CONTINUOUS
 10
186.2044342614
 20
82.2209815912
 11
187.262144501
 21
81.7631867361
  0
LINE
  5
244
100
AcDbEntity
  8
0
100
AcDbLine
 62
7
  6
CONTINUOUS
 10
113.6083464341
 20
83.7641043697
 11
114.5791146512
 21
82.7349420999
  0
LINE
  5
245
100
AcDbEntity
  8
0
100
AcDbLine
 62
7
  6
CONTINUOUS
 10
113.3375122156
 20
81.1283788925
 11
112.6634506773
 21
82.0517612509
  0
LINE
  5
246
100
AcDbEntity
  8
0
100
AcDbLine
 62
7
  6
CONTINUOUS
 10
87.2201117248
 20
95.8541673853
 11
86.6999297338
 21
96.7061814289
  0
LINE
  5
247
100
AcDbEntity
  8
0
100
AcDbLine
 62
7
  6
CONTINUOUS
 10
89.3627581787
 20
81.8744823295
 11
89.8626969621
 21
80.8463503148
  0
LINE
  5
248
100
AcDbEntity
  8
RUNDUNGEN
100
AcDbLine
 62
7
  6
CONTINUOUS
 10
55.505694421
 20
353.4164834722
 11
55.505694421
 21
396.6756576044
  0
LINE
  5
249
100
AcDbEntity
  8
0
100
AcDbLine
 62
7
  6
CONTINUOUS
 10
55.505694421
 20
396.6756576044
 11
55.505694421
 21
416.8802420686
  0
LINE
  5
24A
100
AcDbEntity
  8
RUNDUNGEN
100
AcDbLine
 62
7
  6
CONTINUOUS
 10
33.5672735032
 20
178.5783555771
 11
34.8989960627
 21
183.5484118307
  0
LINE
  5
24B
100
AcDbEntity
  8
KONSTRUKTIONSELEMENTE
100
AcDbLine
 62
7
  6
CONTINUOUS
 10
39.9892643278
 20
223.5566210318
 11
42.7562534282
 21
233.8659591785
  0
LINE
  5
24C
100
AcDbEntity
  8
KONSTRUKTIONSELEMENTE
100
AcDbLine
 62
7
  6
CONTINUOUS
 10
43.6326715153
 20
237.131346244
 11
46.7371067294
 21
248.6979521163
  0
LINE
  5
24D
100
AcDbEntity
  8
KONSTRUKTIONSELEMENTE
100
AcDbLine
 62
7
  6
CONTINUOUS
 10
46.9530584358
 20
249.5025520201
 11
49.5999105938
 21
259.3642800329
  0
LINE
  5
24E
100
AcDbEntity
  8
KONSTRUKTIONSELEMENTE
100
AcDbLine
 62
7
  6
CONTINUOUS
 10
50.568356779
 20
262.9725483843
 11
53.4476407593
 21
273.7002784539
  0
LINE
  5
24F
100
AcDbEntity
  8
0
100
AcDbLine
 62
7
  6
CONTINUOUS
 10
30.8044199834
 20
185.8764887098
 11
52.031790623
 21
264.9661178891
  0
LINE
  5
250
100
AcDbEntity
  8
RUNDUNGEN
100
AcDbLine
 62
7
  6
CONTINUOUS
 10
34.4786126952
 20
178.976987093
 11
35.3999928994
 21
182.4098954794
  0
LINE
  5
251
100
AcDbEntity
  8
RUNDUNGEN
100
AcDbLine
 62
7
  6
CONTINUOUS
 10
44.2751822617
 20
182.0585315635
 11
42.8453923369
 21
176.731373675
  0
LINE
  5
252
100
AcDbEntity
  8
0
100
AcDbLine
 62
7
  6
CONTINUOUS
 10
86.6855132138
 20
91.2751396895
 11
85.1358222187
 21
90.8912665752
  0
LINE
  5
253
100
AcDbEntity
  8
0
100
AcDbLine
 62
7
  6
CONTINUOUS
 10
198.7842608168
 20
105.4924749215
 11
200.5844071607
 21
105.4382828892
  0
LINE
  5
254
100
AcDbEntity
  8
0
100
AcDbLine
 62
7
  6
CONTINUOUS
 10
199.9959651971
 20
90.1442518749
 11
198.6499252209
 21
90.6351181321
  0
LINE
  5
255
100
AcDbEntity
  8
RUNDUNGEN
100
AcDbLine
 62
7
  6
CONTINUOUS
 10
240.7473676276
 20
56.2768804214
 11
213.1761418616
 21
69.309739134
  0
LINE
  5
256
100
AcDbEntity
  8
0
100
AcDbLine
 62
7
  6
CONTINUOUS
 10
186.0401360558
 20
80.1843376024
 11
184.8050504044
 21
80.9105171488
  0
LINE
  5
257
100
AcDbEntity
  8
0
100
AcDbLine
 62
7
  6
CONTINUOUS
 10
72.6330681058
 20
153.0798601
 11
85.3347350008
 21
131.0799276971
  0
LINE
  5
258
100
AcDbEntity
  8
RUNDUNGEN
100
AcDbLine
 62
7
  6
CONTINUOUS
 10
66.5207466829
 20
163.6667113567
 11
85.3347350008
 21
131.0799276971
  0
LINE
  5
259
100
AcDbEntity
  8
0
100
AcDbLine
 62
7
  6
CONTINUOUS
 10
114.5791146512
 20
82.7349420999
 11
115.3338209743
 21
81.0997384165
  0
LINE
  5
25A
100
AcDbEntity
  8
0
100
AcDbLine
 62
7
  6
CONTINUOUS
 10
87.8563432994
 20
80.5131089554
 11
87.4030539444
 21
82.256095407
  0
LINE
  5
25B
100
AcDbEntity
  8
0
100
AcDbLine
 62
7
  6
CONTINUOUS
 10
87.2923642152
 20
94.9565879218
 11
87.2201117248
 21
95.8541673853
  0
LINE
  5
25C
100
AcDbEntity
  8
KONSTRUKTIONSELEMENTE
100
AcDbLine
 62
7
  6
CONTINUOUS
 10
60.9280758369
 20
216.4074672418
 11
58.814359683
 21
212.0304388821
  0
LINE
  5
25D
100
AcDbEntity
  8
0
100
AcDbLine
 62
7
  6
CONTINUOUS
 10
101.4415400587
 20
300.3016937744
 11
58.814359683
 21
212.0304388821
  0
LINE
  5
25E
100
AcDbEntity
  8
RUNDUNGEN
100
AcDbLine
 62
7
  6
CONTINUOUS
 10
58.814359683
 20
212.0304388821
 11
44.2342713444
 21
181.8383716908
  0
LINE
  5
25F
100
AcDbEntity
  8
0
100
AcDbLine
 62
7
  6
CONTINUOUS
 10
200.5640606944
 20
103.1871743853
 11
199.6680490403
 21
103.6644856256
  0
LINE
  5
260
100
AcDbEntity
  8
0
100
AcDbLine
 62
7
  6
CONTINUOUS
 10
198.6702775088
 20
92.8862309837
 11
199.7892666653
 21
92.1770303564
  0
LINE
  5
261
100
AcDbEntity
  8
0
100
AcDbLine
 62
7
  6
CONTINUOUS
 10
198.6499252209
 20
90.6351181321
 11
197.3079527403
 21
91.5762037988
  0
LINE
  5
262
100
AcDbEntity
  8
0
100
AcDbLine
 62
7
  6
CONTINUOUS
 10
188.9574233522
 20
92.9095039538
 11
188.1625017966
 21
93.5409769005
  0
LINE
  5
263
100
AcDbEntity
  8
0
100
AcDbLine
 62
7
  6
CONTINUOUS
 10
185.2321379151
 20
83.1208382894
 11
186.2044342614
 21
82.2209815912
  0
LINE
  5
264
100
AcDbEntity
  8
0
100
AcDbLine
 62
7
  6
CONTINUOUS
 10
166.0566400805
 20
85.009156644
 11
175.2580877296
 21
74.5807374268
  0
LINE
  5
265
100
AcDbEntity
  8
0
100
AcDbLine
 62
7
  6
CONTINUOUS
 10
174.849917194
 20
72.3121021532
 11
164.3160625193
 21
84.2726176068
  0
LINE
  5
266
100
AcDbEntity
  8
0
100
AcDbLine
 62
7
  6
CONTINUOUS
 10
88.4916491212
 20
96.8884419546
 11
88.8420552103
 21
95.3404610361
  0
LINE
  5
267
100
AcDbEntity
  8
0
100
AcDbLine
 62
7
  6
CONTINUOUS
 10
89.2960829646
 20
83.0250847971
 11
89.3627581787
 21
81.8744823295
  0
LINE
  5
268
100
AcDbEntity
  8
0
100
AcDbLine
 62
7
  6
CONTINUOUS
 10
220.6633850336
 20
145.5717663974
 11
221.9879822738
 21
145.5485312613
  0
LINE
  5
269
100
AcDbEntity
  8
0
100
AcDbLine
 62
7
  6
CONTINUOUS
 10
230.2184682981
 20
147.967674422
 11
229.2570499876
 21
148.0519652317
  0
LINE
  5
26A
100
AcDbEntity
  8
0
100
AcDbLine
 62
7
  6
CONTINUOUS
 10
223.836523613
 20
148.843404696
 11
222.8751053025
 21
148.9276955056
  0
LINE
  5
26B
100
AcDbEntity
  8
0
100
AcDbLine
 62
7
  6
CONTINUOUS
 10
229.3946083424
 20
149.6209514775
 11
230.3560266529
 21
149.5366606679
  0
LINE
  5
26C
100
AcDbEntity
  8
0
100
AcDbLine
 62
7
  6
CONTINUOUS
 10
223.0126636572
 20
150.4966817515
 11
223.6536091976
 21
150.4404878784
  0
LINE
  5
26D
100
AcDbEntity
  8
0
100
AcDbLine
 62
7
  6
CONTINUOUS
 10
230.2980483745
 20
131.6321962998
 11
228.7426145708
 21
132.0419916927
  0
LINE
  5
26E
100
AcDbEntity
  8
RUNDUNGEN
100
AcDbLine
 62
7
  6
CONTINUOUS
 10
61.721991935
 20
168.9638477689
 11
34.9815067204
 21
176.1289391874
  0
LINE
  5
26F
100
AcDbEntity
  8
RUNDUNGEN
100
AcDbLine
 62
7
  6
CONTINUOUS
 10
35.0438893093
 20
177.9969552825
 11
41.8653605264
 21
176.1660970608
  0
LINE
  5
270
100
AcDbEntity
  8
0
100
AcDbLine
 62
7
  6
CONTINUOUS
 10
34.7102134952
 20
183.6302640961
 11
31.5631773281
 21
184.5340832314
  0
LINE
  5
271
100
AcDbEntity
  8
0
100
AcDbLine
 62
7
  6
CONTINUOUS
 10
200.5844071607
 20
105.4382828892
 11
201.9263854628
 21
104.4972015703
  0
LINE
  5
272
100
AcDbEntity
  8
0
100
AcDbLine
 62
7
  6
CONTINUOUS
 10
213.2239461521
 20
100.3975754339
 11
200.928909597
 21
109.197943387
  0
LINE
  5
273
100
AcDbEntity
  8
0
100
AcDbLine
 62
7
  6
CONTINUOUS
 10
202.0289555912
 20
110.7348229564
 11
206.999289658
 21
107.1772273004
  0
LINE
  5
274
100
AcDbEntity
  8
0
100
AcDbLine
 62
7
  6
CONTINUOUS
 10
208.5688686056
 20
106.0537762063
 11
214.3239921462
 21
101.9344550033
  0
LINE
  5
275
100
AcDbEntity
  8
0
100
AcDbLine
 62
7
  6
CONTINUOUS
 10
184.8050504044
 20
80.9105171488
 11
183.6553787704
 21
82.0787583502
  0
LINE
  5
276
100
AcDbEntity
  8
0
100
AcDbLine
 62
7
  6
CONTINUOUS
 10
189.384510366
 20
95.1198258463
 11
190.5341824969
 21
93.951583893
  0
LINE
  5
277
100
AcDbEntity
  8
0
100
AcDbLine
 62
7
  6
CONTINUOUS
 10
113.6068358252
 20
80.0077548898
 11
113.3375122156
 21
81.1283788925
  0
LINE
  5
278
100
AcDbEntity
  8
0
100
AcDbLine
 62
7
  6
CONTINUOUS
 10
88.8420552103
 20
95.3404610361
 11
88.7445317989
 21
93.7469146978
  0
LINE
  5
279
100
AcDbEntity
  8
0
100
AcDbLine
 62
7
  6
CONTINUOUS
 10
87.4030539444
 20
82.256095407
 11
87.4963506794
 21
83.6858060162
  0
LINE
  5
27A
100
AcDbEntity
  8
RUNDUNGEN
100
AcDbLine
 62
7
  6
CONTINUOUS
 10
57.3844661617
 20
72.5991792721
 11
60.7187137318
 21
82.6789229167
  0
LINE
  5
27B
100
AcDbEntity
  8
RUNDUNGEN
100
AcDbLine
 62
7
  6
CONTINUOUS
 10
27.803139816
 20
202.3480732714
 11
27.578274488
 21
202.2182472138
  0
LINE
  5
27C
100
AcDbEntity
  8
0
100
AcDbLine
 62
7
  6
CONTINUOUS
 10
224.3138872855
 20
157.9715988752
 11
223.6729417451
 21
158.0277927483
  0
LINE
  5
27D
100
AcDbEntity
  8
0
100
AcDbLine
 62
7
  6
CONTINUOUS
 10
231.0713270752
 20
157.6953546715
 11
230.1099087647
 21
157.7796454811
  0
LINE
  5
27E
100
AcDbEntity
  8
0
100
AcDbLine
 62
7
  6
CONTINUOUS
 10
223.8105000999
 20
159.5967789941
 11
224.7719184104
 21
159.5124881845
  0
LINE
  5
27F
100
AcDbEntity
  8
0
100
AcDbLine
 62
7
  6
CONTINUOUS
 10
230.2474671194
 20
159.348631727
 11
231.20888543
 21
159.2643409173
  0
LINE
  5
280
100
AcDbEntity
  8
0
100
AcDbLine
 62
7
  6
CONTINUOUS
 10
222.1286470029
 20
143.5569782164
 11
221.5064726971
 21
143.7208965802
  0
LINE
  5
281
100
AcDbEntity
  8
0
100
AcDbLine
 62
7
  6
CONTINUOUS
 10
221.9879822738
 20
145.5485312613
 11
222.6101565795
 21
145.3846128975
  0
LINE
  5
282
100
AcDbEntity
  8
0
100
AcDbLine
 62
7
  6
CONTINUOUS
 10
231.6316720305
 20
143.0077997795
 11
233.1871058341
 21
142.5980043866
  0
LINE
  5
283
100
AcDbEntity
  8
0
100
AcDbLine
 62
7
  6
CONTINUOUS
 10
219.1791788593
 20
134.8873382506
 11
218.0150823623
 21
135.5197756513
  0
LINE
  5
284
100
AcDbEntity
  8
0
100
AcDbLine
 62
7
  6
CONTINUOUS
 10
219.457545714
 20
109.1065674774
 11
213.7024221734
 21
113.2258886804
  0
LINE
  5
285
100
AcDbEntity
  8
0
100
AcDbLine
 62
7
  6
CONTINUOUS
 10
212.1328432258
 20
114.3493397745
 11
207.1625091589
 21
117.9069354305
  0
LINE
  5
286
100
AcDbEntity
  8
0
100
AcDbLine
 62
7
  6
CONTINUOUS
 10
208.2625551531
 20
119.4438149999
 11
220.5575917081
 21
110.6434470468
  0
LINE
  5
287
100
AcDbEntity
  8
0
100
AcDbLine
 62
7
  6
CONTINUOUS
 10
197.3079527403
 20
91.5762037988
 11
193.9632025673
 21
95.0544797135
  0
LINE
  5
288
100
AcDbEntity
  8
0
100
AcDbLine
 62
7
  6
CONTINUOUS
 10
195.3255273357
 20
96.3645068984
 11
198.6702775088
 21
92.8862309837
  0
LINE
  5
289
100
AcDbEntity
  8
0
100
AcDbLine
 62
7
  6
CONTINUOUS
 10
201.8653234024
 20
97.743858018
 11
200.5274234581
 21
99.135168254
  0
LINE
  5
28A
100
AcDbEntity
  8
0
100
AcDbLine
 62
7
  6
CONTINUOUS
 10
205.6926774598
 20
97.853818156
 11
203.9088105551
 21
99.7088987955
  0
LINE
  5
28B
100
AcDbEntity
  8
0
100
AcDbLine
 62
7
  6
CONTINUOUS
 10
203.9332353792
 20
102.4102362164
 11
207.2779855523
 21
98.9319603017
  0
LINE
  5
28C
100
AcDbEntity
  8
0
100
AcDbLine
 62
7
  6
CONTINUOUS
 10
183.6553787704
 20
82.0787583502
 11
180.9947492071
 21
86.1045262752
  0
LINE
  5
28D
100
AcDbEntity
  8
0
100
AcDbLine
 62
7
  6
CONTINUOUS
 10
182.5715083518
 20
87.1466062143
 11
185.2321379151
 21
83.1208382894
  0
LINE
  5
28E
100
AcDbEntity
  8
0
100
AcDbLine
 62
7
  6
CONTINUOUS
 10
45.095647749
 20
328.4137077488
 11
44.9817057297
 21
328.6318282905
  0
LINE
  5
28F
100
AcDbEntity
  8
0
100
AcDbLine
 62
7
  6
CONTINUOUS
 10
115.3338209743
 20
81.0997384165
 11
115.4951139395
 21
79.676094556
  0
LINE
  5
290
100
AcDbEntity
  8
0
100
AcDbLine
 62
7
  6
CONTINUOUS
 10
122.638494421
 20
423.975595194
 11
122.638494421
 21
408.9927429511
  0
LINE
  5
291
100
AcDbEntity
  8
RUNDUNGEN
100
AcDbLine
 62
7
  6
CONTINUOUS
 10
122.638494421
 20
356.6314208487
 11
122.638494421
 21
408.9927429511
  0
LINE
  5
292
100
AcDbEntity
  8
0
100
AcDbLine
 62
7
  6
CONTINUOUS
 10
113.4714187159
 20
78.6898921513
 11
113.6068358252
 21
80.0077548898
  0
LINE
  5
293
100
AcDbEntity
  8
0
100
AcDbLine
 62
7
  6
CONTINUOUS
 10
222.8751053025
 20
148.9276955056
 11
221.3277641476
 21
149.6957776384
  0
LINE
  5
294
100
AcDbEntity
  8
0
100
AcDbLine
 62
7
  6
CONTINUOUS
 10
229.2570499876
 20
148.0519652317
 11
227.7097092817
 21
148.8200473251
  0
LINE
  5
295
100
AcDbEntity
  8
0
100
AcDbLine
 62
7
  6
CONTINUOUS
 10
222.6101565795
 20
145.3846128975
 11
223.7742530766
 21
144.7521754969
  0
LINE
  5
296
100
AcDbEntity
  8
0
100
AcDbLine
 62
7
  6
CONTINUOUS
 10
193.9632025673
 20
95.0544797135
 11
193.0753411827
 21
96.4322450897
  0
LINE
  5
297
100
AcDbEntity
  8
0
100
AcDbLine
 62
7
  6
CONTINUOUS
 10
194.6606498999
 20
97.5103865857
 11
195.3255273357
 21
96.3645068984
  0
LINE
  5
298
100
AcDbEntity
  8
0
100
AcDbLine
 62
7
  6
CONTINUOUS
 10
180.9947492071
 20
86.1045262752
 11
180.3706674677
 21
87.6201308583
  0
LINE
  5
299
100
AcDbEntity
  8
RUNDUNGEN
100
AcDbLine
 62
7
  6
CONTINUOUS
 10
129.388494421
 20
51.7934910409
 11
129.388494421
 21
33.3967705338
  0
LINE
  5
29A
100
AcDbEntity
  8
BEZUGSACHSEN
100
AcDbLine
 62
7
  6
CENTER
 10
138.388494421
 20
161.7105208487
 11
138.388494421
 21
5.2747942854
  0
LINE
  5
29B
100
AcDbEntity
  8
BEZUGSACHSEN
100
AcDbLine
 62
7
  6
CENTER
 10
138.388494421
 20
161.7105208487
 11
138.388494421
 21
439.4337487345
  0
LINE
  5
29C
100
AcDbEntity
  8
0
100
AcDbLine
 62
7
  6
CONTINUOUS
 10
115.4951139395
 20
79.676094556
 11
115.2516655806
 21
78.0552102617
  0
LINE
  5
29D
100
AcDbEntity
  8
0
100
AcDbLine
 62
7
  6
CONTINUOUS
 10
89.6626745594
 20
84.2981561202
 11
89.2960829646
 21
83.0250847971
  0
LINE
  5
29E
100
AcDbEntity
  8
0
100
AcDbLine
 62
7
  6
CONTINUOUS
 10
87.4963506794
 20
83.6858060162
 11
88.0229117657
 21
85.2379866299
  0
LINE
  5
29F
100
AcDbEntity
  8
0
100
AcDbLine
 62
7
  6
CONTINUOUS
 10
83.7559071254
 20
91.2033603358
 11
81.1984165052
 21
83.7037688809
  0
LINE
  5
2A0
100
AcDbEntity
  8
0
100
AcDbLine
 62
7
  6
CONTINUOUS
 10
79.5042205293
 20
85.1150546934
 11
81.8919355939
 21
91.9186789851
  0
LINE
  5
2A1
100
AcDbEntity
  8
0
100
AcDbLine
 62
7
  6
CONTINUOUS
 10
86.9166865125
 20
94.0134436153
 11
87.2923642152
 21
94.9565879218
  0
LINE
  5
2A2
100
AcDbEntity
  8
0
100
AcDbLine
 62
7
  6
CONTINUOUS
 10
88.7445317989
 20
93.7469146978
 11
88.3688540962
 21
92.8037703913
  0
LINE
  5
2A3
100
AcDbEntity
  8
RUNDUNGEN
100
AcDbLine
 62
7
  6
CONTINUOUS
 10
181.4528953006
 20
326.2803552109
 11
205.6749104904
 21
378.2246344142
  0
LINE
  5
2A4
100
AcDbEntity
  8
KONSTRUKTIONSELEMENTE
100
AcDbLine
 62
7
  6
CONTINUOUS
 10
40.8552487321
 20
223.3241939473
 11
39.9892643278
 21
223.5566210318
  0
LINE
  5
2A5
100
AcDbEntity
  8
KONSTRUKTIONSELEMENTE
100
AcDbLine
 62
7
  6
CONTINUOUS
 10
43.6222378325
 20
233.6335320941
 11
42.7562534282
 21
233.8659591785
  0
LINE
  5
2A6
100
AcDbEntity
  8
KONSTRUKTIONSELEMENTE
100
AcDbLine
 62
7
  6
CONTINUOUS
 10
44.4986559197
 20
236.8989191596
 11
43.6326715153
 21
237.131346244
  0
LINE
  5
2A7
100
AcDbEntity
  8
0
100
AcDbLine
 62
7
  6
CONTINUOUS
 10
231.20888543
 20
159.2643409173
 11
232.7562259115
 21
158.4962588436
  0
LINE
  5
2A8
100
AcDbEntity
  8
0
100
AcDbLine
 62
7
  6
CONTINUOUS
 10
224.7719184104
 20
159.5124881845
 11
225.9987858973
 21
158.772503067
  0
LINE
  5
2A9
100
AcDbEntity
  8
RUNDUNGEN
100
AcDbLine
 62
7
  6
CONTINUOUS
 10
249.4508042181
 20
138.8392676698
 11
271.969657728
 21
123.0713966904
  0
LINE
  5
2AA
100
AcDbEntity
  8
0
100
AcDbLine
 62
7
  6
CONTINUOUS
 10
222.1062680427
 20
151.2085700111
 11
223.0126636572
 21
150.4966817515
  0
LINE
  5
2AB
100
AcDbEntity
  8
0
100
AcDbLine
 62
7
  6
CONTINUOUS
 10
223.2124931284
 20
142.6199396835
 11
222.1286470029
 21
143.5569782164
  0
LINE
  5
2AC
100
AcDbEntity
  8
0
100
AcDbLine
 62
7
  6
CONTINUOUS
 10
207.2779855523
 20
98.9319603017
 11
207.9428579474
 21
97.7860754547
  0
LINE
  5
2AD
100
AcDbEntity
  8
0
100
AcDbLine
 62
7
  6
CONTINUOUS
 10
194.6138143614
 20
87.7787399418
 11
195.2378957282
 21
86.2631359226
  0
LINE
  5
2AE
100
AcDbEntity
  8
0
100
AcDbLine
 62
7
  6
CONTINUOUS
 10
182.1248023969
 20
88.3938255424
 11
182.5715083518
 21
87.1466062143
  0
LINE
  5
2AF
100
AcDbEntity
  8
RUNDUNGEN
100
AcDbLine
 62
7
  6
CONTINUOUS
 10
147.388494421
 20
27.9628448188
 11
147.388494421
 21
49.6456922609
  0
LINE
  5
2B0
100
AcDbEntity
  8
RUNDUNGEN
100
AcDbLine
 62
7
  6
CONTINUOUS
 10
154.138494421
 20
356.6314208487
 11
154.138494421
 21
408.9927429511
  0
LINE
  5
2B1
100
AcDbEntity
  8
0
100
AcDbLine
 62
7
  6
CONTINUOUS
 10
154.138494421
 20
408.9927429511
 11
154.138494421
 21
423.975595194
  0
LINE
  5
2B2
100
AcDbEntity
  8
RUNDUNGEN
100
AcDbLine
 62
7
  6
CONTINUOUS
 10
161.398494421
 20
326.6432799104
 11
161.398494421
 21
288.5505208487
  0
LINE
  5
2B3
100
AcDbEntity
  8
0
100
AcDbLine
 62
7
  6
CONTINUOUS
 10
100.0343946204
 20
72.8927796957
 11
105.1118497368
 21
87.1347546128
  0
LINE
  5
2B4
100
AcDbEntity
  8
0
100
AcDbLine
 62
7
  6
CONTINUOUS
 10
106.2439109192
 20
84.6819484825
 11
102.462827243
 21
74.0762222591
  0
LINE
  5
2B5
100
AcDbEntity
  8
KONSTRUKTIONSELEMENTE
100
AcDbLine
 62
7
  6
CONTINUOUS
 10
44.9413741757
 20
238.5484132631
 11
44.0753897714
 21
238.7808403475
  0
LINE
  5
2B6
100
AcDbEntity
  8
KONSTRUKTIONSELEMENTE
100
AcDbLine
 62
7
  6
CONTINUOUS
 10
46.0481698159
 20
242.6721485218
 11
45.1821854115
 21
242.9045756062
  0
LINE
  5
2B7
100
AcDbEntity
  8
KONSTRUKTIONSELEMENTE
100
AcDbLine
 62
7
  6
CONTINUOUS
 10
47.0918841251
 20
246.5608533025
 11
46.2258997208
 21
246.793280387
  0
LINE
  5
2B8
100
AcDbEntity
  8
KONSTRUKTIONSELEMENTE
100
AcDbLine
 62
7
  6
CONTINUOUS
 10
47.6030911338
 20
248.4655250319
 11
46.7371067294
 21
248.6979521163
  0
LINE
  5
2B9
100
AcDbEntity
  8
KONSTRUKTIONSELEMENTE
100
AcDbLine
 62
7
  6
CONTINUOUS
 10
47.8190428401
 20
249.2701249357
 11
46.9530584358
 21
249.5025520201
  0
LINE
  5
2BA
100
AcDbEntity
  8
0
100
AcDbLine
 62
7
  6
CONTINUOUS
 10
225.2202820022
 20
157.2597106943
 11
224.3138872855
 21
157.9715988752
  0
LINE
  5
2BB
100
AcDbEntity
  8
0
100
AcDbLine
 62
7
  6
CONTINUOUS
 10
228.1952515738
 20
150.6747281377
 11
229.3946083424
 21
149.6209514775
  0
LINE
  5
2BC
100
AcDbEntity
  8
0
100
AcDbLine
 62
7
  6
CONTINUOUS
 10
232.2706836193
 20
156.6415780309
 11
231.0713270752
 21
157.6953546715
  0
LINE
  5
2BD
100
AcDbEntity
  8
0
100
AcDbLine
 62
7
  6
CONTINUOUS
 10
218.807678656
 20
137.2654512653
 11
219.5804343907
 21
136.4103578557
  0
LINE
  5
2BE
100
AcDbEntity
  8
0
100
AcDbLine
 62
7
  6
CONTINUOUS
 10
223.7742530766
 20
144.7521754969
 11
224.5470088113
 21
143.8970820873
  0
LINE
  5
2BF
100
AcDbEntity
  8
0
100
AcDbLine
 62
7
  6
CONTINUOUS
 10
221.3277641476
 20
149.6957776384
 11
220.4488805981
 21
150.7214573227
  0
LINE
  5
2C0
100
AcDbEntity
  8
0
100
AcDbLine
 62
7
  6
CONTINUOUS
 10
133.4044341251
 20
268.9804108072
 11
133.8994155095
 21
268.1933278407
  0
LINE
  5
2C1
100
AcDbEntity
  8
RUNDUNGEN
100
AcDbLine
 62
7
  6
CONTINUOUS
 10
133.8994155095
 20
268.1933278407
 11
133.4044341251
 21
268.9804108072
  0
LINE
  5
2C2
100
AcDbEntity
  8
RUNDUNGEN
100
AcDbLine
 62
7
  6
CONTINUOUS
 10
133.4044341251
 20
268.9804108072
 11
105.234369975
 21
324.675178913
  0
LINE
  5
2C3
100
AcDbEntity
  8
0
100
AcDbLine
 62
7
  6
CONTINUOUS
 10
206.1345663747
 20
96.9398185108
 11
205.6926774598
 21
97.853818156
  0
LINE
  5
2C4
100
AcDbEntity
  8
0
100
AcDbLine
 62
7
  6
CONTINUOUS
 10
193.0753411827
 20
96.4322450897
 11
192.6375144104
 21
97.7964593095
  0
LINE
  5
2C5
100
AcDbEntity
  8
0
100
AcDbLine
 62
7
  6
CONTINUOUS
 10
193.306385884
 20
85.7578251779
 11
193.0370552167
 21
86.7366600027
  0
LINE
  5
2C6
100
AcDbEntity
  8
0
100
AcDbLine
 62
7
  6
CONTINUOUS
 10
180.3706674677
 20
87.6201308583
 11
180.1867506937
 21
89.041027526
  0
LINE
  5
2C7
100
AcDbEntity
  8
0
100
AcDbLine
 62
7
  6
CONTINUOUS
 10
175.9199151405
 20
89.1828787919
 11
177.1706850624
 21
73.2941532663
  0
LINE
  5
2C8
100
AcDbEntity
  8
0
100
AcDbLine
 62
7
  6
CONTINUOUS
 10
175.2580877296
 20
74.5807374268
 11
174.1793375793
 21
88.4463397546
  0
LINE
  5
2C9
100
AcDbEntity
  8
0
100
AcDbLine
 62
7
  6
CONTINUOUS
 10
111.8509543589
 20
74.1445811249
 11
113.4714187159
 21
78.6898921513
  0
LINE
  5
2CA
100
AcDbEntity
  8
0
100
AcDbLine
 62
7
  6
CONTINUOUS
 10
115.2516655806
 20
78.0552102617
 11
113.6312012236
 21
73.5098992353
  0
LINE
  5
2CB
100
AcDbEntity
  8
0
100
AcDbLine
 62
7
  6
CONTINUOUS
 10
88.0229117657
 20
85.2379866299
 11
92.98201515
 21
93.8903480252
  0
LINE
  5
2CC
100
AcDbEntity
  8
0
100
AcDbLine
 62
7
  6
CONTINUOUS
 10
94.6217779438
 20
92.9505175156
 11
89.6626745594
 21
84.2981561202
  0
LINE
  5
2CD
100
AcDbEntity
  8
0
100
AcDbLine
 62
7
  6
CONTINUOUS
 10
96.2217226067
 20
80.5388358741
 11
101.1808259911
 21
89.1911972695
  0
LINE
  5
2CE
100
AcDbEntity
  8
0
100
AcDbLine
 62
7
  6
CONTINUOUS
 10
102.820588003
 20
88.251367208
 11
97.8614846186
 21
79.5990058126
  0
LINE
  5
2CF
100
AcDbEntity
  8
0
100
AcDbLine
 62
7
  6
CONTINUOUS
 10
72.0013549112
 20
91.3650328254
 11
81.6787407035
 21
102.9823734947
  0
LINE
  5
2D0
100
AcDbEntity
  8
0
100
AcDbLine
 62
7
  6
CONTINUOUS
 10
82.101399283
 20
100.5368131127
 11
79.0128716939
 21
96.8291509465
  0
LINE
  5
2D1
100
AcDbEntity
  8
0
100
AcDbLine
 62
7
  6
CONTINUOUS
 10
77.7774608889
 20
95.346086357
 11
73.4535224948
 21
90.1553596013
  0
LINE
  5
2D2
100
AcDbEntity
  8
KONSTRUKTIONSELEMENTE
100
AcDbLine
 62
7
  6
CONTINUOUS
 10
50.4658949982
 20
259.1318529485
 11
49.5999105938
 21
259.3642800329
  0
LINE
  5
2D3
100
AcDbEntity
  8
KONSTRUKTIONSELEMENTE
100
AcDbLine
 62
7
  6
CONTINUOUS
 10
51.4343411833
 20
262.7401212998
 11
50.568356779
 21
262.9725483843
  0
LINE
  5
2D4
100
AcDbEntity
  8
RUNDUNGEN
100
AcDbLine
 62
7
  6
CONTINUOUS
 10
283.1021283973
 20
140.5682085597
 11
254.0776806788
 21
160.8913456446
  0
LINE
  5
2D5
100
AcDbEntity
  8
0
100
AcDbLine
 62
7
  6
CONTINUOUS
 10
225.9987858973
 20
158.772503067
 11
226.8776694468
 21
157.7468233827
  0
LINE
  5
2D6
100
AcDbEntity
  8
0
100
AcDbLine
 62
7
  6
CONTINUOUS
 10
232.7562259115
 20
158.4962588436
 11
233.6351095732
 21
157.4705791495
  0
LINE
  5
2D7
100
AcDbEntity
  8
0
100
AcDbLine
 62
7
  6
CONTINUOUS
 10
186.9902669305
 20
199.0039832032
 11
186.6749106463
 21
199.4149635141
  0
LINE
  5
2D8
100
AcDbEntity
  8
0
100
AcDbLine
 62
7
  6
CONTINUOUS
 10
137.04460012
 20
264.094443454
 11
136.0516059285
 21
265.3885386795
  0
LINE
  5
2D9
100
AcDbEntity
  8
RUNDUNGEN
100
AcDbLine
 62
7
  6
CONTINUOUS
 10
186.9902669305
 20
199.0039832032
 11
112.7013830368
 21
295.8191416135
  0
LINE
  5
2DA
100
AcDbEntity
  8
0
100
AcDbLine
 62
7
  6
CONTINUOUS
 10
221.2548956604
 20
152.5480411988
 11
222.1062680427
 21
151.2085700111
  0
LINE
  5
2DB
100
AcDbEntity
  8
0
100
AcDbLine
 62
7
  6
CONTINUOUS
 10
227.7097092817
 20
148.8200473251
 11
226.8583368993
 21
150.1595185128
  0
LINE
  5
2DC
100
AcDbEntity
  8
0
100
AcDbLine
 62
7
  6
CONTINUOUS
 10
226.0716543845
 20
155.9202395066
 11
225.2202820022
 21
157.2597106943
  0
LINE
  5
2DD
100
AcDbEntity
  8
0
100
AcDbLine
 62
7
  6
CONTINUOUS
 10
218.0150823623
 20
135.5197756513
 11
217.0917406535
 21
137.0660303925
  0
LINE
  5
2DE
100
AcDbEntity
  8
0
100
AcDbLine
 62
7
  6
CONTINUOUS
 10
228.7426145708
 20
132.0419916927
 11
223.2124931284
 21
142.6199396835
  0
LINE
  5
2DF
100
AcDbEntity
  8
0
100
AcDbLine
 62
7
  6
CONTINUOUS
 10
194.4458110238
 20
98.6427214131
 11
194.6606498999
 21
97.5103865857
  0
LINE
  5
2E0
100
AcDbEntity
  8
0
100
AcDbLine
 62
7
  6
CONTINUOUS
 10
182.1182604137
 20
89.5463384587
 11
182.1248023969
 21
88.3938255424
  0
LINE
  5
2E1
100
AcDbEntity
  8
0
100
AcDbLine
 62
7
  6
CONTINUOUS
 10
192.6375144104
 20
97.7964593095
 11
192.6537993588
 21
99.5973525892
  0
LINE
  5
2E2
100
AcDbEntity
  8
0
100
AcDbLine
 62
7
  6
CONTINUOUS
 10
113.6312012236
 20
73.5098992353
 11
112.7943398094
 21
72.1005756128
  0
LINE
  5
2E3
100
AcDbEntity
  8
0
100
AcDbLine
 62
7
  6
CONTINUOUS
 10
86.2989805333
 20
93.2719106281
 11
86.9166865125
 21
94.0134436153
  0
LINE
  5
2E4
100
AcDbEntity
  8
0
100
AcDbLine
 62
7
  6
CONTINUOUS
 10
88.3688540962
 20
92.8037703913
 11
87.5452463161
 21
91.8150599725
  0
LINE
  5
2E5
100
AcDbEntity
  8
KONSTRUKTIONSELEMENTE
100
AcDbLine
 62
7
  6
CONTINUOUS
 10
53.8885579495
 20
273.5840743507
 11
53.4481756503
 21
273.7022713682
  0
LINE
  5
2E6
100
AcDbEntity
  8
RUNDUNGEN
100
AcDbLine
 62
7
  6
CONTINUOUS
 10
237.1801390514
 20
218.227358553
 11
271.8186930087
 21
202.0751355753
  0
LINE
  5
2E7
100
AcDbEntity
  8
RUNDUNGEN
100
AcDbLine
 62
7
  6
CONTINUOUS
 10
152.0821739813
 20
288.0007688603
 11
129.8886534257
 21
321.7230072256
  0
LINE
  5
2E8
100
AcDbEntity
  8
0
100
AcDbLine
 62
7
  6
CONTINUOUS
 10
224.5470088113
 20
143.8970820873
 11
229.3846285642
 21
134.4788425821
  0
LINE
  5
2E9
100
AcDbEntity
  8
0
100
AcDbLine
 62
7
  6
CONTINUOUS
 10
220.4488805981
 20
150.7214573227
 11
219.6250206423
 21
152.3747343782
  0
LINE
  5
2EA
100
AcDbEntity
  8
0
100
AcDbLine
 62
7
  6
CONTINUOUS
 10
233.6351095732
 20
157.4705791495
 11
234.4589708725
 21
155.817316451
  0
LINE
  5
2EB
100
AcDbEntity
  8
0
100
AcDbLine
 62
7
  6
CONTINUOUS
 10
226.8583368993
 20
150.1595185128
 11
226.5928877229
 21
150.8152128205
  0
LINE
  5
2EC
100
AcDbEntity
  8
0
100
AcDbLine
 62
7
  6
CONTINUOUS
 10
227.6643519616
 20
151.9861023888
 11
228.1952515738
 21
150.6747281377
  0
LINE
  5
2ED
100
AcDbEntity
  8
0
100
AcDbLine
 62
7
  6
CONTINUOUS
 10
218.42626001
 20
138.3431867401
 11
218.807678656
 21
137.2654512653
  0
LINE
  5
2EE
100
AcDbEntity
  8
0
100
AcDbLine
 62
7
  6
CONTINUOUS
 10
217.0917406535
 20
137.0660303925
 11
216.7905760527
 21
138.4483809433
  0
LINE
  5
2EF
100
AcDbEntity
  8
RUNDUNGEN
100
AcDbLine
 62
7
  6
CONTINUOUS
 10
205.9400026548
 20
379.1831589765
 11
205.9400026548
 21
315.6269519068
  0
LINE
  5
2F0
100
AcDbEntity
  8
RUNDUNGEN
100
AcDbLine
 62
7
  6
CONTINUOUS
 10
205.955994421
 20
379.4925048366
 11
205.955994421
 21
410.1679101459
  0
LINE
  5
2F1
100
AcDbEntity
  8
0
100
AcDbLine
 62
7
  6
CONTINUOUS
 10
207.9428579474
 20
97.7860754547
 11
207.926578274
 21
95.9851870911
  0
LINE
  5
2F2
100
AcDbEntity
  8
0
100
AcDbLine
 62
7
  6
CONTINUOUS
 10
180.1867506937
 20
89.041027526
 11
180.5284243111
 21
90.8092868237
  0
LINE
  5
2F3
100
AcDbEntity
  8
0
100
AcDbLine
 62
7
  6
CONTINUOUS
 10
111.1221238918
 20
73.0382782091
 11
111.8509543589
 21
74.1445811249
  0
LINE
  5
2F4
100
AcDbEntity
  8
0
100
AcDbLine
 62
7
  6
CONTINUOUS
 10
97.8614846186
 20
79.5990058126
 11
96.7883351525
 21
78.3601024836
  0
LINE
  5
2F5
100
AcDbEntity
  8
0
100
AcDbLine
 62
7
  6
CONTINUOUS
 10
95.3085441959
 20
79.5790409394
 11
96.2217226067
 21
80.5388358741
  0
LINE
  5
2F6
100
AcDbEntity
  8
KONSTRUKTIONSELEMENTE
100
AcDbLine
 62
7
  6
CONTINUOUS
 10
73.4923060462
 20
313.7111845818
 11
69.8677804629
 21
315.4031698939
  0
LINE
  5
2F7
100
AcDbEntity
  8
RUNDUNGEN
100
AcDbLine
 62
7
  6
CONTINUOUS
 10
212.9723728186
 20
236.9617186569
 11
187.3469330007
 21
270.8077738863
  0
LINE
  5
2F8
100
AcDbEntity
  8
0
100
AcDbLine
 62
7
  6
CONTINUOUS
 10
226.8776694468
 20
157.7468233827
 11
227.1431186232
 21
157.0911290749
  0
LINE
  5
2F9
100
AcDbEntity
  8
0
100
AcDbLine
 62
7
  6
CONTINUOUS
 10
232.8015832315
 20
155.3302037798
 11
232.2706836193
 21
156.6415780309
  0
LINE
  5
2FA
100
AcDbEntity
  8
0
100
AcDbLine
 62
7
  6
CONTINUOUS
 10
221.0444688184
 20
153.8313185133
 11
221.2548956604
 21
152.5480411988
  0
LINE
  5
2FB
100
AcDbEntity
  8
0
100
AcDbLine
 62
7
  6
CONTINUOUS
 10
226.2820812265
 20
154.6369621921
 11
226.0716543845
 21
155.9202395066
  0
LINE
  5
2FC
100
AcDbEntity
  8
0
100
AcDbLine
 62
7
  6
CONTINUOUS
 10
219.6250206423
 20
152.3747343782
 11
219.4421049676
 21
153.9718031961
  0
LINE
  5
2FD
100
AcDbEntity
  8
0
100
AcDbLine
 62
7
  6
CONTINUOUS
 10
218.5164324979
 20
139.948179356
 11
218.42626001
 21
138.3431867401
  0
LINE
  5
2FE
100
AcDbEntity
  8
0
100
AcDbLine
 62
7
  6
CONTINUOUS
 10
219.4421049676
 20
153.9718031961
 11
219.5521521551
 21
155.2269979385
  0
LINE
  5
2FF
100
AcDbEntity
  8
0
100
AcDbLine
 62
7
  6
CONTINUOUS
 10
221.154516006
 20
155.0865132557
 11
221.0444688184
 21
153.8313185133
  0
LINE
  5
300
100
AcDbEntity
  8
0
100
AcDbLine
 62
7
  6
CONTINUOUS
 10
216.7905760527
 20
138.4483809433
 11
217.0412492837
 21
140.6625758238
  0
LINE
  5
301
100
AcDbEntity
  8
0
100
AcDbLine
 62
7
  6
CONTINUOUS
 10
195.2378957282
 20
86.2631359226
 11
194.8962281877
 21
84.4948805062
  0
LINE
  5
302
100
AcDbEntity
  8
0
100
AcDbLine
 62
7
  6
CONTINUOUS
 10
194.6810067599
 20
99.7615050843
 11
194.4458110238
 21
98.6427214131
  0
LINE
  5
303
100
AcDbEntity
  8
0
100
AcDbLine
 62
7
  6
CONTINUOUS
 10
205.8993707948
 20
95.8210346772
 11
206.1345663747
 21
96.9398185108
  0
LINE
  5
304
100
AcDbEntity
  8
0
100
AcDbLine
 62
7
  6
CONTINUOUS
 10
192.6537993588
 20
99.5973525892
 11
193.1160457584
 21
100.9344707929
  0
LINE
  5
305
100
AcDbEntity
  8
0
100
AcDbLine
 62
7
  6
CONTINUOUS
 10
182.5518894107
 20
90.6041474348
 11
182.1182604137
 21
89.5463384587
  0
LINE
  5
306
100
AcDbEntity
  8
0
100
AcDbLine
 62
7
  6
CONTINUOUS
 10
85.439247431
 20
92.7319903451
 11
86.2989805333
 21
93.2719106281
  0
LINE
  5
307
100
AcDbEntity
  8
RUNDUNGEN
100
AcDbLine
 62
7
  6
CONTINUOUS
 10
160.398494421
 20
287.5505208487
 11
152.9175019117
 21
287.5505208487
  0
LINE
  5
308
100
AcDbEntity
  8
0
100
AcDbLine
 62
7
  6
CONTINUOUS
 10
227.4539251196
 20
153.2693797034
 11
227.6643519616
 21
151.9861023888
  0
LINE
  5
309
100
AcDbEntity
  8
0
100
AcDbLine
 62
7
  6
CONTINUOUS
 10
233.0120100735
 20
154.0469264653
 11
232.8015832315
 21
155.3302037798
  0
LINE
  5
30A
100
AcDbEntity
  8
0
100
AcDbLine
 62
7
  6
CONTINUOUS
 10
234.4589708725
 20
155.817316451
 11
234.641885316
 21
154.2202332662
  0
LINE
  5
30B
100
AcDbEntity
  8
0
100
AcDbLine
 62
7
  6
CONTINUOUS
 10
226.172034039
 20
153.3817674496
 11
226.2820812265
 21
154.6369621921
  0
LINE
  5
30C
100
AcDbEntity
  8
0
100
AcDbLine
 62
7
  6
CONTINUOUS
 10
227.5639723072
 20
154.5245744458
 11
227.4539251196
 21
153.2693797034
  0
LINE
  5
30D
100
AcDbEntity
  8
0
100
AcDbLine
 62
7
  6
CONTINUOUS
 10
232.9019628859
 20
152.7917317228
 11
233.0120100735
 21
154.0469264653
  0
LINE
  5
30E
100
AcDbEntity
  8
0
100
AcDbLine
 62
7
  6
CONTINUOUS
 10
234.641885316
 20
154.2202332662
 11
234.476815794
 21
152.337455517
  0
LINE
  5
30F
100
AcDbEntity
  8
0
100
AcDbLine
 62
7
  6
CONTINUOUS
 10
217.0412492837
 20
140.6625758238
 11
217.3622544436
 21
141.8809942966
  0
LINE
  5
310
100
AcDbEntity
  8
0
100
AcDbLine
 62
7
  6
CONTINUOUS
 10
218.8374376578
 20
141.1665978288
 11
218.5164324979
 21
139.948179356
  0
LINE
  5
311
100
AcDbEntity
  8
0
100
AcDbLine
 62
7
  6
CONTINUOUS
 10
219.5804343907
 20
136.4103578557
 11
219.1791788593
 21
134.8873382506
  0
LINE
  5
312
100
AcDbEntity
  8
0
100
AcDbLine
 62
7
  6
CONTINUOUS
 10
219.5521521551
 20
155.2269979385
 11
220.0101820207
 21
156.7678728834
  0
LINE
  5
313
100
AcDbEntity
  8
0
100
AcDbLine
 62
7
  6
CONTINUOUS
 10
207.926578274
 20
95.9851870911
 11
207.4643319329
 21
94.6480688265
  0
LINE
  5
314
100
AcDbEntity
  8
0
100
AcDbLine
 62
7
  6
CONTINUOUS
 10
221.5850347043
 20
156.3135966972
 11
221.154516006
 21
155.0865132557
  0
LINE
  5
315
100
AcDbEntity
  8
0
100
AcDbLine
 62
7
  6
CONTINUOUS
 10
225.7415153406
 20
152.1546840082
 11
226.172034039
 21
153.3817674496
  0
LINE
  5
316
100
AcDbEntity
  8
0
100
AcDbLine
 62
7
  6
CONTINUOUS
 10
227.9944910056
 20
155.7516578873
 11
227.5639723072
 21
154.5245744458
  0
LINE
  5
317
100
AcDbEntity
  8
0
100
AcDbLine
 62
7
  6
CONTINUOUS
 10
192.8727570112
 20
84.7000160138
 11
193.306385884
 21
85.7578251779
  0
LINE
  5
318
100
AcDbEntity
  8
0
100
AcDbLine
 62
7
  6
CONTINUOUS
 10
217.3622544436
 20
141.8809942966
 11
218.1548507374
 21
143.6266699106
  0
LINE
  5
319
100
AcDbEntity
  8
0
100
AcDbLine
 62
7
  6
CONTINUOUS
 10
219.54978358
 20
142.6076723106
 11
218.8374376578
 21
141.1665978288
  0
LINE
  5
31A
100
AcDbEntity
  8
0
100
AcDbLine
 62
7
  6
CONTINUOUS
 10
180.5284243111
 20
90.8092868237
 11
181.224842489
 21
92.0407731395
  0
LINE
  5
31B
100
AcDbEntity
  8
0
100
AcDbLine
 62
7
  6
CONTINUOUS
 10
220.0101820207
 20
156.7678728834
 11
221.109158686
 21
158.2525683195
  0
LINE
  5
31C
100
AcDbEntity
  8
0
100
AcDbLine
 62
7
  6
CONTINUOUS
 10
112.7943398094
 20
72.1005756128
 11
111.7687991922
 21
71.1000536067
  0
LINE
  5
31D
100
AcDbEntity
  8
0
100
AcDbLine
 62
7
  6
CONTINUOUS
 10
221.109158686
 20
158.2525683195
 11
222.1531117575
 21
159.1096663844
  0
LINE
  5
31E
100
AcDbEntity
  8
RUNDUNGEN
100
AcDbLine
 62
7
  6
CONTINUOUS
 10
271.9696814612
 20
200.3496616252
 11
249.4508430472
 21
184.581801216
  0
LINE
  5
31F
100
AcDbEntity
  8
0
100
AcDbLine
 62
7
  6
CONTINUOUS
 10
96.7883351525
 20
78.3601024836
 11
95.6018640035
 21
77.5569450994
  0
LINE
  5
320
100
AcDbEntity
  8
0
100
AcDbLine
 62
7
  6
CONTINUOUS
 10
87.5452463161
 20
91.8150599725
 11
86.6855132138
 21
91.2751396895
  0
LINE
  5
321
100
AcDbEntity
  8
0
100
AcDbLine
 62
7
  6
CONTINUOUS
 10
223.6729417451
 20
158.0277927483
 11
222.656498943
 21
157.4844862655
  0
LINE
  5
322
100
AcDbEntity
  8
0
100
AcDbLine
 62
7
  6
CONTINUOUS
 10
222.1531117575
 20
159.1096663844
 11
223.8105000999
 21
159.5967789941
  0
LINE
  5
323
100
AcDbEntity
  8
0
100
AcDbLine
 62
7
  6
CONTINUOUS
 10
228.5900792259
 20
158.8615190779
 11
230.2474671194
 21
159.348631727
  0
LINE
  5
324
100
AcDbEntity
  8
KONSTRUKTIONSELEMENTE
100
AcDbLine
 62
7
  6
CONTINUOUS
 10
68.9675119126
 20
312.0489199956
 11
72.952144916
 21
311.6986346428
  0
LINE
  5
325
100
AcDbEntity
  8
RUNDUNGEN
100
AcDbLine
 62
7
  6
CONTINUOUS
 10
256.6322254789
 20
259.300868548
 11
223.0037644667
 21
282.8477704471
  0
LINE
  5
326
100
AcDbEntity
  8
0
100
AcDbLine
 62
7
  6
CONTINUOUS
 10
229.3846285642
 20
134.4788425821
 11
231.6316720305
 21
143.0077997795
  0
LINE
  5
327
100
AcDbEntity
  8
0
100
AcDbLine
 62
7
  6
CONTINUOUS
 10
233.1871058341
 20
142.5980043866
 11
230.2980483745
 21
131.6321962998
  0
LINE
  5
328
100
AcDbEntity
  8
0
100
AcDbLine
 62
7
  6
CONTINUOUS
 10
234.476815794
 20
152.337455517
 11
234.018784641
 21
150.7965662102
  0
LINE
  5
329
100
AcDbEntity
  8
0
100
AcDbLine
 62
7
  6
CONTINUOUS
 10
232.4714441876
 20
151.5646482814
 11
232.9019628859
 21
152.7917317228
  0
LINE
  5
32A
100
AcDbEntity
  8
0
100
AcDbLine
 62
7
  6
CONTINUOUS
 10
194.8962281877
 20
84.4948805062
 11
194.1998040415
 21
83.2633901446
  0
LINE
  5
32B
100
AcDbEntity
  8
0
100
AcDbLine
 62
7
  6
CONTINUOUS
 10
195.3662364836
 20
100.8667382487
 11
194.6810067599
 21
99.7615050843
  0
LINE
  5
32C
100
AcDbEntity
  8
0
100
AcDbLine
 62
7
  6
CONTINUOUS
 10
205.2141410711
 20
94.7158015129
 11
205.8993707948
 21
95.8210346772
  0
LINE
  5
32D
100
AcDbEntity
  8
0
100
AcDbLine
 62
7
  6
CONTINUOUS
 10
227.1431186232
 20
157.0911290749
 11
227.5186149872
 21
157.6906295096
  0
LINE
  5
32E
100
AcDbEntity
  8
0
100
AcDbLine
 62
7
  6
CONTINUOUS
 10
228.7454824741
 20
156.9506443921
 11
227.9944910056
 21
155.7516578873
  0
LINE
  5
32F
100
AcDbEntity
  8
0
100
AcDbLine
 62
7
  6
CONTINUOUS
 10
226.5928877229
 20
150.8152128205
 11
226.217391359
 21
150.2157123859
  0
LINE
  5
330
100
AcDbEntity
  8
0
100
AcDbLine
 62
7
  6
CONTINUOUS
 10
231.720452719
 20
150.3656617765
 11
232.4714441876
 21
151.5646482814
  0
LINE
  5
331
100
AcDbEntity
  8
0
100
AcDbLine
 62
7
  6
CONTINUOUS
 10
193.1160457584
 20
100.9344707929
 11
194.0283365393
 21
102.2580484846
  0
LINE
  5
332
100
AcDbEntity
  8
0
100
AcDbLine
 62
7
  6
CONTINUOUS
 10
200.928909597
 20
109.197943387
 11
202.0289555912
 21
110.7348229564
  0
LINE
  5
333
100
AcDbEntity
  8
0
100
AcDbLine
 62
7
  6
CONTINUOUS
 10
207.1625091589
 20
117.9069354305
 11
208.2625551531
 21
119.4438149999
  0
LINE
  5
334
100
AcDbEntity
  8
0
100
AcDbLine
 62
7
  6
CONTINUOUS
 10
206.999289658
 20
107.1772273004
 11
212.1328432258
 21
114.3493397745
  0
LINE
  5
335
100
AcDbEntity
  8
0
100
AcDbLine
 62
7
  6
CONTINUOUS
 10
234.018784641
 20
150.7965662102
 11
232.919809151
 21
149.3118851459
  0
LINE
  5
336
100
AcDbEntity
  8
0
100
AcDbLine
 62
7
  6
CONTINUOUS
 10
218.1548507374
 20
143.6266699106
 11
219.0980330051
 21
144.681184193
  0
LINE
  5
337
100
AcDbEntity
  8
0
100
AcDbLine
 62
7
  6
CONTINUOUS
 10
183.4256888911
 20
91.5672532226
 11
182.5518894107
 21
90.6041474348
  0
LINE
  5
338
100
AcDbEntity
  8
0
100
AcDbLine
 62
7
  6
CONTINUOUS
 10
222.656498943
 20
157.4844862655
 11
221.5850347043
 21
156.3135966972
  0
LINE
  5
339
100
AcDbEntity
  8
0
100
AcDbLine
 62
7
  6
CONTINUOUS
 10
227.5186149872
 20
157.6906295096
 11
228.5900792259
 21
158.8615190779
  0
LINE
  5
33A
100
AcDbEntity
  8
0
100
AcDbLine
 62
7
  6
CONTINUOUS
 10
224.6700511019
 20
150.9837944399
 11
225.7415153406
 21
152.1546840082
  0
LINE
  5
33B
100
AcDbEntity
  8
0
100
AcDbLine
 62
7
  6
CONTINUOUS
 10
220.4127118026
 20
143.357571517
 11
219.54978358
 21
142.6076723106
  0
LINE
  5
33C
100
AcDbEntity
  8
0
100
AcDbLine
 62
7
  6
CONTINUOUS
 10
226.217391359
 20
150.2157123859
 11
225.1734382875
 21
149.3586143209
  0
LINE
  5
33D
100
AcDbEntity
  8
0
100
AcDbLine
 62
7
  6
CONTINUOUS
 10
232.919809151
 20
149.3118851459
 11
231.8758559672
 21
148.4547870908
  0
LINE
  5
33E
100
AcDbEntity
  8
0
100
AcDbLine
 62
7
  6
CONTINUOUS
 10
110.2046142973
 20
72.3407771221
 11
111.1221238918
 21
73.0382782091
  0
LINE
  5
33F
100
AcDbEntity
  8
RUNDUNGEN
100
AcDbLine
 62
7
  6
CONTINUOUS
 10
254.0776437667
 20
162.5296702066
 11
283.1020865633
 21
182.8528038452
  0
LINE
  5
340
100
AcDbEntity
  8
0
100
AcDbLine
 62
7
  6
CONTINUOUS
 10
230.1099087647
 20
157.7796454811
 11
228.7454824741
 21
156.9506443921
  0
LINE
  5
341
100
AcDbEntity
  8
0
100
AcDbLine
 62
7
  6
CONTINUOUS
 10
230.3560266529
 20
149.5366606679
 11
231.720452719
 21
150.3656617765
  0
LINE
  5
342
100
AcDbEntity
  8
0
100
AcDbLine
 62
7
  6
CONTINUOUS
 10
219.0980330051
 20
144.681184193
 11
220.6633850336
 21
145.5717663974
  0
LINE
  5
343
100
AcDbEntity
  8
0
100
AcDbLine
 62
7
  6
CONTINUOUS
 10
223.6536091976
 20
150.4404878784
 11
224.6700511019
 21
150.9837944399
  0
LINE
  5
344
100
AcDbEntity
  8
0
100
AcDbLine
 62
7
  6
CONTINUOUS
 10
94.2820442142
 20
79.054992145
 11
95.3085441959
 21
79.5790409394
  0
LINE
  5
345
100
AcDbEntity
  8
0
100
AcDbLine
 62
7
  6
CONTINUOUS
 10
225.1734382875
 20
149.3586143209
 11
223.836523613
 21
148.843404696
  0
LINE
  5
346
100
AcDbEntity
  8
0
100
AcDbLine
 62
7
  6
CONTINUOUS
 10
221.5064726971
 20
143.7208965802
 11
220.4127118026
 21
143.357571517
  0
LINE
  5
347
100
AcDbEntity
  8
0
100
AcDbLine
 62
7
  6
CONTINUOUS
 10
231.8758559672
 20
148.4547870908
 11
230.2184682981
 21
147.967674422
  0
LINE
  5
348
100
AcDbEntity
  8
RUNDUNGEN
100
AcDbLine
 62
7
  6
CONTINUOUS
 10
83.9592724489
 20
341.955735278
 11
59.2115991955
 21
348.5868543408
  0
LINE
  5
349
100
AcDbEntity
  8
0
100
AcDbLine
 62
7
  6
CONTINUOUS
 10
85.4096443643
 20
335.3186507477
 11
56.1792333255
 21
343.163987431
  0
LINE
  5
34A
100
AcDbEntity
  8
KONSTRUKTIONSELEMENTE
100
AcDbLine
 62
7
  6
CONTINUOUS
 10
56.4332891598
 20
343.0957997632
 11
56.1792333255
 21
343.163987431
  0
LINE
  5
34B
100
AcDbEntity
  8
0
100
AcDbLine
 62
7
  6
CONTINUOUS
 10
207.4643319329
 20
94.6480688265
 11
206.5520411715
 21
93.3244911145
  0
LINE
  5
34C
100
AcDbEntity
  8
0
100
AcDbLine
 62
7
  6
CONTINUOUS
 10
213.7024221734
 20
113.2258886804
 11
208.5688686056
 21
106.0537762063
  0
LINE
  5
34D
100
AcDbEntity
  8
0
100
AcDbLine
 62
7
  6
CONTINUOUS
 10
220.5575917081
 20
110.6434470468
 11
219.457545714
 21
109.1065674774
  0
LINE
  5
34E
100
AcDbEntity
  8
0
100
AcDbLine
 62
7
  6
CONTINUOUS
 10
214.3239921462
 20
101.9344550033
 11
213.2239461521
 21
100.3975754339
  0
LINE
  5
34F
100
AcDbEntity
  8
0
100
AcDbLine
 62
7
  6
CONTINUOUS
 10
191.9989635456
 20
83.7369142012
 11
192.8727570112
 21
84.7000160138
  0
LINE
  5
350
100
AcDbEntity
  8
0
100
AcDbLine
 62
7
  6
CONTINUOUS
 10
181.224842489
 20
92.0407731395
 11
182.3614371652
 21
93.1775602423
  0
LINE
  5
351
100
AcDbEntity
  8
0
100
AcDbLine
 62
7
  6
CONTINUOUS
 10
194.1998040415
 20
83.2633901446
 11
193.0632153957
 21
82.1266069936
  0
LINE
  5
352
100
AcDbEntity
  8
0
100
AcDbLine
 62
7
  6
CONTINUOUS
 10
194.0283365393
 20
102.2580484846
 11
196.071823692
 21
104.223089262
  0
LINE
  5
353
100
AcDbEntity
  8
0
100
AcDbLine
 62
7
  6
CONTINUOUS
 10
197.4097236363
 20
102.8317790261
 11
195.3662364836
 21
100.8667382487
  0
LINE
  5
354
100
AcDbEntity
  8
0
100
AcDbLine
 62
7
  6
CONTINUOUS
 10
201.9263854628
 20
104.4972015703
 11
200.5640606944
 21
103.1871743853
  0
LINE
  5
355
100
AcDbEntity
  8
0
100
AcDbLine
 62
7
  6
CONTINUOUS
 10
200.5274234581
 20
99.135168254
 11
203.9332353792
 21
102.4102362164
  0
LINE
  5
356
100
AcDbEntity
  8
0
100
AcDbLine
 62
7
  6
CONTINUOUS
 10
203.9088105551
 20
99.7088987955
 11
201.8653234024
 21
97.743858018
  0
LINE
  5
357
100
AcDbEntity
  8
0
100
AcDbLine
 62
7
  6
CONTINUOUS
 10
182.3614371652
 20
93.1775602423
 11
184.7265758822
 21
94.7406801511
  0
LINE
  5
358
100
AcDbEntity
  8
0
100
AcDbLine
 62
7
  6
CONTINUOUS
 10
185.7908276081
 20
93.1303731314
 11
183.4256888911
 21
91.5672532226
  0
LINE
  5
359
100
AcDbEntity
  8
0
100
AcDbLine
 62
7
  6
CONTINUOUS
 10
196.071823692
 20
104.223089262
 11
197.430081121
 21
105.0828968751
  0
LINE
  5
35A
100
AcDbEntity
  8
0
100
AcDbLine
 62
7
  6
CONTINUOUS
 10
198.540920008
 20
103.4732421118
 11
197.4097236363
 21
102.8317790261
  0
LINE
  5
35B
100
AcDbEntity
  8
0
100
AcDbLine
 62
7
  6
CONTINUOUS
 10
111.7687991922
 20
71.1000536067
 11
110.1498452549
 21
70.3110915296
  0
LINE
  5
35C
100
AcDbEntity
  8
0
100
AcDbLine
 62
7
  6
CONTINUOUS
 10
203.1706539184
 20
92.7507607354
 11
205.2141410711
 21
94.7158015129
  0
LINE
  5
35D
100
AcDbEntity
  8
0
100
AcDbLine
 62
7
  6
CONTINUOUS
 10
206.5520411715
 20
93.3244911145
 11
204.5085540189
 21
91.3594503371
  0
LINE
  5
35E
100
AcDbEntity
  8
0
100
AcDbLine
 62
7
  6
CONTINUOUS
 10
190.5341824969
 20
93.951583893
 11
188.9574233522
 21
92.9095039538
  0
LINE
  5
35F
100
AcDbEntity
  8
0
100
AcDbLine
 62
7
  6
CONTINUOUS
 10
193.0370552167
 20
86.7366600027
 11
194.6138143614
 21
87.7787399418
  0
LINE
  5
360
100
AcDbEntity
  8
0
100
AcDbLine
 62
7
  6
CONTINUOUS
 10
189.6338248286
 20
82.1737942924
 11
191.9989635456
 21
83.7369142012
  0
LINE
  5
361
100
AcDbEntity
  8
0
100
AcDbLine
 62
7
  6
CONTINUOUS
 10
193.0632153957
 20
82.1266069936
 11
190.6980766787
 21
80.5634870848
  0
LINE
  5
362
100
AcDbEntity
  8
0
100
AcDbLine
 62
7
  6
CONTINUOUS
 10
204.5085540189
 20
91.3594503371
 11
203.1502965704
 21
90.4996427444
  0
LINE
  5
363
100
AcDbEntity
  8
0
100
AcDbLine
 62
7
  6
CONTINUOUS
 10
202.0394575466
 20
92.1092976497
 11
203.1706539184
 21
92.7507607354
  0
LINE
  5
364
100
AcDbEntity
  8
RUNDUNGEN
100
AcDbLine
 62
7
  6
CONTINUOUS
 10
271.8186834031
 20
121.3459016429
 11
237.1802180182
 21
105.1937199672
  0
LINE
  5
365
100
AcDbEntity
  8
0
100
AcDbLine
 62
7
  6
CONTINUOUS
 10
164.3160625193
 20
84.2726176068
 11
166.0566400805
 21
85.009156644
  0
LINE
  5
366
100
AcDbEntity
  8
0
100
AcDbLine
 62
7
  6
CONTINUOUS
 10
174.1793375793
 20
88.4463397546
 11
175.9199151405
 21
89.1828787919
  0
LINE
  5
367
100
AcDbEntity
  8
0
100
AcDbLine
 62
7
  6
CONTINUOUS
 10
184.7265758822
 20
94.7406801511
 11
186.2179151188
 21
95.340694272
  0
LINE
  5
368
100
AcDbEntity
  8
0
100
AcDbLine
 62
7
  6
CONTINUOUS
 10
187.019371649
 20
93.5567059375
 11
185.7908276081
 21
93.1303731314
  0
LINE
  5
369
100
AcDbEntity
  8
0
100
AcDbLine
 62
7
  6
CONTINUOUS
 10
197.430081121
 20
105.0828968751
 11
198.7842608168
 21
105.4924749215
  0
LINE
  5
36A
100
AcDbEntity
  8
0
100
AcDbLine
 62
7
  6
CONTINUOUS
 10
203.1502965704
 20
90.4996427444
 11
201.796116816
 21
90.0900647588
  0
LINE
  5
36B
100
AcDbEntity
  8
0
100
AcDbLine
 62
7
  6
CONTINUOUS
 10
177.1706850624
 20
73.2941532663
 11
174.849917194
 21
72.3121021532
  0
LINE
  5
36C
100
AcDbEntity
  8
0
100
AcDbLine
 62
7
  6
CONTINUOUS
 10
190.6980766787
 20
80.5634870848
 11
189.2067314117
 21
79.9634690121
  0
LINE
  5
36D
100
AcDbEntity
  8
0
100
AcDbLine
 62
7
  6
CONTINUOUS
 10
188.4052747729
 20
81.7474575112
 11
189.6338248286
 21
82.1737942924
  0
LINE
  5
36E
100
AcDbEntity
  8
0
100
AcDbLine
 62
7
  6
CONTINUOUS
 10
122.638494421
 20
372.8814208487
 11
154.138494421
 21
372.8814208487
  0
LINE
  5
36F
100
AcDbEntity
  8
RUNDUNGEN
100
AcDbLine
 62
7
  6
CONTINUOUS
 10
205.2541277504
 20
412.096272975
 11
203.6724981546
 21
413.9811857279
  0
LINE
  5
370
100
AcDbEntity
  8
0
100
AcDbLine
 62
7
  6
CONTINUOUS
 10
203.6724981546
 20
413.9811857279
 11
188.7125281905
 21
431.8097836778
  0
LINE
  5
371
100
AcDbEntity
  8
RUNDUNGEN
100
AcDbLine
 62
7
  6
CONTINUOUS
 10
265.9936000589
 20
94.2630062643
 11
242.0181000435
 21
56.6435005084
  0
LINE
  5
372
100
AcDbEntity
  8
RUNDUNGEN
100
AcDbLine
 62
7
  6
CONTINUOUS
 10
213.172931108
 20
71.1164222672
 11
264.7197170543
 21
95.7029779528
  0
LINE
  5
373
100
AcDbEntity
  8
0
100
AcDbLine
 62
7
  6
CONTINUOUS
 10
122.638494421
 20
384.6854544188
 11
154.138494421
 21
384.6854544188
  0
LINE
  5
374
100
AcDbEntity
  8
BEZUGSACHSEN
100
AcDbLine
 62
7
  6
CENTER
 10
52.505694421
 20
392.3814208487
 11
210.8276442349
 21
392.3814208487
  0
LINE
  5
375
100
AcDbEntity
  8
0
100
AcDbLine
 62
7
  6
CONTINUOUS
 10
120.9063492063
 20
426.6945185551
 11
108.0403416192
 21
432.6940364228
  0
LINE
  5
376
100
AcDbEntity
  8
0
100
AcDbLine
 62
7
  6
CONTINUOUS
 10
122.638494421
 20
400.0773872786
 11
154.138494421
 21
400.0773872786
  0
LINE
  5
377
100
AcDbEntity
  8
0
100
AcDbLine
 62
7
  6
CONTINUOUS
 10
122.638494421
 20
411.8814208487
 11
154.138494421
 21
411.8814208487
  0
LINE
  5
378
100
AcDbEntity
  8
KONSTRUKTIONSELEMENTE
100
AcDbLine
 62
7
  6
CONTINUOUS
 10
186.4143948611
 20
432.8814208487
 11
169.5818837463
 21
432.8814208487
  0
LINE
  5
379
100
AcDbEntity
  8
KONSTRUKTIONSELEMENTE
100
AcDbLine
 62
7
  6
CONTINUOUS
 10
107.1951050958
 20
432.8814208487
 11
102.352494421
 21
432.8814208487
  0
LINE
  5
37A
100
AcDbEntity
  8
KONSTRUKTIONSELEMENTE
100
AcDbLine
 62
7
  6
CONTINUOUS
 10
490.0430067835
 20
12.177112615
 11
480.8804089318
 21
12.1611208487
  0
LINE
  5
37B
100
AcDbEntity
  8
0
100
AcDbLine
 62
7
  6
CONTINUOUS
 10
480.8804089318
 20
12.1611208487
 11
471.7178110801
 21
12.177112615
  0
LWPOLYLINE
  5
37C
100
AcDbEntity
  8
RUNDUNGEN
100
AcDbPolyline
 62
7
  6
CONTINUOUS
 90
35
 70
0
 10
511.340199101
 20
60.8097222839
 10
511.4817721944
 20
60.8124753159
 10
512.0009394149
 20
60.8704183901
 10
512.5086993014
 20
61.0030898309
 10
512.9783928119
 20
61.2003472111
 10
513.3923703771
 20
61.4443052085
 10
513.7457019771
 20
61.7170055299
 10
514.0338001306
 20
61.9959925629
 10
514.2670747278
 20
62.271045511
 10
514.4518809308
 20
62.5303918282
 10
514.6005112318
 20
62.7740090272
 10
514.7216576519
 20
63.0024877825
 10
514.8223685743
 20
63.21825932
 10
514.9084576626
 20
63.4255527544
 10
514.9835663319
 20
63.6269517549
 10
515.0510307915
 20
63.8268273918
 10
515.112590334
 20
64.0269749342
 10
515.169942889
 20
64.2303640679
 10
515.2240884932
 20
64.4386757727
 10
515.2759765353
 20
64.6542054992
 10
515.3261814686
 20
64.8784041868
 10
515.3752664916
 20
65.1131749904
 10
515.423549706
 20
65.3596874811
 10
515.4713565939
 20
65.6194412395
 10
515.5188770819
 20
65.8934650876
 10
515.5663054246
 20
66.1829948117
 10
515.613759325
 20
66.4889638242
 10
515.6613564484
 20
66.8124084426
 10
515.7091793447
 20
67.1542284482
 10
515.7573091747
 20
67.5153996469
 10
515.8057978006
 20
67.8967545169
 10
515.8546979065
 20
68.2991885416
 10
515.9040441809
 20
68.7235011655
 10
515.9538721132
 20
69.1705383938
 10
516.0550623693
 20
70.1358547653
  0
LINE
  5
37D
100
AcDbEntity
  8
KONSTRUKTIONSELEMENTE
100
AcDbLine
 62
7
  6
CONTINUOUS
 10
511.3405752244
 20
60.8097208487
 11
504.3821856743
 21
60.8097208487
  0
LINE
  5
37E
100
AcDbEntity
  8
0
100
AcDbLine
 62
7
  6
CONTINUOUS
 10
457.3786321892
 20
60.8097208487
 11
450.4202426391
 21
60.8097208487
  0
LINE
  5
37F
100
AcDbEntity
  8
RUNDUNGEN
100
AcDbLine
 62
7
  6
CONTINUOUS
 10
511.3401859282
 20
60.8097214944
 11
511.3405752417
 21
60.8097208487
  0
LINE
  5
380
100
AcDbEntity
  8
0
100
AcDbLine
 62
7
  6
CONTINUOUS
 10
513.8115894468
 20
70.3110915296
 11
513.7091490354
 21
70.3110915296
  0
LINE
  5
381
100
AcDbEntity
  8
0
100
AcDbLine
 62
7
  6
CONTINUOUS
 10
513.8594673147
 20
71.1000536067
 11
513.6299659547
 21
71.1000536067
  0
LINE
  5
382
100
AcDbEntity
  8
0
100
AcDbLine
 62
7
  6
CONTINUOUS
 10
513.7561872527
 20
72.0520764411
 11
513.5289816768
 21
72.0520764411
  0
LINE
  5
383
100
AcDbEntity
  8
0
100
AcDbLine
 62
7
  6
CONTINUOUS
 10
513.8853868772
 20
72.1005756128
 11
513.7561872527
 21
72.1005756128
  0
LINE
  5
384
100
AcDbEntity
  8
0
100
AcDbLine
 62
7
  6
CONTINUOUS
 10
513.7100645116
 20
72.1721765904
 11
513.5162623029
 21
72.1721765904
  0
LINE
  5
385
100
AcDbEntity
  8
0
100
AcDbLine
 62
7
  6
CONTINUOUS
 10
516.2652057209
 20
73.2941532663
 11
516.1596199347
 21
73.2941532663
  0
LINE
  5
386
100
AcDbEntity
  8
0
100
AcDbLine
 62
7
  6
CONTINUOUS
 10
513.9010747787
 20
73.5098992353
 11
513.8220971548
 21
73.5098992353
  0
LINE
  5
387
100
AcDbEntity
  8
0
100
AcDbLine
 62
7
  6
CONTINUOUS
 10
513.5039513202
 20
74.0762222591
 11
513.4370055911
 21
74.0762222591
  0
LINE
  5
388
100
AcDbEntity
  8
0
100
AcDbLine
 62
7
  6
CONTINUOUS
 10
516.2202951222
 20
74.5807374268
 11
516.1388423797
 21
74.5807374268
  0
LINE
  5
389
100
AcDbEntity
  8
0
100
AcDbLine
 62
7
  6
CONTINUOUS
 10
513.2241190467
 20
77.5569450994
 11
513.0742729896
 21
77.5569450994
  0
LINE
  5
38A
100
AcDbEntity
  8
0
100
AcDbLine
 62
7
  6
CONTINUOUS
 10
513.9142298071
 20
78.0552102617
 11
513.8380402596
 21
78.0552102617
  0
LINE
  5
38B
100
AcDbEntity
  8
0
100
AcDbLine
 62
7
  6
CONTINUOUS
 10
513.2497416443
 20
78.3601024836
 11
513.0293605752
 21
78.3601024836
  0
LINE
  5
38C
100
AcDbEntity
  8
0
100
AcDbLine
 62
7
  6
CONTINUOUS
 10
513.1207861025
 20
78.9666901917
 11
512.992204231
 21
78.9666901917
  0
LINE
  5
38D
100
AcDbEntity
  8
0
100
AcDbLine
 62
7
  6
CONTINUOUS
 10
513.0747310933
 20
79.3141354706
 11
512.9729699968
 21
79.3141354706
  0
LINE
  5
38E
100
AcDbEntity
  8
0
100
AcDbLine
 62
7
  6
CONTINUOUS
 10
513.2650348706
 20
79.5990058126
 11
513.1804123391
 21
79.5990058126
  0
LINE
  5
38F
100
AcDbEntity
  8
0
100
AcDbLine
 62
7
  6
CONTINUOUS
 10
513.9062526747
 20
79.676094556
 11
513.8319025356
 21
79.676094556
  0
LINE
  5
390
100
AcDbEntity
  8
0
100
AcDbLine
 62
7
  6
CONTINUOUS
 10
513.0289024079
 20
79.9406891437
 11
512.9493400914
 21
79.9406891437
  0
LINE
  5
391
100
AcDbEntity
  8
0
100
AcDbLine
 62
7
  6
CONTINUOUS
 10
516.7567055209
 20
79.9634690121
 11
516.710750081
 21
79.9634690121
  0
LINE
  5
392
100
AcDbEntity
  8
0
100
AcDbLine
 62
7
  6
CONTINUOUS
 10
446.6687215421
 20
413.6072609029
 11
443.7745652369
 21
408.8299408758
  0
LINE
  5
393
100
AcDbEntity
  8
0
100
AcDbLine
 62
7
  6
CONTINUOUS
 10
516.8131430082
 20
80.5634870848
 11
516.6495314265
 21
80.5634870848
  0
LINE
  5
394
100
AcDbEntity
  8
0
100
AcDbLine
 62
7
  6
CONTINUOUS
 10
512.9828474548
 20
80.8463503148
 11
512.918100922
 21
80.8463503148
  0
LINE
  5
395
100
AcDbEntity
  8
0
100
AcDbLine
 62
7
  6
CONTINUOUS
 10
513.884169938
 20
81.0997384165
 11
513.8055726453
 21
81.0997384165
  0
LINE
  5
396
100
AcDbEntity
  8
0
100
AcDbLine
 62
7
  6
CONTINUOUS
 10
516.7662356681
 20
81.7474575112
 11
516.6259801084
 21
81.7474575112
  0
LINE
  5
397
100
AcDbEntity
  8
0
100
AcDbLine
 62
7
  6
CONTINUOUS
 10
516.7309496647
 20
81.7631867361
 11
516.62576931
 21
81.7631867361
  0
LINE
  5
398
100
AcDbEntity
  8
0
100
AcDbLine
 62
7
  6
CONTINUOUS
 10
512.9476698399
 20
81.8744823295
 11
512.890037698
 21
81.8744823295
  0
LINE
  5
399
100
AcDbEntity
  8
0
100
AcDbLine
 62
7
  6
CONTINUOUS
 10
516.9141889972
 20
82.1266069936
 11
516.8123419743
 21
82.1266069936
  0
LINE
  5
39A
100
AcDbEntity
  8
0
100
AcDbLine
 62
7
  6
CONTINUOUS
 10
516.7063298556
 20
82.2209815912
 11
516.6215066304
 21
82.2209815912
  0
LINE
  5
39B
100
AcDbEntity
  8
0
100
AcDbLine
 62
7
  6
CONTINUOUS
 10
513.8351388926
 20
82.7349420999
 11
513.7162496899
 21
82.7349420999
  0
LINE
  5
39C
100
AcDbEntity
  8
0
100
AcDbLine
 62
7
  6
CONTINUOUS
 10
512.9232211002
 20
83.0250847971
 11
512.8658154181
 21
83.0250847971
  0
LINE
  5
39D
100
AcDbEntity
  8
0
100
AcDbLine
 62
7
  6
CONTINUOUS
 10
516.6924386167
 20
83.1208382894
 11
516.6183123603
 21
83.1208382894
  0
LINE
  5
39E
100
AcDbEntity
  8
0
100
AcDbLine
 62
7
  6
CONTINUOUS
 10
516.9706845364
 20
83.2633901446
 11
516.884217602
 21
83.2633901446
  0
LINE
  5
39F
100
AcDbEntity
  8
0
100
AcDbLine
 62
7
  6
CONTINUOUS
 10
513.7835337945
 20
83.7641043697
 11
513.5950161882
 21
83.7641043697
  0
LINE
  5
3A0
100
AcDbEntity
  8
0
100
AcDbLine
 62
7
  6
CONTINUOUS
 10
512.9095701974
 20
84.2981561202
 11
512.8479171595
 21
84.2981561202
  0
LINE
  5
3A1
100
AcDbEntity
  8
0
100
AcDbLine
 62
7
  6
CONTINUOUS
 10
517.0167692248
 20
84.4948805062
 11
516.9616201619
 21
84.4948805062
  0
LINE
  5
3A2
100
AcDbEntity
  8
0
100
AcDbLine
 62
7
  6
CONTINUOUS
 10
513.7174817356
 20
84.5960270546
 11
513.482331926
 21
84.5960270546
  0
LINE
  5
3A3
100
AcDbEntity
  8
0
100
AcDbLine
 62
7
  6
CONTINUOUS
 10
513.482331926
 20
84.6819484825
 11
513.406676887
 21
84.6819484825
  0
LINE
  5
3A4
100
AcDbEntity
  8
0
100
AcDbLine
 62
7
  6
CONTINUOUS
 10
517.064854384
 20
86.2631359226
 11
517.0038181683
 21
86.2631359226
  0
LINE
  5
3A5
100
AcDbEntity
  8
0
100
AcDbLine
 62
7
  6
CONTINUOUS
 10
516.6835352522
 20
87.1466062143
 11
516.6142134752
 21
87.1466062143
  0
LINE
  5
3A6
100
AcDbEntity
  8
0
100
AcDbLine
 62
7
  6
CONTINUOUS
 10
513.2910713632
 20
88.251367208
 11
513.2093850488
 21
88.251367208
  0
LINE
  5
3A7
100
AcDbEntity
  8
0
100
AcDbLine
 62
7
  6
CONTINUOUS
 10
516.6936728478
 20
88.3938255424
 11
516.6287715536
 21
88.3938255424
  0
LINE
  5
3A8
100
AcDbEntity
  8
0
100
AcDbLine
 62
7
  6
CONTINUOUS
 10
516.7175233797
 20
89.5463384587
 11
516.6528466875
 21
89.5463384587
  0
LINE
  5
3A9
100
AcDbEntity
  8
0
100
AcDbLine
 62
7
  6
CONTINUOUS
 10
517.3823685091
 20
90.4996427444
 11
517.2627574433
 21
90.4996427444
  0
LINE
  5
3AA
100
AcDbEntity
  8
0
100
AcDbLine
 62
7
  6
CONTINUOUS
 10
516.75530753
 20
90.6041474348
 11
516.6881025718
 21
90.6041474348
  0
LINE
  5
3AB
100
AcDbEntity
  8
0
100
AcDbLine
 62
7
  6
CONTINUOUS
 10
512.5742703651
 20
91.2033603358
 11
512.5106599181
 21
91.2033603358
  0
LINE
  5
3AC
100
AcDbEntity
  8
0
100
AcDbLine
 62
7
  6
CONTINUOUS
 10
512.663753757
 20
91.2751396895
 11
512.5096913322
 21
91.2751396895
  0
LINE
  5
3AD
100
AcDbEntity
  8
0
100
AcDbLine
 62
7
  6
CONTINUOUS
 10
517.4388061395
 20
91.3594503371
 11
517.2471670799
 21
91.3594503371
  0
LINE
  5
3AE
100
AcDbEntity
  8
0
100
AcDbLine
 62
7
  6
CONTINUOUS
 10
516.806929959
 20
91.5672532226
 11
516.7198051691
 21
91.5672532226
  0
LINE
  5
3AF
100
AcDbEntity
  8
0
100
AcDbLine
 62
7
  6
CONTINUOUS
 10
512.6786269184
 20
91.8150599725
 11
512.5010074548
 21
91.8150599725
  0
LINE
  5
3B0
100
AcDbEntity
  8
0
100
AcDbLine
 62
7
  6
CONTINUOUS
 10
517.3566115188
 20
91.9180542983
 11
517.2459617107
 21
91.9180542983
  0
LINE
  5
3B1
100
AcDbEntity
  8
0
100
AcDbLine
 62
7
  6
CONTINUOUS
 10
517.3319909199
 20
92.1770303564
 11
517.2450475108
 21
92.1770303564
  0
LINE
  5
3B2
100
AcDbEntity
  8
0
100
AcDbLine
 62
7
  6
CONTINUOUS
 10
512.5641334024
 20
92.6408600822
 11
512.4577618712
 21
92.6408600822
  0
LINE
  5
3B3
100
AcDbEntity
  8
0
100
AcDbLine
 62
7
  6
CONTINUOUS
 10
512.682039002
 20
92.8037703913
 11
512.5898760336
 21
92.8037703913
  0
LINE
  5
3B4
100
AcDbEntity
  8
0
100
AcDbLine
 62
7
  6
CONTINUOUS
 10
517.3180989438
 20
92.8862309837
 11
517.2424920133
 21
92.8862309837
  0
LINE
  5
3B5
100
AcDbEntity
  8
0
100
AcDbLine
 62
7
  6
CONTINUOUS
 10
512.8921704429
 20
92.9505175156
 11
512.8156703469
 21
92.9505175156
  0
LINE
  5
3B6
100
AcDbEntity
  8
0
100
AcDbLine
 62
7
  6
CONTINUOUS
 10
512.5267376043
 20
92.9985192627
 11
512.4363465228
 21
92.9985192627
  0
LINE
  5
3B7
100
AcDbEntity
  8
0
100
AcDbLine
 62
7
  6
CONTINUOUS
 10
516.9239627626
 20
93.1303731314
 11
516.8058519141
 21
93.1303731314
  0
LINE
  5
3B8
100
AcDbEntity
  8
0
100
AcDbLine
 62
7
  6
CONTINUOUS
 10
517.5398521452
 20
93.3244911145
 11
517.4681090842
 21
93.3244911145
  0
LINE
  5
3B9
100
AcDbEntity
  8
0
100
AcDbLine
 62
7
  6
CONTINUOUS
 10
516.9754655806
 20
93.5567059375
 11
516.8349130491
 21
93.5567059375
  0
LINE
  5
3BA
100
AcDbEntity
  8
0
100
AcDbLine
 62
7
  6
CONTINUOUS
 10
512.6718163007
 20
93.7469146978
 11
512.6051039145
 21
93.7469146978
  0
LINE
  5
3BB
100
AcDbEntity
  8
0
100
AcDbLine
 62
7
  6
CONTINUOUS
 10
517.0998759718
 20
93.951583893
 11
516.865181596
 21
93.951583893
  0
LINE
  5
3BC
100
AcDbEntity
  8
0
100
AcDbLine
 62
7
  6
CONTINUOUS
 10
517.5963478178
 20
94.6480688265
 11
517.5411112378
 21
94.6480688265
  0
LINE
  5
3BD
100
AcDbEntity
  8
KONSTRUKTIONSELEMENTE
100
AcDbLine
 62
7
  6
CONTINUOUS
 10
440.2213744697
 20
343.0253773578
 11
440.2203475402
 21
343.0249361764
  0
LINE
  5
3BE
100
AcDbEntity
  8
KONSTRUKTIONSELEMENTE
100
AcDbLine
 62
7
  6
CONTINUOUS
 10
440.2900140001
 20
343.052318469
 11
440.2205398895
 21
343.0241479897
  0
LINE
  5
3BF
100
AcDbEntity
  8
0
100
AcDbLine
 62
7
  6
CONTINUOUS
 10
517.0917272358
 20
95.1198258463
 11
516.9916102327
 21
95.1198258463
  0
LINE
  5
3C0
100
AcDbEntity
  8
0
100
AcDbLine
 62
7
  6
CONTINUOUS
 10
512.6360344855
 20
95.3404610361
 11
512.5840055661
 21
95.3404610361
  0
LINE
  5
3C1
100
AcDbEntity
  8
0
100
AcDbLine
 62
7
  6
CONTINUOUS
 10
512.2958762865
 20
95.346086357
 11
512.227600667
 21
95.346086357
  0
LINE
  5
3C2
100
AcDbEntity
  8
0
100
AcDbLine
 62
7
  6
CONTINUOUS
 10
517.6424319611
 20
95.9851870911
 11
517.5872821174
 21
95.9851870911
  0
LINE
  5
3C3
100
AcDbEntity
  8
0
100
AcDbLine
 62
7
  6
CONTINUOUS
 10
517.3091925602
 20
96.3645068984
 11
517.2424308245
 21
96.3645068984
  0
LINE
  5
3C4
100
AcDbEntity
  8
0
100
AcDbLine
 62
7
  6
CONTINUOUS
 10
512.2924359281
 20
96.8291509465
 11
512.2227282882
 21
96.8291509465
  0
LINE
  5
3C5
100
AcDbEntity
  8
0
100
AcDbLine
 62
7
  6
CONTINUOUS
 10
512.5852653645
 20
96.8884419546
 11
512.5310398138
 21
96.8884419546
  0
LINE
  5
3C6
100
AcDbEntity
  8
0
100
AcDbLine
 62
7
  6
CONTINUOUS
 10
517.3193292737
 20
97.5103865857
 11
517.2599084132
 21
97.5103865857
  0
LINE
  5
3C7
100
AcDbEntity
  8
0
100
AcDbLine
 62
7
  6
CONTINUOUS
 10
517.6905164947
 20
97.7860754547
 11
517.6358874542
 21
97.7860754547
  0
LINE
  5
3C8
100
AcDbEntity
  8
0
100
AcDbLine
 62
7
  6
CONTINUOUS
 10
512.5192798205
 20
98.1436805985
 11
512.437968283
 21
98.1436805985
  0
LINE
  5
3C9
100
AcDbEntity
  8
0
100
AcDbLine
 62
7
  6
CONTINUOUS
 10
517.3431793991
 20
98.6427214131
 11
517.287514198
 21
98.6427214131
  0
LINE
  5
3CA
100
AcDbEntity
  8
0
100
AcDbLine
 62
7
  6
CONTINUOUS
 10
517.7050554317
 20
98.9319603017
 11
517.6384725189
 21
98.9319603017
  0
LINE
  5
3CB
100
AcDbEntity
  8
0
100
AcDbLine
 62
7
  6
CONTINUOUS
 10
517.6403869431
 20
99.7088987955
 11
517.5657082309
 21
99.7088987955
  0
LINE
  5
3CC
100
AcDbEntity
  8
0
100
AcDbLine
 62
7
  6
CONTINUOUS
 10
517.3809630571
 20
99.7615050843
 11
517.3137569575
 21
99.7615050843
  0
LINE
  5
3CD
100
AcDbEntity
  8
KONSTRUKTIONSELEMENTE
100
AcDbLine
 62
8
  6
HIDDEN
 10
494.8293207525
 20
100.4493208487
 11
466.9314971109
 21
100.4493208487
  0
LINE
  5
3CE
100
AcDbEntity
  8
0
100
AcDbLine
 62
7
  6
CONTINUOUS
 10
512.2831368274
 20
100.5368131127
 11
512.2096367073
 21
100.5368131127
  0
LINE
  5
3CF
100
AcDbEntity
  8
0
100
AcDbLine
 62
7
  6
CONTINUOUS
 10
517.432584927
 20
100.8667382487
 11
517.3654212054
 21
100.8667382487
  0
LINE
  5
3D0
100
AcDbEntity
  8
0
100
AcDbLine
 62
7
  6
CONTINUOUS
 10
517.9532870859
 20
101.9344550033
 11
517.8798437609
 21
101.9344550033
  0
LINE
  5
3D1
100
AcDbEntity
  8
0
100
AcDbLine
 62
7
  6
CONTINUOUS
 10
517.5496177552
 20
102.8317790261
 11
517.4664867844
 21
102.8317790261
  0
LINE
  5
3D2
100
AcDbEntity
  8
0
100
AcDbLine
 62
7
  6
CONTINUOUS
 10
517.6011208573
 20
103.4732421118
 11
517.5055996574
 21
103.4732421118
  0
LINE
  5
3D3
100
AcDbEntity
  8
0
100
AcDbLine
 62
7
  6
CONTINUOUS
 10
517.6386863315
 20
103.6644856256
 11
517.5172595226
 21
103.6644856256
  0
LINE
  5
3D4
100
AcDbEntity
  8
0
100
AcDbLine
 62
7
  6
CONTINUOUS
 10
517.7255328958
 20
104.4972015703
 11
517.5723993842
 21
104.4972015703
  0
LINE
  5
3D5
100
AcDbEntity
  8
0
100
AcDbLine
 62
7
  6
CONTINUOUS
 10
517.717382733
 20
105.4382828892
 11
517.6686875701
 21
105.4382828892
  0
LINE
  5
3D6
100
AcDbEntity
  8
0
100
AcDbLine
 62
7
  6
CONTINUOUS
 10
517.9408774496
 20
106.0537762063
 11
517.8610764713
 21
106.0537762063
  0
LINE
  5
3D7
100
AcDbEntity
  8
0
100
AcDbLine
 62
7
  6
CONTINUOUS
 10
517.9371455692
 20
107.1772273004
 11
517.8554009609
 21
107.1772273004
  0
LWPOLYLINE
  5
3D8
100
AcDbEntity
  8
RUNDUNGEN
100
AcDbPolyline
 62
8
  6
HIDDEN
 90
29
 70
0
 10
494.8287456637
 20
100.4493209148
 10
495.9522702405
 20
100.4175257076
 10
497.461597113
 20
100.2740880218
 10
498.9254720381
 20
100.0223239491
 10
500.3358775245
 20
99.6706908104
 10
501.6862489149
 20
99.2280475299
 10
502.9711459238
 20
98.7035393667
 10
504.1863346149
 20
98.106414677
 10
505.328152965
 20
97.4462317008
 10
506.3943958789
 20
96.7323047528
 10
507.3826223029
 20
95.9747417486
 10
508.291949305
 20
95.1832730642
 10
509.1216332763
 20
94.3682882794
 10
509.8735018963
 20
93.5383326546
 10
510.5448118185
 20
92.7081884529
 10
511.1359106012
 20
91.891479866
 10
511.6485363759
 20
91.1019317868
 10
512.0844191073
 20
90.3554156003
 10
512.4514351341
 20
89.6582529521
 10
512.7547770201
 20
89.0208634005
 10
513.0044238455
 20
88.4421216326
 10
513.2080677042
 20
87.9223135709
 10
513.3717456681
 20
87.463093681
 10
513.5011326871
 20
87.0647022524
 10
513.600296402
 20
86.7301390526
 10
513.6729779485
 20
86.4620272516
 10
513.7232078064
 20
86.2599808875
 10
513.7542212949
 20
86.1244160257
 10
513.7587871886
 20
86.1033723715
  0
LINE
  5
3D9
100
AcDbEntity
  8
0
100
AcDbLine
 62
7
  6
CONTINUOUS
 10
431.0998819128
 20
361.8870511271
 11
440.2143726786
 21
377.6738122186
  0
LINE
  5
3DA
100
AcDbEntity
  8
0
100
AcDbLine
 62
7
  6
CONTINUOUS
 10
518.3346210216
 20
110.6434470468
 11
518.2718750308
 21
110.6434470468
  0
LINE
  5
3DB
100
AcDbEntity
  8
0
100
AcDbLine
 62
7
  6
CONTINUOUS
 10
518.2798663813
 20
113.2258886804
 11
518.2293641354
 21
113.2258886804
  0
LWPOLYLINE
  5
3DC
100
AcDbEntity
  8
RUNDUNGEN
100
AcDbPolyline
 62
7
  6
CONTINUOUS
 90
6
 70
0
 10
455.0703560513
 20
324.5409567314
 10
455.2213102907
 20
324.6808407373
 10
455.4059157516
 20
324.7893591499
 10
455.6134418769
 20
324.8601428329
 10
455.8308347833
 20
324.8899231357
 10
455.8804006903
 20
324.8909680507
  0
LINE
  5
3DD
100
AcDbEntity
  8
0
100
AcDbLine
 62
7
  6
CONTINUOUS
 10
519.208669313
 20
136.4103578557
 11
519.182825472
 21
136.4103578557
  0
LINE
  5
3DE
100
AcDbEntity
  8
0
100
AcDbLine
 62
7
  6
CONTINUOUS
 10
519.2326806051
 20
137.2654512653
 11
519.2038958053
 21
137.2654512653
  0
LINE
  5
3DF
100
AcDbEntity
  8
0
100
AcDbLine
 62
7
  6
CONTINUOUS
 10
519.5146801691
 20
143.7208965802
 11
519.4809754407
 21
143.7208965802
  0
LINE
  5
3E0
100
AcDbEntity
  8
0
100
AcDbLine
 62
7
  6
CONTINUOUS
 10
519.5465726883
 20
143.8970820873
 11
519.4942914694
 21
143.8970820873
  0
LINE
  5
3E1
100
AcDbEntity
  8
0
100
AcDbLine
 62
7
  6
CONTINUOUS
 10
519.5734895493
 20
144.7521754969
 11
519.5325807709
 21
144.7521754969
  0
LINE
  5
3E2
100
AcDbEntity
  8
0
100
AcDbLine
 62
7
  6
CONTINUOUS
 10
519.7993782147
 20
149.3118851459
 11
519.771885147
 21
149.3118851459
  0
LINE
  5
3E3
100
AcDbEntity
  8
0
100
AcDbLine
 62
7
  6
CONTINUOUS
 10
519.8003313607
 20
150.2157123859
 11
519.7717270983
 21
150.2157123859
  0
LWPOLYLINE
  5
3E4
100
AcDbEntity
  8
0
100
AcDbPolyline
 62
7
  6
CONTINUOUS
 90
9
 70
0
 10
462.1892969363
 20
83.7854468601
 10
462.1884963136
 20
83.786988216
 10
462.1949159626
 20
83.7709505101
 10
462.2068206059
 20
83.7373903761
 10
462.2224791332
 20
83.6878375394
 10
462.2407941134
 20
83.62311503
 10
462.2606613207
 20
83.5451521192
 10
462.2816256952
 20
83.4543078119
 10
462.3031325894
 20
83.3516442176
  0
LINE
  5
3E5
100
AcDbEntity
  8
0
100
AcDbLine
 62
7
  6
CONTINUOUS
 10
458.8266635764
 20
51.515668868
 11
458.8722557146
 21
51.3672687902
  0
LWPOLYLINE
  5
3E6
100
AcDbEntity
  8
KONSTRUKTIONSELEMENTE
100
AcDbPolyline
 62
7
  6
CONTINUOUS
 90
16
 70
0
 10
437.6317782657
 20
333.3518709294
 10
437.4779456337
 20
332.1287292766
 10
437.3367915691
 20
330.6803429279
 10
437.2057112055
 20
329.0219346626
 10
437.0841750982
 20
327.1709532646
 10
436.9726112911
 20
325.1504346509
 10
436.8712727771
 20
322.9759918497
 10
436.7808422887
 20
320.6682292458
 10
436.7018145705
 20
318.240248661
 10
436.6353459236
 20
315.724947511
 10
436.5822455636
 20
313.1507783307
 10
436.5432555296
 20
310.5513747216
 10
436.5188844609
 20
307.9598228478
 10
436.5094279816
 20
305.409087905
 10
436.5149594679
 20
302.9321952953
 10
436.5307181965
 20
300.9743162855
  0
LINE
  5
3E7
100
AcDbEntity
  8
KONSTRUKTIONSELEMENTE
100
AcDbLine
 62
7
  6
CONTINUOUS
 10
437.7719085908
 20
334.1734192812
 11
437.6317782657
 21
333.3518709294
  0
LINE
  5
3E8
100
AcDbEntity
  8
KONSTRUKTIONSELEMENTE
100
AcDbLine
 62
7
  6
CONTINUOUS
 10
439.3429623059
 20
341.9443191499
 11
437.7706300477
 21
334.1671701344
  0
LINE
  5
3E9
100
AcDbEntity
  8
0
100
AcDbLine
 62
7
  6
CONTINUOUS
 10
458.7647297706
 20
51.7543566151
 11
458.8266635764
 21
51.515668868
  0
LINE
  5
3EA
100
AcDbEntity
  8
0
100
AcDbLine
 62
7
  6
CONTINUOUS
 10
458.8722557146
 20
51.3672687902
 11
458.8741521945
 21
51.3589653971
  0
LINE
  5
3EB
100
AcDbEntity
  8
0
100
AcDbLine
 62
7
  6
CONTINUOUS
 10
458.8741521945
 20
51.3589653971
 11
458.881272386
 21
51.3265741149
  0
LINE
  5
3EC
100
AcDbEntity
  8
0
100
AcDbLine
 62
7
  6
CONTINUOUS
 10
458.881272386
 20
51.3265741149
 11
458.8910789265
 21
51.2805125605
  0
LINE
  5
3ED
100
AcDbEntity
  8
0
100
AcDbLine
 62
7
  6
CONTINUOUS
 10
458.8910789265
 20
51.2805125605
 11
458.9032480241
 21
51.2217339878
  0
LINE
  5
3EE
100
AcDbEntity
  8
0
100
AcDbLine
 62
7
  6
CONTINUOUS
 10
445.7098442674
 20
70.0953580672
 11
445.8108596115
 21
69.1347486534
  0
LINE
  5
3EF
100
AcDbEntity
  8
0
100
AcDbLine
 62
7
  6
CONTINUOUS
 10
445.6066774707
 20
71.1554216283
 11
445.7098442674
 21
70.0953580672
  0
LINE
  5
3F0
100
AcDbEntity
  8
0
100
AcDbLine
 62
7
  6
CONTINUOUS
 10
445.5012702956
 20
72.3204282069
 11
445.6066774707
 21
71.1554216283
  0
LINE
  5
3F1
100
AcDbEntity
  8
0
100
AcDbLine
 62
7
  6
CONTINUOUS
 10
445.3935722148
 20
73.595575255
 11
445.5012702956
 21
72.3204282069
  0
LINE
  5
3F2
100
AcDbEntity
  8
0
100
AcDbLine
 62
7
  6
CONTINUOUS
 10
445.2835599166
 20
74.9857395683
 11
445.3935722148
 21
73.595575255
  0
LINE
  5
3F3
100
AcDbEntity
  8
0
100
AcDbLine
 62
7
  6
CONTINUOUS
 10
445.1712282415
 20
76.4953279277
 11
445.2835599166
 21
74.9857395683
  0
LINE
  5
3F4
100
AcDbEntity
  8
0
100
AcDbLine
 62
7
  6
CONTINUOUS
 10
445.0565891023
 20
78.1283400988
 11
445.1712282415
 21
76.4953279277
  0
LWPOLYLINE
  5
3F5
100
AcDbEntity
  8
KONSTRUKTIONSELEMENTE
100
AcDbPolyline
 62
7
  6
CONTINUOUS
 90
5
 70
0
 10
437.4547666743
 20
216.5424349683
 10
437.5198139824
 20
215.5921565269
 10
437.6380597914
 20
214.6453562464
 10
437.809270644
 20
213.7045497111
 10
438.0330777454
 20
212.7722360289
  0
LWPOLYLINE
  5
3F6
100
AcDbEntity
  8
0
100
AcDbPolyline
 62
7
  6
CONTINUOUS
 90
10
 70
0
 10
439.2903081664
 20
203.3446861502
 10
439.463484108
 20
200.8104936503
 10
439.6573837868
 20
197.7942222941
 10
439.8511035305
 20
194.6017890595
 10
440.0448368721
 20
191.2414031204
 10
440.2387141904
 20
187.7227803485
 10
440.4328827477
 20
184.0558208236
 10
440.6274776918
 20
180.2510491842
 10
440.8226285962
 20
176.3194439399
 10
441.018500871
 20
172.2716019318
  0
LINE
  5
3F7
100
AcDbEntity
  8
0
100
AcDbLine
 62
7
  6
CONTINUOUS
 10
444.8801681336
 20
80.8201407981
 11
445.0565891023
 21
78.1283400988
  0
LINE
  5
3F8
100
AcDbEntity
  8
0
100
AcDbLine
 62
7
  6
CONTINUOUS
 10
444.6977529817
 20
83.8248733516
 11
444.8801681336
 21
80.8201407981
  0
LINE
  5
3F9
100
AcDbEntity
  8
0
100
AcDbLine
 62
7
  6
CONTINUOUS
 10
444.5085102673
 20
87.1715430451
 11
444.6977529817
 21
83.8248733516
  0
LINE
  5
3FA
100
AcDbEntity
  8
0
100
AcDbLine
 62
7
  6
CONTINUOUS
 10
444.31163209
 20
90.8908072115
 11
444.5085102673
 21
87.1715430451
  0
LINE
  5
3FB
100
AcDbEntity
  8
0
100
AcDbLine
 62
7
  6
CONTINUOUS
 10
444.1064687871
 20
95.0116739975
 11
444.31163209
 21
90.8908072115
  0
LINE
  5
3FC
100
AcDbEntity
  8
0
100
AcDbLine
 62
7
  6
CONTINUOUS
 10
441.018500871
 20
172.2716019318
 11
441.4125137124
 21
163.883112089
  0
LINE
  5
3FD
100
AcDbEntity
  8
0
100
AcDbLine
 62
7
  6
CONTINUOUS
 10
443.8926431556
 20
99.557316866
 11
444.1064687871
 21
95.0116739975
  0
LINE
  5
3FE
100
AcDbEntity
  8
0
100
AcDbLine
 62
7
  6
CONTINUOUS
 10
441.5126589114
 20
161.7105212908
 11
441.4125137124
 21
163.883112089
  0
LINE
  5
3FF
100
AcDbEntity
  8
0
100
AcDbLine
 62
7
  6
CONTINUOUS
 10
443.6698239044
 20
104.5480530377
 11
443.8926431556
 21
99.557316866
  0
LINE
  5
400
100
AcDbEntity
  8
0
100
AcDbLine
 62
7
  6
CONTINUOUS
 10
443.437878808
 20
109.9963030405
 11
443.6698239044
 21
104.5480530377
  0
LINE
  5
401
100
AcDbEntity
  8
0
100
AcDbLine
 62
7
  6
CONTINUOUS
 10
443.1154766013
 20
117.9524240006
 11
443.437878808
 21
109.9963030405
  0
LINE
  5
402
100
AcDbEntity
  8
0
100
AcDbLine
 62
7
  6
CONTINUOUS
 10
442.7797161348
 20
126.6435175587
 11
443.1154766013
 21
117.9524240006
  0
LINE
  5
403
100
AcDbEntity
  8
0
100
AcDbLine
 62
7
  6
CONTINUOUS
 10
442.3425510899
 20
138.4443129702
 11
442.7797161348
 21
126.6435175587
  0
LINE
  5
404
100
AcDbEntity
  8
0
100
AcDbLine
 62
7
  6
CONTINUOUS
 10
439.2604089317
 20
203.8740679356
 11
439.2680721628
 21
203.657056129
  0
LINE
  5
405
100
AcDbEntity
  8
0
100
AcDbLine
 62
7
  6
CONTINUOUS
 10
441.5127829786
 20
161.7070104653
 11
442.3425510899
 21
138.4443129702
  0
LINE
  5
406
100
AcDbEntity
  8
KONSTRUKTIONSELEMENTE
100
AcDbLine
 62
7
  6
CONTINUOUS
 10
437.4419334915
 20
217.0434487781
 11
437.4547666743
 21
216.5424349683
  0
LINE
  5
407
100
AcDbEntity
  8
KONSTRUKTIONSELEMENTE
100
AcDbLine
 62
7
  6
CONTINUOUS
 10
436.5307181965
 20
300.9743162855
 11
437.4419331177
 21
217.0434720298
  0
LINE
  5
408
100
AcDbEntity
  8
0
100
AcDbLine
 62
7
  6
CONTINUOUS
 10
430.4300089317
 20
268.4323458246
 11
430.4300089317
 21
359.3870511271
  0
LINE
  5
409
100
AcDbEntity
  8
0
100
AcDbLine
 62
7
  6
CONTINUOUS
 10
439.2604089317
 20
208.6997544688
 11
439.2604089317
 21
203.8740679356
  0
LWPOLYLINE
  5
40A
100
AcDbEntity
  8
RUNDUNGEN
100
AcDbPolyline
 62
7
  6
CONTINUOUS
 90
6
 70
0
 10
447.9110585602
 20
179.7328388033
 10
447.9919816142
 20
179.4708092391
 10
448.2794116349
 20
178.7997209743
 10
448.6680549637
 20
178.176630866
 10
449.1490889685
 20
177.6161924058
 10
449.5763410789
 20
177.2483735057
  0
LINE
  5
40B
100
AcDbEntity
  8
KONSTRUKTIONSELEMENTE
100
AcDbLine
 62
7
  6
CONTINUOUS
 10
438.1835584956
 20
212.247004808
 11
446.3991514567
 21
185.1840405016
  0
LINE
  5
40C
100
AcDbEntity
  8
KONSTRUKTIONSELEMENTE
100
AcDbLine
 62
7
  6
CONTINUOUS
 10
438.0330777454
 20
212.7722360289
 11
438.1835529721
 21
212.2470234559
  0
LINE
  5
40D
100
AcDbEntity
  8
RUNDUNGEN
100
AcDbLine
 62
7
  6
CONTINUOUS
 10
447.9108241626
 20
179.7327731089
 11
446.3849846338
 21
185.2326322447
  0
LINE
  5
40E
100
AcDbEntity
  8
0
100
AcDbLine
 62
7
  6
CONTINUOUS
 10
446.7507798003
 20
169.4254256232
 11
463.9555438362
 21
105.216372109
  0
LINE
  5
40F
100
AcDbEntity
  8
0
100
AcDbLine
 62
7
  6
CONTINUOUS
 10
458.9032480241
 20
51.2217339878
 11
458.9263014562
 21
51.1072446961
  0
LINE
  5
410
100
AcDbEntity
  8
0
100
AcDbLine
 62
7
  6
CONTINUOUS
 10
458.9263014562
 20
51.1072446961
 11
458.9657327023
 21
50.9064529431
  0
LWPOLYLINE
  5
411
100
AcDbEntity
  8
0
100
AcDbPolyline
 62
7
  6
CONTINUOUS
 90
4
 70
0
 10
462.3031325894
 20
83.3516442176
 10
462.3248608417
 20
83.2372896529
 10
462.3464999365
 20
83.1116453783
 10
462.3677723753
 20
82.9752036151
  0
LINE
  5
412
100
AcDbEntity
  8
0
100
AcDbLine
 62
7
  6
CONTINUOUS
 10
458.9657327023
 20
50.9064529431
 11
459.0281662387
 21
50.5798701156
  0
LINE
  5
413
100
AcDbEntity
  8
0
100
AcDbLine
 62
7
  6
CONTINUOUS
 10
459.0281662387
 20
50.5798701156
 11
459.1194907909
 21
50.0900030576
  0
LINE
  5
414
100
AcDbEntity
  8
0
100
AcDbLine
 62
7
  6
CONTINUOUS
 10
464.8407451108
 20
17.9370309652
 11
463.4052036046
 21
25.912261555
  0
LINE
  5
415
100
AcDbEntity
  8
0
100
AcDbLine
 62
7
  6
CONTINUOUS
 10
458.6791573912
 20
52.1680844407
 11
457.1316627418
 21
60.7652663482
  0
LINE
  5
416
100
AcDbEntity
  8
0
100
AcDbLine
 62
7
  6
CONTINUOUS
 10
459.1194907909
 20
50.0900030576
 11
459.2322948239
 21
49.4691199011
  0
LINE
  5
417
100
AcDbEntity
  8
0
100
AcDbLine
 62
7
  6
CONTINUOUS
 10
463.3959690926
 20
25.9637248804
 11
463.3963514409
 21
25.9615326979
  0
LINE
  5
418
100
AcDbEntity
  8
0
100
AcDbLine
 62
7
  6
CONTINUOUS
 10
463.384675209
 20
26.0303392472
 11
463.3929076782
 21
25.9807373533
  0
LINE
  5
419
100
AcDbEntity
  8
0
100
AcDbLine
 62
7
  6
CONTINUOUS
 10
463.3598975272
 20
26.4421653479
 11
463.4065564452
 21
26.1626440441
  0
LINE
  5
41A
100
AcDbEntity
  8
0
100
AcDbLine
 62
7
  6
CONTINUOUS
 10
463.4065564452
 20
26.1626440441
 11
463.4257535402
 21
26.0441442142
  0
LINE
  5
41B
100
AcDbEntity
  8
0
100
AcDbLine
 62
7
  6
CONTINUOUS
 10
463.4257535402
 20
26.0441442142
 11
463.4397604367
 21
25.9551197088
  0
LWPOLYLINE
  5
41C
100
AcDbEntity
  8
0
100
AcDbPolyline
 62
7
  6
CONTINUOUS
 90
4
 70
0
 10
463.4397604367
 20
25.9551197088
 10
463.4461382285
 20
25.9131373126
 10
463.4484458033
 20
25.8973624148
 10
463.4501732627
 20
25.8851504501
  0
LWPOLYLINE
  5
41D
100
AcDbEntity
  8
0
100
AcDbPolyline
 62
7
  6
CONTINUOUS
 90
34
 70
0
 10
445.8108596115
 20
69.1347486534
 10
445.8606048648
 20
68.6899025455
 10
445.9098722684
 20
68.2676722947
 10
445.9586978552
 20
67.8672124732
 10
446.0071168719
 20
67.4877246117
 10
446.0551828243
 20
67.128313248
 10
446.1029484261
 20
66.7881464717
 10
446.1504959561
 20
66.4662487547
 10
446.1979091777
 20
66.1617209197
 10
446.24530734
 20
65.8735259296
 10
446.2928096818
 20
65.6007318494
 10
446.3406136844
 20
65.3420985746
 10
446.3889123521
 20
65.0965962967
 10
446.4380367491
 20
64.8627179813
 10
446.4883104571
 20
64.6392913646
 10
446.5403070238
 20
64.4243999093
 10
446.5946121191
 20
64.2165844005
 10
446.6521923432
 20
64.0135358025
 10
446.7140654148
 20
63.8135707949
 10
446.781966626
 20
63.6136841034
 10
446.8576735713
 20
63.4120699284
 10
446.9445953015
 20
63.2043177444
 10
447.0464650758
 20
62.9878180276
 10
447.1691949812
 20
62.7583935952
 10
447.3199872963
 20
62.5136430716
 10
447.507590547
 20
62.2532341181
 10
447.7444427007
 20
61.9773853422
 10
448.0366488252
 20
61.6983861528
 10
448.3942781415
 20
61.4268852947
 10
448.8122925847
 20
61.1854487533
 10
449.285120799
 20
60.9920430574
 10
449.7948356191
 20
60.8641161737
 10
450.3145457237
 20
60.8112646358
 10
450.4206231314
 20
60.8097222991
  0
LWPOLYLINE
  5
41E
100
AcDbEntity
  8
0
100
AcDbPolyline
 62
7
  6
CONTINUOUS
 90
5
 70
0
 10
463.859013732
 20
72.3375565897
 10
463.8824633312
 20
72.0982249069
 10
463.9008712047
 20
71.8637081477
 10
463.9141952795
 20
71.6386119196
 10
463.9223194419
 20
71.4270484575
  0
LINE
  5
41F
100
AcDbEntity
  8
0
100
AcDbLine
 62
7
  6
CONTINUOUS
 10
463.3365943722
 20
26.5794913307
 11
463.3542155316
 21
26.294714508
  0
LINE
  5
420
100
AcDbEntity
  8
BEZUGSACHSEN
100
AcDbLine
 62
7
  6
CONTINUOUS
 10
440.8804089317
 20
398.4670208487
 11
440.8804089317
 21
397.3814208482
  0
LINE
  5
421
100
AcDbEntity
  8
0
100
AcDbLine
 62
7
  6
CONTINUOUS
 10
440.8804089317
 20
398.4670208487
 11
440.8804089317
 21
397.3023523526
  0
LINE
  5
422
100
AcDbEntity
  8
BEZUGSACHSEN
100
AcDbLine
 62
7
  6
CONTINUOUS
 10
440.8804089317
 20
396.3281239219
 11
440.8804089317
 21
380.1671668109
  0
LINE
  5
423
100
AcDbEntity
  8
0
100
AcDbLine
 62
7
  6
CONTINUOUS
 10
451.8730089317
 20
148.9971755382
 11
451.8730089317
 21
149.4566360796
  0
LWPOLYLINE
  5
424
100
AcDbEntity
  8
RUNDUNGEN
100
AcDbPolyline
 62
7
  6
CONTINUOUS
 90
4
 70
0
 10
454.8804005976
 20
324.0464678785
 10
454.8967897951
 20
324.1991894358
 10
454.9610990965
 20
324.3785941569
 10
455.0703560513
 20
324.5409567314
  0
LINE
  5
425
100
AcDbEntity
  8
0
100
AcDbLine
 62
7
  6
CONTINUOUS
 10
437.1714284089
 20
241.956500845
 11
430.7707528817
 21
265.8441471149
  0
LWPOLYLINE
  5
426
100
AcDbEntity
  8
0
100
AcDbPolyline
 62
7
  6
CONTINUOUS
 90
5
 70
0
 10
451.6872829647
 20
150.9456827066
 10
451.7334361653
 20
150.6430937941
 10
451.7605664141
 20
150.3280071927
 10
451.7664320532
 20
149.9931617739
 10
451.7612815936
 20
149.8396862199
  0
LINE
  5
427
100
AcDbEntity
  8
0
100
AcDbLine
 62
7
  6
CONTINUOUS
 10
463.3164075866
 20
76.1602308853
 11
463.8046203925
 21
72.7692105082
  0
LINE
  5
428
100
AcDbEntity
  8
0
100
AcDbLine
 62
7
  6
CONTINUOUS
 10
462.3677723753
 20
82.9752036151
 11
462.3843070144
 21
82.8585565505
  0
LINE
  5
429
100
AcDbEntity
  8
0
100
AcDbLine
 62
7
  6
CONTINUOUS
 10
462.8087260819
 20
79.7679855452
 11
463.3164075866
 21
76.1602308853
  0
LINE
  5
42A
100
AcDbEntity
  8
0
100
AcDbLine
 62
7
  6
CONTINUOUS
 10
463.8046235331
 20
72.7692226673
 11
463.8309164716
 21
72.5767411655
  0
LINE
  5
42B
100
AcDbEntity
  8
0
100
AcDbLine
 62
7
  6
CONTINUOUS
 10
462.3842990213
 20
82.8585599889
 11
462.8087260819
 21
79.7679855452
  0
LINE
  5
42C
100
AcDbEntity
  8
0
100
AcDbLine
 62
7
  6
CONTINUOUS
 10
463.8309164716
 20
72.5767411655
 11
463.859013732
 21
72.3375565897
  0
LINE
  5
42D
100
AcDbEntity
  8
0
100
AcDbLine
 62
7
  6
CONTINUOUS
 10
463.3542155316
 20
26.294714508
 11
463.384675209
 21
26.0303392472
  0
LINE
  5
42E
100
AcDbEntity
  8
0
100
AcDbLine
 62
7
  6
CONTINUOUS
 10
462.93766524
 20
31.428457001
 11
462.9376625108
 21
31.4285797139
  0
LWPOLYLINE
  5
42F
100
AcDbEntity
  8
0
100
AcDbPolyline
 62
7
  6
CONTINUOUS
 90
3
 70
0
 10
463.9223194419
 20
71.4270484575
 10
463.9254874846
 20
71.2328566527
 10
463.9254971165
 20
71.1773065414
  0
LINE
  5
430
100
AcDbEntity
  8
RUNDUNGEN
100
AcDbLine
 62
7
  6
CONTINUOUS
 10
454.8804089317
 20
324.0474643408
 11
454.8804089317
 21
281.1580830463
  0
LINE
  5
431
100
AcDbEntity
  8
0
100
AcDbLine
 62
7
  6
CONTINUOUS
 10
459.2300089317
 20
324.8909681262
 11
459.2300089317
 21
288.9660408455
  0
LWPOLYLINE
  5
432
100
AcDbEntity
  8
0
100
AcDbPolyline
 62
7
  6
CONTINUOUS
 90
9
 70
0
 10
463.9254817336
 20
71.1775061071
 10
463.9097846374
 20
68.6700522713
 10
463.8780577875
 20
65.9040719091
 10
463.8323359018
 20
63.208013269
 10
463.7737760546
 20
60.5834817884
 10
463.7039053884
 20
58.0342631734
 10
463.6245877059
 20
55.5632888549
 10
463.5380110031
 20
53.172609562
 10
463.4466968114
 20
50.8632953478
  0
LWPOLYLINE
  5
433
100
AcDbEntity
  8
0
100
AcDbPolyline
 62
7
  6
CONTINUOUS
 90
5
 70
0
 10
462.9405590241
 20
36.3409966259
 10
462.9240634827
 20
35.043711212
 10
462.9165131422
 20
33.7732085272
 10
462.920730843
 20
32.5346506404
 10
462.9376625108
 20
31.4285797139
  0
LINE
  5
434
100
AcDbEntity
  8
0
100
AcDbLine
 62
7
  6
CONTINUOUS
 10
462.9878367443
 20
38.8613258271
 11
462.9405590241
 21
36.3409966259
  0
LWPOLYLINE
  5
435
100
AcDbEntity
  8
0
100
AcDbPolyline
 62
7
  6
CONTINUOUS
 90
3
 70
0
 10
451.7612878225
 20
149.8398142506
 10
451.5007572465
 20
144.5922783599
 10
450.3858738426
 20
121.6891395995
  0
LINE
  5
436
100
AcDbEntity
  8
0
100
AcDbLine
 62
7
  6
CONTINUOUS
 10
450.3858738426
 20
121.6891395995
 11
450.1192183598
 21
116.3105847065
  0
LINE
  5
437
100
AcDbEntity
  8
0
100
AcDbLine
 62
7
  6
CONTINUOUS
 10
450.1192183598
 20
116.3105847065
 11
449.9496988479
 21
113.0011317843
  0
LINE
  5
438
100
AcDbEntity
  8
0
100
AcDbLine
 62
7
  6
CONTINUOUS
 10
449.9496988479
 20
113.0011317843
 11
449.7862711605
 21
109.9094286821
  0
LINE
  5
439
100
AcDbEntity
  8
0
100
AcDbLine
 62
7
  6
CONTINUOUS
 10
449.7862711605
 20
109.9094286821
 11
449.6285503722
 21
107.0309652377
  0
LINE
  5
43A
100
AcDbEntity
  8
0
100
AcDbLine
 62
7
  6
CONTINUOUS
 10
449.6285503722
 20
107.0309652377
 11
449.4761914322
 21
104.3599678149
  0
LINE
  5
43B
100
AcDbEntity
  8
0
100
AcDbLine
 62
7
  6
CONTINUOUS
 10
449.4761914322
 20
104.3599678149
 11
449.3288812246
 21
101.8898396547
  0
LINE
  5
43C
100
AcDbEntity
  8
0
100
AcDbLine
 62
7
  6
CONTINUOUS
 10
449.3288812246
 20
101.8898396547
 11
449.1863595989
 21
99.6136255955
  0
LINE
  5
43D
100
AcDbEntity
  8
0
100
AcDbLine
 62
7
  6
CONTINUOUS
 10
449.1863595989
 20
99.6136255955
 11
449.0484075926
 21
97.5242257714
  0
LINE
  5
43E
100
AcDbEntity
  8
0
100
AcDbLine
 62
7
  6
CONTINUOUS
 10
449.0484075926
 20
97.5242257714
 11
448.9149072903
 21
95.6153077984
  0
LINE
  5
43F
100
AcDbEntity
  8
0
100
AcDbLine
 62
7
  6
CONTINUOUS
 10
448.9149072903
 20
95.6153077984
 11
448.7859858121
 21
93.8830952916
  0
LINE
  5
440
100
AcDbEntity
  8
0
100
AcDbLine
 62
7
  6
CONTINUOUS
 10
448.7859858121
 20
93.8830952916
 11
448.6620142803
 21
92.325631498
  0
LINE
  5
441
100
AcDbEntity
  8
0
100
AcDbLine
 62
7
  6
CONTINUOUS
 10
448.6620142803
 20
92.325631498
 11
448.5435175017
 21
90.9409202998
  0
LINE
  5
442
100
AcDbEntity
  8
0
100
AcDbLine
 62
7
  6
CONTINUOUS
 10
448.5435175017
 20
90.9409202998
 11
448.4312104315
 21
89.7269597353
  0
LWPOLYLINE
  5
443
100
AcDbEntity
  8
0
100
AcDbPolyline
 62
7
  6
CONTINUOUS
 90
12
 70
0
 10
448.4312104315
 20
89.7269597353
 10
448.3260902184
 20
88.6821791144
 10
448.276649986
 20
88.2230021705
 10
448.2295693405
 20
87.8058647249
 10
448.1851374131
 20
87.431019476
 10
448.143649777
 20
87.0984236175
 10
448.1055651863
 20
86.8089248154
 10
448.0713406809
 20
86.5628176598
 10
448.041721903
 20
86.3618348648
 10
448.017442458
 20
86.2067805544
 10
447.9997679222
 20
86.1008283103
 10
447.9910292934
 20
86.0515263089
  0
LINE
  5
444
100
AcDbEntity
  8
KONSTRUKTIONSELEMENTE
100
AcDbLine
 62
7
  6
CONTINUOUS
 10
487.8542237625
 20
248.6979521163
 11
480.8804089317
 21
244.8092473355
  0
LINE
  5
445
100
AcDbEntity
  8
KONSTRUKTIONSELEMENTE
100
AcDbLine
 62
7
  6
CONTINUOUS
 10
480.8804089317
 20
242.9045756062
 11
487.8542237625
 21
246.793280387
  0
LINE
  5
446
100
AcDbEntity
  8
KONSTRUKTIONSELEMENTE
100
AcDbLine
 62
7
  6
CONTINUOUS
 10
480.8804089317
 20
242.6721485218
 11
487.8542237625
 21
246.5608533025
  0
LWPOLYLINE
  5
447
100
AcDbEntity
  8
0
100
AcDbPolyline
 62
7
  6
CONTINUOUS
 90
11
 70
0
 10
467.4184951557
 20
203.1519055502
 10
466.9087694183
 20
203.1258556866
 10
466.3902312249
 20
203.0450307065
 10
465.8830213954
 20
202.9103002708
 10
465.3927276459
 20
202.7231487115
 10
464.9247513101
 20
202.4856378522
 10
464.4842478933
 20
202.2003843231
 10
464.0760702048
 20
201.8705307027
 10
463.7047149682
 20
201.4997109534
 10
463.3742732236
 20
201.0920103612
 10
463.0883851959
 20
200.6519204306
  0
LINE
  5
448
100
AcDbEntity
  8
KONSTRUKTIONSELEMENTE
100
AcDbLine
 62
7
  6
CONTINUOUS
 10
467.4184513044
 20
203.1519208487
 11
494.342366559
 21
203.1519208487
  0
LINE
  5
449
100
AcDbEntity
  8
KONSTRUKTIONSELEMENTE
100
AcDbLine
 62
7
  6
CONTINUOUS
 10
473.9777554768
 20
232.8350253639
 11
473.9777554768
 21
224.5875548464
  0
LINE
  5
44A
100
AcDbEntity
  8
KONSTRUKTIONSELEMENTE
100
AcDbLine
 62
7
  6
CONTINUOUS
 10
473.9777554768
 20
236.8989191596
 11
473.9777554768
 21
243.591864816
  0
LINE
  5
44B
100
AcDbEntity
  8
KONSTRUKTIONSELEMENTE
100
AcDbLine
 62
7
  6
CONTINUOUS
 10
473.9777554768
 20
249.2701249357
 11
473.9777554768
 21
251.1520461236
  0
LINE
  5
44C
100
AcDbEntity
  8
KONSTRUKTIONSELEMENTE
100
AcDbLine
 62
7
  6
CONTINUOUS
 10
473.9777554768
 20
257.482358845
 11
473.9777554768
 21
259.3642800329
  0
LINE
  5
44D
100
AcDbEntity
  8
KONSTRUKTIONSELEMENTE
100
AcDbLine
 62
7
  6
CONTINUOUS
 10
473.9777554768
 20
262.7401212998
 11
473.9777554768
 21
269.0351978365
  0
LINE
  5
44E
100
AcDbEntity
  8
KONSTRUKTIONSELEMENTE
100
AcDbLine
 62
7
  6
CONTINUOUS
 10
475.6856284966
 20
262.7401212998
 11
475.6856284966
 21
268.9846168389
  0
LINE
  5
44F
100
AcDbEntity
  8
KONSTRUKTIONSELEMENTE
100
AcDbLine
 62
7
  6
CONTINUOUS
 10
475.9157979431
 20
236.8989191596
 11
475.9157979431
 21
243.591864816
  0
LINE
  5
450
100
AcDbEntity
  8
KONSTRUKTIONSELEMENTE
100
AcDbLine
 62
7
  6
CONTINUOUS
 10
476.1125967515
 20
227.4226228368
 11
476.1125967515
 21
229.9999573735
  0
LINE
  5
451
100
AcDbEntity
  8
KONSTRUKTIONSELEMENTE
100
AcDbLine
 62
7
  6
CONTINUOUS
 10
476.9131622296
 20
227.654115969
 11
476.9131622296
 21
229.5360371569
  0
LINE
  5
452
100
AcDbEntity
  8
KONSTRUKTIONSELEMENTE
100
AcDbLine
 62
7
  6
CONTINUOUS
 10
477.1800173889
 20
262.7401212998
 11
477.1800173889
 21
264.6220424877
  0
LINE
  5
453
100
AcDbEntity
  8
KONSTRUKTIONSELEMENTE
100
AcDbLine
 62
7
  6
CONTINUOUS
 10
477.4101868354
 20
236.8989191596
 11
477.4101868354
 21
238.7808403475
  0
LINE
  5
454
100
AcDbEntity
  8
KONSTRUKTIONSELEMENTE
100
AcDbLine
 62
7
  6
CONTINUOUS
 10
479.0480035043
 20
228.5308766876
 11
479.0480035043
 21
228.8917035227
  0
LINE
  5
455
100
AcDbEntity
  8
KONSTRUKTIONSELEMENTE
100
AcDbLine
 62
7
  6
CONTINUOUS
 10
479.172535912
 20
243.591864816
 11
479.172535912
 21
238.7808403475
  0
LINE
  5
456
100
AcDbEntity
  8
KONSTRUKTIONSELEMENTE
100
AcDbLine
 62
7
  6
CONTINUOUS
 10
479.581713823
 20
227.654115969
 11
479.581713823
 21
228.3246899246
  0
LINE
  5
457
100
AcDbEntity
  8
KONSTRUKTIONSELEMENTE
100
AcDbLine
 62
7
  6
CONTINUOUS
 10
479.581713823
 20
228.8654632012
 11
479.581713823
 21
229.5360371569
  0
LINE
  5
458
100
AcDbEntity
  8
KONSTRUKTIONSELEMENTE
100
AcDbLine
 62
7
  6
CONTINUOUS
 10
480.382279301
 20
228.3246899246
 11
480.382279301
 21
227.4226228368
  0
LINE
  5
459
100
AcDbEntity
  8
KONSTRUKTIONSELEMENTE
100
AcDbLine
 62
7
  6
CONTINUOUS
 10
480.382279301
 20
228.8654632012
 11
480.382279301
 21
229.9999573735
  0
LINE
  5
45A
100
AcDbEntity
  8
BEZUGSACHSEN
100
AcDbLine
 62
7
  6
CENTER
 10
480.8804089317
 20
392.3814208487
 11
480.8804089317
 21
0.8173101535
  0
LINE
  5
45B
100
AcDbEntity
  8
KONSTRUKTIONSELEMENTE
100
AcDbLine
 62
7
  6
CONTINUOUS
 10
480.8804089317
 20
238.7808403475
 11
480.8804089317
 21
242.9045756062
  0
LINE
  5
45C
100
AcDbEntity
  8
BEZUGSACHSEN
100
AcDbLine
 62
7
  6
CENTER
 10
480.8804089317
 20
392.3814208487
 11
480.8804089317
 21
434.4171752141
  0
LINE
  5
45D
100
AcDbEntity
  8
KONSTRUKTIONSELEMENTE
100
AcDbLine
 62
7
  6
CONTINUOUS
 10
481.4496999383
 20
227.4226228368
 11
481.4496999383
 21
228.3246899246
  0
LINE
  5
45E
100
AcDbEntity
  8
KONSTRUKTIONSELEMENTE
100
AcDbLine
 62
7
  6
CONTINUOUS
 10
481.4496999383
 20
228.8654632012
 11
481.4496999383
 21
229.9999573735
  0
LINE
  5
45F
100
AcDbEntity
  8
KONSTRUKTIONSELEMENTE
100
AcDbLine
 62
7
  6
CONTINUOUS
 10
482.2502654164
 20
227.654115969
 11
482.2502654164
 21
228.3246899246
  0
LINE
  5
460
100
AcDbEntity
  8
KONSTRUKTIONSELEMENTE
100
AcDbLine
 62
7
  6
CONTINUOUS
 10
482.2502654164
 20
228.8654632012
 11
482.2502654164
 21
229.5360371569
  0
LINE
  5
461
100
AcDbEntity
  8
KONSTRUKTIONSELEMENTE
100
AcDbLine
 62
7
  6
CONTINUOUS
 10
482.783975735
 20
228.8917035227
 11
482.783975735
 21
228.5308766876
  0
LWPOLYLINE
  5
462
100
AcDbEntity
  8
0
100
AcDbPolyline
 62
7
  6
CONTINUOUS
 90
4
 70
0
 10
463.1746859468
 20
44.4270519841
 10
463.0965902621
 20
42.4444883154
 10
463.0316938057
 20
40.5403723963
 10
462.9878349581
 20
38.8612237425
  0
LINE
  5
463
100
AcDbEntity
  8
0
100
AcDbLine
 62
7
  6
CONTINUOUS
 10
463.4466968114
 20
50.8632953478
 11
463.1746859468
 21
44.4270519841
  0
LWPOLYLINE
  5
464
100
AcDbEntity
  8
DEFAULT_2
100
AcDbPolyline
 62
8
  6
HIDDEN
 90
31
 70
0
 10
447.9910292934
 20
86.0515263089
 10
447.9899844361
 20
86.0458523647
 10
447.9901119862
 20
86.0461735936
 10
448.002326978
 20
86.1047493659
 10
448.0293417142
 20
86.2248672852
 10
448.0743648654
 20
86.4094558584
 10
448.1408233995
 20
86.6597374202
 10
448.2329902794
 20
86.9775373258
 10
448.3547821425
 20
87.3610043451
 10
448.510633474
 20
87.8081611598
 10
448.7062297763
 20
88.3185674005
 10
448.9477822344
 20
88.8907147329
 10
449.2428989035
 20
89.5238440278
 10
449.6013421169
 20
90.2185046116
 10
450.0287285245
 20
90.9647433129
 10
450.5333018935
 20
91.7564658213
 10
451.1171729584
 20
92.5777255807
 10
451.7826347518
 20
93.4148711307
 10
452.5301282009
 20
94.2536966186
 10
453.3570663335
 20
95.0789643085
 10
454.2653606369
 20
95.8817453555
 10
455.2542847568
 20
96.6512308429
 10
456.323009076
 20
97.3773563985
 10
457.4690704577
 20
98.0496553376
 10
458.6902209533
 20
98.6584913147
 10
459.9826859588
 20
99.1939816913
 10
461.3421373186
 20
99.6466004389
 10
462.7629813466
 20
100.0069314452
 10
464.2384622807
 20
100.2658687189
 10
465.7602939402
 20
100.4147335901
 10
466.9320738529
 20
100.4493209145
  0
LINE
  5
465
100
AcDbEntity
  8
0
100
AcDbLine
 62
7
  6
CONTINUOUS
 10
463.0883852
 20
200.6519204376
 11
447.2502819128
 21
173.2195208487
  0
LINE
  5
466
100
AcDbEntity
  8
KONSTRUKTIONSELEMENTE
100
AcDbLine
 62
7
  6
CONTINUOUS
 10
475.0451761142
 20
223.3241939473
 11
486.7868031251
 21
223.3241939473
  0
LINE
  5
467
100
AcDbEntity
  8
KONSTRUKTIONSELEMENTE
100
AcDbLine
 62
7
  6
CONTINUOUS
 10
475.0451761142
 20
223.5566210318
 11
486.7868031251
 21
223.5566210318
  0
LWPOLYLINE
  5
468
100
AcDbEntity
  8
RUNDUNGEN
100
AcDbPolyline
 62
7
  6
CONTINUOUS
 90
9
 70
0
 10
498.5861319166
 20
44.4270519841
 10
498.3141210521
 20
50.8632953478
 10
498.2228068604
 20
53.172609562
 10
498.1362301576
 20
55.5632888549
 10
498.0569124751
 20
58.0342631734
 10
497.9870418089
 20
60.5834817884
 10
497.9284819617
 20
63.208013269
 10
497.882760076
 20
65.9040719091
 10
497.8510332261
 20
68.6700522713
  0
LWPOLYLINE
  5
469
100
AcDbEntity
  8
RUNDUNGEN
100
AcDbPolyline
 62
7
  6
CONTINUOUS
 90
4
 70
0
 10
498.7729829054
 20
38.8612237425
 10
498.7291240578
 20
40.5403723963
 10
498.6642276014
 20
42.4444883154
 10
498.5861319166
 20
44.4270519841
  0
LINE
  5
46A
100
AcDbEntity
  8
RUNDUNGEN
100
AcDbLine
 62
7
  6
CONTINUOUS
 10
498.7973345183
 20
37.6593057021
 11
498.7729811192
 21
38.8613258271
  0
LINE
  5
46B
100
AcDbEntity
  8
RUNDUNGEN
100
AcDbLine
 62
7
  6
CONTINUOUS
 10
497.8510332261
 20
68.6700522713
 11
497.8353361299
 21
71.1775061071
  0
LINE
  5
46C
100
AcDbEntity
  8
KONSTRUKTIONSELEMENTE
100
AcDbLine
 62
7
  6
CONTINUOUS
 10
484.9188170098
 20
227.654115969
 11
484.9188170098
 21
229.5360371569
  0
LINE
  5
46D
100
AcDbEntity
  8
KONSTRUKTIONSELEMENTE
100
AcDbLine
 62
7
  6
CONTINUOUS
 10
485.7193824878
 20
229.9999573735
 11
485.7193824878
 21
227.4226228368
  0
LINE
  5
46E
100
AcDbEntity
  8
KONSTRUKTIONSELEMENTE
100
AcDbLine
 62
7
  6
CONTINUOUS
 10
486.0751893669
 20
268.9846168389
 11
486.0751893669
 21
264.6220424877
  0
LINE
  5
46F
100
AcDbEntity
  8
KONSTRUKTIONSELEMENTE
100
AcDbLine
 62
7
  6
CONTINUOUS
 10
487.8542237625
 20
224.5875548464
 11
487.8542237625
 21
232.8350253639
  0
LINE
  5
470
100
AcDbEntity
  8
KONSTRUKTIONSELEMENTE
100
AcDbLine
 62
7
  6
CONTINUOUS
 10
487.8542237625
 20
246.5608533025
 11
487.8542237625
 21
248.6979521163
  0
LINE
  5
471
100
AcDbEntity
  8
KONSTRUKTIONSELEMENTE
100
AcDbLine
 62
7
  6
CONTINUOUS
 10
487.8542237625
 20
262.7401212998
 11
487.8542237625
 21
268.8774616158
  0
LINE
  5
472
100
AcDbEntity
  8
KONSTRUKTIONSELEMENTE
100
AcDbLine
 62
7
  6
CONTINUOUS
 10
488.1733449287
 20
236.8989191596
 11
488.1733449287
 21
238.7808403475
  0
LINE
  5
473
100
AcDbEntity
  8
KONSTRUKTIONSELEMENTE
100
AcDbLine
 62
7
  6
CONTINUOUS
 10
485.1856721691
 20
226.9071559295
 11
481.983410257
 21
226.9071559295
  0
LINE
  5
474
100
AcDbEntity
  8
KONSTRUKTIONSELEMENTE
100
AcDbLine
 62
7
  6
CONTINUOUS
 10
479.8485689823
 20
226.9071559295
 11
476.6463070702
 21
226.9071559295
  0
LINE
  5
475
100
AcDbEntity
  8
KONSTRUKTIONSELEMENTE
100
AcDbLine
 62
7
  6
CONTINUOUS
 10
477.126646357
 20
227.447929206
 11
479.3682296955
 21
227.447929206
  0
LINE
  5
476
100
AcDbEntity
  8
KONSTRUKTIONSELEMENTE
100
AcDbLine
 62
7
  6
CONTINUOUS
 10
482.4637495438
 20
227.447929206
 11
484.7053328823
 21
227.447929206
  0
LINE
  5
477
100
AcDbEntity
  8
KONSTRUKTIONSELEMENTE
100
AcDbLine
 62
7
  6
CONTINUOUS
 10
477.126646357
 20
227.6803562905
 11
479.3682296955
 21
227.6803562905
  0
LINE
  5
478
100
AcDbEntity
  8
KONSTRUKTIONSELEMENTE
100
AcDbLine
 62
7
  6
CONTINUOUS
 10
482.4637495438
 20
227.6803562905
 11
484.7053328823
 21
227.6803562905
  0
LINE
  5
479
100
AcDbEntity
  8
KONSTRUKTIONSELEMENTE
100
AcDbLine
 62
7
  6
CONTINUOUS
 10
482.5704916076
 20
228.3246899246
 11
482.2502654164
 21
228.3246899246
  0
LINE
  5
47A
100
AcDbEntity
  8
KONSTRUKTIONSELEMENTE
100
AcDbLine
 62
7
  6
CONTINUOUS
 10
481.4496999383
 20
228.3246899246
 11
480.382279301
 21
228.3246899246
  0
LINE
  5
47B
100
AcDbEntity
  8
KONSTRUKTIONSELEMENTE
100
AcDbLine
 62
7
  6
CONTINUOUS
 10
479.581713823
 20
228.3246899246
 11
479.2614876318
 21
228.3246899246
  0
LINE
  5
47C
100
AcDbEntity
  8
KONSTRUKTIONSELEMENTE
100
AcDbLine
 62
7
  6
CONTINUOUS
 10
479.2614876318
 20
228.8654632012
 11
479.581713823
 21
228.8654632012
  0
LINE
  5
47D
100
AcDbEntity
  8
KONSTRUKTIONSELEMENTE
100
AcDbLine
 62
7
  6
CONTINUOUS
 10
480.382279301
 20
228.8654632012
 11
481.4496999383
 21
228.8654632012
  0
LINE
  5
47E
100
AcDbEntity
  8
KONSTRUKTIONSELEMENTE
100
AcDbLine
 62
7
  6
CONTINUOUS
 10
482.2502654164
 20
228.8654632012
 11
482.5704916076
 21
228.8654632012
  0
LINE
  5
47F
100
AcDbEntity
  8
KONSTRUKTIONSELEMENTE
100
AcDbLine
 62
7
  6
CONTINUOUS
 10
479.2614876318
 20
229.0978902856
 11
479.581713823
 21
229.0978902856
  0
LINE
  5
480
100
AcDbEntity
  8
KONSTRUKTIONSELEMENTE
100
AcDbLine
 62
7
  6
CONTINUOUS
 10
480.382279301
 20
229.0978902856
 11
481.4496999383
 21
229.0978902856
  0
LINE
  5
481
100
AcDbEntity
  8
KONSTRUKTIONSELEMENTE
100
AcDbLine
 62
7
  6
CONTINUOUS
 10
482.2502654164
 20
229.0978902856
 11
482.5704916076
 21
229.0978902856
  0
LINE
  5
482
100
AcDbEntity
  8
KONSTRUKTIONSELEMENTE
100
AcDbLine
 62
7
  6
CONTINUOUS
 10
484.7053328823
 20
229.7422239198
 11
482.4637495438
 21
229.7422239198
  0
LINE
  5
483
100
AcDbEntity
  8
KONSTRUKTIONSELEMENTE
100
AcDbLine
 62
7
  6
CONTINUOUS
 10
479.3682296955
 20
229.7422239198
 11
477.126646357
 21
229.7422239198
  0
LINE
  5
484
100
AcDbEntity
  8
KONSTRUKTIONSELEMENTE
100
AcDbLine
 62
7
  6
CONTINUOUS
 10
476.6463070702
 20
230.2829971964
 11
479.8485689823
 21
230.2829971964
  0
LINE
  5
485
100
AcDbEntity
  8
KONSTRUKTIONSELEMENTE
100
AcDbLine
 62
7
  6
CONTINUOUS
 10
481.983410257
 20
230.2829971964
 11
485.1856721691
 21
230.2829971964
  0
LINE
  5
486
100
AcDbEntity
  8
KONSTRUKTIONSELEMENTE
100
AcDbLine
 62
7
  6
CONTINUOUS
 10
476.6463070702
 20
230.5154242808
 11
479.8485689823
 21
230.5154242808
  0
LINE
  5
487
100
AcDbEntity
  8
KONSTRUKTIONSELEMENTE
100
AcDbLine
 62
7
  6
CONTINUOUS
 10
481.983410257
 20
230.5154242808
 11
485.1856721691
 21
230.5154242808
  0
LINE
  5
488
100
AcDbEntity
  8
KONSTRUKTIONSELEMENTE
100
AcDbLine
 62
7
  6
CONTINUOUS
 10
486.7868031251
 20
233.8659591785
 11
475.0451761142
 21
233.8659591785
  0
LINE
  5
489
100
AcDbEntity
  8
KONSTRUKTIONSELEMENTE
100
AcDbLine
 62
7
  6
CONTINUOUS
 10
473.9777554768
 20
236.8989191596
 11
475.9157979431
 21
236.8989191596
  0
LINE
  5
48A
100
AcDbEntity
  8
KONSTRUKTIONSELEMENTE
100
AcDbLine
 62
7
  6
CONTINUOUS
 10
477.4101868354
 20
236.8989191596
 11
488.1733449287
 21
236.8989191596
  0
LINE
  5
48B
100
AcDbEntity
  8
KONSTRUKTIONSELEMENTE
100
AcDbLine
 62
7
  6
CONTINUOUS
 10
473.9777554768
 20
237.131346244
 11
475.9157979431
 21
237.131346244
  0
LINE
  5
48C
100
AcDbEntity
  8
KONSTRUKTIONSELEMENTE
100
AcDbLine
 62
7
  6
CONTINUOUS
 10
477.4101868354
 20
237.131346244
 11
488.1733449287
 21
237.131346244
  0
LINE
  5
48D
100
AcDbEntity
  8
KONSTRUKTIONSELEMENTE
100
AcDbLine
 62
7
  6
CONTINUOUS
 10
488.1733449287
 20
238.7808403475
 11
480.8804089317
 21
238.7808403475
  0
LINE
  5
48E
100
AcDbEntity
  8
KONSTRUKTIONSELEMENTE
100
AcDbLine
 62
7
  6
CONTINUOUS
 10
479.172535912
 20
238.7808403475
 11
477.4101868354
 21
238.7808403475
  0
LWPOLYLINE
  5
48F
100
AcDbEntity
  8
RUNDUNGEN
100
AcDbPolyline
 62
7
  6
CONTINUOUS
 90
11
 70
0
 10
498.6724326686
 20
200.6519204287
 10
498.3881919885
 20
201.0897430198
 10
498.0598535695
 20
201.4955455472
 10
497.6909959795
 20
201.8649049727
 10
497.2856395235
 20
202.1937953704
 10
496.8482023534
 20
202.4786319217
 10
496.3834522284
 20
202.7163100273
 10
495.8964546433
 20
202.9042390685
 10
495.39251755
 20
203.0403706772
 10
494.8771335546
 20
203.1232210363
 10
494.3423227077
 20
203.1519055502
  0
LINE
  5
490
100
AcDbEntity
  8
RUNDUNGEN
100
AcDbLine
 62
7
  6
CONTINUOUS
 10
498.6724326646
 20
200.6519204356
 11
514.5105359507
 21
173.2195208487
  0
LWPOLYLINE
  5
491
100
AcDbEntity
  8
RUNDUNGEN
100
AcDbPolyline
 62
7
  6
CONTINUOUS
 90
8
 70
0
 10
513.7587871886
 20
86.1033723715
 10
513.7694132307
 20
86.0526090064
 10
513.7715820845
 20
86.0418368299
 10
513.763066156
 20
86.0892225547
 10
513.7459513231
 20
86.1909281156
 10
513.7216347181
 20
86.3451818791
 10
513.691454311
 20
86.549037206
 10
513.6563017134
 20
86.8011768645
  0
LWPOLYLINE
  5
492
100
AcDbEntity
  8
RUNDUNGEN
100
AcDbPolyline
 62
7
  6
CONTINUOUS
 90
4
 70
0
 10
513.6563017134
 20
86.8011768645
 10
513.6170641065
 20
87.0992352827
 10
513.5742847654
 20
87.4425062689
 10
513.5285236902
 20
87.8294569662
  0
LINE
  5
493
100
AcDbEntity
  8
RUNDUNGEN
100
AcDbLine
 62
7
  6
CONTINUOUS
 10
513.4801184849
 20
88.2598082639
 11
513.4294171478
 21
88.7327535277
  0
LINE
  5
494
100
AcDbEntity
  8
RUNDUNGEN
100
AcDbLine
 62
7
  6
CONTINUOUS
 10
513.4294171478
 20
88.7327535277
 11
513.3766441503
 21
89.2482108512
  0
LINE
  5
495
100
AcDbEntity
  8
RUNDUNGEN
100
AcDbLine
 62
7
  6
CONTINUOUS
 10
513.3766441503
 20
89.2482108512
 11
513.265721185
 21
90.405489294
  0
LINE
  5
496
100
AcDbEntity
  8
RUNDUNGEN
100
AcDbLine
 62
7
  6
CONTINUOUS
 10
513.265721185
 20
90.405489294
 11
513.1486034028
 21
91.7310308602
  0
LINE
  5
497
100
AcDbEntity
  8
RUNDUNGEN
100
AcDbLine
 62
7
  6
CONTINUOUS
 10
513.1486034028
 20
91.7310308602
 11
513.0261604432
 21
93.2250926367
  0
LINE
  5
498
100
AcDbEntity
  8
RUNDUNGEN
100
AcDbLine
 62
7
  6
CONTINUOUS
 10
513.0261604432
 20
93.2250926367
 11
512.8990162423
 21
94.8882099147
  0
LINE
  5
499
100
AcDbEntity
  8
RUNDUNGEN
100
AcDbLine
 62
7
  6
CONTINUOUS
 10
512.8990162423
 20
94.8882099147
 11
512.7553382501
 21
96.9001009625
  0
LINE
  5
49A
100
AcDbEntity
  8
RUNDUNGEN
100
AcDbLine
 62
7
  6
CONTINUOUS
 10
512.7553382501
 20
96.9001009625
 11
512.6322194653
 21
98.7247610315
  0
LINE
  5
49B
100
AcDbEntity
  8
RUNDUNGEN
100
AcDbLine
 62
7
  6
CONTINUOUS
 10
512.6322194653
 20
98.7247610315
 11
512.492729889
 21
100.904764822
  0
LINE
  5
49C
100
AcDbEntity
  8
RUNDUNGEN
100
AcDbLine
 62
7
  6
CONTINUOUS
 10
512.492729889
 20
100.904764822
 11
512.3488928364
 21
103.2682119942
  0
LINE
  5
49D
100
AcDbEntity
  8
RUNDUNGEN
100
AcDbLine
 62
7
  6
CONTINUOUS
 10
512.3488928364
 20
103.2682119942
 11
512.2003899491
 21
105.8227438102
  0
LINE
  5
49E
100
AcDbEntity
  8
RUNDUNGEN
100
AcDbLine
 62
7
  6
CONTINUOUS
 10
512.2003899491
 20
105.8227438102
 11
512.0468632825
 21
108.5760370459
  0
LINE
  5
49F
100
AcDbEntity
  8
RUNDUNGEN
100
AcDbLine
 62
7
  6
CONTINUOUS
 10
512.0468632825
 20
108.5760370459
 11
511.8879001492
 21
111.5356225015
  0
LINE
  5
4A0
100
AcDbEntity
  8
RUNDUNGEN
100
AcDbLine
 62
7
  6
CONTINUOUS
 10
511.8879001492
 20
111.5356225015
 11
511.7230638906
 21
114.7081507286
  0
LINE
  5
4A1
100
AcDbEntity
  8
RUNDUNGEN
100
AcDbLine
 62
7
  6
CONTINUOUS
 10
511.7230638906
 20
114.7081507286
 11
511.4637193723
 21
119.8781256509
  0
LINE
  5
4A2
100
AcDbEntity
  8
RUNDUNGEN
100
AcDbLine
 62
7
  6
CONTINUOUS
 10
510.7249528278
 20
135.1172475403
 11
509.999530041
 21
149.8398142506
  0
LINE
  5
4A3
100
AcDbEntity
  8
RUNDUNGEN
100
AcDbLine
 62
7
  6
CONTINUOUS
 10
511.2098207357
 20
125.101624904
 11
510.7249528278
 21
135.1172475403
  0
LINE
  5
4A4
100
AcDbEntity
  8
RUNDUNGEN
100
AcDbLine
 62
7
  6
CONTINUOUS
 10
511.4637193723
 20
119.8781256509
 11
511.209815919
 21
125.1017252215
  0
LWPOLYLINE
  5
4A5
100
AcDbEntity
  8
RUNDUNGEN
100
AcDbPolyline
 62
7
  6
CONTINUOUS
 90
5
 70
0
 10
509.9995362699
 20
149.8396862199
 10
509.9943858103
 20
149.9931617739
 10
510.0002514494
 20
150.3280071927
 10
510.0273816982
 20
150.6430937941
 10
510.0735348988
 20
150.9456827066
  0
LINE
  5
4A6
100
AcDbEntity
  8
RUNDUNGEN
100
AcDbLine
 62
7
  6
CONTINUOUS
 10
502.5308089317
 20
324.8909681262
 11
502.5308089317
 21
288.9660408455
  0
LINE
  5
4A7
100
AcDbEntity
  8
0
100
AcDbLine
 62
7
  6
CONTINUOUS
 10
506.8804089317
 20
324.0474915063
 11
506.8804089317
 21
281.1580830463
  0
LINE
  5
4A8
100
AcDbEntity
  8
RUNDUNGEN
100
AcDbLine
 62
7
  6
CONTINUOUS
 10
509.8878089317
 20
148.9971755382
 11
509.8878089317
 21
149.4566360796
  0
LINE
  5
4A9
100
AcDbEntity
  8
RUNDUNGEN
100
AcDbLine
 62
7
  6
CONTINUOUS
 10
497.835320747
 20
71.1773065414
 11
497.8353303789
 21
71.2328566527
  0
LWPOLYLINE
  5
4AA
100
AcDbEntity
  8
RUNDUNGEN
100
AcDbPolyline
 62
7
  6
CONTINUOUS
 90
6
 70
0
 10
498.8231553527
 20
31.4285797139
 10
498.8400870205
 20
32.5346506404
 10
498.8443047213
 20
33.7732085272
 10
498.8367543808
 20
35.043711212
 10
498.8202588394
 20
36.3409966259
 10
498.7973345183
 20
37.6593057021
  0
LINE
  5
4AB
100
AcDbEntity
  8
RUNDUNGEN
100
AcDbLine
 62
7
  6
CONTINUOUS
 10
497.8353303789
 20
71.2328566527
 11
497.8384984216
 21
71.4270484575
  0
LINE
  5
4AC
100
AcDbEntity
  8
RUNDUNGEN
100
AcDbLine
 62
7
  6
CONTINUOUS
 10
498.8231553527
 20
31.4285797139
 11
498.8231580227
 21
31.4287004681
  0
LWPOLYLINE
  5
4AD
100
AcDbEntity
  8
RUNDUNGEN
100
AcDbPolyline
 62
7
  6
CONTINUOUS
 90
5
 70
0
 10
497.8384984216
 20
71.4270484575
 10
497.846622584
 20
71.6386119196
 10
497.8599466588
 20
71.8637081477
 10
497.8783545323
 20
72.0982249069
 10
497.9018041315
 20
72.3375565897
  0
LINE
  5
4AE
100
AcDbEntity
  8
KONSTRUKTIONSELEMENTE
100
AcDbLine
 62
7
  6
CONTINUOUS
 10
473.9777554768
 20
249.2701249357
 11
482.7311280081
 21
249.2701249357
  0
LINE
  5
4AF
100
AcDbEntity
  8
KONSTRUKTIONSELEMENTE
100
AcDbLine
 62
7
  6
CONTINUOUS
 10
473.9777554768
 20
249.5025520201
 11
482.7311280081
 21
249.5025520201
  0
LINE
  5
4B0
100
AcDbEntity
  8
KONSTRUKTIONSELEMENTE
100
AcDbLine
 62
7
  6
CONTINUOUS
 10
482.7311280081
 20
251.1520461236
 11
473.9777554768
 21
251.1520461236
  0
LINE
  5
4B1
100
AcDbEntity
  8
RUNDUNGEN
100
AcDbLine
 62
7
  6
CONTINUOUS
 10
513.5285236902
 20
87.8294569662
 11
513.4801184849
 21
88.2598082639
  0
LINE
  5
4B2
100
AcDbEntity
  8
BEZUGSACHSEN
100
AcDbLine
 62
7
  6
CONTINUOUS
 10
520.8804089317
 20
398.4670208487
 11
520.8804089317
 21
397.3814208482
  0
LINE
  5
4B3
100
AcDbEntity
  8
RUNDUNGEN
100
AcDbLine
 62
7
  6
CONTINUOUS
 10
520.8804089317
 20
398.468125739
 11
520.8804089317
 21
398.4670208487
  0
LINE
  5
4B4
100
AcDbEntity
  8
BEZUGSACHSEN
100
AcDbLine
 62
7
  6
CONTINUOUS
 10
520.8804089317
 20
396.3281239219
 11
520.8804089317
 21
380.1671668109
  0
LINE
  5
4B5
100
AcDbEntity
  8
RUNDUNGEN
100
AcDbLine
 62
7
  6
CONTINUOUS
 10
522.5004089317
 20
208.6997544688
 11
522.5004089317
 21
203.8740679356
  0
LWPOLYLINE
  5
4B6
100
AcDbEntity
  8
0
100
AcDbPolyline
 62
7
  6
CONTINUOUS
 90
16
 70
0
 10
525.2298048156
 20
300.9376836766
 10
525.2458583956
 20
302.9321952953
 10
525.2513898819
 20
305.409087905
 10
525.2419334026
 20
307.9598228478
 10
525.2175623339
 20
310.5513747216
 10
525.1785722998
 20
313.1507783307
 10
525.1254719398
 20
315.724947511
 10
525.059003293
 20
318.240248661
 10
524.9799755748
 20
320.6682292458
 10
524.8895450863
 20
322.9759918497
 10
524.7882065724
 20
325.1504346509
 10
524.6766427653
 20
327.1709532646
 10
524.555106658
 20
329.0219346626
 10
524.4240262944
 20
330.6803429279
 10
524.2828722298
 20
332.1287292766
 10
524.1290395978
 20
333.3518709294
  0
LINE
  5
4B7
100
AcDbEntity
  8
0
100
AcDbLine
 62
7
  6
CONTINUOUS
 10
524.3188847458
 20
217.0434720298
 11
525.2298050314
 21
300.9376985624
  0
LINE
  5
4B8
100
AcDbEntity
  8
0
100
AcDbLine
 62
7
  6
CONTINUOUS
 10
524.3060511892
 20
216.5424349683
 11
524.318884372
 21
217.0434487781
  0
LINE
  5
4B9
100
AcDbEntity
  8
RUNDUNGEN
100
AcDbLine
 62
7
  6
CONTINUOUS
 10
522.5004089317
 20
203.8740679356
 11
522.4927457007
 21
203.657056129
  0
LINE
  5
4BA
100
AcDbEntity
  8
RUNDUNGEN
100
AcDbLine
 62
7
  6
CONTINUOUS
 10
520.1734537923
 20
159.5964104146
 11
520.2497482311
 21
161.7555042012
  0
LINE
  5
4BB
100
AcDbEntity
  8
RUNDUNGEN
100
AcDbLine
 62
7
  6
CONTINUOUS
 10
519.5832678208
 20
143.0072124698
 11
519.7609630739
 21
147.966817774
  0
LINE
  5
4BC
100
AcDbEntity
  8
RUNDUNGEN
100
AcDbLine
 62
7
  6
CONTINUOUS
 10
518.8216311527
 20
122.4691083388
 11
519.1680310948
 21
131.6318917793
  0
LINE
  5
4BD
100
AcDbEntity
  8
RUNDUNGEN
100
AcDbLine
 62
7
  6
CONTINUOUS
 10
518.3497018506
 20
110.6428244044
 11
518.8216311527
 21
122.4691083388
  0
LINE
  5
4BE
100
AcDbEntity
  8
RUNDUNGEN
100
AcDbLine
 62
7
  6
CONTINUOUS
 10
517.975510386
 20
101.9334645491
 11
518.285589297
 21
109.1058082581
  0
LWPOLYLINE
  5
4BF
100
AcDbEntity
  8
RUNDUNGEN
100
AcDbPolyline
 62
7
  6
CONTINUOUS
 90
12
 70
0
 10
520.2481589521
 20
161.7105212908
 10
520.5658334215
 20
168.5499607242
 10
520.7603537927
 20
172.648197117
 10
520.9541623074
 20
176.6452483054
 10
521.1472732016
 20
180.5274851628
 10
521.3398473055
 20
184.2846570374
 10
521.5320122291
 20
187.9061810197
 10
521.7238983422
 20
191.381868165
 10
521.9156492683
 20
194.7021455638
 10
522.1073916682
 20
197.8576126915
 10
522.2993131251
 20
200.8403246465
 10
522.4705098646
 20
203.344688526
  0
LINE
  5
4C0
100
AcDbEntity
  8
RUNDUNGEN
100
AcDbLine
 62
7
  6
CONTINUOUS
 10
516.7678252216
 20
79.0739505927
 11
517.9062947334
 21
100.3966612677
  0
LWPOLYLINE
  5
4C1
100
AcDbEntity
  8
RUNDUNGEN
100
AcDbPolyline
 62
7
  6
CONTINUOUS
 90
3
 70
0
 10
498.3963584026
 20
26.1864667988
 10
498.4158248578
 20
26.4209041475
 10
498.4230606251
 20
26.5723813314
  0
LWPOLYLINE
  5
4C2
100
AcDbEntity
  8
RUNDUNGEN
100
AcDbPolyline
 62
7
  6
CONTINUOUS
 90
3
 70
0
 10
497.9018041315
 20
72.3375565897
 10
497.9299013919
 20
72.5767411655
 10
497.9561943304
 20
72.7692226673
  0
LWPOLYLINE
  5
4C3
100
AcDbEntity
  8
RUNDUNGEN
100
AcDbPolyline
 62
7
  6
CONTINUOUS
 90
5
 70
0
 10
498.3087541989
 20
25.8708788746
 10
498.3088533688
 20
25.8716967082
 10
498.3093234357
 20
25.8753746283
 10
498.3102737189
 20
25.8824583241
 10
498.3116465934
 20
25.8922887344
  0
LINE
  5
4C4
100
AcDbEntity
  8
RUNDUNGEN
100
AcDbLine
 62
7
  6
CONTINUOUS
 10
498.9520917816
 20
79.7679855452
 11
499.3765188422
 21
82.8585599889
  0
LINE
  5
4C5
100
AcDbEntity
  8
RUNDUNGEN
100
AcDbLine
 62
7
  6
CONTINUOUS
 10
498.3660718558
 20
25.9703713607
 11
498.3963584026
 21
26.1864667988
  0
LINE
  5
4C6
100
AcDbEntity
  8
RUNDUNGEN
100
AcDbLine
 62
7
  6
CONTINUOUS
 10
498.4444102769
 20
76.1602308853
 11
498.9520917816
 21
79.7679855452
  0
LWPOLYLINE
  5
4C7
100
AcDbEntity
  8
RUNDUNGEN
100
AcDbPolyline
 62
7
  6
CONTINUOUS
 90
3
 70
0
 10
499.3765117037
 20
82.8585628505
 10
499.3997119344
 20
83.0194832694
 10
499.4229883903
 20
83.1634786098
  0
LINE
  5
4C8
100
AcDbEntity
  8
RUNDUNGEN
100
AcDbLine
 62
7
  6
CONTINUOUS
 10
497.956197471
 20
72.7692105082
 11
498.4444102769
 21
76.1602308853
  0
LWPOLYLINE
  5
4C9
100
AcDbEntity
  8
RUNDUNGEN
100
AcDbPolyline
 62
7
  6
CONTINUOUS
 90
3
 70
0
 10
499.4229883903
 20
83.1634786098
 10
499.4465641359
 20
83.2945168614
 10
499.4700647114
 20
83.411953288
  0
LWPOLYLINE
  5
4CA
100
AcDbEntity
  8
0
100
AcDbPolyline
 62
7
  6
CONTINUOUS
 90
5
 70
0
 10
523.7277401181
 20
212.7722360289
 10
523.9515472195
 20
213.7045497111
 10
524.1227580721
 20
214.6453562464
 10
524.2410038811
 20
215.5921565269
 10
524.3060511892
 20
216.5424349683
  0
LINE
  5
4CB
100
AcDbEntity
  8
RUNDUNGEN
100
AcDbLine
 62
7
  6
CONTINUOUS
 10
524.5893894546
 20
241.956500845
 11
530.9900649817
 21
265.8441471149
  0
LINE
  5
4CC
100
AcDbEntity
  8
RUNDUNGEN
100
AcDbLine
 62
7
  6
CONTINUOUS
 10
515.375725492
 20
185.2322439062
 11
513.8500218872
 21
179.7328742948
  0
LINE
  5
4CD
100
AcDbEntity
  8
0
100
AcDbLine
 62
7
  6
CONTINUOUS
 10
523.5772648914
 20
212.2470234559
 11
523.7277401181
 21
212.7722360289
  0
LINE
  5
4CE
100
AcDbEntity
  8
0
100
AcDbLine
 62
7
  6
CONTINUOUS
 10
515.3614287637
 20
185.183257682
 11
523.5772593679
 21
212.247004808
  0
LINE
  5
4CF
100
AcDbEntity
  8
KONSTRUKTIONSELEMENTE
100
AcDbLine
 62
7
  6
CONTINUOUS
 10
473.9777554768
 20
257.482358845
 11
482.7311280081
 21
257.482358845
  0
LINE
  5
4D0
100
AcDbEntity
  8
KONSTRUKTIONSELEMENTE
100
AcDbLine
 62
7
  6
CONTINUOUS
 10
473.9777554768
 20
257.7147859294
 11
482.7311280081
 21
257.7147859294
  0
LINE
  5
4D1
100
AcDbEntity
  8
KONSTRUKTIONSELEMENTE
100
AcDbLine
 62
7
  6
CONTINUOUS
 10
482.7311280081
 20
259.3642800329
 11
473.9777554768
 21
259.3642800329
  0
LINE
  5
4D2
100
AcDbEntity
  8
KONSTRUKTIONSELEMENTE
100
AcDbLine
 62
7
  6
CONTINUOUS
 10
473.9777554768
 20
262.7401212998
 11
475.6856284966
 21
262.7401212998
  0
LINE
  5
4D3
100
AcDbEntity
  8
KONSTRUKTIONSELEMENTE
100
AcDbLine
 62
7
  6
CONTINUOUS
 10
477.1800173889
 20
262.7401212998
 11
487.8542237625
 21
262.7401212998
  0
LINE
  5
4D4
100
AcDbEntity
  8
KONSTRUKTIONSELEMENTE
100
AcDbLine
 62
7
  6
CONTINUOUS
 10
473.9777554768
 20
262.9725483843
 11
475.6856284966
 21
262.9725483843
  0
LINE
  5
4D5
100
AcDbEntity
  8
KONSTRUKTIONSELEMENTE
100
AcDbLine
 62
7
  6
CONTINUOUS
 10
477.1800173889
 20
262.9725483843
 11
487.8542237625
 21
262.9725483843
  0
LINE
  5
4D6
100
AcDbEntity
  8
KONSTRUKTIONSELEMENTE
100
AcDbLine
 62
7
  6
CONTINUOUS
 10
486.0751893669
 20
264.6220424877
 11
477.1800173889
 21
264.6220424877
  0
LINE
  5
4D7
100
AcDbEntity
  8
RUNDUNGEN
100
AcDbLine
 62
7
  6
CONTINUOUS
 10
531.3308089317
 20
268.4323458246
 11
531.3308089317
 21
359.3870511271
  0
LINE
  5
4D8
100
AcDbEntity
  8
RUNDUNGEN
100
AcDbLine
 62
7
  6
CONTINUOUS
 10
516.5946694592
 20
76.5657236723
 11
516.7678252216
 21
79.0739505927
  0
LINE
  5
4D9
100
AcDbEntity
  8
RUNDUNGEN
100
AcDbLine
 62
7
  6
CONTINUOUS
 10
516.4821292571
 20
75.0493246381
 11
516.5946694592
 21
76.5657236723
  0
LINE
  5
4DA
100
AcDbEntity
  8
RUNDUNGEN
100
AcDbLine
 62
7
  6
CONTINUOUS
 10
516.3719123246
 20
73.6527543879
 11
516.4821292571
 21
75.0493246381
  0
LINE
  5
4DB
100
AcDbEntity
  8
RUNDUNGEN
100
AcDbLine
 62
7
  6
CONTINUOUS
 10
516.2640146636
 20
72.3716197388
 11
516.3719123246
 21
73.6527543879
  0
LINE
  5
4DC
100
AcDbEntity
  8
RUNDUNGEN
100
AcDbLine
 62
7
  6
CONTINUOUS
 10
516.1584143083
 20
71.2010523051
 11
516.2640146636
 21
72.3716197388
  0
LINE
  5
4DD
100
AcDbEntity
  8
RUNDUNGEN
100
AcDbLine
 62
7
  6
CONTINUOUS
 10
516.0550623693
 20
70.1358547653
 11
516.1584143083
 21
71.2010523051
  0
LINE
  5
4DE
100
AcDbEntity
  8
RUNDUNGEN
100
AcDbLine
 62
7
  6
CONTINUOUS
 10
498.3116465934
 20
25.8922887344
 11
498.3157993736
 21
25.920645649
  0
LINE
  5
4DF
100
AcDbEntity
  8
RUNDUNGEN
100
AcDbLine
 62
7
  6
CONTINUOUS
 10
498.3157993736
 20
25.920645649
 11
498.3218948596
 21
25.9605271268
  0
LINE
  5
4E0
100
AcDbEntity
  8
RUNDUNGEN
100
AcDbLine
 62
7
  6
CONTINUOUS
 10
498.3218948596
 20
25.9605271268
 11
498.339425262
 21
26.0713853369
  0
LINE
  5
4E1
100
AcDbEntity
  8
RUNDUNGEN
100
AcDbLine
 62
7
  6
CONTINUOUS
 10
498.339425262
 20
26.0713853369
 11
498.3709090147
 21
26.2632092805
  0
LINE
  5
4E2
100
AcDbEntity
  8
RUNDUNGEN
100
AcDbLine
 62
7
  6
CONTINUOUS
 10
498.3709090147
 20
26.2632092805
 11
498.4237446576
 21
26.5763910274
  0
LINE
  5
4E3
100
AcDbEntity
  8
RUNDUNGEN
100
AcDbLine
 62
7
  6
CONTINUOUS
 10
498.4237446576
 20
26.5763910274
 11
498.5334324751
 21
27.2082196877
  0
LINE
  5
4E4
100
AcDbEntity
  8
RUNDUNGEN
100
AcDbLine
 62
7
  6
CONTINUOUS
 10
498.3644664226
 20
25.9615326979
 11
498.3629339832
 21
25.9529331506
  0
LINE
  5
4E5
100
AcDbEntity
  8
RUNDUNGEN
100
AcDbLine
 62
7
  6
CONTINUOUS
 10
498.5334324751
 20
27.2082196877
 11
498.6361727633
 21
27.7860615978
  0
LINE
  5
4E6
100
AcDbEntity
  8
KONSTRUKTIONSELEMENTE
100
AcDbLine
 62
7
  6
CONTINUOUS
 10
504.6371569317
 20
60.8097208487
 11
503.0812727801
 21
52.165920006
  0
LINE
  5
4E7
100
AcDbEntity
  8
KONSTRUKTIONSELEMENTE
100
AcDbLine
 62
7
  6
CONTINUOUS
 10
498.3556142589
 20
25.912261555
 11
496.9200727527
 21
17.9370309652
  0
LINE
  5
4E8
100
AcDbEntity
  8
RUNDUNGEN
100
AcDbLine
 62
7
  6
CONTINUOUS
 10
503.0816604723
 20
52.1680844407
 11
503.0828927457
 21
52.1749202978
  0
LINE
  5
4E9
100
AcDbEntity
  8
RUNDUNGEN
100
AcDbLine
 62
7
  6
CONTINUOUS
 10
502.5285230396
 20
49.4691199011
 11
502.6388813466
 21
50.0767224173
  0
LINE
  5
4EA
100
AcDbEntity
  8
RUNDUNGEN
100
AcDbLine
 62
7
  6
CONTINUOUS
 10
502.6388813466
 20
50.0767224173
 11
502.7259588789
 21
50.5444161272
  0
LINE
  5
4EB
100
AcDbEntity
  8
RUNDUNGEN
100
AcDbLine
 62
7
  6
CONTINUOUS
 10
502.7259588789
 20
50.5444161272
 11
502.797601963
 21
50.9194324781
  0
LINE
  5
4EC
100
AcDbEntity
  8
RUNDUNGEN
100
AcDbLine
 62
7
  6
CONTINUOUS
 10
502.797601963
 20
50.9194324781
 11
502.8316084373
 21
51.092627757
  0
LINE
  5
4ED
100
AcDbEntity
  8
RUNDUNGEN
100
AcDbLine
 62
7
  6
CONTINUOUS
 10
502.8316084373
 20
51.092627757
 11
502.8583739139
 21
51.2256628777
  0
LINE
  5
4EE
100
AcDbEntity
  8
RUNDUNGEN
100
AcDbLine
 62
7
  6
CONTINUOUS
 10
502.8583739139
 20
51.2256628777
 11
502.8720317176
 21
51.2914002355
  0
LWPOLYLINE
  5
4EF
100
AcDbEntity
  8
RUNDUNGEN
100
AcDbPolyline
 62
7
  6
CONTINUOUS
 90
3
 70
0
 10
502.8720317176
 20
51.2914002355
 10
502.8824162695
 20
51.3397811032
 10
502.8861958797
 20
51.3568744427
  0
LWPOLYLINE
  5
4F0
100
AcDbEntity
  8
RUNDUNGEN
100
AcDbPolyline
 62
7
  6
CONTINUOUS
 90
7
 70
0
 10
499.4700647114
 20
83.411953288
 10
499.4929557191
 20
83.5149409556
 10
499.5147393354
 20
83.6031547759
 10
499.5346101843
 20
83.675232866
 10
499.5518015712
 20
83.7307866815
 10
499.5648094602
 20
83.7680484913
 10
499.5720583401
 20
83.7863777344
  0
LINE
  5
4F1
100
AcDbEntity
  8
RUNDUNGEN
100
AcDbLine
 62
7
  6
CONTINUOUS
 10
515.0100380632
 20
169.4254256232
 11
497.8052740273
 21
105.216372109
  0
LWPOLYLINE
  5
4F2
100
AcDbEntity
  8
RUNDUNGEN
100
AcDbPolyline
 62
7
  6
CONTINUOUS
 90
6
 70
0
 10
512.1854101018
 20
177.246756953
 10
512.641686225
 20
177.6464367
 10
513.1175946399
 20
178.2107439041
 10
513.500578593
 20
178.8368228315
 10
513.7819780718
 20
179.509960508
 10
513.8497581383
 20
179.7328391548
  0
LINE
  5
4F3
100
AcDbEntity
  8
RUNDUNGEN
100
AcDbLine
 62
7
  6
CONTINUOUS
 10
502.9368079793
 20
51.5250506456
 11
503.0007557893
 21
51.7741749495
  0
LINE
  5
4F4
100
AcDbEntity
  8
RUNDUNGEN
100
AcDbLine
 62
7
  6
CONTINUOUS
 10
502.875239415
 20
51.3239064353
 11
502.9368079793
 21
51.5250506456
  0
LINE
  5
4F5
100
AcDbEntity
  8
0
100
AcDbLine
 62
7
  6
CONTINUOUS
 10
505.8804089317
 20
282.92584341
 11
455.8804089317
 21
282.92584341
  0
LINE
  5
4F6
100
AcDbEntity
  8
KONSTRUKTIONSELEMENTE
100
AcDbLine
 62
7
  6
CONTINUOUS
 10
464.2300089317
 20
283.9660266136
 11
497.5308089317
 21
283.9660266136
  0
LINE
  5
4F7
100
AcDbEntity
  8
0
100
AcDbLine
 62
7
  6
CONTINUOUS
 10
523.990187823
 20
334.1671700989
 11
522.4178555576
 21
341.9443191499
  0
LINE
  5
4F8
100
AcDbEntity
  8
0
100
AcDbLine
 62
7
  6
CONTINUOUS
 10
524.1290395978
 20
333.3518709294
 11
523.9889092726
 21
334.1734192812
  0
LINE
  5
4F9
100
AcDbEntity
  8
KONSTRUKTIONSELEMENTE
100
AcDbLine
 62
7
  6
CONTINUOUS
 10
506.8804089317
 20
301.1732066136
 11
502.5308089317
 21
301.1732066136
  0
LINE
  5
4FA
100
AcDbEntity
  8
KONSTRUKTIONSELEMENTE
100
AcDbLine
 62
7
  6
CONTINUOUS
 10
459.2300089317
 20
301.1732066136
 11
454.8804089317
 21
301.1732066136
  0
LWPOLYLINE
  5
4FB
100
AcDbEntity
  8
0
100
AcDbPolyline
 62
7
  6
CONTINUOUS
 90
4
 70
0
 10
506.6904618122
 20
324.5409567314
 10
506.799718767
 20
324.3785941569
 10
506.8640280684
 20
324.1991894358
 10
506.8804172659
 20
324.0464678785
  0
LINE
  5
4FC
100
AcDbEntity
  8
KONSTRUKTIONSELEMENTE
100
AcDbLine
 62
7
  6
CONTINUOUS
 10
506.8804089317
 20
312.0489199956
 11
502.5308089317
 21
312.0489199956
  0
LINE
  5
4FD
100
AcDbEntity
  8
KONSTRUKTIONSELEMENTE
100
AcDbLine
 62
7
  6
CONTINUOUS
 10
459.2300089317
 20
312.0489199956
 11
454.8804089317
 21
312.0489199956
  0
LINE
  5
4FE
100
AcDbEntity
  8
KONSTRUKTIONSELEMENTE
100
AcDbLine
 62
7
  6
CONTINUOUS
 10
506.8804089317
 20
313.7111845818
 11
502.5308089317
 21
313.7111845818
  0
LINE
  5
4FF
100
AcDbEntity
  8
KONSTRUKTIONSELEMENTE
100
AcDbLine
 62
7
  6
CONTINUOUS
 10
459.2300089317
 20
313.7111845818
 11
454.8804089317
 21
313.7111845818
  0
LINE
  5
500
100
AcDbEntity
  8
KONSTRUKTIONSELEMENTE
100
AcDbLine
 62
7
  6
CONTINUOUS
 10
506.8804089317
 20
315.4031698939
 11
502.5308089317
 21
315.4031698939
  0
LINE
  5
501
100
AcDbEntity
  8
KONSTRUKTIONSELEMENTE
100
AcDbLine
 62
7
  6
CONTINUOUS
 10
459.2300089317
 20
315.4031698939
 11
454.8804089317
 21
315.4031698939
  0
LINE
  5
502
100
AcDbEntity
  8
KONSTRUKTIONSELEMENTE
100
AcDbLine
 62
7
  6
CONTINUOUS
 10
506.8804089317
 20
321.1732066136
 11
502.5308089317
 21
321.1732066136
  0
LINE
  5
503
100
AcDbEntity
  8
KONSTRUKTIONSELEMENTE
100
AcDbLine
 62
7
  6
CONTINUOUS
 10
459.2300089317
 20
321.1732066136
 11
454.8804089317
 21
321.1732066136
  0
LINE
  5
504
100
AcDbEntity
  8
0
100
AcDbLine
 62
7
  6
CONTINUOUS
 10
505.8804145788
 20
324.8909681262
 11
455.8804032847
 21
324.8909681262
  0
LWPOLYLINE
  5
505
100
AcDbEntity
  8
0
100
AcDbPolyline
 62
7
  6
CONTINUOUS
 90
6
 70
0
 10
505.8804171732
 20
324.8909680507
 10
505.9299830802
 20
324.8899231357
 10
506.1473759866
 20
324.8601428329
 10
506.3549021118
 20
324.7893591499
 10
506.5395075728
 20
324.6808407373
 10
506.6904618122
 20
324.5409567314
  0
LINE
  5
506
100
AcDbEntity
  8
RUNDUNGEN
100
AcDbLine
 62
7
  6
CONTINUOUS
 10
530.6609359507
 20
361.8870511271
 11
521.5464451849
 21
377.6738122186
  0
LWPOLYLINE
  5
507
100
AcDbEntity
  8
KONSTRUKTIONSELEMENTE
100
AcDbPolyline
 62
7
  6
CONTINUOUS
 90
5
 70
0
 10
440.8022610518
 20
343.1795729698
 10
440.6604982671
 20
343.1567182305
 10
440.5293989949
 20
343.1275420684
 10
440.4057311068
 20
343.0925111389
 10
440.2900140001
 20
343.052318469
  0
LWPOLYLINE
  5
508
100
AcDbEntity
  8
KONSTRUKTIONSELEMENTE
100
AcDbPolyline
 62
7
  6
CONTINUOUS
 90
3
 70
0
 10
441.0837808124
 20
343.1981654876
 10
440.9548472625
 20
343.1941667324
 10
440.8022610518
 20
343.1795729698
  0
LINE
  5
509
100
AcDbEntity
  8
KONSTRUKTIONSELEMENTE
100
AcDbLine
 62
7
  6
CONTINUOUS
 10
520.6770370606
 20
343.1981696656
 11
441.0837808029
 21
343.1981696656
  0
LWPOLYLINE
  5
50A
100
AcDbEntity
  8
0
100
AcDbPolyline
 62
7
  6
CONTINUOUS
 90
7
 70
0
 10
521.3184895329
 20
343.1036797312
 10
521.2132838151
 20
343.1320512705
 10
521.1023317878
 20
343.1563295963
 10
520.9859195546
 20
343.1758556577
 10
520.8612440373
 20
343.1900919503
 10
520.7274483061
 20
343.1975356182
 10
520.6770370512
 20
343.1981647801
  0
LWPOLYLINE
  5
50B
100
AcDbEntity
  8
0
100
AcDbPolyline
 62
7
  6
CONTINUOUS
 90
4
 70
0
 10
521.5402753405
 20
343.0241491218
 10
521.5143497843
 20
343.0350566298
 10
521.4186877092
 20
343.0713830592
 10
521.3184895329
 20
343.1036797312
  0
LINE
  5
50C
100
AcDbEntity
  8
0
100
AcDbLine
 62
7
  6
CONTINUOUS
 10
521.5394433938
 20
343.0253773578
 11
521.5404844685
 21
343.0249300702
  0
LINE
  5
50D
100
AcDbEntity
  8
RUNDUNGEN
100
AcDbLine
 62
7
  6
CONTINUOUS
 10
515.0920963214
 20
413.6072609029
 11
517.9862526266
 21
408.8299408758
  0
LINE
  5
50E
100
AcDbEntity
  8
KONSTRUKTIONSELEMENTE
100
AcDbLine
 62
7
  6
CONTINUOUS
 10
515.0920963214
 20
413.6072609029
 11
517.9862526266
 21
408.8299408758
  0
LINE
  5
50F
100
AcDbEntity
  8
BEZUGSACHSEN
100
AcDbLine
 62
7
  6
CENTER
 10
480.8804089317
 20
392.3814208487
 11
438.8132868712
 21
392.3814208487
  0
LINE
  5
510
100
AcDbEntity
  8
BEZUGSACHSEN
100
AcDbLine
 62
7
  6
CENTER
 10
480.8804089317
 20
392.3814208487
 11
523.2416280607
 21
392.3814208487
  0
ARC
  5
511
100
AcDbEntity
  8
0
100
AcDbCircle
 62
7
  6
CONTINUOUS
 10
-58.3116191202
 20
91.5947113567
 40
144.144
100
AcDbArc
 50
31.4212980858
 51
34.125460793
  0
ARC
  5
512
100
AcDbEntity
  8
RUNDUNGEN
100
AcDbCircle
 62
7
  6
CONTINUOUS
 10
-58.3116191202
 20
91.5947113567
 40
144.144
100
AcDbArc
 50
30.0
 51
31.4212980858
  0
ARC
  5
513
100
AcDbEntity
  8
0
100
AcDbCircle
 62
7
  6
CONTINUOUS
 10
-58.3116191202
 20
91.5947113567
 40
144.144
100
AcDbArc
 50
49.6631482104
 51
49.8278759324
  0
ARC
  5
514
100
AcDbEntity
  8
RUNDUNGEN
100
AcDbCircle
 62
7
  6
CONTINUOUS
 10
-58.3116191202
 20
91.5947113567
 40
144.144
100
AcDbArc
 50
49.6631482104
 51
49.8278759324
  0
ARC
  5
515
100
AcDbEntity
  8
0
100
AcDbCircle
 62
7
  6
CONTINUOUS
 10
-58.3116191202
 20
91.5947113567
 40
144.119387397
100
AcDbArc
 50
35.7826064068
 51
42.6031174298
  0
ARC
  5
516
100
AcDbEntity
  8
RUNDUNGEN
100
AcDbCircle
 62
7
  6
CONTINUOUS
 10
105.1351676972
 20
103.5629668273
 40
57.2909827697
100
AcDbArc
 50
213.7553764149
 51
216.2558177322
  0
ARC
  5
517
100
AcDbEntity
  8
RUNDUNGEN
100
AcDbCircle
 62
7
  6
CONTINUOUS
 10
58.333846689
 20
72.285050921
 40
1.0
100
AcDbArc
 50
161.6917988352
 51
213.7591770429
  0
ARC
  5
518
100
AcDbEntity
  8
RUNDUNGEN
100
AcDbCircle
 62
7
  6
CONTINUOUS
 10
61.6681293572
 20
82.3649006705
 40
1.0
100
AcDbArc
 50
45.9593097796
 51
161.6982022136
  0
ARC
  5
519
100
AcDbEntity
  8
RUNDUNGEN
100
AcDbCircle
 62
7
  6
CONTINUOUS
 10
41.091294421
 20
178.8119014589
 40
27.027
100
AcDbArc
 50
119.9988248414
 51
194.0004996208
  0
ARC
  5
51A
100
AcDbEntity
  8
RUNDUNGEN
100
AcDbCircle
 62
7
  6
CONTINUOUS
 10
35.4991448106
 20
178.0607908399
 40
2.0
100
AcDbArc
 50
165.002175552
 51
255.0
  0
ARC
  5
51B
100
AcDbEntity
  8
0
100
AcDbCircle
 62
7
  6
CONTINUOUS
 10
35.4991448106
 20
178.0607908399
 40
2.0
100
AcDbArc
 50
165.002175552
 51
171.8498578281
  0
ARC
  5
51C
100
AcDbEntity
  8
RUNDUNGEN
100
AcDbCircle
 62
7
  6
CONTINUOUS
 10
42.0727381246
 20
176.9387512731
 40
0.8
100
AcDbArc
 50
254.97609674
 51
344.97609674
  0
ARC
  5
51D
100
AcDbEntity
  8
RUNDUNGEN
100
AcDbCircle
 62
7
  6
CONTINUOUS
 10
35.2513084851
 20
178.7697644062
 40
0.8
100
AcDbArc
 50
164.9875841175
 51
254.97609674
  0
ARC
  5
51E
100
AcDbEntity
  8
0
100
AcDbCircle
 62
7
  6
CONTINUOUS
 10
30.803139816
 20
197.1519208487
 40
6.0
100
AcDbArc
 50
49.8278507506
 51
120.0
  0
ARC
  5
51F
100
AcDbEntity
  8
RUNDUNGEN
100
AcDbCircle
 62
7
  6
CONTINUOUS
 10
30.803139816
 20
197.1519208487
 40
6.0
100
AcDbArc
 50
49.8278507506
 51
120.0
  0
ARC
  5
520
100
AcDbEntity
  8
0
100
AcDbCircle
 62
7
  6
CONTINUOUS
 10
31.8668195253
 20
185.5913445123
 40
1.1
100
AcDbArc
 50
164.97609674
 51
253.97609674
  0
ARC
  5
521
100
AcDbEntity
  8
0
100
AcDbCircle
 62
7
  6
CONTINUOUS
 10
34.4341751341
 20
182.6691174772
 40
1.0
100
AcDbArc
 50
29.9035504475
 51
59.1427634067
  0
ARC
  5
522
100
AcDbEntity
  8
RUNDUNGEN
100
AcDbCircle
 62
7
  6
CONTINUOUS
 10
34.4341751341
 20
182.6691174772
 40
1.0
100
AcDbArc
 50
344.976031866
 51
73.9760994337
  0
ARC
  5
523
100
AcDbEntity
  8
RUNDUNGEN
100
AcDbCircle
 62
7
  6
CONTINUOUS
 10
60.4278891054
 20
164.1342324332
 40
4.9999918875
100
AcDbArc
 50
31.4211177615
 51
74.999874916
  0
ARC
  5
524
100
AcDbEntity
  8
0
100
AcDbCircle
 62
7
  6
CONTINUOUS
 10
60.4278891054
 20
164.1342324332
 40
4.9999918875
100
AcDbArc
 50
65.023323746
 51
74.999874916
  0
ARC
  5
525
100
AcDbEntity
  8
0
100
AcDbCircle
 62
7
  6
CONTINUOUS
 10
60.4278891054
 20
164.1342324332
 40
4.9999918875
100
AcDbArc
 50
53.3180317673
 51
60.6877728043
  0
ARC
  5
526
100
AcDbEntity
  8
RUNDUNGEN
100
AcDbCircle
 62
7
  6
CONTINUOUS
 10
-32.960172729
 20
287.7776536894
 40
88.0
100
AcDbArc
 50
24.049533241
 51
25.3558854146
  0
ARC
  5
527
100
AcDbEntity
  8
KONSTRUKTIONSELEMENTE
100
AcDbCircle
 62
7
  6
CONTINUOUS
 10
-32.960172729
 20
287.7776536894
 40
88.0
100
AcDbArc
 50
350.8873938869
 51
354.3773155438
  0
ARC
  5
528
100
AcDbEntity
  8
KONSTRUKTIONSELEMENTE
100
AcDbCircle
 62
7
  6
CONTINUOUS
 10
-32.960172729
 20
287.7776536894
 40
88.0
100
AcDbArc
 50
24.0526522526
 51
27.5015973202
  0
ARC
  5
529
100
AcDbEntity
  8
0
100
AcDbCircle
 62
7
  6
CONTINUOUS
 10
-32.960172729
 20
287.7776536894
 40
88.0
100
AcDbArc
 50
344.97609674
 51
27.5015973202
  0
ARC
  5
52A
100
AcDbEntity
  8
RUNDUNGEN
100
AcDbCircle
 62
7
  6
CONTINUOUS
 10
75.2676628111
 20
309.5182065099
 40
33.5818008849
100
AcDbArc
 50
26.83
 51
75.0
  0
ARC
  5
52B
100
AcDbEntity
  8
RUNDUNGEN
100
AcDbCircle
 62
7
  6
CONTINUOUS
 10
60.2857921049
 20
341.7702630417
 40
6.3063
100
AcDbArc
 50
347.5387192868
 51
75.0
  0
ARC
  5
52C
100
AcDbEntity
  8
RUNDUNGEN
100
AcDbCircle
 62
7
  6
CONTINUOUS
 10
60.505694421
 20
353.4164834722
 40
5.0
100
AcDbArc
 50
180.0
 51
254.9999999957
  0
ARC
  5
52D
100
AcDbEntity
  8
0
100
AcDbCircle
 62
7
  6
CONTINUOUS
 10
60.505694421
 20
353.4164834722
 40
5.0
100
AcDbArc
 50
180.0
 51
254.9999999957
  0
ARC
  5
52E
100
AcDbEntity
  8
0
100
AcDbCircle
 62
7
  6
CONTINUOUS
 10
55.9200113277
 20
342.1981696656
 40
1.0
100
AcDbArc
 50
74.97609674
 51
130.2794943838
  0
ARC
  5
52F
100
AcDbEntity
  8
KONSTRUKTIONSELEMENTE
100
AcDbCircle
 62
7
  6
CONTINUOUS
 10
55.9200113277
 20
342.1981696656
 40
1.0
100
AcDbArc
 50
74.97609674
 51
130.2794943838
  0
ARC
  5
530
100
AcDbEntity
  8
0
100
AcDbCircle
 62
7
  6
CONTINUOUS
 10
45.867408894
 20
329.0960802746
 40
1.0
100
AcDbArc
 50
154.7259245372
 51
207.6618224826
  0
ARC
  5
531
100
AcDbEntity
  8
KONSTRUKTIONSELEMENTE
100
AcDbCircle
 62
7
  6
CONTINUOUS
 10
45.867408894
 20
329.0960802746
 40
1.0
100
AcDbArc
 50
154.7259245372
 51
207.6618224826
  0
ARC
  5
532
100
AcDbEntity
  8
0
100
AcDbCircle
 62
7
  6
CONTINUOUS
 10
78.929094421
 20
311.1732066136
 40
25.0
100
AcDbArc
 50
334.2235815266
 51
74.97609674
  0
CIRCLE
  5
533
100
AcDbEntity
  8
0
100
AcDbCircle
 62
7
  6
CONTINUOUS
 10
78.929094421
 20
311.1732066136
 40
10.0
  0
ARC
  5
534
100
AcDbEntity
  8
KONSTRUKTIONSELEMENTE
100
AcDbCircle
 62
7
  6
CONTINUOUS
 10
78.929094421
 20
311.1732066136
 40
9.1961524227
100
AcDbArc
 50
174.97609674
 51
154.97609674
  0
ARC
  5
535
100
AcDbEntity
  8
KONSTRUKTIONSELEMENTE
100
AcDbCircle
 62
7
  6
CONTINUOUS
 10
78.929094421
 20
311.1732066136
 40
6.0
100
AcDbArc
 50
174.97609674
 51
154.97609674
  0
ARC
  5
536
100
AcDbEntity
  8
KONSTRUKTIONSELEMENTE
100
AcDbCircle
 62
7
  6
CONTINUOUS
 10
81.1341659946
 20
312.4450789953
 40
40.0
100
AcDbArc
 50
130.2794943838
 51
154.7259245372
  0
ARC
  5
537
100
AcDbEntity
  8
0
100
AcDbCircle
 62
7
  6
CONTINUOUS
 10
81.1341659946
 20
312.4450789953
 40
40.0
100
AcDbArc
 50
130.2794943838
 51
154.7259245372
  0
ARC
  5
538
100
AcDbEntity
  8
0
100
AcDbCircle
 62
7
  6
CONTINUOUS
 10
80.730894421
 20
312.9750066136
 40
29.00898
100
AcDbArc
 50
182.964549494
 51
202.1206568918
  0
ARC
  5
539
100
AcDbEntity
  8
RUNDUNGEN
100
AcDbCircle
 62
7
  6
CONTINUOUS
 10
80.730894421
 20
312.9750066136
 40
29.00898
100
AcDbArc
 50
182.9645495014
 51
202.1206568701
  0
ARC
  5
53A
100
AcDbEntity
  8
0
100
AcDbCircle
 62
7
  6
CONTINUOUS
 10
80.730894421
 20
312.9750066136
 40
29.00898
100
AcDbArc
 50
300.6712825361
 51
323.5498460513
  0
ARC
  5
53B
100
AcDbEntity
  8
RUNDUNGEN
100
AcDbCircle
 62
7
  6
CONTINUOUS
 10
80.730894421
 20
312.9750066136
 40
29.00898
100
AcDbArc
 50
300.6712825453
 51
323.5498460589
  0
ARC
  5
53C
100
AcDbEntity
  8
BEZUGSACHSEN
100
AcDbCircle
 62
7
  6
CONTINUOUS
 10
80.730894421
 20
312.9750066136
 40
10.0
100
AcDbArc
 50
168.75
 51
186.2441410843
  0
ARC
  5
53D
100
AcDbEntity
  8
0
100
AcDbCircle
 62
7
  6
CONTINUOUS
 10
108.4129282585
 20
292.5286242096
 40
5.4054
100
AcDbArc
 50
37.4989094415
 51
76.9425151247
  0
ARC
  5
53E
100
AcDbEntity
  8
RUNDUNGEN
100
AcDbCircle
 62
7
  6
CONTINUOUS
 10
108.4129282585
 20
292.5286242096
 40
5.4054
100
AcDbArc
 50
37.4989094415
 51
143.5498460513
  0
ARC
  5
53F
100
AcDbEntity
  8
KONSTRUKTIONSELEMENTE
100
AcDbCircle
 62
7
  6
CONTINUOUS
 10
102.352494421
 20
342.7914208487
 40
90.09
100
AcDbArc
 50
90.0
 51
119.4586018786
  0
CIRCLE
  5
540
100
AcDbEntity
  8
BEZUGSACHSEN
100
AcDbCircle
 62
7
  6
CONTINUOUS
 10
90.138494421
 20
392.3814208487
 40
5.0
  0
ARC
  5
541
100
AcDbEntity
  8
0
100
AcDbCircle
 62
7
  6
CONTINUOUS
 10
60.505694421
 20
416.8802420719
 40
5.0
100
AcDbArc
 50
119.4586018971
 51
180.0000000376
  0
ARC
  5
542
100
AcDbEntity
  8
0
100
AcDbCircle
 62
7
  6
CONTINUOUS
 10
107.1951050958
 20
430.8814208487
 40
2.0
100
AcDbArc
 50
65.0
 51
90.0
  0
ARC
  5
543
100
AcDbEntity
  8
0
100
AcDbCircle
 62
7
  6
CONTINUOUS
 10
138.388494421
 20
123.727770667
 40
108.108
100
AcDbArc
 50
194.0
 51
247.401145083
  0
ARC
  5
544
100
AcDbEntity
  8
RUNDUNGEN
100
AcDbCircle
 62
7
  6
CONTINUOUS
 10
138.388494421
 20
123.727770667
 40
108.0920082337
100
AcDbArc
 50
197.3
 51
247.401145083
  0
ARC
  5
545
100
AcDbEntity
  8
RUNDUNGEN
100
AcDbCircle
 62
7
  6
CONTINUOUS
 10
137.9318168783
 20
123.6091112159
 40
107.6201279085
100
AcDbArc
 50
193.9975220156
 51
194.3678628894
  0
ARC
  5
546
100
AcDbEntity
  8
RUNDUNGEN
100
AcDbCircle
 62
7
  6
CONTINUOUS
 10
184.3398572408
 20
83.6274845663
 40
50.5755647778
100
AcDbArc
 50
305.4577095591
 51
308.8428848369
  0
ARC
  5
547
100
AcDbEntity
  8
RUNDUNGEN
100
AcDbCircle
 62
7
  6
CONTINUOUS
 10
186.7266029564
 20
58.5844114861
 40
1.0
100
AcDbArc
 50
64.6961460788
 51
119.2010773627
  0
ARC
  5
548
100
AcDbEntity
  8
RUNDUNGEN
100
AcDbCircle
 62
7
  6
CONTINUOUS
 10
148.388494421
 20
49.6457203053
 40
1.0
100
AcDbArc
 50
94.4118939411
 51
180.0016068199
  0
ARC
  5
549
100
AcDbEntity
  8
RUNDUNGEN
100
AcDbCircle
 62
7
  6
CONTINUOUS
 10
148.388494421
 20
27.9628219718
 40
1.0
100
AcDbArc
 50
179.9986909558
 51
270.6514827449
  0
ARC
  5
54A
100
AcDbEntity
  8
RUNDUNGEN
100
AcDbCircle
 62
7
  6
CONTINUOUS
 10
128.388494421
 20
51.7935437387
 40
1.0
100
AcDbArc
 50
359.996980656
 51
84.8028867467
  0
ARC
  5
54B
100
AcDbEntity
  8
RUNDUNGEN
100
AcDbCircle
 62
7
  6
CONTINUOUS
 10
128.388494421
 20
33.3967425628
 40
1.0
100
AcDbArc
 50
256.6516710511
 51
0.0016026263
  0
ARC
  5
54C
100
AcDbEntity
  8
0
100
AcDbCircle
 62
7
  6
CONTINUOUS
 10
155.698246111
 20
165.3141208487
 40
153.153
100
AcDbArc
 50
247.401145083
 51
350.2137751959
  0
ARC
  5
54D
100
AcDbEntity
  8
RUNDUNGEN
100
AcDbCircle
 62
7
  6
CONTINUOUS
 10
155.698246111
 20
165.3141208487
 40
153.1370082337
100
AcDbArc
 50
247.401145083
 51
350.2137751959
  0
ARC
  5
54E
100
AcDbEntity
  8
RUNDUNGEN
100
AcDbCircle
 62
7
  6
CONTINUOUS
 10
138.388494421
 20
161.7105208487
 40
112.0
100
AcDbArc
 50
330.5194214403
 51
347.8981770095
  0
ARC
  5
54F
100
AcDbEntity
  8
RUNDUNGEN
100
AcDbCircle
 62
7
  6
CONTINUOUS
 10
138.388494421
 20
161.7105208487
 40
112.0
100
AcDbArc
 50
12.1018250905
 51
29.4805773472
  0
ARC
  5
550
100
AcDbEntity
  8
RUNDUNGEN
100
AcDbCircle
 62
7
  6
CONTINUOUS
 10
138.388494421
 20
161.7105208487
 40
109.3709284956
100
AcDbArc
 50
225.9637066102
 51
264.8016699483
  0
ARC
  5
551
100
AcDbEntity
  8
0
100
AcDbCircle
 62
7
  6
CONTINUOUS
 10
138.388494421
 20
161.7105208487
 40
109.3709284956
100
AcDbArc
 50
257.0915020365
 51
258.9789582238
  0
ARC
  5
552
100
AcDbEntity
  8
0
100
AcDbCircle
 62
7
  6
CONTINUOUS
 10
138.388494421
 20
161.7105208487
 40
109.3709284956
100
AcDbArc
 50
261.4037086743
 51
262.6845697172
  0
ARC
  5
553
100
AcDbEntity
  8
RUNDUNGEN
100
AcDbCircle
 62
7
  6
CONTINUOUS
 10
138.388494421
 20
161.7105208487
 40
100.9008
100
AcDbArc
 50
193.2791462113
 51
32.2212941298
  0
ARC
  5
554
100
AcDbEntity
  8
RUNDUNGEN
100
AcDbCircle
 62
7
  6
CONTINUOUS
 10
138.388494421
 20
161.7105208487
 40
61.2612
100
AcDbArc
 50
209.999992604
 51
37.5000078981
  0
ARC
  5
555
100
AcDbEntity
  8
RUNDUNGEN
100
AcDbCircle
 62
7
  6
CONTINUOUS
 10
161.4585875834
 20
197.195042352
 40
167.7829448463
100
AcDbArc
 50
249.1897185908
 51
249.7554446933
  0
ARC
  5
556
100
AcDbEntity
  8
RUNDUNGEN
100
AcDbCircle
 62
7
  6
CONTINUOUS
 10
153.5439719337
 20
191.9667607167
 40
74.540466
100
AcDbArc
 50
17.8430866901
 51
37.1304150141
  0
ARC
  5
557
100
AcDbEntity
  8
0
100
AcDbCircle
 62
7
  6
CONTINUOUS
 10
187.037094421
 20
159.9087208487
 40
121.3514
100
AcDbArc
 50
350.2137751959
 51
55.0
  0
ARC
  5
558
100
AcDbEntity
  8
RUNDUNGEN
100
AcDbCircle
 62
7
  6
CONTINUOUS
 10
187.037094421
 20
159.9087208487
 40
121.3354082337
100
AcDbArc
 50
350.2137751959
 51
55.0
  0
ARC
  5
559
100
AcDbEntity
  8
RUNDUNGEN
100
AcDbCircle
 62
7
  6
CONTINUOUS
 10
188.9077772439
 20
161.7105208487
 40
97.922594144
100
AcDbArc
 50
347.8961805929
 51
12.1038742354
  0
ARC
  5
55A
100
AcDbEntity
  8
RUNDUNGEN
100
AcDbCircle
 62
7
  6
CONTINUOUS
 10
169.9825347434
 20
221.2894955249
 40
193.3416716443
100
AcDbArc
 50
250.8242025809
 51
252.5505397045
  0
ARC
  5
55B
100
AcDbEntity
  8
RUNDUNGEN
100
AcDbCircle
 62
7
  6
CONTINUOUS
 10
166.461545574
 20
211.0492498248
 40
182.5130766245
100
AcDbArc
 50
250.6920359348
 51
250.8122852414
  0
ARC
  5
55C
100
AcDbEntity
  8
RUNDUNGEN
100
AcDbCircle
 62
7
  6
CONTINUOUS
 10
164.3285662532
 20
205.0055799947
 40
176.1040734314
100
AcDbArc
 50
249.7586918482
 51
250.6968176965
  0
ARC
  5
55D
100
AcDbEntity
  8
RUNDUNGEN
100
AcDbCircle
 62
7
  6
CONTINUOUS
 10
215.4329263251
 20
45.0149945947
 40
1.0
100
AcDbArc
 50
308.8331593467
 51
64.7014765464
  0
ARC
  5
55E
100
AcDbEntity
  8
RUNDUNGEN
100
AcDbCircle
 62
7
  6
CONTINUOUS
 10
241.1747922558
 20
57.1809314114
 40
1.0
100
AcDbArc
 50
244.6957687596
 51
327.4910800649
  0
ARC
  5
55F
100
AcDbEntity
  8
RUNDUNGEN
100
AcDbCircle
 62
7
  6
CONTINUOUS
 10
265.1502795296
 20
94.8004171748
 40
1.0
100
AcDbArc
 50
327.4924384126
 51
115.5032615081
  0
ARC
  5
560
100
AcDbEntity
  8
RUNDUNGEN
100
AcDbCircle
 62
7
  6
CONTINUOUS
 10
213.6034547254
 20
70.2138429549
 40
1.0
100
AcDbArc
 50
115.5007948027
 51
244.7028517964
  0
ARC
  5
561
100
AcDbEntity
  8
RUNDUNGEN
100
AcDbCircle
 62
7
  6
CONTINUOUS
 10
236.7575457326
 20
106.1000025625
 40
1.0
100
AcDbArc
 50
150.5199891741
 51
295.0034152896
  0
ARC
  5
562
100
AcDbEntity
  8
RUNDUNGEN
100
AcDbCircle
 62
7
  6
CONTINUOUS
 10
271.3961050249
 20
122.2522280279
 40
1.0
100
AcDbArc
 50
294.9974785981
 51
55.0016600321
  0
ARC
  5
563
100
AcDbEntity
  8
RUNDUNGEN
100
AcDbCircle
 62
7
  6
CONTINUOUS
 10
234.0179750902
 20
217.8709149675
 40
10.0
100
AcDbArc
 50
197.8431262587
 51
210.4244688582
  0
ARC
  5
564
100
AcDbEntity
  8
RUNDUNGEN
100
AcDbCircle
 62
7
  6
CONTINUOUS
 10
248.8772454904
 20
138.0201032259
 40
1.0
100
AcDbArc
 50
55.0012386356
 51
167.9013629364
  0
ARC
  5
565
100
AcDbEntity
  8
RUNDUNGEN
100
AcDbCircle
 62
7
  6
CONTINUOUS
 10
236.7575457326
 20
217.3210391349
 40
1.0
100
AcDbArc
 50
65.0015768752
 51
209.4834645607
  0
ARC
  5
566
100
AcDbEntity
  8
RUNDUNGEN
100
AcDbCircle
 62
7
  6
CONTINUOUS
 10
271.3961050249
 20
201.1688136695
 40
1.0
100
AcDbArc
 50
305.0
 51
65.0019141449
  0
ARC
  5
567
100
AcDbEntity
  8
RUNDUNGEN
100
AcDbCircle
 62
7
  6
CONTINUOUS
 10
248.8772454904
 20
185.4009384715
 40
1.0
100
AcDbArc
 50
192.1019670366
 51
305.0014772703
  0
ARC
  5
568
100
AcDbEntity
  8
RUNDUNGEN
100
AcDbCircle
 62
7
  6
CONTINUOUS
 10
283.6756970979
 20
141.3873660207
 40
1.0
100
AcDbArc
 50
235.00054108
 51
347.8998452335
  0
ARC
  5
569
100
AcDbEntity
  8
RUNDUNGEN
100
AcDbCircle
 62
7
  6
CONTINUOUS
 10
254.6512240395
 20
161.7105208487
 40
1.0
100
AcDbArc
 50
125.0002683446
 51
235.0023134751
  0
ARC
  5
56A
100
AcDbEntity
  8
RUNDUNGEN
100
AcDbCircle
 62
7
  6
CONTINUOUS
 10
283.6756970979
 20
182.0336756767
 40
1.0
100
AcDbArc
 50
12.1055236786
 51
125.00238502
  0
ARC
  5
56B
100
AcDbEntity
  8
RUNDUNGEN
100
AcDbCircle
 62
7
  6
CONTINUOUS
 10
181.895346924
 20
261.1319085561
 40
234.9312831002
100
AcDbArc
 50
254.2562517018
 51
255.4365536073
  0
ARC
  5
56C
100
AcDbEntity
  8
RUNDUNGEN
100
AcDbCircle
 62
7
  6
CONTINUOUS
 10
179.0949632913
 20
251.084986786
 40
224.5014319282
100
AcDbArc
 50
254.0822484298
 51
254.2484015809
  0
ARC
  5
56D
100
AcDbEntity
  8
RUNDUNGEN
100
AcDbCircle
 62
7
  6
CONTINUOUS
 10
176.0439830456
 20
240.5325529373
 40
213.5168670525
100
AcDbArc
 50
252.6151779557
 51
254.092959058
  0
ARC
  5
56E
100
AcDbEntity
  8
RUNDUNGEN
100
AcDbCircle
 62
7
  6
CONTINUOUS
 10
137.866182211
 20
271.2371349857
 40
5.0
100
AcDbArc
 50
206.83
 51
217.5
  0
ARC
  5
56F
100
AcDbEntity
  8
RUNDUNGEN
100
AcDbCircle
 62
7
  6
CONTINUOUS
 10
160.398494421
 20
326.6432799104
 40
1.0
100
AcDbArc
 50
0.0
 51
115.3223719953
  0
ARC
  5
570
100
AcDbEntity
  8
RUNDUNGEN
100
AcDbCircle
 62
7
  6
CONTINUOUS
 10
160.398494421
 20
288.5505208487
 40
1.0
100
AcDbArc
 50
270.0
 51
360.0
  0
ARC
  5
571
100
AcDbEntity
  8
RUNDUNGEN
100
AcDbCircle
 62
7
  6
CONTINUOUS
 10
152.9175019117
 20
288.5505208487
 40
1.0
100
AcDbArc
 50
213.35
 51
270.0
  0
ARC
  5
572
100
AcDbEntity
  8
RUNDUNGEN
100
AcDbCircle
 62
7
  6
CONTINUOUS
 10
130.723981356
 20
322.2727592141
 40
1.0
100
AcDbArc
 50
81.4344286802
 51
213.35
  0
ARC
  5
573
100
AcDbEntity
  8
RUNDUNGEN
100
AcDbCircle
 62
7
  6
CONTINUOUS
 10
138.388494421
 20
373.1587773279
 40
50.46
100
AcDbArc
 50
261.4344286802
 51
295.3223719953
  0
ARC
  5
574
100
AcDbEntity
  8
RUNDUNGEN
100
AcDbCircle
 62
7
  6
CONTINUOUS
 10
138.388494421
 20
356.6314208487
 40
15.75
100
AcDbArc
 50
180.0
 51
360.0
  0
ARC
  5
575
100
AcDbEntity
  8
0
100
AcDbCircle
 62
7
  6
CONTINUOUS
 10
157.138494421
 20
423.975595194
 40
3.0
100
AcDbArc
 50
115.0
 51
180.0
  0
ARC
  5
576
100
AcDbEntity
  8
0
100
AcDbCircle
 62
7
  6
CONTINUOUS
 10
119.638494421
 20
423.975595194
 40
3.0
100
AcDbArc
 50
0.0
 51
65.0
  0
ARC
  5
577
100
AcDbEntity
  8
0
100
AcDbCircle
 62
7
  6
CONTINUOUS
 10
169.5818837463
 20
430.8814208487
 40
2.0
100
AcDbArc
 50
90.0
 51
115.0
  0
ARC
  5
578
100
AcDbEntity
  8
RUNDUNGEN
100
AcDbCircle
 62
7
  6
CONTINUOUS
 10
187.7625609218
 20
283.8587993408
 40
258.4034414328
100
AcDbArc
 50
255.6280881081
 51
256.663702743
  0
ARC
  5
579
100
AcDbEntity
  8
RUNDUNGEN
100
AcDbCircle
 62
7
  6
CONTINUOUS
 10
184.8310491629
 20
272.299972069
 40
246.4787045895
100
AcDbArc
 50
255.4288484807
 51
255.6212760246
  0
ARC
  5
57A
100
AcDbEntity
  8
RUNDUNGEN
100
AcDbCircle
 62
7
  6
CONTINUOUS
 10
230.442456421
 20
303.4361476908
 40
54.054
100
AcDbArc
 50
155.0
 51
217.13
  0
ARC
  5
57B
100
AcDbEntity
  8
RUNDUNGEN
100
AcDbCircle
 62
7
  6
CONTINUOUS
 10
245.955994421
 20
315.6269519068
 40
40.0159917663
100
AcDbArc
 50
180.0
 51
235.0
  0
ARC
  5
57C
100
AcDbEntity
  8
0
100
AcDbCircle
 62
7
  6
CONTINUOUS
 10
245.955994421
 20
315.6269519068
 40
40.0
100
AcDbArc
 50
180.0
 51
235.0
  0
ARC
  5
57D
100
AcDbEntity
  8
RUNDUNGEN
100
AcDbCircle
 62
7
  6
CONTINUOUS
 10
202.955994421
 20
379.4925048366
 40
3.0
100
AcDbArc
 50
334.9996704782
 51
360.0
  0
ARC
  5
57E
100
AcDbEntity
  8
0
100
AcDbCircle
 62
7
  6
CONTINUOUS
 10
186.414396195
 20
429.881419259
 40
3.0
100
AcDbArc
 50
40.0000396333
 51
90.0000254758
  0
ARC
  5
57F
100
AcDbEntity
  8
RUNDUNGEN
100
AcDbCircle
 62
7
  6
CONTINUOUS
 10
202.955994421
 20
410.1679101459
 40
3.0
100
AcDbArc
 50
0.0
 51
40.0
  0
ARC
  5
580
100
AcDbEntity
  8
0
100
AcDbCircle
 62
7
  6
CONTINUOUS
 10
-1474.4793640307
 20
44.2797722448
 40
1990.9302552934
100
AcDbArc
 50
0.8720468466
 51
1.1510623342
  0
ARC
  5
581
100
AcDbEntity
  8
0
100
AcDbCircle
 62
7
  6
CONTINUOUS
 10
-1333.004102192
 20
44.2562242792
 40
1849.3916387871
100
AcDbArc
 50
0.9394793652
 51
1.2398398185
  0
ARC
  5
582
100
AcDbEntity
  8
RUNDUNGEN
100
AcDbCircle
 62
7
  6
CONTINUOUS
 10
-551.2084726332
 20
145.7512534076
 40
1070.0623834903
100
AcDbArc
 50
356.8925701703
 51
357.0168265548
  0
ARC
  5
583
100
AcDbEntity
  8
RUNDUNGEN
100
AcDbCircle
 62
7
  6
CONTINUOUS
 10
153.1646788661
 20
103.1571472829
 40
364.3948473969
100
AcDbArc
 50
355.4968939303
 51
356.3221467506
  0
ARC
  5
584
100
AcDbEntity
  8
RUNDUNGEN
100
AcDbCircle
 62
7
  6
CONTINUOUS
 10
271.523356974
 20
93.9038227457
 40
245.6750350242
100
AcDbArc
 50
355.1792105077
 51
355.4810465115
  0
ARC
  5
585
100
AcDbEntity
  8
RUNDUNGEN
100
AcDbCircle
 62
7
  6
CONTINUOUS
 10
313.385345875
 20
90.3619966953
 40
203.6634831114
100
AcDbArc
 50
354.9092186956
 51
355.1823725344
  0
ARC
  5
586
100
AcDbEntity
  8
0
100
AcDbCircle
 62
7
  6
CONTINUOUS
 10
324.0118510188
 20
129.5983642905
 40
195.1513880179
100
AcDbArc
 50
352.7832758186
 51
352.9044706146
  0
ARC
  5
587
100
AcDbEntity
  8
0
100
AcDbCircle
 62
7
  6
CONTINUOUS
 10
332.6967445629
 20
4.2612209277
 40
132.5325421853
100
AcDbArc
 50
9.6300817085
 51
10.2243194135
  0
ARC
  5
588
100
AcDbEntity
  8
0
100
AcDbCircle
 62
7
  6
CONTINUOUS
 10
398.3674325744
 20
65.0624217893
 40
119.2581224332
100
AcDbArc
 50
7.1012679572
 51
7.2847085779
  0
ARC
  5
589
100
AcDbEntity
  8
0
100
AcDbCircle
 62
7
  6
CONTINUOUS
 10
426.0484624486
 20
83.6098971148
 40
91.7679369536
100
AcDbArc
 50
7.2653400526
 51
7.4437235659
  0
ARC
  5
58A
100
AcDbEntity
  8
0
100
AcDbCircle
 62
7
  6
CONTINUOUS
 10
435.4031792017
 20
107.1381691253
 40
83.354765694
100
AcDbArc
 50
349.4790861439
 51
349.6127605145
  0
ARC
  5
58B
100
AcDbEntity
  8
0
100
AcDbCircle
 62
7
  6
CONTINUOUS
 10
455.2799189071
 20
115.8141475729
 40
63.5313321135
100
AcDbArc
 50
348.7991372845
 51
348.9749062979
  0
ARC
  5
58C
100
AcDbEntity
  8
0
100
AcDbCircle
 62
7
  6
CONTINUOUS
 10
469.6166485613
 20
93.5933289462
 40
49.0709491652
100
AcDbArc
 50
343.6814761319
 51
343.8735457331
  0
ARC
  5
58D
100
AcDbEntity
  8
0
100
AcDbCircle
 62
7
  6
CONTINUOUS
 10
471.7300283786
 20
19.1771019534
 40
7.0
100
AcDbArc
 50
190.2039737217
 51
269.9
  0
ARC
  5
58E
100
AcDbEntity
  8
0
100
AcDbCircle
 62
7
  6
CONTINUOUS
 10
451.5804089317
 20
170.7195208487
 40
5.0
100
AcDbArc
 50
150.0
 51
195.0
  0
ARC
  5
58F
100
AcDbEntity
  8
0
100
AcDbCircle
 62
7
  6
CONTINUOUS
 10
442.612455397
 20
203.913153241
 40
3.3546091957
100
AcDbArc
 50
189.645164045
 51
195.6472087897
  0
ARC
  5
590
100
AcDbEntity
  8
0
100
AcDbCircle
 62
7
  6
CONTINUOUS
 10
442.4643392739
 20
203.8882907295
 40
3.2044212039
100
AcDbArc
 50
184.0940435521
 51
189.6506209109
  0
ARC
  5
591
100
AcDbEntity
  8
KONSTRUKTIONSELEMENTE
100
AcDbCircle
 62
7
  6
CONTINUOUS
 10
474.9770695702
 20
224.3561343659
 40
0.9993146003
100
AcDbArc
 50
180.0577137193
 51
191.8880335016
  0
ARC
  5
592
100
AcDbEntity
  8
RUNDUNGEN
100
AcDbCircle
 62
7
  6
CONTINUOUS
 10
-4935.72816124
 20
333.3494569008
 40
5458.6243766745
100
AcDbArc
 50
357.7372639598
 51
357.8821498189
  0
ARC
  5
593
100
AcDbEntity
  8
0
100
AcDbCircle
 62
7
  6
CONTINUOUS
 10
-10265.3154022568
 20
529.7092915572
 40
10723.9483939545
100
AcDbArc
 50
357.8376049412
 51
357.965508484
  0
ARC
  5
594
100
AcDbEntity
  8
0
100
AcDbCircle
 62
7
  6
CONTINUOUS
 10
440.4300089317
 20
268.4323458246
 40
10.0
100
AcDbArc
 50
180.0
 51
195.0000489876
  0
ARC
  5
595
100
AcDbEntity
  8
0
100
AcDbCircle
 62
7
  6
CONTINUOUS
 10
435.8804089317
 20
380.1671668109
 40
5.0
100
AcDbArc
 50
330.0
 51
0.0006836798
  0
ARC
  5
596
100
AcDbEntity
  8
0
100
AcDbCircle
 62
7
  6
CONTINUOUS
 10
435.4300089317
 20
359.3870511271
 40
5.0
100
AcDbArc
 50
150.0
 51
180.0
  0
ARC
  5
597
100
AcDbEntity
  8
KONSTRUKTIONSELEMENTE
100
AcDbCircle
 62
7
  6
CONTINUOUS
 10
440.8130751106
 20
341.6474486265
 40
1.4996056306
100
AcDbArc
 50
113.240999222
 51
168.5359794565
  0
ARC
  5
598
100
AcDbEntity
  8
0
100
AcDbCircle
 62
7
  6
CONTINUOUS
 10
464.2300089317
 20
288.9660266136
 40
5.0
100
AcDbArc
 50
180.0
 51
270.0
  0
ARC
  5
599
100
AcDbEntity
  8
RUNDUNGEN
100
AcDbCircle
 62
7
  6
CONTINUOUS
 10
455.8805634292
 20
283.925895473
 40
1.0001545102
100
AcDbArc
 50
180.0109020703
 51
217.2463771786
  0
ARC
  5
59A
100
AcDbEntity
  8
KONSTRUKTIONSELEMENTE
100
AcDbCircle
 62
7
  6
CONTINUOUS
 10
476.206900291
 20
268.7702638066
 40
0.5222736852
100
AcDbArc
 50
141.9533105682
 51
148.2719059971
  0
ARC
  5
59B
100
AcDbEntity
  8
0
100
AcDbCircle
 62
7
  6
CONTINUOUS
 10
460.8804089317
 20
398.4670208487
 40
20.0
100
AcDbArc
 50
148.792029097
 51
180.0
  0
ARC
  5
59C
100
AcDbEntity
  8
0
100
AcDbCircle
 62
7
  6
CONTINUOUS
 10
3978.1666844307
 20
35.0232479401
 40
3462.1723812399
100
AcDbArc
 50
179.1158617096
 51
179.3453455629
  0
ARC
  5
59D
100
AcDbEntity
  8
0
100
AcDbCircle
 62
7
  6
CONTINUOUS
 10
3898.2948227306
 20
34.3111685107
 40
3382.2540459438
100
AcDbArc
 50
179.0829229803
 51
179.3178249965
  0
ARC
  5
59E
100
AcDbEntity
  8
RUNDUNGEN
100
AcDbCircle
 62
7
  6
CONTINUOUS
 10
1417.7080271781
 20
136.8437142584
 40
906.6334771518
100
AcDbArc
 50
183.1442821182
 51
183.2655580906
  0
ARC
  5
59F
100
AcDbEntity
  8
RUNDUNGEN
100
AcDbCircle
 62
7
  6
CONTINUOUS
 10
839.1610348909
 20
100.3002534169
 40
326.9259176272
100
AcDbArc
 50
184.0777863194
 51
184.6085623614
  0
ARC
  5
5A0
100
AcDbEntity
  8
RUNDUNGEN
100
AcDbCircle
 62
7
  6
CONTINUOUS
 10
759.2722919221
 20
93.985433591
 40
246.788113359
100
AcDbArc
 50
184.6374642612
 51
184.7582911512
  0
ARC
  5
5A1
100
AcDbEntity
  8
RUNDUNGEN
100
AcDbCircle
 62
7
  6
CONTINUOUS
 10
737.1801469109
 20
92.1485473149
 40
224.6197345773
100
AcDbArc
 50
184.7588118626
 51
184.9240274014
  0
ARC
  5
5A2
100
AcDbEntity
  8
RUNDUNGEN
100
AcDbCircle
 62
7
  6
CONTINUOUS
 10
715.5156968999
 20
90.2877348558
 40
202.875517361
100
AcDbArc
 50
184.9256138914
 51
185.0421969619
  0
ARC
  5
5A3
100
AcDbEntity
  8
RUNDUNGEN
100
AcDbCircle
 62
7
  6
CONTINUOUS
 10
677.7368174626
 20
86.8942614348
 40
164.9445049362
100
AcDbArc
 50
185.1799642366
 51
185.5144588377
  0
ARC
  5
5A4
100
AcDbEntity
  8
RUNDUNGEN
100
AcDbCircle
 62
7
  6
CONTINUOUS
 10
651.5577764028
 20
84.384838848
 40
138.6454743338
100
AcDbArc
 50
185.5218630506
 51
185.756625974
  0
ARC
  5
5A5
100
AcDbEntity
  8
0
100
AcDbCircle
 62
7
  6
CONTINUOUS
 10
646.0542221726
 20
77.2878076995
 40
134.1218197026
100
AcDbArc
 50
174.0138379291
 51
174.137194863
  0
ARC
  5
5A6
100
AcDbEntity
  8
0
100
AcDbCircle
 62
7
  6
CONTINUOUS
 10
576.0043224079
 20
54.5779108209
 40
64.1519213148
100
AcDbArc
 50
165.803463425
 51
165.9297995697
  0
ARC
  5
5A7
100
AcDbEntity
  8
0
100
AcDbCircle
 62
7
  6
CONTINUOUS
 10
570.9153307584
 20
94.0721327492
 40
61.2539840836
100
AcDbArc
 50
200.9484010799
 51
201.0687397266
  0
ARC
  5
5A8
100
AcDbEntity
  8
0
100
AcDbCircle
 62
7
  6
CONTINUOUS
 10
485.6627188184
 20
105.62746147
 40
32.9744903923
100
AcDbArc
 50
341.8225284209
 51
342.1111616336
  0
ARC
  5
5A9
100
AcDbEntity
  8
0
100
AcDbCircle
 62
7
  6
CONTINUOUS
 10
524.8473718382
 20
84.9482118408
 40
14.0826578432
100
AcDbArc
 50
213.6957245052
 51
214.0305520581
  0
ARC
  5
5AA
100
AcDbEntity
  8
0
100
AcDbCircle
 62
7
  6
CONTINUOUS
 10
513.5137729803
 20
74.4985209151
 40
7.9451617548
100
AcDbArc
 50
65.835115484
 51
66.1137141429
  0
ARC
  5
5AB
100
AcDbEntity
  8
RUNDUNGEN
100
AcDbCircle
 62
7
  6
CONTINUOUS
 10
490.0307894849
 20
19.1771019534
 40
7.0
100
AcDbArc
 50
270.1
 51
349.7960262783
  0
ARC
  5
5AC
100
AcDbEntity
  8
0
100
AcDbCircle
 62
7
  6
CONTINUOUS
 10
513.0743283886
 20
86.3778165077
 40
5.6520925607
100
AcDbArc
 50
41.0556565077
 51
41.7881999442
  0
ARC
  5
5AD
100
AcDbEntity
  8
RUNDUNGEN
100
AcDbCircle
 62
7
  6
CONTINUOUS
 10
510.1804089317
 20
170.7195208487
 40
5.0
100
AcDbArc
 50
345.0000002804
 51
30.0000002823
  0
ARC
  5
5AE
100
AcDbEntity
  8
0
100
AcDbCircle
 62
7
  6
CONTINUOUS
 10
514.3662732831
 20
102.4760610203
 40
4.4726606116
100
AcDbArc
 50
41.4751572575
 51
42.4084690472
  0
ARC
  5
5AF
100
AcDbEntity
  8
RUNDUNGEN
100
AcDbCircle
 62
7
  6
CONTINUOUS
 10
519.1483628661
 20
203.9131531436
 40
3.3546087847
100
AcDbArc
 50
344.3527909707
 51
350.354876701
  0
ARC
  5
5B0
100
AcDbEntity
  8
RUNDUNGEN
100
AcDbCircle
 62
7
  6
CONTINUOUS
 10
519.2964792432
 20
203.8882906613
 40
3.2044205471
100
AcDbArc
 50
350.3494204702
 51
355.9059568311
  0
ARC
  5
5B1
100
AcDbEntity
  8
0
100
AcDbCircle
 62
7
  6
CONTINUOUS
 10
517.4192614497
 20
144.6850387024
 40
2.3371013235
100
AcDbArc
 50
21.6830330139
 51
22.2973556382
  0
ARC
  5
5B2
100
AcDbEntity
  8
RUNDUNGEN
100
AcDbCircle
 62
7
  6
CONTINUOUS
 10
521.3308089317
 20
268.4323458246
 40
10.0
100
AcDbArc
 50
344.9999510124
 51
360.0
  0
ARC
  5
5B3
100
AcDbEntity
  8
RUNDUNGEN
100
AcDbCircle
 62
7
  6
CONTINUOUS
 10
497.5308089317
 20
288.9660266136
 40
5.0
100
AcDbArc
 50
270.0
 51
360.0
  0
ARC
  5
5B4
100
AcDbEntity
  8
0
100
AcDbCircle
 62
7
  6
CONTINUOUS
 10
505.8802544343
 20
283.925895473
 40
1.0001545102
100
AcDbArc
 50
322.7536228214
 51
359.9890979297
  0
ARC
  5
5B5
100
AcDbEntity
  8
0
100
AcDbCircle
 62
7
  6
CONTINUOUS
 10
480.8804089317
 20
392.8814208487
 40
40.0
100
AcDbArc
 50
31.207970903
 51
148.792029097
  0
ARC
  5
5B6
100
AcDbEntity
  8
KONSTRUKTIONSELEMENTE
100
AcDbCircle
 62
7
  6
CONTINUOUS
 10
480.8804089317
 20
392.8814208487
 40
40.0
100
AcDbArc
 50
31.207970903
 51
148.792029097
  0
CIRCLE
  5
5B7
100
AcDbEntity
  8
BEZUGSACHSEN
100
AcDbCircle
 62
7
  6
CONTINUOUS
 10
480.8804089317
 20
392.3814208487
 40
20.0
  0
ARC
  5
5B8
100
AcDbEntity
  8
RUNDUNGEN
100
AcDbCircle
 62
7
  6
CONTINUOUS
 10
500.8804089317
 20
398.4670208487
 40
20.0
100
AcDbArc
 50
0.0
 51
31.207970903
  0
ARC
  5
5B9
100
AcDbEntity
  8
RUNDUNGEN
100
AcDbCircle
 62
7
  6
CONTINUOUS
 10
525.8908149817
 20
380.1813394882
 40
5.016126189
100
AcDbArc
 50
180.8940814233
 51
209.9931319492
  0
ARC
  5
5BA
100
AcDbEntity
  8
RUNDUNGEN
100
AcDbCircle
 62
7
  6
CONTINUOUS
 10
525.8804089317
 20
380.1671668109
 40
5.0
100
AcDbArc
 50
179.9993163202
 51
210.0000000067
  0
ARC
  5
5BB
100
AcDbEntity
  8
RUNDUNGEN
100
AcDbCircle
 62
7
  6
CONTINUOUS
 10
526.3308089317
 20
359.3870511271
 40
5.0
100
AcDbArc
 50
0.0000000085
 51
30.0000000084
  0
ARC
  5
5BC
100
AcDbEntity
  8
0
100
AcDbCircle
 62
7
  6
CONTINUOUS
 10
520.9477427529
 20
341.6474486265
 40
1.4996056306
100
AcDbArc
 50
11.4640205435
 51
66.759000778
  0
ARC
  5
5BD
100
AcDbEntity
  8
RUNDUNGEN
100
AcDbCircle
 62
7
  6
CONTINUOUS
 10
4432.823549523
 20
273.8079255007
 40
3924.8783088399
100
AcDbArc
 50
182.1732598625
 51
182.494527935
  0
ARC
  5
5BE
100
AcDbEntity
  8
RUNDUNGEN
100
AcDbCircle
 62
7
  6
CONTINUOUS
 10
11227.0762203219
 20
529.7092915645
 40
10723.9483941562
100
AcDbArc
 50
182.034491516
 51
182.1623950588
  0
SPLINE
  5
5BF
100
AcDbEntity
  8
0
100
AcDbSpline
 62
7
  6
CONTINUOUS
 70
0
 71
3
 72
8
 73
4
 74
0
 42
0.0000001
 43
0.0000001
 44
0.0000000001
 40
0.0
 40
0.0
 40
0.0
 40
0.0
 40
1.0
 40
1.0
 40
1.0
 40
1.0
 10
48.4067365163
 20
251.0404582604
 30
0.0
 10
48.3744387115
 20
251.1916769613
 30
0.0
 10
48.3785753469
 20
251.3548493591
 30
0.0
 10
48.418658677
 20
251.5041931583
 30
0.0
  0
LINE
  5
5C0
100
AcDbEntity
  8
RUNDUNGEN
100
AcDbLine
 62
7
  6
CONTINUOUS
 10
112.2477057045
 20
36.7692404561
 11
112.0062457542
 21
36.8450542715
  0
SPLINE
  5
5C1
100
AcDbEntity
  8
RUNDUNGEN
100
AcDbSpline
 62
7
  6
CONTINUOUS
 70
0
 71
3
 72
12
 73
8
 74
0
 42
0.0000001
 43
0.0000001
 44
0.0000000001
 40
0.0
 40
0.0
 40
0.0
 40
0.0
 40
0.2644354979
 40
0.4618131519
 40
0.659190806
 40
0.85656846
 40
1.0
 40
1.0
 40
1.0
 40
1.0
 10
101.8495511878
 20
40.3579314335
 30
0.0
 10
97.4343659924
 20
42.0361546856
 30
0.0
 10
89.9327630865
 20
45.2666926295
 30
0.0
 10
79.8663629755
 20
50.797006082
 30
0.0
 10
71.4257909508
 20
56.627086647
 30
0.0
 10
64.4349740156
 20
62.9015477803
 30
0.0
 10
60.4891442429
 20
67.5643259438
 30
0.0
 10
58.9366038008
 20
69.68156484
 30
0.0
  0
SPLINE
  5
5C2
100
AcDbEntity
  8
RUNDUNGEN
100
AcDbSpline
 62
7
  6
CONTINUOUS
 70
0
 71
3
 72
13
 73
9
 74
0
 42
0.0000001
 43
0.0000001
 44
0.0000000001
 40
0.0
 40
0.0
 40
0.0
 40
0.0
 40
0.06947126
 40
0.2044435585
 40
0.3394158571
 40
0.4743881556
 40
0.7443327526
 40
1.0
 40
1.0
 40
1.0
 40
1.0
 10
213.678838101
 20
42.4314658912
 30
0.0
 10
212.3800917666
 20
41.5059759344
 30
0.0
 10
208.4797410018
 20
38.9910966951
 30
0.0
 10
201.6914720294
 20
35.6496338095
 30
0.0
 10
193.2226696118
 20
32.6504854383
 30
0.0
 10
181.5423953828
 20
29.6867745055
 30
0.0
 10
166.6772671696
 20
27.5888992368
 30
0.0
 10
154.4322683557
 20
27.0310584802
 30
0.0
 10
148.3998223035
 20
26.962872404
 30
0.0
  0
SPLINE
  5
5C3
100
AcDbEntity
  8
RUNDUNGEN
100
AcDbSpline
 62
7
  6
CONTINUOUS
 70
0
 71
3
 72
12
 73
8
 74
0
 42
0.0000001
 43
0.0000001
 44
0.0000000001
 40
0.0
 40
0.0
 40
0.0
 40
0.0
 40
0.2357906396
 40
0.4948203818
 40
0.7538501241
 40
0.8833649952
 40
1.0
 40
1.0
 40
1.0
 40
1.0
 10
148.3115700053
 20
50.6427365438
 30
0.0
 10
151.43160712
 20
50.8835965894
 30
0.0
 10
157.9384625914
 20
51.5213880599
 30
0.0
 10
167.6813096455
 20
53.0462223191
 30
0.0
 10
175.8334470842
 20
55.0618454025
 30
0.0
 10
181.9839280908
 20
57.31368484
 30
0.0
 10
184.8907408051
 20
58.7034269443
 30
0.0
 10
186.2387632816
 20
59.4572593014
 30
0.0
  0
SPLINE
  5
5C4
100
AcDbEntity
  8
0
100
AcDbSpline
 62
7
  6
CONTINUOUS
 70
0
 71
3
 72
9
 73
5
 74
0
 42
0.0000001
 43
0.0000001
 44
0.0000000001
 40
0.0
 40
0.0
 40
0.0
 40
0.0
 40
0.5000029536
 40
1.0
 40
1.0
 40
1.0
 40
1.0
 10
58.6040027792
 20
175.8629743961
 30
0.0
 10
59.0104749708
 20
175.2995177479
 30
0.0
 10
59.8216040496
 20
174.1713514488
 30
0.0
 10
60.6226481081
 20
173.0357579311
 30
0.0
 10
61.0123444777
 20
172.4605811142
 30
0.0
  0
SPLINE
  5
5C5
100
AcDbEntity
  8
KONSTRUKTIONSELEMENTE
100
AcDbSpline
 62
7
  6
CONTINUOUS
 70
0
 71
3
 72
8
 73
4
 74
0
 42
0.0000001
 43
0.0000001
 44
0.0000000001
 40
0.0
 40
0.0
 40
0.0
 40
0.0
 40
1.0
 40
1.0
 40
1.0
 40
1.0
 10
487.8542237625
 20
268.8774616158
 30
0.0
 10
487.8542237625
 20
269.0131865889
 30
0.0
 10
487.8252487081
 20
269.1515828197
 30
0.0
 10
487.7712021574
 20
269.2760827742
 30
0.0
  0
SPLINE
  5
5C6
100
AcDbEntity
  8
KONSTRUKTIONSELEMENTE
100
AcDbSpline
 62
7
  6
CONTINUOUS
 70
0
 71
3
 72
11
 73
7
 74
0
 42
0.0000001
 43
0.0000001
 44
0.0000000001
 40
0.0
 40
0.0
 40
0.0
 40
0.0
 40
0.245970858
 40
0.4943210047
 40
0.7459975784
 40
1.0
 40
1.0
 40
1.0
 40
1.0
 10
486.1286321964
 20
254.4334160265
 30
0.0
 10
486.1286321964
 20
254.006055701
 30
0.0
 10
485.9496085208
 20
253.1373715922
 30
0.0
 10
485.1890421246
 20
252.0466691066
 30
0.0
 10
484.0601888301
 20
251.3208107602
 30
0.0
 10
483.1724427169
 20
251.1520461236
 30
0.0
 10
482.7311280081
 20
251.1520461236
 30
0.0
  0
SPLINE
  5
5C7
100
AcDbEntity
  8
KONSTRUKTIONSELEMENTE
100
AcDbSpline
 62
7
  6
CONTINUOUS
 70
0
 71
3
 72
11
 73
7
 74
0
 42
0.0000001
 43
0.0000001
 44
0.0000000001
 40
0.0
 40
0.0
 40
0.0
 40
0.0
 40
0.24596712
 40
0.4943250191
 40
0.745965946
 40
1.0
 40
1.0
 40
1.0
 40
1.0
 10
487.8362872342
 20
254.4334160265
 30
0.0
 10
487.8362872342
 20
255.0755813508
 30
0.0
 10
487.5673928704
 20
256.3809720248
 30
0.0
 10
486.4244061496
 20
258.0197077121
 30
0.0
 10
484.7283922963
 20
259.1108081831
 30
0.0
 10
483.394354299
 20
259.3642800329
 30
0.0
 10
482.7311280081
 20
259.3642800329
 30
0.0
  0
SPLINE
  5
5C8
100
AcDbEntity
  8
KONSTRUKTIONSELEMENTE
100
AcDbSpline
 62
7
  6
CONTINUOUS
 70
0
 71
3
 72
9
 73
5
 74
0
 42
0.0000001
 43
0.0000001
 44
0.0000000001
 40
0.0
 40
0.0
 40
0.0
 40
0.0
 40
0.4938513294
 40
1.0
 40
1.0
 40
1.0
 40
1.0
 10
484.9188170098
 20
229.5360371569
 30
0.0
 10
484.9188170098
 20
229.5889199257
 30
0.0
 10
484.8714880655
 20
229.7000224098
 30
0.0
 10
484.7595324795
 20
229.7422239198
 30
0.0
 10
484.7053328823
 20
229.7422239198
 30
0.0
  0
SPLINE
  5
5C9
100
AcDbEntity
  8
KONSTRUKTIONSELEMENTE
100
AcDbSpline
 62
7
  6
CONTINUOUS
 70
0
 71
3
 72
9
 73
5
 74
0
 42
0.0000001
 43
0.0000001
 44
0.0000000001
 40
0.0
 40
0.0
 40
0.0
 40
0.0
 40
0.4938513294
 40
1.0
 40
1.0
 40
1.0
 40
1.0
 10
479.581713823
 20
229.5360371569
 30
0.0
 10
479.581713823
 20
229.5889199257
 30
0.0
 10
479.5343848787
 20
229.7000224098
 30
0.0
 10
479.4224292927
 20
229.7422239198
 30
0.0
 10
479.3682296955
 20
229.7422239198
 30
0.0
  0
SPLINE
  5
5CA
100
AcDbEntity
  8
KONSTRUKTIONSELEMENTE
100
AcDbSpline
 62
7
  6
CONTINUOUS
 70
0
 71
3
 72
11
 73
7
 74
0
 42
0.0000001
 43
0.0000001
 44
0.0000000001
 40
0.0
 40
0.0
 40
0.0
 40
0.0
 40
0.2457219897
 40
0.4943144273
 40
0.7462592374
 40
1.0
 40
1.0
 40
1.0
 40
1.0
 10
487.8542237625
 20
232.8350253639
 30
0.0
 10
487.8542237625
 20
232.9691374519
 30
0.0
 10
487.7973308512
 20
233.2417344338
 30
0.0
 10
487.559457706
 20
233.5853428803
 30
0.0
 10
487.2038935948
 20
233.8122901168
 30
0.0
 10
486.9252917624
 20
233.8659591785
 30
0.0
 10
486.7868031251
 20
233.8659591785
 30
0.0
  0
SPLINE
  5
5CB
100
AcDbEntity
  8
RUNDUNGEN
100
AcDbSpline
 62
7
  6
CONTINUOUS
 70
0
 71
3
 72
8
 73
4
 74
0
 42
0.0000001
 43
0.0000001
 44
0.0000000001
 40
0.0
 40
0.0
 40
0.0
 40
0.0
 40
1.0
 40
1.0
 40
1.0
 40
1.0
 10
455.0844001591
 20
283.3205583012
 30
0.0
 10
455.163543122
 20
283.2165098953
 30
0.0
 10
455.2653322072
 20
283.1266176724
 30
0.0
 10
455.3783935293
 20
283.0609913303
 30
0.0
  0
SPLINE
  5
5CC
100
AcDbEntity
  8
RUNDUNGEN
100
AcDbSpline
 62
7
  6
CONTINUOUS
 70
0
 71
3
 72
8
 73
4
 74
0
 42
0.0000001
 43
0.0000001
 44
0.0000000001
 40
0.0
 40
0.0
 40
0.0
 40
0.0
 40
1.0
 40
1.0
 40
1.0
 40
1.0
 10
455.3783935293
 20
283.0609913303
 30
0.0
 10
455.5282712183
 20
282.9739949614
 30
0.0
 10
455.7071123945
 20
282.9258365185
 30
0.0
 10
455.8804089317
 20
282.9258405093
 30
0.0
  0
SPLINE
  5
5CD
100
AcDbEntity
  8
KONSTRUKTIONSELEMENTE
100
AcDbSpline
 62
7
  6
CONTINUOUS
 70
0
 71
3
 72
15
 73
11
 74
0
 42
0.0000001
 43
0.0000001
 44
0.0000000001
 40
0.0
 40
0.0
 40
0.0
 40
0.0
 40
0.1232787354
 40
0.247831919
 40
0.3734712892
 40
0.4998238194
 40
0.6262101753
 40
0.7519403691
 40
0.8766126724
 40
1.0
 40
1.0
 40
1.0
 40
1.0
 10
487.7712021574
 20
269.2760827742
 30
0.0
 10
487.4918286909
 20
269.9196388087
 30
0.0
 10
486.7313946027
 20
271.1361480286
 30
0.0
 10
485.1121326015
 20
272.5563771861
 30
0.0
 10
483.1415212711
 20
273.4699118834
 30
0.0
 10
480.9854904821
 20
273.8029523406
 30
0.0
 10
478.8208136948
 20
273.5278054236
 30
0.0
 10
476.8249321675
 20
272.667552432
 30
0.0
 10
475.1656782573
 20
271.2915647085
 30
0.0
 10
474.3704818686
 20
270.0960093439
 30
0.0
 10
474.0726373113
 20
269.460108365
 30
0.0
  0
SPLINE
  5
5CE
100
AcDbEntity
  8
KONSTRUKTIONSELEMENTE
100
AcDbSpline
 62
7
  6
CONTINUOUS
 70
0
 71
3
 72
8
 73
4
 74
0
 42
0.0000001
 43
0.0000001
 44
0.0000000001
 40
0.0
 40
0.0
 40
0.0
 40
0.0
 40
1.0
 40
1.0
 40
1.0
 40
1.0
 10
474.0726373113
 20
269.460108365
 30
0.0
 10
474.0110809807
 20
269.3286850104
 30
0.0
 10
473.9777554768
 20
269.180322886
 30
0.0
 10
473.9777554768
 20
269.0351978365
 30
0.0
  0
SPLINE
  5
5CF
100
AcDbEntity
  8
0
100
AcDbSpline
 62
7
  6
CONTINUOUS
 70
0
 71
3
 72
8
 73
4
 74
0
 42
0.0000001
 43
0.0000001
 44
0.0000000001
 40
0.0
 40
0.0
 40
0.0
 40
0.0
 40
1.0
 40
1.0
 40
1.0
 40
1.0
 10
506.6764177044
 20
283.3205583012
 30
0.0
 10
506.5972747414
 20
283.2165098953
 30
0.0
 10
506.4954856563
 20
283.1266176724
 30
0.0
 10
506.3824243342
 20
283.0609913303
 30
0.0
  0
SPLINE
  5
5D0
100
AcDbEntity
  8
0
100
AcDbSpline
 62
7
  6
CONTINUOUS
 70
0
 71
3
 72
8
 73
4
 74
0
 42
0.0000001
 43
0.0000001
 44
0.0000000001
 40
0.0
 40
0.0
 40
0.0
 40
0.0
 40
1.0
 40
1.0
 40
1.0
 40
1.0
 10
506.3824243342
 20
283.0609913303
 30
0.0
 10
506.2325466452
 20
282.9739949614
 30
0.0
 10
506.053705469
 20
282.9258365185
 30
0.0
 10
505.8804089317
 20
282.9258405093
 30
0.0
  0
SPLINE
  5
5D1
100
AcDbEntity
  8
KONSTRUKTIONSELEMENTE
100
AcDbSpline
 62
7
  6
CONTINUOUS
 70
0
 71
3
 72
15
 73
11
 74
0
 42
0.0000001
 43
0.0000001
 44
0.0000000001
 40
0.0
 40
0.0
 40
0.0
 40
0.0
 40
0.1236709048
 40
0.2488856816
 40
0.3752829706
 40
0.5021767389
 40
0.6285560158
 40
0.753640711
 40
0.8773393214
 40
1.0
 40
1.0
 40
1.0
 40
1.0
 10
480.8804089317
 20
244.8092473355
 30
0.0
 10
480.7344606545
 20
245.182342686
 30
0.0
 10
480.3012023799
 20
245.8857967766
 30
0.0
 10
479.3292807857
 20
246.6542517678
 30
0.0
 10
478.1461757891
 20
247.0572086011
 30
0.0
 10
476.8931531671
 20
247.0492481981
 30
0.0
 10
475.7164112645
 20
246.6302193871
 30
0.0
 10
474.754151752
 20
245.8483029158
 30
0.0
 10
474.124509736
 20
244.7944077601
 30
0.0
 10
473.9777554768
 20
243.9892180487
 30
0.0
 10
473.9777554768
 20
243.591864816
 30
0.0
  0
SPLINE
  5
5D2
100
AcDbEntity
  8
KONSTRUKTIONSELEMENTE
100
AcDbSpline
 62
7
  6
CONTINUOUS
 70
0
 71
3
 72
9
 73
5
 74
0
 42
0.0000001
 43
0.0000001
 44
0.0000000001
 40
0.0
 40
0.0
 40
0.0
 40
0.0
 40
0.5061486706
 40
1.0
 40
1.0
 40
1.0
 40
1.0
 10
482.4637495438
 20
229.7422239198
 30
0.0
 10
482.4095499466
 20
229.7422239198
 30
0.0
 10
482.2975943606
 20
229.7000224098
 30
0.0
 10
482.2502654164
 20
229.5889199257
 30
0.0
 10
482.2502654164
 20
229.5360371569
 30
0.0
  0
SPLINE
  5
5D3
100
AcDbEntity
  8
KONSTRUKTIONSELEMENTE
100
AcDbSpline
 62
7
  6
CONTINUOUS
 70
0
 71
3
 72
9
 73
5
 74
0
 42
0.0000001
 43
0.0000001
 44
0.0000000001
 40
0.0
 40
0.0
 40
0.0
 40
0.0
 40
0.4938513294
 40
1.0
 40
1.0
 40
1.0
 40
1.0
 10
482.783975735
 20
228.5308766876
 30
0.0
 10
482.783975735
 20
228.4779939187
 30
0.0
 10
482.7366467908
 20
228.3668914346
 30
0.0
 10
482.6246912048
 20
228.3246899246
 30
0.0
 10
482.5704916076
 20
228.3246899246
 30
0.0
  0
SPLINE
  5
5D4
100
AcDbEntity
  8
KONSTRUKTIONSELEMENTE
100
AcDbSpline
 62
7
  6
CONTINUOUS
 70
0
 71
3
 72
9
 73
5
 74
0
 42
0.0000001
 43
0.0000001
 44
0.0000000001
 40
0.0
 40
0.0
 40
0.0
 40
0.0
 40
0.5048482093
 40
1.0
 40
1.0
 40
1.0
 40
1.0
 10
479.2614876318
 20
228.3246899246
 30
0.0
 10
479.2162081609
 20
228.3246899246
 30
0.0
 10
479.1238743462
 20
228.3534189615
 30
0.0
 10
479.0681342308
 20
228.4331294679
 30
0.0
 10
479.0558670341
 20
228.4758113933
 30
0.0
  0
SPLINE
  5
5D5
100
AcDbEntity
  8
KONSTRUKTIONSELEMENTE
100
AcDbSpline
 62
7
  6
CONTINUOUS
 70
0
 71
3
 72
8
 73
4
 74
0
 42
0.0000001
 43
0.0000001
 44
0.0000000001
 40
0.0
 40
0.0
 40
0.0
 40
0.0
 40
1.0
 40
1.0
 40
1.0
 40
1.0
 10
479.0558670341
 20
228.4758113933
 30
0.0
 10
479.0507454197
 20
228.4936313052
 30
0.0
 10
479.0480035043
 20
228.5123353771
 30
0.0
 10
479.0480035043
 20
228.5308766876
 30
0.0
  0
SPLINE
  5
5D6
100
AcDbEntity
  8
KONSTRUKTIONSELEMENTE
100
AcDbSpline
 62
7
  6
CONTINUOUS
 70
0
 71
3
 72
9
 73
5
 74
0
 42
0.0000001
 43
0.0000001
 44
0.0000000001
 40
0.0
 40
0.0
 40
0.0
 40
0.0
 40
0.5061486706
 40
1.0
 40
1.0
 40
1.0
 40
1.0
 10
477.126646357
 20
229.7422239198
 30
0.0
 10
477.0724467598
 20
229.7422239198
 30
0.0
 10
476.9604911738
 20
229.7000224098
 30
0.0
 10
476.9131622296
 20
229.5889199257
 30
0.0
 10
476.9131622296
 20
229.5360371569
 30
0.0
  0
SPLINE
  5
5D7
100
AcDbEntity
  8
KONSTRUKTIONSELEMENTE
100
AcDbSpline
 62
7
  6
CONTINUOUS
 70
0
 71
3
 72
9
 73
5
 74
0
 42
0.0000001
 43
0.0000001
 44
0.0000000001
 40
0.0
 40
0.0
 40
0.0
 40
0.0
 40
0.4938513294
 40
1.0
 40
1.0
 40
1.0
 40
1.0
 10
485.7193824878
 20
227.4226228368
 30
0.0
 10
485.7193824878
 20
227.2904159147
 30
0.0
 10
485.6010601272
 20
227.0126597045
 30
0.0
 10
485.3211711623
 20
226.9071559295
 30
0.0
 10
485.1856721691
 20
226.9071559295
 30
0.0
  0
SPLINE
  5
5D8
100
AcDbEntity
  8
KONSTRUKTIONSELEMENTE
100
AcDbSpline
 62
7
  6
CONTINUOUS
 70
0
 71
3
 72
9
 73
5
 74
0
 42
0.0000001
 43
0.0000001
 44
0.0000000001
 40
0.0
 40
0.0
 40
0.0
 40
0.0
 40
0.5048482093
 40
1.0
 40
1.0
 40
1.0
 40
1.0
 10
481.983410257
 20
226.9071559295
 30
0.0
 10
481.8702115799
 20
226.9071559295
 30
0.0
 10
481.6393770433
 20
226.9789785216
 30
0.0
 10
481.5000267545
 20
227.1782547875
 30
0.0
 10
481.4693587629
 20
227.2849596012
 30
0.0
  0
SPLINE
  5
5D9
100
AcDbEntity
  8
KONSTRUKTIONSELEMENTE
100
AcDbSpline
 62
7
  6
CONTINUOUS
 70
0
 71
3
 72
8
 73
4
 74
0
 42
0.0000001
 43
0.0000001
 44
0.0000000001
 40
0.0
 40
0.0
 40
0.0
 40
0.0
 40
1.0
 40
1.0
 40
1.0
 40
1.0
 10
481.4693587629
 20
227.2849596012
 30
0.0
 10
481.4565547269
 20
227.3295093808
 30
0.0
 10
481.4496999383
 20
227.3762695607
 30
0.0
 10
481.4496999383
 20
227.4226228368
 30
0.0
  0
SPLINE
  5
5DA
100
AcDbEntity
  8
KONSTRUKTIONSELEMENTE
100
AcDbSpline
 62
7
  6
CONTINUOUS
 70
0
 71
3
 72
9
 73
5
 74
0
 42
0.0000001
 43
0.0000001
 44
0.0000000001
 40
0.0
 40
0.0
 40
0.0
 40
0.0
 40
0.4938513294
 40
1.0
 40
1.0
 40
1.0
 40
1.0
 10
480.382279301
 20
227.4226228368
 30
0.0
 10
480.382279301
 20
227.2904159147
 30
0.0
 10
480.2639569404
 20
227.0126597045
 30
0.0
 10
479.9840679755
 20
226.9071559295
 30
0.0
 10
479.8485689823
 20
226.9071559295
 30
0.0
  0
SPLINE
  5
5DB
100
AcDbEntity
  8
KONSTRUKTIONSELEMENTE
100
AcDbSpline
 62
7
  6
CONTINUOUS
 70
0
 71
3
 72
9
 73
5
 74
0
 42
0.0000001
 43
0.0000001
 44
0.0000000001
 40
0.0
 40
0.0
 40
0.0
 40
0.0
 40
0.5048482093
 40
1.0
 40
1.0
 40
1.0
 40
1.0
 10
476.6463070702
 20
226.9071559295
 30
0.0
 10
476.5331083931
 20
226.9071559295
 30
0.0
 10
476.3022738565
 20
226.9789785216
 30
0.0
 10
476.1629235677
 20
227.1782547875
 30
0.0
 10
476.1322555761
 20
227.2849596012
 30
0.0
  0
SPLINE
  5
5DC
100
AcDbEntity
  8
KONSTRUKTIONSELEMENTE
100
AcDbSpline
 62
7
  6
CONTINUOUS
 70
0
 71
3
 72
8
 73
4
 74
0
 42
0.0000001
 43
0.0000001
 44
0.0000000001
 40
0.0
 40
0.0
 40
0.0
 40
0.0
 40
1.0
 40
1.0
 40
1.0
 40
1.0
 10
476.1322555761
 20
227.2849596012
 30
0.0
 10
476.1194515401
 20
227.3295093808
 30
0.0
 10
476.1125967515
 20
227.3762695607
 30
0.0
 10
476.1125967515
 20
227.4226228368
 30
0.0
  0
SPLINE
  5
5DD
100
AcDbEntity
  8
KONSTRUKTIONSELEMENTE
100
AcDbSpline
 62
7
  6
CONTINUOUS
 70
0
 71
3
 72
11
 73
7
 74
0
 42
0.0000001
 43
0.0000001
 44
0.0000000001
 40
0.0
 40
0.0
 40
0.0
 40
0.0
 40
0.2537407626
 40
0.5056855727
 40
0.7542780103
 40
1.0
 40
1.0
 40
1.0
 40
1.0
 10
475.0451761142
 20
233.8659591785
 30
0.0
 10
474.9066874769
 20
233.8659591785
 30
0.0
 10
474.6280856445
 20
233.8122901168
 30
0.0
 10
474.2725215333
 20
233.5853428803
 30
0.0
 10
474.0346483881
 20
233.2417344338
 30
0.0
 10
473.9777554768
 20
232.9691374519
 30
0.0
 10
473.9777554768
 20
232.8350253639
 30
0.0
  0
SPLINE
  5
5DE
100
AcDbEntity
  8
KONSTRUKTIONSELEMENTE
100
AcDbSpline
 62
7
  6
CONTINUOUS
 70
0
 71
3
 72
9
 73
5
 74
0
 42
0.0000001
 43
0.0000001
 44
0.0000000001
 40
0.0
 40
0.0
 40
0.0
 40
0.0
 40
0.4946912955
 40
1.0
 40
1.0
 40
1.0
 40
1.0
 10
482.2502654164
 20
227.8865430534
 30
0.0
 10
482.2502654164
 20
227.8425004099
 30
0.0
 10
482.2819299758
 20
227.7509837076
 30
0.0
 10
482.3632819912
 20
227.6996007432
 30
0.0
 10
482.406735378
 20
227.6879510273
 30
0.0
  0
SPLINE
  5
5DF
100
AcDbEntity
  8
KONSTRUKTIONSELEMENTE
100
AcDbSpline
 62
7
  6
CONTINUOUS
 70
0
 71
3
 72
8
 73
4
 74
0
 42
0.0000001
 43
0.0000001
 44
0.0000000001
 40
0.0
 40
0.0
 40
0.0
 40
0.0
 40
1.0
 40
1.0
 40
1.0
 40
1.0
 10
482.406735378
 20
227.6879510273
 30
0.0
 10
482.4252539976
 20
227.6829862438
 30
0.0
 10
482.4445769502
 20
227.6803562905
 30
0.0
 10
482.4637495438
 20
227.6803562905
 30
0.0
  0
SPLINE
  5
5E0
100
AcDbEntity
  8
KONSTRUKTIONSELEMENTE
100
AcDbSpline
 62
7
  6
CONTINUOUS
 70
0
 71
3
 72
11
 73
7
 74
0
 42
0.0000001
 43
0.0000001
 44
0.0000000001
 40
0.0
 40
0.0
 40
0.0
 40
0.0
 40
0.2540024216
 40
0.5056789953
 40
0.754029142
 40
1.0
 40
1.0
 40
1.0
 40
1.0
 10
486.7868031251
 20
223.3241939473
 30
0.0
 10
486.9254544414
 20
223.3241939473
 30
0.0
 10
487.2043646265
 20
223.3772160618
 30
0.0
 10
487.5590253528
 20
223.6052646927
 30
0.0
 10
487.797978485
 20
223.9479392791
 30
0.0
 10
487.8542237625
 20
224.2208606042
 30
0.0
 10
487.8542237625
 20
224.355127762
 30
0.0
  0
SPLINE
  5
5E1
100
AcDbEntity
  8
KONSTRUKTIONSELEMENTE
100
AcDbSpline
 62
7
  6
CONTINUOUS
 70
0
 71
3
 72
8
 73
4
 74
0
 42
0.0000001
 43
0.0000001
 44
0.0000000001
 40
0.0
 40
0.0
 40
0.0
 40
0.0
 40
1.0
 40
1.0
 40
1.0
 40
1.0
 10
475.6856284966
 20
268.9846168389
 30
0.0
 10
475.6856284966
 20
269.0953296107
 30
0.0
 10
475.7268196325
 20
269.2112673638
 30
0.0
 10
475.7956051683
 20
269.2980191241
 30
0.0
  0
SPLINE
  5
5E2
100
AcDbEntity
  8
KONSTRUKTIONSELEMENTE
100
AcDbSpline
 62
7
  6
CONTINUOUS
 70
0
 71
3
 72
11
 73
7
 74
0
 42
0.0000001
 43
0.0000001
 44
0.0000000001
 40
0.0
 40
0.0
 40
0.0
 40
0.0
 40
0.2485422265
 40
0.5
 40
0.7514577735
 40
1.0
 40
1.0
 40
1.0
 40
1.0
 10
475.7956051683
 20
269.2980191241
 30
0.0
 10
476.3904686533
 20
270.0482561302
 30
0.0
 10
477.9637426353
 20
271.2921676342
 30
0.0
 10
480.8804089317
 20
271.9385715733
 30
0.0
 10
483.7970752282
 20
271.2921676342
 30
0.0
 10
485.3703492102
 20
270.0482561302
 30
0.0
 10
485.9652126952
 20
269.2980191241
 30
0.0
  0
SPLINE
  5
5E3
100
AcDbEntity
  8
KONSTRUKTIONSELEMENTE
100
AcDbSpline
 62
7
  6
CONTINUOUS
 70
0
 71
3
 72
8
 73
4
 74
0
 42
0.0000001
 43
0.0000001
 44
0.0000000001
 40
0.0
 40
0.0
 40
0.0
 40
0.0
 40
1.0
 40
1.0
 40
1.0
 40
1.0
 10
485.9652126952
 20
269.2980191241
 30
0.0
 10
486.033998231
 20
269.2112673638
 30
0.0
 10
486.0751893669
 20
269.0953296107
 30
0.0
 10
486.0751893669
 20
268.9846168389
 30
0.0
  0
SPLINE
  5
5E4
100
AcDbEntity
  8
KONSTRUKTIONSELEMENTE
100
AcDbSpline
 62
7
  6
CONTINUOUS
 70
0
 71
3
 72
9
 73
5
 74
0
 42
0.0000001
 43
0.0000001
 44
0.0000000001
 40
0.0
 40
0.0
 40
0.0
 40
0.0
 40
0.5048482093
 40
1.0
 40
1.0
 40
1.0
 40
1.0
 10
476.6463070702
 20
230.2829971964
 30
0.0
 10
476.5331083931
 20
230.2829971964
 30
0.0
 10
476.3022738565
 20
230.2111746042
 30
0.0
 10
476.1629235677
 20
230.0118983383
 30
0.0
 10
476.1322555761
 20
229.9051935247
 30
0.0
  0
SPLINE
  5
5E5
100
AcDbEntity
  8
KONSTRUKTIONSELEMENTE
100
AcDbSpline
 62
7
  6
CONTINUOUS
 70
0
 71
3
 72
11
 73
7
 74
0
 42
0.0000001
 43
0.0000001
 44
0.0000000001
 40
0.0
 40
0.0
 40
0.0
 40
0.0
 40
0.254034054
 40
0.5056749809
 40
0.75403288
 40
1.0
 40
1.0
 40
1.0
 40
1.0
 10
482.7311280081
 20
249.5025520201
 30
0.0
 10
483.394354299
 20
249.5025520201
 30
0.0
 10
484.7283922963
 20
249.75602387
 30
0.0
 10
486.4244061496
 20
250.8471243409
 30
0.0
 10
487.5673928704
 20
252.4858600282
 30
0.0
 10
487.8362872342
 20
253.7912507022
 30
0.0
 10
487.8362872342
 20
254.4334160265
 30
0.0
  0
SPLINE
  5
5E6
100
AcDbEntity
  8
KONSTRUKTIONSELEMENTE
100
AcDbSpline
 62
7
  6
CONTINUOUS
 70
0
 71
3
 72
15
 73
11
 74
0
 42
0.0000001
 43
0.0000001
 44
0.0000000001
 40
0.0
 40
0.0
 40
0.0
 40
0.0
 40
0.1242022312
 40
0.2490857101
 40
0.3744284816
 40
0.499999565
 40
0.6255708751
 40
0.7509139299
 40
0.8757976472
 40
1.0
 40
1.0
 40
1.0
 40
1.0
 10
475.7956051683
 20
269.092142859
 30
0.0
 10
476.0934743896
 20
269.472682104
 30
0.0
 10
476.7811182367
 20
270.1696565215
 30
0.0
 10
478.0216233811
 20
270.9560485502
 30
0.0
 10
479.4124603773
 20
271.4466488763
 30
0.0
 10
480.8804046642
 20
271.6132399095
 30
0.0
 10
482.3483502978
 20
271.4466506777
 30
0.0
 10
483.7391906546
 20
270.9560508322
 30
0.0
 10
484.9796981782
 20
270.169657746
 30
0.0
 10
485.6673431821
 20
269.4726824768
 30
0.0
 10
485.9652126952
 20
269.092142859
 30
0.0
  0
SPLINE
  5
5E7
100
AcDbEntity
  8
KONSTRUKTIONSELEMENTE
100
AcDbSpline
 62
7
  6
CONTINUOUS
 70
0
 71
3
 72
8
 73
4
 74
0
 42
0.0000001
 43
0.0000001
 44
0.0000000001
 40
0.0
 40
0.0
 40
0.0
 40
0.0
 40
1.0
 40
1.0
 40
1.0
 40
1.0
 10
485.9652126952
 20
269.092142859
 30
0.0
 10
486.0230164119
 20
269.0182964151
 30
0.0
 10
486.0614977057
 20
268.9250438451
 30
0.0
 10
486.0719838836
 20
268.8318526062
 30
0.0
  0
SPLINE
  5
5E8
100
AcDbEntity
  8
KONSTRUKTIONSELEMENTE
100
AcDbSpline
 62
7
  6
CONTINUOUS
 70
0
 71
3
 72
9
 73
5
 74
0
 42
0.0000001
 43
0.0000001
 44
0.0000000001
 40
0.0
 40
0.0
 40
0.0
 40
0.0
 40
0.5048482093
 40
1.0
 40
1.0
 40
1.0
 40
1.0
 10
481.983410257
 20
230.2829971964
 30
0.0
 10
481.8702115799
 20
230.2829971964
 30
0.0
 10
481.6393770433
 20
230.2111746042
 30
0.0
 10
481.5000267545
 20
230.0118983383
 30
0.0
 10
481.4693587629
 20
229.9051935247
 30
0.0
  0
SPLINE
  5
5E9
100
AcDbEntity
  8
KONSTRUKTIONSELEMENTE
100
AcDbSpline
 62
7
  6
CONTINUOUS
 70
0
 71
3
 72
8
 73
4
 74
0
 42
0.0000001
 43
0.0000001
 44
0.0000000001
 40
0.0
 40
0.0
 40
0.0
 40
0.0
 40
1.0
 40
1.0
 40
1.0
 40
1.0
 10
482.2502654164
 20
227.654115969
 30
0.0
 10
482.2502654164
 20
227.6355746585
 30
0.0
 10
482.2530073318
 20
227.6168705866
 30
0.0
 10
482.2581289462
 20
227.5990506747
 30
0.0
  0
SPLINE
  5
5EA
100
AcDbEntity
  8
KONSTRUKTIONSELEMENTE
100
AcDbSpline
 62
7
  6
CONTINUOUS
 70
0
 71
3
 72
9
 73
5
 74
0
 42
0.0000001
 43
0.0000001
 44
0.0000000001
 40
0.0
 40
0.0
 40
0.0
 40
0.0
 40
0.49570157
 40
1.0
 40
1.0
 40
1.0
 40
1.0
 10
482.2581289462
 20
227.5990506747
 30
0.0
 10
482.267882701
 20
227.5651139044
 30
0.0
 10
482.3064823631
 20
227.5007690592
 30
0.0
 10
482.3720376972
 20
227.4648262816
 30
0.0
 10
482.406735378
 20
227.4555239428
 30
0.0
  0
SPLINE
  5
5EB
100
AcDbEntity
  8
KONSTRUKTIONSELEMENTE
100
AcDbSpline
 62
7
  6
CONTINUOUS
 70
0
 71
3
 72
8
 73
4
 74
0
 42
0.0000001
 43
0.0000001
 44
0.0000000001
 40
0.0
 40
0.0
 40
0.0
 40
0.0
 40
1.0
 40
1.0
 40
1.0
 40
1.0
 10
482.406735378
 20
227.4555239428
 30
0.0
 10
482.4252539976
 20
227.4505591593
 30
0.0
 10
482.4445769502
 20
227.447929206
 30
0.0
 10
482.4637495438
 20
227.447929206
 30
0.0
  0
SPLINE
  5
5EC
100
AcDbEntity
  8
KONSTRUKTIONSELEMENTE
100
AcDbSpline
 62
7
  6
CONTINUOUS
 70
0
 71
3
 72
15
 73
11
 74
0
 42
0.0000001
 43
0.0000001
 44
0.0000000001
 40
0.0
 40
0.0
 40
0.0
 40
0.0
 40
0.1232646714
 40
0.2476632783
 40
0.3735473879
 40
0.5003107347
 40
0.6269993306
 40
0.752690068
 40
0.876869915
 40
1.0
 40
1.0
 40
1.0
 40
1.0
 10
479.1398310694
 20
243.671941389
 30
0.0
 10
479.1021624242
 20
243.8512579371
 30
0.0
 10
478.959755804
 20
244.2009366845
 30
0.0
 10
478.5758579228
 20
244.6172426633
 30
0.0
 10
478.0693562411
 20
244.8820598631
 30
0.0
 10
477.5005430479
 20
244.963663803
 30
0.0
 10
476.9368652802
 20
244.8533415686
 30
0.0
 10
476.4452726134
 20
244.5630896343
 30
0.0
 10
476.0844513088
 20
244.1275423401
 30
0.0
 10
475.9615446945
 20
243.7710997782
 30
0.0
 10
475.9336188816
 20
243.590212448
 30
0.0
  0
SPLINE
  5
5ED
100
AcDbEntity
  8
KONSTRUKTIONSELEMENTE
100
AcDbSpline
 62
7
  6
CONTINUOUS
 70
0
 71
3
 72
8
 73
4
 74
0
 42
0.0000001
 43
0.0000001
 44
0.0000000001
 40
0.0
 40
0.0
 40
0.0
 40
0.0
 40
1.0
 40
1.0
 40
1.0
 40
1.0
 10
482.7214670752
 20
228.8050912271
 30
0.0
 10
482.6956278908
 20
228.8300471704
 30
0.0
 10
482.6622034542
 20
228.8485661257
 30
0.0
 10
482.6275057734
 20
228.8578684644
 30
0.0
  0
SPLINE
  5
5EE
100
AcDbEntity
  8
KONSTRUKTIONSELEMENTE
100
AcDbSpline
 62
7
  6
CONTINUOUS
 70
0
 71
3
 72
8
 73
4
 74
0
 42
0.0000001
 43
0.0000001
 44
0.0000000001
 40
0.0
 40
0.0
 40
0.0
 40
0.0
 40
1.0
 40
1.0
 40
1.0
 40
1.0
 10
482.6275057734
 20
228.8578684644
 30
0.0
 10
482.6089871538
 20
228.8628332479
 30
0.0
 10
482.5896642012
 20
228.8654632012
 30
0.0
 10
482.5704916076
 20
228.8654632012
 30
0.0
  0
SPLINE
  5
5EF
100
AcDbEntity
  8
KONSTRUKTIONSELEMENTE
100
AcDbSpline
 62
7
  6
CONTINUOUS
 70
0
 71
3
 72
11
 73
7
 74
0
 42
0.0000001
 43
0.0000001
 44
0.0000000001
 40
0.0
 40
0.0
 40
0.0
 40
0.0
 40
0.2540024216
 40
0.5056789953
 40
0.754029142
 40
1.0
 40
1.0
 40
1.0
 40
1.0
 10
482.7311280081
 20
257.7147859294
 30
0.0
 10
483.1724427169
 20
257.7147859294
 30
0.0
 10
484.0601888301
 20
257.5460212928
 30
0.0
 10
485.1890421246
 20
256.8201629464
 30
0.0
 10
485.9496085208
 20
255.7294604608
 30
0.0
 10
486.1286321964
 20
254.860776352
 30
0.0
 10
486.1286321964
 20
254.4334160265
 30
0.0
  0
SPLINE
  5
5F0
100
AcDbEntity
  8
KONSTRUKTIONSELEMENTE
100
AcDbSpline
 62
7
  6
CONTINUOUS
 70
0
 71
3
 72
9
 73
5
 74
0
 42
0.0000001
 43
0.0000001
 44
0.0000000001
 40
0.0
 40
0.0
 40
0.0
 40
0.0
 40
0.5061486706
 40
1.0
 40
1.0
 40
1.0
 40
1.0
 10
479.3682296955
 20
227.447929206
 30
0.0
 10
479.4224292927
 20
227.447929206
 30
0.0
 10
479.5343848787
 20
227.490130716
 30
0.0
 10
479.581713823
 20
227.6012332001
 30
0.0
 10
479.581713823
 20
227.654115969
 30
0.0
  0
SPLINE
  5
5F1
100
AcDbEntity
  8
KONSTRUKTIONSELEMENTE
100
AcDbSpline
 62
7
  6
CONTINUOUS
 70
0
 71
3
 72
9
 73
5
 74
0
 42
0.0000001
 43
0.0000001
 44
0.0000000001
 40
0.0
 40
0.0
 40
0.0
 40
0.0
 40
0.4946912955
 40
1.0
 40
1.0
 40
1.0
 40
1.0
 10
476.9131622296
 20
227.8865430534
 30
0.0
 10
476.9131622296
 20
227.8425004099
 30
0.0
 10
476.944826789
 20
227.7509837076
 30
0.0
 10
477.0261788044
 20
227.6996007432
 30
0.0
 10
477.0696321912
 20
227.6879510273
 30
0.0
  0
SPLINE
  5
5F2
100
AcDbEntity
  8
KONSTRUKTIONSELEMENTE
100
AcDbSpline
 62
7
  6
CONTINUOUS
 70
0
 71
3
 72
8
 73
4
 74
0
 42
0.0000001
 43
0.0000001
 44
0.0000000001
 40
0.0
 40
0.0
 40
0.0
 40
0.0
 40
1.0
 40
1.0
 40
1.0
 40
1.0
 10
477.0696321912
 20
227.6879510273
 30
0.0
 10
477.0881508108
 20
227.6829862438
 30
0.0
 10
477.1074737634
 20
227.6803562905
 30
0.0
 10
477.126646357
 20
227.6803562905
 30
0.0
  0
SPLINE
  5
5F3
100
AcDbEntity
  8
KONSTRUKTIONSELEMENTE
100
AcDbSpline
 62
7
  6
CONTINUOUS
 70
0
 71
3
 72
9
 73
5
 74
0
 42
0.0000001
 43
0.0000001
 44
0.0000000001
 40
0.0
 40
0.0
 40
0.0
 40
0.0
 40
0.5048482093
 40
1.0
 40
1.0
 40
1.0
 40
1.0
 10
479.2614876318
 20
228.8654632012
 30
0.0
 10
479.2162081609
 20
228.8654632012
 30
0.0
 10
479.1238743462
 20
228.8367341644
 30
0.0
 10
479.0681342308
 20
228.757023658
 30
0.0
 10
479.0558670341
 20
228.7143417325
 30
0.0
  0
SPLINE
  5
5F4
100
AcDbEntity
  8
KONSTRUKTIONSELEMENTE
100
AcDbSpline
 62
7
  6
CONTINUOUS
 70
0
 71
3
 72
8
 73
4
 74
0
 42
0.0000001
 43
0.0000001
 44
0.0000000001
 40
0.0
 40
0.0
 40
0.0
 40
0.0
 40
1.0
 40
1.0
 40
1.0
 40
1.0
 10
476.9131622296
 20
227.654115969
 30
0.0
 10
476.9131622296
 20
227.6355746585
 30
0.0
 10
476.915904145
 20
227.6168705866
 30
0.0
 10
476.9210257594
 20
227.5990506747
 30
0.0
  0
SPLINE
  5
5F5
100
AcDbEntity
  8
KONSTRUKTIONSELEMENTE
100
AcDbSpline
 62
7
  6
CONTINUOUS
 70
0
 71
3
 72
9
 73
5
 74
0
 42
0.0000001
 43
0.0000001
 44
0.0000000001
 40
0.0
 40
0.0
 40
0.0
 40
0.0
 40
0.49570157
 40
1.0
 40
1.0
 40
1.0
 40
1.0
 10
476.9210257594
 20
227.5990506747
 30
0.0
 10
476.9307795142
 20
227.5651139044
 30
0.0
 10
476.9693791763
 20
227.5007690592
 30
0.0
 10
477.0349345104
 20
227.4648262816
 30
0.0
 10
477.0696321912
 20
227.4555239428
 30
0.0
  0
SPLINE
  5
5F6
100
AcDbEntity
  8
KONSTRUKTIONSELEMENTE
100
AcDbSpline
 62
7
  6
CONTINUOUS
 70
0
 71
3
 72
8
 73
4
 74
0
 42
0.0000001
 43
0.0000001
 44
0.0000000001
 40
0.0
 40
0.0
 40
0.0
 40
0.0
 40
1.0
 40
1.0
 40
1.0
 40
1.0
 10
477.0696321912
 20
227.4555239428
 30
0.0
 10
477.0881508108
 20
227.4505591593
 30
0.0
 10
477.1074737634
 20
227.447929206
 30
0.0
 10
477.126646357
 20
227.447929206
 30
0.0
  0
SPLINE
  5
5F7
100
AcDbEntity
  8
KONSTRUKTIONSELEMENTE
100
AcDbSpline
 62
7
  6
CONTINUOUS
 70
0
 71
3
 72
15
 73
11
 74
0
 42
0.0000001
 43
0.0000001
 44
0.0000000001
 40
0.0
 40
0.0
 40
0.0
 40
0.0
 40
0.1229511072
 40
0.2471893245
 40
0.3730038284
 40
0.5
 40
0.6269961716
 40
0.7528106755
 40
0.8770488928
 40
1.0
 40
1.0
 40
1.0
 40
1.0
 10
475.9157979431
 20
243.591864816
 30
0.0
 10
475.9157979431
 20
243.7966217416
 30
0.0
 10
476.0018413038
 20
244.2129051638
 30
0.0
 10
476.3658643071
 20
244.7358809302
 30
0.0
 10
476.9079169218
 20
245.0833890771
 30
0.0
 10
477.5441669275
 20
245.2051441836
 30
0.0
 10
478.1804169333
 20
245.0833890771
 30
0.0
 10
478.7224695479
 20
244.7358809302
 30
0.0
 10
479.0864925512
 20
244.2129051638
 30
0.0
 10
479.172535912
 20
243.7966217416
 30
0.0
 10
479.172535912
 20
243.591864816
 30
0.0
  0
SPLINE
  5
5F8
100
AcDbEntity
  8
KONSTRUKTIONSELEMENTE
100
AcDbSpline
 62
7
  6
CONTINUOUS
 70
0
 71
3
 72
9
 73
5
 74
0
 42
0.0000001
 43
0.0000001
 44
0.0000000001
 40
0.0
 40
0.0
 40
0.0
 40
0.0
 40
0.5061486706
 40
1.0
 40
1.0
 40
1.0
 40
1.0
 10
484.7053328823
 20
227.6803562905
 30
0.0
 10
484.7595324795
 20
227.6803562905
 30
0.0
 10
484.8714880655
 20
227.7225578005
 30
0.0
 10
484.9188170098
 20
227.8336602845
 30
0.0
 10
484.9188170098
 20
227.8865430534
 30
0.0
  0
SPLINE
  5
5F9
100
AcDbEntity
  8
KONSTRUKTIONSELEMENTE
100
AcDbSpline
 62
7
  6
CONTINUOUS
 70
0
 71
3
 72
9
 73
5
 74
0
 42
0.0000001
 43
0.0000001
 44
0.0000000001
 40
0.0
 40
0.0
 40
0.0
 40
0.0
 40
0.5061486706
 40
1.0
 40
1.0
 40
1.0
 40
1.0
 10
484.7053328823
 20
227.447929206
 30
0.0
 10
484.7595324795
 20
227.447929206
 30
0.0
 10
484.8714880655
 20
227.490130716
 30
0.0
 10
484.9188170098
 20
227.6012332001
 30
0.0
 10
484.9188170098
 20
227.654115969
 30
0.0
  0
SPLINE
  5
5FA
100
AcDbEntity
  8
KONSTRUKTIONSELEMENTE
100
AcDbSpline
 62
7
  6
CONTINUOUS
 70
0
 71
3
 72
9
 73
5
 74
0
 42
0.0000001
 43
0.0000001
 44
0.0000000001
 40
0.0
 40
0.0
 40
0.0
 40
0.0
 40
0.4961787138
 40
1.0
 40
1.0
 40
1.0
 40
1.0
 10
485.7193824878
 20
229.7675302891
 30
0.0
 10
485.7193824878
 20
229.8566863953
 30
0.0
 10
485.6687918669
 20
230.0395750561
 30
0.0
 10
485.5316853066
 20
230.1700107351
 30
0.0
 10
485.4525273284
 20
230.2139377256
 30
0.0
  0
SPLINE
  5
5FB
100
AcDbEntity
  8
KONSTRUKTIONSELEMENTE
100
AcDbSpline
 62
7
  6
CONTINUOUS
 70
0
 71
3
 72
8
 73
4
 74
0
 42
0.0000001
 43
0.0000001
 44
0.0000000001
 40
0.0
 40
0.0
 40
0.0
 40
0.0
 40
1.0
 40
1.0
 40
1.0
 40
1.0
 10
485.4525273284
 20
230.2139377256
 30
0.0
 10
485.3721865305
 20
230.2585210961
 30
0.0
 10
485.2775542714
 20
230.2829971964
 30
0.0
 10
485.1856721691
 20
230.2829971964
 30
0.0
  0
SPLINE
  5
5FC
100
AcDbEntity
  8
KONSTRUKTIONSELEMENTE
100
AcDbSpline
 62
7
  6
CONTINUOUS
 70
0
 71
3
 72
9
 73
5
 74
0
 42
0.0000001
 43
0.0000001
 44
0.0000000001
 40
0.0
 40
0.0
 40
0.0
 40
0.0
 40
0.4961787138
 40
1.0
 40
1.0
 40
1.0
 40
1.0
 10
480.382279301
 20
229.7675302891
 30
0.0
 10
480.382279301
 20
229.8566863953
 30
0.0
 10
480.3316886801
 20
230.0395750561
 30
0.0
 10
480.1945821198
 20
230.1700107351
 30
0.0
 10
480.1154241416
 20
230.2139377256
 30
0.0
  0
SPLINE
  5
5FD
100
AcDbEntity
  8
KONSTRUKTIONSELEMENTE
100
AcDbSpline
 62
7
  6
CONTINUOUS
 70
0
 71
3
 72
8
 73
4
 74
0
 42
0.0000001
 43
0.0000001
 44
0.0000000001
 40
0.0
 40
0.0
 40
0.0
 40
0.0
 40
1.0
 40
1.0
 40
1.0
 40
1.0
 10
480.1154241416
 20
230.2139377256
 30
0.0
 10
480.0350833437
 20
230.2585210961
 30
0.0
 10
479.9404510846
 20
230.2829971964
 30
0.0
 10
479.8485689823
 20
230.2829971964
 30
0.0
  0
SPLINE
  5
5FE
100
AcDbEntity
  8
KONSTRUKTIONSELEMENTE
100
AcDbSpline
 62
7
  6
CONTINUOUS
 70
0
 71
3
 72
9
 73
5
 74
0
 42
0.0000001
 43
0.0000001
 44
0.0000000001
 40
0.0
 40
0.0
 40
0.0
 40
0.0
 40
0.5061486706
 40
1.0
 40
1.0
 40
1.0
 40
1.0
 10
482.5704916076
 20
229.0978902856
 30
0.0
 10
482.6246912048
 20
229.0978902856
 30
0.0
 10
482.7366467908
 20
229.0556887756
 30
0.0
 10
482.783975735
 20
228.9445862916
 30
0.0
 10
482.783975735
 20
228.8917035227
 30
0.0
  0
SPLINE
  5
5FF
100
AcDbEntity
  8
KONSTRUKTIONSELEMENTE
100
AcDbSpline
 62
7
  6
CONTINUOUS
 70
0
 71
3
 72
9
 73
5
 74
0
 42
0.0000001
 43
0.0000001
 44
0.0000000001
 40
0.0
 40
0.0
 40
0.0
 40
0.0
 40
0.5061486706
 40
1.0
 40
1.0
 40
1.0
 40
1.0
 10
479.3682296955
 20
227.6803562905
 30
0.0
 10
479.4224292927
 20
227.6803562905
 30
0.0
 10
479.5343848787
 20
227.7225578005
 30
0.0
 10
479.581713823
 20
227.8336602845
 30
0.0
 10
479.581713823
 20
227.8865430534
 30
0.0
  0
SPLINE
  5
600
100
AcDbEntity
  8
KONSTRUKTIONSELEMENTE
100
AcDbSpline
 62
7
  6
CONTINUOUS
 70
0
 71
3
 72
9
 73
5
 74
0
 42
0.0000001
 43
0.0000001
 44
0.0000000001
 40
0.0
 40
0.0
 40
0.0
 40
0.0
 40
0.7471303545
 40
1.0
 40
1.0
 40
1.0
 40
1.0
 10
473.9777554768
 20
224.5875548464
 30
0.0
 10
473.9777554768
 20
224.4534427584
 30
0.0
 10
474.0163051429
 20
224.2713682767
 30
0.0
 10
474.0975556867
 20
224.111097706
 30
0.0
 10
474.1207627257
 20
224.0720879391
 30
0.0
  0
SPLINE
  5
601
100
AcDbEntity
  8
KONSTRUKTIONSELEMENTE
100
AcDbSpline
 62
7
  6
CONTINUOUS
 70
0
 71
3
 72
9
 73
5
 74
0
 42
0.0000001
 43
0.0000001
 44
0.0000000001
 40
0.0
 40
0.0
 40
0.0
 40
0.0
 40
0.4962920727
 40
1.0
 40
1.0
 40
1.0
 40
1.0
 10
474.1207627257
 20
224.0720879391
 30
0.0
 10
474.2133328745
 20
223.9164825679
 30
0.0
 10
474.4903626736
 20
223.65025472
 30
0.0
 10
474.8614119095
 20
223.5566210318
 30
0.0
 10
475.0451761142
 20
223.5566210318
 30
0.0
  0
SPLINE
  5
602
100
AcDbEntity
  8
KONSTRUKTIONSELEMENTE
100
AcDbSpline
 62
7
  6
CONTINUOUS
 70
0
 71
3
 72
11
 73
7
 74
0
 42
0.0000001
 43
0.0000001
 44
0.0000000001
 40
0.0
 40
0.0
 40
0.0
 40
0.0
 40
0.2464390268
 40
0.4950255396
 40
0.7466919016
 40
1.0
 40
1.0
 40
1.0
 40
1.0
 10
473.9991882389
 20
224.1502757435
 30
0.0
 10
474.0234155242
 20
224.0349300971
 30
0.0
 10
474.1141812897
 20
223.809987974
 30
0.0
 10
474.3581732159
 20
223.539858158
 30
0.0
 10
474.6806203888
 20
223.3645948
 30
0.0
 10
474.9240283499
 20
223.3241939473
 30
0.0
 10
475.0451761142
 20
223.3241939473
 30
0.0
  0
SPLINE
  5
603
100
AcDbEntity
  8
KONSTRUKTIONSELEMENTE
100
AcDbSpline
 62
7
  6
CONTINUOUS
 70
0
 71
3
 72
9
 73
5
 74
0
 42
0.0000001
 43
0.0000001
 44
0.0000000001
 40
0.0
 40
0.0
 40
0.0
 40
0.0
 40
0.4938513293
 40
1.0
 40
1.0
 40
1.0
 40
1.0
 10
479.0480035043
 20
228.8917035227
 30
0.0
 10
479.0480035043
 20
228.9445862916
 30
0.0
 10
479.0953324485
 20
229.0556887756
 30
0.0
 10
479.2072880345
 20
229.0978902856
 30
0.0
 10
479.2614876318
 20
229.0978902856
 30
0.0
  0
SPLINE
  5
604
100
AcDbEntity
  8
KONSTRUKTIONSELEMENTE
100
AcDbSpline
 62
7
  6
CONTINUOUS
 70
0
 71
3
 72
9
 73
5
 74
0
 42
0.0000001
 43
0.0000001
 44
0.0000000001
 40
0.0
 40
0.0
 40
0.0
 40
0.0
 40
0.4938513294
 40
1.0
 40
1.0
 40
1.0
 40
1.0
 10
476.1125967515
 20
229.9999573735
 30
0.0
 10
476.1125967515
 20
230.1321642956
 30
0.0
 10
476.2309191122
 20
230.4099205058
 30
0.0
 10
476.5108080771
 20
230.5154242808
 30
0.0
 10
476.6463070702
 20
230.5154242808
 30
0.0
  0
SPLINE
  5
605
100
AcDbEntity
  8
KONSTRUKTIONSELEMENTE
100
AcDbSpline
 62
7
  6
CONTINUOUS
 70
0
 71
3
 72
9
 73
5
 74
0
 42
0.0000001
 43
0.0000001
 44
0.0000000001
 40
0.0
 40
0.0
 40
0.0
 40
0.0
 40
0.5061486707
 40
1.0
 40
1.0
 40
1.0
 40
1.0
 10
479.8485689823
 20
230.5154242808
 30
0.0
 10
479.9840679755
 20
230.5154242808
 30
0.0
 10
480.2639569404
 20
230.4099205058
 30
0.0
 10
480.382279301
 20
230.1321642956
 30
0.0
 10
480.382279301
 20
229.9999573735
 30
0.0
  0
SPLINE
  5
606
100
AcDbEntity
  8
KONSTRUKTIONSELEMENTE
100
AcDbSpline
 62
7
  6
CONTINUOUS
 70
0
 71
3
 72
9
 73
5
 74
0
 42
0.0000001
 43
0.0000001
 44
0.0000000001
 40
0.0
 40
0.0
 40
0.0
 40
0.0
 40
0.4938513293
 40
1.0
 40
1.0
 40
1.0
 40
1.0
 10
481.4496999383
 20
229.9999573735
 30
0.0
 10
481.4496999383
 20
230.1321642956
 30
0.0
 10
481.568022299
 20
230.4099205058
 30
0.0
 10
481.8479112639
 20
230.5154242808
 30
0.0
 10
481.983410257
 20
230.5154242808
 30
0.0
  0
SPLINE
  5
607
100
AcDbEntity
  8
KONSTRUKTIONSELEMENTE
100
AcDbSpline
 62
7
  6
CONTINUOUS
 70
0
 71
3
 72
9
 73
5
 74
0
 42
0.0000001
 43
0.0000001
 44
0.0000000001
 40
0.0
 40
0.0
 40
0.0
 40
0.0
 40
0.5061486707
 40
1.0
 40
1.0
 40
1.0
 40
1.0
 10
485.1856721691
 20
230.5154242808
 30
0.0
 10
485.3211711623
 20
230.5154242808
 30
0.0
 10
485.6010601272
 20
230.4099205058
 30
0.0
 10
485.7193824878
 20
230.1321642956
 30
0.0
 10
485.7193824878
 20
229.9999573735
 30
0.0
  0
SPLINE
  5
608
100
AcDbEntity
  8
KONSTRUKTIONSELEMENTE
100
AcDbSpline
 62
7
  6
CONTINUOUS
 70
0
 71
3
 72
11
 73
7
 74
0
 42
0.0000001
 43
0.0000001
 44
0.0000000001
 40
0.0
 40
0.0
 40
0.0
 40
0.0
 40
0.2540350944
 40
0.5056741741
 40
0.7540299242
 40
1.0
 40
1.0
 40
1.0
 40
1.0
 10
482.7311280081
 20
249.2701249357
 30
0.0
 10
483.3943628059
 20
249.2701249357
 30
0.0
 10
484.7284027653
 20
249.5236385013
 30
0.0
 10
486.4244278436
 20
250.6147303504
 30
0.0
 10
487.56745073
 20
252.2534284564
 30
0.0
 10
487.8365052162
 20
253.5588102941
 30
0.0
 10
487.8365052162
 20
254.2009889421
 30
0.0
  0
SPLINE
  5
609
100
AcDbEntity
  8
KONSTRUKTIONSELEMENTE
100
AcDbSpline
 62
7
  6
CONTINUOUS
 70
0
 71
3
 72
11
 73
7
 74
0
 42
0.0000001
 43
0.0000001
 44
0.0000000001
 40
0.0
 40
0.0
 40
0.0
 40
0.0
 40
0.2537407626
 40
0.5056855727
 40
0.7542780103
 40
1.0
 40
1.0
 40
1.0
 40
1.0
 10
486.7868031251
 20
223.5566210318
 30
0.0
 10
486.9252917624
 20
223.5566210318
 30
0.0
 10
487.2038935948
 20
223.6102900935
 30
0.0
 10
487.559457706
 20
223.83723733
 30
0.0
 10
487.7973308512
 20
224.1808457765
 30
0.0
 10
487.8542237625
 20
224.4534427584
 30
0.0
 10
487.8542237625
 20
224.5875548464
 30
0.0
  0
SPLINE
  5
60A
100
AcDbEntity
  8
KONSTRUKTIONSELEMENTE
100
AcDbSpline
 62
7
  6
CONTINUOUS
 70
0
 71
3
 72
11
 73
7
 74
0
 42
0.0000001
 43
0.0000001
 44
0.0000000001
 40
0.0
 40
0.0
 40
0.0
 40
0.0
 40
0.2460001018
 40
0.4945112758
 40
0.746160136
 40
1.0
 40
1.0
 40
1.0
 40
1.0
 10
486.1200708046
 20
254.4323904049
 30
0.0
 10
486.0903645733
 20
254.8400850281
 30
0.0
 10
485.8668039028
 20
255.6561812338
 30
0.0
 10
485.0955973635
 20
256.6637948698
 30
0.0
 10
484.0008966549
 20
257.3284963481
 30
0.0
 10
483.1529306948
 20
257.482358845
 30
0.0
 10
482.7311280081
 20
257.482358845
 30
0.0
  0
SPLINE
  5
60B
100
AcDbEntity
  8
RUNDUNGEN
100
AcDbSpline
 62
7
  6
CONTINUOUS
 70
0
 71
3
 72
8
 73
4
 74
0
 42
0.0000001
 43
0.0000001
 44
0.0000000001
 40
0.0
 40
0.0
 40
0.0
 40
0.0
 40
1.0
 40
1.0
 40
1.0
 40
1.0
 10
498.6361008339
 20
27.7860745155
 30
0.0
 10
499.9340813847
 20
35.0136653683
 30
0.0
 10
501.2316221397
 20
42.2413352399
 30
0.0
 10
502.5284202689
 20
49.4691383403
 30
0.0
  0
SPLINE
  5
60C
100
AcDbEntity
  8
BEZUGSACHSEN
100
AcDbSpline
 62
7
  6
CONTINUOUS
 70
0
 71
3
 72
18
 73
14
 74
0
 42
0.0000001
 43
0.0000001
 44
0.0000000001
 40
0.0
 40
0.0
 40
0.0
 40
0.0
 40
0.0040863642
 40
0.0162425616
 40
0.0364627544
 40
0.0647235313
 40
0.1009842118
 40
0.1451684856
 40
0.2569813263
 40
0.3994410017
 40
0.5716043199
 40
0.7723395564
 40
1.0
 40
1.0
 40
1.0
 40
1.0
 10
440.8821519417
 20
397.3814230724
 30
0.0
 10
440.883586589
 20
397.3814449845
 30
0.0
 10
440.8814672571
 20
397.3723077074
 30
0.0
 10
440.8843453911
 20
397.3628246537
 30
0.0
 10
440.8833830558
 20
397.339653781
 30
0.0
 10
440.8843087677
 20
397.3107311637
 30
0.0
 10
440.8842514472
 20
397.2722415514
 30
0.0
 10
440.8844167374
 20
397.2048875359
 30
0.0
 10
440.8839751323
 20
397.0999939411
 30
0.0
 10
440.8830643248
 20
396.9503084173
 30
0.0
 10
440.8818670077
 20
396.7693431579
 30
0.0
 10
440.8807365447
 20
396.5584815162
 30
0.0
 10
440.8804089317
 20
396.4080606407
 30
0.0
 10
440.8804089317
 20
396.3281239219
 30
0.0
  0
LINE
  5
60D
100
AcDbEntity
  8
RUNDUNGEN
100
AcDbLine
 62
7
  6
CONTINUOUS
 10
510.7643899757
 20
125.0737576494
 11
510.7683141744
 21
124.9708666874
  0
SPLINE
  5
60E
100
AcDbEntity
  8
RUNDUNGEN
100
AcDbSpline
 62
7
  6
CONTINUOUS
 70
0
 71
3
 72
9
 73
5
 74
0
 42
0.0000001
 43
0.0000001
 44
0.0000000001
 40
0.0
 40
0.0
 40
0.0
 40
0.0
 40
0.2523088168
 40
1.0
 40
1.0
 40
1.0
 40
1.0
 10
511.6645224088
 20
102.9816298605
 30
0.0
 10
511.6735821787
 20
102.7770549455
 30
0.0
 10
511.7095966228
 20
101.9662480899
 30
0.0
 10
511.7460470969
 20
101.1554605904
 30
0.0
 10
511.7735665991
 20
100.5492540316
 30
0.0
  0
LINE
  5
60F
100
AcDbEntity
  8
RUNDUNGEN
100
AcDbLine
 62
7
  6
CONTINUOUS
 10
511.7735665991
 20
100.5492540316
 11
511.7756937196
 21
100.502408978
  0
SPLINE
  5
610
100
AcDbEntity
  8
RUNDUNGEN
100
AcDbSpline
 62
7
  6
CONTINUOUS
 70
0
 71
3
 72
9
 73
5
 74
0
 42
0.0000001
 43
0.0000001
 44
0.0000000001
 40
0.0
 40
0.0
 40
0.0
 40
0.0
 40
0.2524557903
 40
1.0
 40
1.0
 40
1.0
 40
1.0
 10
511.7756937196
 20
100.502408978
 30
0.0
 10
511.7847153823
 20
100.3037767196
 30
0.0
 10
511.8205643843
 20
99.5169817066
 30
0.0
 10
511.8568750949
 20
98.7302077172
 30
0.0
 10
511.8843003608
 20
98.1420725451
 30
0.0
  0
LINE
  5
611
100
AcDbEntity
  8
RUNDUNGEN
100
AcDbLine
 62
7
  6
CONTINUOUS
 10
511.8843003608
 20
98.1420725451
 11
511.9353081456
 21
97.0552302267
  0
LINE
  5
612
100
AcDbEntity
  8
RUNDUNGEN
100
AcDbLine
 62
7
  6
CONTINUOUS
 10
511.9353081456
 20
97.0552302267
 11
511.9425407964
 21
96.9022652779
  0
LINE
  5
613
100
AcDbEntity
  8
RUNDUNGEN
100
AcDbLine
 62
7
  6
CONTINUOUS
 10
511.9425407964
 20
96.9022652779
 11
511.9470602222
 21
96.8068281577
  0
SPLINE
  5
614
100
AcDbEntity
  8
RUNDUNGEN
100
AcDbSpline
 62
7
  6
CONTINUOUS
 70
0
 71
3
 72
9
 73
5
 74
0
 42
0.0000001
 43
0.0000001
 44
0.0000000001
 40
0.0
 40
0.0
 40
0.0
 40
0.0
 40
0.2517413746
 40
1.0
 40
1.0
 40
1.0
 40
1.0
 10
511.9470602222
 20
96.8068281577
 30
0.0
 10
511.9529123349
 20
96.6833209787
 30
0.0
 10
511.9762117189
 20
96.1927121216
 30
0.0
 10
511.9997250977
 20
95.7021134243
 30
0.0
 10
512.0174462689
 20
95.3350248684
 30
0.0
  0
LINE
  5
615
100
AcDbEntity
  8
RUNDUNGEN
100
AcDbLine
 62
7
  6
CONTINUOUS
 10
512.0174462689
 20
95.3350248684
 11
512.0187205414
 21
95.3086332596
  0
SPLINE
  5
616
100
AcDbEntity
  8
RUNDUNGEN
100
AcDbSpline
 62
7
  6
CONTINUOUS
 70
0
 71
3
 72
9
 73
5
 74
0
 42
0.0000001
 43
0.0000001
 44
0.0000000001
 40
0.0
 40
0.0
 40
0.0
 40
0.0
 40
0.2517854758
 40
1.0
 40
1.0
 40
1.0
 40
1.0
 10
512.0187205414
 20
95.3086332596
 30
0.0
 10
512.0244743652
 20
95.1894856855
 30
0.0
 10
512.0473797336
 20
94.7162775888
 30
0.0
 10
512.0705007997
 20
94.2430799297
 30
0.0
 10
512.0879284471
 20
93.8890328922
 30
0.0
  0
LINE
  5
617
100
AcDbEntity
  8
RUNDUNGEN
100
AcDbLine
 62
7
  6
CONTINUOUS
 10
512.0879284471
 20
93.8890328922
 11
512.0945282784
 21
93.7550805441
  0
LINE
  5
618
100
AcDbEntity
  8
RUNDUNGEN
100
AcDbLine
 62
7
  6
CONTINUOUS
 10
512.0945282784
 20
93.7550805441
 11
512.1215505102
 21
93.2092424142
  0
LINE
  5
619
100
AcDbEntity
  8
RUNDUNGEN
100
AcDbLine
 62
7
  6
CONTINUOUS
 10
512.1215505102
 20
93.2092424142
 11
512.1333385533
 21
92.9724511328
  0
LINE
  5
61A
100
AcDbEntity
  8
RUNDUNGEN
100
AcDbLine
 62
7
  6
CONTINUOUS
 10
512.1333385533
 20
92.9724511328
 11
512.1410591576
 21
92.8178015031
  0
LINE
  5
61B
100
AcDbEntity
  8
RUNDUNGEN
100
AcDbLine
 62
7
  6
CONTINUOUS
 10
512.1410591576
 20
92.8178015031
 11
512.1516576189
 21
92.6060714922
  0
LINE
  5
61C
100
AcDbEntity
  8
RUNDUNGEN
100
AcDbLine
 62
7
  6
CONTINUOUS
 10
512.1516576189
 20
92.6060714922
 11
512.1882960572
 21
91.8791942627
  0
LINE
  5
61D
100
AcDbEntity
  8
RUNDUNGEN
100
AcDbLine
 62
7
  6
CONTINUOUS
 10
512.1882960572
 20
91.8791942627
 11
512.1914337293
 21
91.8173122677
  0
LINE
  5
61E
100
AcDbEntity
  8
RUNDUNGEN
100
AcDbLine
 62
7
  6
CONTINUOUS
 10
512.1914337293
 20
91.8173122677
 11
512.1940397451
 21
91.7659599135
  0
LINE
  5
61F
100
AcDbEntity
  8
RUNDUNGEN
100
AcDbLine
 62
7
  6
CONTINUOUS
 10
512.1940397451
 20
91.7659599135
 11
512.2158341127
 21
91.3380684269
  0
LINE
  5
620
100
AcDbEntity
  8
RUNDUNGEN
100
AcDbLine
 62
7
  6
CONTINUOUS
 10
512.2158341127
 20
91.3380684269
 11
512.2215203076
 21
91.2268942277
  0
LINE
  5
621
100
AcDbEntity
  8
RUNDUNGEN
100
AcDbLine
 62
7
  6
CONTINUOUS
 10
512.2215203076
 20
91.2268942277
 11
512.2249458346
 21
91.1600125534
  0
SPLINE
  5
622
100
AcDbEntity
  8
RUNDUNGEN
100
AcDbSpline
 62
7
  6
CONTINUOUS
 70
0
 71
3
 72
9
 73
5
 74
0
 42
0.0000001
 43
0.0000001
 44
0.0000000001
 40
0.0
 40
0.0
 40
0.0
 40
0.0
 40
0.2515256593
 40
1.0
 40
1.0
 40
1.0
 40
1.0
 10
512.2249458346
 20
91.1600125534
 30
0.0
 10
512.2293297452
 20
91.0744636364
 30
0.0
 10
512.2467939179
 20
90.734345387
 30
0.0
 10
512.2643989653
 20
90.3942343696
 30
0.0
 10
512.2776586285
 20
90.1396743198
 30
0.0
  0
LINE
  5
623
100
AcDbEntity
  8
RUNDUNGEN
100
AcDbLine
 62
7
  6
CONTINUOUS
 10
512.2776586285
 20
90.1396743198
 11
512.3276533967
 21
89.1874541969
  0
SPLINE
  5
624
100
AcDbEntity
  8
RUNDUNGEN
100
AcDbSpline
 62
7
  6
CONTINUOUS
 70
0
 71
3
 72
9
 73
5
 74
0
 42
0.0000001
 43
0.0000001
 44
0.0000000001
 40
0.0
 40
0.0
 40
0.0
 40
0.0
 40
0.2515680436
 40
1.0
 40
1.0
 40
1.0
 40
1.0
 10
512.3276533967
 20
89.1874541969
 30
0.0
 10
512.3318992788
 20
89.1072323156
 30
0.0
 10
512.3488116789
 20
88.7883467472
 30
0.0
 10
512.3658642872
 20
88.4694686132
 30
0.0
 10
512.378709374
 20
88.2308144716
 30
0.0
  0
SPLINE
  5
625
100
AcDbEntity
  8
RUNDUNGEN
100
AcDbSpline
 62
7
  6
CONTINUOUS
 70
0
 71
3
 72
9
 73
5
 74
0
 42
0.0000001
 43
0.0000001
 44
0.0000000001
 40
0.0
 40
0.0
 40
0.0
 40
0.0
 40
0.2519267654
 40
1.0
 40
1.0
 40
1.0
 40
1.0
 10
512.378709374
 20
88.2308144716
 30
0.0
 10
512.3837555922
 20
88.1370587101
 30
0.0
 10
512.403836572
 20
87.7649066033
 30
0.0
 10
512.4241217182
 20
87.3927655097
 30
0.0
 10
512.4394175689
 20
87.1143833899
 30
0.0
  0
LINE
  5
626
100
AcDbEntity
  8
RUNDUNGEN
100
AcDbLine
 62
7
  6
CONTINUOUS
 10
512.546705749
 20
85.1983458194
 11
512.5529676485
 21
85.0887963628
  0
LINE
  5
627
100
AcDbEntity
  8
RUNDUNGEN
100
AcDbLine
 62
7
  6
CONTINUOUS
 10
512.5529676485
 20
85.0887963628
 11
512.57764088
 21
84.6596210336
  0
LINE
  5
628
100
AcDbEntity
  8
RUNDUNGEN
100
AcDbLine
 62
7
  6
CONTINUOUS
 10
512.57764088
 20
84.6596210336
 11
512.5833938597
 21
84.5601202357
  0
LINE
  5
629
100
AcDbEntity
  8
RUNDUNGEN
100
AcDbLine
 62
7
  6
CONTINUOUS
 10
512.5833938597
 20
84.5601202357
 11
512.6012541884
 21
84.2525913945
  0
LINE
  5
62A
100
AcDbEntity
  8
RUNDUNGEN
100
AcDbLine
 62
7
  6
CONTINUOUS
 10
512.6012541884
 20
84.2525913945
 11
512.6316893063
 21
83.733353488
  0
LINE
  5
62B
100
AcDbEntity
  8
RUNDUNGEN
100
AcDbLine
 62
7
  6
CONTINUOUS
 10
512.6316893063
 20
83.733353488
 11
512.6347840168
 21
83.6808970662
  0
LINE
  5
62C
100
AcDbEntity
  8
RUNDUNGEN
100
AcDbLine
 62
7
  6
CONTINUOUS
 10
512.6347840168
 20
83.6808970662
 11
512.6364519422
 21
83.6526513075
  0
LINE
  5
62D
100
AcDbEntity
  8
RUNDUNGEN
100
AcDbLine
 62
7
  6
CONTINUOUS
 10
512.6364519422
 20
83.6526513075
 11
512.6748515208
 21
83.0074493756
  0
LINE
  5
62E
100
AcDbEntity
  8
RUNDUNGEN
100
AcDbLine
 62
7
  6
CONTINUOUS
 10
512.6748515208
 20
83.0074493756
 11
512.680285177
 21
82.9169406134
  0
LINE
  5
62F
100
AcDbEntity
  8
RUNDUNGEN
100
AcDbLine
 62
7
  6
CONTINUOUS
 10
512.680285177
 20
82.9169406134
 11
512.6921996061
 21
82.7191688302
  0
LINE
  5
630
100
AcDbEntity
  8
RUNDUNGEN
100
AcDbLine
 62
7
  6
CONTINUOUS
 10
512.6921996061
 20
82.7191688302
 11
512.7221618158
 21
82.2260037602
  0
LINE
  5
631
100
AcDbEntity
  8
RUNDUNGEN
100
AcDbLine
 62
7
  6
CONTINUOUS
 10
512.7221618158
 20
82.2260037602
 11
512.746170473
 21
81.8351767727
  0
SPLINE
  5
632
100
AcDbEntity
  8
RUNDUNGEN
100
AcDbSpline
 62
7
  6
CONTINUOUS
 70
0
 71
3
 72
9
 73
5
 74
0
 42
0.0000001
 43
0.0000001
 44
0.0000000001
 40
0.0
 40
0.0
 40
0.0
 40
0.0
 40
0.2518912947
 40
1.0
 40
1.0
 40
1.0
 40
1.0
 10
512.746170473
 20
81.8351767727
 30
0.0
 10
512.7501571813
 20
81.7706009775
 30
0.0
 10
512.7660235359
 20
81.5142396593
 30
0.0
 10
512.7820484196
 20
81.2578881499
 30
0.0
 10
512.7941303134
 20
81.0661152639
 30
0.0
  0
LINE
  5
633
100
AcDbEntity
  8
RUNDUNGEN
100
AcDbLine
 62
7
  6
CONTINUOUS
 10
512.7941303134
 20
81.0661152639
 11
512.8102837714
 21
80.8106050129
  0
LINE
  5
634
100
AcDbEntity
  8
RUNDUNGEN
100
AcDbLine
 62
7
  6
CONTINUOUS
 10
512.8102837714
 20
80.8106050129
 11
512.8308002011
 21
80.4886539329
  0
LINE
  5
635
100
AcDbEntity
  8
RUNDUNGEN
100
AcDbLine
 62
7
  6
CONTINUOUS
 10
512.8308002011
 20
80.4886539329
 11
512.8665274731
 21
79.9349106862
  0
LINE
  5
636
100
AcDbEntity
  8
RUNDUNGEN
100
AcDbLine
 62
7
  6
CONTINUOUS
 10
512.8665274731
 20
79.9349106862
 11
512.8841950462
 21
79.6643341403
  0
LINE
  5
637
100
AcDbEntity
  8
RUNDUNGEN
100
AcDbLine
 62
7
  6
CONTINUOUS
 10
512.8841950462
 20
79.6643341403
 11
512.8910554407
 21
79.5598510973
  0
LINE
  5
638
100
AcDbEntity
  8
RUNDUNGEN
100
AcDbLine
 62
7
  6
CONTINUOUS
 10
512.8910554407
 20
79.5598510973
 11
512.8920164144
 21
79.5452416539
  0
LINE
  5
639
100
AcDbEntity
  8
RUNDUNGEN
100
AcDbLine
 62
7
  6
CONTINUOUS
 10
512.8920164144
 20
79.5452416539
 11
512.9080100569
 21
79.3030364105
  0
LINE
  5
63A
100
AcDbEntity
  8
RUNDUNGEN
100
AcDbLine
 62
7
  6
CONTINUOUS
 10
512.9080100569
 20
79.3030364105
 11
512.9094373058
 21
79.2815088511
  0
LINE
  5
63B
100
AcDbEntity
  8
RUNDUNGEN
100
AcDbLine
 62
7
  6
CONTINUOUS
 10
512.9094373058
 20
79.2815088511
 11
512.927329354
 21
79.0128431482
  0
LINE
  5
63C
100
AcDbEntity
  8
RUNDUNGEN
100
AcDbLine
 62
7
  6
CONTINUOUS
 10
512.927329354
 20
79.0128431482
 11
512.9331378394
 21
78.9261037939
  0
SPLINE
  5
63D
100
AcDbEntity
  8
RUNDUNGEN
100
AcDbSpline
 62
7
  6
CONTINUOUS
 70
0
 71
3
 72
9
 73
5
 74
0
 42
0.0000001
 43
0.0000001
 44
0.0000000001
 40
0.0
 40
0.0
 40
0.0
 40
0.0
 40
0.2518437253
 40
1.0
 40
1.0
 40
1.0
 40
1.0
 10
512.9331378394
 20
78.9261037939
 30
0.0
 10
512.9365965172
 20
78.8745248259
 30
0.0
 10
512.9503632025
 20
78.6697216054
 30
0.0
 10
512.9642640746
 20
78.4649274024
 30
0.0
 10
512.9747430206
 20
78.3117147474
 30
0.0
  0
LINE
  5
63E
100
AcDbEntity
  8
RUNDUNGEN
100
AcDbLine
 62
7
  6
CONTINUOUS
 10
512.9747430206
 20
78.3117147474
 11
512.9800909927
 21
78.2336227756
  0
LINE
  5
63F
100
AcDbEntity
  8
RUNDUNGEN
100
AcDbLine
 62
7
  6
CONTINUOUS
 10
512.9800909927
 20
78.2336227756
 11
512.9938127613
 21
78.0341777294
  0
LINE
  5
640
100
AcDbEntity
  8
RUNDUNGEN
100
AcDbLine
 62
7
  6
CONTINUOUS
 10
512.9938127613
 20
78.0341777294
 11
513.0226540582
 21
77.6193105961
  0
LINE
  5
641
100
AcDbEntity
  8
RUNDUNGEN
100
AcDbLine
 62
7
  6
CONTINUOUS
 10
513.0226540582
 20
77.6193105961
 11
513.0289205993
 21
77.5299494589
  0
LINE
  5
642
100
AcDbEntity
  8
RUNDUNGEN
100
AcDbLine
 62
7
  6
CONTINUOUS
 10
513.0289205993
 20
77.5299494589
 11
513.052771933
 21
77.1923830633
  0
LINE
  5
643
100
AcDbEntity
  8
RUNDUNGEN
100
AcDbLine
 62
7
  6
CONTINUOUS
 10
513.052771933
 20
77.1923830633
 11
513.0574290091
 21
77.1269448231
  0
LINE
  5
644
100
AcDbEntity
  8
RUNDUNGEN
100
AcDbLine
 62
7
  6
CONTINUOUS
 10
513.0574290091
 20
77.1269448231
 11
513.0627538744
 21
77.052312982
  0
LINE
  5
645
100
AcDbEntity
  8
RUNDUNGEN
100
AcDbLine
 62
7
  6
CONTINUOUS
 10
513.4252591364
 20
72.4571288917
 11
513.4543320475
 21
72.1308544896
  0
LINE
  5
646
100
AcDbEntity
  8
RUNDUNGEN
100
AcDbLine
 62
7
  6
CONTINUOUS
 10
513.4543320475
 20
72.1308544896
 11
513.4625506564
 21
72.0397778129
  0
LINE
  5
647
100
AcDbEntity
  8
RUNDUNGEN
100
AcDbLine
 62
7
  6
CONTINUOUS
 10
513.4625506564
 20
72.0397778129
 11
513.4659407653
 21
72.0023583408
  0
LINE
  5
648
100
AcDbEntity
  8
RUNDUNGEN
100
AcDbLine
 62
7
  6
CONTINUOUS
 10
513.6115015469
 20
70.4782646248
 11
513.6259957409
 21
70.3353997642
  0
LINE
  5
649
100
AcDbEntity
  8
RUNDUNGEN
100
AcDbLine
 62
7
  6
CONTINUOUS
 10
513.6259957409
 20
70.3353997642
 11
513.6318127209
 21
70.2785196272
  0
LINE
  5
64A
100
AcDbEntity
  8
RUNDUNGEN
100
AcDbLine
 62
7
  6
CONTINUOUS
 10
513.6318127209
 20
70.2785196272
 11
513.6509431225
 21
70.0933014139
  0
SPLINE
  5
64B
100
AcDbEntity
  8
RUNDUNGEN
100
AcDbSpline
 62
7
  6
CONTINUOUS
 70
0
 71
3
 72
29
 73
25
 74
0
 42
0.0000001
 43
0.0000001
 44
0.0000000001
 40
0.0
 40
0.0
 40
0.0
 40
0.0
 40
0.1032007051
 40
0.191950969
 40
0.2660896507
 40
0.3255379775
 40
0.3703114061
 40
0.3872738043
 40
0.4007252728
 40
0.4108647306
 40
0.4181795281
 40
0.4239422928
 40
0.4304177966
 40
0.439341447
 40
0.4514354293
 40
0.4669829036
 40
0.4861057994
 40
0.5088623457
 40
0.5352817939
 40
0.5991488237
 40
0.6776903516
 40
0.7707992935
 40
0.8783085314
 40
1.0
 40
1.0
 40
1.0
 40
1.0
 10
513.6509431225
 20
70.0933014139
 30
0.0
 10
513.7014865686
 20
69.6076857115
 30
0.0
 10
513.8010258576
 20
68.704995142
 30
0.0
 10
513.9609770058
 20
67.4562868538
 30
0.0
 10
514.1198983568
 20
66.4162514669
 30
0.0
 10
514.2777917815
 20
65.5873019126
 30
0.0
 10
514.416471848
 20
65.030016786
 30
0.0
 10
514.5336066548
 20
64.6939999251
 30
0.0
 10
514.612766138
 20
64.5185093952
 30
0.0
 10
514.691837014
 20
64.3953604943
 30
0.0
 10
514.7744816746
 20
64.3178509869
 30
0.0
 10
514.8729154695
 20
64.3022727565
 30
0.0
 10
514.9622157046
 20
64.3591854454
 30
0.0
 10
515.0409873364
 20
64.4631900599
 30
0.0
 10
515.1203732655
 20
64.6177411553
 30
0.0
 10
515.1996063815
 20
64.8244799192
 30
0.0
 10
515.2794627311
 20
65.0843400279
 30
0.0
 10
515.359570588
 20
65.397451157
 30
0.0
 10
515.4740511263
 20
65.9199412691
 30
0.0
 10
515.6131085395
 20
66.706738666
 30
0.0
 10
515.7725669778
 20
67.8095826194
 30
0.0
 10
515.9326386209
 20
69.120629729
 30
0.0
 10
516.0932437207
 20
70.6370261745
 30
0.0
 10
516.1943428724
 20
71.7166685558
 30
0.0
 10
516.2454489087
 20
72.2901138317
 30
0.0
  0
LINE
  5
64C
100
AcDbEntity
  8
RUNDUNGEN
100
AcDbLine
 62
7
  6
CONTINUOUS
 10
516.8090505694
 20
79.7824657255
 11
516.8192362438
 21
79.9387384283
  0
LINE
  5
64D
100
AcDbEntity
  8
RUNDUNGEN
100
AcDbLine
 62
7
  6
CONTINUOUS
 10
516.8192362438
 20
79.9387384283
 11
516.8328447687
 21
80.1486431635
  0
LINE
  5
64E
100
AcDbEntity
  8
RUNDUNGEN
100
AcDbLine
 62
7
  6
CONTINUOUS
 10
516.8328447687
 20
80.1486431635
 11
516.857460908
 21
80.5315719313
  0
LINE
  5
64F
100
AcDbEntity
  8
RUNDUNGEN
100
AcDbLine
 62
7
  6
CONTINUOUS
 10
516.857460908
 20
80.5315719313
 11
516.8787306134
 21
80.865788799
  0
SPLINE
  5
650
100
AcDbEntity
  8
RUNDUNGEN
100
AcDbSpline
 62
7
  6
CONTINUOUS
 70
0
 71
3
 72
9
 73
5
 74
0
 42
0.0000001
 43
0.0000001
 44
0.0000000001
 40
0.0
 40
0.0
 40
0.0
 40
0.0
 40
0.2478722439
 40
1.0
 40
1.0
 40
1.0
 40
1.0
 10
516.8787306134
 20
80.865788799
 30
0.0
 10
516.883203437
 20
80.9363966915
 30
0.0
 10
516.9011961605
 20
81.2212559792
 30
0.0
 10
516.9189826882
 20
81.5061282868
 30
0.0
 10
516.9322504064
 20
81.720395442
 30
0.0
  0
LINE
  5
651
100
AcDbEntity
  8
RUNDUNGEN
100
AcDbLine
 62
7
  6
CONTINUOUS
 10
516.9322504064
 20
81.720395442
 11
516.9526412192
 21
82.0511003045
  0
LINE
  5
652
100
AcDbEntity
  8
RUNDUNGEN
100
AcDbLine
 62
7
  6
CONTINUOUS
 10
516.9526412192
 20
82.0511003045
 11
516.9568475821
 21
82.1196691098
  0
LINE
  5
653
100
AcDbEntity
  8
RUNDUNGEN
100
AcDbLine
 62
7
  6
CONTINUOUS
 10
516.9568475821
 20
82.1196691098
 11
516.9594243861
 21
82.1617329297
  0
LINE
  5
654
100
AcDbEntity
  8
RUNDUNGEN
100
AcDbLine
 62
7
  6
CONTINUOUS
 10
516.9594243861
 20
82.1617329297
 11
516.9619843323
 21
82.20356577
  0
LINE
  5
655
100
AcDbEntity
  8
RUNDUNGEN
100
AcDbLine
 62
7
  6
CONTINUOUS
 10
516.9619843323
 20
82.20356577
 11
516.9638628377
 21
82.2342910032
  0
SPLINE
  5
656
100
AcDbEntity
  8
RUNDUNGEN
100
AcDbSpline
 62
7
  6
CONTINUOUS
 70
0
 71
3
 72
9
 73
5
 74
0
 42
0.0000001
 43
0.0000001
 44
0.0000000001
 40
0.0
 40
0.0
 40
0.0
 40
0.0
 40
0.2477239693
 40
1.0
 40
1.0
 40
1.0
 40
1.0
 10
516.9638628377
 20
82.2342910032
 30
0.0
 10
516.9689130314
 20
82.3169249105
 30
0.0
 10
516.9892362282
 20
82.6505012839
 30
0.0
 10
517.0093100225
 20
82.9840928463
 30
0.0
 10
517.0242787357
 20
83.2350536413
 30
0.0
  0
LINE
  5
657
100
AcDbEntity
  8
RUNDUNGEN
100
AcDbLine
 62
7
  6
CONTINUOUS
 10
517.0242787357
 20
83.2350536413
 11
517.0518853513
 21
83.7004181682
  0
LINE
  5
658
100
AcDbEntity
  8
RUNDUNGEN
100
AcDbLine
 62
7
  6
CONTINUOUS
 10
517.0518853513
 20
83.7004181682
 11
517.0967308234
 21
84.4670656345
  0
LINE
  5
659
100
AcDbEntity
  8
RUNDUNGEN
100
AcDbLine
 62
7
  6
CONTINUOUS
 10
517.0967308234
 20
84.4670656345
 11
517.1085806668
 21
84.6718383123
  0
LINE
  5
65A
100
AcDbEntity
  8
RUNDUNGEN
100
AcDbLine
 62
7
  6
CONTINUOUS
 10
517.1085806668
 20
84.6718383123
 11
517.1501046564
 21
85.3965887566
  0
LINE
  5
65B
100
AcDbEntity
  8
RUNDUNGEN
100
AcDbLine
 62
7
  6
CONTINUOUS
 10
517.1501046564
 20
85.3965887566
 11
517.1694485112
 21
85.7380106195
  0
LINE
  5
65C
100
AcDbEntity
  8
RUNDUNGEN
100
AcDbLine
 62
7
  6
CONTINUOUS
 10
517.1694485112
 20
85.7380106195
 11
517.19736333
 21
86.2349382433
  0
LINE
  5
65D
100
AcDbEntity
  8
RUNDUNGEN
100
AcDbLine
 62
7
  6
CONTINUOUS
 10
517.19736333
 20
86.2349382433
 11
517.2231711541
 21
86.6987754308
  0
SPLINE
  5
65E
100
AcDbEntity
  8
RUNDUNGEN
100
AcDbSpline
 62
7
  6
CONTINUOUS
 70
0
 71
3
 72
9
 73
5
 74
0
 42
0.0000001
 43
0.0000001
 44
0.0000000001
 40
0.0
 40
0.0
 40
0.0
 40
0.0
 40
0.2481481663
 40
1.0
 40
1.0
 40
1.0
 40
1.0
 10
517.2231711541
 20
86.6987754308
 30
0.0
 10
517.2279641878
 20
86.7853118198
 30
0.0
 10
517.2472308329
 20
87.1340432148
 30
0.0
 10
517.2663054062
 20
87.4827852184
 30
0.0
 10
517.2805438409
 20
87.7449930975
 30
0.0
  0
LINE
  5
65F
100
AcDbEntity
  8
RUNDUNGEN
100
AcDbLine
 62
7
  6
CONTINUOUS
 10
517.4038282841
 20
90.0623416826
 11
517.4064974946
 21
90.1135426353
  0
LINE
  5
660
100
AcDbEntity
  8
RUNDUNGEN
100
AcDbLine
 62
7
  6
CONTINUOUS
 10
517.4064974946
 20
90.1135426353
 11
517.4250922054
 21
90.4714211382
  0
LINE
  5
661
100
AcDbEntity
  8
RUNDUNGEN
100
AcDbLine
 62
7
  6
CONTINUOUS
 10
517.4250922054
 20
90.4714211382
 11
517.4317657162
 21
90.6003689682
  0
LINE
  5
662
100
AcDbEntity
  8
RUNDUNGEN
100
AcDbLine
 62
7
  6
CONTINUOUS
 10
517.4317657162
 20
90.6003689682
 11
517.4696227574
 21
91.3369017998
  0
LINE
  5
663
100
AcDbEntity
  8
RUNDUNGEN
100
AcDbLine
 62
7
  6
CONTINUOUS
 10
517.4696227574
 20
91.3369017998
 11
517.4802974329
 21
91.5461271735
  0
LINE
  5
664
100
AcDbEntity
  8
RUNDUNGEN
100
AcDbLine
 62
7
  6
CONTINUOUS
 10
517.4802974329
 20
91.5461271735
 11
517.4982299663
 21
91.8991258908
  0
LINE
  5
665
100
AcDbEntity
  8
RUNDUNGEN
100
AcDbLine
 62
7
  6
CONTINUOUS
 10
517.4982299663
 20
91.8991258908
 11
517.5081912504
 21
92.0960312734
  0
LINE
  5
666
100
AcDbEntity
  8
RUNDUNGEN
100
AcDbLine
 62
7
  6
CONTINUOUS
 10
517.5081912504
 20
92.0960312734
 11
517.5115256583
 21
92.1620730725
  0
LINE
  5
667
100
AcDbEntity
  8
RUNDUNGEN
100
AcDbLine
 62
7
  6
CONTINUOUS
 10
517.5115256583
 20
92.1620730725
 11
517.5225891956
 21
92.3816664142
  0
LINE
  5
668
100
AcDbEntity
  8
RUNDUNGEN
100
AcDbLine
 62
7
  6
CONTINUOUS
 10
517.5225891956
 20
92.3816664142
 11
517.5404168873
 21
92.7370233285
  0
LINE
  5
669
100
AcDbEntity
  8
RUNDUNGEN
100
AcDbLine
 62
7
  6
CONTINUOUS
 10
517.5404168873
 20
92.7370233285
 11
517.5467482365
 21
92.8636709783
  0
LINE
  5
66A
100
AcDbEntity
  8
RUNDUNGEN
100
AcDbLine
 62
7
  6
CONTINUOUS
 10
517.5467482365
 20
92.8636709783
 11
517.5686929976
 21
93.3044380704
  0
SPLINE
  5
66B
100
AcDbEntity
  8
RUNDUNGEN
100
AcDbSpline
 62
7
  6
CONTINUOUS
 70
0
 71
3
 72
9
 73
5
 74
0
 42
0.0000001
 43
0.0000001
 44
0.0000000001
 40
0.0
 40
0.0
 40
0.0
 40
0.0
 40
0.2482920214
 40
1.0
 40
1.0
 40
1.0
 40
1.0
 10
517.5686929976
 20
93.3044380704
 30
0.0
 10
517.5741073865
 20
93.4135314645
 30
0.0
 10
517.5958632878
 20
93.8529093279
 30
0.0
 10
517.6174190837
 20
94.292297097
 30
0.0
 10
517.6335157416
 20
94.6225935871
 30
0.0
  0
LINE
  5
66C
100
AcDbEntity
  8
RUNDUNGEN
100
AcDbLine
 62
7
  6
CONTINUOUS
 10
517.6335157416
 20
94.6225935871
 11
517.6366938794
 21
94.6878362106
  0
LINE
  5
66D
100
AcDbEntity
  8
RUNDUNGEN
100
AcDbLine
 62
7
  6
CONTINUOUS
 10
517.6366938794
 20
94.6878362106
 11
517.6908116806
 21
95.8075282398
  0
LINE
  5
66E
100
AcDbEntity
  8
RUNDUNGEN
100
AcDbLine
 62
7
  6
CONTINUOUS
 10
517.6908116806
 20
95.8075282398
 11
517.6989624402
 21
95.9775864737
  0
LINE
  5
66F
100
AcDbEntity
  8
RUNDUNGEN
100
AcDbLine
 62
7
  6
CONTINUOUS
 10
517.6989624402
 20
95.9775864737
 11
517.708831631
 21
96.1839921385
  0
LINE
  5
670
100
AcDbEntity
  8
RUNDUNGEN
100
AcDbLine
 62
7
  6
CONTINUOUS
 10
517.708831631
 20
96.1839921385
 11
517.7438022056
 21
96.9197021794
  0
LINE
  5
671
100
AcDbEntity
  8
RUNDUNGEN
100
AcDbLine
 62
7
  6
CONTINUOUS
 10
517.7438022056
 20
96.9197021794
 11
517.7810189685
 21
97.7100189023
  0
LINE
  5
672
100
AcDbEntity
  8
RUNDUNGEN
100
AcDbLine
 62
7
  6
CONTINUOUS
 10
517.7810189685
 20
97.7100189023
 11
517.783327075
 21
97.7592802388
  0
LINE
  5
673
100
AcDbEntity
  8
RUNDUNGEN
100
AcDbLine
 62
7
  6
CONTINUOUS
 10
517.783327075
 20
97.7592802388
 11
517.7863610636
 21
97.8240776604
  0
LINE
  5
674
100
AcDbEntity
  8
RUNDUNGEN
100
AcDbLine
 62
7
  6
CONTINUOUS
 10
517.7863610636
 20
97.8240776604
 11
517.8366843763
 21
98.9060455008
  0
LINE
  5
675
100
AcDbEntity
  8
RUNDUNGEN
100
AcDbLine
 62
7
  6
CONTINUOUS
 10
517.8366843763
 20
98.9060455008
 11
517.845767615
 21
99.1027754735
  0
LINE
  5
676
100
AcDbEntity
  8
RUNDUNGEN
100
AcDbLine
 62
7
  6
CONTINUOUS
 10
517.845767615
 20
99.1027754735
 11
517.8726923657
 21
99.6884837224
  0
LINE
  5
677
100
AcDbEntity
  8
RUNDUNGEN
100
AcDbLine
 62
7
  6
CONTINUOUS
 10
517.8726923657
 20
99.6884837224
 11
517.8950729182
 21
100.1782296362
  0
LINE
  5
678
100
AcDbEntity
  8
RUNDUNGEN
100
AcDbLine
 62
7
  6
CONTINUOUS
 10
517.8950729182
 20
100.1782296362
 11
517.9048187672
 21
100.3923089801
  0
LINE
  5
679
100
AcDbEntity
  8
RUNDUNGEN
100
AcDbLine
 62
7
  6
CONTINUOUS
 10
517.973384374
 20
101.9122329117
 11
517.9941056214
 21
102.3762674668
  0
SPLINE
  5
67A
100
AcDbEntity
  8
RUNDUNGEN
100
AcDbSpline
 62
7
  6
CONTINUOUS
 70
0
 71
3
 72
9
 73
5
 74
0
 42
0.0000001
 43
0.0000001
 44
0.0000000001
 40
0.0
 40
0.0
 40
0.0
 40
0.0
 40
0.2468018537
 40
1.0
 40
1.0
 40
1.0
 40
1.0
 10
517.9941056214
 20
102.3762674668
 30
0.0
 10
518.007479037
 20
102.6764495892
 30
0.0
 10
518.0614237088
 20
103.8927483283
 30
0.0
 10
518.1144278236
 20
105.1090887387
 30
0.0
 10
518.1538792824
 20
106.0252542358
 30
0.0
  0
LINE
  5
67B
100
AcDbEntity
  8
RUNDUNGEN
100
AcDbLine
 62
7
  6
CONTINUOUS
 10
518.1538792824
 20
106.0252542358
 11
518.2019788504
 21
107.1476543074
  0
SPLINE
  5
67C
100
AcDbEntity
  8
RUNDUNGEN
100
AcDbSpline
 62
7
  6
CONTINUOUS
 70
0
 71
3
 72
9
 73
5
 74
0
 42
0.0000001
 43
0.0000001
 44
0.0000000001
 40
0.0
 40
0.0
 40
0.0
 40
0.0
 40
0.2488162053
 40
1.0
 40
1.0
 40
1.0
 40
1.0
 10
518.2019788504
 20
107.1476543074
 30
0.0
 10
518.2074525527
 20
107.2759933932
 30
0.0
 10
518.2294161076
 20
107.7917936456
 30
0.0
 10
518.2512396987
 20
108.307599857
 30
0.0
 10
518.2675581065
 20
108.6950682811
 30
0.0
  0
LINE
  5
67D
100
AcDbEntity
  8
RUNDUNGEN
100
AcDbLine
 62
7
  6
CONTINUOUS
 10
518.2675581065
 20
108.6950682811
 11
518.2845630696
 21
109.0994837935
  0
SPLINE
  5
67E
100
AcDbEntity
  8
RUNDUNGEN
100
AcDbSpline
 62
7
  6
CONTINUOUS
 70
0
 71
3
 72
9
 73
5
 74
0
 42
0.0000001
 43
0.0000001
 44
0.0000000001
 40
0.0
 40
0.0
 40
0.0
 40
0.0
 40
0.2482834955
 40
1.0
 40
1.0
 40
1.0
 40
1.0
 10
518.3482125578
 20
110.6245272887
 30
0.0
 10
518.3570323087
 20
110.8370713113
 30
0.0
 10
518.3924712372
 20
111.6931285658
 30
0.0
 10
518.4275809548
 20
112.5491994437
 30
0.0
 10
518.4538015927
 20
113.1927290336
 30
0.0
  0
LINE
  5
67F
100
AcDbEntity
  8
RUNDUNGEN
100
AcDbLine
 62
7
  6
CONTINUOUS
 10
518.4538015927
 20
113.1927290336
 11
518.454850195
 21
113.218466993
  0
LINE
  5
680
100
AcDbEntity
  8
RUNDUNGEN
100
AcDbLine
 62
7
  6
CONTINUOUS
 10
518.454850195
 20
113.218466993
 11
518.4998718135
 21
114.3277417855
  0
SPLINE
  5
681
100
AcDbEntity
  8
RUNDUNGEN
100
AcDbSpline
 62
7
  6
CONTINUOUS
 70
0
 71
3
 72
9
 73
5
 74
0
 42
0.0000001
 43
0.0000001
 44
0.0000000001
 40
0.0
 40
0.0
 40
0.0
 40
0.0
 40
0.2479650192
 40
1.0
 40
1.0
 40
1.0
 40
1.0
 10
518.4998718135
 20
114.3277417855
 30
0.0
 10
518.5115855498
 20
114.6174171236
 30
0.0
 10
518.5586908599
 20
115.7856330425
 30
0.0
 10
518.6052746152
 20
116.9538699793
 30
0.0
 10
518.6400422365
 20
117.8324354658
 30
0.0
  0
LINE
  5
682
100
AcDbEntity
  8
RUNDUNGEN
100
AcDbLine
 62
7
  6
CONTINUOUS
 10
519.5831788497
 20
143.0055765432
 11
519.595600975
 21
143.350754199
  0
LINE
  5
683
100
AcDbEntity
  8
RUNDUNGEN
100
AcDbLine
 62
7
  6
CONTINUOUS
 10
519.595600975
 20
143.350754199
 11
519.6027688821
 21
143.5500403993
  0
LINE
  5
684
100
AcDbEntity
  8
RUNDUNGEN
100
AcDbLine
 62
7
  6
CONTINUOUS
 10
519.6027688821
 20
143.5500403993
 11
519.6052221213
 21
143.6182648912
  0
LINE
  5
685
100
AcDbEntity
  8
RUNDUNGEN
100
AcDbLine
 62
7
  6
CONTINUOUS
 10
519.6052221213
 20
143.6182648912
 11
519.6086388745
 21
143.7132999982
  0
LINE
  5
686
100
AcDbEntity
  8
RUNDUNGEN
100
AcDbLine
 62
7
  6
CONTINUOUS
 10
519.6086388745
 20
143.7132999982
 11
519.6149878704
 21
143.8899408887
  0
LINE
  5
687
100
AcDbEntity
  8
RUNDUNGEN
100
AcDbLine
 62
7
  6
CONTINUOUS
 10
519.6149878704
 20
143.8899408887
 11
519.6430469512
 21
144.6713152955
  0
LINE
  5
688
100
AcDbEntity
  8
RUNDUNGEN
100
AcDbLine
 62
7
  6
CONTINUOUS
 10
519.6430469512
 20
144.6713152955
 11
519.6456417133
 21
144.7436308869
  0
LINE
  5
689
100
AcDbEntity
  8
RUNDUNGEN
100
AcDbLine
 62
7
  6
CONTINUOUS
 10
519.6456417133
 20
144.7436308869
 11
519.6683105449
 21
145.3758133112
  0
LINE
  5
68A
100
AcDbEntity
  8
RUNDUNGEN
100
AcDbLine
 62
7
  6
CONTINUOUS
 10
519.6683105449
 20
145.3758133112
 11
519.6750029838
 21
145.5625870522
  0
LINE
  5
68B
100
AcDbEntity
  8
RUNDUNGEN
100
AcDbLine
 62
7
  6
CONTINUOUS
 10
519.6750029838
 20
145.5625870522
 11
519.757500443
 21
147.8697366985
  0
LINE
  5
68C
100
AcDbEntity
  8
RUNDUNGEN
100
AcDbLine
 62
7
  6
CONTINUOUS
 10
519.757500443
 20
147.8697366985
 11
519.7609524693
 21
147.9664597044
  0
LINE
  5
68D
100
AcDbEntity
  8
RUNDUNGEN
100
AcDbLine
 62
7
  6
CONTINUOUS
 10
520.1734508776
 20
159.5961212655
 11
520.2481588865
 21
161.7105208504
  0
LINE
  5
68E
100
AcDbEntity
  8
0
100
AcDbLine
 62
7
  6
CONTINUOUS
 10
512.5010074548
 20
91.9186789851
 11
512.4366697604
 21
92.9931263118
  0
LINE
  5
68F
100
AcDbEntity
  8
0
100
AcDbLine
 62
7
  6
CONTINUOUS
 10
512.4366697604
 20
92.9931263118
 11
512.4325865966
 21
93.0613140437
  0
LINE
  5
690
100
AcDbEntity
  8
0
100
AcDbLine
 62
7
  6
CONTINUOUS
 10
512.4325865966
 20
93.0613140437
 11
512.2958762865
 21
95.346086357
  0
SPLINE
  5
691
100
AcDbEntity
  8
0
100
AcDbSpline
 62
7
  6
CONTINUOUS
 70
0
 71
3
 72
8
 73
4
 74
0
 42
0.0000001
 43
0.0000001
 44
0.0000000001
 40
0.0
 40
0.0
 40
0.0
 40
0.0
 40
1.0
 40
1.0
 40
1.0
 40
1.0
 10
512.5873863078
 20
85.1150546934
 30
0.0
 10
512.5675523061
 20
86.7961254934
 30
0.0
 10
512.546678954
 20
88.4771844661
 30
0.0
 10
512.5245915977
 20
90.1582271696
 30
0.0
  0
LINE
  5
692
100
AcDbEntity
  8
0
100
AcDbLine
 62
7
  6
CONTINUOUS
 10
512.5245915977
 20
90.1582271696
 11
512.5158594085
 21
90.8180326158
  0
LINE
  5
693
100
AcDbEntity
  8
0
100
AcDbLine
 62
7
  6
CONTINUOUS
 10
512.5158594085
 20
90.8180326158
 11
512.5107124386
 21
91.2025026269
  0
LINE
  5
694
100
AcDbEntity
  8
0
100
AcDbLine
 62
7
  6
CONTINUOUS
 10
512.5107124386
 20
91.2025026269
 11
512.5010074548
 21
91.9186789851
  0
LINE
  5
695
100
AcDbEntity
  8
0
100
AcDbLine
 62
7
  6
CONTINUOUS
 10
512.66578015
 20
83.7037688809
 11
512.5873863078
 21
85.1150546934
  0
LINE
  5
696
100
AcDbEntity
  8
0
100
AcDbLine
 62
7
  6
CONTINUOUS
 10
512.239651871
 20
91.3650328254
 11
512.22769013
 21
95.3188554321
  0
LINE
  5
697
100
AcDbEntity
  8
0
100
AcDbLine
 62
7
  6
CONTINUOUS
 10
512.22769013
 20
95.3188554321
 11
512.2276038116
 21
95.345862055
  0
LINE
  5
698
100
AcDbEntity
  8
0
100
AcDbLine
 62
7
  6
CONTINUOUS
 10
512.2276038116
 20
95.345862055
 11
512.2227600514
 21
96.8289219964
  0
LINE
  5
699
100
AcDbEntity
  8
0
100
AcDbLine
 62
7
  6
CONTINUOUS
 10
512.2227600514
 20
96.8289219964
 11
512.2212950623
 21
97.2652509006
  0
SPLINE
  5
69A
100
AcDbEntity
  8
0
100
AcDbSpline
 62
7
  6
CONTINUOUS
 70
0
 71
3
 72
8
 73
4
 74
0
 42
0.0000001
 43
0.0000001
 44
0.0000000001
 40
0.0
 40
0.0
 40
0.0
 40
0.0
 40
1.0
 40
1.0
 40
1.0
 40
1.0
 10
512.2212950623
 20
97.2652509006
 30
0.0
 10
512.2176105747
 20
98.3556819596
 30
0.0
 10
512.2137507253
 20
99.4461124448
 30
0.0
 10
512.209688088
 20
100.5365421605
 30
0.0
  0
LINE
  5
69B
100
AcDbEntity
  8
0
100
AcDbLine
 62
7
  6
CONTINUOUS
 10
512.209688088
 20
100.5365421605
 11
512.2002207781
 21
102.9823734947
  0
LINE
  5
69C
100
AcDbEntity
  8
0
100
AcDbLine
 62
7
  6
CONTINUOUS
 10
512.3068362141
 20
90.1553596013
 11
512.239651871
 21
91.3650328254
  0
LINE
  5
69D
100
AcDbEntity
  8
0
100
AcDbLine
 62
7
  6
CONTINUOUS
 10
512.5310398138
 20
96.7061814289
 11
512.5221180347
 21
96.844021772
  0
LINE
  5
69E
100
AcDbEntity
  8
0
100
AcDbLine
 62
7
  6
CONTINUOUS
 10
512.5221180347
 20
96.844021772
 11
512.4483568118
 21
97.9832427969
  0
LINE
  5
69F
100
AcDbEntity
  8
0
100
AcDbLine
 62
7
  6
CONTINUOUS
 10
512.4483568118
 20
97.9832427969
 11
512.4070157254
 21
98.6217038941
  0
LINE
  5
6A0
100
AcDbEntity
  8
0
100
AcDbLine
 62
7
  6
CONTINUOUS
 10
512.4070157254
 20
98.6217038941
 11
512.2831368274
 21
100.5368131127
  0
LINE
  5
6A1
100
AcDbEntity
  8
0
100
AcDbLine
 62
7
  6
CONTINUOUS
 10
512.569720987
 20
95.8541673853
 11
512.5310398138
 21
96.7061814289
  0
LINE
  5
6A2
100
AcDbEntity
  8
0
100
AcDbLine
 62
7
  6
CONTINUOUS
 10
512.5945997191
 20
94.9565879218
 11
512.569720987
 21
95.8541673853
  0
LINE
  5
6A3
100
AcDbEntity
  8
0
100
AcDbLine
 62
7
  6
CONTINUOUS
 10
512.6057251074
 20
94.0134436153
 11
512.5945997191
 21
94.9565879218
  0
LINE
  5
6A4
100
AcDbEntity
  8
0
100
AcDbLine
 62
7
  6
CONTINUOUS
 10
512.6040084069
 20
93.2719106281
 11
512.6057251074
 21
94.0134436153
  0
LINE
  5
6A5
100
AcDbEntity
  8
0
100
AcDbLine
 62
7
  6
CONTINUOUS
 10
512.5898760336
 20
92.7319903451
 11
512.5933946615
 21
92.8675312427
  0
LINE
  5
6A6
100
AcDbEntity
  8
0
100
AcDbLine
 62
7
  6
CONTINUOUS
 10
512.5933946615
 20
92.8675312427
 11
512.6040084069
 21
93.2719106281
  0
SPLINE
  5
6A7
100
AcDbEntity
  8
0
100
AcDbSpline
 62
7
  6
CONTINUOUS
 70
0
 71
3
 72
8
 73
4
 74
0
 42
0.0000001
 43
0.0000001
 44
0.0000000001
 40
0.0
 40
0.0
 40
0.0
 40
0.0
 40
1.0
 40
1.0
 40
1.0
 40
1.0
 10
513.1940632651
 20
80.5388358741
 30
0.0
 10
513.198003239
 20
82.7376120082
 30
0.0
 10
513.2022677776
 20
84.9363876004
 30
0.0
 10
513.2069536347
 20
87.1351622714
 30
0.0
  0
LINE
  5
6A8
100
AcDbEntity
  8
0
100
AcDbLine
 62
7
  6
CONTINUOUS
 10
513.2069536347
 20
87.1351622714
 11
513.2083174557
 21
87.769540248
  0
LINE
  5
6A9
100
AcDbEntity
  8
0
100
AcDbLine
 62
7
  6
CONTINUOUS
 10
513.2083174557
 20
87.769540248
 11
513.2093698426
 21
88.2515478078
  0
LINE
  5
6AA
100
AcDbEntity
  8
0
100
AcDbLine
 62
7
  6
CONTINUOUS
 10
513.2093698426
 20
88.2515478078
 11
513.2114626271
 21
89.1911972695
  0
LINE
  5
6AB
100
AcDbEntity
  8
0
100
AcDbLine
 62
7
  6
CONTINUOUS
 10
513.1804123391
 20
79.5790409394
 11
513.1838047509
 21
79.8200480269
  0
LINE
  5
6AC
100
AcDbEntity
  8
0
100
AcDbLine
 62
7
  6
CONTINUOUS
 10
513.1838047509
 20
79.8200480269
 11
513.1940632651
 21
80.5388358741
  0
LINE
  5
6AD
100
AcDbEntity
  8
0
100
AcDbLine
 62
7
  6
CONTINUOUS
 10
513.1559636975
 20
79.054992145
 11
513.1620650887
 21
79.1867695756
  0
LINE
  5
6AE
100
AcDbEntity
  8
0
100
AcDbLine
 62
7
  6
CONTINUOUS
 10
513.1620650887
 20
79.1867695756
 11
513.1742895746
 21
79.4487939712
  0
LINE
  5
6AF
100
AcDbEntity
  8
0
100
AcDbLine
 62
7
  6
CONTINUOUS
 10
513.1742895746
 20
79.4487939712
 11
513.1804123391
 21
79.5790409394
  0
SPLINE
  5
6B0
100
AcDbEntity
  8
0
100
AcDbSpline
 62
7
  6
CONTINUOUS
 70
0
 71
3
 72
8
 73
4
 74
0
 42
0.0000001
 43
0.0000001
 44
0.0000000001
 40
0.0
 40
0.0
 40
0.0
 40
0.0
 40
1.0
 40
1.0
 40
1.0
 40
1.0
 10
512.838598565
 20
85.2379866299
 30
0.0
 10
512.8335436736
 20
87.1226166278
 30
0.0
 10
512.8281318424
 20
89.0072457204
 30
0.0
 10
512.8222744958
 20
90.8918733951
 30
0.0
  0
LINE
  5
6B1
100
AcDbEntity
  8
0
100
AcDbLine
 62
7
  6
CONTINUOUS
 10
512.8222744958
 20
90.8918733951
 11
512.8217944273
 21
91.0460161051
  0
LINE
  5
6B2
100
AcDbEntity
  8
0
100
AcDbLine
 62
7
  6
CONTINUOUS
 10
512.8217944273
 20
91.0460161051
 11
512.8212998524
 21
91.2041470611
  0
LINE
  5
6B3
100
AcDbEntity
  8
0
100
AcDbLine
 62
7
  6
CONTINUOUS
 10
512.8212998524
 20
91.2041470611
 11
512.8210755499
 21
91.2756407135
  0
LINE
  5
6B4
100
AcDbEntity
  8
0
100
AcDbLine
 62
7
  6
CONTINUOUS
 10
512.8210755499
 20
91.2756407135
 11
512.8193676118
 21
91.8155081809
  0
LINE
  5
6B5
100
AcDbEntity
  8
0
100
AcDbLine
 62
7
  6
CONTINUOUS
 10
512.8193676118
 20
91.8155081809
 11
512.8172526333
 21
92.4731556488
  0
LINE
  5
6B6
100
AcDbEntity
  8
0
100
AcDbLine
 62
7
  6
CONTINUOUS
 10
512.8172526333
 20
92.4731556488
 11
512.8167044083
 21
92.6416954982
  0
LINE
  5
6B7
100
AcDbEntity
  8
0
100
AcDbLine
 62
7
  6
CONTINUOUS
 10
512.8167044083
 20
92.6416954982
 11
512.8164071942
 21
92.7327396261
  0
LINE
  5
6B8
100
AcDbEntity
  8
0
100
AcDbLine
 62
7
  6
CONTINUOUS
 10
512.8164071942
 20
92.7327396261
 11
512.8161733389
 21
92.8042140501
  0
LINE
  5
6B9
100
AcDbEntity
  8
0
100
AcDbLine
 62
7
  6
CONTINUOUS
 10
512.8161733389
 20
92.8042140501
 11
512.8156940339
 21
92.9502645363
  0
LINE
  5
6BA
100
AcDbEntity
  8
0
100
AcDbLine
 62
7
  6
CONTINUOUS
 10
512.8156940339
 20
92.9502645363
 11
512.8146292537
 21
93.272607277
  0
LINE
  5
6BB
100
AcDbEntity
  8
0
100
AcDbLine
 62
7
  6
CONTINUOUS
 10
512.8146292537
 20
93.272607277
 11
512.8130433773
 21
93.7473818264
  0
LINE
  5
6BC
100
AcDbEntity
  8
0
100
AcDbLine
 62
7
  6
CONTINUOUS
 10
512.8130433773
 20
93.7473818264
 11
512.8125616785
 21
93.8903480252
  0
LINE
  5
6BD
100
AcDbEntity
  8
0
100
AcDbLine
 62
7
  6
CONTINUOUS
 10
512.8538918457
 20
83.6858060162
 11
512.850098276
 21
84.0758279276
  0
LINE
  5
6BE
100
AcDbEntity
  8
0
100
AcDbLine
 62
7
  6
CONTINUOUS
 10
512.850098276
 20
84.0758279276
 11
512.8424517148
 21
84.8519182352
  0
LINE
  5
6BF
100
AcDbEntity
  8
0
100
AcDbLine
 62
7
  6
CONTINUOUS
 10
512.8424517148
 20
84.8519182352
 11
512.8398039003
 21
85.1175739138
  0
LINE
  5
6C0
100
AcDbEntity
  8
0
100
AcDbLine
 62
7
  6
CONTINUOUS
 10
512.8398039003
 20
85.1175739138
 11
512.838598565
 21
85.2379866299
  0
LINE
  5
6C1
100
AcDbEntity
  8
0
100
AcDbLine
 62
7
  6
CONTINUOUS
 10
512.8795145171
 20
82.256095407
 11
512.8538918457
 21
83.6858060162
  0
SPLINE
  5
6C2
100
AcDbEntity
  8
0
100
AcDbSpline
 62
7
  6
CONTINUOUS
 70
0
 71
3
 72
8
 73
4
 74
0
 42
0.0000001
 43
0.0000001
 44
0.0000000001
 40
0.0
 40
0.0
 40
0.0
 40
0.0
 40
1.0
 40
1.0
 40
1.0
 40
1.0
 10
512.9271133365
 20
80.5131089554
 30
0.0
 10
512.911451683
 20
81.0941099911
 30
0.0
 10
512.8955870549
 20
81.6751055926
 30
0.0
 10
512.8795145171
 20
82.256095407
 30
0.0
  0
LINE
  5
6C3
100
AcDbEntity
  8
0
100
AcDbLine
 62
7
  6
CONTINUOUS
 10
512.9729699968
 20
79.3283384204
 11
512.9271133365
 21
80.5131089554
  0
LINE
  5
6C4
100
AcDbEntity
  8
0
100
AcDbLine
 62
7
  6
CONTINUOUS
 10
513.0293605752
 20
78.2660385825
 11
512.9729699968
 21
79.3283384204
  0
LINE
  5
6C5
100
AcDbEntity
  8
0
100
AcDbLine
 62
7
  6
CONTINUOUS
 10
513.0742729896
 20
77.6394849094
 11
513.0293605752
 21
78.2660385825
  0
LINE
  5
6C6
100
AcDbEntity
  8
0
100
AcDbLine
 62
7
  6
CONTINUOUS
 10
513.1306635591
 20
77.135401909
 11
513.0742729896
 21
77.6394849094
  0
LINE
  5
6C7
100
AcDbEntity
  8
0
100
AcDbLine
 62
7
  6
CONTINUOUS
 10
513.4399915638
 20
72.8927796957
 11
513.4370432408
 21
74.0760534311
  0
LINE
  5
6C8
100
AcDbEntity
  8
0
100
AcDbLine
 62
7
  6
CONTINUOUS
 10
513.4370432408
 20
74.0760534311
 11
513.4292316561
 21
77.0677404286
  0
LINE
  5
6C9
100
AcDbEntity
  8
0
100
AcDbLine
 62
7
  6
CONTINUOUS
 10
513.4292316561
 20
77.0677404286
 11
513.4237374071
 21
79.0557474015
  0
LINE
  5
6CA
100
AcDbEntity
  8
0
100
AcDbLine
 62
7
  6
CONTINUOUS
 10
513.4237374071
 20
79.0557474015
 11
513.4222463445
 21
79.5797230367
  0
LINE
  5
6CB
100
AcDbEntity
  8
0
100
AcDbLine
 62
7
  6
CONTINUOUS
 10
513.4222463445
 20
79.5797230367
 11
513.4206638608
 21
80.1288106455
  0
LINE
  5
6CC
100
AcDbEntity
  8
0
100
AcDbLine
 62
7
  6
CONTINUOUS
 10
513.4206638608
 20
80.1288106455
 11
513.4194666267
 21
80.539508668
  0
SPLINE
  5
6CD
100
AcDbEntity
  8
0
100
AcDbSpline
 62
7
  6
CONTINUOUS
 70
0
 71
3
 72
8
 73
4
 74
0
 42
0.0000001
 43
0.0000001
 44
0.0000000001
 40
0.0
 40
0.0
 40
0.0
 40
0.0
 40
1.0
 40
1.0
 40
1.0
 40
1.0
 10
513.4194666267
 20
80.539508668
 30
0.0
 10
513.4154218451
 20
81.9202427561
 30
0.0
 10
513.4111776449
 20
83.3009762794
 30
0.0
 10
513.4067009336
 20
84.6817090347
 30
0.0
  0
LINE
  5
6CE
100
AcDbEntity
  8
0
100
AcDbLine
 62
7
  6
CONTINUOUS
 10
513.4067009336
 20
84.6817090347
 11
513.4062354887
 21
84.8250052733
  0
LINE
  5
6CF
100
AcDbEntity
  8
0
100
AcDbLine
 62
7
  6
CONTINUOUS
 10
513.4062354887
 20
84.8250052733
 11
513.3984943389
 21
87.1347546128
  0
LINE
  5
6D0
100
AcDbEntity
  8
0
100
AcDbLine
 62
7
  6
CONTINUOUS
 10
513.7091490354
 20
70.3540521375
 11
513.5295398178
 21
72.0468063055
  0
LINE
  5
6D1
100
AcDbEntity
  8
0
100
AcDbLine
 62
7
  6
CONTINUOUS
 10
513.5295398178
 20
72.0468063055
 11
513.4847319963
 21
72.4698239893
  0
LINE
  5
6D2
100
AcDbEntity
  8
0
100
AcDbLine
 62
7
  6
CONTINUOUS
 10
513.4847319963
 20
72.4698239893
 11
513.4399915638
 21
72.8927796957
  0
LINE
  5
6D3
100
AcDbEntity
  8
0
100
AcDbLine
 62
7
  6
CONTINUOUS
 10
513.7656013627
 20
70.1281708926
 11
513.7091490354
 21
70.3540521375
  0
LINE
  5
6D4
100
AcDbEntity
  8
0
100
AcDbLine
 62
7
  6
CONTINUOUS
 10
513.7162496899
 20
82.7779028138
 11
513.5212501989
 21
84.3646860888
  0
LINE
  5
6D5
100
AcDbEntity
  8
0
100
AcDbLine
 62
7
  6
CONTINUOUS
 10
513.7678427585
 20
82.0517612509
 11
513.7162496899
 21
82.7779028138
  0
LINE
  5
6D6
100
AcDbEntity
  8
0
100
AcDbLine
 62
7
  6
CONTINUOUS
 10
513.8055726453
 20
81.1283788925
 11
513.7678427585
 21
82.0517612509
  0
LINE
  5
6D7
100
AcDbEntity
  8
0
100
AcDbLine
 62
7
  6
CONTINUOUS
 10
513.8293468862
 20
80.0077548898
 11
513.8055726453
 21
81.1283788925
  0
LINE
  5
6D8
100
AcDbEntity
  8
0
100
AcDbLine
 62
7
  6
CONTINUOUS
 10
513.8393883312
 20
78.6898921513
 11
513.8293468862
 21
80.0077548898
  0
LINE
  5
6D9
100
AcDbEntity
  8
0
100
AcDbLine
 62
7
  6
CONTINUOUS
 10
513.8301568739
 20
74.1445811249
 11
513.8377904607
 21
77.9377289698
  0
LINE
  5
6DA
100
AcDbEntity
  8
0
100
AcDbLine
 62
7
  6
CONTINUOUS
 10
513.8377904607
 20
77.9377289698
 11
513.8380384529
 21
78.0553720925
  0
LINE
  5
6DB
100
AcDbEntity
  8
0
100
AcDbLine
 62
7
  6
CONTINUOUS
 10
513.8380384529
 20
78.0553720925
 11
513.8393883312
 21
78.6898921513
  0
LINE
  5
6DC
100
AcDbEntity
  8
0
100
AcDbLine
 62
7
  6
CONTINUOUS
 10
513.8161857945
 20
73.0382782091
 11
513.8301568739
 21
74.1445811249
  0
LINE
  5
6DD
100
AcDbEntity
  8
0
100
AcDbLine
 62
7
  6
CONTINUOUS
 10
513.7915090169
 20
72.3407771221
 11
513.8161857945
 21
73.0382782091
  0
LINE
  5
6DE
100
AcDbEntity
  8
0
100
AcDbLine
 62
7
  6
CONTINUOUS
 10
513.7561872527
 20
72.0520764411
 11
513.7915090169
 21
72.3407771221
  0
LINE
  5
6DF
100
AcDbEntity
  8
0
100
AcDbLine
 62
7
  6
CONTINUOUS
 10
516.4065005529
 20
88.4463397546
 11
516.4860333616
 21
89.1828787919
  0
LINE
  5
6E0
100
AcDbEntity
  8
0
100
AcDbLine
 62
7
  6
CONTINUOUS
 10
515.9545565889
 20
84.2726176068
 11
516.0340893849
 21
85.009156644
  0
LINE
  5
6E1
100
AcDbEntity
  8
0
100
AcDbLine
 62
7
  6
CONTINUOUS
 10
516.1753848581
 20
72.3121021532
 11
516.1411138877
 21
74.4471187736
  0
LINE
  5
6E2
100
AcDbEntity
  8
0
100
AcDbLine
 62
7
  6
CONTINUOUS
 10
516.1411138877
 20
74.4471187736
 11
516.1389267115
 21
74.579355272
  0
LINE
  5
6E3
100
AcDbEntity
  8
0
100
AcDbLine
 62
7
  6
CONTINUOUS
 10
517.0102260852
 20
86.7366600027
 11
517.0801793516
 21
87.7787399418
  0
LINE
  5
6E4
100
AcDbEntity
  8
0
100
AcDbLine
 62
7
  6
CONTINUOUS
 10
516.9970484657
 20
85.7578251779
 11
517.0102260852
 21
86.7366600027
  0
LINE
  5
6E5
100
AcDbEntity
  8
0
100
AcDbLine
 62
7
  6
CONTINUOUS
 10
516.9616201619
 20
84.7000160138
 11
516.9970484657
 21
85.7578251779
  0
LINE
  5
6E6
100
AcDbEntity
  8
0
100
AcDbLine
 62
7
  6
CONTINUOUS
 10
516.9154491413
 20
83.7369142012
 11
516.9616201619
 21
84.7000160138
  0
LINE
  5
6E7
100
AcDbEntity
  8
0
100
AcDbLine
 62
7
  6
CONTINUOUS
 10
516.8123419743
 20
82.1737942924
 11
516.8295267642
 21
82.4343181922
  0
LINE
  5
6E8
100
AcDbEntity
  8
0
100
AcDbLine
 62
7
  6
CONTINUOUS
 10
516.8295267642
 20
82.4343181922
 11
516.9154491413
 21
83.7369142012
  0
LINE
  5
6E9
100
AcDbEntity
  8
0
100
AcDbLine
 62
7
  6
CONTINUOUS
 10
516.7662356681
 20
81.7474575112
 11
516.8008467205
 21
82.0672461643
  0
LINE
  5
6EA
100
AcDbEntity
  8
0
100
AcDbLine
 62
7
  6
CONTINUOUS
 10
516.8008467205
 20
82.0672461643
 11
516.8123419743
 21
82.1737942924
  0
LINE
  5
6EB
100
AcDbEntity
  8
0
100
AcDbLine
 62
7
  6
CONTINUOUS
 10
517.0238969647
 20
92.9095039538
 11
517.0157611851
 21
93.3836593441
  0
LINE
  5
6EC
100
AcDbEntity
  8
0
100
AcDbLine
 62
7
  6
CONTINUOUS
 10
517.0157611851
 20
93.3836593441
 11
517.013030545
 21
93.5409769005
  0
LINE
  5
6ED
100
AcDbEntity
  8
0
100
AcDbLine
 62
7
  6
CONTINUOUS
 10
516.9256585707
 20
94.7406801511
 11
516.9916102327
 21
95.340694272
  0
LINE
  5
6EE
100
AcDbEntity
  8
0
100
AcDbLine
 62
7
  6
CONTINUOUS
 10
516.8058519141
 20
93.1775602423
 11
516.9256585707
 21
94.7406801511
  0
LINE
  5
6EF
100
AcDbEntity
  8
0
100
AcDbLine
 62
7
  6
CONTINUOUS
 10
516.7397673641
 20
92.0407731395
 11
516.8058519141
 21
93.1775602423
  0
SPLINE
  5
6F0
100
AcDbEntity
  8
0
100
AcDbSpline
 62
7
  6
CONTINUOUS
 70
0
 71
3
 72
8
 73
4
 74
0
 42
0.0000001
 43
0.0000001
 44
0.0000000001
 40
0.0
 40
0.0
 40
0.0
 40
0.0
 40
1.0
 40
1.0
 40
1.0
 40
1.0
 10
516.6881025718
 20
90.8092868237
 30
0.0
 10
516.705178958
 20
91.2197883286
 30
0.0
 10
516.7224006276
 20
91.6302838157
 30
0.0
 10
516.7397673641
 20
92.0407731395
 30
0.0
  0
LINE
  5
6F1
100
AcDbEntity
  8
0
100
AcDbLine
 62
7
  6
CONTINUOUS
 10
516.6389601704
 20
89.041027526
 11
516.6427257474
 21
89.1785768456
  0
SPLINE
  5
6F2
100
AcDbEntity
  8
0
100
AcDbSpline
 62
7
  6
CONTINUOUS
 70
0
 71
3
 72
8
 73
4
 74
0
 42
0.0000001
 43
0.0000001
 44
0.0000000001
 40
0.0
 40
0.0
 40
0.0
 40
0.0
 40
1.0
 40
1.0
 40
1.0
 40
1.0
 10
516.6427257474
 20
89.1785768456
 30
0.0
 10
516.6576256204
 20
89.7221530728
 30
0.0
 10
516.6727487037
 20
90.2657232306
 30
0.0
 10
516.6881025718
 20
90.8092868237
 30
0.0
  0
LINE
  5
6F3
100
AcDbEntity
  8
0
100
AcDbLine
 62
7
  6
CONTINUOUS
 10
516.6167744754
 20
87.6201308583
 11
516.6222905014
 21
87.9775885807
  0
LINE
  5
6F4
100
AcDbEntity
  8
0
100
AcDbLine
 62
7
  6
CONTINUOUS
 10
516.6222905014
 20
87.9775885807
 11
516.6333834131
 21
88.6880369136
  0
LINE
  5
6F5
100
AcDbEntity
  8
0
100
AcDbLine
 62
7
  6
CONTINUOUS
 10
516.6333834131
 20
88.6880369136
 11
516.6389601704
 21
89.041027526
  0
LINE
  5
6F6
100
AcDbEntity
  8
0
100
AcDbLine
 62
7
  6
CONTINUOUS
 10
516.6086772209
 20
86.1045262752
 11
516.6167744754
 21
87.6201308583
  0
LINE
  5
6F7
100
AcDbEntity
  8
0
100
AcDbLine
 62
7
  6
CONTINUOUS
 10
516.6215066304
 20
82.0787583502
 11
516.6173545612
 21
83.4296665387
  0
LINE
  5
6F8
100
AcDbEntity
  8
0
100
AcDbLine
 62
7
  6
CONTINUOUS
 10
516.6173545612
 20
83.4296665387
 11
516.6086772209
 21
86.1045262752
  0
LINE
  5
6F9
100
AcDbEntity
  8
0
100
AcDbLine
 62
7
  6
CONTINUOUS
 10
516.6370960854
 20
80.9105171488
 11
516.6215066304
 21
82.0787583502
  0
LINE
  5
6FA
100
AcDbEntity
  8
0
100
AcDbLine
 62
7
  6
CONTINUOUS
 10
516.6629414851
 20
80.1843376024
 11
516.6370960854
 21
80.9105171488
  0
LINE
  5
6FB
100
AcDbEntity
  8
0
100
AcDbLine
 62
7
  6
CONTINUOUS
 10
517.5334169439
 20
99.135168254
 11
517.5641511995
 21
99.6812618065
  0
LINE
  5
6FC
100
AcDbEntity
  8
0
100
AcDbLine
 62
7
  6
CONTINUOUS
 10
517.5641511995
 20
99.6812618065
 11
517.5659419139
 21
99.7130863203
  0
LINE
  5
6FD
100
AcDbEntity
  8
0
100
AcDbLine
 62
7
  6
CONTINUOUS
 10
517.5659419139
 20
99.7130863203
 11
517.594866126
 21
100.2272556216
  0
LINE
  5
6FE
100
AcDbEntity
  8
0
100
AcDbLine
 62
7
  6
CONTINUOUS
 10
517.594866126
 20
100.2272556216
 11
517.6255568563
 21
100.7731498253
  0
LINE
  5
6FF
100
AcDbEntity
  8
0
100
AcDbLine
 62
7
  6
CONTINUOUS
 10
517.6255568563
 20
100.7731498253
 11
517.656218553
 21
101.3189445649
  0
LINE
  5
700
100
AcDbEntity
  8
0
100
AcDbLine
 62
7
  6
CONTINUOUS
 10
517.656218553
 20
101.3189445649
 11
517.686846399
 21
101.8646399876
  0
LINE
  5
701
100
AcDbEntity
  8
0
100
AcDbLine
 62
7
  6
CONTINUOUS
 10
517.686846399
 20
101.8646399876
 11
517.7080376158
 21
102.2425434415
  0
LINE
  5
702
100
AcDbEntity
  8
0
100
AcDbLine
 62
7
  6
CONTINUOUS
 10
517.7080376158
 20
102.2425434415
 11
517.7174356171
 21
102.4102362164
  0
LINE
  5
703
100
AcDbEntity
  8
0
100
AcDbLine
 62
7
  6
CONTINUOUS
 10
517.5322326749
 20
97.743858018
 11
517.5334169439
 21
99.135168254
  0
LINE
  5
704
100
AcDbEntity
  8
0
100
AcDbLine
 62
7
  6
CONTINUOUS
 10
517.6358874542
 20
97.853818156
 11
517.6366226348
 21
98.1641170465
  0
LINE
  5
705
100
AcDbEntity
  8
0
100
AcDbLine
 62
7
  6
CONTINUOUS
 10
517.6366226348
 20
98.1641170465
 11
517.6381104743
 21
98.7833722872
  0
LINE
  5
706
100
AcDbEntity
  8
0
100
AcDbLine
 62
7
  6
CONTINUOUS
 10
517.6381104743
 20
98.7833722872
 11
517.639622067
 21
99.4008374733
  0
LINE
  5
707
100
AcDbEntity
  8
0
100
AcDbLine
 62
7
  6
CONTINUOUS
 10
517.6227101015
 20
96.9398185108
 11
517.6342663307
 21
97.7423756802
  0
LINE
  5
708
100
AcDbEntity
  8
0
100
AcDbLine
 62
7
  6
CONTINUOUS
 10
517.6342663307
 20
97.7423756802
 11
517.6358874542
 21
97.853818156
  0
LINE
  5
709
100
AcDbEntity
  8
0
100
AcDbLine
 62
7
  6
CONTINUOUS
 10
517.5872821174
 20
95.8210346772
 11
517.6227101015
 21
96.9398185108
  0
LINE
  5
70A
100
AcDbEntity
  8
0
100
AcDbLine
 62
7
  6
CONTINUOUS
 10
517.5411112378
 20
94.7158015129
 11
517.5872821174
 21
95.8210346772
  0
LINE
  5
70B
100
AcDbEntity
  8
0
100
AcDbLine
 62
7
  6
CONTINUOUS
 10
517.438004053
 20
92.7507607354
 11
517.4551888377
 21
93.0782724221
  0
LINE
  5
70C
100
AcDbEntity
  8
0
100
AcDbLine
 62
7
  6
CONTINUOUS
 10
517.4551888377
 20
93.0782724221
 11
517.5411112378
 21
94.7158015129
  0
LINE
  5
70D
100
AcDbEntity
  8
0
100
AcDbLine
 62
7
  6
CONTINUOUS
 10
517.3918978529
 20
92.1092976497
 11
517.438004053
 21
92.7507607354
  0
LINE
  5
70E
100
AcDbEntity
  8
0
100
AcDbLine
 62
7
  6
CONTINUOUS
 10
517.6495537271
 20
103.1871743853
 11
517.6386863315
 21
103.6644856256
  0
LINE
  5
70F
100
AcDbEntity
  8
0
100
AcDbLine
 62
7
  6
CONTINUOUS
 10
517.5513121485
 20
104.223089262
 11
517.6172644316
 21
105.0828968751
  0
LINE
  5
710
100
AcDbEntity
  8
0
100
AcDbLine
 62
7
  6
CONTINUOUS
 10
517.4315054658
 20
102.2580484846
 11
517.4514736451
 21
102.5855618932
  0
LINE
  5
711
100
AcDbEntity
  8
0
100
AcDbLine
 62
7
  6
CONTINUOUS
 10
517.4514736451
 20
102.5855618932
 11
517.5513121485
 21
104.223089262
  0
LINE
  5
712
100
AcDbEntity
  8
0
100
AcDbLine
 62
7
  6
CONTINUOUS
 10
517.3654212054
 20
100.9344707929
 11
517.4315054658
 21
102.2580484846
  0
SPLINE
  5
713
100
AcDbEntity
  8
0
100
AcDbSpline
 62
7
  6
CONTINUOUS
 70
0
 71
3
 72
8
 73
4
 74
0
 42
0.0000001
 43
0.0000001
 44
0.0000000001
 40
0.0
 40
0.0
 40
0.0
 40
0.0
 40
1.0
 40
1.0
 40
1.0
 40
1.0
 10
517.3137569575
 20
99.5973525892
 30
0.0
 10
517.330833121
 20
100.0430642458
 30
0.0
 10
517.3480546081
 20
100.4887703583
 30
0.0
 10
517.3654212054
 20
100.9344707929
 30
0.0
  0
SPLINE
  5
714
100
AcDbEntity
  8
0
100
AcDbSpline
 62
7
  6
CONTINUOUS
 70
0
 71
3
 72
8
 73
4
 74
0
 42
0.0000001
 43
0.0000001
 44
0.0000000001
 40
0.0
 40
0.0
 40
0.0
 40
0.0
 40
1.0
 40
1.0
 40
1.0
 40
1.0
 10
517.2646155735
 20
97.7964593095
 30
0.0
 10
517.2807311064
 20
98.3967642401
 30
0.0
 10
517.2971083499
 20
98.9970622062
 30
0.0
 10
517.3137569575
 20
99.5973525892
 30
0.0
  0
LINE
  5
715
100
AcDbEntity
  8
0
100
AcDbLine
 62
7
  6
CONTINUOUS
 10
517.2424308245
 20
96.4322450897
 11
517.2646155735
 21
97.7964593095
  0
LINE
  5
716
100
AcDbEntity
  8
0
100
AcDbLine
 62
7
  6
CONTINUOUS
 10
517.234334673
 20
95.0544797135
 11
517.2363370752
 21
95.4001151521
  0
LINE
  5
717
100
AcDbEntity
  8
0
100
AcDbLine
 62
7
  6
CONTINUOUS
 10
517.2363370752
 20
95.4001151521
 11
517.2383538101
 21
95.7449545281
  0
LINE
  5
718
100
AcDbEntity
  8
0
100
AcDbLine
 62
7
  6
CONTINUOUS
 10
517.2383538101
 20
95.7449545281
 11
517.2424308245
 21
96.4322450897
  0
LINE
  5
719
100
AcDbEntity
  8
0
100
AcDbLine
 62
7
  6
CONTINUOUS
 10
517.2471670799
 20
91.5762037988
 11
517.243014037
 21
92.7433935387
  0
LINE
  5
71A
100
AcDbEntity
  8
0
100
AcDbLine
 62
7
  6
CONTINUOUS
 10
517.243014037
 20
92.7433935387
 11
517.2408918265
 21
93.3240767494
  0
LINE
  5
71B
100
AcDbEntity
  8
0
100
AcDbLine
 62
7
  6
CONTINUOUS
 10
517.2408918265
 20
93.3240767494
 11
517.234334673
 21
95.0544797135
  0
LINE
  5
71C
100
AcDbEntity
  8
0
100
AcDbLine
 62
7
  6
CONTINUOUS
 10
517.2627574433
 20
90.6351181321
 11
517.2471670799
 21
91.5762037988
  0
LINE
  5
71D
100
AcDbEntity
  8
0
100
AcDbLine
 62
7
  6
CONTINUOUS
 10
517.2886035267
 20
90.1442518749
 11
517.2627574433
 21
90.6351181321
  0
LINE
  5
71E
100
AcDbEntity
  8
0
100
AcDbLine
 62
7
  6
CONTINUOUS
 10
518.2674601985
 20
109.1065674774
 11
518.2714211213
 21
110.4906683759
  0
LINE
  5
71F
100
AcDbEntity
  8
0
100
AcDbLine
 62
7
  6
CONTINUOUS
 10
518.2714211213
 20
110.4906683759
 11
518.2718711498
 21
110.6436334696
  0
LINE
  5
720
100
AcDbEntity
  8
0
100
AcDbLine
 62
7
  6
CONTINUOUS
 10
518.2718711498
 20
110.6436334696
 11
518.2798663813
 21
113.2258886804
  0
LINE
  5
721
100
AcDbEntity
  8
0
100
AcDbLine
 62
7
  6
CONTINUOUS
 10
518.296575335
 20
117.9069354305
 11
518.3761082188
 21
119.4438149999
  0
SPLINE
  5
722
100
AcDbEntity
  8
0
100
AcDbSpline
 62
7
  6
CONTINUOUS
 70
0
 71
3
 72
8
 73
4
 74
0
 42
0.0000001
 43
0.0000001
 44
0.0000000001
 40
0.0
 40
0.0
 40
0.0
 40
0.0
 40
1.0
 40
1.0
 40
1.0
 40
1.0
 10
518.2835972236
 20
114.3493397745
 30
0.0
 10
518.2876219622
 20
115.535206054
 30
0.0
 10
518.2919254662
 20
116.7210714374
 30
0.0
 10
518.296575335
 20
117.9069354305
 30
0.0
  0
LINE
  5
723
100
AcDbEntity
  8
0
100
AcDbLine
 62
7
  6
CONTINUOUS
 10
517.9371455692
 20
107.1772273004
 11
518.0342626429
 21
109.1887838603
  0
LINE
  5
724
100
AcDbEntity
  8
0
100
AcDbLine
 62
7
  6
CONTINUOUS
 10
518.0342626429
 20
109.1887838603
 11
518.0525841569
 21
109.5678931382
  0
LINE
  5
725
100
AcDbEntity
  8
0
100
AcDbLine
 62
7
  6
CONTINUOUS
 10
518.0525841569
 20
109.5678931382
 11
518.1051140854
 21
110.6545417893
  0
LINE
  5
726
100
AcDbEntity
  8
0
100
AcDbLine
 62
7
  6
CONTINUOUS
 10
518.1051140854
 20
110.6545417893
 11
518.1085644037
 21
110.7259087212
  0
LINE
  5
727
100
AcDbEntity
  8
0
100
AcDbLine
 62
7
  6
CONTINUOUS
 10
518.1085644037
 20
110.7259087212
 11
518.1103691572
 21
110.7632384905
  0
LINE
  5
728
100
AcDbEntity
  8
0
100
AcDbLine
 62
7
  6
CONTINUOUS
 10
518.1103691572
 20
110.7632384905
 11
518.2259081394
 21
113.1539606455
  0
LINE
  5
729
100
AcDbEntity
  8
0
100
AcDbLine
 62
7
  6
CONTINUOUS
 10
518.2259081394
 20
113.1539606455
 11
518.2294989761
 21
113.2283203839
  0
LINE
  5
72A
100
AcDbEntity
  8
0
100
AcDbLine
 62
7
  6
CONTINUOUS
 10
518.2294989761
 20
113.2283203839
 11
518.2835972236
 21
114.3493397745
  0
LINE
  5
72B
100
AcDbEntity
  8
0
100
AcDbLine
 62
7
  6
CONTINUOUS
 10
517.8446311226
 20
109.197943387
 11
517.9241638487
 21
110.7348229564
  0
LINE
  5
72C
100
AcDbEntity
  8
0
100
AcDbLine
 62
7
  6
CONTINUOUS
 10
517.8861263576
 20
100.3975754339
 11
517.8799673112
 21
101.9037954616
  0
LINE
  5
72D
100
AcDbEntity
  8
0
100
AcDbLine
 62
7
  6
CONTINUOUS
 10
517.8799673112
 20
101.9037954616
 11
517.8798397653
 21
101.9341373885
  0
LINE
  5
72E
100
AcDbEntity
  8
0
100
AcDbLine
 62
7
  6
CONTINUOUS
 10
517.8798397653
 20
101.9341373885
 11
517.8778168117
 21
102.4109297045
  0
LINE
  5
72F
100
AcDbEntity
  8
0
100
AcDbLine
 62
7
  6
CONTINUOUS
 10
517.8778168117
 20
102.4109297045
 11
517.8744420852
 21
103.1881468811
  0
LINE
  5
730
100
AcDbEntity
  8
0
100
AcDbLine
 62
7
  6
CONTINUOUS
 10
517.8744420852
 20
103.1881468811
 11
517.8735308643
 21
103.3942187132
  0
LINE
  5
731
100
AcDbEntity
  8
0
100
AcDbLine
 62
7
  6
CONTINUOUS
 10
517.8735308643
 20
103.3942187132
 11
517.8723203219
 21
103.6655519388
  0
LINE
  5
732
100
AcDbEntity
  8
0
100
AcDbLine
 62
7
  6
CONTINUOUS
 10
517.8723203219
 20
103.6655519388
 11
517.8685287935
 21
104.4978541543
  0
LINE
  5
733
100
AcDbEntity
  8
0
100
AcDbLine
 62
7
  6
CONTINUOUS
 10
517.8685287935
 20
104.4978541543
 11
517.8667995902
 21
104.8688451657
  0
LINE
  5
734
100
AcDbEntity
  8
0
100
AcDbLine
 62
7
  6
CONTINUOUS
 10
517.8667995902
 20
104.8688451657
 11
517.8657849116
 21
105.0840972327
  0
LINE
  5
735
100
AcDbEntity
  8
0
100
AcDbLine
 62
7
  6
CONTINUOUS
 10
517.8657849116
 20
105.0840972327
 11
517.8640933954
 21
105.4389913991
  0
LINE
  5
736
100
AcDbEntity
  8
0
100
AcDbLine
 62
7
  6
CONTINUOUS
 10
517.8640933954
 20
105.4389913991
 11
517.8638319179
 21
105.4934173779
  0
LINE
  5
737
100
AcDbEntity
  8
0
100
AcDbLine
 62
7
  6
CONTINUOUS
 10
517.8638319179
 20
105.4934173779
 11
517.8611091139
 21
106.0533908012
  0
LINE
  5
738
100
AcDbEntity
  8
0
100
AcDbLine
 62
7
  6
CONTINUOUS
 10
517.8611091139
 20
106.0533908012
 11
517.8597534497
 21
106.3276747852
  0
LINE
  5
739
100
AcDbEntity
  8
0
100
AcDbLine
 62
7
  6
CONTINUOUS
 10
517.8597534497
 20
106.3276747852
 11
517.8554618276
 21
107.1768086138
  0
LINE
  5
73A
100
AcDbEntity
  8
0
100
AcDbLine
 62
7
  6
CONTINUOUS
 10
517.8554618276
 20
107.1768086138
 11
517.8446311226
 21
109.197943387
  0
LINE
  5
73B
100
AcDbEntity
  8
0
100
AcDbLine
 62
7
  6
CONTINUOUS
 10
519.1597994325
 20
131.6321962998
 11
519.156386707
 21
132.0419916927
  0
LINE
  5
73C
100
AcDbEntity
  8
0
100
AcDbLine
 62
7
  6
CONTINUOUS
 10
519.3540835482
 20
137.3223561041
 11
519.3960953808
 21
138.4431153375
  0
LINE
  5
73D
100
AcDbEntity
  8
0
100
AcDbLine
 62
7
  6
CONTINUOUS
 10
519.3960953808
 20
138.4431153375
 11
519.4073696001
 21
138.7439129261
  0
LINE
  5
73E
100
AcDbEntity
  8
0
100
AcDbLine
 62
7
  6
CONTINUOUS
 10
519.4073696001
 20
138.7439129261
 11
519.4606288338
 21
140.1653382508
  0
LINE
  5
73F
100
AcDbEntity
  8
0
100
AcDbLine
 62
7
  6
CONTINUOUS
 10
519.4606288338
 20
140.1653382508
 11
519.4790667236
 21
140.6576839756
  0
LINE
  5
740
100
AcDbEntity
  8
0
100
AcDbLine
 62
7
  6
CONTINUOUS
 10
519.4790667236
 20
140.6576839756
 11
519.5138358256
 21
141.5866336498
  0
LINE
  5
741
100
AcDbEntity
  8
0
100
AcDbLine
 62
7
  6
CONTINUOUS
 10
519.5138358256
 20
141.5866336498
 11
519.52467502
 21
141.8763926211
  0
LINE
  5
742
100
AcDbEntity
  8
0
100
AcDbLine
 62
7
  6
CONTINUOUS
 10
519.52467502
 20
141.8763926211
 11
519.5523818003
 21
142.6174714989
  0
LINE
  5
743
100
AcDbEntity
  8
0
100
AcDbLine
 62
7
  6
CONTINUOUS
 10
519.5523818003
 20
142.6174714989
 11
519.5669653196
 21
143.0077997795
  0
SPLINE
  5
744
100
AcDbEntity
  8
0
100
AcDbSpline
 62
7
  6
CONTINUOUS
 70
0
 71
3
 72
8
 73
4
 74
0
 42
0.0000001
 43
0.0000001
 44
0.0000000001
 40
0.0
 40
0.0
 40
0.0
 40
0.0
 40
1.0
 40
1.0
 40
1.0
 40
1.0
 10
519.5325807709
 20
144.681184193
 30
0.0
 10
519.5491915931
 20
144.9780300891
 30
0.0
 10
519.5655318891
 20
145.2748912383
 30
0.0
 10
519.5816112344
 20
145.5717663974
 30
0.0
  0
SPLINE
  5
745
100
AcDbEntity
  8
0
100
AcDbSpline
 62
7
  6
CONTINUOUS
 70
0
 71
3
 72
8
 73
4
 74
0
 42
0.0000001
 43
0.0000001
 44
0.0000000001
 40
0.0
 40
0.0
 40
0.0
 40
0.0
 40
1.0
 40
1.0
 40
1.0
 40
1.0
 10
519.4809754407
 20
143.6266699106
 30
0.0
 10
519.4983225859
 20
143.9781675273
 30
0.0
 10
519.5155244259
 20
144.3296723453
 30
0.0
 10
519.5325807709
 20
144.681184193
 30
0.0
  0
LINE
  5
746
100
AcDbEntity
  8
0
100
AcDbLine
 62
7
  6
CONTINUOUS
 10
519.401612594
 20
141.8809942966
 11
519.4809754407
 21
143.6266699106
  0
LINE
  5
747
100
AcDbEntity
  8
0
100
AcDbLine
 62
7
  6
CONTINUOUS
 10
519.3483610706
 20
140.6625758238
 11
519.401612594
 21
141.8809942966
  0
LINE
  5
748
100
AcDbEntity
  8
0
100
AcDbLine
 62
7
  6
CONTINUOUS
 10
519.2556202534
 20
138.4483809433
 11
519.3483610706
 21
140.6625758238
  0
SPLINE
  5
749
100
AcDbEntity
  8
0
100
AcDbSpline
 62
7
  6
CONTINUOUS
 70
0
 71
3
 72
8
 73
4
 74
0
 42
0.0000001
 43
0.0000001
 44
0.0000000001
 40
0.0
 40
0.0
 40
0.0
 40
0.0
 40
1.0
 40
1.0
 40
1.0
 40
1.0
 10
519.2038958053
 20
137.0660303925
 30
0.0
 10
519.2209923329
 20
137.5268193105
 30
0.0
 10
519.2382338977
 20
137.98760287
 30
0.0
 10
519.2556202534
 20
138.4483809433
 30
0.0
  0
SPLINE
  5
74A
100
AcDbEntity
  8
0
100
AcDbSpline
 62
7
  6
CONTINUOUS
 70
0
 71
3
 72
8
 73
4
 74
0
 42
0.0000001
 43
0.0000001
 44
0.0000000001
 40
0.0
 40
0.0
 40
0.0
 40
0.0
 40
1.0
 40
1.0
 40
1.0
 40
1.0
 10
519.1546435912
 20
135.5197756513
 30
0.0
 10
519.1707959478
 20
136.0352022726
 30
0.0
 10
519.1872101504
 20
136.5506207598
 30
0.0
 10
519.2038958053
 20
137.0660303925
 30
0.0
  0
LINE
  5
74B
100
AcDbEntity
  8
0
100
AcDbLine
 62
7
  6
CONTINUOUS
 10
519.1450610669
 20
134.8873382506
 11
519.1546435912
 21
135.5197756513
  0
LINE
  5
74C
100
AcDbEntity
  8
0
100
AcDbLine
 62
7
  6
CONTINUOUS
 10
519.4863750266
 20
142.6199396835
 11
519.5067162411
 21
143.324372754
  0
LINE
  5
74D
100
AcDbEntity
  8
0
100
AcDbLine
 62
7
  6
CONTINUOUS
 10
519.156386707
 20
132.0419916927
 11
519.2272576668
 21
134.4794460697
  0
LINE
  5
74E
100
AcDbEntity
  8
0
100
AcDbLine
 62
7
  6
CONTINUOUS
 10
519.2272576668
 20
134.4794460697
 11
519.2393230844
 21
134.8845254016
  0
LINE
  5
74F
100
AcDbEntity
  8
0
100
AcDbLine
 62
7
  6
CONTINUOUS
 10
519.2393230844
 20
134.8845254016
 11
519.2583189829
 21
135.5166829443
  0
LINE
  5
750
100
AcDbEntity
  8
0
100
AcDbLine
 62
7
  6
CONTINUOUS
 10
519.2583189829
 20
135.5166829443
 11
519.2632037858
 21
135.6781499205
  0
LINE
  5
751
100
AcDbEntity
  8
0
100
AcDbLine
 62
7
  6
CONTINUOUS
 10
519.2632037858
 20
135.6781499205
 11
519.3056512413
 21
137.0628997868
  0
LINE
  5
752
100
AcDbEntity
  8
0
100
AcDbLine
 62
7
  6
CONTINUOUS
 10
519.3056512413
 20
137.0628997868
 11
519.3178501704
 21
137.4549092317
  0
LINE
  5
753
100
AcDbEntity
  8
0
100
AcDbLine
 62
7
  6
CONTINUOUS
 10
519.3178501704
 20
137.4549092317
 11
519.3490378372
 21
138.4454192061
  0
SPLINE
  5
754
100
AcDbEntity
  8
0
100
AcDbSpline
 62
7
  6
CONTINUOUS
 70
0
 71
3
 72
8
 73
4
 74
0
 42
0.0000001
 43
0.0000001
 44
0.0000000001
 40
0.0
 40
0.0
 40
0.0
 40
0.0
 40
1.0
 40
1.0
 40
1.0
 40
1.0
 10
519.3490378372
 20
138.4454192061
 30
0.0
 10
519.3724794594
 20
139.1836988157
 30
0.0
 10
519.3963608225
 20
139.9219646028
 30
0.0
 10
519.4206965005
 20
140.6602152827
 30
0.0
  0
LINE
  5
755
100
AcDbEntity
  8
0
100
AcDbLine
 62
7
  6
CONTINUOUS
 10
519.4206965005
 20
140.6602152827
 11
519.4294709474
 21
140.9258022759
  0
LINE
  5
756
100
AcDbEntity
  8
0
100
AcDbLine
 62
7
  6
CONTINUOUS
 10
519.4294709474
 20
140.9258022759
 11
519.4612876477
 21
141.8789878691
  0
LINE
  5
757
100
AcDbEntity
  8
0
100
AcDbLine
 62
7
  6
CONTINUOUS
 10
519.4612876477
 20
141.8789878691
 11
519.4863750266
 21
142.6199396835
  0
LINE
  5
758
100
AcDbEntity
  8
0
100
AcDbLine
 62
7
  6
CONTINUOUS
 10
519.734754088
 20
148.0519652317
 11
519.7549464608
 21
148.8200473251
  0
LINE
  5
759
100
AcDbEntity
  8
0
100
AcDbLine
 62
7
  6
CONTINUOUS
 10
519.7369611308
 20
147.967674422
 11
519.734754088
 21
148.0519652317
  0
LINE
  5
75A
100
AcDbEntity
  8
0
100
AcDbLine
 62
7
  6
CONTINUOUS
 10
520.160616625
 20
159.5124881845
 11
520.1466755285
 21
159.1442528166
  0
LINE
  5
75B
100
AcDbEntity
  8
0
100
AcDbLine
 62
7
  6
CONTINUOUS
 10
520.1466755285
 20
159.1442528166
 11
520.13973012
 21
158.9588172407
  0
LINE
  5
75C
100
AcDbEntity
  8
0
100
AcDbLine
 62
7
  6
CONTINUOUS
 10
520.13973012
 20
158.9588172407
 11
520.1328017781
 21
158.772503067
  0
LINE
  5
75D
100
AcDbEntity
  8
0
100
AcDbLine
 62
7
  6
CONTINUOUS
 10
520.1630252281
 20
159.5967789941
 11
520.160616625
 21
159.5124881845
  0
SPLINE
  5
75E
100
AcDbEntity
  8
0
100
AcDbSpline
 62
7
  6
CONTINUOUS
 70
0
 71
3
 72
8
 73
4
 74
0
 42
0.0000001
 43
0.0000001
 44
0.0000000001
 40
0.0
 40
0.0
 40
0.0
 40
0.0
 40
1.0
 40
1.0
 40
1.0
 40
1.0
 10
520.141345985
 20
159.1096663844
 30
0.0
 10
520.148713751
 20
159.2720309017
 30
0.0
 10
520.1559375577
 20
159.4344020087
 30
0.0
 10
520.1630252281
 20
159.5967789941
 30
0.0
  0
SPLINE
  5
75F
100
AcDbEntity
  8
0
100
AcDbSpline
 62
7
  6
CONTINUOUS
 70
0
 71
3
 72
8
 73
4
 74
0
 42
0.0000001
 43
0.0000001
 44
0.0000000001
 40
0.0
 40
0.0
 40
0.0
 40
0.0
 40
1.0
 40
1.0
 40
1.0
 40
1.0
 10
520.1043916064
 20
158.2525683195
 30
0.0
 10
520.1168597881
 20
158.5382611652
 30
0.0
 10
520.1291765819
 20
158.8239606559
 30
0.0
 10
520.141345985
 20
159.1096663844
 30
0.0
  0
LINE
  5
760
100
AcDbEntity
  8
0
100
AcDbLine
 62
7
  6
CONTINUOUS
 10
520.0400301884
 20
156.7678728834
 11
520.0562267825
 21
157.1380443779
  0
SPLINE
  5
761
100
AcDbEntity
  8
0
100
AcDbSpline
 62
7
  6
CONTINUOUS
 70
0
 71
3
 72
8
 73
4
 74
0
 42
0.0000001
 43
0.0000001
 44
0.0000000001
 40
0.0
 40
0.0
 40
0.0
 40
0.0
 40
1.0
 40
1.0
 40
1.0
 40
1.0
 10
520.0562267825
 20
157.1380443779
 30
0.0
 10
520.0724315634
 20
157.5095458528
 30
0.0
 10
520.0884861615
 20
157.8810539085
 30
0.0
 10
520.1043916064
 20
158.2525683195
 30
0.0
  0
LINE
  5
762
100
AcDbEntity
  8
0
100
AcDbLine
 62
7
  6
CONTINUOUS
 10
519.9738523819
 20
155.2269979385
 11
520.0400301884
 21
156.7678728834
  0
LINE
  5
763
100
AcDbEntity
  8
0
100
AcDbLine
 62
7
  6
CONTINUOUS
 10
519.9205994782
 20
153.9718031961
 11
519.9738523819
 21
155.2269979385
  0
LINE
  5
764
100
AcDbEntity
  8
0
100
AcDbLine
 62
7
  6
CONTINUOUS
 10
519.8544216914
 20
152.3747343782
 11
519.9205994782
 21
153.9718031961
  0
SPLINE
  5
765
100
AcDbEntity
  8
0
100
AcDbSpline
 62
7
  6
CONTINUOUS
 70
0
 71
3
 72
8
 73
4
 74
0
 42
0.0000001
 43
0.0000001
 44
0.0000000001
 40
0.0
 40
0.0
 40
0.0
 40
0.0
 40
1.0
 40
1.0
 40
1.0
 40
1.0
 10
519.7900603286
 20
150.7214573227
 30
0.0
 10
519.811248525
 20
151.2725599498
 30
0.0
 10
519.8327015226
 20
151.8236524609
 30
0.0
 10
519.8544216914
 20
152.3747343782
 30
0.0
  0
SPLINE
  5
766
100
AcDbEntity
  8
0
100
AcDbSpline
 62
7
  6
CONTINUOUS
 70
0
 71
3
 72
8
 73
4
 74
0
 42
0.0000001
 43
0.0000001
 44
0.0000000001
 40
0.0
 40
0.0
 40
0.0
 40
0.0
 40
1.0
 40
1.0
 40
1.0
 40
1.0
 10
519.7531060031
 20
149.6957776384
 30
0.0
 10
519.7652753068
 20
150.0376761954
 30
0.0
 10
519.7775920792
 20
150.379569537
 30
0.0
 10
519.7900603286
 20
150.7214573227
 30
0.0
  0
SPLINE
  5
767
100
AcDbEntity
  8
0
100
AcDbSpline
 62
7
  6
CONTINUOUS
 70
0
 71
3
 72
8
 73
4
 74
0
 42
0.0000001
 43
0.0000001
 44
0.0000000001
 40
0.0
 40
0.0
 40
0.0
 40
0.0
 40
1.0
 40
1.0
 40
1.0
 40
1.0
 10
519.7314268412
 20
148.9276955056
 30
0.0
 10
519.7385143256
 20
149.1837267661
 30
0.0
 10
519.7457380925
 20
149.4397542945
 30
0.0
 10
519.7531060031
 20
149.6957776384
 30
0.0
  0
LINE
  5
768
100
AcDbEntity
  8
0
100
AcDbLine
 62
7
  6
CONTINUOUS
 10
519.7338354895
 20
148.843404696
 11
519.7314268412
 21
148.9276955056
  0
SPLINE
  5
769
100
AcDbEntity
  8
BEZUGSACHSEN
100
AcDbSpline
 62
7
  6
CONTINUOUS
 70
0
 71
3
 72
18
 73
14
 74
0
 42
0.0000001
 43
0.0000001
 44
0.0000000001
 40
0.0
 40
0.0
 40
0.0
 40
0.0
 40
0.2276603352
 40
0.4283954812
 40
0.6005587482
 40
0.7430184146
 40
0.854831272
 40
0.8990155646
 40
0.9352762704
 40
0.9635370821
 40
0.9837573228
 40
0.9959135765
 40
1.0
 40
1.0
 40
1.0
 40
1.0
 10
520.8804089317
 20
396.3281239219
 30
0.0
 10
520.8804089317
 20
396.4080606025
 30
0.0
 10
520.8800813178
 20
396.5584814078
 30
0.0
 10
520.878950857
 20
396.769342962
 30
0.0
 10
520.8777535414
 20
396.9503081667
 30
0.0
 10
520.8768427326
 20
397.0999936797
 30
0.0
 10
520.8764011259
 20
397.2048872727
 30
0.0
 10
520.8765664141
 20
397.2722413263
 30
0.0
 10
520.8765090921
 20
397.3107309311
 30
0.0
 10
520.8774348099
 20
397.3396536765
 30
0.0
 10
520.8764724614
 20
397.3628243963
 30
0.0
 10
520.8793506214
 20
397.3723078517
 30
0.0
 10
520.8772312455
 20
397.3814448316
 30
0.0
 10
520.878665916
 20
397.3814230719
 30
0.0
  0
SPLINE
  5
76A
100
AcDbEntity
  8
0
100
AcDbSpline
 62
7
  6
CONTINUOUS
 70
0
 71
3
 72
14
 73
10
 74
0
 42
0.0000001
 43
0.0000001
 44
0.0000000001
 40
0.0
 40
0.0
 40
0.0
 40
0.0
 40
0.0133303125
 40
0.0604371818
 40
0.141036351
 40
0.2541912784
 40
0.3984828886
 40
0.5723277837
 40
1.0
 40
1.0
 40
1.0
 40
1.0
 10
463.4622395496
 20
25.7860390219
 30
0.0
 10
463.4643190709
 20
25.7840085705
 30
0.0
 10
463.4601659059
 20
25.8104953548
 30
0.0
 10
463.4597437863
 20
25.8269458929
 30
0.0
 10
463.4503119715
 20
25.8872587018
 30
0.0
 10
463.4400525721
 20
25.9564149478
 30
0.0
 10
463.4249629356
 20
26.0507063191
 30
0.0
 10
463.3989785953
 20
26.2105294567
 30
0.0
 10
463.3772368795
 20
26.3401735542
 30
0.0
 10
463.3616836809
 20
26.4321122806
 30
0.0
  0
SPLINE
  5
76B
100
AcDbEntity
  8
0
100
AcDbSpline
 62
7
  6
CONTINUOUS
 70
0
 71
3
 72
8
 73
4
 74
0
 42
0.0000001
 43
0.0000001
 44
0.0000000001
 40
0.0
 40
0.0
 40
0.0
 40
0.0
 40
1.0
 40
1.0
 40
1.0
 40
1.0
 10
463.1247170296
 20
27.7860745155
 30
0.0
 10
461.8267364788
 20
35.0136653683
 30
0.0
 10
460.5291957238
 20
42.2413352399
 30
0.0
 10
459.2323975946
 20
49.4691383403
 30
0.0
  0
LINE
  5
76C
100
AcDbEntity
  8
0
100
AcDbLine
 62
7
  6
CONTINUOUS
 10
450.9964278878
 20
125.0737576494
 11
450.9925036891
 21
124.9708666874
  0
SPLINE
  5
76D
100
AcDbEntity
  8
0
100
AcDbSpline
 62
7
  6
CONTINUOUS
 70
0
 71
3
 72
49
 73
45
 74
0
 42
0.0000001
 43
0.0000001
 44
0.0000000001
 40
0.0
 40
0.0
 40
0.0
 40
0.0
 40
0.0964402554
 40
0.1834383715
 40
0.2226347278
 40
0.2585950081
 40
0.2910713723
 40
0.3198411039
 40
0.3447081227
 40
0.3655049598
 40
0.3820958036
 40
0.3887821785
 40
0.3943843891
 40
0.3988999592
 40
0.402333726
 40
0.4036525588
 40
0.4047147684
 40
0.4055357511
 40
0.406150065
 40
0.4066392195
 40
0.4071488908
 40
0.4078111995
 40
0.4086919536
 40
0.4098192297
 40
0.411205838
 40
0.414778443
 40
0.4194337162
 40
0.4251762959
 40
0.4320018613
 40
0.4399028486
 40
0.4488678635
 40
0.4588826174
 40
0.4699316004
 40
0.4819959055
 40
0.5090884652
 40
0.5399763685
 40
0.574448195
 40
0.612267052
 40
0.6531720655
 40
0.6968806642
 40
0.7430908412
 40
0.7914832005
 40
0.8934623511
 40
1.0
 40
1.0
 40
1.0
 40
1.0
 10
450.9925036891
 20
124.9708666874
 30
0.0
 10
450.8087892179
 20
120.1550615132
 30
0.0
 10
450.448236771
 20
110.9953684966
 30
0.0
 10
449.965307804
 20
99.8802994846
 30
0.0
 10
449.5718986028
 20
91.7866456213
 30
0.0
 10
449.2875169539
 20
86.415517076
 30
0.0
 10
449.0036545537
 20
81.5661900219
 30
0.0
 10
448.7204508963
 20
77.2722360622
 30
0.0
 10
448.4384886839
 20
73.5632348298
 30
0.0
 10
448.1579097254
 20
70.4648438434
 30
0.0
 10
447.912821151
 20
68.2756464036
 30
0.0
 10
447.7093518827
 20
66.8468117112
 30
0.0
 10
447.568730537
 20
66.0187248772
 30
0.0
 10
447.429013804
 20
65.356013662
 30
0.0
 10
447.3062386413
 20
64.9086053853
 30
0.0
 10
447.2030009735
 20
64.6367687768
 30
0.0
 10
447.1327893128
 20
64.4925274115
 30
0.0
 10
447.0624069534
 20
64.388938382
 30
0.0
 10
446.9898418807
 20
64.3228710346
 30
0.0
 10
446.9070513436
 20
64.3018275997
 30
0.0
 10
446.8267776004
 20
64.3364136865
 30
0.0
 10
446.7555975718
 20
64.4118538418
 30
0.0
 10
446.68520007
 20
64.5258241251
 30
0.0
 10
446.6149777411
 20
64.6805566538
 30
0.0
 10
446.512022197
 20
64.9669752254
 30
0.0
 10
446.389208912
 20
65.4321735014
 30
0.0
 10
446.2492924208
 20
66.116240822
 30
0.0
 10
446.1086036239
 20
66.9655359995
 30
0.0
 10
445.9670991536
 20
67.978642849
 30
0.0
 10
445.825210161
 20
69.154080813
 30
0.0
 10
445.6830114612
 20
70.4898489496
 30
0.0
 10
445.5406000056
 20
71.9836960774
 30
0.0
 10
445.3980385412
 20
73.633036618
 30
0.0
 10
445.2000556386
 20
76.1341144798
 30
0.0
 10
444.9559397872
 20
79.6259349388
 30
0.0
 10
444.6722955975
 20
84.2372751077
 30
0.0
 10
444.3881355367
 20
89.3855018538
 30
0.0
 10
444.1035629985
 20
95.0349656019
 30
0.0
 10
443.8187095338
 20
101.146532016
 30
0.0
 10
443.5336457449
 20
107.6778419439
 30
0.0
 10
443.2484181478
 20
114.5836368818
 30
0.0
 10
442.8611854299
 20
124.3995772923
 30
0.0
 10
442.382951525
 20
137.2289321837
 30
0.0
 10
442.0108723893
 20
147.642279751
 30
0.0
 10
441.822133546
 20
152.9628277673
 30
0.0
  0
LINE
  5
76E
100
AcDbEntity
  8
0
100
AcDbLine
 62
7
  6
CONTINUOUS
 10
441.822133546
 20
152.9628277673
 11
441.8099651993
 21
153.3059074902
  0
LINE
  5
76F
100
AcDbEntity
  8
0
100
AcDbLine
 62
7
  6
CONTINUOUS
 10
441.8099651993
 20
153.3059074902
 11
441.6368060079
 21
158.1973747413
  0
LINE
  5
770
100
AcDbEntity
  8
0
100
AcDbLine
 62
7
  6
CONTINUOUS
 10
441.6368060079
 20
158.1973747413
 11
441.5989142383
 21
159.2693726094
  0
LINE
  5
771
100
AcDbEntity
  8
0
100
AcDbLine
 62
7
  6
CONTINUOUS
 10
441.5989142383
 20
159.2693726094
 11
441.512658977
 21
161.7105208504
  0
LINE
  5
772
100
AcDbEntity
  8
0
100
AcDbLine
 62
7
  6
CONTINUOUS
 10
512.2002207781
 20
102.9823734947
 11
512.3594981972
 21
100.5638156036
  0
LINE
  5
773
100
AcDbEntity
  8
0
100
AcDbLine
 62
7
  6
CONTINUOUS
 10
512.3594981972
 20
100.5638156036
 11
512.360941116
 21
100.5419488801
  0
LINE
  5
774
100
AcDbEntity
  8
0
100
AcDbLine
 62
7
  6
CONTINUOUS
 10
512.360941116
 20
100.5419488801
 11
512.5192798205
 21
98.1436805985
  0
SPLINE
  5
775
100
AcDbEntity
  8
0
100
AcDbSpline
 62
7
  6
CONTINUOUS
 70
0
 71
3
 72
8
 73
4
 74
0
 42
0.0000001
 43
0.0000001
 44
0.0000000001
 40
0.0
 40
0.0
 40
0.0
 40
0.0
 40
1.0
 40
1.0
 40
1.0
 40
1.0
 10
512.2958762865
 20
95.346086357
 30
0.0
 10
512.2988885112
 20
94.019112823
 30
0.0
 10
512.3017277802
 20
92.6921388884
 30
0.0
 10
512.3044208854
 20
91.3651646683
 30
0.0
  0
LINE
  5
776
100
AcDbEntity
  8
0
100
AcDbLine
 62
7
  6
CONTINUOUS
 10
512.3044208854
 20
91.3651646683
 11
512.3068362141
 21
90.1553596013
  0
LINE
  5
777
100
AcDbEntity
  8
0
100
AcDbLine
 62
7
  6
CONTINUOUS
 10
512.2924359281
 20
96.8291509465
 11
512.3008051795
 21
96.6921134619
  0
LINE
  5
778
100
AcDbEntity
  8
0
100
AcDbLine
 62
7
  6
CONTINUOUS
 10
512.3008051795
 20
96.6921134619
 11
512.3704668388
 21
95.5524667196
  0
LINE
  5
779
100
AcDbEntity
  8
0
100
AcDbLine
 62
7
  6
CONTINUOUS
 10
512.3704668388
 20
95.5524667196
 11
512.4095234597
 21
94.9140526567
  0
LINE
  5
77A
100
AcDbEntity
  8
0
100
AcDbLine
 62
7
  6
CONTINUOUS
 10
512.4095234597
 20
94.9140526567
 11
512.5267376043
 21
92.9985192627
  0
SPLINE
  5
77B
100
AcDbEntity
  8
0
100
AcDbSpline
 62
7
  6
CONTINUOUS
 70
0
 71
3
 72
8
 73
4
 74
0
 42
0.0000001
 43
0.0000001
 44
0.0000000001
 40
0.0
 40
0.0
 40
0.0
 40
0.0
 40
1.0
 40
1.0
 40
1.0
 40
1.0
 10
512.2831368274
 20
100.5368131127
 30
0.0
 10
512.2864162493
 20
99.3009261878
 30
0.0
 10
512.2895061075
 20
98.0650387497
 30
0.0
 10
512.2924359281
 20
96.8291509465
 30
0.0
  0
SPLINE
  5
77C
100
AcDbEntity
  8
0
100
AcDbSpline
 62
7
  6
CONTINUOUS
 70
0
 71
3
 72
10
 73
6
 74
0
 42
0.0000001
 43
0.0000001
 44
0.0000000001
 40
0.0
 40
0.0
 40
0.0
 40
0.0
 40
0.2278478877
 40
0.4689565149
 40
1.0
 40
1.0
 40
1.0
 40
1.0
 10
439.3821657915
 20
203.0083704377
 30
0.0
 10
439.4587514153
 20
202.7346657771
 30
0.0
 10
439.6881642514
 20
202.1893094924
 30
0.0
 10
440.4227283443
 20
201.1713622512
 30
0.0
 10
441.2241659437
 20
200.5861259143
 30
0.0
 10
441.8107034892
 20
200.2782639434
 30
0.0
  0
LINE
  5
77D
100
AcDbEntity
  8
0
100
AcDbLine
 62
7
  6
CONTINUOUS
 10
519.208669313
 20
136.4103578557
 11
519.1768455976
 21
135.6487573298
  0
LINE
  5
77E
100
AcDbEntity
  8
0
100
AcDbLine
 62
7
  6
CONTINUOUS
 10
519.1768455976
 20
135.6487573298
 11
519.1609480999
 21
135.2680251224
  0
LINE
  5
77F
100
AcDbEntity
  8
0
100
AcDbLine
 62
7
  6
CONTINUOUS
 10
519.1609480999
 20
135.2680251224
 11
519.1450610669
 21
134.8873382506
  0
LINE
  5
780
100
AcDbEntity
  8
0
100
AcDbLine
 62
7
  6
CONTINUOUS
 10
519.2326806051
 20
137.2654512653
 11
519.2206525989
 21
136.8396117288
  0
LINE
  5
781
100
AcDbEntity
  8
0
100
AcDbLine
 62
7
  6
CONTINUOUS
 10
519.2206525989
 20
136.8396117288
 11
519.2146552918
 21
136.6254115854
  0
LINE
  5
782
100
AcDbEntity
  8
0
100
AcDbLine
 62
7
  6
CONTINUOUS
 10
519.2146552918
 20
136.6254115854
 11
519.208669313
 21
136.4103578557
  0
LINE
  5
783
100
AcDbEntity
  8
0
100
AcDbLine
 62
7
  6
CONTINUOUS
 10
519.2706603234
 20
138.3431867401
 11
519.2611282273
 21
138.0743223574
  0
LINE
  5
784
100
AcDbEntity
  8
0
100
AcDbLine
 62
7
  6
CONTINUOUS
 10
519.2611282273
 20
138.0743223574
 11
519.2421382926
 21
137.5354546224
  0
LINE
  5
785
100
AcDbEntity
  8
0
100
AcDbLine
 62
7
  6
CONTINUOUS
 10
519.2421382926
 20
137.5354546224
 11
519.2326806051
 21
137.2654512653
  0
LINE
  5
786
100
AcDbEntity
  8
0
100
AcDbLine
 62
7
  6
CONTINUOUS
 10
519.3355643891
 20
139.948179356
 11
519.2868274153
 21
138.7442453562
  0
LINE
  5
787
100
AcDbEntity
  8
0
100
AcDbLine
 62
7
  6
CONTINUOUS
 10
519.2868274153
 20
138.7442453562
 11
519.2748661755
 21
138.4476051056
  0
LINE
  5
788
100
AcDbEntity
  8
0
100
AcDbLine
 62
7
  6
CONTINUOUS
 10
519.2748661755
 20
138.4476051056
 11
519.2706603234
 21
138.3431867401
  0
LINE
  5
789
100
AcDbEntity
  8
0
100
AcDbLine
 62
7
  6
CONTINUOUS
 10
519.387785088
 20
141.1665978288
 11
519.3616747913
 21
140.5573898388
  0
LINE
  5
78A
100
AcDbEntity
  8
0
100
AcDbLine
 62
7
  6
CONTINUOUS
 10
519.3616747913
 20
140.5573898388
 11
519.3486194158
 21
140.2527849165
  0
LINE
  5
78B
100
AcDbEntity
  8
0
100
AcDbLine
 62
7
  6
CONTINUOUS
 10
519.3486194158
 20
140.2527849165
 11
519.3355643891
 21
139.948179356
  0
LINE
  5
78C
100
AcDbEntity
  8
0
100
AcDbLine
 62
7
  6
CONTINUOUS
 10
519.4526892613
 20
142.6076723106
 11
519.4365223051
 21
142.2475775219
  0
LINE
  5
78D
100
AcDbEntity
  8
0
100
AcDbLine
 62
7
  6
CONTINUOUS
 10
519.4365223051
 20
142.2475775219
 11
519.4040696374
 21
141.5270403021
  0
LINE
  5
78E
100
AcDbEntity
  8
0
100
AcDbLine
 62
7
  6
CONTINUOUS
 10
519.4040696374
 20
141.5270403021
 11
519.387785088
 21
141.1665978288
  0
LINE
  5
78F
100
AcDbEntity
  8
0
100
AcDbLine
 62
7
  6
CONTINUOUS
 10
519.4906691785
 20
143.357571517
 11
519.4526892613
 21
142.6076723106
  0
LINE
  5
790
100
AcDbEntity
  8
0
100
AcDbLine
 62
7
  6
CONTINUOUS
 10
519.5146801691
 20
143.7208965802
 11
519.4966885252
 21
143.4478573135
  0
LINE
  5
791
100
AcDbEntity
  8
0
100
AcDbLine
 62
7
  6
CONTINUOUS
 10
519.4966885252
 20
143.4478573135
 11
519.4906691785
 21
143.357571517
  0
LINE
  5
792
100
AcDbEntity
  8
0
100
AcDbLine
 62
7
  6
CONTINUOUS
 10
512.5267376043
 20
92.9985192627
 11
512.5641334024
 21
92.6408600822
  0
LINE
  5
793
100
AcDbEntity
  8
0
100
AcDbLine
 62
7
  6
CONTINUOUS
 10
513.2910713632
 20
88.251367208
 11
513.2873611828
 21
87.1351221863
  0
LINE
  5
794
100
AcDbEntity
  8
0
100
AcDbLine
 62
7
  6
CONTINUOUS
 10
513.2873611828
 20
87.1351221863
 11
513.2863805274
 21
86.8341896414
  0
SPLINE
  5
795
100
AcDbEntity
  8
0
100
AcDbSpline
 62
7
  6
CONTINUOUS
 70
0
 71
3
 72
8
 73
4
 74
0
 42
0.0000001
 43
0.0000001
 44
0.0000000001
 40
0.0
 40
0.0
 40
0.0
 40
0.0
 40
1.0
 40
1.0
 40
1.0
 40
1.0
 10
513.2863805274
 20
86.8341896414
 30
0.0
 10
513.2795704946
 20
84.7356731614
 30
0.0
 10
513.2733488831
 20
82.6371547233
 30
0.0
 10
513.2675851607
 20
80.5386351087
 30
0.0
  0
LINE
  5
796
100
AcDbEntity
  8
0
100
AcDbLine
 62
7
  6
CONTINUOUS
 10
513.2675851607
 20
80.5386351087
 11
513.2650348706
 21
79.5990058126
  0
SPLINE
  5
797
100
AcDbEntity
  8
BEZUGSACHSEN
100
AcDbSpline
 62
7
  6
CONTINUOUS
 70
0
 71
3
 72
11
 73
7
 74
0
 42
0.0000001
 43
0.0000001
 44
0.0000000001
 40
0.0
 40
0.0
 40
0.0
 40
0.0
 40
0.4360844497
 40
0.7485059074
 40
0.9366179162
 40
1.0
 40
1.0
 40
1.0
 40
1.0
 10
440.8804089317
 20
397.3023523526
 30
0.0
 10
440.8804089317
 20
397.3138540285
 30
0.0
 10
440.881031509
 20
397.332881642
 30
0.0
 10
440.8796996886
 20
397.3597576157
 30
0.0
 10
440.8830586312
 20
397.3708766647
 30
0.0
 10
440.8804804416
 20
397.3813975428
 30
0.0
 10
440.8821519417
 20
397.3814230724
 30
0.0
  0
LINE
  5
798
100
AcDbEntity
  8
0
100
AcDbLine
 62
7
  6
CONTINUOUS
 10
519.7634585106
 20
148.4547870908
 11
519.7415894862
 21
148.0515889938
  0
LINE
  5
799
100
AcDbEntity
  8
0
100
AcDbLine
 62
7
  6
CONTINUOUS
 10
519.7415894862
 20
148.0515889938
 11
519.7369611308
 21
147.967674422
  0
LINE
  5
79A
100
AcDbEntity
  8
0
100
AcDbLine
 62
7
  6
CONTINUOUS
 10
519.7993782147
 20
149.3118851459
 11
519.7814605973
 21
148.8822696394
  0
LINE
  5
79B
100
AcDbEntity
  8
0
100
AcDbLine
 62
7
  6
CONTINUOUS
 10
519.7814605973
 20
148.8822696394
 11
519.7724700467
 21
148.6682617465
  0
LINE
  5
79C
100
AcDbEntity
  8
0
100
AcDbLine
 62
7
  6
CONTINUOUS
 10
519.7724700467
 20
148.6682617465
 11
519.7634585106
 21
148.4547870908
  0
LINE
  5
79D
100
AcDbEntity
  8
0
100
AcDbLine
 62
7
  6
CONTINUOUS
 10
519.8081708514
 20
149.5361552783
 11
519.7993782147
 21
149.3118851459
  0
SPLINE
  5
79E
100
AcDbEntity
  8
0
100
AcDbSpline
 62
7
  6
CONTINUOUS
 70
0
 71
3
 72
15
 73
11
 74
0
 42
0.0000001
 43
0.0000001
 44
0.0000000001
 40
0.0
 40
0.0
 40
0.0
 40
0.0
 40
0.0320194651
 40
0.0554731281
 40
0.0852595978
 40
0.1653533578
 40
0.2739948171
 40
0.4117214899
 40
0.5786847996
 40
1.0
 40
1.0
 40
1.0
 40
1.0
 10
457.3799567493
 20
60.8097629501
 30
0.0
 10
457.4146704008
 20
60.8097524141
 30
0.0
 10
457.4707081905
 20
60.8495637901
 30
0.0
 10
457.5223578234
 20
60.9245051169
 30
0.0
 10
457.5891189197
 20
61.053879156
 30
0.0
 10
457.6650985429
 20
61.2787122744
 30
0.0
 10
457.7511093814
 20
61.6222710536
 30
0.0
 10
457.836031711
 20
62.062411624
 30
0.0
 10
457.9581201746
 20
62.8400714467
 30
0.0
 10
458.032194255
 20
63.4737755828
 30
0.0
 10
458.0801401284
 20
63.9280178013
 30
0.0
  0
LINE
  5
79F
100
AcDbEntity
  8
0
100
AcDbLine
 62
7
  6
CONTINUOUS
 10
519.9135425758
 20
152.337455517
 11
519.8994752455
 21
151.9523926566
  0
LINE
  5
7A0
100
AcDbEntity
  8
0
100
AcDbLine
 62
7
  6
CONTINUOUS
 10
519.8994752455
 20
151.9523926566
 11
519.8712637092
 21
151.1819480168
  0
LINE
  5
7A1
100
AcDbEntity
  8
0
100
AcDbLine
 62
7
  6
CONTINUOUS
 10
519.8712637092
 20
151.1819480168
 11
519.8571203167
 21
150.7965662102
  0
LINE
  5
7A2
100
AcDbEntity
  8
0
100
AcDbLine
 62
7
  6
CONTINUOUS
 10
519.9247701166
 20
152.6512530093
 11
519.9147990717
 21
152.3725740782
  0
LINE
  5
7A3
100
AcDbEntity
  8
0
100
AcDbLine
 62
7
  6
CONTINUOUS
 10
519.9147990717
 20
152.3725740782
 11
519.9135425758
 21
152.337455517
  0
SPLINE
  5
7A4
100
AcDbEntity
  8
0
100
AcDbSpline
 62
7
  6
CONTINUOUS
 70
0
 71
3
 72
9
 73
5
 74
0
 42
0.0000001
 43
0.0000001
 44
0.0000000001
 40
0.0
 40
0.0
 40
0.0
 40
0.0
 40
0.5060993969
 40
1.0
 40
1.0
 40
1.0
 40
1.0
 10
461.2844523159
 20
115.1850213745
 30
0.0
 10
461.5643250233
 20
114.1405222107
 30
0.0
 10
461.9708832394
 20
112.0338606237
 30
0.0
 10
462.0419514852
 20
109.8874768882
 30
0.0
 10
461.9869228914
 20
108.833631778
 30
0.0
  0
SPLINE
  5
7A5
100
AcDbEntity
  8
RUNDUNGEN
100
AcDbSpline
 62
7
  6
CONTINUOUS
 70
0
 71
3
 72
11
 73
7
 74
0
 42
0.0000001
 43
0.0000001
 44
0.0000000001
 40
0.0
 40
0.0
 40
0.0
 40
0.0
 40
0.3834872947
 40
0.6735345366
 40
0.8719911232
 40
1.0
 40
1.0
 40
1.0
 40
1.0
 10
509.4789041903
 20
148.7829529861
 30
0.0
 10
509.5384034717
 20
148.7975725072
 30
0.0
 10
509.6423505629
 20
148.8259050563
 30
0.0
 10
509.7722195168
 20
148.8776607952
 30
0.0
 10
509.8575209163
 20
148.927478399
 30
0.0
 10
509.8878089059
 20
148.9767238031
 30
0.0
 10
509.8878089317
 20
148.9971755382
 30
0.0
  0
LINE
  5
7A6
100
AcDbEntity
  8
0
100
AcDbLine
 62
7
  6
CONTINUOUS
 10
513.2114626271
 20
89.1911972695
 11
513.2910713632
 21
88.251367208
  0
LINE
  5
7A7
100
AcDbEntity
  8
0
100
AcDbLine
 62
7
  6
CONTINUOUS
 10
520.1328017781
 20
158.772503067
 11
520.1230946243
 21
158.5171062856
  0
LINE
  5
7A8
100
AcDbEntity
  8
0
100
AcDbLine
 62
7
  6
CONTINUOUS
 10
520.1230946243
 20
158.5171062856
 11
520.1134119769
 21
158.2610274134
  0
LINE
  5
7A9
100
AcDbEntity
  8
0
100
AcDbLine
 62
7
  6
CONTINUOUS
 10
520.1134119769
 20
158.2610274134
 11
520.1037539984
 21
158.0042664469
  0
LINE
  5
7AA
100
AcDbEntity
  8
0
100
AcDbLine
 62
7
  6
CONTINUOUS
 10
513.0747310933
 20
79.3141354706
 11
513.0977163215
 21
79.1404514274
  0
LINE
  5
7AB
100
AcDbEntity
  8
0
100
AcDbLine
 62
7
  6
CONTINUOUS
 10
513.0977163215
 20
79.1404514274
 11
513.1092407434
 21
79.0535804596
  0
LINE
  5
7AC
100
AcDbEntity
  8
0
100
AcDbLine
 62
7
  6
CONTINUOUS
 10
513.1092407434
 20
79.0535804596
 11
513.1207861025
 21
78.9666901917
  0
LINE
  5
7AD
100
AcDbEntity
  8
0
100
AcDbLine
 62
7
  6
CONTINUOUS
 10
513.0289024079
 20
79.9406891437
 11
513.0403594252
 21
79.784051094
  0
LINE
  5
7AE
100
AcDbEntity
  8
0
100
AcDbLine
 62
7
  6
CONTINUOUS
 10
513.0403594252
 20
79.784051094
 11
513.0731562717
 21
79.33566645
  0
LINE
  5
7AF
100
AcDbEntity
  8
0
100
AcDbLine
 62
7
  6
CONTINUOUS
 10
513.0731562717
 20
79.33566645
 11
513.0747310933
 21
79.3141354706
  0
LINE
  5
7B0
100
AcDbEntity
  8
0
100
AcDbLine
 62
7
  6
CONTINUOUS
 10
512.9828474548
 20
80.8463503148
 11
513.0059173272
 21
80.3934167699
  0
LINE
  5
7B1
100
AcDbEntity
  8
0
100
AcDbLine
 62
7
  6
CONTINUOUS
 10
513.0059173272
 20
80.3934167699
 11
513.017420566
 21
80.1670272194
  0
LINE
  5
7B2
100
AcDbEntity
  8
0
100
AcDbLine
 62
7
  6
CONTINUOUS
 10
513.017420566
 20
80.1670272194
 11
513.0289024079
 21
79.9406891437
  0
LINE
  5
7B3
100
AcDbEntity
  8
0
100
AcDbLine
 62
7
  6
CONTINUOUS
 10
512.9476698399
 20
81.8744823295
 11
512.9828474548
 21
80.8463503148
  0
LINE
  5
7B4
100
AcDbEntity
  8
0
100
AcDbLine
 62
7
  6
CONTINUOUS
 10
512.9232211002
 20
83.0250847971
 11
512.9293440427
 21
82.7391071395
  0
LINE
  5
7B5
100
AcDbEntity
  8
0
100
AcDbLine
 62
7
  6
CONTINUOUS
 10
512.9293440427
 20
82.7391071395
 11
512.941568576
 21
82.1638059092
  0
LINE
  5
7B6
100
AcDbEntity
  8
0
100
AcDbLine
 62
7
  6
CONTINUOUS
 10
512.941568576
 20
82.1638059092
 11
512.9476698399
 21
81.8744823295
  0
LINE
  5
7B7
100
AcDbEntity
  8
0
100
AcDbLine
 62
7
  6
CONTINUOUS
 10
512.9095701974
 20
84.2981561202
 11
512.9130032801
 21
83.9812913956
  0
LINE
  5
7B8
100
AcDbEntity
  8
0
100
AcDbLine
 62
7
  6
CONTINUOUS
 10
512.9130032801
 20
83.9812913956
 11
512.9198287016
 21
83.3447557337
  0
LINE
  5
7B9
100
AcDbEntity
  8
0
100
AcDbLine
 62
7
  6
CONTINUOUS
 10
512.9198287016
 20
83.3447557337
 11
512.9232211002
 21
83.0250847971
  0
SPLINE
  5
7BA
100
AcDbEntity
  8
0
100
AcDbSpline
 62
7
  6
CONTINUOUS
 70
0
 71
3
 72
8
 73
4
 74
0
 42
0.0000001
 43
0.0000001
 44
0.0000000001
 40
0.0
 40
0.0
 40
0.0
 40
0.0
 40
1.0
 40
1.0
 40
1.0
 40
1.0
 10
512.8921704429
 20
92.9505175156
 30
0.0
 10
512.8979721987
 20
90.3797172259
 30
0.0
 10
512.903148027
 20
87.8089154846
 30
0.0
 10
512.9078656979
 20
85.2381129769
 30
0.0
  0
LINE
  5
7BB
100
AcDbEntity
  8
0
100
AcDbLine
 62
7
  6
CONTINUOUS
 10
512.9078656979
 20
85.2381129769
 11
512.9095701974
 21
84.2981561202
  0
LINE
  5
7BC
100
AcDbEntity
  8
0
100
AcDbLine
 62
7
  6
CONTINUOUS
 10
512.8125616785
 20
93.8903480252
 11
512.8258106442
 21
93.7337529529
  0
LINE
  5
7BD
100
AcDbEntity
  8
0
100
AcDbLine
 62
7
  6
CONTINUOUS
 10
512.8258106442
 20
93.7337529529
 11
512.8390677902
 21
93.577140553
  0
LINE
  5
7BE
100
AcDbEntity
  8
0
100
AcDbLine
 62
7
  6
CONTINUOUS
 10
512.8390677902
 20
93.577140553
 11
512.8630631427
 21
93.2938597699
  0
LINE
  5
7BF
100
AcDbEntity
  8
0
100
AcDbLine
 62
7
  6
CONTINUOUS
 10
512.8630631427
 20
93.2938597699
 11
512.8921704429
 21
92.9505175156
  0
LINE
  5
7C0
100
AcDbEntity
  8
0
100
AcDbLine
 62
7
  6
CONTINUOUS
 10
519.7616503917
 20
149.3586143209
 11
519.7384201741
 21
148.9273141262
  0
LINE
  5
7C1
100
AcDbEntity
  8
0
100
AcDbLine
 62
7
  6
CONTINUOUS
 10
519.7384201741
 20
148.9273141262
 11
519.7338354895
 21
148.843404696
  0
LINE
  5
7C2
100
AcDbEntity
  8
0
100
AcDbLine
 62
7
  6
CONTINUOUS
 10
519.8003313607
 20
150.2157123859
 11
519.790697936
 21
150.0005769976
  0
LINE
  5
7C3
100
AcDbEntity
  8
0
100
AcDbLine
 62
7
  6
CONTINUOUS
 10
519.790697936
 20
150.0005769976
 11
519.7713572879
 21
149.5720279681
  0
LINE
  5
7C4
100
AcDbEntity
  8
0
100
AcDbLine
 62
7
  6
CONTINUOUS
 10
519.7713572879
 20
149.5720279681
 11
519.7616503917
 21
149.3586143209
  0
LINE
  5
7C5
100
AcDbEntity
  8
0
100
AcDbLine
 62
7
  6
CONTINUOUS
 10
519.8128019255
 20
150.5154198982
 11
519.8065713974
 21
150.3655554661
  0
LINE
  5
7C6
100
AcDbEntity
  8
0
100
AcDbLine
 62
7
  6
CONTINUOUS
 10
519.8065713974
 20
150.3655554661
 11
519.8003313607
 21
150.2157123859
  0
SPLINE
  5
7C7
100
AcDbEntity
  8
RUNDUNGEN
100
AcDbSpline
 62
7
  6
CONTINUOUS
 70
0
 71
3
 72
9
 73
5
 74
0
 42
0.0000001
 43
0.0000001
 44
0.0000000001
 40
0.0
 40
0.0
 40
0.0
 40
0.0
 40
0.2475619287
 40
1.0
 40
1.0
 40
1.0
 40
1.0
 10
509.8878089317
 20
149.4566360796
 30
0.0
 10
509.8878088973
 20
149.5991244045
 30
0.0
 10
509.9074610504
 20
150.1745864323
 30
0.0
 10
510.0051344642
 20
150.7468711047
 30
0.0
 10
510.1172233148
 20
151.1651923902
 30
0.0
  0
LINE
  5
7C8
100
AcDbEntity
  8
0
100
AcDbLine
 62
7
  6
CONTINUOUS
 10
519.8747981174
 20
151.9861023888
 11
519.8628939201
 21
151.6585769037
  0
LINE
  5
7C9
100
AcDbEntity
  8
0
100
AcDbLine
 62
7
  6
CONTINUOUS
 10
519.8628939201
 20
151.6585769037
 11
519.851026526
 21
151.3308393693
  0
LINE
  5
7CA
100
AcDbEntity
  8
0
100
AcDbLine
 62
7
  6
CONTINUOUS
 10
519.851026526
 20
151.3308393693
 11
519.8391960538
 21
151.0028897818
  0
LINE
  5
7CB
100
AcDbEntity
  8
0
100
AcDbLine
 62
7
  6
CONTINUOUS
 10
519.8391960538
 20
151.0028897818
 11
519.829028973
 21
150.7200568513
  0
LINE
  5
7CC
100
AcDbEntity
  8
0
100
AcDbLine
 62
7
  6
CONTINUOUS
 10
519.9109065125
 20
152.9484574672
 11
519.898844922
 21
152.6276038413
  0
LINE
  5
7CD
100
AcDbEntity
  8
0
100
AcDbLine
 62
7
  6
CONTINUOUS
 10
519.898844922
 20
152.6276038413
 11
519.8868087191
 21
152.3068188178
  0
LINE
  5
7CE
100
AcDbEntity
  8
0
100
AcDbLine
 62
7
  6
CONTINUOUS
 10
519.8868087191
 20
152.3068188178
 11
519.8810974281
 21
152.1543885217
  0
LINE
  5
7CF
100
AcDbEntity
  8
0
100
AcDbLine
 62
7
  6
CONTINUOUS
 10
519.8810974281
 20
152.1543885217
 11
519.8747981174
 21
151.9861023888
  0
LINE
  5
7D0
100
AcDbEntity
  8
0
100
AcDbLine
 62
7
  6
CONTINUOUS
 10
513.2241190467
 20
77.5569450994
 11
513.2121636903
 21
77.4350910361
  0
LINE
  5
7D1
100
AcDbEntity
  8
0
100
AcDbLine
 62
7
  6
CONTINUOUS
 10
513.2121636903
 20
77.4350910361
 11
513.1883639567
 21
77.1901510375
  0
LINE
  5
7D2
100
AcDbEntity
  8
0
100
AcDbLine
 62
7
  6
CONTINUOUS
 10
513.1883639567
 20
77.1901510375
 11
513.1826051526
 21
77.1304029783
  0
LINE
  5
7D3
100
AcDbEntity
  8
0
100
AcDbLine
 62
7
  6
CONTINUOUS
 10
513.1826051526
 20
77.1304029783
 11
513.1765202008
 21
77.0670650977
  0
LINE
  5
7D4
100
AcDbEntity
  8
0
100
AcDbLine
 62
7
  6
CONTINUOUS
 10
513.2497416443
 20
78.3601024836
 11
513.2433149839
 21
78.1606605389
  0
LINE
  5
7D5
100
AcDbEntity
  8
0
100
AcDbLine
 62
7
  6
CONTINUOUS
 10
513.2433149839
 20
78.1606605389
 11
513.2369022035
 21
77.9603203279
  0
LINE
  5
7D6
100
AcDbEntity
  8
0
100
AcDbLine
 62
7
  6
CONTINUOUS
 10
513.2369022035
 20
77.9603203279
 11
513.2265690595
 21
77.6346744873
  0
LINE
  5
7D7
100
AcDbEntity
  8
0
100
AcDbLine
 62
7
  6
CONTINUOUS
 10
513.2265690595
 20
77.6346744873
 11
513.2241190467
 21
77.5569450994
  0
LINE
  5
7D8
100
AcDbEntity
  8
0
100
AcDbLine
 62
7
  6
CONTINUOUS
 10
513.2650348706
 20
79.5990058126
 11
513.2647709818
 21
79.5779861097
  0
LINE
  5
7D9
100
AcDbEntity
  8
0
100
AcDbLine
 62
7
  6
CONTINUOUS
 10
513.2647709818
 20
79.5779861097
 11
513.2611817295
 21
79.2908573699
  0
LINE
  5
7DA
100
AcDbEntity
  8
0
100
AcDbLine
 62
7
  6
CONTINUOUS
 10
513.2611817295
 20
79.2908573699
 11
513.2571431357
 21
78.9650141913
  0
LINE
  5
7DB
100
AcDbEntity
  8
0
100
AcDbLine
 62
7
  6
CONTINUOUS
 10
513.2571431357
 20
78.9650141913
 11
513.2535351956
 21
78.6714057048
  0
LINE
  5
7DC
100
AcDbEntity
  8
0
100
AcDbLine
 62
7
  6
CONTINUOUS
 10
513.2535351956
 20
78.6714057048
 11
513.2497416443
 21
78.3601024836
  0
LINE
  5
7DD
100
AcDbEntity
  8
0
100
AcDbLine
 62
7
  6
CONTINUOUS
 10
520.0252430881
 20
156.3135966972
 11
519.99934888
 21
155.7001941534
  0
LINE
  5
7DE
100
AcDbEntity
  8
0
100
AcDbLine
 62
7
  6
CONTINUOUS
 10
519.99934888
 20
155.7001941534
 11
519.9792908466
 21
155.2267671961
  0
LINE
  5
7DF
100
AcDbEntity
  8
0
100
AcDbLine
 62
7
  6
CONTINUOUS
 10
519.9792908466
 20
155.2267671961
 11
519.9733366078
 21
155.0865132557
  0
LINE
  5
7E0
100
AcDbEntity
  8
0
100
AcDbLine
 62
7
  6
CONTINUOUS
 10
520.0757282253
 20
157.4844862655
 11
520.0631717911
 21
157.1906409869
  0
LINE
  5
7E1
100
AcDbEntity
  8
0
100
AcDbLine
 62
7
  6
CONTINUOUS
 10
520.0631717911
 20
157.1906409869
 11
520.0379289806
 21
156.6051962084
  0
LINE
  5
7E2
100
AcDbEntity
  8
0
100
AcDbLine
 62
7
  6
CONTINUOUS
 10
520.0379289806
 20
156.6051962084
 11
520.0252430881
 21
156.3135966972
  0
LINE
  5
7E3
100
AcDbEntity
  8
0
100
AcDbLine
 62
7
  6
CONTINUOUS
 10
520.099654964
 20
158.0277927483
 11
520.0877136063
 21
157.7550548597
  0
LINE
  5
7E4
100
AcDbEntity
  8
0
100
AcDbLine
 62
7
  6
CONTINUOUS
 10
520.0877136063
 20
157.7550548597
 11
520.0757282253
 21
157.4844862655
  0
LINE
  5
7E5
100
AcDbEntity
  8
0
100
AcDbLine
 62
7
  6
CONTINUOUS
 10
513.3984943389
 20
87.1347546128
 11
513.5045356134
 21
86.2889168811
  0
LINE
  5
7E6
100
AcDbEntity
  8
0
100
AcDbLine
 62
7
  6
CONTINUOUS
 10
513.5045356134
 20
86.2889168811
 11
513.5576994775
 21
85.8658668164
  0
LINE
  5
7E7
100
AcDbEntity
  8
0
100
AcDbLine
 62
7
  6
CONTINUOUS
 10
513.5576994775
 20
85.8658668164
 11
513.703171655
 21
84.7097470097
  0
LINE
  5
7E8
100
AcDbEntity
  8
0
100
AcDbLine
 62
7
  6
CONTINUOUS
 10
513.703171655
 20
84.7097470097
 11
513.7174817356
 21
84.5960270546
  0
LINE
  5
7E9
100
AcDbEntity
  8
0
100
AcDbLine
 62
7
  6
CONTINUOUS
 10
513.7770492882
 20
70.1739195565
 11
513.7656013627
 21
70.1281708926
  0
LINE
  5
7EA
100
AcDbEntity
  8
0
100
AcDbLine
 62
7
  6
CONTINUOUS
 10
513.8594673147
 20
71.1000536067
 11
513.8354527523
 21
70.7068633069
  0
LINE
  5
7EB
100
AcDbEntity
  8
0
100
AcDbLine
 62
7
  6
CONTINUOUS
 10
513.8354527523
 20
70.7068633069
 11
513.8235020423
 21
70.5093001047
  0
LINE
  5
7EC
100
AcDbEntity
  8
0
100
AcDbLine
 62
7
  6
CONTINUOUS
 10
513.8235020423
 20
70.5093001047
 11
513.8137876365
 21
70.3477628576
  0
LINE
  5
7ED
100
AcDbEntity
  8
0
100
AcDbLine
 62
7
  6
CONTINUOUS
 10
513.8137876365
 20
70.3477628576
 11
513.8115894468
 21
70.3110915296
  0
LINE
  5
7EE
100
AcDbEntity
  8
0
100
AcDbLine
 62
7
  6
CONTINUOUS
 10
513.8853868772
 20
72.1005756128
 11
513.8788862674
 21
71.8521338088
  0
LINE
  5
7EF
100
AcDbEntity
  8
0
100
AcDbLine
 62
7
  6
CONTINUOUS
 10
513.8788862674
 20
71.8521338088
 11
513.8594673147
 21
71.1000536067
  0
LINE
  5
7F0
100
AcDbEntity
  8
0
100
AcDbLine
 62
7
  6
CONTINUOUS
 10
513.9010747787
 20
73.5098992353
 11
513.8931906982
 21
72.8076724015
  0
LINE
  5
7F1
100
AcDbEntity
  8
0
100
AcDbLine
 62
7
  6
CONTINUOUS
 10
513.8931906982
 20
72.8076724015
 11
513.8892787919
 21
72.4547327512
  0
LINE
  5
7F2
100
AcDbEntity
  8
0
100
AcDbLine
 62
7
  6
CONTINUOUS
 10
513.8892787919
 20
72.4547327512
 11
513.8880111956
 21
72.3397166369
  0
LINE
  5
7F3
100
AcDbEntity
  8
0
100
AcDbLine
 62
7
  6
CONTINUOUS
 10
513.8880111956
 20
72.3397166369
 11
513.8853868772
 21
72.1005756128
  0
LINE
  5
7F4
100
AcDbEntity
  8
0
100
AcDbLine
 62
7
  6
CONTINUOUS
 10
519.7947970973
 20
150.4966817515
 11
519.7950834549
 21
150.48264479
  0
LINE
  5
7F5
100
AcDbEntity
  8
0
100
AcDbLine
 62
7
  6
CONTINUOUS
 10
519.7950834549
 20
150.48264479
 11
519.7956534216
 21
150.4545478535
  0
LINE
  5
7F6
100
AcDbEntity
  8
0
100
AcDbLine
 62
7
  6
CONTINUOUS
 10
519.7956534216
 20
150.4545478535
 11
519.7959370393
 21
150.4404878784
  0
LINE
  5
7F7
100
AcDbEntity
  8
0
100
AcDbLine
 62
7
  6
CONTINUOUS
 10
519.8187237871
 20
151.2085700111
 11
519.8007620923
 21
150.6757168891
  0
LINE
  5
7F8
100
AcDbEntity
  8
0
100
AcDbLine
 62
7
  6
CONTINUOUS
 10
519.8007620923
 20
150.6757168891
 11
519.7947970973
 21
150.4966817515
  0
LINE
  5
7F9
100
AcDbEntity
  8
0
100
AcDbLine
 62
7
  6
CONTINUOUS
 10
519.8692088729
 20
152.5480411988
 11
519.8565225938
 21
152.2144474207
  0
LINE
  5
7FA
100
AcDbEntity
  8
0
100
AcDbLine
 62
7
  6
CONTINUOUS
 10
519.8565225938
 20
152.2144474207
 11
519.8438794935
 21
151.880004301
  0
LINE
  5
7FB
100
AcDbEntity
  8
0
100
AcDbLine
 62
7
  6
CONTINUOUS
 10
519.8438794935
 20
151.880004301
 11
519.8187237871
 21
151.2085700111
  0
LINE
  5
7FC
100
AcDbEntity
  8
0
100
AcDbLine
 62
7
  6
CONTINUOUS
 10
519.921115335
 20
153.8313185133
 11
519.9080945302
 21
153.5103887757
  0
LINE
  5
7FD
100
AcDbEntity
  8
0
100
AcDbLine
 62
7
  6
CONTINUOUS
 10
519.9080945302
 20
153.5103887757
 11
519.8821410304
 21
152.868750129
  0
LINE
  5
7FE
100
AcDbEntity
  8
0
100
AcDbLine
 62
7
  6
CONTINUOUS
 10
519.8821410304
 20
152.868750129
 11
519.8692088729
 21
152.5480411988
  0
LINE
  5
7FF
100
AcDbEntity
  8
0
100
AcDbLine
 62
7
  6
CONTINUOUS
 10
519.9733366078
 20
155.0865132557
 11
519.9602815173
 21
154.772715528
  0
LINE
  5
800
100
AcDbEntity
  8
0
100
AcDbLine
 62
7
  6
CONTINUOUS
 10
519.9602815173
 20
154.772715528
 11
519.9472260249
 21
154.458917172
  0
LINE
  5
801
100
AcDbEntity
  8
0
100
AcDbLine
 62
7
  6
CONTINUOUS
 10
519.9472260249
 20
154.458917172
 11
519.9269489318
 21
153.9715390326
  0
LINE
  5
802
100
AcDbEntity
  8
0
100
AcDbLine
 62
7
  6
CONTINUOUS
 10
519.9269489318
 20
153.9715390326
 11
519.921115335
 21
153.8313185133
  0
SPLINE
  5
803
100
AcDbEntity
  8
0
100
AcDbSpline
 62
7
  6
CONTINUOUS
 70
0
 71
3
 72
8
 73
4
 74
0
 42
0.0000001
 43
0.0000001
 44
0.0000000001
 40
0.0
 40
0.0
 40
0.0
 40
0.0
 40
1.0
 40
1.0
 40
1.0
 40
1.0
 10
513.9142298071
 20
78.0552102617
 30
0.0
 10
513.9103795322
 20
76.7947653043
 30
0.0
 10
513.9067065227
 20
75.534319796
 30
0.0
 10
513.9031883553
 20
74.2738738678
 30
0.0
  0
LINE
  5
804
100
AcDbEntity
  8
0
100
AcDbLine
 62
7
  6
CONTINUOUS
 10
513.9031883553
 20
74.2738738678
 11
513.9028274564
 21
74.1443801074
  0
LINE
  5
805
100
AcDbEntity
  8
0
100
AcDbLine
 62
7
  6
CONTINUOUS
 10
513.9028274564
 20
74.1443801074
 11
513.9010747787
 21
73.5098992353
  0
SPLINE
  5
806
100
AcDbEntity
  8
KONSTRUKTIONSELEMENTE
100
AcDbSpline
 62
7
  6
CONTINUOUS
 70
0
 71
3
 72
9
 73
5
 74
0
 42
0.0000001
 43
0.0000001
 44
0.0000000001
 40
0.0
 40
0.0
 40
0.0
 40
0.0
 40
0.5060993969
 40
1.0
 40
1.0
 40
1.0
 40
1.0
 10
500.4763655476
 20
115.1850213745
 30
0.0
 10
500.1964928402
 20
114.1405222107
 30
0.0
 10
499.7899346241
 20
112.0338606237
 30
0.0
 10
499.7188663783
 20
109.8874768882
 30
0.0
 10
499.7738949721
 20
108.833631778
 30
0.0
  0
LINE
  5
807
100
AcDbEntity
  8
0
100
AcDbLine
 62
7
  6
CONTINUOUS
 10
513.9062526747
 20
79.676094556
 11
513.910269824
 21
78.8675120177
  0
LINE
  5
808
100
AcDbEntity
  8
0
100
AcDbLine
 62
7
  6
CONTINUOUS
 10
513.910269824
 20
78.8675120177
 11
513.9122568935
 21
78.4618260416
  0
LINE
  5
809
100
AcDbEntity
  8
0
100
AcDbLine
 62
7
  6
CONTINUOUS
 10
513.9122568935
 20
78.4618260416
 11
513.9142298071
 21
78.0552102617
  0
LINE
  5
80A
100
AcDbEntity
  8
0
100
AcDbLine
 62
7
  6
CONTINUOUS
 10
513.884169938
 20
81.0997384165
 11
513.8897210103
 21
80.746055504
  0
LINE
  5
80B
100
AcDbEntity
  8
0
100
AcDbLine
 62
7
  6
CONTINUOUS
 10
513.8897210103
 20
80.746055504
 11
513.8952518646
 21
80.3908872237
  0
LINE
  5
80C
100
AcDbEntity
  8
0
100
AcDbLine
 62
7
  6
CONTINUOUS
 10
513.8952518646
 20
80.3908872237
 11
513.9011529026
 21
80.0088556747
  0
LINE
  5
80D
100
AcDbEntity
  8
0
100
AcDbLine
 62
7
  6
CONTINUOUS
 10
513.9011529026
 20
80.0088556747
 11
513.9062526747
 21
79.676094556
  0
LINE
  5
80E
100
AcDbEntity
  8
0
100
AcDbLine
 62
7
  6
CONTINUOUS
 10
513.8351388926
 20
82.7349420999
 11
513.8474496701
 21
82.3293621754
  0
LINE
  5
80F
100
AcDbEntity
  8
0
100
AcDbLine
 62
7
  6
CONTINUOUS
 10
513.8474496701
 20
82.3293621754
 11
513.8597255479
 21
81.9216349311
  0
LINE
  5
810
100
AcDbEntity
  8
0
100
AcDbLine
 62
7
  6
CONTINUOUS
 10
513.8597255479
 20
81.9216349311
 11
513.8719658559
 21
81.5117603501
  0
LINE
  5
811
100
AcDbEntity
  8
0
100
AcDbLine
 62
7
  6
CONTINUOUS
 10
513.8719658559
 20
81.5117603501
 11
513.8832569242
 21
81.1306799431
  0
LINE
  5
812
100
AcDbEntity
  8
0
100
AcDbLine
 62
7
  6
CONTINUOUS
 10
513.8832569242
 20
81.1306799431
 11
513.884169938
 21
81.0997384165
  0
LINE
  5
813
100
AcDbEntity
  8
0
100
AcDbLine
 62
7
  6
CONTINUOUS
 10
513.7835337945
 20
83.7641043697
 11
513.8094247805
 21
83.249939572
  0
LINE
  5
814
100
AcDbEntity
  8
0
100
AcDbLine
 62
7
  6
CONTINUOUS
 10
513.8094247805
 20
83.249939572
 11
513.8327134984
 21
82.7837054727
  0
LINE
  5
815
100
AcDbEntity
  8
0
100
AcDbLine
 62
7
  6
CONTINUOUS
 10
513.8327134984
 20
82.7837054727
 11
513.8351388926
 21
82.7349420999
  0
LINE
  5
816
100
AcDbEntity
  8
0
100
AcDbLine
 62
7
  6
CONTINUOUS
 10
513.7174817356
 20
84.5960270546
 11
513.750591589
 21
84.1799301949
  0
LINE
  5
817
100
AcDbEntity
  8
0
100
AcDbLine
 62
7
  6
CONTINUOUS
 10
513.750591589
 20
84.1799301949
 11
513.7835337945
 21
83.7641043697
  0
SPLINE
  5
818
100
AcDbEntity
  8
KONSTRUKTIONSELEMENTE
100
AcDbSpline
 62
7
  6
CONTINUOUS
 70
0
 71
3
 72
9
 73
5
 74
0
 42
0.0000001
 43
0.0000001
 44
0.0000000001
 40
0.0
 40
0.0
 40
0.0
 40
0.0
 40
0.3736776773
 40
1.0
 40
1.0
 40
1.0
 40
1.0
 10
503.6806777351
 20
63.9280178013
 30
0.0
 10
503.21901801
 20
68.3018110579
 30
0.0
 10
502.0553160654
 20
80.0141248982
 30
0.0
 10
501.0305621393
 20
91.7395324822
 30
0.0
 10
500.4244027955
 20
99.0862211305
 30
0.0
  0
LINE
  5
819
100
AcDbEntity
  8
0
100
AcDbLine
 62
7
  6
CONTINUOUS
 10
513.5039513202
 20
74.0762222591
 11
513.6069427749
 21
73.1243263818
  0
LINE
  5
81A
100
AcDbEntity
  8
0
100
AcDbLine
 62
7
  6
CONTINUOUS
 10
513.6069427749
 20
73.1243263818
 11
513.6756872737
 21
72.4895904821
  0
LINE
  5
81B
100
AcDbEntity
  8
0
100
AcDbLine
 62
7
  6
CONTINUOUS
 10
513.6756872737
 20
72.4895904821
 11
513.7100645116
 21
72.1721765904
  0
SPLINE
  5
81C
100
AcDbEntity
  8
0
100
AcDbSpline
 62
7
  6
CONTINUOUS
 70
0
 71
3
 72
8
 73
4
 74
0
 42
0.0000001
 43
0.0000001
 44
0.0000000001
 40
0.0
 40
0.0
 40
0.0
 40
0.0
 40
1.0
 40
1.0
 40
1.0
 40
1.0
 10
513.482331926
 20
84.6819484825
 30
0.0
 10
513.4905092809
 20
81.1467085205
 30
0.0
 10
513.4976005571
 20
77.6114659743
 30
0.0
 10
513.5039513202
 20
74.0762222591
 30
0.0
  0
LINE
  5
81D
100
AcDbEntity
  8
0
100
AcDbLine
 62
7
  6
CONTINUOUS
 10
516.4860333616
 20
89.1828787919
 11
516.4740215425
 21
88.4452608607
  0
LINE
  5
81E
100
AcDbEntity
  8
0
100
AcDbLine
 62
7
  6
CONTINUOUS
 10
516.2805040557
 20
74.5800098288
 11
516.2652057209
 21
73.2941532663
  0
LINE
  5
81F
100
AcDbEntity
  8
0
100
AcDbLine
 62
7
  6
CONTINUOUS
 10
516.0340893849
 20
85.009156644
 11
516.0491338812
 21
84.2745274425
  0
LINE
  5
820
100
AcDbEntity
  8
0
100
AcDbLine
 62
7
  6
CONTINUOUS
 10
516.2652057209
 20
73.2941532663
 11
516.1753848581
 21
72.3121021532
  0
LINE
  5
821
100
AcDbEntity
  8
0
100
AcDbLine
 62
7
  6
CONTINUOUS
 10
516.7063298556
 20
82.2209815912
 11
516.7248058699
 21
81.8782948271
  0
LINE
  5
822
100
AcDbEntity
  8
0
100
AcDbLine
 62
7
  6
CONTINUOUS
 10
516.7248058699
 20
81.8782948271
 11
516.7309496647
 21
81.7631867361
  0
LINE
  5
823
100
AcDbEntity
  8
0
100
AcDbLine
 62
7
  6
CONTINUOUS
 10
516.6924386167
 20
83.1208382894
 11
516.7028774884
 21
82.446949389
  0
LINE
  5
824
100
AcDbEntity
  8
0
100
AcDbLine
 62
7
  6
CONTINUOUS
 10
516.7028774884
 20
82.446949389
 11
516.7063298556
 21
82.2209815912
  0
LINE
  5
825
100
AcDbEntity
  8
0
100
AcDbLine
 62
7
  6
CONTINUOUS
 10
516.6835352522
 20
87.1466062143
 11
516.6850765312
 21
86.4803364518
  0
LINE
  5
826
100
AcDbEntity
  8
0
100
AcDbLine
 62
7
  6
CONTINUOUS
 10
516.6850765312
 20
86.4803364518
 11
516.6865941741
 21
85.8121900645
  0
LINE
  5
827
100
AcDbEntity
  8
0
100
AcDbLine
 62
7
  6
CONTINUOUS
 10
516.6865941741
 20
85.8121900645
 11
516.6924386167
 21
83.1208382894
  0
LINE
  5
828
100
AcDbEntity
  8
0
100
AcDbLine
 62
7
  6
CONTINUOUS
 10
516.6936728478
 20
88.3938255424
 11
516.6911187776
 21
88.0831404208
  0
LINE
  5
829
100
AcDbEntity
  8
0
100
AcDbLine
 62
7
  6
CONTINUOUS
 10
516.6911187776
 20
88.0831404208
 11
516.6860500566
 21
87.4595307562
  0
LINE
  5
82A
100
AcDbEntity
  8
0
100
AcDbLine
 62
7
  6
CONTINUOUS
 10
516.6860500566
 20
87.4595307562
 11
516.6835352522
 21
87.1466062143
  0
LINE
  5
82B
100
AcDbEntity
  8
0
100
AcDbLine
 62
7
  6
CONTINUOUS
 10
516.7175233797
 20
89.5463384587
 11
516.711544157
 21
89.2599284501
  0
LINE
  5
82C
100
AcDbEntity
  8
0
100
AcDbLine
 62
7
  6
CONTINUOUS
 10
516.711544157
 20
89.2599284501
 11
516.699618745
 21
88.683671995
  0
LINE
  5
82D
100
AcDbEntity
  8
0
100
AcDbLine
 62
7
  6
CONTINUOUS
 10
516.699618745
 20
88.683671995
 11
516.6936728478
 21
88.3938255424
  0
LINE
  5
82E
100
AcDbEntity
  8
0
100
AcDbLine
 62
7
  6
CONTINUOUS
 10
516.75530753
 20
90.6041474348
 11
516.7458247105
 21
90.3402571433
  0
LINE
  5
82F
100
AcDbEntity
  8
0
100
AcDbLine
 62
7
  6
CONTINUOUS
 10
516.7458247105
 20
90.3402571433
 11
516.7175233797
 21
89.5463384587
  0
SPLINE
  5
830
100
AcDbEntity
  8
RUNDUNGEN
100
AcDbSpline
 62
7
  6
CONTINUOUS
 70
0
 71
3
 72
10
 73
6
 74
0
 42
0.0000001
 43
0.0000001
 44
0.0000000001
 40
0.0
 40
0.0
 40
0.0
 40
0.0
 40
0.2278478877
 40
0.4689565149
 40
1.0
 40
1.0
 40
1.0
 40
1.0
 10
522.3786520719
 20
203.0083704377
 30
0.0
 10
522.3020664482
 20
202.7346657771
 30
0.0
 10
522.0726536121
 20
202.1893094924
 30
0.0
 10
521.3380895192
 20
201.1713622512
 30
0.0
 10
520.5366519198
 20
200.5861259143
 30
0.0
 10
519.9501143743
 20
200.2782639434
 30
0.0
  0
LINE
  5
831
100
AcDbEntity
  8
0
100
AcDbLine
 62
7
  6
CONTINUOUS
 10
516.806929959
 20
91.5672532226
 11
516.7810592916
 21
91.0855935156
  0
LINE
  5
832
100
AcDbEntity
  8
0
100
AcDbLine
 62
7
  6
CONTINUOUS
 10
516.7810592916
 20
91.0855935156
 11
516.7660441362
 21
90.8051221599
  0
LINE
  5
833
100
AcDbEntity
  8
0
100
AcDbLine
 62
7
  6
CONTINUOUS
 10
516.7660441362
 20
90.8051221599
 11
516.75530753
 21
90.6041474348
  0
LINE
  5
834
100
AcDbEntity
  8
0
100
AcDbLine
 62
7
  6
CONTINUOUS
 10
516.9239627626
 20
93.1303731314
 11
516.904462146
 21
92.8698620607
  0
LINE
  5
835
100
AcDbEntity
  8
0
100
AcDbLine
 62
7
  6
CONTINUOUS
 10
516.904462146
 20
92.8698620607
 11
516.8654513394
 21
92.3488293105
  0
LINE
  5
836
100
AcDbEntity
  8
0
100
AcDbLine
 62
7
  6
CONTINUOUS
 10
516.8654513394
 20
92.3488293105
 11
516.8264361066
 21
91.8277822194
  0
LINE
  5
837
100
AcDbEntity
  8
0
100
AcDbLine
 62
7
  6
CONTINUOUS
 10
516.8264361066
 20
91.8277822194
 11
516.806929959
 21
91.5672532226
  0
LINE
  5
838
100
AcDbEntity
  8
0
100
AcDbLine
 62
7
  6
CONTINUOUS
 10
516.9754655806
 20
93.5567059375
 11
516.9278918584
 21
93.1627703411
  0
LINE
  5
839
100
AcDbEntity
  8
0
100
AcDbLine
 62
7
  6
CONTINUOUS
 10
516.9278918584
 20
93.1627703411
 11
516.9239627626
 21
93.1303731314
  0
LINE
  5
83A
100
AcDbEntity
  8
0
100
AcDbLine
 62
7
  6
CONTINUOUS
 10
517.0998759718
 20
93.951583893
 11
517.0745784035
 21
93.6043006474
  0
LINE
  5
83B
100
AcDbEntity
  8
0
100
AcDbLine
 62
7
  6
CONTINUOUS
 10
517.0745784035
 20
93.6043006474
 11
517.0619183269
 21
93.4306302606
  0
LINE
  5
83C
100
AcDbEntity
  8
0
100
AcDbLine
 62
7
  6
CONTINUOUS
 10
517.0619183269
 20
93.4306302606
 11
517.0365772697
 21
93.0832319214
  0
LINE
  5
83D
100
AcDbEntity
  8
0
100
AcDbLine
 62
7
  6
CONTINUOUS
 10
517.0365772697
 20
93.0832319214
 11
517.0238969647
 21
92.9095039538
  0
LINE
  5
83E
100
AcDbEntity
  8
0
100
AcDbLine
 62
7
  6
CONTINUOUS
 10
517.0917272358
 20
95.1198258463
 11
517.0958312874
 21
94.5370595204
  0
LINE
  5
83F
100
AcDbEntity
  8
0
100
AcDbLine
 62
7
  6
CONTINUOUS
 10
517.0958312874
 20
94.5370595204
 11
517.0978609788
 21
94.2446603691
  0
LINE
  5
840
100
AcDbEntity
  8
0
100
AcDbLine
 62
7
  6
CONTINUOUS
 10
517.0978609788
 20
94.2446603691
 11
517.0998759718
 21
93.951583893
  0
LINE
  5
841
100
AcDbEntity
  8
0
100
AcDbLine
 62
7
  6
CONTINUOUS
 10
517.0796062283
 20
95.2152887447
 11
517.0917272358
 21
95.1198258463
  0
SPLINE
  5
842
100
AcDbEntity
  8
KONSTRUKTIONSELEMENTE
100
AcDbSpline
 62
7
  6
CONTINUOUS
 70
0
 71
3
 72
15
 73
11
 74
0
 42
0.0000001
 43
0.0000001
 44
0.0000000001
 40
0.0
 40
0.0
 40
0.0
 40
0.0
 40
0.0320194651
 40
0.0554731281
 40
0.0852595978
 40
0.1653533578
 40
0.2739948171
 40
0.4117214899
 40
0.5786847996
 40
1.0
 40
1.0
 40
1.0
 40
1.0
 10
504.3808611142
 20
60.8097629501
 30
0.0
 10
504.3461474627
 20
60.8097524141
 30
0.0
 10
504.2901096729
 20
60.8495637901
 30
0.0
 10
504.23846004
 20
60.9245051169
 30
0.0
 10
504.1716989438
 20
61.053879156
 30
0.0
 10
504.0957193206
 20
61.2787122744
 30
0.0
 10
504.0097084821
 20
61.6222710536
 30
0.0
 10
503.9247861525
 20
62.062411624
 30
0.0
 10
503.8026976889
 20
62.8400714467
 30
0.0
 10
503.7286236085
 20
63.4737755828
 30
0.0
 10
503.6806777351
 20
63.9280178013
 30
0.0
  0
LINE
  5
843
100
AcDbEntity
  8
0
100
AcDbLine
 62
7
  6
CONTINUOUS
 10
516.8131430082
 20
80.5634870848
 11
516.7849745929
 21
80.2635606604
  0
LINE
  5
844
100
AcDbEntity
  8
0
100
AcDbLine
 62
7
  6
CONTINUOUS
 10
516.7849745929
 20
80.2635606604
 11
516.7708524342
 21
80.113535492
  0
LINE
  5
845
100
AcDbEntity
  8
0
100
AcDbLine
 62
7
  6
CONTINUOUS
 10
516.7708524342
 20
80.113535492
 11
516.7567055209
 21
79.9634690121
  0
LINE
  5
846
100
AcDbEntity
  8
0
100
AcDbLine
 62
7
  6
CONTINUOUS
 10
516.9141889972
 20
82.1266069936
 11
516.8973511218
 21
81.8660936637
  0
LINE
  5
847
100
AcDbEntity
  8
0
100
AcDbLine
 62
7
  6
CONTINUOUS
 10
516.8973511218
 20
81.8660936637
 11
516.8805109233
 21
81.6055776933
  0
LINE
  5
848
100
AcDbEntity
  8
0
100
AcDbLine
 62
7
  6
CONTINUOUS
 10
516.8805109233
 20
81.6055776933
 11
516.8636692071
 21
81.345059067
  0
LINE
  5
849
100
AcDbEntity
  8
0
100
AcDbLine
 62
7
  6
CONTINUOUS
 10
516.8636692071
 20
81.345059067
 11
516.8299844437
 21
80.8240137789
  0
LINE
  5
84A
100
AcDbEntity
  8
0
100
AcDbLine
 62
7
  6
CONTINUOUS
 10
516.8299844437
 20
80.8240137789
 11
516.8131430082
 21
80.5634870848
  0
LINE
  5
84B
100
AcDbEntity
  8
0
100
AcDbLine
 62
7
  6
CONTINUOUS
 10
516.9706845364
 20
83.2633901446
 11
516.928276114
 21
82.4106870089
  0
LINE
  5
84C
100
AcDbEntity
  8
0
100
AcDbLine
 62
7
  6
CONTINUOUS
 10
516.928276114
 20
82.4106870089
 11
516.9141889972
 21
82.1266069936
  0
LINE
  5
84D
100
AcDbEntity
  8
0
100
AcDbLine
 62
7
  6
CONTINUOUS
 10
517.0167692248
 20
84.4948805062
 11
517.0051991627
 21
84.1871220156
  0
LINE
  5
84E
100
AcDbEntity
  8
0
100
AcDbLine
 62
7
  6
CONTINUOUS
 10
517.0051991627
 20
84.1871220156
 11
516.9821566979
 21
83.5713768383
  0
LINE
  5
84F
100
AcDbEntity
  8
0
100
AcDbLine
 62
7
  6
CONTINUOUS
 10
516.9821566979
 20
83.5713768383
 11
516.9706845364
 21
83.2633901446
  0
LINE
  5
850
100
AcDbEntity
  8
0
100
AcDbLine
 62
7
  6
CONTINUOUS
 10
517.064854384
 20
86.2631359226
 11
517.0527758387
 21
85.8232014644
  0
LINE
  5
851
100
AcDbEntity
  8
0
100
AcDbLine
 62
7
  6
CONTINUOUS
 10
517.0527758387
 20
85.8232014644
 11
517.0407352647
 21
85.3818474141
  0
LINE
  5
852
100
AcDbEntity
  8
0
100
AcDbLine
 62
7
  6
CONTINUOUS
 10
517.0407352647
 20
85.3818474141
 11
517.0287329627
 21
84.9390737639
  0
LINE
  5
853
100
AcDbEntity
  8
0
100
AcDbLine
 62
7
  6
CONTINUOUS
 10
517.0287329627
 20
84.9390737639
 11
517.0167692248
 21
84.4948805062
  0
LINE
  5
854
100
AcDbEntity
  8
0
100
AcDbLine
 62
7
  6
CONTINUOUS
 10
517.0801793516
 20
87.7787399418
 11
517.0686565621
 21
86.643967729
  0
LINE
  5
855
100
AcDbEntity
  8
0
100
AcDbLine
 62
7
  6
CONTINUOUS
 10
517.0686565621
 20
86.643967729
 11
517.064854384
 21
86.2631359226
  0
LINE
  5
856
100
AcDbEntity
  8
0
100
AcDbLine
 62
7
  6
CONTINUOUS
 10
517.7174356171
 20
102.4102362164
 11
517.7111119423
 21
100.6796818761
  0
LINE
  5
857
100
AcDbEntity
  8
0
100
AcDbLine
 62
7
  6
CONTINUOUS
 10
517.7111119423
 20
100.6796818761
 11
517.7070455792
 21
99.516441627
  0
LINE
  5
858
100
AcDbEntity
  8
0
100
AcDbLine
 62
7
  6
CONTINUOUS
 10
517.7070455792
 20
99.516441627
 11
517.7057414285
 21
99.1345815722
  0
LINE
  5
859
100
AcDbEntity
  8
0
100
AcDbLine
 62
7
  6
CONTINUOUS
 10
517.7057414285
 20
99.1345815722
 11
517.7050554317
 21
98.9319603017
  0
SPLINE
  5
85A
100
AcDbEntity
  8
0
100
AcDbSpline
 62
7
  6
CONTINUOUS
 70
0
 71
3
 72
9
 73
5
 74
0
 42
0.0000001
 43
0.0000001
 44
0.0000000001
 40
0.0
 40
0.0
 40
0.0
 40
0.0
 40
0.3736776773
 40
1.0
 40
1.0
 40
1.0
 40
1.0
 10
458.0801401284
 20
63.9280178013
 30
0.0
 10
458.5417998535
 20
68.3018110579
 30
0.0
 10
459.705501798
 20
80.0141248982
 30
0.0
 10
460.7302557242
 20
91.7395324822
 30
0.0
 10
461.336415068
 20
99.0862211305
 30
0.0
  0
LINE
  5
85B
100
AcDbEntity
  8
0
100
AcDbLine
 62
7
  6
CONTINUOUS
 10
517.6403869431
 20
99.7088987955
 11
517.6223815087
 21
99.3814608137
  0
LINE
  5
85C
100
AcDbEntity
  8
0
100
AcDbLine
 62
7
  6
CONTINUOUS
 10
517.6223815087
 20
99.3814608137
 11
517.5322326749
 21
97.743858018
  0
LINE
  5
85D
100
AcDbEntity
  8
0
100
AcDbLine
 62
7
  6
CONTINUOUS
 10
517.3319909199
 20
92.1770303564
 11
517.3566115188
 21
91.9180542983
  0
LINE
  5
85E
100
AcDbEntity
  8
0
100
AcDbLine
 62
7
  6
CONTINUOUS
 10
517.3180989438
 20
92.8862309837
 11
517.3319909199
 21
92.1770303564
  0
LINE
  5
85F
100
AcDbEntity
  8
0
100
AcDbLine
 62
7
  6
CONTINUOUS
 10
517.3091925602
 20
96.3645068984
 11
517.3122525164
 21
95.2115683135
  0
LINE
  5
860
100
AcDbEntity
  8
0
100
AcDbLine
 62
7
  6
CONTINUOUS
 10
517.3122525164
 20
95.2115683135
 11
517.3137475557
 21
94.6326664991
  0
LINE
  5
861
100
AcDbEntity
  8
0
100
AcDbLine
 62
7
  6
CONTINUOUS
 10
517.3137475557
 20
94.6326664991
 11
517.3180989438
 21
92.8862309837
  0
LINE
  5
862
100
AcDbEntity
  8
0
100
AcDbLine
 62
7
  6
CONTINUOUS
 10
517.3193292737
 20
97.5103865857
 11
517.3117071452
 21
96.6520054868
  0
LINE
  5
863
100
AcDbEntity
  8
0
100
AcDbLine
 62
7
  6
CONTINUOUS
 10
517.3117071452
 20
96.6520054868
 11
517.3091925602
 21
96.3645068984
  0
LINE
  5
864
100
AcDbEntity
  8
0
100
AcDbLine
 62
7
  6
CONTINUOUS
 10
517.3431793991
 20
98.6427214131
 11
517.3312321185
 21
98.0788048359
  0
LINE
  5
865
100
AcDbEntity
  8
0
100
AcDbLine
 62
7
  6
CONTINUOUS
 10
517.3312321185
 20
98.0788048359
 11
517.3252750689
 21
97.7951584214
  0
LINE
  5
866
100
AcDbEntity
  8
0
100
AcDbLine
 62
7
  6
CONTINUOUS
 10
517.3252750689
 20
97.7951584214
 11
517.3193292737
 21
97.5103865857
  0
LINE
  5
867
100
AcDbEntity
  8
0
100
AcDbLine
 62
7
  6
CONTINUOUS
 10
517.3809630571
 20
99.7615050843
 11
517.3714803616
 21
99.4824035648
  0
LINE
  5
868
100
AcDbEntity
  8
0
100
AcDbLine
 62
7
  6
CONTINUOUS
 10
517.3714803616
 20
99.4824035648
 11
517.3620221363
 21
99.2029057814
  0
LINE
  5
869
100
AcDbEntity
  8
0
100
AcDbLine
 62
7
  6
CONTINUOUS
 10
517.3620221363
 20
99.2029057814
 11
517.3431793991
 21
98.6427214131
  0
LINE
  5
86A
100
AcDbEntity
  8
0
100
AcDbLine
 62
7
  6
CONTINUOUS
 10
517.432584927
 20
100.8667382487
 11
517.4196349995
 21
100.5903380316
  0
LINE
  5
86B
100
AcDbEntity
  8
0
100
AcDbLine
 62
7
  6
CONTINUOUS
 10
517.4196349995
 20
100.5903380316
 11
517.3938238036
 21
100.0377214582
  0
LINE
  5
86C
100
AcDbEntity
  8
0
100
AcDbLine
 62
7
  6
CONTINUOUS
 10
517.3938238036
 20
100.0377214582
 11
517.3809630571
 21
99.7615050843
  0
LINE
  5
86D
100
AcDbEntity
  8
0
100
AcDbLine
 62
7
  6
CONTINUOUS
 10
517.5496177552
 20
102.8317790261
 11
517.5301171226
 21
102.5042833957
  0
LINE
  5
86E
100
AcDbEntity
  8
0
100
AcDbLine
 62
7
  6
CONTINUOUS
 10
517.5301171226
 20
102.5042833957
 11
517.4911062981
 21
101.8492788468
  0
LINE
  5
86F
100
AcDbEntity
  8
0
100
AcDbLine
 62
7
  6
CONTINUOUS
 10
517.4911062981
 20
101.8492788468
 11
517.4520910668
 21
101.1942563339
  0
LINE
  5
870
100
AcDbEntity
  8
0
100
AcDbLine
 62
7
  6
CONTINUOUS
 10
517.4520910668
 20
101.1942563339
 11
517.4363670546
 21
100.9302452942
  0
LINE
  5
871
100
AcDbEntity
  8
0
100
AcDbLine
 62
7
  6
CONTINUOUS
 10
517.4363670546
 20
100.9302452942
 11
517.432584927
 21
100.8667382487
  0
LINE
  5
872
100
AcDbEntity
  8
0
100
AcDbLine
 62
7
  6
CONTINUOUS
 10
517.6011208573
 20
103.4732421118
 11
517.5496177552
 21
102.8317790261
  0
LINE
  5
873
100
AcDbEntity
  8
0
100
AcDbLine
 62
7
  6
CONTINUOUS
 10
517.7255328958
 20
104.4972015703
 11
517.700235266
 21
104.0606222822
  0
LINE
  5
874
100
AcDbEntity
  8
0
100
AcDbLine
 62
7
  6
CONTINUOUS
 10
517.700235266
 20
104.0606222822
 11
517.6875751615
 21
103.8422964874
  0
LINE
  5
875
100
AcDbEntity
  8
0
100
AcDbLine
 62
7
  6
CONTINUOUS
 10
517.6875751615
 20
103.8422964874
 11
517.6749079785
 21
103.6239465793
  0
LINE
  5
876
100
AcDbEntity
  8
0
100
AcDbLine
 62
7
  6
CONTINUOUS
 10
517.6749079785
 20
103.6239465793
 11
517.6495537271
 21
103.1871743853
  0
LINE
  5
877
100
AcDbEntity
  8
0
100
AcDbLine
 62
7
  6
CONTINUOUS
 10
517.717382733
 20
105.4382828892
 11
517.7194426123
 21
105.2038310628
  0
LINE
  5
878
100
AcDbEntity
  8
0
100
AcDbLine
 62
7
  6
CONTINUOUS
 10
517.7194426123
 20
105.2038310628
 11
517.7214875024
 21
104.9688335673
  0
LINE
  5
879
100
AcDbEntity
  8
0
100
AcDbLine
 62
7
  6
CONTINUOUS
 10
517.7214875024
 20
104.9688335673
 11
517.7235175493
 21
104.733290403
  0
LINE
  5
87A
100
AcDbEntity
  8
0
100
AcDbLine
 62
7
  6
CONTINUOUS
 10
517.7235175493
 20
104.733290403
 11
517.7255328958
 21
104.4972015703
  0
SPLINE
  5
87B
100
AcDbEntity
  8
BEZUGSACHSEN
100
AcDbSpline
 62
7
  6
CONTINUOUS
 70
0
 71
3
 72
11
 73
7
 74
0
 42
0.0000001
 43
0.0000001
 44
0.0000000001
 40
0.0
 40
0.0
 40
0.0
 40
0.0
 40
0.0633814713
 40
0.2514932526
 40
0.563914903
 40
1.0
 40
1.0
 40
1.0
 40
1.0
 10
520.878665916
 20
397.3814230719
 30
0.0
 10
520.8803374026
 20
397.3813977203
 30
0.0
 10
520.8777592423
 20
397.3708764548
 30
0.0
 10
520.8811181728
 20
397.3597578352
 30
0.0
 10
520.8797863551
 20
397.3328816003
 30
0.0
 10
520.8804089317
 20
397.3138540456
 30
0.0
 10
520.8804089317
 20
397.3023523526
 30
0.0
  0
SPLINE
  5
87C
100
AcDbEntity
  8
0
100
AcDbSpline
 62
7
  6
CONTINUOUS
 70
0
 71
3
 72
8
 73
4
 74
0
 42
0.0000001
 43
0.0000001
 44
0.0000000001
 40
0.0
 40
0.0
 40
0.0
 40
0.0
 40
1.0
 40
1.0
 40
1.0
 40
1.0
 10
512.5742703651
 20
91.2033603358
 30
0.0
 10
512.6011169999
 20
89.1741903197
 30
0.0
 10
512.6261396159
 20
87.144995621
 30
0.0
 10
512.6496566134
 20
85.1157842848
 30
0.0
  0
LINE
  5
87D
100
AcDbEntity
  8
0
100
AcDbLine
 62
7
  6
CONTINUOUS
 10
512.6496566134
 20
85.1157842848
 11
512.6510771282
 21
84.9930533653
  0
LINE
  5
87E
100
AcDbEntity
  8
0
100
AcDbLine
 62
7
  6
CONTINUOUS
 10
512.6510771282
 20
84.9930533653
 11
512.66578015
 21
83.7037688809
  0
LINE
  5
87F
100
AcDbEntity
  8
0
100
AcDbLine
 62
7
  6
CONTINUOUS
 10
517.3823685091
 20
90.4996427444
 11
517.3709285605
 21
90.3972044626
  0
LINE
  5
880
100
AcDbEntity
  8
0
100
AcDbLine
 62
7
  6
CONTINUOUS
 10
517.3709285605
 20
90.3972044626
 11
517.3479505703
 21
90.192415471
  0
LINE
  5
881
100
AcDbEntity
  8
0
100
AcDbLine
 62
7
  6
CONTINUOUS
 10
517.3479505703
 20
90.192415471
 11
517.3418490522
 21
90.1382500314
  0
LINE
  5
882
100
AcDbEntity
  8
0
100
AcDbLine
 62
7
  6
CONTINUOUS
 10
517.3418490522
 20
90.1382500314
 11
517.3364127657
 21
90.0900647588
  0
LINE
  5
883
100
AcDbEntity
  8
0
100
AcDbLine
 62
7
  6
CONTINUOUS
 10
517.4388061395
 20
91.3594503371
 11
517.4247346788
 21
91.1445872185
  0
LINE
  5
884
100
AcDbEntity
  8
0
100
AcDbLine
 62
7
  6
CONTINUOUS
 10
517.4247346788
 20
91.1445872185
 11
517.4106376492
 21
90.9296649186
  0
LINE
  5
885
100
AcDbEntity
  8
0
100
AcDbLine
 62
7
  6
CONTINUOUS
 10
517.4106376492
 20
90.9296649186
 11
517.3907297064
 21
90.6266991717
  0
LINE
  5
886
100
AcDbEntity
  8
0
100
AcDbLine
 62
7
  6
CONTINUOUS
 10
517.3907297064
 20
90.6266991717
 11
517.3823685091
 21
90.4996427444
  0
LINE
  5
887
100
AcDbEntity
  8
0
100
AcDbLine
 62
7
  6
CONTINUOUS
 10
517.5398521452
 20
93.3244911145
 11
517.5230142593
 21
92.9969926543
  0
LINE
  5
888
100
AcDbEntity
  8
0
100
AcDbLine
 62
7
  6
CONTINUOUS
 10
517.5230142593
 20
92.9969926543
 11
517.4893323329
 21
92.3419857922
  0
LINE
  5
889
100
AcDbEntity
  8
0
100
AcDbLine
 62
7
  6
CONTINUOUS
 10
517.4893323329
 20
92.3419857922
 11
517.4724899031
 21
92.0144773497
  0
LINE
  5
88A
100
AcDbEntity
  8
0
100
AcDbLine
 62
7
  6
CONTINUOUS
 10
517.4724899031
 20
92.0144773497
 11
517.4556475701
 21
91.6869655378
  0
LINE
  5
88B
100
AcDbEntity
  8
0
100
AcDbLine
 62
7
  6
CONTINUOUS
 10
517.4556475701
 20
91.6869655378
 11
517.4494170268
 21
91.5658034762
  0
LINE
  5
88C
100
AcDbEntity
  8
0
100
AcDbLine
 62
7
  6
CONTINUOUS
 10
517.4494170268
 20
91.5658034762
 11
517.4388061395
 21
91.3594503371
  0
LINE
  5
88D
100
AcDbEntity
  8
0
100
AcDbLine
 62
7
  6
CONTINUOUS
 10
517.5963478178
 20
94.6480688265
 11
517.5821875427
 21
94.3170395861
  0
LINE
  5
88E
100
AcDbEntity
  8
0
100
AcDbLine
 62
7
  6
CONTINUOUS
 10
517.5821875427
 20
94.3170395861
 11
517.5398521452
 21
93.3244911145
  0
LINE
  5
88F
100
AcDbEntity
  8
0
100
AcDbLine
 62
7
  6
CONTINUOUS
 10
517.6424319611
 20
95.9851870911
 11
517.6308620354
 21
95.6510314503
  0
LINE
  5
890
100
AcDbEntity
  8
0
100
AcDbLine
 62
7
  6
CONTINUOUS
 10
517.6308620354
 20
95.6510314503
 11
517.6193246218
 21
95.3167931951
  0
LINE
  5
891
100
AcDbEntity
  8
0
100
AcDbLine
 62
7
  6
CONTINUOUS
 10
517.6193246218
 20
95.3167931951
 11
517.6078198432
 21
94.9824723217
  0
LINE
  5
892
100
AcDbEntity
  8
0
100
AcDbLine
 62
7
  6
CONTINUOUS
 10
517.6078198432
 20
94.9824723217
 11
517.5986009745
 21
94.7138292528
  0
LINE
  5
893
100
AcDbEntity
  8
0
100
AcDbLine
 62
7
  6
CONTINUOUS
 10
517.5986009745
 20
94.7138292528
 11
517.5963478178
 21
94.6480688265
  0
SPLINE
  5
894
100
AcDbEntity
  8
0
100
AcDbSpline
 62
7
  6
CONTINUOUS
 70
0
 71
3
 72
11
 73
7
 74
0
 42
0.0000001
 43
0.0000001
 44
0.0000000001
 40
0.0
 40
0.0
 40
0.0
 40
0.0
 40
0.3834872947
 40
0.6735345366
 40
0.8719911232
 40
1.0
 40
1.0
 40
1.0
 40
1.0
 10
452.2819136732
 20
148.7829529861
 30
0.0
 10
452.2224143918
 20
148.7975725072
 30
0.0
 10
452.1184673006
 20
148.8259050563
 30
0.0
 10
451.9885983466
 20
148.8776607952
 30
0.0
 10
451.9032969472
 20
148.927478399
 30
0.0
 10
451.8730089576
 20
148.9767238031
 30
0.0
 10
451.8730089317
 20
148.9971755382
 30
0.0
  0
LINE
  5
895
100
AcDbEntity
  8
0
100
AcDbLine
 62
7
  6
CONTINUOUS
 10
517.6905164947
 20
97.7860754547
 11
517.6892607337
 21
97.7396248852
  0
LINE
  5
896
100
AcDbEntity
  8
0
100
AcDbLine
 62
7
  6
CONTINUOUS
 10
517.6892607337
 20
97.7396248852
 11
517.6784381078
 21
97.3380221824
  0
LINE
  5
897
100
AcDbEntity
  8
0
100
AcDbLine
 62
7
  6
CONTINUOUS
 10
517.6784381078
 20
97.3380221824
 11
517.6543955446
 21
96.4375780085
  0
LINE
  5
898
100
AcDbEntity
  8
0
100
AcDbLine
 62
7
  6
CONTINUOUS
 10
517.6543955446
 20
96.4375780085
 11
517.6424319611
 21
95.9851870911
  0
LINE
  5
899
100
AcDbEntity
  8
0
100
AcDbLine
 62
7
  6
CONTINUOUS
 10
517.7050554317
 20
98.9319603017
 11
517.7014006656
 21
98.6468052515
  0
LINE
  5
89A
100
AcDbEntity
  8
0
100
AcDbLine
 62
7
  6
CONTINUOUS
 10
517.7014006656
 20
98.6468052515
 11
517.6941312113
 21
98.0738628279
  0
LINE
  5
89B
100
AcDbEntity
  8
0
100
AcDbLine
 62
7
  6
CONTINUOUS
 10
517.6941312113
 20
98.0738628279
 11
517.6905164947
 21
97.7860754547
  0
SPLINE
  5
89C
100
AcDbEntity
  8
0
100
AcDbSpline
 62
7
  6
CONTINUOUS
 70
0
 71
3
 72
8
 73
4
 74
0
 42
0.0000001
 43
0.0000001
 44
0.0000000001
 40
0.0
 40
0.0
 40
0.0
 40
0.0
 40
1.0
 40
1.0
 40
1.0
 40
1.0
 10
517.9408774496
 20
106.0537762063
 30
0.0
 10
517.9445891775
 20
104.9118133822
 30
0.0
 10
517.9480582176
 20
103.7698497519
 30
0.0
 10
517.951326777
 20
102.6278855733
 30
0.0
  0
LINE
  5
89D
100
AcDbEntity
  8
0
100
AcDbLine
 62
7
  6
CONTINUOUS
 10
517.951326777
 20
102.6278855733
 11
517.9532870859
 21
101.9344550033
  0
LINE
  5
89E
100
AcDbEntity
  8
0
100
AcDbLine
 62
7
  6
CONTINUOUS
 10
518.2798663813
 20
113.2258886804
 11
518.1669123801
 21
110.8352207963
  0
LINE
  5
89F
100
AcDbEntity
  8
0
100
AcDbLine
 62
7
  6
CONTINUOUS
 10
518.1669123801
 20
110.8352207963
 11
518.161633235
 21
110.7235909351
  0
LINE
  5
8A0
100
AcDbEntity
  8
0
100
AcDbLine
 62
7
  6
CONTINUOUS
 10
518.161633235
 20
110.7235909351
 11
518.1103738723
 21
109.6398750268
  0
LINE
  5
8A1
100
AcDbEntity
  8
0
100
AcDbLine
 62
7
  6
CONTINUOUS
 10
518.1103738723
 20
109.6398750268
 11
518.0889228265
 21
109.1863886408
  0
LINE
  5
8A2
100
AcDbEntity
  8
0
100
AcDbLine
 62
7
  6
CONTINUOUS
 10
518.0889228265
 20
109.1863886408
 11
517.9973260078
 21
107.249153798
  0
LINE
  5
8A3
100
AcDbEntity
  8
0
100
AcDbLine
 62
7
  6
CONTINUOUS
 10
517.9973260078
 20
107.249153798
 11
517.9938009866
 21
107.1745509157
  0
LINE
  5
8A4
100
AcDbEntity
  8
0
100
AcDbLine
 62
7
  6
CONTINUOUS
 10
517.9938009866
 20
107.1745509157
 11
517.9408774496
 21
106.0537762063
  0
LINE
  5
8A5
100
AcDbEntity
  8
0
100
AcDbLine
 62
7
  6
CONTINUOUS
 10
518.3346210216
 20
110.6434470468
 11
518.2674601985
 21
109.1065674774
  0
LINE
  5
8A6
100
AcDbEntity
  8
0
100
AcDbLine
 62
7
  6
CONTINUOUS
 10
518.3761082188
 20
119.4438149999
 11
518.3683690201
 21
118.0165958878
  0
LINE
  5
8A7
100
AcDbEntity
  8
0
100
AcDbLine
 62
7
  6
CONTINUOUS
 10
518.3683690201
 20
118.0165958878
 11
518.3677910558
 21
117.9065705568
  0
SPLINE
  5
8A8
100
AcDbEntity
  8
0
100
AcDbSpline
 62
7
  6
CONTINUOUS
 70
0
 71
3
 72
8
 73
4
 74
0
 42
0.0000001
 43
0.0000001
 44
0.0000000001
 40
0.0
 40
0.0
 40
0.0
 40
0.0
 40
1.0
 40
1.0
 40
1.0
 40
1.0
 10
518.3677910558
 20
117.9065705568
 30
0.0
 10
518.3615757632
 20
116.7207274159
 30
0.0
 10
518.3558076849
 20
115.5348818765
 30
0.0
 10
518.3504025971
 20
114.3490347659
 30
0.0
  0
LINE
  5
8A9
100
AcDbEntity
  8
0
100
AcDbLine
 62
7
  6
CONTINUOUS
 10
518.3504025971
 20
114.3490347659
 11
518.3453887096
 21
113.2256052828
  0
LINE
  5
8AA
100
AcDbEntity
  8
0
100
AcDbLine
 62
7
  6
CONTINUOUS
 10
518.3453887096
 20
113.2256052828
 11
518.3346210216
 21
110.6434470468
  0
LINE
  5
8AB
100
AcDbEntity
  8
0
100
AcDbLine
 62
7
  6
CONTINUOUS
 10
512.6339484243
 20
90.9879198622
 11
512.6240581412
 21
90.8912665752
  0
LINE
  5
8AC
100
AcDbEntity
  8
0
100
AcDbLine
 62
7
  6
CONTINUOUS
 10
512.6786269184
 20
91.8150599725
 11
512.6748943023
 21
91.6806582699
  0
LINE
  5
8AD
100
AcDbEntity
  8
0
100
AcDbLine
 62
7
  6
CONTINUOUS
 10
512.6748943023
 20
91.6806582699
 11
512.6711712251
 21
91.5458709887
  0
LINE
  5
8AE
100
AcDbEntity
  8
0
100
AcDbLine
 62
7
  6
CONTINUOUS
 10
512.6711712251
 20
91.5458709887
 11
512.663753757
 21
91.2751396895
  0
LINE
  5
8AF
100
AcDbEntity
  8
0
100
AcDbLine
 62
7
  6
CONTINUOUS
 10
512.682039002
 20
92.8037703913
 11
512.681178091
 21
92.5570877928
  0
LINE
  5
8B0
100
AcDbEntity
  8
0
100
AcDbLine
 62
7
  6
CONTINUOUS
 10
512.681178091
 20
92.5570877928
 11
512.6803224708
 21
92.3100751901
  0
LINE
  5
8B1
100
AcDbEntity
  8
0
100
AcDbLine
 62
7
  6
CONTINUOUS
 10
512.6803224708
 20
92.3100751901
 11
512.6789776781
 21
91.9180716814
  0
LINE
  5
8B2
100
AcDbEntity
  8
0
100
AcDbLine
 62
7
  6
CONTINUOUS
 10
512.6789776781
 20
91.9180716814
 11
512.6786269184
 21
91.8150599725
  0
LINE
  5
8B3
100
AcDbEntity
  8
0
100
AcDbLine
 62
7
  6
CONTINUOUS
 10
517.9241638487
 20
110.7348229564
 11
517.9308518717
 21
108.9661837325
  0
LINE
  5
8B4
100
AcDbEntity
  8
0
100
AcDbLine
 62
7
  6
CONTINUOUS
 10
517.9308518717
 20
108.9661837325
 11
517.9371455692
 21
107.1772273004
  0
SPLINE
  5
8B5
100
AcDbEntity
  8
0
100
AcDbSpline
 62
7
  6
CONTINUOUS
 70
0
 71
3
 72
9
 73
5
 74
0
 42
0.0000001
 43
0.0000001
 44
0.0000000001
 40
0.0
 40
0.0
 40
0.0
 40
0.0
 40
0.2475619287
 40
1.0
 40
1.0
 40
1.0
 40
1.0
 10
451.8730089317
 20
149.4566360796
 30
0.0
 10
451.8730089662
 20
149.5991244045
 30
0.0
 10
451.8533568131
 20
150.1745864323
 30
0.0
 10
451.7556833993
 20
150.7468711047
 30
0.0
 10
451.6435945487
 20
151.1651923902
 30
0.0
  0
LINE
  5
8B6
100
AcDbEntity
  8
0
100
AcDbLine
 62
7
  6
CONTINUOUS
 10
512.6718163007
 20
93.7469146978
 11
512.6743857154
 21
93.5119169173
  0
LINE
  5
8B7
100
AcDbEntity
  8
0
100
AcDbLine
 62
7
  6
CONTINUOUS
 10
512.6743857154
 20
93.5119169173
 11
512.6794970388
 21
93.0403447638
  0
LINE
  5
8B8
100
AcDbEntity
  8
0
100
AcDbLine
 62
7
  6
CONTINUOUS
 10
512.6794970388
 20
93.0403447638
 11
512.682039002
 21
92.8037703913
  0
LINE
  5
8B9
100
AcDbEntity
  8
0
100
AcDbLine
 62
7
  6
CONTINUOUS
 10
512.6360344855
 20
95.3404610361
 11
512.6450102812
 21
94.9455069947
  0
LINE
  5
8BA
100
AcDbEntity
  8
0
100
AcDbLine
 62
7
  6
CONTINUOUS
 10
512.6450102812
 20
94.9455069947
 11
512.6539661793
 21
94.5482645986
  0
LINE
  5
8BB
100
AcDbEntity
  8
0
100
AcDbLine
 62
7
  6
CONTINUOUS
 10
512.6539661793
 20
94.5482645986
 11
512.6629016824
 21
94.1487338366
  0
LINE
  5
8BC
100
AcDbEntity
  8
0
100
AcDbLine
 62
7
  6
CONTINUOUS
 10
512.6629016824
 20
94.1487338366
 11
512.668713107
 21
93.8871565624
  0
LINE
  5
8BD
100
AcDbEntity
  8
0
100
AcDbLine
 62
7
  6
CONTINUOUS
 10
512.668713107
 20
93.8871565624
 11
512.6718163007
 21
93.7469146978
  0
LINE
  5
8BE
100
AcDbEntity
  8
0
100
AcDbLine
 62
7
  6
CONTINUOUS
 10
517.9532870859
 20
101.9344550033
 11
517.8861263576
 21
100.3975754339
  0
LINE
  5
8BF
100
AcDbEntity
  8
0
100
AcDbLine
 62
7
  6
CONTINUOUS
 10
512.5852653645
 20
96.8884419546
 11
512.5980229981
 21
96.5030535113
  0
LINE
  5
8C0
100
AcDbEntity
  8
0
100
AcDbLine
 62
7
  6
CONTINUOUS
 10
512.5980229981
 20
96.5030535113
 11
512.6107372416
 21
96.1165938827
  0
LINE
  5
8C1
100
AcDbEntity
  8
0
100
AcDbLine
 62
7
  6
CONTINUOUS
 10
512.6107372416
 20
96.1165938827
 11
512.6234078243
 21
95.7290630603
  0
LINE
  5
8C2
100
AcDbEntity
  8
0
100
AcDbLine
 62
7
  6
CONTINUOUS
 10
512.6234078243
 20
95.7290630603
 11
512.6360344855
 21
95.3404610361
  0
LINE
  5
8C3
100
AcDbEntity
  8
0
100
AcDbLine
 62
7
  6
CONTINUOUS
 10
519.5635529475
 20
142.5980043866
 11
519.5370191754
 21
141.8760132334
  0
LINE
  5
8C4
100
AcDbEntity
  8
0
100
AcDbLine
 62
7
  6
CONTINUOUS
 10
519.5370191754
 20
141.8760132334
 11
519.4963477752
 21
140.7704053622
  0
LINE
  5
8C5
100
AcDbEntity
  8
0
100
AcDbLine
 62
7
  6
CONTINUOUS
 10
519.4963477752
 20
140.7704053622
 11
519.4921840198
 21
140.6572811
  0
LINE
  5
8C6
100
AcDbEntity
  8
0
100
AcDbLine
 62
7
  6
CONTINUOUS
 10
519.4921840198
 20
140.6572811
 11
519.429039311
 21
138.9427947922
  0
LINE
  5
8C7
100
AcDbEntity
  8
0
100
AcDbLine
 62
7
  6
CONTINUOUS
 10
519.429039311
 20
138.9427947922
 11
519.4106091619
 21
138.4426685391
  0
LINE
  5
8C8
100
AcDbEntity
  8
0
100
AcDbLine
 62
7
  6
CONTINUOUS
 10
519.4106091619
 20
138.4426685391
 11
519.3616787676
 21
137.1151712524
  0
LINE
  5
8C9
100
AcDbEntity
  8
0
100
AcDbLine
 62
7
  6
CONTINUOUS
 10
519.3616787676
 20
137.1151712524
 11
519.3596557401
 21
137.0602895637
  0
LINE
  5
8CA
100
AcDbEntity
  8
0
100
AcDbLine
 62
7
  6
CONTINUOUS
 10
519.3596557401
 20
137.0602895637
 11
519.3026745852
 21
135.5143196837
  0
LINE
  5
8CB
100
AcDbEntity
  8
0
100
AcDbLine
 62
7
  6
CONTINUOUS
 10
519.264502281
 20
134.4782178131
 11
519.1748320539
 21
132.0413131128
  0
LINE
  5
8CC
100
AcDbEntity
  8
0
100
AcDbLine
 62
7
  6
CONTINUOUS
 10
519.1748320539
 20
132.0413131128
 11
519.1597994325
 21
131.6321962998
  0
LINE
  5
8CD
100
AcDbEntity
  8
0
100
AcDbLine
 62
7
  6
CONTINUOUS
 10
519.5669653196
 20
143.0077997795
 11
519.5637275124
 21
142.6193036341
  0
LINE
  5
8CE
100
AcDbEntity
  8
0
100
AcDbLine
 62
7
  6
CONTINUOUS
 10
519.5637275124
 20
142.6193036341
 11
519.5635529475
 21
142.5980043866
  0
LINE
  5
8CF
100
AcDbEntity
  8
0
100
AcDbLine
 62
7
  6
CONTINUOUS
 10
512.5192798205
 20
98.1436805985
 11
512.5688329426
 21
97.2020992528
  0
LINE
  5
8D0
100
AcDbEntity
  8
0
100
AcDbLine
 62
7
  6
CONTINUOUS
 10
512.5688329426
 20
97.2020992528
 11
512.5852653645
 21
96.8884419546
  0
LINE
  5
8D1
100
AcDbEntity
  8
0
100
AcDbLine
 62
7
  6
CONTINUOUS
 10
519.5465726883
 20
143.8970820873
 11
519.5405196048
 21
143.7200220863
  0
LINE
  5
8D2
100
AcDbEntity
  8
0
100
AcDbLine
 62
7
  6
CONTINUOUS
 10
519.5405196048
 20
143.7200220863
 11
519.5372701977
 21
143.6247650284
  0
LINE
  5
8D3
100
AcDbEntity
  8
0
100
AcDbLine
 62
7
  6
CONTINUOUS
 10
519.5372701977
 20
143.6247650284
 11
519.5349362025
 21
143.5562534372
  0
LINE
  5
8D4
100
AcDbEntity
  8
0
100
AcDbLine
 62
7
  6
CONTINUOUS
 10
519.5349362025
 20
143.5562534372
 11
519.503275809
 21
142.6193674331
  0
LINE
  5
8D5
100
AcDbEntity
  8
0
100
AcDbLine
 62
7
  6
CONTINUOUS
 10
519.503275809
 20
142.6193674331
 11
519.4950800743
 21
142.3745205342
  0
LINE
  5
8D6
100
AcDbEntity
  8
0
100
AcDbLine
 62
7
  6
CONTINUOUS
 10
519.4950800743
 20
142.3745205342
 11
519.4785742451
 21
141.8784546428
  0
LINE
  5
8D7
100
AcDbEntity
  8
0
100
AcDbLine
 62
7
  6
CONTINUOUS
 10
519.4785742451
 20
141.8784546428
 11
519.4442221416
 21
140.8330991925
  0
LINE
  5
8D8
100
AcDbEntity
  8
0
100
AcDbLine
 62
7
  6
CONTINUOUS
 10
519.4442221416
 20
140.8330991925
 11
519.4385791236
 21
140.6596727135
  0
LINE
  5
8D9
100
AcDbEntity
  8
0
100
AcDbLine
 62
7
  6
CONTINUOUS
 10
519.4385791236
 20
140.6596727135
 11
519.367894089
 21
138.4448585999
  0
SPLINE
  5
8DA
100
AcDbEntity
  8
0
100
AcDbSpline
 62
7
  6
CONTINUOUS
 70
0
 71
3
 72
8
 73
4
 74
0
 42
0.0000001
 43
0.0000001
 44
0.0000000001
 40
0.0
 40
0.0
 40
0.0
 40
0.0
 40
1.0
 40
1.0
 40
1.0
 40
1.0
 10
519.367894089
 20
138.4448585999
 30
0.0
 10
519.3534502108
 20
137.9840199852
 30
0.0
 10
519.3391690457
 20
137.5231762431
 30
0.0
 10
519.3250473772
 20
137.0623276422
 30
0.0
  0
LINE
  5
8DB
100
AcDbEntity
  8
0
100
AcDbLine
 62
7
  6
CONTINUOUS
 10
519.3250473772
 20
137.0623276422
 11
519.27826092
 21
135.516094551
  0
LINE
  5
8DC
100
AcDbEntity
  8
0
100
AcDbLine
 62
7
  6
CONTINUOUS
 10
519.27826092
 20
135.516094551
 11
519.259471316
 21
134.8839314075
  0
LINE
  5
8DD
100
AcDbEntity
  8
0
100
AcDbLine
 62
7
  6
CONTINUOUS
 10
519.259471316
 20
134.8839314075
 11
519.247532936
 21
134.4788425821
  0
LINE
  5
8DE
100
AcDbEntity
  8
0
100
AcDbLine
 62
7
  6
CONTINUOUS
 10
519.5734895493
 20
144.7521754969
 11
519.5667465741
 21
144.539660689
  0
LINE
  5
8DF
100
AcDbEntity
  8
0
100
AcDbLine
 62
7
  6
CONTINUOUS
 10
519.5667465741
 20
144.539660689
 11
519.5600126467
 21
144.3263068536
  0
LINE
  5
8E0
100
AcDbEntity
  8
0
100
AcDbLine
 62
7
  6
CONTINUOUS
 10
519.5600126467
 20
144.3263068536
 11
519.5465726883
 21
143.8970820873
  0
LINE
  5
8E1
100
AcDbEntity
  8
0
100
AcDbLine
 62
7
  6
CONTINUOUS
 10
519.5892757209
 20
145.3846128975
 11
519.5813506276
 21
145.0694246007
  0
LINE
  5
8E2
100
AcDbEntity
  8
0
100
AcDbLine
 62
7
  6
CONTINUOUS
 10
519.5813506276
 20
145.0694246007
 11
519.5734895493
 21
144.7521754969
  0
LINE
  5
8E3
100
AcDbEntity
  8
0
100
AcDbLine
 62
7
  6
CONTINUOUS
 10
519.5909942135
 20
145.5485312613
 11
519.5897033582
 21
145.4256336519
  0
LINE
  5
8E4
100
AcDbEntity
  8
0
100
AcDbLine
 62
7
  6
CONTINUOUS
 10
519.5897033582
 20
145.4256336519
 11
519.5892757209
 21
145.3846128975
  0
ELLIPSE
  5
8E5
100
AcDbEntity
  8
0
100
AcDbEllipse
 62
7
  6
CONTINUOUS
 10
524.021993025
 20
311.1732066136
 30
0.0
 11
-0.1362013457
 21
9.9999976245
 31
0.0
 40
0.0506070003
 41
0.0
 42
6.2831853072
  0
ELLIPSE
  5
8E6
100
AcDbEntity
  8
AUSFORMSCHRAEGEN
100
AcDbEllipse
 62
7
  6
CONTINUOUS
 10
437.7388248384
 20
311.1732066136
 30
0.0
 11
0.1362013457
 21
9.9999976245
 31
0.0
 40
0.0506070003
 41
0.0
 42
6.2831853072
  0
ELLIPSE
  5
8E7
100
AcDbEntity
  8
KONSTRUKTIONSELEMENTE
100
AcDbEllipse
 62
7
  6
CONTINUOUS
 10
517.3729697312
 20
161.7105208487
 30
0.0
 11
5.5645894639
 21
100.8962946855
 31
0.0
 40
0.1713510941
 41
-4.1513417203
 42
-4.0333648008
  0
ELLIPSE
  5
8E8
100
AcDbEntity
  8
0
100
AcDbEllipse
 62
7
  6
CONTINUOUS
 10
444.3878481323
 20
161.7105208487
 30
0.0
 11
-5.5645894639
 21
100.8962946855
 31
0.0
 40
0.1713510941
 41
-2.2498205064
 42
-2.1318435869
  0
ENDSEC
  0
SECTION
  2
OBJECTS
  0
DICTIONARY
  5
C
100
AcDbDictionary
280
0
281
1
  3
ACAD_GROUP
350
D
  3
ACAD_MLINESTYLE
350
17
  3
ACAD_LAYOUT
350
1A
  3
ACAD_PLOTSETTINGS
350
19
  3
ACAD_PLOTSTYLENAME
350
E
  0
DICTIONARY
  5
D
102
{ACAD_REACTORS
330
C
102
}
100
AcDbDictionary
280
0
281
1
  0
ACDBDICTIONARYWDFLT
  5
E
102
{ACAD_REACTORS
330
C
102
}
100
AcDbDictionary
281
1
  3
Normal
350
F
100
AcDbDictionaryWithDefault
340
F
  0
DICTIONARY
  5
17
102
{ACAD_REACTORS
330
C
102
}
100
AcDbDictionary
280
0
281
1
  3
Standard
350
18
  0
DICTIONARY
  5
19
102
{ACAD_REACTORS
330
C
102
}
100
AcDbDictionary
281
1
  0
DICTIONARY
  5
1A
102
{ACAD_REACTORS
330
C
102
}
100
AcDbDictionary
281
1
  3
Model
350
8E9
  3
Layout1
350
8EA
  0
ACDBPLACEHOLDER
  5
F
102
{ACAD_REACTORS
330
E
102
}
  0
MLINESTYLE
  5
18
102
{ACAD_REACTORS
330
17
102
}
100
AcDbMlineStyle
  2
STANDARD
 70
0
  3

 62
256
 51
90.0
 52
90.0
 71
2
 49
0.5
 62
256
  6
BYLAYER
 49
-0.5
 62
256
  6
BYLAYER
  0
LAYOUT
  5
8E9
102
{ACAD_REACTORS
330
1A
102
}
100
AcDbPlotSettings
  1

  2
none_device
  4
ISO_A3_(420.00_x_297.00_MM)
  6

 40
0.0
 41
0.0
 42
0.0
 43
0.0
 44
420.0
 45
297.0
 46
0.0
 47
0.0
 48
0.0
 49
0.0
140
0.0
141
0.0
142
1.0
143
1.0
 70
1024
 72
1
 73
0
 74
0
  7

 75
0
147
1.0
148
0.0
149
0.0
100
AcDbLayout
  1
Model
 70
0
 71
0
 10
0.0
 20
0.0
 11
420.0
 21
297.0
 12
0.0
 22
0.0
 32
0.0
 14
0.0
 24
0.0
 34
0.0
 15
0.0
 25
0.0
 35
0.0
146
0.0
 13
0.0
 23
0.0
 33
0.0
 16
1.0
 26
0.0
 36
0.0
 17
0.0
 27
1.0
 37
0.0
 76
0
330
20F
345
0
346
0
  0
LAYOUT
  5
8EA
102
{ACAD_REACTORS
330
1A
102
}
100
AcDbPlotSettings
  1

  2
none_device
  4
ISO_A3_(420.00_x_297.00_MM)
  6

 40
0.0
 41
0.0
 42
0.0
 43
0.0
 44
420.0
 45
297.0
 46
0.0
 47
0.0
 48
0.0
 49
0.0
140
0.0
141
0.0
142
1.0
143
1.0
 70
0
 72
1
 73
0
 74
0
  7

 75
0
147
1.0
148
0.0
149
0.0
100
AcDbLayout
  1
Layout1
 70
0
 71
1
 10
0.0
 20
0.0
 11
420.0
 21
297.0
 12
0.0
 22
0.0
 32
0.0
 14
0.0
 24
0.0
 34
0.0
 15
0.0
 25
0.0
 35
0.0
146
0.0
 13
0.0
 23
0.0
 33
0.0
 16
1.0
 26
0.0
 36
0.0
 17
0.0
 27
1.0
 37
0.0
 76
0
330
210
345
0
346
0
  0
ENDSEC
  0
EOF
