999
DXF file: G:\TBM\Rehwagen\Dateitypen\Oval-Glieder\8502175.dxf
999
Pro/ENGINEER 2001400 by Parametric Technology Corporation
0
SECTION
2
HEADER
9
$ACADVER
1
AC1014
9
$EXTMAX
10
420.0000000000
20
297.0000000000
9
$EXTMIN
10
0.0000000000
20
0.0000000000
9
$LIMMIN
10
0.0000000000
20
0.0000000000
9
$LIMMAX
10
420.0000000000
20
297.0000000000
9
$VIEWCTR
10
210.0000000000
20
148.5000000000
9
$VIEWSIZE
40
297.0000000000
9
$CLAYER
8
0
9
$LTSCALE
40
23.1000000000
9
$CELTYPE
6
BYLAYER
9
$DIMSCALE
40
1
9
$DIMASZ
40
3.5000000000
9
$DIMEXO
40
2.6250000000
9
$DIMDLI
40
15.9600000000
9
$DIMEXE
40
7.5600000000
9
$DIMCEN
40
3.7800000000
9
$DIMLFAC
40
1.0000000000
9
$DIMTXT
40
3.5000000000
9
$DIMTOL
70
1
9
$DIMTFAC
40
0.6000000000
9
$DIMTP
40
0.0050000000
9
$DIMTM
40
0.0050000000
9
$HANDSEED
5
27B
0
ENDSEC
0
SECTION
2
CLASSES
0
ENDSEC
0
SECTION
2
TABLES
0
TABLE
2
VPORT
5
8
100
AcDbSymbolTable
70
2
0
VPORT
5
1F4
100
AcDbSymbolTableRecord
100
AcDbViewportTableRecord
2
*ACTIVE
70
0
10
0.0
20
0.0
11
1.0
21
1.0
12
210.0000000000
22
148.5000000000
13
0.0
23
0.0
14
1.0
24
1.0
15
0.0
25
0.0
16
0.0
26
0.0
36
1.0
17
0.0
27
0.0
37
0.0
40
297.0000000000
41
1.4141414141
42
50.0
43
0.0
44
0.0
50
0.0
51
0.0
71
0
72
100
73
1
74
1
75
0
76
0
77
0
78
0
0
ENDTAB
0
TABLE
2
LTYPE
5
5
100
AcDbSymbolTable
70
6
0
LTYPE
5
14
100
AcDbSymbolTableRecord
100
AcDbLinetypeTableRecord
2
BYBLOCK
70
0
3

72
65
73
0
40
0.0
0
LTYPE
5
15
100
AcDbSymbolTableRecord
100
AcDbLinetypeTableRecord
2
BYLAYER
70
0
3

72
65
73
0
40
0.0
0
LTYPE
5
16
100
AcDbSymbolTableRecord
100
AcDbLinetypeTableRecord
2
CONTINUOUS
70
64
3
Solid line
72
65
73
0
40
0
0
LTYPE
5
1F5
100
AcDbSymbolTableRecord
100
AcDbLinetypeTableRecord
2
CENTER
70
64
3
____ _ ____ _ ____ _ ____ _ ____ _ ____ _ ____
72
65
73
4
40
0.6
49
0.375
74
0
49
-0.075
74
0
49
0.075
74
0
49
-0.075
74
0
0
LTYPE
5
1F6
100
AcDbSymbolTableRecord
100
AcDbLinetypeTableRecord
2
HIDDEN
70
64
3
- - - - - - - - - - - - - - - - - - - -
72
65
73
2
40
0.2
49
0.1
74
0
49
-0.1
74
0
0
LTYPE
5
1F7
100
AcDbSymbolTableRecord
100
AcDbLinetypeTableRecord
2
PHANTOM
70
64
3
_____ _ _ _____ _ _ _____ _ _ _____
72
65
73
6
40
0.8
49
0.45
74
0
49
-0.05
74
0
49
0.1
74
0
49
-0.05
74
0
49
0.1
74
0
49
-0.05
74
0
0
LTYPE
5
1F8
100
AcDbSymbolTableRecord
100
AcDbLinetypeTableRecord
2
DOT
70
64
3
. . . . . . . . . . . . . . . . . . . .
72
65
73
2
40
0.2
49
0.1
74
0
49
-0.1
74
0
0
LTYPE
5
1F9
100
AcDbSymbolTableRecord
100
AcDbLinetypeTableRecord
2
DASHED
70
64
3
- - - - - - - - - - - - - - - - - - - -
72
65
73
2
40
0.2
49
0.1
74
0
49
-0.1
74
0
0
ENDTAB
0
TABLE
2
LAYER
5
2
100
AcDbSymbolTable
70
36
0
LAYER
5
10
100
AcDbSymbolTableRecord
100
AcDbLayerTableRecord
2
0
70
0
62
7
6
CONTINUOUS
0
LAYER
5
1FA
100
AcDbSymbolTableRecord
100
AcDbLayerTableRecord
2
DEFAULT_1
70
0
62
7
6
CENTER
0
LAYER
5
1FB
100
AcDbSymbolTableRecord
100
AcDbLayerTableRecord
2
DEFAULT_2
70
0
62
8
6
HIDDEN
0
LAYER
5
1FC
100
AcDbSymbolTableRecord
100
AcDbLayerTableRecord
2
DEFAULT_3
70
0
62
7
6
PHANTOM
0
ENDTAB
0
TABLE
2
STYLE
5
3
100
AcDbSymbolTable
70
1
0
STYLE
5
11
100
AcDbSymbolTableRecord
100
AcDbTextStyleTableRecord
2
STANDARD
70
0
40
0.0
41
1.0
50
0.0
71
0
42
0.0
3
txt
4

0
ENDTAB
0
TABLE
2
VIEW
5
6
100
AcDbSymbolTable
70
0
0
ENDTAB
0
TABLE
2
UCS
5
7
100
AcDbSymbolTable
70
0
0
ENDTAB
0
TABLE
2
APPID
5
9
100
AcDbSymbolTable
70
1
0
APPID
5
1FD
100
AcDbSymbolTableRecord
100
AcDbRegAppTableRecord
2
ACAD
70
0
0
ENDTAB
0
TABLE
2
DIMSTYLE
5
A
100
AcDbSymbolTable
70
1
0
DIMSTYLE
105
1FE
100
AcDbSymbolTableRecord
100
AcDbDimStyleTableRecord
2
STANDARD
70
0
3

4

5

6

7

40
1.0
41
0.18
42
0.0625
43
0.38
44
0.18
45
0.0
46
0.0
47
0.0050000000
48
0.0050000000
140
3.5000000000
141
0.09
142
0.0
143
25.4
144
1.0000000000
145
0.0
146
0.6000000000
147
0.09
71
1
72
0
73
1
74
1
75
0
76
0
77
0
78
0
170
0
171
2
172
0
173
0
174
0
175
0
176
0
177
0
178
0
270
2
271
3
272
4
273
2
274
2
340
11
275
0
280
0
281
0
282
0
283
1
284
0
285
0
286
0
287
3
288
0
0
ENDTAB
0
TABLE
2
BLOCK_RECORD
5
1
100
AcDbSymbolTable
70
0
0
BLOCK_RECORD
5
1B
100
AcDbSymbolTableRecord
100
AcDbBlockTableRecord
2
*MODEL_SPACE
0
BLOCK_RECORD
5
1C
100
AcDbSymbolTableRecord
100
AcDbBlockTableRecord
2
*PAPER_SPACE
0
ENDTAB
0
ENDSEC
0
SECTION
2
BLOCKS
0
BLOCK
5
1E
100
AcDbEntity
8
0
100
AcDbBlockBegin
2
*MODEL_SPACE
70
0
10
0.0
20
0.0
30
0.0
3
*MODEL_SPACE
1

0
ENDBLK
5
1F
100
AcDbEntity
8
0
100
AcDbBlockEnd
0
BLOCK
5
20
100
AcDbEntity
8
0
100
AcDbBlockBegin
2
*PAPER_SPACE
70
0
10
0.0
20
0.0
30
0.0
3
*PAPER_SPACE
1

0
ENDBLK
5
21
100
AcDbEntity
8
0
100
AcDbBlockEnd
0
ENDSEC
0
SECTION
2
ENTITIES
0
LINE
5
1FF
100
AcDbEntity
8
0
100
AcDbLine
62
7
6
CONTINUOUS
10
0.0000000000
20
0.0000000000
11
0.0000000000
21
297.0000000000
0
LINE
5
200
100
AcDbEntity
8
0
100
AcDbLine
62
7
6
CONTINUOUS
10
0.0000000000
20
0.0000000000
11
420.0000000000
21
0.0000000000
0
LINE
5
201
100
AcDbEntity
8
0
100
AcDbLine
62
7
6
CONTINUOUS
10
0.0000000000
20
297.0000000000
11
420.0000000000
21
297.0000000000
0
LINE
5
202
100
AcDbEntity
8
0
100
AcDbLine
62
7
6
CONTINUOUS
10
420.0000000000
20
0.0000000000
11
420.0000000000
21
297.0000000000
0
LINE
5
203
100
AcDbEntity
8
0
100
AcDbLine
62
9
6
CONTINUOUS
10
79.9122644444
20
193.3298214570
11
77.0270185427
21
177.5921165390
0
LINE
5
204
100
AcDbEntity
8
0
100
AcDbLine
62
9
6
CONTINUOUS
10
79.9122644444
20
232.6740837521
11
77.0270185427
21
248.4117886701
0
LINE
5
205
100
AcDbEntity
8
0
100
AcDbLine
62
7
6
CONTINUOUS
10
93.5188218214
20
177.0787311463
11
93.5188218214
21
189.6279184397
0
LINE
5
206
100
AcDbEntity
8
0
100
AcDbLine
62
7
6
CONTINUOUS
10
93.5188218214
20
236.3759867693
11
93.5188218214
21
248.9251740628
0
LINE
5
207
100
AcDbEntity
8
DEFAULT_1
100
AcDbLine
62
2
6
CENTER
10
44.5188218214
20
213.0019526045
11
177.5188218214
21
213.0019526045
0
LINE
5
208
100
AcDbEntity
8
0
100
AcDbLine
62
7
6
CONTINUOUS
10
128.5188218214
20
177.0787311463
11
128.5188218214
21
189.6279184397
0
LINE
5
209
100
AcDbEntity
8
0
100
AcDbLine
62
7
6
CONTINUOUS
10
128.5188218214
20
236.3759867693
11
128.5188218214
21
248.9251740628
0
LINE
5
20A
100
AcDbEntity
8
0
100
AcDbLine
62
9
6
CONTINUOUS
10
142.1253791985
20
232.6740837521
11
145.0106251001
21
248.4117886701
0
LINE
5
20B
100
AcDbEntity
8
0
100
AcDbLine
62
9
6
CONTINUOUS
10
142.1253791985
20
193.3298214570
11
145.0106251001
21
177.5921165390
0
POLYLINE
5
20C
100
AcDbEntity
8
0
100
AcDb2dPolyline
62
9
6
CONTINUOUS
66
1
70
0
0
VERTEX
5
20D
100
AcDbEntity
8
0
100
AcDbVertex
62
9
6
CONTINUOUS
100
AcDb2dVertex
10
77.0270185427
20
112.6134590964
0
VERTEX
5
20E
100
AcDbEntity
8
0
100
AcDbVertex
62
9
6
CONTINUOUS
100
AcDb2dVertex
10
77.0339651665
20
113.3975962190
0
VERTEX
5
20F
100
AcDbEntity
8
0
100
AcDbVertex
62
9
6
CONTINUOUS
100
AcDb2dVertex
10
77.0547381382
20
114.1741816725
0
VERTEX
5
210
100
AcDbEntity
8
0
100
AcDbVertex
62
9
6
CONTINUOUS
100
AcDb2dVertex
10
77.0891374026
20
114.9357365144
0
VERTEX
5
211
100
AcDbEntity
8
0
100
AcDbVertex
62
9
6
CONTINUOUS
100
AcDb2dVertex
10
77.1368316761
20
115.6749265553
0
VERTEX
5
212
100
AcDbEntity
8
0
100
AcDbVertex
62
9
6
CONTINUOUS
100
AcDb2dVertex
10
77.1973616368
20
116.3846329910
0
VERTEX
5
213
100
AcDbEntity
8
0
100
AcDbVertex
62
9
6
CONTINUOUS
100
AcDb2dVertex
10
77.2701443479
20
117.0580209605
0
VERTEX
5
214
100
AcDbEntity
8
0
100
AcDbVertex
62
9
6
CONTINUOUS
100
AcDb2dVertex
10
77.3544788723
20
117.6886053697
0
VERTEX
5
215
100
AcDbEntity
8
0
100
AcDbVertex
62
9
6
CONTINUOUS
100
AcDb2dVertex
10
77.4495530223
20
118.2703133459
0
VERTEX
5
216
100
AcDbEntity
8
0
100
AcDbVertex
62
9
6
CONTINUOUS
100
AcDb2dVertex
10
77.5544511820
20
118.7975427233
0
VERTEX
5
217
100
AcDbEntity
8
0
100
AcDbVertex
62
9
6
CONTINUOUS
100
AcDb2dVertex
10
77.6681631246
20
119.2652159948
0
VERTEX
5
218
100
AcDbEntity
8
0
100
AcDbVertex
62
9
6
CONTINUOUS
100
AcDb2dVertex
10
77.7895937421
20
119.6688292112
0
VERTEX
5
219
100
AcDbEntity
8
0
100
AcDbVertex
62
9
6
CONTINUOUS
100
AcDb2dVertex
10
77.9175735911
20
120.0044953565
0
VERTEX
5
21A
100
AcDbEntity
8
0
100
AcDbVertex
62
9
6
CONTINUOUS
100
AcDb2dVertex
10
78.0508701559
20
120.2689817822
0
VERTEX
5
21B
100
AcDbEntity
8
0
100
AcDbVertex
62
9
6
CONTINUOUS
100
AcDb2dVertex
10
78.1881997175
20
120.4597413396
0
VERTEX
5
21C
100
AcDbEntity
8
0
100
AcDbVertex
62
9
6
CONTINUOUS
100
AcDb2dVertex
10
78.3282397173
20
120.5749369098
0
VERTEX
5
21D
100
AcDbEntity
8
0
100
AcDbVertex
62
9
6
CONTINUOUS
100
AcDb2dVertex
10
78.4696414935
20
120.6134590964
0
SEQEND
5
21E
100
AcDbEntity
8
0
0
POLYLINE
5
21F
100
AcDbEntity
8
0
100
AcDb2dPolyline
62
9
6
CONTINUOUS
66
1
70
0
0
VERTEX
5
220
100
AcDbEntity
8
0
100
AcDbVertex
62
9
6
CONTINUOUS
100
AcDb2dVertex
10
143.5680021493
20
104.6134590964
0
VERTEX
5
221
100
AcDbEntity
8
0
100
AcDbVertex
62
9
6
CONTINUOUS
100
AcDb2dVertex
10
143.7094039255
20
104.6519812830
0
VERTEX
5
222
100
AcDbEntity
8
0
100
AcDbVertex
62
9
6
CONTINUOUS
100
AcDb2dVertex
10
143.8494439253
20
104.7671768532
0
VERTEX
5
223
100
AcDbEntity
8
0
100
AcDbVertex
62
9
6
CONTINUOUS
100
AcDb2dVertex
10
143.9867734870
20
104.9579364105
0
VERTEX
5
224
100
AcDbEntity
8
0
100
AcDbVertex
62
9
6
CONTINUOUS
100
AcDb2dVertex
10
144.1200700517
20
105.2224228363
0
VERTEX
5
225
100
AcDbEntity
8
0
100
AcDbVertex
62
9
6
CONTINUOUS
100
AcDb2dVertex
10
144.2480499008
20
105.5580889816
0
VERTEX
5
226
100
AcDbEntity
8
0
100
AcDbVertex
62
9
6
CONTINUOUS
100
AcDb2dVertex
10
144.3694805182
20
105.9617021980
0
VERTEX
5
227
100
AcDbEntity
8
0
100
AcDbVertex
62
9
6
CONTINUOUS
100
AcDb2dVertex
10
144.4831924609
20
106.4293754695
0
VERTEX
5
228
100
AcDbEntity
8
0
100
AcDbVertex
62
9
6
CONTINUOUS
100
AcDb2dVertex
10
144.5880906205
20
106.9566048469
0
VERTEX
5
229
100
AcDbEntity
8
0
100
AcDbVertex
62
9
6
CONTINUOUS
100
AcDb2dVertex
10
144.6831647705
20
107.5383128231
0
VERTEX
5
22A
100
AcDbEntity
8
0
100
AcDbVertex
62
9
6
CONTINUOUS
100
AcDb2dVertex
10
144.7674992949
20
108.1688972322
0
VERTEX
5
22B
100
AcDbEntity
8
0
100
AcDbVertex
62
9
6
CONTINUOUS
100
AcDb2dVertex
10
144.8402820060
20
108.8422852018
0
VERTEX
5
22C
100
AcDbEntity
8
0
100
AcDbVertex
62
9
6
CONTINUOUS
100
AcDb2dVertex
10
144.9008119667
20
109.5519916375
0
VERTEX
5
22D
100
AcDbEntity
8
0
100
AcDbVertex
62
9
6
CONTINUOUS
100
AcDb2dVertex
10
144.9485062402
20
110.2911816784
0
VERTEX
5
22E
100
AcDbEntity
8
0
100
AcDbVertex
62
9
6
CONTINUOUS
100
AcDb2dVertex
10
144.9829055046
20
111.0527365203
0
VERTEX
5
22F
100
AcDbEntity
8
0
100
AcDbVertex
62
9
6
CONTINUOUS
100
AcDb2dVertex
10
145.0036784763
20
111.8293219738
0
VERTEX
5
230
100
AcDbEntity
8
0
100
AcDbVertex
62
9
6
CONTINUOUS
100
AcDb2dVertex
10
145.0106251001
20
112.6134590964
0
SEQEND
5
231
100
AcDbEntity
8
0
0
POLYLINE
5
232
100
AcDbEntity
8
0
100
AcDb2dPolyline
62
9
6
CONTINUOUS
66
1
70
0
0
VERTEX
5
233
100
AcDbEntity
8
0
100
AcDbVertex
62
9
6
CONTINUOUS
100
AcDb2dVertex
10
78.4696414935
20
104.6134590964
0
VERTEX
5
234
100
AcDbEntity
8
0
100
AcDbVertex
62
9
6
CONTINUOUS
100
AcDb2dVertex
10
78.3282397173
20
104.6519812830
0
VERTEX
5
235
100
AcDbEntity
8
0
100
AcDbVertex
62
9
6
CONTINUOUS
100
AcDb2dVertex
10
78.1881997175
20
104.7671768532
0
VERTEX
5
236
100
AcDbEntity
8
0
100
AcDbVertex
62
9
6
CONTINUOUS
100
AcDb2dVertex
10
78.0508701559
20
104.9579364105
0
VERTEX
5
237
100
AcDbEntity
8
0
100
AcDbVertex
62
9
6
CONTINUOUS
100
AcDb2dVertex
10
77.9175735911
20
105.2224228363
0
VERTEX
5
238
100
AcDbEntity
8
0
100
AcDbVertex
62
9
6
CONTINUOUS
100
AcDb2dVertex
10
77.7895937421
20
105.5580889816
0
VERTEX
5
239
100
AcDbEntity
8
0
100
AcDbVertex
62
9
6
CONTINUOUS
100
AcDb2dVertex
10
77.6681631246
20
105.9617021980
0
VERTEX
5
23A
100
AcDbEntity
8
0
100
AcDbVertex
62
9
6
CONTINUOUS
100
AcDb2dVertex
10
77.5544511820
20
106.4293754695
0
VERTEX
5
23B
100
AcDbEntity
8
0
100
AcDbVertex
62
9
6
CONTINUOUS
100
AcDb2dVertex
10
77.4495530223
20
106.9566048469
0
VERTEX
5
23C
100
AcDbEntity
8
0
100
AcDbVertex
62
9
6
CONTINUOUS
100
AcDb2dVertex
10
77.3544788723
20
107.5383128231
0
VERTEX
5
23D
100
AcDbEntity
8
0
100
AcDbVertex
62
9
6
CONTINUOUS
100
AcDb2dVertex
10
77.2701443479
20
108.1688972322
0
VERTEX
5
23E
100
AcDbEntity
8
0
100
AcDbVertex
62
9
6
CONTINUOUS
100
AcDb2dVertex
10
77.1973616368
20
108.8422852018
0
VERTEX
5
23F
100
AcDbEntity
8
0
100
AcDbVertex
62
9
6
CONTINUOUS
100
AcDb2dVertex
10
77.1368316761
20
109.5519916375
0
VERTEX
5
240
100
AcDbEntity
8
0
100
AcDbVertex
62
9
6
CONTINUOUS
100
AcDb2dVertex
10
77.0891374026
20
110.2911816784
0
VERTEX
5
241
100
AcDbEntity
8
0
100
AcDbVertex
62
9
6
CONTINUOUS
100
AcDb2dVertex
10
77.0547381382
20
111.0527365203
0
VERTEX
5
242
100
AcDbEntity
8
0
100
AcDbVertex
62
9
6
CONTINUOUS
100
AcDb2dVertex
10
77.0339651665
20
111.8293219738
0
VERTEX
5
243
100
AcDbEntity
8
0
100
AcDbVertex
62
9
6
CONTINUOUS
100
AcDb2dVertex
10
77.0270185427
20
112.6134590964
0
SEQEND
5
244
100
AcDbEntity
8
0
0
LINE
5
245
100
AcDbEntity
8
0
100
AcDbLine
62
7
6
CONTINUOUS
10
166.5188218214
20
104.6134590964
11
139.7018855044
21
104.6134590964
0
LINE
5
246
100
AcDbEntity
8
0
100
AcDbLine
62
7
6
CONTINUOUS
10
82.3347661367
20
104.6134590964
11
55.5188218214
21
104.6134590964
0
LINE
5
247
100
AcDbEntity
8
0
100
AcDbLine
62
7
6
CONTINUOUS
10
128.5188218214
20
107.6134590964
11
93.5188218214
21
107.6134590964
0
LINE
5
248
100
AcDbEntity
8
0
100
AcDbLine
62
7
6
CONTINUOUS
10
93.5188218214
20
107.6134590964
11
82.3220632700
21
104.6132966847
0
LINE
5
249
100
AcDbEntity
8
0
100
AcDbLine
62
7
6
CONTINUOUS
10
128.5188218214
20
117.6134590964
11
139.7155805364
21
120.6136215519
0
LINE
5
24A
100
AcDbEntity
8
DEFAULT_1
100
AcDbLine
62
2
6
CENTER
10
44.5188218214
20
112.6134590964
11
177.5188218214
21
112.6134590964
0
LINE
5
24B
100
AcDbEntity
8
0
100
AcDbLine
62
7
6
CONTINUOUS
10
139.7155821841
20
104.6132961994
11
128.5188218214
21
107.6134590964
0
LINE
5
24C
100
AcDbEntity
8
0
100
AcDbLine
62
7
6
CONTINUOUS
10
82.3220612774
20
120.6136220420
11
93.5188218214
21
117.6134590964
0
LINE
5
24D
100
AcDbEntity
8
0
100
AcDbLine
62
7
6
CONTINUOUS
10
128.5188218214
20
117.6134590964
11
93.5188218214
21
117.6134590964
0
LINE
5
24E
100
AcDbEntity
8
0
100
AcDbLine
62
7
6
CONTINUOUS
10
166.5188218214
20
120.6134590964
11
139.7028820055
21
120.6134590964
0
LINE
5
24F
100
AcDbEntity
8
0
100
AcDbLine
62
7
6
CONTINUOUS
10
82.3357886914
20
120.6134590964
11
55.5188218214
21
120.6134590964
0
POLYLINE
5
250
100
AcDbEntity
8
0
100
AcDb2dPolyline
62
9
6
CONTINUOUS
66
1
70
0
0
VERTEX
5
251
100
AcDbEntity
8
0
100
AcDbVertex
62
9
6
CONTINUOUS
100
AcDb2dVertex
10
145.0106251001
20
112.6134590964
0
VERTEX
5
252
100
AcDbEntity
8
0
100
AcDbVertex
62
9
6
CONTINUOUS
100
AcDb2dVertex
10
145.0036784763
20
113.3975962190
0
VERTEX
5
253
100
AcDbEntity
8
0
100
AcDbVertex
62
9
6
CONTINUOUS
100
AcDb2dVertex
10
144.9829055046
20
114.1741816725
0
VERTEX
5
254
100
AcDbEntity
8
0
100
AcDbVertex
62
9
6
CONTINUOUS
100
AcDb2dVertex
10
144.9485062402
20
114.9357365144
0
VERTEX
5
255
100
AcDbEntity
8
0
100
AcDbVertex
62
9
6
CONTINUOUS
100
AcDb2dVertex
10
144.9008119667
20
115.6749265553
0
VERTEX
5
256
100
AcDbEntity
8
0
100
AcDbVertex
62
9
6
CONTINUOUS
100
AcDb2dVertex
10
144.8402820060
20
116.3846329910
0
VERTEX
5
257
100
AcDbEntity
8
0
100
AcDbVertex
62
9
6
CONTINUOUS
100
AcDb2dVertex
10
144.7674992949
20
117.0580209605
0
VERTEX
5
258
100
AcDbEntity
8
0
100
AcDbVertex
62
9
6
CONTINUOUS
100
AcDb2dVertex
10
144.6831647705
20
117.6886053697
0
VERTEX
5
259
100
AcDbEntity
8
0
100
AcDbVertex
62
9
6
CONTINUOUS
100
AcDb2dVertex
10
144.5880906205
20
118.2703133459
0
VERTEX
5
25A
100
AcDbEntity
8
0
100
AcDbVertex
62
9
6
CONTINUOUS
100
AcDb2dVertex
10
144.4831924609
20
118.7975427233
0
VERTEX
5
25B
100
AcDbEntity
8
0
100
AcDbVertex
62
9
6
CONTINUOUS
100
AcDb2dVertex
10
144.3694805182
20
119.2652159948
0
VERTEX
5
25C
100
AcDbEntity
8
0
100
AcDbVertex
62
9
6
CONTINUOUS
100
AcDb2dVertex
10
144.2480499008
20
119.6688292112
0
VERTEX
5
25D
100
AcDbEntity
8
0
100
AcDbVertex
62
9
6
CONTINUOUS
100
AcDb2dVertex
10
144.1200700517
20
120.0044953565
0
VERTEX
5
25E
100
AcDbEntity
8
0
100
AcDbVertex
62
9
6
CONTINUOUS
100
AcDb2dVertex
10
143.9867734870
20
120.2689817822
0
VERTEX
5
25F
100
AcDbEntity
8
0
100
AcDbVertex
62
9
6
CONTINUOUS
100
AcDb2dVertex
10
143.8494439253
20
120.4597413396
0
VERTEX
5
260
100
AcDbEntity
8
0
100
AcDbVertex
62
9
6
CONTINUOUS
100
AcDb2dVertex
10
143.7094039255
20
120.5749369098
0
VERTEX
5
261
100
AcDbEntity
8
0
100
AcDbVertex
62
9
6
CONTINUOUS
100
AcDb2dVertex
10
143.5680021493
20
120.6134590964
0
SEQEND
5
262
100
AcDbEntity
8
0
0
ARC
5
263
100
AcDbEntity
8
0
100
AcDbCircle
62
7
6
CONTINUOUS
10
111.0188218214
20
363.0019526045
40
172.5000000000
100
AcDbArc
50
259.6111421845
51
280.3888578155
0
ARC
5
264
100
AcDbEntity
8
0
100
AcDbCircle
62
7
6
CONTINUOUS
10
111.0188218214
20
363.0019526045
40
188.5000000000
100
AcDbArc
50
259.6111421845
51
280.3888578155
0
ARC
5
265
100
AcDbEntity
8
0
100
AcDbCircle
62
7
6
CONTINUOUS
10
83.5188218214
20
213.0019526045
40
20.0000000000
100
AcDbArc
50
100.3888578155
51
259.6111421845
0
ARC
5
266
100
AcDbEntity
8
0
100
AcDbCircle
62
7
6
CONTINUOUS
10
83.5188218214
20
213.0019526045
40
36.0000000000
100
AcDbArc
50
100.3888578155
51
259.6111421845
0
ARC
5
267
100
AcDbEntity
8
0
100
AcDbCircle
62
7
6
CONTINUOUS
10
111.0188218214
20
63.0019526045
40
172.5000000000
100
AcDbArc
50
79.6111421845
51
100.3888578155
0
ARC
5
268
100
AcDbEntity
8
0
100
AcDbCircle
62
7
6
CONTINUOUS
10
111.0188218214
20
63.0019526045
40
188.5000000000
100
AcDbArc
50
79.6111421845
51
100.3888578155
0
ARC
5
269
100
AcDbEntity
8
0
100
AcDbCircle
62
7
6
CONTINUOUS
10
138.5188218214
20
213.0019526045
40
20.0000000000
100
AcDbArc
50
280.3888578155
51
79.6111421845
0
ARC
5
26A
100
AcDbEntity
8
0
100
AcDbCircle
62
7
6
CONTINUOUS
10
138.5188218214
20
213.0019526045
40
36.0000000000
100
AcDbArc
50
280.3888578155
51
79.6111421845
0
ARC
5
26B
100
AcDbEntity
8
0
100
AcDbCircle
62
7
6
CONTINUOUS
10
111.0188218214
20
63.0019526045
40
186.7449979984
100
AcDbArc
50
84.6228840716
51
95.3771159284
0
ARC
5
26C
100
AcDbEntity
8
0
100
AcDbCircle
62
7
6
CONTINUOUS
10
111.0188218214
20
63.0019526045
40
174.2550020016
100
AcDbArc
50
84.2362097364
51
95.7637902636
0
ARC
5
26D
100
AcDbEntity
8
0
100
AcDbCircle
62
7
6
CONTINUOUS
10
111.0188218214
20
363.0019526045
40
174.2550020016
100
AcDbArc
50
264.2362097364
51
275.7637902636
0
ARC
5
26E
100
AcDbEntity
8
0
100
AcDbCircle
62
7
6
CONTINUOUS
10
111.0188218214
20
363.0019526045
40
186.7449979984
100
AcDbArc
50
264.6228840716
51
275.3771159284
0
ARC
5
26F
100
AcDbEntity
8
DEFAULT_2
100
AcDbCircle
62
8
6
HIDDEN
10
55.5188218214
20
112.6134590964
40
8.0000000000
100
AcDbArc
50
270.0000000000
51
90.0000000000
0
ARC
5
270
100
AcDbEntity
8
DEFAULT_2
100
AcDbCircle
62
8
6
HIDDEN
10
166.5188218214
20
112.6134590964
40
8.0000000000
100
AcDbArc
50
90.0000000000
51
270.0000000000
0
ARC
5
271
100
AcDbEntity
8
0
100
AcDbCircle
62
7
6
CONTINUOUS
10
55.5188218214
20
112.6134590964
40
8.0000000000
100
AcDbArc
50
90.0000000000
51
270.0000000000
0
ARC
5
272
100
AcDbEntity
8
0
100
AcDbCircle
62
7
6
CONTINUOUS
10
166.5188218214
20
112.6134590964
40
8.0000000000
100
AcDbArc
50
270.0000000000
51
90.0000000000
0
SPLINE
5
273
100
AcDbEntity
8
0
100
AcDbSpline
62
7
6
CONTINUOUS
70
0
71
3
72
32
73
28
74
26
42
0.0000001000
43
0.0000001000
44
0.0000000001
40
0.0000000000
40
0.0000000000
40
0.0000000000
40
0.0000000000
40
0.0713764296
40
0.1359533190
40
0.1943826659
40
0.2472386332
40
0.2950233750
40
0.3381804396
40
0.3770956380
40
0.4120993827
40
0.4434710949
40
0.4714347552
40
0.4962042058
40
0.5178797815
40
0.5374872888
40
0.5573281354
40
0.5794053699
40
0.6044221007
40
0.6325768769
40
0.6640640483
40
0.6991023566
40
0.7379419394
40
0.7808643741
40
0.8281790428
40
0.8802233217
40
0.9373653421
40
1.0000000000
40
1.0000000000
40
1.0000000000
40
1.0000000000
10
128.5188218214
20
177.0787311463
30
0.0000000000
10
129.1359599902
20
177.2697996814
30
0.0000000000
10
130.3041097475
20
177.6581326191
30
0.0000000000
10
131.9476804671
20
178.2875606135
30
0.0000000000
10
133.4063706850
20
178.9262384504
30
0.0000000000
10
134.6951112544
20
179.5696503733
30
0.0000000000
10
135.8263105354
20
180.2148700453
30
0.0000000000
10
136.8097011379
20
180.8602020289
30
0.0000000000
10
137.6521068220
20
181.5048503140
30
0.0000000000
10
138.3569469684
20
182.1484153249
30
0.0000000000
10
138.9235401275
20
182.7899586109
30
0.0000000000
10
139.3467684099
20
183.4263122821
30
0.0000000000
10
139.6177357179
20
184.0477000928
30
0.0000000000
10
139.7329256876
20
184.6400587705
30
0.0000000000
10
139.7009937031
20
185.1982998269
30
0.0000000000
10
139.5263728260
20
185.7333868436
30
0.0000000000
10
139.1999814517
20
186.2503210336
30
0.0000000000
10
138.7202491531
20
186.7394824840
30
0.0000000000
10
138.0985119651
20
187.1918493893
30
0.0000000000
10
137.3461811527
20
187.6057285060
30
0.0000000000
10
136.4692892020
20
187.9834716215
30
0.0000000000
10
135.4691133664
20
188.3282809576
30
0.0000000000
10
134.3434603573
20
188.6430608517
30
0.0000000000
10
133.0876463499
20
188.9301415589
30
0.0000000000
10
131.6951080703
20
189.1913039410
30
0.0000000000
10
130.1578031712
20
189.4278778957
30
0.0000000000
10
129.0820461826
20
189.5633260057
30
0.0000000000
10
128.5188218214
20
189.6279184397
30
0.0000000000
11
128.5188218214
21
177.0787311463
31
0.0000000000
11
130.3574014009
21
177.6918587597
31
0.0000000000
11
131.9942075509
21
178.3208110339
31
0.0000000000
11
133.4466847553
21
178.9591534583
31
0.0000000000
11
134.7296700622
21
179.6024368479
31
0.0000000000
11
135.8553397170
21
180.2477507241
31
0.0000000000
11
136.8332573660
21
180.8934615173
31
0.0000000000
11
137.6699842057
21
181.5388036420
31
0.0000000000
11
138.3685546790
21
182.1833177682
31
0.0000000000
11
138.9278569234
21
182.8258369180
31
0.0000000000
11
139.3422221286
21
183.4621181239
31
0.0000000000
11
139.6039343966
21
184.0816872313
31
0.0000000000
11
139.7107398089
21
184.6604823811
31
0.0000000000
11
139.6785466635
21
185.1919200415
31
0.0000000000
11
139.5135802305
21
185.7047897162
31
0.0000000000
11
139.1988008214
21
186.2149685333
31
0.0000000000
11
138.7288526511
21
186.7054632265
31
0.0000000000
11
138.1149845377
21
187.1611231727
31
0.0000000000
11
137.3687889693
21
187.5784877206
31
0.0000000000
11
136.4969249582
21
187.9593253147
31
0.0000000000
11
135.5011660867
21
188.3067552012
31
0.0000000000
11
134.3796109961
21
188.6237539454
31
0.0000000000
11
133.1277760801
21
188.9127366408
31
0.0000000000
11
131.7392475280
21
189.1755559235
31
0.0000000000
11
130.2060135719
21
189.4136084567
31
0.0000000000
11
128.5188218214
21
189.6279184397
31
0.0000000000
0
SPLINE
5
274
100
AcDbEntity
8
0
100
AcDbSpline
62
7
6
CONTINUOUS
70
0
71
3
72
32
73
28
74
26
42
0.0000001000
43
0.0000001000
44
0.0000000001
40
0.0000000000
40
0.0000000000
40
0.0000000000
40
0.0000000000
40
0.0626890714
40
0.1198862526
40
0.1719857767
40
0.2193524963
40
0.2623210005
40
0.3011988665
40
0.3362676389
40
0.3677775634
40
0.3959484238
40
0.4209830455
40
0.4430610661
40
0.4628914079
40
0.4825034315
40
0.5042106180
40
0.5290131008
40
0.5570070805
40
0.5884083731
40
0.6234434890
40
0.6623885666
40
0.7055656209
40
0.7533464543
40
0.8061550340
40
0.8644768626
40
0.9288743217
40
1.0000000000
40
1.0000000000
40
1.0000000000
40
1.0000000000
10
93.5188218214
20
189.6279184397
30
0.0000000000
10
92.9551083045
20
189.5632699077
30
0.0000000000
10
91.8783684935
20
189.4276877214
30
0.0000000000
10
90.3395983675
20
189.1908242291
30
0.0000000000
10
88.9456376559
20
188.9292638117
30
0.0000000000
10
87.6885173849
20
188.6416599210
30
0.0000000000
10
86.5617636417
20
188.3262199195
30
0.0000000000
10
85.5607629391
20
187.9805978058
30
0.0000000000
10
84.6833846800
20
187.6018665789
30
0.0000000000
10
83.9309761191
20
187.1867923282
30
0.0000000000
10
83.3096303594
20
186.7329656012
30
0.0000000000
10
82.8310269575
20
186.2421828887
30
0.0000000000
10
82.5066835356
20
185.7238074305
30
0.0000000000
10
82.3347164118
20
185.1878935539
30
0.0000000000
10
82.3055303548
20
184.6292849092
30
0.0000000000
10
82.4234082791
20
184.0368470012
30
0.0000000000
10
82.6968326797
20
183.4156391279
30
0.0000000000
10
83.1221269128
20
182.7796849392
30
0.0000000000
10
83.6904601992
20
182.1386007462
30
0.0000000000
10
84.3968167895
20
181.4954936366
30
0.0000000000
10
85.2405198972
20
180.8513427443
30
0.0000000000
10
86.2248288017
20
180.2066618990
30
0.0000000000
10
87.3562370955
20
179.5623905627
30
0.0000000000
10
88.6440418148
20
178.9203337480
30
0.0000000000
10
90.1002065473
20
178.2834472380
30
0.0000000000
10
91.7393740913
20
177.6561474104
30
0.0000000000
10
92.9038518644
20
177.2691283941
30
0.0000000000
10
93.5188218214
20
177.0787311463
30
0.0000000000
11
93.5188218214
21
189.6279184397
31
0.0000000000
11
91.8301672293
21
189.4134028801
31
0.0000000000
11
90.2954640679
21
189.1750530891
31
0.0000000000
11
88.9054872931
21
188.9118209662
31
0.0000000000
11
87.6523271366
21
188.6222970505
31
0.0000000000
11
86.5296648344
21
188.3046176558
31
0.0000000000
11
85.5330961611
21
187.9563544258
31
0.0000000000
11
84.6607724932
21
187.5745039321
31
0.0000000000
11
83.9145508129
21
187.1559221873
31
0.0000000000
11
83.3012026197
21
186.6988317012
31
0.0000000000
11
82.8323484199
21
186.2066202944
31
0.0000000000
11
82.5196345376
21
185.6951479641
31
0.0000000000
11
82.3572167022
21
185.1817648149
31
0.0000000000
11
82.3275684961
21
184.6500564088
31
0.0000000000
11
82.4370099382
21
184.0708804952
31
0.0000000000
11
82.7012131116
21
183.4513944436
31
0.0000000000
11
83.1176801135
21
182.8155028146
31
0.0000000000
11
83.6787463337
21
182.1734566603
31
0.0000000000
11
84.3788816295
21
181.5293842247
31
0.0000000000
11
85.2169842378
21
180.8844989639
31
0.0000000000
11
86.1959398323
21
180.2393764515
31
0.0000000000
11
87.3219844743
21
179.5949314268
31
0.0000000000
11
88.6041808043
21
178.9529466096
31
0.0000000000
11
90.0542427280
21
178.3163660123
31
0.0000000000
11
91.6866533189
21
177.6895592879
31
0.0000000000
11
93.5188218214
21
177.0787311463
31
0.0000000000
0
SPLINE
5
275
100
AcDbEntity
8
0
100
AcDbSpline
62
7
6
CONTINUOUS
70
0
71
3
72
32
73
28
74
26
42
0.0000001000
43
0.0000001000
44
0.0000000001
40
0.0000000000
40
0.0000000000
40
0.0000000000
40
0.0000000000
40
0.0714235745
40
0.1360393174
40
0.1945004982
40
0.2473822672
40
0.2951872499
40
0.3383594551
40
0.3772850354
40
0.4122944821
40
0.4436670556
40
0.4716271555
40
0.4963895664
40
0.5180585215
40
0.5376542930
40
0.5575019511
40
0.5795774549
40
0.6045862773
40
0.6327303526
40
0.6642043709
40
0.6992268620
40
0.7380484855
40
0.7809512709
40
0.8282450462
40
0.8802675615
40
0.9373873774
40
1.0000000000
40
1.0000000000
40
1.0000000000
40
1.0000000000
10
93.5188218214
20
248.9251740628
30
0.0000000000
10
92.9012759863
20
248.7339793125
30
0.0000000000
10
91.7323918733
20
248.3453846517
30
0.0000000000
10
90.0878528284
20
247.7154992596
30
0.0000000000
10
88.6284142572
20
247.0763494512
30
0.0000000000
10
87.3391239610
20
246.4324568618
30
0.0000000000
10
86.2075616701
20
245.7867517953
30
0.0000000000
10
85.2239918758
20
245.1409330429
30
0.0000000000
10
84.3815965204
20
244.4958000235
30
0.0000000000
10
83.6769742957
20
243.8517604675
30
0.0000000000
10
83.1108339332
20
243.2097691281
30
0.0000000000
10
82.6883238827
20
242.5730267097
30
0.0000000000
10
82.4183430211
20
241.9513571439
30
0.0000000000
10
82.3043690694
20
241.3589779342
30
0.0000000000
10
82.3375489181
20
240.8009146613
30
0.0000000000
10
82.5133194863
20
240.2662746465
30
0.0000000000
10
82.8406197662
20
239.7499766134
30
0.0000000000
10
83.3208167706
20
239.2615635382
30
0.0000000000
10
83.9426710162
20
238.8098707614
30
0.0000000000
10
84.6948872972
20
238.3965450397
30
0.0000000000
10
85.5715028495
20
238.0192450178
30
0.0000000000
10
86.5712855700
20
237.6747866215
30
0.0000000000
10
87.6964639932
20
237.3602809959
30
0.0000000000
10
88.9517469546
20
237.0734114490
30
0.0000000000
10
90.3437173211
20
236.8124082484
30
0.0000000000
10
91.8804354290
20
236.5759504482
30
0.0000000000
10
92.9557955706
20
236.4405564834
30
0.0000000000
10
93.5188218214
20
236.3759867693
30
0.0000000000
11
93.5188218214
21
248.9251740628
31
0.0000000000
11
91.6790368750
21
248.3116139843
31
0.0000000000
11
90.0412758455
21
247.6822051150
31
0.0000000000
11
88.5880617778
21
247.0433906867
31
0.0000000000
11
87.3045347435
21
246.3996244429
31
0.0000000000
11
86.1785112645
21
245.7538225605
31
0.0000000000
11
85.2004247353
21
245.1076213526
31
0.0000000000
11
84.3637199263
21
244.4617890907
31
0.0000000000
11
83.6653825563
21
243.8167940928
31
0.0000000000
11
83.1065584552
21
243.1738279809
31
0.0000000000
11
82.6929431189
21
242.5371742959
31
0.0000000000
11
82.4322477795
21
241.9173839330
31
0.0000000000
11
82.3266100701
21
241.3385572252
31
0.0000000000
11
82.3599420846
21
240.8075090386
31
0.0000000000
11
82.5260558754
21
240.2948153714
31
0.0000000000
11
82.8417299210
21
239.7852448625
31
0.0000000000
11
83.3121588260
21
239.2955088786
31
0.0000000000
11
83.9261729609
21
238.8405335272
31
0.0000000000
11
84.6722754401
21
238.4237343101
31
0.0000000000
11
85.5438701715
21
238.0433531863
31
0.0000000000
11
86.5392386389
21
237.6962845202
31
0.0000000000
11
87.6603190674
21
237.3795678266
31
0.0000000000
11
88.9116218802
21
237.0908020056
31
0.0000000000
11
90.2995800372
21
236.8281463043
31
0.0000000000
11
91.8322225300
21
236.5902135033
31
0.0000000000
11
93.5188218214
21
236.3759867693
31
0.0000000000
0
SPLINE
5
276
100
AcDbEntity
8
0
100
AcDbSpline
62
7
6
CONTINUOUS
70
0
71
3
72
32
73
28
74
26
42
0.0000001000
43
0.0000001000
44
0.0000000001
40
0.0000000000
40
0.0000000000
40
0.0000000000
40
0.0000000000
40
0.0626967549
40
0.1199018215
40
0.1720091105
40
0.2193833146
40
0.2623589177
40
0.3012435561
40
0.3363188022
40
0.3678349309
40
0.3960112607
40
0.4210526994
40
0.4431284112
40
0.4629511694
40
0.4825715341
40
0.5042780085
40
0.5290814392
40
0.5570755494
40
0.5884763513
40
0.6235101522
40
0.6624526249
40
0.7056254284
40
0.7533999858
40
0.8061997339
40
0.8645098325
40
0.9288924593
40
1.0000000000
40
1.0000000000
40
1.0000000000
40
1.0000000000
10
128.5188218214
20
236.3759867693
30
0.0000000000
10
129.0826044245
20
236.4406432244
30
0.0000000000
10
130.1594839076
20
236.5762444574
30
0.0000000000
10
131.6984615043
20
236.8131489693
30
0.0000000000
10
133.0926248197
20
237.0747660316
30
0.0000000000
10
134.3499356392
20
237.3624454016
30
0.0000000000
10
135.4768629120
20
237.6779844661
30
0.0000000000
10
136.4780146897
20
238.0237360818
30
0.0000000000
10
137.3555132110
20
238.4026370267
30
0.0000000000
10
138.1079914282
20
238.8179317812
30
0.0000000000
10
138.7293391034
20
239.2720491519
30
0.0000000000
10
139.2077713340
20
239.7631409357
30
0.0000000000
10
139.5317283887
20
240.2817352485
30
0.0000000000
10
139.7032515639
20
240.8177749517
30
0.0000000000
10
139.7319742982
20
241.3764105065
30
0.0000000000
10
139.6136489237
20
241.9688288006
30
0.0000000000
10
139.3398952163
20
242.5898865628
30
0.0000000000
10
138.9143647800
20
243.2256826437
30
0.0000000000
10
138.3458786725
20
243.8666068665
30
0.0000000000
10
137.6394362878
20
244.5095575783
30
0.0000000000
10
136.7957090097
20
245.1535528754
30
0.0000000000
10
135.8114393650
20
245.7980751093
30
0.0000000000
10
134.6801399568
20
246.4421821846
30
0.0000000000
10
133.3925223174
20
247.0840685224
30
0.0000000000
10
131.9366314707
20
247.7207804704
30
0.0000000000
10
130.2978311972
20
248.3479066629
30
0.0000000000
10
129.1336349498
20
248.7348253698
30
0.0000000000
10
128.5188218214
20
248.9251740628
30
0.0000000000
11
128.5188218214
21
236.3759867693
31
0.0000000000
11
130.2076830184
21
236.5905313667
31
0.0000000000
11
131.7425962532
21
236.8289235949
31
0.0000000000
11
133.1327765774
21
237.0922139473
31
0.0000000000
11
134.3861274059
21
237.3818153359
31
0.0000000000
11
135.5089613452
21
237.6995960710
31
0.0000000000
11
136.5056784219
21
238.0479920327
31
0.0000000000
11
137.3781177519
21
238.4300166147
31
0.0000000000
11
138.1244047613
21
238.8488261941
31
0.0000000000
11
138.7377267760
21
239.3062002676
31
0.0000000000
11
139.2064572299
21
239.7987850606
31
0.0000000000
11
139.5187712268
21
240.3104282085
31
0.0000000000
11
139.6807191334
21
240.8237438668
31
0.0000000000
11
139.7099519814
21
241.3557020948
31
0.0000000000
11
139.6000934230
21
241.9347793456
31
0.0000000000
11
139.3355439436
21
242.5541455694
31
0.0000000000
11
138.9188314685
21
243.1898805907
31
0.0000000000
11
138.3576032421
21
243.8317674265
31
0.0000000000
11
137.6573736700
21
244.4756845984
31
0.0000000000
11
136.8192406841
21
245.1204143599
31
0.0000000000
11
135.8403189179
21
245.7653784121
31
0.0000000000
11
134.7143771011
21
246.4096599835
31
0.0000000000
11
133.4323635951
21
247.0514742689
31
0.0000000000
11
131.9825726459
21
247.6878797110
31
0.0000000000
11
130.3505265908
21
248.3145122025
31
0.0000000000
11
128.5188218214
21
248.9251740628
31
0.0000000000
0
ENDSEC
0
SECTION
2
OBJECTS
0
DICTIONARY
5
277
100
AcDbDictionary
3
ACAD_GROUP
350
278
3
ACAD_MLINESTYLE
350
279
0
DICTIONARY
5
278
102
{ACAD_REACTORS
330
277
102
}
100
AcDbDictionary
0
DICTIONARY
5
279
102
{ACAD_REACTORS
330
277
102
}
100
AcDbDictionary
3
STANDARD
350
27A
0
MLINESTYLE
5
27A
102
{ACAD_REACTORS
330
279
102
}
100
AcDbMlineStyle
2
STANDARD
70
0
3

62
256
51
90.0
52
90.0
71
2
49
0.5
62
256
6
BYLAYER
49
-0.5
62
256
6
BYLAYER
0
ENDSEC
0
EOF
