999
DXF file: G:\TBM\Rehwagen\Dateitypen\Oval-Glieder\8502174.dxf
999
Pro/ENGINEER 2001400 by Parametric Technology Corporation
0
SECTION
2
HEADER
9
$ACADVER
1
AC1014
9
$EXTMAX
10
558.8000000000
20
431.8000000000
9
$EXTMIN
10
0.0000000000
20
0.0000000000
9
$LIMMIN
10
0.0000000000
20
0.0000000000
9
$LIMMAX
10
558.8000000000
20
431.8000000000
9
$VIEWCTR
10
279.4000000000
20
215.9000000000
9
$VIEWSIZE
40
431.8000000000
9
$CLAYER
8
0
9
$LTSCALE
40
30.7340000000
9
$CELTYPE
6
BYLAYER
9
$DIMSCALE
40
1
9
$DIMASZ
40
3.5000000000
9
$DIMEXO
40
3.4925000000
9
$DIMDLI
40
21.2344000000
9
$DIMEXE
40
10.0584000000
9
$DIMCEN
40
5.0292000000
9
$DIMLFAC
40
1.0000000000
9
$DIMTXT
40
3.5000000000
9
$DIMTOL
70
1
9
$DIMTFAC
40
0.6000000000
9
$DIMTP
40
0.0050000000
9
$DIMTM
40
0.0050000000
9
$HANDSEED
5
273
0
ENDSEC
0
SECTION
2
CLASSES
0
ENDSEC
0
SECTION
2
TABLES
0
TABLE
2
VPORT
5
8
100
AcDbSymbolTable
70
2
0
VPORT
5
1F4
100
AcDbSymbolTableRecord
100
AcDbViewportTableRecord
2
*ACTIVE
70
0
10
0.0
20
0.0
11
1.0
21
1.0
12
279.4000000000
22
215.9000000000
13
0.0
23
0.0
14
1.0
24
1.0
15
0.0
25
0.0
16
0.0
26
0.0
36
1.0
17
0.0
27
0.0
37
0.0
40
431.8000000000
41
1.2941176471
42
50.0
43
0.0
44
0.0
50
0.0
51
0.0
71
0
72
100
73
1
74
1
75
0
76
0
77
0
78
0
0
ENDTAB
0
TABLE
2
LTYPE
5
5
100
AcDbSymbolTable
70
6
0
LTYPE
5
14
100
AcDbSymbolTableRecord
100
AcDbLinetypeTableRecord
2
BYBLOCK
70
0
3

72
65
73
0
40
0.0
0
LTYPE
5
15
100
AcDbSymbolTableRecord
100
AcDbLinetypeTableRecord
2
BYLAYER
70
0
3

72
65
73
0
40
0.0
0
LTYPE
5
16
100
AcDbSymbolTableRecord
100
AcDbLinetypeTableRecord
2
CONTINUOUS
70
64
3
Solid line
72
65
73
0
40
0
0
LTYPE
5
1F5
100
AcDbSymbolTableRecord
100
AcDbLinetypeTableRecord
2
CENTER
70
64
3
____ _ ____ _ ____ _ ____ _ ____ _ ____ _ ____
72
65
73
4
40
0.6
49
0.375
74
0
49
-0.075
74
0
49
0.075
74
0
49
-0.075
74
0
0
LTYPE
5
1F6
100
AcDbSymbolTableRecord
100
AcDbLinetypeTableRecord
2
HIDDEN
70
64
3
- - - - - - - - - - - - - - - - - - - -
72
65
73
2
40
0.2
49
0.1
74
0
49
-0.1
74
0
0
LTYPE
5
1F7
100
AcDbSymbolTableRecord
100
AcDbLinetypeTableRecord
2
PHANTOM
70
64
3
_____ _ _ _____ _ _ _____ _ _ _____
72
65
73
6
40
0.8
49
0.45
74
0
49
-0.05
74
0
49
0.1
74
0
49
-0.05
74
0
49
0.1
74
0
49
-0.05
74
0
0
LTYPE
5
1F8
100
AcDbSymbolTableRecord
100
AcDbLinetypeTableRecord
2
DOT
70
64
3
. . . . . . . . . . . . . . . . . . . .
72
65
73
2
40
0.2
49
0.1
74
0
49
-0.1
74
0
0
LTYPE
5
1F9
100
AcDbSymbolTableRecord
100
AcDbLinetypeTableRecord
2
DASHED
70
64
3
- - - - - - - - - - - - - - - - - - - -
72
65
73
2
40
0.2
49
0.1
74
0
49
-0.1
74
0
0
ENDTAB
0
TABLE
2
LAYER
5
2
100
AcDbSymbolTable
70
36
0
LAYER
5
10
100
AcDbSymbolTableRecord
100
AcDbLayerTableRecord
2
0
70
0
62
7
6
CONTINUOUS
0
LAYER
5
1FA
100
AcDbSymbolTableRecord
100
AcDbLayerTableRecord
2
DEFAULT_1
70
0
62
7
6
CENTER
0
LAYER
5
1FB
100
AcDbSymbolTableRecord
100
AcDbLayerTableRecord
2
DEFAULT_2
70
0
62
8
6
HIDDEN
0
LAYER
5
1FC
100
AcDbSymbolTableRecord
100
AcDbLayerTableRecord
2
DEFAULT_3
70
0
62
7
6
PHANTOM
0
ENDTAB
0
TABLE
2
STYLE
5
3
100
AcDbSymbolTable
70
1
0
STYLE
5
11
100
AcDbSymbolTableRecord
100
AcDbTextStyleTableRecord
2
STANDARD
70
0
40
0.0
41
1.0
50
0.0
71
0
42
0.0
3
txt
4

0
ENDTAB
0
TABLE
2
VIEW
5
6
100
AcDbSymbolTable
70
0
0
ENDTAB
0
TABLE
2
UCS
5
7
100
AcDbSymbolTable
70
0
0
ENDTAB
0
TABLE
2
APPID
5
9
100
AcDbSymbolTable
70
1
0
APPID
5
1FD
100
AcDbSymbolTableRecord
100
AcDbRegAppTableRecord
2
ACAD
70
0
0
ENDTAB
0
TABLE
2
DIMSTYLE
5
A
100
AcDbSymbolTable
70
1
0
DIMSTYLE
105
1FE
100
AcDbSymbolTableRecord
100
AcDbDimStyleTableRecord
2
STANDARD
70
0
3

4

5

6

7

40
1.0
41
0.18
42
0.0625
43
0.38
44
0.18
45
0.0
46
0.0
47
0.0050000000
48
0.0050000000
140
3.5000000000
141
0.09
142
0.0
143
25.4
144
1.0000000000
145
0.0
146
0.6000000000
147
0.09
71
1
72
0
73
1
74
1
75
0
76
0
77
0
78
0
170
0
171
2
172
0
173
0
174
0
175
0
176
0
177
0
178
0
270
2
271
3
272
4
273
2
274
2
340
11
275
0
280
0
281
0
282
0
283
1
284
0
285
0
286
0
287
3
288
0
0
ENDTAB
0
TABLE
2
BLOCK_RECORD
5
1
100
AcDbSymbolTable
70
0
0
BLOCK_RECORD
5
1B
100
AcDbSymbolTableRecord
100
AcDbBlockTableRecord
2
*MODEL_SPACE
0
BLOCK_RECORD
5
1C
100
AcDbSymbolTableRecord
100
AcDbBlockTableRecord
2
*PAPER_SPACE
0
ENDTAB
0
ENDSEC
0
SECTION
2
BLOCKS
0
BLOCK
5
1E
100
AcDbEntity
8
0
100
AcDbBlockBegin
2
*MODEL_SPACE
70
0
10
0.0
20
0.0
30
0.0
3
*MODEL_SPACE
1

0
ENDBLK
5
1F
100
AcDbEntity
8
0
100
AcDbBlockEnd
0
BLOCK
5
20
100
AcDbEntity
8
0
100
AcDbBlockBegin
2
*PAPER_SPACE
70
0
10
0.0
20
0.0
30
0.0
3
*PAPER_SPACE
1

0
ENDBLK
5
21
100
AcDbEntity
8
0
100
AcDbBlockEnd
0
ENDSEC
0
SECTION
2
ENTITIES
0
LINE
5
1FF
100
AcDbEntity
8
0
100
AcDbLine
62
7
6
CONTINUOUS
10
0.0000000000
20
0.0000000000
11
0.0000000000
21
431.8000000000
0
LINE
5
200
100
AcDbEntity
8
0
100
AcDbLine
62
7
6
CONTINUOUS
10
0.0000000000
20
0.0000000000
11
558.8000000000
21
0.0000000000
0
LINE
5
201
100
AcDbEntity
8
0
100
AcDbLine
62
7
6
CONTINUOUS
10
0.0000000000
20
431.8000000000
11
558.8000000000
21
431.8000000000
0
LINE
5
202
100
AcDbEntity
8
0
100
AcDbLine
62
7
6
CONTINUOUS
10
558.8000000000
20
0.0000000000
11
558.8000000000
21
431.8000000000
0
LINE
5
203
100
AcDbEntity
8
0
100
AcDbLine
62
9
6
CONTINUOUS
10
124.4102195946
20
297.7132147522
11
121.1602195946
21
285.1260188771
0
LINE
5
204
100
AcDbEntity
8
0
100
AcDbLine
62
9
6
CONTINUOUS
10
124.4102195946
20
331.6018190315
11
121.1602195946
21
344.1890149067
0
LINE
5
205
100
AcDbEntity
8
0
100
AcDbLine
62
7
6
CONTINUOUS
10
133.7852195946
20
284.0295671356
11
133.7852195946
21
294.3850646313
0
LINE
5
206
100
AcDbEntity
8
0
100
AcDbLine
62
7
6
CONTINUOUS
10
133.7852195946
20
334.9299691525
11
133.7852195946
21
345.2854666482
0
LINE
5
207
100
AcDbEntity
8
DEFAULT_1
100
AcDbLine
62
2
6
CENTER
10
95.2852195946
20
314.6575168919
11
202.2852195946
21
314.6575168919
0
LINE
5
208
100
AcDbEntity
8
0
100
AcDbLine
62
7
6
CONTINUOUS
10
163.7852195946
20
284.0295671356
11
163.7852195946
21
294.3850646313
0
LINE
5
209
100
AcDbEntity
8
0
100
AcDbLine
62
7
6
CONTINUOUS
10
163.7852195946
20
334.9299691525
11
163.7852195946
21
345.2854666482
0
LINE
5
20A
100
AcDbEntity
8
0
100
AcDbLine
62
9
6
CONTINUOUS
10
173.1602195946
20
331.6018190315
11
176.4102195946
21
344.1890149067
0
LINE
5
20B
100
AcDbEntity
8
0
100
AcDbLine
62
9
6
CONTINUOUS
10
173.1602195946
20
297.7132147522
11
176.4102195946
21
285.1260188771
0
POLYLINE
5
20C
100
AcDbEntity
8
0
100
AcDb2dPolyline
62
9
6
CONTINUOUS
66
1
70
0
0
VERTEX
5
20D
100
AcDbEntity
8
0
100
AcDbVertex
62
9
6
CONTINUOUS
100
AcDb2dVertex
10
121.1602195946
20
165.7248099662
0
VERTEX
5
20E
100
AcDbEntity
8
0
100
AcDbVertex
62
9
6
CONTINUOUS
100
AcDb2dVertex
10
121.1704372535
20
166.4525790609
0
VERTEX
5
20F
100
AcDbEntity
8
0
100
AcDbVertex
62
9
6
CONTINUOUS
100
AcDb2dVertex
10
121.2009617373
20
167.1711960369
0
VERTEX
5
210
100
AcDbEntity
8
0
100
AcDbVertex
62
9
6
CONTINUOUS
100
AcDb2dVertex
10
121.2514091828
20
167.8716238689
0
VERTEX
5
211
100
AcDbEntity
8
0
100
AcDbVertex
62
9
6
CONTINUOUS
100
AcDb2dVertex
10
121.3211451843
20
168.5450542705
0
VERTEX
5
212
100
AcDbEntity
8
0
100
AcDbVertex
62
9
6
CONTINUOUS
100
AcDb2dVertex
10
121.4092927708
20
169.1830184636
0
VERTEX
5
213
100
AcDbEntity
8
0
100
AcDbVertex
62
9
6
CONTINUOUS
100
AcDb2dVertex
10
121.5147434356
20
169.7774936783
0
VERTEX
5
214
100
AcDbEntity
8
0
100
AcDbVertex
62
9
6
CONTINUOUS
100
AcDb2dVertex
10
121.6361710752
20
170.3210040439
0
VERTEX
5
215
100
AcDbEntity
8
0
100
AcDbVertex
62
9
6
CONTINUOUS
100
AcDb2dVertex
10
121.7720486666
20
170.8067146023
0
VERTEX
5
216
100
AcDbEntity
8
0
100
AcDbVertex
62
9
6
CONTINUOUS
100
AcDb2dVertex
10
121.9206674703
20
171.2285172612
0
VERTEX
5
217
100
AcDbEntity
8
0
100
AcDbVertex
62
9
6
CONTINUOUS
100
AcDb2dVertex
10
122.0801585185
20
171.5811076076
0
VERTEX
5
218
100
AcDbEntity
8
0
100
AcDbVertex
62
9
6
CONTINUOUS
100
AcDb2dVertex
10
122.2485161189
20
171.8600516132
0
VERTEX
5
219
100
AcDbEntity
8
0
100
AcDbVertex
62
9
6
CONTINUOUS
100
AcDb2dVertex
10
122.4236230769
20
172.0618413954
0
VERTEX
5
21A
100
AcDbEntity
8
0
100
AcDbVertex
62
9
6
CONTINUOUS
100
AcDb2dVertex
10
122.6032773209
20
172.1839393305
0
VERTEX
5
21B
100
AcDbEntity
8
0
100
AcDbVertex
62
9
6
CONTINUOUS
100
AcDb2dVertex
10
122.7852195946
20
172.2248099662
0
SEQEND
5
21C
100
AcDbEntity
8
0
0
POLYLINE
5
21D
100
AcDbEntity
8
0
100
AcDb2dPolyline
62
9
6
CONTINUOUS
66
1
70
0
0
VERTEX
5
21E
100
AcDbEntity
8
0
100
AcDbVertex
62
9
6
CONTINUOUS
100
AcDb2dVertex
10
174.7852195946
20
159.2248099662
0
VERTEX
5
21F
100
AcDbEntity
8
0
100
AcDbVertex
62
9
6
CONTINUOUS
100
AcDb2dVertex
10
174.9671618683
20
159.2656806019
0
VERTEX
5
220
100
AcDbEntity
8
0
100
AcDbVertex
62
9
6
CONTINUOUS
100
AcDb2dVertex
10
175.1468161123
20
159.3877785370
0
VERTEX
5
221
100
AcDbEntity
8
0
100
AcDbVertex
62
9
6
CONTINUOUS
100
AcDb2dVertex
10
175.3219230703
20
159.5895683192
0
VERTEX
5
222
100
AcDbEntity
8
0
100
AcDbVertex
62
9
6
CONTINUOUS
100
AcDb2dVertex
10
175.4902806707
20
159.8685123249
0
VERTEX
5
223
100
AcDbEntity
8
0
100
AcDbVertex
62
9
6
CONTINUOUS
100
AcDb2dVertex
10
175.6497717189
20
160.2211026712
0
VERTEX
5
224
100
AcDbEntity
8
0
100
AcDbVertex
62
9
6
CONTINUOUS
100
AcDb2dVertex
10
175.7983905226
20
160.6429053302
0
VERTEX
5
225
100
AcDbEntity
8
0
100
AcDbVertex
62
9
6
CONTINUOUS
100
AcDb2dVertex
10
175.9342681140
20
161.1286158885
0
VERTEX
5
226
100
AcDbEntity
8
0
100
AcDbVertex
62
9
6
CONTINUOUS
100
AcDb2dVertex
10
176.0556957536
20
161.6721262541
0
VERTEX
5
227
100
AcDbEntity
8
0
100
AcDbVertex
62
9
6
CONTINUOUS
100
AcDb2dVertex
10
176.1611464183
20
162.2666014689
0
VERTEX
5
228
100
AcDbEntity
8
0
100
AcDbVertex
62
9
6
CONTINUOUS
100
AcDb2dVertex
10
176.2492940049
20
162.9045656620
0
VERTEX
5
229
100
AcDbEntity
8
0
100
AcDbVertex
62
9
6
CONTINUOUS
100
AcDb2dVertex
10
176.3190300063
20
163.5779960635
0
VERTEX
5
22A
100
AcDbEntity
8
0
100
AcDbVertex
62
9
6
CONTINUOUS
100
AcDb2dVertex
10
176.3694774519
20
164.2784238955
0
VERTEX
5
22B
100
AcDbEntity
8
0
100
AcDbVertex
62
9
6
CONTINUOUS
100
AcDb2dVertex
10
176.4000019357
20
164.9970408715
0
VERTEX
5
22C
100
AcDbEntity
8
0
100
AcDbVertex
62
9
6
CONTINUOUS
100
AcDb2dVertex
10
176.4102195946
20
165.7248099662
0
SEQEND
5
22D
100
AcDbEntity
8
0
0
POLYLINE
5
22E
100
AcDbEntity
8
0
100
AcDb2dPolyline
62
9
6
CONTINUOUS
66
1
70
0
0
VERTEX
5
22F
100
AcDbEntity
8
0
100
AcDbVertex
62
9
6
CONTINUOUS
100
AcDb2dVertex
10
122.7852195946
20
159.2248099662
0
VERTEX
5
230
100
AcDbEntity
8
0
100
AcDbVertex
62
9
6
CONTINUOUS
100
AcDb2dVertex
10
122.6032773209
20
159.2656806019
0
VERTEX
5
231
100
AcDbEntity
8
0
100
AcDbVertex
62
9
6
CONTINUOUS
100
AcDb2dVertex
10
122.4236230769
20
159.3877785370
0
VERTEX
5
232
100
AcDbEntity
8
0
100
AcDbVertex
62
9
6
CONTINUOUS
100
AcDb2dVertex
10
122.2485161189
20
159.5895683192
0
VERTEX
5
233
100
AcDbEntity
8
0
100
AcDbVertex
62
9
6
CONTINUOUS
100
AcDb2dVertex
10
122.0801585185
20
159.8685123249
0
VERTEX
5
234
100
AcDbEntity
8
0
100
AcDbVertex
62
9
6
CONTINUOUS
100
AcDb2dVertex
10
121.9206674703
20
160.2211026712
0
VERTEX
5
235
100
AcDbEntity
8
0
100
AcDbVertex
62
9
6
CONTINUOUS
100
AcDb2dVertex
10
121.7720486666
20
160.6429053302
0
VERTEX
5
236
100
AcDbEntity
8
0
100
AcDbVertex
62
9
6
CONTINUOUS
100
AcDb2dVertex
10
121.6361710752
20
161.1286158885
0
VERTEX
5
237
100
AcDbEntity
8
0
100
AcDbVertex
62
9
6
CONTINUOUS
100
AcDb2dVertex
10
121.5147434356
20
161.6721262541
0
VERTEX
5
238
100
AcDbEntity
8
0
100
AcDbVertex
62
9
6
CONTINUOUS
100
AcDb2dVertex
10
121.4092927708
20
162.2666014689
0
VERTEX
5
239
100
AcDbEntity
8
0
100
AcDbVertex
62
9
6
CONTINUOUS
100
AcDb2dVertex
10
121.3211451843
20
162.9045656620
0
VERTEX
5
23A
100
AcDbEntity
8
0
100
AcDbVertex
62
9
6
CONTINUOUS
100
AcDb2dVertex
10
121.2514091828
20
163.5779960635
0
VERTEX
5
23B
100
AcDbEntity
8
0
100
AcDbVertex
62
9
6
CONTINUOUS
100
AcDb2dVertex
10
121.2009617373
20
164.2784238955
0
VERTEX
5
23C
100
AcDbEntity
8
0
100
AcDbVertex
62
9
6
CONTINUOUS
100
AcDb2dVertex
10
121.1704372535
20
164.9970408715
0
VERTEX
5
23D
100
AcDbEntity
8
0
100
AcDbVertex
62
9
6
CONTINUOUS
100
AcDb2dVertex
10
121.1602195946
20
165.7248099662
0
SEQEND
5
23E
100
AcDbEntity
8
0
0
LINE
5
23F
100
AcDbEntity
8
0
100
AcDbLine
62
7
6
CONTINUOUS
10
192.7852195946
20
159.2248099662
11
173.1017226949
21
159.2248099662
0
LINE
5
240
100
AcDbEntity
8
0
100
AcDbLine
62
7
6
CONTINUOUS
10
124.4682511149
20
159.2248099662
11
104.7852195946
21
159.2248099662
0
LINE
5
241
100
AcDbEntity
8
0
100
AcDbLine
62
7
6
CONTINUOUS
10
163.7852195946
20
161.7248099662
11
133.7852195946
21
161.7248099662
0
LINE
5
242
100
AcDbEntity
8
0
100
AcDbLine
62
7
6
CONTINUOUS
10
163.7852195946
20
169.7248099662
11
173.1157186893
21
172.2249096636
0
LINE
5
243
100
AcDbEntity
8
0
100
AcDbLine
62
7
6
CONTINUOUS
10
133.7852195946
20
161.7248099662
11
124.4547204365
21
159.2247102518
0
LINE
5
244
100
AcDbEntity
8
DEFAULT_1
100
AcDbLine
62
2
6
CENTER
10
95.2852195946
20
165.7248099662
11
202.2852195946
21
165.7248099662
0
LINE
5
245
100
AcDbEntity
8
0
100
AcDbLine
62
7
6
CONTINUOUS
10
124.4547203666
20
172.2249096993
11
133.7852195946
21
169.7248099662
0
LINE
5
246
100
AcDbEntity
8
0
100
AcDbLine
62
7
6
CONTINUOUS
10
173.1157188960
20
159.2247102134
11
163.7852195946
21
161.7248099662
0
LINE
5
247
100
AcDbEntity
8
0
100
AcDbLine
62
7
6
CONTINUOUS
10
163.7852195946
20
169.7248099662
11
133.7852195946
21
169.7248099662
0
LINE
5
248
100
AcDbEntity
8
0
100
AcDbLine
62
7
6
CONTINUOUS
10
192.7852195946
20
172.2248099662
11
173.1021781187
21
172.2248099662
0
LINE
5
249
100
AcDbEntity
8
0
100
AcDbLine
62
7
6
CONTINUOUS
10
124.4687420983
20
172.2248099662
11
104.7852195946
21
172.2248099662
0
POLYLINE
5
24A
100
AcDbEntity
8
0
100
AcDb2dPolyline
62
9
6
CONTINUOUS
66
1
70
0
0
VERTEX
5
24B
100
AcDbEntity
8
0
100
AcDbVertex
62
9
6
CONTINUOUS
100
AcDb2dVertex
10
176.4102195946
20
165.7248099662
0
VERTEX
5
24C
100
AcDbEntity
8
0
100
AcDbVertex
62
9
6
CONTINUOUS
100
AcDb2dVertex
10
176.4000019357
20
166.4525790609
0
VERTEX
5
24D
100
AcDbEntity
8
0
100
AcDbVertex
62
9
6
CONTINUOUS
100
AcDb2dVertex
10
176.3694774519
20
167.1711960369
0
VERTEX
5
24E
100
AcDbEntity
8
0
100
AcDbVertex
62
9
6
CONTINUOUS
100
AcDb2dVertex
10
176.3190300063
20
167.8716238689
0
VERTEX
5
24F
100
AcDbEntity
8
0
100
AcDbVertex
62
9
6
CONTINUOUS
100
AcDb2dVertex
10
176.2492940049
20
168.5450542705
0
VERTEX
5
250
100
AcDbEntity
8
0
100
AcDbVertex
62
9
6
CONTINUOUS
100
AcDb2dVertex
10
176.1611464183
20
169.1830184636
0
VERTEX
5
251
100
AcDbEntity
8
0
100
AcDbVertex
62
9
6
CONTINUOUS
100
AcDb2dVertex
10
176.0556957536
20
169.7774936783
0
VERTEX
5
252
100
AcDbEntity
8
0
100
AcDbVertex
62
9
6
CONTINUOUS
100
AcDb2dVertex
10
175.9342681140
20
170.3210040439
0
VERTEX
5
253
100
AcDbEntity
8
0
100
AcDbVertex
62
9
6
CONTINUOUS
100
AcDb2dVertex
10
175.7983905226
20
170.8067146023
0
VERTEX
5
254
100
AcDbEntity
8
0
100
AcDbVertex
62
9
6
CONTINUOUS
100
AcDb2dVertex
10
175.6497717189
20
171.2285172612
0
VERTEX
5
255
100
AcDbEntity
8
0
100
AcDbVertex
62
9
6
CONTINUOUS
100
AcDb2dVertex
10
175.4902806707
20
171.5811076076
0
VERTEX
5
256
100
AcDbEntity
8
0
100
AcDbVertex
62
9
6
CONTINUOUS
100
AcDb2dVertex
10
175.3219230703
20
171.8600516132
0
VERTEX
5
257
100
AcDbEntity
8
0
100
AcDbVertex
62
9
6
CONTINUOUS
100
AcDb2dVertex
10
175.1468161123
20
172.0618413954
0
VERTEX
5
258
100
AcDbEntity
8
0
100
AcDbVertex
62
9
6
CONTINUOUS
100
AcDb2dVertex
10
174.9671618683
20
172.1839393305
0
VERTEX
5
259
100
AcDbEntity
8
0
100
AcDbVertex
62
9
6
CONTINUOUS
100
AcDb2dVertex
10
174.7852195946
20
172.2248099662
0
SEQEND
5
25A
100
AcDbEntity
8
0
0
ARC
5
25B
100
AcDbEntity
8
0
100
AcDbCircle
62
7
6
CONTINUOUS
10
148.7852195946
20
392.1171838160
40
97.5000000000
100
AcDbArc
50
255.5224878141
51
284.4775121859
0
ARC
5
25C
100
AcDbEntity
8
0
100
AcDbCircle
62
7
6
CONTINUOUS
10
148.7852195946
20
392.1171838160
40
110.5000000000
100
AcDbArc
50
255.5224878141
51
284.4775121859
0
ARC
5
25D
100
AcDbEntity
8
0
100
AcDbCircle
62
7
6
CONTINUOUS
10
128.7852195946
20
314.6575168919
40
17.5000000000
100
AcDbArc
50
104.4775121859
51
255.5224878141
0
ARC
5
25E
100
AcDbEntity
8
0
100
AcDbCircle
62
7
6
CONTINUOUS
10
128.7852195946
20
314.6575168919
40
30.5000000000
100
AcDbArc
50
104.4775121859
51
255.5224878141
0
ARC
5
25F
100
AcDbEntity
8
0
100
AcDbCircle
62
7
6
CONTINUOUS
10
148.7852195946
20
237.1978499677
40
97.5000000000
100
AcDbArc
50
75.5224878141
51
104.4775121859
0
ARC
5
260
100
AcDbEntity
8
0
100
AcDbCircle
62
7
6
CONTINUOUS
10
148.7852195946
20
237.1978499677
40
110.5000000000
100
AcDbArc
50
75.5224878141
51
104.4775121859
0
ARC
5
261
100
AcDbEntity
8
0
100
AcDbCircle
62
7
6
CONTINUOUS
10
168.7852195946
20
314.6575168919
40
17.5000000000
100
AcDbArc
50
284.4775121859
51
75.5224878141
0
ARC
5
262
100
AcDbEntity
8
0
100
AcDbCircle
62
7
6
CONTINUOUS
10
168.7852195946
20
314.6575168919
40
30.5000000000
100
AcDbArc
50
284.4775121859
51
75.5224878141
0
ARC
5
263
100
AcDbEntity
8
0
100
AcDbCircle
62
7
6
CONTINUOUS
10
148.7852195946
20
237.1978499677
40
109.1234753830
100
AcDbArc
50
82.0991659289
51
97.9008340711
0
ARC
5
264
100
AcDbEntity
8
0
100
AcDbCircle
62
7
6
CONTINUOUS
10
148.7852195946
20
237.1978499677
40
98.8765246170
100
AcDbArc
50
81.2742902858
51
98.7257097142
0
ARC
5
265
100
AcDbEntity
8
0
100
AcDbCircle
62
7
6
CONTINUOUS
10
148.7852195946
20
392.1171838160
40
98.8765246170
100
AcDbArc
50
261.2742902858
51
278.7257097142
0
ARC
5
266
100
AcDbEntity
8
0
100
AcDbCircle
62
7
6
CONTINUOUS
10
148.7852195946
20
392.1171838160
40
109.1234753830
100
AcDbArc
50
262.0991659289
51
277.9008340711
0
ARC
5
267
100
AcDbEntity
8
DEFAULT_2
100
AcDbCircle
62
8
6
HIDDEN
10
104.7852195946
20
165.7248099662
40
6.5000000000
100
AcDbArc
50
270.0000000000
51
90.0000000000
0
ARC
5
268
100
AcDbEntity
8
DEFAULT_2
100
AcDbCircle
62
8
6
HIDDEN
10
192.7852195946
20
165.7248099662
40
6.5000000000
100
AcDbArc
50
90.0000000000
51
270.0000000000
0
ARC
5
269
100
AcDbEntity
8
0
100
AcDbCircle
62
7
6
CONTINUOUS
10
104.7852195946
20
165.7248099662
40
6.5000000000
100
AcDbArc
50
90.0000000000
51
270.0000000000
0
ARC
5
26A
100
AcDbEntity
8
0
100
AcDbCircle
62
7
6
CONTINUOUS
10
192.7852195946
20
165.7248099662
40
6.5000000000
100
AcDbArc
50
270.0000000000
51
90.0000000000
0
SPLINE
5
26B
100
AcDbEntity
8
0
100
AcDbSpline
62
7
6
CONTINUOUS
70
0
71
3
72
32
73
28
74
26
42
0.0000001000
43
0.0000001000
44
0.0000000001
40
0.0000000000
40
0.0000000000
40
0.0000000000
40
0.0000000000
40
0.0708427551
40
0.1352591332
40
0.1938490854
40
0.2471358579
40
0.2955787790
40
0.3395814627
40
0.3794981363
40
0.4156358636
40
0.4482563373
40
0.4775718985
40
0.5037619344
40
0.5269224605
40
0.5476439562
40
0.5679654570
40
0.5902396603
40
0.6154750221
40
0.6436456454
40
0.6749631465
40
0.7095998333
40
0.7477583345
40
0.7896590996
40
0.8355471422
40
0.8856942804
40
0.9403972524
40
1.0000000000
40
1.0000000000
40
1.0000000000
40
1.0000000000
10
163.7852195946
20
284.0295671356
30
0.0000000000
10
164.2918208955
20
284.2068646319
30
0.0000000000
10
165.2517604167
20
284.5668262298
30
0.0000000000
10
166.6017495035
20
285.1465310895
30
0.0000000000
10
167.8027355460
20
285.7322542872
30
0.0000000000
10
168.8666316838
20
286.3194585802
30
0.0000000000
10
169.8033736314
20
286.9050420537
30
0.0000000000
10
170.6208590279
20
287.4870440681
30
0.0000000000
10
171.3247902518
20
288.0643891499
30
0.0000000000
10
171.9183058733
20
288.6365715611
30
0.0000000000
10
172.4013498973
20
289.2030934887
30
0.0000000000
10
172.7699215515
20
289.7623974259
30
0.0000000000
10
173.0155674726
20
290.3090570244
30
0.0000000000
10
173.1291519322
20
290.8326338025
30
0.0000000000
10
173.1084897778
20
291.3245302121
30
0.0000000000
10
172.9542175975
20
291.7853849412
30
0.0000000000
10
172.6610222367
20
292.2145404358
30
0.0000000000
10
172.2326421720
20
292.6018653633
30
0.0000000000
10
171.6852995149
20
292.9418615351
30
0.0000000000
10
171.0341424829
20
293.2362227518
30
0.0000000000
10
170.2864040338
20
293.4902327038
30
0.0000000000
10
169.4447663651
20
293.7088425084
30
0.0000000000
10
168.5087137947
20
293.8961764316
30
0.0000000000
10
167.4756155585
20
294.0555638855
30
0.0000000000
10
166.3412888784
20
294.1897401906
30
0.0000000000
10
165.1001892454
20
294.3010603204
30
0.0000000000
10
164.2360295688
20
294.3588445668
30
0.0000000000
10
163.7852195946
20
294.3850646313
30
0.0000000000
11
163.7852195946
21
284.0295671356
31
0.0000000000
11
165.2924369102
21
284.5961441264
31
0.0000000000
11
166.6372085499
21
285.1751527190
31
0.0000000000
11
167.8334522069
21
285.7603144911
31
0.0000000000
11
168.8929626940
21
286.3471229677
31
0.0000000000
11
169.8255252643
21
286.9325003303
31
0.0000000000
11
170.6388772398
21
287.5145136158
31
0.0000000000
11
171.3385272045
21
288.0921184323
31
0.0000000000
11
171.9273332173
21
288.6648033671
31
0.0000000000
11
172.4048626327
21
289.2319797009
31
0.0000000000
11
172.7665862579
21
289.7915622323
31
0.0000000000
11
173.0041559567
21
290.3373766789
31
0.0000000000
11
173.1093570339
21
290.8531751110
31
0.0000000000
11
173.0862379159
21
291.3235878393
31
0.0000000000
11
172.9406912732
21
291.7619456905
31
0.0000000000
11
172.6598493544
21
292.1831810944
31
0.0000000000
11
172.2397182514
21
292.5736678053
31
0.0000000000
11
171.6995239357
21
292.9174181967
31
0.0000000000
11
171.0531788884
21
293.2156175412
31
0.0000000000
11
170.3091271410
21
293.4728436040
31
0.0000000000
11
169.4705154870
21
293.6940966162
31
0.0000000000
11
168.5371957158
21
293.8836085185
31
0.0000000000
11
167.5067375724
21
294.0448233690
31
0.0000000000
11
166.3750518630
21
294.1805711137
31
0.0000000000
11
165.1368206625
21
294.2932568165
31
0.0000000000
11
163.7852195946
21
294.3850646313
31
0.0000000000
0
SPLINE
5
26C
100
AcDbEntity
8
0
100
AcDbSpline
62
7
6
CONTINUOUS
70
0
71
3
72
32
73
28
74
26
42
0.0000001000
43
0.0000001000
44
0.0000000001
40
0.0000000000
40
0.0000000000
40
0.0000000000
40
0.0000000000
40
0.0598480789
40
0.1147568471
40
0.1650646924
40
0.2110651565
40
0.2530294816
40
0.2912036496
40
0.3258114105
40
0.3570651099
40
0.3851511911
40
0.4102902443
40
0.4324882476
40
0.4527845296
40
0.4735497161
40
0.4967646582
40
0.5229960256
40
0.5523328820
40
0.5849601790
40
0.6210896912
40
0.6609831199
40
0.7049456121
40
0.7533294200
40
0.8065360467
40
0.8650230717
40
0.9293119795
40
1.0000000000
40
1.0000000000
40
1.0000000000
40
1.0000000000
10
133.7852195946
20
294.3850646313
30
0.0000000000
10
133.3325537987
20
294.3587366283
30
0.0000000000
10
132.4649844966
20
294.3006939700
30
0.0000000000
10
131.2192824023
20
294.1887693182
30
0.0000000000
10
130.0813924447
20
294.0537972269
30
0.0000000000
10
129.0458584620
20
293.8934360359
30
0.0000000000
10
128.1085424979
20
293.7049818397
30
0.0000000000
10
127.2668171093
20
293.4851572828
30
0.0000000000
10
126.5201028799
20
293.2299076161
30
0.0000000000
10
125.8709369330
20
292.9343592356
30
0.0000000000
10
125.3263851002
20
292.5933357253
30
0.0000000000
10
124.9012879978
20
292.2052450879
30
0.0000000000
10
124.6114152486
20
291.7756309589
30
0.0000000000
10
124.4601019913
20
291.3142650086
30
0.0000000000
10
124.4423098263
20
290.8217129058
30
0.0000000000
10
124.5587438490
20
290.2977185330
30
0.0000000000
10
124.8068123627
20
289.7512228175
30
0.0000000000
10
125.1771847155
20
289.1925097433
30
0.0000000000
10
125.6614231773
20
288.6268313656
30
0.0000000000
10
126.2556096759
20
288.0556298674
30
0.0000000000
10
126.9597202219
20
287.4793711507
30
0.0000000000
10
127.7768972533
20
286.8985460394
30
0.0000000000
10
128.7128182606
20
286.3142218935
30
0.0000000000
10
129.7753459997
20
285.7283425294
30
0.0000000000
10
130.9743757293
20
285.1439824233
30
0.0000000000
10
132.3217719896
20
284.5656415950
30
0.0000000000
10
133.2797245442
20
284.2064774725
30
0.0000000000
10
133.7852195946
20
284.0295671356
30
0.0000000000
11
133.7852195946
21
294.3850646313
31
0.0000000000
11
132.4280585689
21
294.2928186070
31
0.0000000000
11
131.1851871655
21
294.1795029303
31
0.0000000000
11
130.0499208039
21
294.0429315160
31
0.0000000000
11
129.0170328351
21
293.8807139845
31
0.0000000000
11
128.0824723329
21
293.6900520780
31
0.0000000000
11
127.2438201609
21
293.4675581592
31
0.0000000000
11
126.5008956426
21
293.2090870455
31
0.0000000000
11
125.8566847244
21
292.9097290543
31
0.0000000000
11
125.3193909979
21
292.5650073086
31
0.0000000000
11
124.9027378120
21
292.1740032806
31
0.0000000000
11
124.6252268307
21
291.7526380104
31
0.0000000000
11
124.4824431983
21
291.3139749149
31
0.0000000000
11
124.4619605655
21
290.8424457767
31
0.0000000000
11
124.5699862214
21
290.3259675645
31
0.0000000000
11
124.8100444073
21
289.7802162163
31
0.0000000000
11
125.1736038644
21
289.2212467754
31
0.0000000000
11
125.6523761183
21
288.6549155587
31
0.0000000000
11
126.2418851188
21
288.0832218448
31
0.0000000000
11
126.9417481707
21
287.5067050873
31
0.0000000000
11
127.7548203505
21
286.9258702281
31
0.0000000000
11
128.6865880036
21
286.3417529617
31
0.0000000000
11
129.7447516311
21
285.7562713918
31
0.0000000000
11
130.9390593337
21
285.1724745072
31
0.0000000000
11
132.2812642509
21
284.5948289724
31
0.0000000000
11
133.7852195946
21
284.0295671356
31
0.0000000000
0
SPLINE
5
26D
100
AcDbEntity
8
0
100
AcDbSpline
62
7
6
CONTINUOUS
70
0
71
3
72
32
73
28
74
26
42
0.0000001000
43
0.0000001000
44
0.0000000001
40
0.0000000000
40
0.0000000000
40
0.0000000000
40
0.0000000000
40
0.0708351226
40
0.1352452137
40
0.1938300431
40
0.2471127278
40
0.2955524857
40
0.3395528213
40
0.3794678599
40
0.4156045842
40
0.4482246434
40
0.4775403627
40
0.5037311313
40
0.5268928463
40
0.5476148657
40
0.5679346567
40
0.5902062196
40
0.6154433777
40
0.6436158796
40
0.6749361635
40
0.7095761842
40
0.7477383603
40
0.7896429902
40
0.8355350274
40
0.8856862273
40
0.9403932628
40
1.0000000000
40
1.0000000000
40
1.0000000000
40
1.0000000000
10
133.7852195946
20
345.2854666482
30
0.0000000000
10
133.2786728727
20
345.1081882531
30
0.0000000000
10
132.3188313774
20
344.7482660034
30
0.0000000000
10
130.9689705195
20
344.1686285978
30
0.0000000000
10
129.7680821971
20
343.5829733039
30
0.0000000000
10
128.7042563301
20
342.9958361039
30
0.0000000000
10
127.7675594644
20
342.4103181456
30
0.0000000000
10
126.9500955531
20
341.8283798091
30
0.0000000000
10
126.2461628806
20
341.2510967016
30
0.0000000000
10
125.6526220004
20
340.6789746910
30
0.0000000000
10
125.1695258844
20
340.1125110269
30
0.0000000000
10
124.8008697129
20
339.5532604646
30
0.0000000000
10
124.5551004606
20
339.0066421081
30
0.0000000000
10
124.4413540690
20
338.4830851766
30
0.0000000000
10
124.4618277825
20
337.9911833500
30
0.0000000000
10
124.6158990408
20
337.5302924758
30
0.0000000000
10
124.9089238058
20
337.1010403185
30
0.0000000000
10
125.3372114382
20
336.7135934943
30
0.0000000000
10
125.8845422700
20
336.3734806870
30
0.0000000000
10
126.5357265459
20
336.0790290694
30
0.0000000000
10
127.2835207160
20
335.8249502323
30
0.0000000000
10
128.1252306928
20
335.6062895175
30
0.0000000000
10
129.0613652408
20
335.4189188000
30
0.0000000000
10
130.0945509837
20
335.2595053852
30
0.0000000000
10
131.2289681042
20
335.1253113679
30
0.0000000000
10
132.4701589052
20
335.0139797816
30
0.0000000000
10
133.3343794434
20
334.9561909721
30
0.0000000000
10
133.7852195946
20
334.9299691525
30
0.0000000000
11
133.7852195946
21
345.2854666482
31
0.0000000000
11
132.2781632115
21
344.7189545513
31
0.0000000000
11
130.9335181851
21
344.1400132252
31
0.0000000000
11
129.7373709494
21
343.5549193078
31
0.0000000000
11
128.6779294999
21
342.9681779464
31
0.0000000000
11
127.7454106623
21
342.3828661406
31
0.0000000000
11
126.9320786694
21
341.8009166346
31
0.0000000000
11
126.2324255418
21
341.2233740209
31
0.0000000000
11
125.6435921970
21
340.6507498839
31
0.0000000000
11
125.1660078574
21
340.0836321112
31
0.0000000000
11
124.8041959007
21
339.5241024068
31
0.0000000000
11
124.5664985674
21
338.9783253646
31
0.0000000000
11
124.4611355783
21
338.4625324011
31
0.0000000000
11
124.4840799869
21
337.9920991991
31
0.0000000000
11
124.6294388622
21
337.5537199893
31
0.0000000000
11
124.9100924230
21
337.1324311750
31
0.0000000000
11
125.3301473586
21
336.7418025694
31
0.0000000000
11
125.8703187848
21
336.3979366906
31
0.0000000000
11
126.5166900006
21
336.0996430836
31
0.0000000000
11
127.2607971371
21
335.8423453181
31
0.0000000000
11
128.0994812363
21
335.6210394563
31
0.0000000000
11
129.0328829200
21
335.4314895095
31
0.0000000000
11
130.0634287625
21
335.2702478106
31
0.0000000000
11
131.1952052577
21
335.1344817145
31
0.0000000000
11
132.4335281173
21
335.0217840885
31
0.0000000000
11
133.7852195946
21
334.9299691525
31
0.0000000000
0
SPLINE
5
26E
100
AcDbEntity
8
0
100
AcDbSpline
62
7
6
CONTINUOUS
70
0
71
3
72
32
73
28
74
26
42
0.0000001000
43
0.0000001000
44
0.0000000001
40
0.0000000000
40
0.0000000000
40
0.0000000000
40
0.0000000000
40
0.0598482033
40
0.1147571428
40
0.1650651968
40
0.2110658528
40
0.2530303062
40
0.2912045190
40
0.3258122669
40
0.3570659181
40
0.3851519309
40
0.4102908491
40
0.4324887144
40
0.4527849843
40
0.4735504910
40
0.4967656459
40
0.5229971989
40
0.5523342436
40
0.5849614343
40
0.6210905902
40
0.6609836677
40
0.7049458412
40
0.7533294340
40
0.8065359316
40
0.8650229056
40
0.9293118437
40
1.0000000000
40
1.0000000000
40
1.0000000000
40
1.0000000000
10
163.7852195946
20
334.9299691525
30
0.0000000000
10
164.2378863309
20
334.9562972102
30
0.0000000000
10
165.1054578664
20
335.0143400334
30
0.0000000000
10
166.3511637566
20
335.1262651399
30
0.0000000000
10
167.4890579869
20
335.2612380152
30
0.0000000000
10
168.5245958544
20
335.4216003395
30
0.0000000000
10
169.4619143698
20
335.6100559171
30
0.0000000000
10
170.3036406314
20
335.8298819715
30
0.0000000000
10
171.0503542255
20
336.0851331614
30
0.0000000000
10
171.6995184160
20
336.3806830878
30
0.0000000000
10
172.2440672272
20
336.7217079096
30
0.0000000000
10
172.6691602529
20
337.1097992208
30
0.0000000000
10
172.9590290438
20
337.5394133799
30
0.0000000000
10
173.1103397779
20
338.0007815308
30
0.0000000000
10
173.1281280902
20
338.4933379113
30
0.0000000000
10
173.0116881902
20
339.0173365595
30
0.0000000000
10
172.7636137372
20
339.5638344208
30
0.0000000000
10
172.3932369181
20
340.1225469252
30
0.0000000000
10
171.9089974303
20
340.6882216128
30
0.0000000000
10
171.3148139707
20
341.2594173069
30
0.0000000000
10
170.6107087271
20
341.8356701820
30
0.0000000000
10
169.7935368664
20
342.4164909639
30
0.0000000000
10
168.8576200509
20
343.0008123234
30
0.0000000000
10
167.7950949701
20
343.5866902967
30
0.0000000000
10
166.5960663325
20
344.1710500467
30
0.0000000000
10
165.2486693349
20
344.7493913665
30
0.0000000000
10
164.2907156159
20
345.1085559715
30
0.0000000000
10
163.7852195946
20
345.2854666482
30
0.0000000000
11
163.7852195946
21
334.9299691525
31
0.0000000000
11
165.1423834376
21
335.0222153990
31
0.0000000000
11
166.3852587047
21
335.1355315540
31
0.0000000000
11
167.5205297393
21
335.2721038291
31
0.0000000000
11
168.5534219321
21
335.4343225869
31
0.0000000000
11
169.4879851128
21
335.6249859479
31
0.0000000000
11
170.3266379416
21
335.8474813566
31
0.0000000000
11
171.0695616212
21
336.1059539757
31
0.0000000000
11
171.7137706217
21
336.4053134932
31
0.0000000000
11
172.2510615451
21
336.7500367284
31
0.0000000000
11
172.6677103023
21
337.1410409916
31
0.0000000000
11
172.9452169732
21
337.5624053447
31
0.0000000000
11
173.0879978231
21
338.0010690532
31
0.0000000000
11
173.1084771334
21
338.4726056193
31
0.0000000000
11
173.0004459682
21
338.9890876219
31
0.0000000000
11
172.7603819397
21
339.5348410083
31
0.0000000000
11
172.3968167281
21
340.0938118114
31
0.0000000000
11
171.9180435131
21
340.6601390501
31
0.0000000000
11
171.3285387959
21
341.2318255475
31
0.0000000000
11
170.6286811216
21
341.8083362759
31
0.0000000000
11
169.8156145018
21
342.3891664561
31
0.0000000000
11
168.8838509059
21
342.9732809868
31
0.0000000000
11
167.8256898750
21
343.5587611861
31
0.0000000000
11
166.6313832841
21
344.1425577016
31
0.0000000000
11
165.2891778011
21
344.7202036574
31
0.0000000000
11
163.7852195946
21
345.2854666482
31
0.0000000000
0
ENDSEC
0
SECTION
2
OBJECTS
0
DICTIONARY
5
26F
100
AcDbDictionary
3
ACAD_GROUP
350
270
3
ACAD_MLINESTYLE
350
271
0
DICTIONARY
5
270
102
{ACAD_REACTORS
330
26F
102
}
100
AcDbDictionary
0
DICTIONARY
5
271
102
{ACAD_REACTORS
330
26F
102
}
100
AcDbDictionary
3
STANDARD
350
272
0
MLINESTYLE
5
272
102
{ACAD_REACTORS
330
271
102
}
100
AcDbMlineStyle
2
STANDARD
70
0
3

62
256
51
90.0
52
90.0
71
2
49
0.5
62
256
6
BYLAYER
49
-0.5
62
256
6
BYLAYER
0
ENDSEC
0
EOF
