999
DXF file: G:\TBM\Rehwagen\Dateitypen\Oval-Glieder\8502173.dxf
999
Pro/ENGINEER 2001400 by Parametric Technology Corporation
0
SECTION
2
HEADER
9
$ACADVER
1
AC1014
9
$EXTMAX
10
420.0000000000
20
297.0000000000
9
$EXTMIN
10
0.0000000000
20
0.0000000000
9
$LIMMIN
10
0.0000000000
20
0.0000000000
9
$LIMMAX
10
420.0000000000
20
297.0000000000
9
$VIEWCTR
10
210.0000000000
20
148.5000000000
9
$VIEWSIZE
40
297.0000000000
9
$CLAYER
8
0
9
$LTSCALE
40
23.1000000000
9
$CELTYPE
6
BYLAYER
9
$DIMSCALE
40
1
9
$DIMASZ
40
3.5000000000
9
$DIMEXO
40
2.6250000000
9
$DIMDLI
40
15.9600000000
9
$DIMEXE
40
7.5600000000
9
$DIMCEN
40
3.7800000000
9
$DIMLFAC
40
1.0000000000
9
$DIMTXT
40
3.5000000000
9
$DIMTOL
70
1
9
$DIMTFAC
40
0.6000000000
9
$DIMTP
40
0.0050000000
9
$DIMTM
40
0.0050000000
9
$HANDSEED
5
273
0
ENDSEC
0
SECTION
2
CLASSES
0
ENDSEC
0
SECTION
2
TABLES
0
TABLE
2
VPORT
5
8
100
AcDbSymbolTable
70
2
0
VPORT
5
1F4
100
AcDbSymbolTableRecord
100
AcDbViewportTableRecord
2
*ACTIVE
70
0
10
0.0
20
0.0
11
1.0
21
1.0
12
210.0000000000
22
148.5000000000
13
0.0
23
0.0
14
1.0
24
1.0
15
0.0
25
0.0
16
0.0
26
0.0
36
1.0
17
0.0
27
0.0
37
0.0
40
297.0000000000
41
1.4141414141
42
50.0
43
0.0
44
0.0
50
0.0
51
0.0
71
0
72
100
73
1
74
1
75
0
76
0
77
0
78
0
0
ENDTAB
0
TABLE
2
LTYPE
5
5
100
AcDbSymbolTable
70
6
0
LTYPE
5
14
100
AcDbSymbolTableRecord
100
AcDbLinetypeTableRecord
2
BYBLOCK
70
0
3

72
65
73
0
40
0.0
0
LTYPE
5
15
100
AcDbSymbolTableRecord
100
AcDbLinetypeTableRecord
2
BYLAYER
70
0
3

72
65
73
0
40
0.0
0
LTYPE
5
16
100
AcDbSymbolTableRecord
100
AcDbLinetypeTableRecord
2
CONTINUOUS
70
64
3
Solid line
72
65
73
0
40
0
0
LTYPE
5
1F5
100
AcDbSymbolTableRecord
100
AcDbLinetypeTableRecord
2
CENTER
70
64
3
____ _ ____ _ ____ _ ____ _ ____ _ ____ _ ____
72
65
73
4
40
0.6
49
0.375
74
0
49
-0.075
74
0
49
0.075
74
0
49
-0.075
74
0
0
LTYPE
5
1F6
100
AcDbSymbolTableRecord
100
AcDbLinetypeTableRecord
2
HIDDEN
70
64
3
- - - - - - - - - - - - - - - - - - - -
72
65
73
2
40
0.2
49
0.1
74
0
49
-0.1
74
0
0
LTYPE
5
1F7
100
AcDbSymbolTableRecord
100
AcDbLinetypeTableRecord
2
PHANTOM
70
64
3
_____ _ _ _____ _ _ _____ _ _ _____
72
65
73
6
40
0.8
49
0.45
74
0
49
-0.05
74
0
49
0.1
74
0
49
-0.05
74
0
49
0.1
74
0
49
-0.05
74
0
0
LTYPE
5
1F8
100
AcDbSymbolTableRecord
100
AcDbLinetypeTableRecord
2
DOT
70
64
3
. . . . . . . . . . . . . . . . . . . .
72
65
73
2
40
0.2
49
0.1
74
0
49
-0.1
74
0
0
LTYPE
5
1F9
100
AcDbSymbolTableRecord
100
AcDbLinetypeTableRecord
2
DASHED
70
64
3
- - - - - - - - - - - - - - - - - - - -
72
65
73
2
40
0.2
49
0.1
74
0
49
-0.1
74
0
0
ENDTAB
0
TABLE
2
LAYER
5
2
100
AcDbSymbolTable
70
36
0
LAYER
5
10
100
AcDbSymbolTableRecord
100
AcDbLayerTableRecord
2
0
70
0
62
7
6
CONTINUOUS
0
LAYER
5
1FA
100
AcDbSymbolTableRecord
100
AcDbLayerTableRecord
2
DEFAULT_1
70
0
62
7
6
CENTER
0
LAYER
5
1FB
100
AcDbSymbolTableRecord
100
AcDbLayerTableRecord
2
DEFAULT_2
70
0
62
8
6
HIDDEN
0
LAYER
5
1FC
100
AcDbSymbolTableRecord
100
AcDbLayerTableRecord
2
DEFAULT_3
70
0
62
7
6
PHANTOM
0
ENDTAB
0
TABLE
2
STYLE
5
3
100
AcDbSymbolTable
70
1
0
STYLE
5
11
100
AcDbSymbolTableRecord
100
AcDbTextStyleTableRecord
2
STANDARD
70
0
40
0.0
41
1.0
50
0.0
71
0
42
0.0
3
txt
4

0
ENDTAB
0
TABLE
2
VIEW
5
6
100
AcDbSymbolTable
70
0
0
ENDTAB
0
TABLE
2
UCS
5
7
100
AcDbSymbolTable
70
0
0
ENDTAB
0
TABLE
2
APPID
5
9
100
AcDbSymbolTable
70
1
0
APPID
5
1FD
100
AcDbSymbolTableRecord
100
AcDbRegAppTableRecord
2
ACAD
70
0
0
ENDTAB
0
TABLE
2
DIMSTYLE
5
A
100
AcDbSymbolTable
70
1
0
DIMSTYLE
105
1FE
100
AcDbSymbolTableRecord
100
AcDbDimStyleTableRecord
2
STANDARD
70
0
3

4

5

6

7

40
1.0
41
0.18
42
0.0625
43
0.38
44
0.18
45
0.0
46
0.0
47
0.0050000000
48
0.0050000000
140
3.5000000000
141
0.09
142
0.0
143
25.4
144
1.0000000000
145
0.0
146
0.6000000000
147
0.09
71
1
72
0
73
1
74
1
75
0
76
0
77
0
78
0
170
0
171
2
172
0
173
0
174
0
175
0
176
0
177
0
178
0
270
2
271
3
272
4
273
2
274
2
340
11
275
0
280
0
281
0
282
0
283
1
284
0
285
0
286
0
287
3
288
0
0
ENDTAB
0
TABLE
2
BLOCK_RECORD
5
1
100
AcDbSymbolTable
70
0
0
BLOCK_RECORD
5
1B
100
AcDbSymbolTableRecord
100
AcDbBlockTableRecord
2
*MODEL_SPACE
0
BLOCK_RECORD
5
1C
100
AcDbSymbolTableRecord
100
AcDbBlockTableRecord
2
*PAPER_SPACE
0
ENDTAB
0
ENDSEC
0
SECTION
2
BLOCKS
0
BLOCK
5
1E
100
AcDbEntity
8
0
100
AcDbBlockBegin
2
*MODEL_SPACE
70
0
10
0.0
20
0.0
30
0.0
3
*MODEL_SPACE
1

0
ENDBLK
5
1F
100
AcDbEntity
8
0
100
AcDbBlockEnd
0
BLOCK
5
20
100
AcDbEntity
8
0
100
AcDbBlockBegin
2
*PAPER_SPACE
70
0
10
0.0
20
0.0
30
0.0
3
*PAPER_SPACE
1

0
ENDBLK
5
21
100
AcDbEntity
8
0
100
AcDbBlockEnd
0
ENDSEC
0
SECTION
2
ENTITIES
0
LINE
5
1FF
100
AcDbEntity
8
0
100
AcDbLine
62
7
6
CONTINUOUS
10
0.0000000000
20
0.0000000000
11
0.0000000000
21
297.0000000000
0
LINE
5
200
100
AcDbEntity
8
0
100
AcDbLine
62
7
6
CONTINUOUS
10
0.0000000000
20
0.0000000000
11
420.0000000000
21
0.0000000000
0
LINE
5
201
100
AcDbEntity
8
0
100
AcDbLine
62
7
6
CONTINUOUS
10
0.0000000000
20
297.0000000000
11
420.0000000000
21
297.0000000000
0
LINE
5
202
100
AcDbEntity
8
0
100
AcDbLine
62
7
6
CONTINUOUS
10
420.0000000000
20
0.0000000000
11
420.0000000000
21
297.0000000000
0
LINE
5
203
100
AcDbEntity
8
0
100
AcDbLine
62
9
6
CONTINUOUS
10
89.3188218214
20
198.6019526045
11
86.2388218214
21
188.0419526045
0
LINE
5
204
100
AcDbEntity
8
0
100
AcDbLine
62
9
6
CONTINUOUS
10
89.3188218214
20
227.4019526045
11
86.2388218214
21
237.9619526045
0
LINE
5
205
100
AcDbEntity
8
0
100
AcDbLine
62
7
6
CONTINUOUS
10
100.0188218214
20
186.0854858680
11
100.0188218214
21
195.3873418019
0
LINE
5
206
100
AcDbEntity
8
0
100
AcDbLine
62
7
6
CONTINUOUS
10
100.0188218214
20
230.6165634072
11
100.0188218214
21
239.9184193410
0
LINE
5
207
100
AcDbEntity
8
DEFAULT_1
100
AcDbLine
62
2
6
CENTER
10
64.5188218214
20
213.0019526045
11
157.5188218214
21
213.0019526045
0
LINE
5
208
100
AcDbEntity
8
0
100
AcDbLine
62
7
6
CONTINUOUS
10
122.0188218214
20
186.0854858680
11
122.0188218214
21
195.3873418019
0
LINE
5
209
100
AcDbEntity
8
0
100
AcDbLine
62
7
6
CONTINUOUS
10
122.0188218214
20
230.6165634072
11
122.0188218214
21
239.9184193410
0
LINE
5
20A
100
AcDbEntity
8
0
100
AcDbLine
62
9
6
CONTINUOUS
10
132.7188218214
20
227.4019526045
11
135.7988218214
21
237.9619526045
0
LINE
5
20B
100
AcDbEntity
8
0
100
AcDbLine
62
9
6
CONTINUOUS
10
132.7188218214
20
198.6019526045
11
135.7988218214
21
188.0419526045
0
POLYLINE
5
20C
100
AcDbEntity
8
0
100
AcDb2dPolyline
62
9
6
CONTINUOUS
66
1
70
0
0
VERTEX
5
20D
100
AcDbEntity
8
0
100
AcDbVertex
62
9
6
CONTINUOUS
100
AcDb2dVertex
10
86.2388218214
20
112.6134590964
0
VERTEX
5
20E
100
AcDbEntity
8
0
100
AcDbVertex
62
9
6
CONTINUOUS
100
AcDb2dVertex
10
86.2485050182
20
113.2292637150
0
VERTEX
5
20F
100
AcDbEntity
8
0
100
AcDbVertex
62
9
6
CONTINUOUS
100
AcDb2dVertex
10
86.2774328366
20
113.8373242331
0
VERTEX
5
210
100
AcDbEntity
8
0
100
AcDbVertex
62
9
6
CONTINUOUS
100
AcDb2dVertex
10
86.3252414927
20
114.4299939371
0
VERTEX
5
211
100
AcDbEntity
8
0
100
AcDbVertex
62
9
6
CONTINUOUS
100
AcDb2dVertex
10
86.3913297648
20
114.9998196615
0
VERTEX
5
212
100
AcDbEntity
8
0
100
AcDbVertex
62
9
6
CONTINUOUS
100
AcDb2dVertex
10
86.4748665546
20
115.5396355172
0
VERTEX
5
213
100
AcDbEntity
8
0
100
AcDbVertex
62
9
6
CONTINUOUS
100
AcDb2dVertex
10
86.5748013384
20
116.0426530066
0
VERTEX
5
214
100
AcDbEntity
8
0
100
AcDbVertex
62
9
6
CONTINUOUS
100
AcDb2dVertex
10
86.6898773784
20
116.5025463929
0
VERTEX
5
215
100
AcDbEntity
8
0
100
AcDbVertex
62
9
6
CONTINUOUS
100
AcDb2dVertex
10
86.8186475265
20
116.9135322500
0
VERTEX
5
216
100
AcDbEntity
8
0
100
AcDbVertex
62
9
6
CONTINUOUS
100
AcDb2dVertex
10
86.9594924236
20
117.2704421921
0
VERTEX
5
217
100
AcDbEntity
8
0
100
AcDbVertex
62
9
6
CONTINUOUS
100
AcDb2dVertex
10
87.1106408632
20
117.5687878699
0
VERTEX
5
218
100
AcDbEntity
8
0
100
AcDbVertex
62
9
6
CONTINUOUS
100
AcDb2dVertex
10
87.2701920660
20
117.8048174131
0
VERTEX
5
219
100
AcDbEntity
8
0
100
AcDbVertex
62
9
6
CONTINUOUS
100
AcDb2dVertex
10
87.4361395831
20
117.9755626134
0
VERTEX
5
21A
100
AcDbEntity
8
0
100
AcDbVertex
62
9
6
CONTINUOUS
100
AcDb2dVertex
10
87.6063965282
20
118.0788762508
0
VERTEX
5
21B
100
AcDbEntity
8
0
100
AcDbVertex
62
9
6
CONTINUOUS
100
AcDb2dVertex
10
87.7788218214
20
118.1134590964
0
SEQEND
5
21C
100
AcDbEntity
8
0
0
POLYLINE
5
21D
100
AcDbEntity
8
0
100
AcDb2dPolyline
62
9
6
CONTINUOUS
66
1
70
0
0
VERTEX
5
21E
100
AcDbEntity
8
0
100
AcDbVertex
62
9
6
CONTINUOUS
100
AcDb2dVertex
10
134.2588218214
20
107.1134590964
0
VERTEX
5
21F
100
AcDbEntity
8
0
100
AcDbVertex
62
9
6
CONTINUOUS
100
AcDb2dVertex
10
134.4312471146
20
107.1480419420
0
VERTEX
5
220
100
AcDbEntity
8
0
100
AcDbVertex
62
9
6
CONTINUOUS
100
AcDb2dVertex
10
134.6015040597
20
107.2513555794
0
VERTEX
5
221
100
AcDbEntity
8
0
100
AcDbVertex
62
9
6
CONTINUOUS
100
AcDb2dVertex
10
134.7674515768
20
107.4221007797
0
VERTEX
5
222
100
AcDbEntity
8
0
100
AcDbVertex
62
9
6
CONTINUOUS
100
AcDb2dVertex
10
134.9270027796
20
107.6581303229
0
VERTEX
5
223
100
AcDbEntity
8
0
100
AcDbVertex
62
9
6
CONTINUOUS
100
AcDb2dVertex
10
135.0781512192
20
107.9564760006
0
VERTEX
5
224
100
AcDbEntity
8
0
100
AcDbVertex
62
9
6
CONTINUOUS
100
AcDb2dVertex
10
135.2189961163
20
108.3133859428
0
VERTEX
5
225
100
AcDbEntity
8
0
100
AcDbVertex
62
9
6
CONTINUOUS
100
AcDb2dVertex
10
135.3477662644
20
108.7243717999
0
VERTEX
5
226
100
AcDbEntity
8
0
100
AcDbVertex
62
9
6
CONTINUOUS
100
AcDb2dVertex
10
135.4628423044
20
109.1842651862
0
VERTEX
5
227
100
AcDbEntity
8
0
100
AcDbVertex
62
9
6
CONTINUOUS
100
AcDb2dVertex
10
135.5627770882
20
109.6872826756
0
VERTEX
5
228
100
AcDbEntity
8
0
100
AcDbVertex
62
9
6
CONTINUOUS
100
AcDb2dVertex
10
135.6463138780
20
110.2270985312
0
VERTEX
5
229
100
AcDbEntity
8
0
100
AcDbVertex
62
9
6
CONTINUOUS
100
AcDb2dVertex
10
135.7124021501
20
110.7969242556
0
VERTEX
5
22A
100
AcDbEntity
8
0
100
AcDbVertex
62
9
6
CONTINUOUS
100
AcDb2dVertex
10
135.7602108062
20
111.3895939596
0
VERTEX
5
22B
100
AcDbEntity
8
0
100
AcDbVertex
62
9
6
CONTINUOUS
100
AcDb2dVertex
10
135.7891386246
20
111.9976544778
0
VERTEX
5
22C
100
AcDbEntity
8
0
100
AcDbVertex
62
9
6
CONTINUOUS
100
AcDb2dVertex
10
135.7988218214
20
112.6134590964
0
SEQEND
5
22D
100
AcDbEntity
8
0
0
POLYLINE
5
22E
100
AcDbEntity
8
0
100
AcDb2dPolyline
62
9
6
CONTINUOUS
66
1
70
0
0
VERTEX
5
22F
100
AcDbEntity
8
0
100
AcDbVertex
62
9
6
CONTINUOUS
100
AcDb2dVertex
10
87.7788218214
20
107.1134590964
0
VERTEX
5
230
100
AcDbEntity
8
0
100
AcDbVertex
62
9
6
CONTINUOUS
100
AcDb2dVertex
10
87.6063965282
20
107.1480419420
0
VERTEX
5
231
100
AcDbEntity
8
0
100
AcDbVertex
62
9
6
CONTINUOUS
100
AcDb2dVertex
10
87.4361395831
20
107.2513555794
0
VERTEX
5
232
100
AcDbEntity
8
0
100
AcDbVertex
62
9
6
CONTINUOUS
100
AcDb2dVertex
10
87.2701920660
20
107.4221007797
0
VERTEX
5
233
100
AcDbEntity
8
0
100
AcDbVertex
62
9
6
CONTINUOUS
100
AcDb2dVertex
10
87.1106408632
20
107.6581303229
0
VERTEX
5
234
100
AcDbEntity
8
0
100
AcDbVertex
62
9
6
CONTINUOUS
100
AcDb2dVertex
10
86.9594924236
20
107.9564760006
0
VERTEX
5
235
100
AcDbEntity
8
0
100
AcDbVertex
62
9
6
CONTINUOUS
100
AcDb2dVertex
10
86.8186475265
20
108.3133859428
0
VERTEX
5
236
100
AcDbEntity
8
0
100
AcDbVertex
62
9
6
CONTINUOUS
100
AcDb2dVertex
10
86.6898773784
20
108.7243717999
0
VERTEX
5
237
100
AcDbEntity
8
0
100
AcDbVertex
62
9
6
CONTINUOUS
100
AcDb2dVertex
10
86.5748013384
20
109.1842651862
0
VERTEX
5
238
100
AcDbEntity
8
0
100
AcDbVertex
62
9
6
CONTINUOUS
100
AcDb2dVertex
10
86.4748665546
20
109.6872826756
0
VERTEX
5
239
100
AcDbEntity
8
0
100
AcDbVertex
62
9
6
CONTINUOUS
100
AcDb2dVertex
10
86.3913297648
20
110.2270985312
0
VERTEX
5
23A
100
AcDbEntity
8
0
100
AcDbVertex
62
9
6
CONTINUOUS
100
AcDb2dVertex
10
86.3252414927
20
110.7969242556
0
VERTEX
5
23B
100
AcDbEntity
8
0
100
AcDbVertex
62
9
6
CONTINUOUS
100
AcDb2dVertex
10
86.2774328366
20
111.3895939596
0
VERTEX
5
23C
100
AcDbEntity
8
0
100
AcDbVertex
62
9
6
CONTINUOUS
100
AcDb2dVertex
10
86.2485050182
20
111.9976544778
0
VERTEX
5
23D
100
AcDbEntity
8
0
100
AcDbVertex
62
9
6
CONTINUOUS
100
AcDb2dVertex
10
86.2388218214
20
112.6134590964
0
SEQEND
5
23E
100
AcDbEntity
8
0
0
LINE
5
23F
100
AcDbEntity
8
0
100
AcDbLine
62
7
6
CONTINUOUS
10
149.0188218214
20
107.1134590964
11
131.3400481289
21
107.1134590964
0
LINE
5
240
100
AcDbEntity
8
0
100
AcDbLine
62
7
6
CONTINUOUS
10
90.6984200398
20
107.1134590964
11
73.0658338717
21
107.1134590964
0
LINE
5
241
100
AcDbEntity
8
0
100
AcDbLine
62
7
6
CONTINUOUS
10
122.0188218214
20
109.6134590964
11
100.0188218214
21
109.6134590964
0
LINE
5
242
100
AcDbEntity
8
0
100
AcDbLine
62
7
6
CONTINUOUS
10
100.0188218214
20
109.6134590964
11
90.6884173376
21
107.1133847499
0
LINE
5
243
100
AcDbEntity
8
0
100
AcDbLine
62
7
6
CONTINUOUS
10
122.0188218214
20
115.6134590964
11
131.3492267511
21
118.1135335623
0
LINE
5
244
100
AcDbEntity
8
DEFAULT_1
100
AcDbLine
62
2
6
CENTER
10
64.5188218214
20
112.6134590964
11
157.5188218214
21
112.6134590964
0
LINE
5
245
100
AcDbEntity
8
0
100
AcDbLine
62
7
6
CONTINUOUS
10
131.3492297818
20
107.1133838183
11
122.0188218214
21
109.6134590964
0
LINE
5
246
100
AcDbEntity
8
0
100
AcDbLine
62
7
6
CONTINUOUS
10
90.6884104827
20
118.1135352796
11
100.0188218214
21
115.6134590964
0
LINE
5
247
100
AcDbEntity
8
0
100
AcDbLine
62
7
6
CONTINUOUS
10
122.0188218214
20
115.6134590964
11
100.0188218214
21
115.6134590964
0
LINE
5
248
100
AcDbEntity
8
0
100
AcDbLine
62
7
6
CONTINUOUS
10
148.9718097712
20
118.1134590964
11
131.3392142375
21
118.1134590964
0
LINE
5
249
100
AcDbEntity
8
0
100
AcDbLine
62
7
6
CONTINUOUS
10
90.6984189930
20
118.1134590964
11
73.0658338717
21
118.1134590964
0
POLYLINE
5
24A
100
AcDbEntity
8
0
100
AcDb2dPolyline
62
9
6
CONTINUOUS
66
1
70
0
0
VERTEX
5
24B
100
AcDbEntity
8
0
100
AcDbVertex
62
9
6
CONTINUOUS
100
AcDb2dVertex
10
135.7988218214
20
112.6134590964
0
VERTEX
5
24C
100
AcDbEntity
8
0
100
AcDbVertex
62
9
6
CONTINUOUS
100
AcDb2dVertex
10
135.7891386246
20
113.2292637150
0
VERTEX
5
24D
100
AcDbEntity
8
0
100
AcDbVertex
62
9
6
CONTINUOUS
100
AcDb2dVertex
10
135.7602108062
20
113.8373242331
0
VERTEX
5
24E
100
AcDbEntity
8
0
100
AcDbVertex
62
9
6
CONTINUOUS
100
AcDb2dVertex
10
135.7124021501
20
114.4299939371
0
VERTEX
5
24F
100
AcDbEntity
8
0
100
AcDbVertex
62
9
6
CONTINUOUS
100
AcDb2dVertex
10
135.6463138780
20
114.9998196615
0
VERTEX
5
250
100
AcDbEntity
8
0
100
AcDbVertex
62
9
6
CONTINUOUS
100
AcDb2dVertex
10
135.5627770882
20
115.5396355172
0
VERTEX
5
251
100
AcDbEntity
8
0
100
AcDbVertex
62
9
6
CONTINUOUS
100
AcDb2dVertex
10
135.4628423044
20
116.0426530066
0
VERTEX
5
252
100
AcDbEntity
8
0
100
AcDbVertex
62
9
6
CONTINUOUS
100
AcDb2dVertex
10
135.3477662644
20
116.5025463929
0
VERTEX
5
253
100
AcDbEntity
8
0
100
AcDbVertex
62
9
6
CONTINUOUS
100
AcDb2dVertex
10
135.2189961163
20
116.9135322500
0
VERTEX
5
254
100
AcDbEntity
8
0
100
AcDbVertex
62
9
6
CONTINUOUS
100
AcDb2dVertex
10
135.0781512192
20
117.2704421921
0
VERTEX
5
255
100
AcDbEntity
8
0
100
AcDbVertex
62
9
6
CONTINUOUS
100
AcDb2dVertex
10
134.9270027796
20
117.5687878699
0
VERTEX
5
256
100
AcDbEntity
8
0
100
AcDbVertex
62
9
6
CONTINUOUS
100
AcDb2dVertex
10
134.7674515768
20
117.8048174131
0
VERTEX
5
257
100
AcDbEntity
8
0
100
AcDbVertex
62
9
6
CONTINUOUS
100
AcDb2dVertex
10
134.6015040597
20
117.9755626134
0
VERTEX
5
258
100
AcDbEntity
8
0
100
AcDbVertex
62
9
6
CONTINUOUS
100
AcDb2dVertex
10
134.4312471146
20
118.0788762508
0
VERTEX
5
259
100
AcDbEntity
8
0
100
AcDbVertex
62
9
6
CONTINUOUS
100
AcDb2dVertex
10
134.2588218214
20
118.1134590964
0
SEQEND
5
25A
100
AcDbEntity
8
0
0
ARC
5
25B
100
AcDbEntity
8
0
100
AcDbCircle
62
7
6
CONTINUOUS
10
111.0188218214
20
273.0019526045
40
77.5000000000
100
AcDbArc
50
253.7397952917
51
286.2602047083
0
ARC
5
25C
100
AcDbEntity
8
0
100
AcDbCircle
62
7
6
CONTINUOUS
10
111.0188218214
20
273.0019526045
40
88.5000000000
100
AcDbArc
50
253.7397952917
51
286.2602047083
0
ARC
5
25D
100
AcDbEntity
8
0
100
AcDbCircle
62
7
6
CONTINUOUS
10
93.5188218214
20
213.0019526045
40
15.0000000000
100
AcDbArc
50
106.2602047083
51
253.7397952917
0
ARC
5
25E
100
AcDbEntity
8
0
100
AcDbCircle
62
7
6
CONTINUOUS
10
93.5188218214
20
213.0019526045
40
26.0000000000
100
AcDbArc
50
106.2602047083
51
253.7397952917
0
ARC
5
25F
100
AcDbEntity
8
0
100
AcDbCircle
62
7
6
CONTINUOUS
10
111.0188218214
20
153.0019526045
40
77.5000000000
100
AcDbArc
50
73.7397952917
51
106.2602047083
0
ARC
5
260
100
AcDbEntity
8
0
100
AcDbCircle
62
7
6
CONTINUOUS
10
111.0188218214
20
153.0019526045
40
88.5000000000
100
AcDbArc
50
73.7397952917
51
106.2602047083
0
ARC
5
261
100
AcDbEntity
8
0
100
AcDbCircle
62
7
6
CONTINUOUS
10
128.5188218214
20
213.0019526045
40
15.0000000000
100
AcDbArc
50
286.2602047083
51
73.7397952917
0
ARC
5
262
100
AcDbEntity
8
0
100
AcDbCircle
62
7
6
CONTINUOUS
10
128.5188218214
20
213.0019526045
40
26.0000000000
100
AcDbArc
50
286.2602047083
51
73.7397952917
0
ARC
5
263
100
AcDbEntity
8
0
100
AcDbCircle
62
7
6
CONTINUOUS
10
111.0188218214
20
153.0019526045
40
87.6097722286
100
AcDbArc
50
82.7870903408
51
97.2129096592
0
ARC
5
264
100
AcDbEntity
8
0
100
AcDbCircle
62
7
6
CONTINUOUS
10
111.0188218214
20
153.0019526045
40
78.3902277714
100
AcDbArc
50
81.9334272256
51
98.0665727744
0
ARC
5
265
100
AcDbEntity
8
0
100
AcDbCircle
62
7
6
CONTINUOUS
10
111.0188218214
20
273.0019526045
40
78.3902277714
100
AcDbArc
50
261.9334272256
51
278.0665727744
0
ARC
5
266
100
AcDbEntity
8
0
100
AcDbCircle
62
7
6
CONTINUOUS
10
111.0188218214
20
273.0019526045
40
87.6097722286
100
AcDbArc
50
262.7870903408
51
277.2129096592
0
ARC
5
267
100
AcDbEntity
8
DEFAULT_2
100
AcDbCircle
62
8
6
HIDDEN
10
73.0188218214
20
112.6134590964
40
5.5000000000
100
AcDbArc
50
270.0000000000
51
90.0000000000
0
ARC
5
268
100
AcDbEntity
8
DEFAULT_2
100
AcDbCircle
62
8
6
HIDDEN
10
149.0188218214
20
112.6134590964
40
5.5000000000
100
AcDbArc
50
90.0000000000
51
270.0000000000
0
ARC
5
269
100
AcDbEntity
8
0
100
AcDbCircle
62
7
6
CONTINUOUS
10
73.0188218214
20
112.6134590964
40
5.5000000000
100
AcDbArc
50
90.0000000000
51
270.0000000000
0
ARC
5
26A
100
AcDbEntity
8
0
100
AcDbCircle
62
7
6
CONTINUOUS
10
149.0188218214
20
112.6134590964
40
5.5000000000
100
AcDbArc
50
270.0000000000
51
90.0000000000
0
SPLINE
5
26B
100
AcDbEntity
8
0
100
AcDbSpline
62
7
6
CONTINUOUS
70
0
71
3
72
34
73
30
74
28
42
0.0000001000
43
0.0000001000
44
0.0000000001
40
0.0000000000
40
0.0000000000
40
0.0000000000
40
0.0000000000
40
0.0682689604
40
0.1302383489
40
0.1865294369
40
0.2376803071
40
0.2841616166
40
0.3263846065
40
0.3647100605
40
0.3994538438
40
0.4308889114
40
0.4592489520
40
0.4847222959
40
0.5074690343
40
0.5275770924
40
0.5456171009
40
0.5633688668
40
0.5828546473
40
0.6049817856
40
0.6296731076
40
0.6571186234
40
0.6874723446
40
0.7209232727
40
0.7576817086
40
0.7979772740
40
0.8420615363
40
0.8902082069
40
0.9427324328
40
1.0000000000
40
1.0000000000
40
1.0000000000
40
1.0000000000
10
122.0188218214
20
186.0854858680
30
0.0000000000
10
122.5025291397
20
186.2317242729
30
0.0000000000
10
123.4190894030
20
186.5319135363
30
0.0000000000
10
124.7097247205
20
187.0238082825
30
0.0000000000
10
125.8592326444
20
187.5261640658
30
0.0000000000
10
126.8800274573
20
188.0332818245
30
0.0000000000
10
127.7826902586
20
188.5410909868
30
0.0000000000
10
128.5760087679
20
189.0468033722
30
0.0000000000
10
129.2669768739
20
189.5486505122
30
0.0000000000
10
129.8606583367
20
190.0456462998
30
0.0000000000
10
130.3598868020
20
190.5373106401
30
0.0000000000
10
130.7647191726
20
191.0231717830
30
0.0000000000
10
131.0717948610
20
191.5018459975
30
0.0000000000
10
131.2738979756
20
191.9686044836
30
0.0000000000
10
131.3632572918
20
192.4147121085
30
0.0000000000
10
131.3376508293
20
192.8328573908
30
0.0000000000
10
131.1971292606
20
193.2229539406
30
0.0000000000
10
130.9375738020
20
193.5836988631
30
0.0000000000
10
130.5632498317
20
193.9064856716
30
0.0000000000
10
130.0884124706
20
194.1874635393
30
0.0000000000
10
129.5261226265
20
194.4286118068
30
0.0000000000
10
128.8821551085
20
194.6348423780
30
0.0000000000
10
128.1583374038
20
194.8106058584
30
0.0000000000
10
127.3537291892
20
194.9595635344
30
0.0000000000
10
126.4656092015
20
195.0846605255
30
0.0000000000
10
125.4899862912
20
195.1883329055
30
0.0000000000
10
124.4217268092
20
195.2727151795
30
0.0000000000
10
123.2545171664
20
195.3397949911
30
0.0000000000
10
122.4424685001
20
195.3727701644
30
0.0000000000
10
122.0188218214
20
195.3873418019
30
0.0000000000
11
122.0188218214
21
186.0854858680
31
0.0000000000
11
123.4591875855
21
186.5583203345
31
0.0000000000
11
124.7446660515
21
187.0494403330
31
0.0000000000
11
125.8895846137
21
187.5511184636
31
0.0000000000
11
126.9062365082
21
188.0576799672
31
0.0000000000
11
127.8050809773
21
188.5650797071
31
0.0000000000
11
128.5947729989
21
189.0705481278
31
0.0000000000
11
129.2821654277
21
189.5723403669
31
0.0000000000
11
129.8721539888
21
190.0694970971
31
0.0000000000
11
130.3673179148
21
190.5615220960
31
0.0000000000
11
130.7674002736
21
191.0478765166
31
0.0000000000
11
131.0685711406
21
191.5267006977
31
0.0000000000
11
131.2637082425
21
191.9926030026
31
0.0000000000
11
131.3458833577
21
192.4314987331
31
0.0000000000
11
131.3185694340
21
192.8311654352
31
0.0000000000
11
131.1860498799
21
193.2024211266
31
0.0000000000
11
130.9375039344
21
193.5566211251
31
0.0000000000
11
130.5698999725
21
193.8826584499
31
0.0000000000
11
130.1010820221
21
194.1669848010
31
0.0000000000
11
129.5428086235
21
194.4114659765
31
0.0000000000
11
128.9019840201
21
194.6204453516
31
0.0000000000
11
128.1808121110
21
194.7984528693
31
0.0000000000
11
127.3786023982
21
194.9492667369
31
0.0000000000
11
126.4928035268
21
195.0759294808
31
0.0000000000
11
125.5195122987
21
195.1809545155
31
0.0000000000
11
124.4537900701
21
195.2665203422
31
0.0000000000
11
123.2894215528
21
195.3346550742
31
0.0000000000
11
122.0188218214
21
195.3873418019
31
0.0000000000
0
SPLINE
5
26C
100
AcDbEntity
8
0
100
AcDbSpline
62
7
6
CONTINUOUS
70
0
71
3
72
34
73
30
74
28
42
0.0000001000
43
0.0000001000
44
0.0000000001
40
0.0000000000
40
0.0000000000
40
0.0000000000
40
0.0000000000
40
0.0573012344
40
0.1098566463
40
0.1580346609
40
0.2021480231
40
0.2424634632
40
0.2792236311
40
0.3126501996
40
0.3429445258
40
0.3702917482
40
0.3948586280
40
0.4168223155
40
0.4362692189
40
0.4539719382
40
0.4719323454
40
0.4919836992
40
0.5146882688
40
0.5401385096
40
0.5684926859
40
0.5999384402
40
0.6347072974
40
0.6730716706
40
0.7153470378
40
0.7618940978
40
0.8131249973
40
0.8695120032
40
0.9315954676
40
1.0000000000
40
1.0000000000
40
1.0000000000
40
1.0000000000
10
100.0188218214
20
195.3873418019
30
0.0000000000
10
99.5949253691
20
195.3727615733
30
0.0000000000
10
98.7823957337
20
195.3397639648
30
0.0000000000
10
97.6144742053
20
195.2726235614
30
0.0000000000
10
96.5455397517
20
195.1881462720
30
0.0000000000
10
95.5693311732
20
195.0843384780
30
0.0000000000
10
94.6808530348
20
194.9590768612
30
0.0000000000
10
93.8762911145
20
194.8099682601
30
0.0000000000
10
93.1531065489
20
194.6341637912
30
0.0000000000
10
92.5104774468
20
194.4281740071
30
0.0000000000
10
91.9501405821
20
194.1877997428
30
0.0000000000
10
91.4776489268
20
193.9085288510
30
0.0000000000
10
91.1045753112
20
193.5881601604
30
0.0000000000
10
90.8445443155
20
193.2301659101
30
0.0000000000
10
90.7020620564
20
192.8421696204
30
0.0000000000
10
90.6736590717
20
192.4256031247
30
0.0000000000
10
90.7600312312
20
191.9802125318
30
0.0000000000
10
90.9596334934
20
191.5133148405
30
0.0000000000
10
91.2648509946
20
191.0340434167
30
0.0000000000
10
91.6684556565
20
190.5473132826
30
0.0000000000
10
92.1670061130
20
190.0546286659
30
0.0000000000
10
92.7604909475
20
189.5565237260
30
0.0000000000
10
93.4516906786
20
189.0535183676
30
0.0000000000
10
94.2456401935
20
188.5466226519
30
0.0000000000
10
95.1493225951
20
188.0376236980
30
0.0000000000
10
96.1715345819
20
187.5293260522
30
0.0000000000
10
97.3228874388
20
187.0258179582
30
0.0000000000
10
98.6158462944
20
186.5328222856
30
0.0000000000
10
99.5341531145
20
186.2320149279
30
0.0000000000
10
100.0188218214
20
186.0854858680
30
0.0000000000
11
100.0188218214
21
195.3873418019
31
0.0000000000
11
98.7474732158
21
195.3346180734
31
0.0000000000
11
97.5824126492
21
195.2664213380
31
0.0000000000
11
96.5159983622
21
195.1807556239
31
0.0000000000
11
95.5420712211
21
195.0755851359
31
0.0000000000
11
94.6558506032
21
194.9487433680
31
0.0000000000
11
93.8536315125
21
194.7977638493
31
0.0000000000
11
93.1330293160
21
194.6197003840
31
0.0000000000
11
92.4935105268
21
194.4109672719
31
0.0000000000
11
91.9372468348
21
194.1673355957
31
0.0000000000
11
91.4706115499
21
193.8847376909
31
0.0000000000
11
91.1049720472
21
193.5619562448
31
0.0000000000
11
90.8553326917
21
193.2095826136
31
0.0000000000
11
90.7209675865
21
192.8401488894
31
0.0000000000
11
90.6911233577
21
192.4424350749
31
0.0000000000
11
90.7703988916
21
192.0042851581
31
0.0000000000
11
90.9629762007
21
191.5383311163
31
0.0000000000
11
91.2622355074
21
191.0589134612
31
0.0000000000
11
91.6610448913
21
190.5716815587
31
0.0000000000
11
92.1555080304
21
190.0786144964
31
0.0000000000
11
92.7452794343
21
189.5803349638
31
0.0000000000
11
93.4328891720
21
189.0773728441
31
0.0000000000
11
94.2232006091
21
188.5707121724
31
0.0000000000
11
95.1230496477
21
188.0621186317
31
0.0000000000
11
96.1411007385
21
187.5543762607
31
0.0000000000
11
97.2878426350
21
187.0515470116
31
0.0000000000
11
98.5756161433
21
186.5593297855
31
0.0000000000
11
100.0188218214
21
186.0854858680
31
0.0000000000
0
SPLINE
5
26D
100
AcDbEntity
8
0
100
AcDbSpline
62
7
6
CONTINUOUS
70
0
71
3
72
34
73
30
74
28
42
0.0000001000
43
0.0000001000
44
0.0000000001
40
0.0000000000
40
0.0000000000
40
0.0000000000
40
0.0000000000
40
0.0682439044
40
0.1301927810
40
0.1864672509
40
0.2376048754
40
0.2840758726
40
0.3262911277
40
0.3646110933
40
0.3993513731
40
0.4307847253
40
0.4591446822
40
0.4846196287
40
0.5073694330
40
0.5274824744
40
0.5455174266
40
0.5632597440
40
0.5827434285
40
0.6048697933
40
0.6295642148
40
0.6570181570
40
0.6873830906
40
0.7208466602
40
0.7576184929
40
0.7979278164
40
0.8420255411
40
0.8901850767
40
0.9427213682
40
1.0000000000
40
1.0000000000
40
1.0000000000
40
1.0000000000
10
100.0188218214
20
239.9184193410
30
0.0000000000
10
99.5352920092
20
239.7722346013
30
0.0000000000
10
98.6190501951
20
239.4721581216
30
0.0000000000
10
97.3288323523
20
238.9804618487
30
0.0000000000
10
96.1796436374
20
238.4783080239
30
0.0000000000
10
95.1590818611
20
237.9713907006
30
0.0000000000
10
94.2565752717
20
237.4637774004
30
0.0000000000
10
93.4633431157
20
236.9582548747
30
0.0000000000
10
92.7723957499
20
236.4565913415
30
0.0000000000
10
92.1786703452
20
235.9597734344
30
0.0000000000
10
91.6793296557
20
235.4682816557
30
0.0000000000
10
91.2743063353
20
234.9825855858
30
0.0000000000
10
90.9669439827
20
234.5040611420
30
0.0000000000
10
90.7644358500
20
234.0374101756
30
0.0000000000
10
90.6745681354
20
233.5913930938
30
0.0000000000
10
90.6995546473
20
233.1732941156
30
0.0000000000
10
90.8393784848
20
232.7830814090
30
0.0000000000
10
91.0983587615
20
232.4220173939
30
0.0000000000
10
91.4723623638
20
232.0988345888
30
0.0000000000
10
91.9470887340
20
231.8174962909
30
0.0000000000
10
92.5094382413
20
231.5760478554
30
0.0000000000
10
93.1535839054
20
231.3695818081
30
0.0000000000
10
93.8776442478
20
231.1936431584
30
0.0000000000
10
94.6825294463
20
231.0445591828
30
0.0000000000
10
95.5709410901
20
230.9193740422
30
0.0000000000
10
96.5468563760
20
230.8156425626
30
0.0000000000
10
97.6153981394
20
230.7312227860
30
0.0000000000
10
98.7828735108
20
230.6641209346
30
0.0000000000
10
99.5950932698
20
230.6311378607
30
0.0000000000
10
100.0188218214
20
230.6165634072
30
0.0000000000
11
100.0188218214
21
239.9184193410
31
0.0000000000
11
98.5789804155
21
239.4457712236
31
0.0000000000
11
97.2939139556
21
238.9548488997
31
0.0000000000
11
96.1493099873
21
238.4533721451
31
0.0000000000
11
95.1328869821
21
237.9470106861
31
0.0000000000
11
94.2341949167
21
237.4398067056
31
0.0000000000
11
93.4445852279
21
236.9345281897
31
0.0000000000
11
92.7572093083
21
236.4329199923
31
0.0000000000
11
92.1671718727
21
235.9359419686
31
0.0000000000
11
91.6718892294
21
235.4440904784
31
0.0000000000
11
91.2716076563
21
234.9579023700
31
0.0000000000
11
90.9701374413
21
234.4792245149
31
0.0000000000
11
90.7745847855
21
234.0134226121
31
0.0000000000
11
90.6918912597
21
233.5745116301
31
0.0000000000
11
90.7186241772
21
233.1749181595
31
0.0000000000
11
90.8504741827
21
232.8036467782
31
0.0000000000
11
91.0984802348
21
232.4491253181
31
0.0000000000
11
91.4657273043
21
232.1227118616
31
0.0000000000
11
91.9344067369
21
231.8380245865
31
0.0000000000
11
92.4927454463
21
231.5932261567
31
0.0000000000
11
93.1337515342
21
231.3840001955
31
0.0000000000
11
93.8551676505
21
231.2058105042
31
0.0000000000
11
94.6576554879
21
231.0548657148
31
0.0000000000
11
95.5437499128
21
230.9281112735
31
0.0000000000
11
96.5173352529
21
230.8230249113
31
0.0000000000
11
97.5833410042
21
230.7374200802
31
0.0000000000
11
98.7479766176
21
230.6692622624
31
0.0000000000
11
100.0188218214
21
230.6165634072
31
0.0000000000
0
SPLINE
5
26E
100
AcDbEntity
8
0
100
AcDbSpline
62
7
6
CONTINUOUS
70
0
71
3
72
34
73
30
74
28
42
0.0000001000
43
0.0000001000
44
0.0000000001
40
0.0000000000
40
0.0000000000
40
0.0000000000
40
0.0000000000
40
0.0573067820
40
0.1098674323
40
0.1580503468
40
0.2021680069
40
0.2424874335
40
0.2792517807
40
0.3126831952
40
0.3429828081
40
0.3703358266
40
0.3949083361
40
0.4168802450
40
0.4363271937
40
0.4540285814
40
0.4719918021
40
0.4920460841
40
0.5147528748
40
0.5402042974
40
0.5685584297
40
0.6000028850
40
0.6347693137
40
0.6731300276
40
0.7154004036
40
0.7619409447
40
0.8131635646
40
0.8695402412
40
0.9316109867
40
1.0000000000
40
1.0000000000
40
1.0000000000
40
1.0000000000
10
122.0188218214
20
230.6165634072
30
0.0000000000
10
122.4427592937
20
230.6311450467
30
0.0000000000
10
123.2553686556
20
230.6641463701
30
0.0000000000
10
124.4234058866
20
230.7312966748
30
0.0000000000
10
125.4924463259
20
230.8157891845
30
0.0000000000
10
126.4687507444
20
230.9196189445
30
0.0000000000
10
127.3573177806
20
231.0449115604
30
0.0000000000
10
128.1619695856
20
231.1940648673
30
0.0000000000
10
128.8852477283
20
231.3699349094
30
0.0000000000
10
129.5279706180
20
231.5760214722
30
0.0000000000
10
130.0883844731
20
231.8165357537
30
0.0000000000
10
130.5609270746
20
232.0960144216
30
0.0000000000
10
130.9339308942
20
232.4166385192
30
0.0000000000
10
131.1937226207
20
232.7748811799
30
0.0000000000
10
131.3358528505
20
233.1630203691
30
0.0000000000
10
131.3638884607
20
233.5796412945
30
0.0000000000
10
131.2771859718
20
234.0250207112
30
0.0000000000
10
131.0773261718
20
234.4918531302
30
0.0000000000
10
130.7719243259
20
234.9710326220
30
0.0000000000
10
130.3681982042
20
235.4576578336
30
0.0000000000
10
129.8695786140
20
235.9502309656
30
0.0000000000
10
129.2760695206
20
236.4482206209
30
0.0000000000
10
128.5848861786
20
236.9511080712
30
0.0000000000
10
127.7909934354
20
237.4578831328
30
0.0000000000
10
126.8874102214
20
237.9667588293
30
0.0000000000
10
125.8653441157
20
238.4749312161
30
0.0000000000
10
124.7141898323
20
238.9783136355
30
0.0000000000
10
123.4214899614
20
239.4711861062
30
0.0000000000
10
122.5033805475
20
239.7719235315
30
0.0000000000
10
122.0188218214
20
239.9184193410
30
0.0000000000
11
122.0188218214
21
230.6165634072
31
0.0000000000
11
123.2902934133
21
230.6692932130
31
0.0000000000
11
124.4554698441
21
230.7375002861
31
0.0000000000
11
125.5219919602
21
230.8231819231
31
0.0000000000
11
126.4960126258
21
230.9283748444
31
0.0000000000
11
127.3823181340
21
231.0552480255
31
0.0000000000
11
128.1846230669
21
231.2062729946
31
0.0000000000
11
128.9053192340
21
231.3844046081
31
0.0000000000
11
129.5449288447
21
231.5932377046
31
0.0000000000
11
130.1012687738
21
231.8370160416
31
0.0000000000
11
130.5679276512
21
232.1198162312
31
0.0000000000
11
130.9335397016
21
232.4429045050
31
0.0000000000
11
131.1829123083
21
232.7954681704
31
0.0000000000
11
131.3169402633
21
233.1649928691
31
0.0000000000
11
131.3464470435
21
233.5627944926
31
0.0000000000
11
131.2668452659
21
234.0009513228
31
0.0000000000
11
131.0740022117
21
234.4668487999
31
0.0000000000
11
130.7745504018
21
234.9461771528
31
0.0000000000
11
130.3756139388
21
235.4333037077
31
0.0000000000
11
129.8810786333
21
235.9262574856
31
0.0000000000
11
129.2912799217
21
236.4244210643
31
0.0000000000
11
128.6036842465
21
236.9272646990
31
0.0000000000
11
127.8134271110
21
237.4338046228
31
0.0000000000
11
126.9136747989
21
237.9422749995
31
0.0000000000
11
125.8957668981
21
238.4498923996
31
0.0000000000
11
124.7492205933
21
238.9525963808
31
0.0000000000
11
123.4617026242
21
239.4446909170
31
0.0000000000
11
122.0188218214
21
239.9184193410
31
0.0000000000
0
ENDSEC
0
SECTION
2
OBJECTS
0
DICTIONARY
5
26F
100
AcDbDictionary
3
ACAD_GROUP
350
270
3
ACAD_MLINESTYLE
350
271
0
DICTIONARY
5
270
102
{ACAD_REACTORS
330
26F
102
}
100
AcDbDictionary
0
DICTIONARY
5
271
102
{ACAD_REACTORS
330
26F
102
}
100
AcDbDictionary
3
STANDARD
350
272
0
MLINESTYLE
5
272
102
{ACAD_REACTORS
330
271
102
}
100
AcDbMlineStyle
2
STANDARD
70
0
3

62
256
51
90.0
52
90.0
71
2
49
0.5
62
256
6
BYLAYER
49
-0.5
62
256
6
BYLAYER
0
ENDSEC
0
EOF
