999
DXF file: G:\TBM\Rehwagen\Dateitypen\Oval-Glieder\7989531.dxf
999
Pro/ENGINEER 2001400 by Parametric Technology Corporation
0
SECTION
2
HEADER
9
$ACADVER
1
AC1014
9
$EXTMAX
10
420.0000000000
20
297.0000000000
9
$EXTMIN
10
0.0000000000
20
0.0000000000
9
$LIMMIN
10
0.0000000000
20
0.0000000000
9
$LIMMAX
10
420.0000000000
20
297.0000000000
9
$VIEWCTR
10
210.0000000000
20
148.5000000000
9
$VIEWSIZE
40
297.0000000000
9
$CLAYER
8
0
9
$LTSCALE
40
23.1000000000
9
$CELTYPE
6
BYLAYER
9
$DIMSCALE
40
1
9
$DIMASZ
40
3.5000000000
9
$DIMEXO
40
2.6250000000
9
$DIMDLI
40
15.9600000000
9
$DIMEXE
40
7.5600000000
9
$DIMCEN
40
3.7800000000
9
$DIMLFAC
40
1.0000000000
9
$DIMTXT
40
3.5000000000
9
$DIMTOL
70
1
9
$DIMTFAC
40
0.6000000000
9
$DIMTP
40
0.0050000000
9
$DIMTM
40
0.0050000000
9
$HANDSEED
5
4BD
0
ENDSEC
0
SECTION
2
CLASSES
0
ENDSEC
0
SECTION
2
TABLES
0
TABLE
2
VPORT
5
8
100
AcDbSymbolTable
70
2
0
VPORT
5
1F4
100
AcDbSymbolTableRecord
100
AcDbViewportTableRecord
2
*ACTIVE
70
0
10
0.0
20
0.0
11
1.0
21
1.0
12
210.0000000000
22
148.5000000000
13
0.0
23
0.0
14
1.0
24
1.0
15
0.0
25
0.0
16
0.0
26
0.0
36
1.0
17
0.0
27
0.0
37
0.0
40
297.0000000000
41
1.4141414141
42
50.0
43
0.0
44
0.0
50
0.0
51
0.0
71
0
72
100
73
1
74
1
75
0
76
0
77
0
78
0
0
ENDTAB
0
TABLE
2
LTYPE
5
5
100
AcDbSymbolTable
70
6
0
LTYPE
5
14
100
AcDbSymbolTableRecord
100
AcDbLinetypeTableRecord
2
BYBLOCK
70
0
3

72
65
73
0
40
0.0
0
LTYPE
5
15
100
AcDbSymbolTableRecord
100
AcDbLinetypeTableRecord
2
BYLAYER
70
0
3

72
65
73
0
40
0.0
0
LTYPE
5
16
100
AcDbSymbolTableRecord
100
AcDbLinetypeTableRecord
2
CONTINUOUS
70
64
3
Solid line
72
65
73
0
40
0
0
LTYPE
5
1F5
100
AcDbSymbolTableRecord
100
AcDbLinetypeTableRecord
2
CENTER
70
64
3
____ _ ____ _ ____ _ ____ _ ____ _ ____ _ ____
72
65
73
4
40
0.6
49
0.375
74
0
49
-0.075
74
0
49
0.075
74
0
49
-0.075
74
0
0
LTYPE
5
1F6
100
AcDbSymbolTableRecord
100
AcDbLinetypeTableRecord
2
HIDDEN
70
64
3
- - - - - - - - - - - - - - - - - - - -
72
65
73
2
40
0.2
49
0.1
74
0
49
-0.1
74
0
0
LTYPE
5
1F7
100
AcDbSymbolTableRecord
100
AcDbLinetypeTableRecord
2
PHANTOM
70
64
3
_____ _ _ _____ _ _ _____ _ _ _____
72
65
73
6
40
0.8
49
0.45
74
0
49
-0.05
74
0
49
0.1
74
0
49
-0.05
74
0
49
0.1
74
0
49
-0.05
74
0
0
LTYPE
5
1F8
100
AcDbSymbolTableRecord
100
AcDbLinetypeTableRecord
2
DOT
70
64
3
. . . . . . . . . . . . . . . . . . . .
72
65
73
2
40
0.2
49
0.1
74
0
49
-0.1
74
0
0
LTYPE
5
1F9
100
AcDbSymbolTableRecord
100
AcDbLinetypeTableRecord
2
DASHED
70
64
3
- - - - - - - - - - - - - - - - - - - -
72
65
73
2
40
0.2
49
0.1
74
0
49
-0.1
74
0
0
ENDTAB
0
TABLE
2
LAYER
5
2
100
AcDbSymbolTable
70
36
0
LAYER
5
10
100
AcDbSymbolTableRecord
100
AcDbLayerTableRecord
2
0
70
0
62
7
6
CONTINUOUS
0
LAYER
5
1FA
100
AcDbSymbolTableRecord
100
AcDbLayerTableRecord
2
DEFAULT_1
70
0
62
7
6
CENTER
0
LAYER
5
1FB
100
AcDbSymbolTableRecord
100
AcDbLayerTableRecord
2
DEFAULT_2
70
0
62
8
6
HIDDEN
0
LAYER
5
1FC
100
AcDbSymbolTableRecord
100
AcDbLayerTableRecord
2
DEFAULT_3
70
0
62
7
6
PHANTOM
0
ENDTAB
0
TABLE
2
STYLE
5
3
100
AcDbSymbolTable
70
1
0
STYLE
5
11
100
AcDbSymbolTableRecord
100
AcDbTextStyleTableRecord
2
STANDARD
70
0
40
0.0
41
1.0
50
0.0
71
0
42
0.0
3
txt
4

0
ENDTAB
0
TABLE
2
VIEW
5
6
100
AcDbSymbolTable
70
0
0
ENDTAB
0
TABLE
2
UCS
5
7
100
AcDbSymbolTable
70
0
0
ENDTAB
0
TABLE
2
APPID
5
9
100
AcDbSymbolTable
70
1
0
APPID
5
1FD
100
AcDbSymbolTableRecord
100
AcDbRegAppTableRecord
2
ACAD
70
0
0
ENDTAB
0
TABLE
2
DIMSTYLE
5
A
100
AcDbSymbolTable
70
1
0
DIMSTYLE
105
1FE
100
AcDbSymbolTableRecord
100
AcDbDimStyleTableRecord
2
STANDARD
70
0
3

4

5

6

7

40
1.0
41
0.18
42
0.0625
43
0.38
44
0.18
45
0.0
46
0.0
47
0.0050000000
48
0.0050000000
140
3.5000000000
141
0.09
142
0.0
143
25.4
144
1.0000000000
145
0.0
146
0.6000000000
147
0.09
71
1
72
0
73
1
74
1
75
0
76
0
77
0
78
0
170
0
171
2
172
0
173
0
174
0
175
0
176
0
177
0
178
0
270
2
271
3
272
4
273
2
274
2
340
11
275
0
280
0
281
0
282
0
283
1
284
0
285
0
286
0
287
3
288
0
0
ENDTAB
0
TABLE
2
BLOCK_RECORD
5
1
100
AcDbSymbolTable
70
0
0
BLOCK_RECORD
5
1B
100
AcDbSymbolTableRecord
100
AcDbBlockTableRecord
2
*MODEL_SPACE
0
BLOCK_RECORD
5
1C
100
AcDbSymbolTableRecord
100
AcDbBlockTableRecord
2
*PAPER_SPACE
0
ENDTAB
0
ENDSEC
0
SECTION
2
BLOCKS
0
BLOCK
5
1E
100
AcDbEntity
8
0
100
AcDbBlockBegin
2
*MODEL_SPACE
70
0
10
0.0
20
0.0
30
0.0
3
*MODEL_SPACE
1

0
ENDBLK
5
1F
100
AcDbEntity
8
0
100
AcDbBlockEnd
0
BLOCK
5
20
100
AcDbEntity
8
0
100
AcDbBlockBegin
2
*PAPER_SPACE
70
0
10
0.0
20
0.0
30
0.0
3
*PAPER_SPACE
1

0
ENDBLK
5
21
100
AcDbEntity
8
0
100
AcDbBlockEnd
0
ENDSEC
0
SECTION
2
ENTITIES
0
LINE
5
1FF
100
AcDbEntity
8
0
100
AcDbLine
62
7
6
CONTINUOUS
10
0.0000000000
20
0.0000000000
11
0.0000000000
21
297.0000000000
0
LINE
5
200
100
AcDbEntity
8
0
100
AcDbLine
62
7
6
CONTINUOUS
10
0.0000000000
20
0.0000000000
11
420.0000000000
21
0.0000000000
0
LINE
5
201
100
AcDbEntity
8
0
100
AcDbLine
62
7
6
CONTINUOUS
10
0.0000000000
20
297.0000000000
11
420.0000000000
21
297.0000000000
0
LINE
5
202
100
AcDbEntity
8
0
100
AcDbLine
62
7
6
CONTINUOUS
10
420.0000000000
20
0.0000000000
11
420.0000000000
21
297.0000000000
0
LINE
5
203
100
AcDbEntity
8
0
100
AcDbLine
62
7
6
CONTINUOUS
10
74.8323280709
20
203.5994661472
11
74.8168753819
21
203.8108054082
0
LINE
5
204
100
AcDbEntity
8
0
100
AcDbLine
62
7
6
CONTINUOUS
10
73.1590692940
20
217.4232482576
11
73.1518038348
21
217.7576148645
0
LINE
5
205
100
AcDbEntity
8
0
100
AcDbLine
62
7
6
CONTINUOUS
10
72.7531231451
20
217.9198356414
11
72.7301922002
21
217.4596668134
0
LINE
5
206
100
AcDbEntity
8
0
100
AcDbLine
62
7
6
CONTINUOUS
10
72.2424740952
20
214.6540409317
11
72.2240071453
21
214.3959527179
0
LINE
5
207
100
AcDbEntity
8
0
100
AcDbLine
62
7
6
CONTINUOUS
10
72.6438370627
20
214.3010595501
11
72.6715375933
21
214.6881933475
0
LINE
5
208
100
AcDbEntity
8
0
100
AcDbLine
62
7
6
CONTINUOUS
10
73.2178076480
20
215.1679268006
11
73.2408914940
21
215.4905392830
0
LINE
5
209
100
AcDbEntity
8
0
100
AcDbLine
62
7
6
CONTINUOUS
10
73.6902099296
20
214.6153044280
11
73.6671261893
21
214.2926934224
0
LINE
5
20A
100
AcDbEntity
8
0
100
AcDbLine
62
7
6
CONTINUOUS
10
74.0869561067
20
214.1978002546
11
74.1192734276
21
214.6494568439
0
LINE
5
20B
100
AcDbEntity
8
0
100
AcDbLine
62
7
6
CONTINUOUS
10
72.4208611919
20
210.3948026433
11
72.3912263622
21
209.9985643714
0
LINE
5
20C
100
AcDbEntity
8
0
100
AcDbLine
62
7
6
CONTINUOUS
10
72.8125227435
20
210.0584536568
11
72.8512616130
21
210.3906487705
0
LINE
5
20D
100
AcDbEntity
8
0
100
AcDbLine
62
7
6
CONTINUOUS
10
72.7833192036
20
218.0456364229
11
72.7531231451
21
217.9198356414
0
LINE
5
20E
100
AcDbEntity
8
0
100
AcDbLine
62
7
6
CONTINUOUS
10
73.1518038348
20
217.7576148645
11
73.2121962975
21
218.0092178672
0
LINE
5
20F
100
AcDbEntity
8
0
100
AcDbLine
62
7
6
CONTINUOUS
10
73.4218672020
20
216.6949218044
11
73.4973575211
21
217.0094244780
0
LINE
5
210
100
AcDbEntity
8
0
100
AcDbLine
62
7
6
CONTINUOUS
10
74.5362889831
20
217.6913948794
11
74.4758965204
21
217.4397918767
0
LINE
5
211
100
AcDbEntity
8
0
100
AcDbLine
62
7
6
CONTINUOUS
10
74.8069196339
20
217.3603361436
11
74.8673120965
21
217.6119391463
0
LINE
5
212
100
AcDbEntity
8
0
100
AcDbLine
62
7
6
CONTINUOUS
10
72.3504472827
20
214.9705793389
11
72.2424740952
21
214.6540409317
0
LINE
5
213
100
AcDbEntity
8
0
100
AcDbLine
62
7
6
CONTINUOUS
10
73.7981830114
20
214.9318413584
11
73.6902099296
21
214.6153044280
0
LINE
5
214
100
AcDbEntity
8
0
100
AcDbLine
62
7
6
CONTINUOUS
10
74.2577528862
20
220.7051707234
11
74.1385851256
21
220.4044885576
0
LINE
5
215
100
AcDbEntity
8
0
100
AcDbLine
62
7
6
CONTINUOUS
10
75.1528762074
20
221.1158183335
11
74.8907063705
21
220.4543156417
0
LINE
5
216
100
AcDbEntity
8
0
100
AcDbLine
62
7
6
CONTINUOUS
10
74.7715386099
20
220.1536334759
11
74.5808700839
21
219.6725417353
0
LINE
5
217
100
AcDbEntity
8
0
100
AcDbLine
62
7
6
CONTINUOUS
10
74.8973467152
20
219.5471142384
11
75.0880152412
21
220.0282059790
0
LINE
5
218
100
AcDbEntity
8
0
100
AcDbLine
62
7
6
CONTINUOUS
10
75.2071830018
20
220.3288881448
11
75.4693528387
21
220.9903908366
0
LINE
5
219
100
AcDbEntity
8
0
100
AcDbLine
62
7
6
CONTINUOUS
10
72.9717617052
20
218.4660773845
11
72.7833192036
21
218.0456364229
0
LINE
5
21A
100
AcDbEntity
8
0
100
AcDbLine
62
7
6
CONTINUOUS
10
73.2121962975
20
218.0092178672
11
73.3704423950
21
218.3038566076
0
LINE
5
21B
100
AcDbEntity
8
0
100
AcDbLine
62
7
6
CONTINUOUS
10
76.1445342798
20
225.3977721779
11
75.2640509934
21
224.1191058701
0
LINE
5
21C
100
AcDbEntity
8
0
100
AcDbLine
62
7
6
CONTINUOUS
10
74.4863564609
20
203.3434085950
11
75.2119023689
21
201.9708848321
0
LINE
5
21D
100
AcDbEntity
8
0
100
AcDbLine
62
7
6
CONTINUOUS
10
75.4067186390
20
202.5128847258
11
74.8323280709
21
203.5994661472
0
LINE
5
21E
100
AcDbEntity
8
0
100
AcDbLine
62
7
6
CONTINUOUS
10
72.9423024266
20
209.7502142573
11
72.8125227435
21
210.0584536568
0
LINE
5
21F
100
AcDbEntity
8
0
100
AcDbLine
62
7
6
CONTINUOUS
10
76.2384474305
20
200.6075776923
11
76.3677177949
21
200.2991245407
0
LINE
5
220
100
AcDbEntity
8
0
100
AcDbLine
62
7
6
CONTINUOUS
10
72.3912263622
20
209.9985643714
11
72.5301100850
21
209.6262818137
0
LINE
5
221
100
AcDbEntity
8
0
100
AcDbLine
62
7
6
CONTINUOUS
10
72.7148761390
20
214.1014185762
11
72.6438370627
21
214.3010595501
0
LINE
5
222
100
AcDbEntity
8
0
100
AcDbLine
62
7
6
CONTINUOUS
10
76.6660422875
20
200.6093894245
11
76.6154949681
21
200.8151758121
0
LINE
5
223
100
AcDbEntity
8
0
100
AcDbLine
62
7
6
CONTINUOUS
10
74.4104416706
20
203.6691247272
11
74.4863564609
21
203.3434085950
0
LINE
5
224
100
AcDbEntity
8
0
100
AcDbLine
62
7
6
CONTINUOUS
10
72.2240071453
20
214.3959527179
11
72.2858126409
21
214.0672661603
0
LINE
5
225
100
AcDbEntity
8
0
100
AcDbLine
62
7
6
CONTINUOUS
10
73.6671261893
20
214.2926934224
11
73.7289316849
21
213.9640068648
0
LINE
5
226
100
AcDbEntity
8
0
100
AcDbLine
62
7
6
CONTINUOUS
10
76.7181355109
20
217.3007333404
11
76.6957721879
21
217.5722002782
0
LINE
5
227
100
AcDbEntity
8
0
100
AcDbLine
62
7
6
CONTINUOUS
10
75.7584594199
20
212.5438803466
11
75.7697414063
21
212.2206413687
0
LINE
5
228
100
AcDbEntity
8
0
100
AcDbLine
62
7
6
CONTINUOUS
10
76.1950143721
20
212.2354846401
11
76.1837323857
21
212.5587236179
0
LINE
5
229
100
AcDbEntity
8
0
100
AcDbLine
62
7
6
CONTINUOUS
10
76.2819932454
20
217.6715199566
11
76.2892583591
21
217.3371519101
0
LINE
5
22A
100
AcDbEntity
8
0
100
AcDbLine
62
7
6
CONTINUOUS
10
78.0135349599
20
224.6605671667
11
78.0168137609
21
224.8153908272
0
LINE
5
22B
100
AcDbEntity
8
0
100
AcDbLine
62
7
6
CONTINUOUS
10
75.8170604368
20
214.5279753270
11
75.7847431159
21
214.0763187377
0
LINE
5
22C
100
AcDbEntity
8
0
100
AcDbLine
62
7
6
CONTINUOUS
10
76.2138066733
20
214.1104711493
11
76.2368904136
21
214.4330821549
0
LINE
5
22D
100
AcDbEntity
8
0
100
AcDbLine
62
7
6
CONTINUOUS
10
76.3217779816
20
210.1652854484
11
76.3514128187
21
210.5615237213
0
LINE
5
22E
100
AcDbEntity
8
0
100
AcDbLine
62
7
6
CONTINUOUS
10
75.9301163784
20
210.5016344275
11
75.8913775089
21
210.1694393138
0
LINE
5
22F
100
AcDbEntity
8
0
100
AcDbLine
62
7
6
CONTINUOUS
10
76.2836130284
20
200.9682700186
11
76.2384474305
21
200.6075776923
0
LINE
5
230
100
AcDbEntity
8
0
100
AcDbLine
62
7
6
CONTINUOUS
10
77.6230930851
20
224.6938031657
11
77.5831280403
21
224.4857025554
0
LINE
5
231
100
AcDbEntity
8
0
100
AcDbLine
62
7
6
CONTINUOUS
10
79.0950959187
20
223.6801893052
11
79.0551308740
21
223.4720886949
0
LINE
5
232
100
AcDbEntity
8
0
100
AcDbLine
62
7
6
CONTINUOUS
10
75.5511544714
20
216.4499263921
11
75.4756638067
21
216.1354222788
0
LINE
5
233
100
AcDbEntity
8
0
100
AcDbLine
62
7
6
CONTINUOUS
10
76.2892583591
20
217.3371519101
11
76.1986698378
21
216.9597481258
0
LINE
5
234
100
AcDbEntity
8
0
100
AcDbLine
62
7
6
CONTINUOUS
10
76.5973509311
20
216.7975287747
11
76.7181355109
21
217.3007333404
0
LINE
5
235
100
AcDbEntity
8
0
100
AcDbLine
62
7
6
CONTINUOUS
10
74.5152389432
20
204.0172001685
11
74.4104416706
21
203.6691247272
0
LINE
5
236
100
AcDbEntity
8
0
100
AcDbLine
62
7
6
CONTINUOUS
10
76.1058334785
20
213.7939327426
11
76.2138066733
21
214.1104711493
0
LINE
5
237
100
AcDbEntity
8
0
100
AcDbLine
62
7
6
CONTINUOUS
10
79.4390168754
20
223.1292077801
11
79.5523552413
21
223.4438635138
0
LINE
5
238
100
AcDbEntity
8
0
100
AcDbLine
62
7
6
CONTINUOUS
10
74.8673120965
20
217.6119391463
11
75.0406563961
21
217.9694789973
0
LINE
5
239
100
AcDbEntity
8
0
100
AcDbLine
62
7
6
CONTINUOUS
10
76.6722926535
20
222.2469844237
11
76.2533308512
21
221.4441017037
0
LINE
5
23A
100
AcDbEntity
8
0
100
AcDbLine
62
7
6
CONTINUOUS
10
76.6305882497
20
221.2472405238
11
77.0495500520
21
222.0501232437
0
LINE
5
23B
100
AcDbEntity
8
0
100
AcDbLine
62
7
6
CONTINUOUS
10
72.6715375933
20
214.6881933475
11
72.7702772001
21
214.8756861710
0
LINE
5
23C
100
AcDbEntity
8
0
100
AcDbLine
62
7
6
CONTINUOUS
10
74.1192734276
20
214.6494568439
11
74.2180130344
21
214.8369496674
0
LINE
5
23D
100
AcDbEntity
8
0
100
AcDbLine
62
7
6
CONTINUOUS
10
76.1986698378
20
216.9597481258
11
76.0404237403
21
216.6651093855
0
LINE
5
23E
100
AcDbEntity
8
0
100
AcDbLine
62
7
6
CONTINUOUS
10
75.9047440111
20
224.1491685159
11
76.6017927197
21
225.1614451966
0
LINE
5
23F
100
AcDbEntity
8
0
100
AcDbLine
62
7
6
CONTINUOUS
10
77.5831280403
20
224.4857025554
11
76.8860793317
21
223.4734258746
0
LINE
5
240
100
AcDbEntity
8
0
100
AcDbLine
62
7
6
CONTINUOUS
10
77.3066515278
20
223.1838219435
11
78.0037002364
21
224.1960986242
0
LINE
5
241
100
AcDbEntity
8
0
100
AcDbLine
62
7
6
CONTINUOUS
10
76.3677177949
20
200.2991245407
11
77.3123938845
21
199.0671239603
0
LINE
5
242
100
AcDbEntity
8
0
100
AcDbLine
62
7
6
CONTINUOUS
10
77.4139108209
20
199.6340556806
11
76.6660422875
21
200.6093894245
0
LINE
5
243
100
AcDbEntity
8
0
100
AcDbLine
62
7
6
CONTINUOUS
10
77.6791003530
20
201.3861842954
11
78.4269688864
21
200.4108505515
0
LINE
5
244
100
AcDbEntity
8
0
100
AcDbLine
62
7
6
CONTINUOUS
10
78.8321920369
20
200.7215684418
11
78.1236849697
21
201.6455688771
0
LINE
5
245
100
AcDbEntity
8
0
100
AcDbLine
62
7
6
CONTINUOUS
10
75.9609365231
20
204.1960731177
11
76.5353270912
21
203.1094916963
0
LINE
5
246
100
AcDbEntity
8
0
100
AcDbLine
62
7
6
CONTINUOUS
10
76.9867703877
20
203.3481344399
11
76.4426109568
21
204.3775272621
0
LINE
5
247
100
AcDbEntity
8
0
100
AcDbLine
62
7
6
CONTINUOUS
10
78.7482086134
20
203.8402532133
11
78.5668221364
21
204.1833841540
0
LINE
5
248
100
AcDbEntity
8
0
100
AcDbLine
62
7
6
CONTINUOUS
10
75.8003366953
20
210.8098738271
11
75.9301163784
21
210.5016344275
0
LINE
5
249
100
AcDbEntity
8
0
100
AcDbLine
62
7
6
CONTINUOUS
10
76.3514128187
20
210.5615237213
11
76.2125290886
21
210.9338062780
0
LINE
5
24A
100
AcDbEntity
8
0
100
AcDbLine
62
7
6
CONTINUOUS
10
72.7301922002
20
217.4596668134
11
72.8353112942
21
217.1683359441
0
LINE
5
24B
100
AcDbEntity
8
0
100
AcDbLine
62
7
6
CONTINUOUS
10
74.1579951830
20
213.9981592806
11
74.0869561067
21
214.1978002546
0
LINE
5
24C
100
AcDbEntity
8
0
100
AcDbLine
62
7
6
CONTINUOUS
10
75.7460213605
20
214.7276163009
11
75.8170604368
21
214.5279753270
0
LINE
5
24D
100
AcDbEntity
8
0
100
AcDbLine
62
7
6
CONTINUOUS
10
76.2368904136
20
214.4330821549
11
76.1750848049
21
214.7617672362
0
LINE
5
24E
100
AcDbEntity
8
0
100
AcDbLine
62
7
6
CONTINUOUS
10
74.4613659476
20
218.1085265301
11
74.5362889831
21
217.6913948794
0
LINE
5
24F
100
AcDbEntity
8
0
100
AcDbLine
62
7
6
CONTINUOUS
10
76.6154949681
20
200.8151758121
11
76.6718463066
21
201.0214152062
0
LINE
5
250
100
AcDbEntity
8
0
100
AcDbLine
62
7
6
CONTINUOUS
10
75.7847431159
20
214.0763187377
11
75.6860035091
21
213.8888259142
0
LINE
5
251
100
AcDbEntity
8
0
100
AcDbLine
62
7
6
CONTINUOUS
10
72.6281186139
20
210.7509534711
11
72.4208611919
21
210.3948026433
0
LINE
5
252
100
AcDbEntity
8
0
100
AcDbLine
62
7
6
CONTINUOUS
10
76.4542026829
20
216.5657897070
11
76.5973509311
21
216.7975287747
0
LINE
5
253
100
AcDbEntity
8
0
100
AcDbLine
62
7
6
CONTINUOUS
10
72.8512616130
20
210.3906487705
11
72.9924679422
21
210.6067346921
0
LINE
5
254
100
AcDbEntity
8
0
100
AcDbLine
62
7
6
CONTINUOUS
10
77.4149012433
20
219.6626620304
11
77.6370219389
21
219.9921243029
0
LINE
5
255
100
AcDbEntity
8
0
100
AcDbLine
62
7
6
CONTINUOUS
10
79.0551308740
20
223.4720886949
11
78.3580821654
21
222.4598120142
0
LINE
5
256
100
AcDbEntity
8
0
100
AcDbLine
62
7
6
CONTINUOUS
10
78.5585335890
20
221.8505414722
11
79.4390168754
21
223.1292077801
0
LINE
5
257
100
AcDbEntity
8
0
100
AcDbLine
62
7
6
CONTINUOUS
10
77.3205452799
20
220.1175518108
11
77.1222583338
21
219.8482265302
0
LINE
5
258
100
AcDbEntity
8
0
100
AcDbLine
62
7
6
CONTINUOUS
10
75.0635869954
20
218.4296463857
11
74.8225851196
21
218.1548715786
0
LINE
5
259
100
AcDbEntity
8
0
100
AcDbLine
62
7
6
CONTINUOUS
10
72.6281990476
20
215.2749681189
11
72.3504472827
21
214.9705793389
0
LINE
5
25A
100
AcDbEntity
8
0
100
AcDbLine
62
7
6
CONTINUOUS
10
73.1976653791
20
218.6779510810
11
72.9717617052
21
218.4660773845
0
LINE
5
25B
100
AcDbEntity
8
0
100
AcDbLine
62
7
6
CONTINUOUS
10
76.3980633839
20
225.6158932637
11
76.1445342798
21
225.3977721779
0
LINE
5
25C
100
AcDbEntity
8
0
100
AcDbLine
62
7
6
CONTINUOUS
10
78.1236849697
20
201.6455688771
11
77.8593402218
21
201.8504493986
0
LINE
5
25D
100
AcDbEntity
8
0
100
AcDbLine
62
7
6
CONTINUOUS
10
76.4426109568
20
204.3775272621
11
76.2162150675
21
204.6236958131
0
LINE
5
25E
100
AcDbEntity
8
0
100
AcDbLine
62
7
6
CONTINUOUS
10
80.4866422753
20
201.5010810579
11
80.2504732529
21
201.8090812030
0
LINE
5
25F
100
AcDbEntity
8
0
100
AcDbLine
62
7
6
CONTINUOUS
10
72.8708045568
20
213.8957035270
11
72.7148761390
21
214.1014185762
0
LINE
5
260
100
AcDbEntity
8
0
100
AcDbLine
62
7
6
CONTINUOUS
10
73.7289316849
20
213.9640068648
11
74.0407885205
21
213.5525767666
0
LINE
5
261
100
AcDbEntity
8
0
100
AcDbLine
62
7
6
CONTINUOUS
10
72.2858126409
20
214.0672661603
11
72.5173969253
21
213.7264329291
0
LINE
5
262
100
AcDbEntity
8
0
100
AcDbLine
62
7
6
CONTINUOUS
10
73.2792865902
20
217.1948184990
11
73.1590692940
21
217.4232482576
0
LINE
5
263
100
AcDbEntity
8
0
100
AcDbLine
62
7
6
CONTINUOUS
10
76.2294335256
20
217.8171846714
11
76.2819932454
21
217.6715199566
0
LINE
5
264
100
AcDbEntity
8
0
100
AcDbLine
62
7
6
CONTINUOUS
10
76.6957721879
20
217.5722002782
11
76.5906527266
21
217.8635297129
0
LINE
5
265
100
AcDbEntity
8
0
100
AcDbLine
62
7
6
CONTINUOUS
10
79.5523552413
20
223.4438635138
11
79.4888166191
21
223.8017769498
0
LINE
5
266
100
AcDbEntity
8
0
100
AcDbLine
62
7
6
CONTINUOUS
10
76.4356772842
20
201.3294153513
11
76.2836130284
21
200.9682700186
0
LINE
5
267
100
AcDbEntity
8
0
100
AcDbLine
62
7
6
CONTINUOUS
10
74.8168753819
20
203.8108054082
11
74.9068943794
21
204.0047298606
0
LINE
5
268
100
AcDbEntity
8
0
100
AcDbLine
62
7
6
CONTINUOUS
10
76.1145205375
20
209.8091346174
11
76.3217779816
21
210.1652854484
0
LINE
5
269
100
AcDbEntity
8
0
100
AcDbLine
62
7
6
CONTINUOUS
10
74.7255079024
20
204.3478608013
11
74.5152389432
21
204.0172001685
0
LINE
5
26A
100
AcDbEntity
8
0
100
AcDbLine
62
7
6
CONTINUOUS
10
75.8913775089
20
210.1694393138
11
75.7501711797
21
209.9533533923
0
LINE
5
26B
100
AcDbEntity
8
0
100
AcDbLine
62
7
6
CONTINUOUS
10
74.0759348819
20
215.2362316152
11
73.7981830114
21
214.9318413584
0
LINE
5
26C
100
AcDbEntity
8
0
100
AcDbLine
62
7
6
CONTINUOUS
10
75.8280816913
20
213.4895439642
11
76.1058334785
21
213.7939327426
0
LINE
5
26D
100
AcDbEntity
8
0
100
AcDbLine
62
7
6
CONTINUOUS
10
77.2642813131
20
219.5136093325
11
77.4149012433
21
219.6626620304
0
LINE
5
26E
100
AcDbEntity
8
0
100
AcDbLine
62
7
6
CONTINUOUS
10
72.7702772001
20
214.8756861710
11
72.9539061485
21
215.0571049194
0
LINE
5
26F
100
AcDbEntity
8
0
100
AcDbLine
62
7
6
CONTINUOUS
10
74.2180130344
20
214.8369496674
11
74.4016419828
21
215.0183684157
0
LINE
5
270
100
AcDbEntity
8
0
100
AcDbLine
62
7
6
CONTINUOUS
10
76.0404237403
20
216.6651093855
11
75.9274719034
21
216.5591725372
0
LINE
5
271
100
AcDbEntity
8
0
100
AcDbLine
62
7
6
CONTINUOUS
10
76.2282986417
20
216.3539145760
11
76.4542026829
21
216.5657897070
0
LINE
5
272
100
AcDbEntity
8
0
100
AcDbLine
62
7
6
CONTINUOUS
10
73.3704423950
20
218.3038566076
11
73.5812482123
21
218.4528306332
0
LINE
5
273
100
AcDbEntity
8
0
100
AcDbLine
62
7
6
CONTINUOUS
10
76.6017927197
20
225.1614451966
11
76.7819484965
21
225.2730111632
0
LINE
5
274
100
AcDbEntity
8
0
100
AcDbLine
62
7
6
CONTINUOUS
10
78.0037002364
20
224.1960986242
11
78.1838560132
21
224.3076645908
0
LINE
5
275
100
AcDbEntity
8
0
100
AcDbLine
62
9
6
CONTINUOUS
10
121.8997546080
20
188.8300485132
11
122.1413148271
21
188.8843690674
0
LINE
5
276
100
AcDbEntity
8
0
100
AcDbLine
62
9
6
CONTINUOUS
10
100.1378890246
20
188.8300485050
11
99.8963352627
21
188.8843676286
0
LINE
5
277
100
AcDbEntity
8
0
100
AcDbLine
62
7
6
CONTINUOUS
10
77.4934786501
20
201.4883980529
11
77.6791003530
21
201.3861842954
0
LINE
5
278
100
AcDbEntity
8
0
100
AcDbLine
62
7
6
CONTINUOUS
10
75.7950027352
20
204.3278647975
11
75.9609365231
21
204.1960731177
0
LINE
5
279
100
AcDbEntity
8
0
100
AcDbLine
62
7
6
CONTINUOUS
10
73.1381332024
20
209.5820397641
11
72.9423024266
21
209.7502142573
0
LINE
5
27A
100
AcDbEntity
8
0
100
AcDbLine
62
7
6
CONTINUOUS
10
72.5301100850
20
209.6262818137
11
72.8284083206
21
209.3419981284
0
LINE
5
27B
100
AcDbEntity
8
0
100
AcDbLine
62
7
6
CONTINUOUS
10
72.8353112942
20
217.1683359441
11
73.1059422906
21
216.8372786480
0
LINE
5
27C
100
AcDbEntity
8
0
100
AcDbLine
62
7
6
CONTINUOUS
10
74.3139236008
20
213.7924442315
11
74.1579951830
21
213.9981592806
0
LINE
5
27D
100
AcDbEntity
8
0
100
AcDbLine
62
7
6
CONTINUOUS
10
75.5900929427
20
214.9333313501
11
75.7460213605
21
214.7276163009
0
LINE
5
27E
100
AcDbEntity
8
0
100
AcDbLine
62
7
6
CONTINUOUS
10
76.1750848049
20
214.7617672362
11
75.9435006039
21
215.1026019458
0
LINE
5
27F
100
AcDbEntity
8
0
100
AcDbLine
62
7
6
CONTINUOUS
10
74.8225851196
20
218.1548715786
11
74.6347102471
21
218.4660663811
0
LINE
5
280
100
AcDbEntity
8
0
100
AcDbLine
62
7
6
CONTINUOUS
10
76.5906527266
20
217.8635297129
11
76.4704354015
21
218.0919594785
0
LINE
5
281
100
AcDbEntity
8
0
100
AcDbLine
62
7
6
CONTINUOUS
10
77.5562765200
20
224.8968941480
11
77.6230930851
21
224.6938031657
0
LINE
5
282
100
AcDbEntity
8
0
100
AcDbLine
62
7
6
CONTINUOUS
10
79.0282793046
20
223.8832803214
11
79.0950959187
21
223.6801893052
0
LINE
5
283
100
AcDbEntity
8
0
100
AcDbLine
62
7
6
CONTINUOUS
10
72.8535842194
20
210.9790172498
11
72.6281186139
21
210.7509534711
0
LINE
5
284
100
AcDbEntity
8
0
100
AcDbLine
62
7
6
CONTINUOUS
10
75.8890549024
20
209.5810708346
11
76.1145205375
21
209.8091346174
0
LINE
5
285
100
AcDbEntity
8
0
100
AcDbLine
62
7
6
CONTINUOUS
10
75.6860035091
20
213.8888259142
11
75.5023745607
21
213.7074071659
0
LINE
5
286
100
AcDbEntity
8
0
100
AcDbLine
62
7
6
CONTINUOUS
10
75.0406563961
20
217.9694789973
11
75.2514622134
21
218.1184530229
0
LINE
5
287
100
AcDbEntity
8
0
100
AcDbLine
62
7
6
CONTINUOUS
10
76.0174927954
20
216.2049405574
11
76.2282986417
21
216.3539145760
0
LINE
5
288
100
AcDbEntity
8
0
100
AcDbLine
62
7
6
CONTINUOUS
10
78.1570044930
20
224.7188561835
11
78.0135349599
21
224.6605671667
0
LINE
5
289
100
AcDbEntity
8
0
100
AcDbLine
62
7
6
CONTINUOUS
10
112.8698856540
20
190.1582025822
11
112.4869069763
21
190.0644526045
0
LINE
5
28A
100
AcDbEntity
8
0
100
AcDbLine
62
7
6
CONTINUOUS
10
112.4869069763
20
189.5019526045
11
112.9656303235
21
189.5957026073
0
LINE
5
28B
100
AcDbEntity
8
0
100
AcDbLine
62
9
6
CONTINUOUS
10
100.1504743190
20
188.9459935442
11
99.8916552739
21
188.9459935442
0
LINE
5
28C
100
AcDbEntity
8
0
100
AcDbLine
62
9
6
CONTINUOUS
10
121.8871693238
20
188.9459935108
11
122.1459883689
21
188.9459935108
0
LINE
5
28D
100
AcDbEntity
8
0
100
AcDbLine
62
7
6
CONTINUOUS
10
103.5188218214
20
189.5019526045
11
108.0188218214
21
189.5019526045
0
LINE
5
28E
100
AcDbEntity
8
0
100
AcDbLine
62
7
6
CONTINUOUS
10
109.5188218214
20
189.5019526045
11
112.4869069763
21
189.5019526045
0
LINE
5
28F
100
AcDbEntity
8
0
100
AcDbLine
62
7
6
CONTINUOUS
10
115.5188218214
20
189.5019526045
11
120.0188218214
21
189.5019526045
0
LINE
5
290
100
AcDbEntity
8
0
100
AcDbLine
62
7
6
CONTINUOUS
10
119.4443537377
20
190.0644526045
11
116.0932898380
21
190.0644526045
0
LINE
5
291
100
AcDbEntity
8
0
100
AcDbLine
62
7
6
CONTINUOUS
10
112.4869069763
20
190.0644526045
11
109.5188218214
21
190.0644526045
0
LINE
5
292
100
AcDbEntity
8
0
100
AcDbLine
62
7
6
CONTINUOUS
10
108.0188218214
20
190.0644526045
11
106.0081834950
21
190.0644526045
0
LINE
5
293
100
AcDbEntity
8
0
100
AcDbLine
62
7
6
CONTINUOUS
10
105.4337154784
20
190.0644526045
11
103.9975451686
21
190.0644526045
0
LINE
5
294
100
AcDbEntity
8
0
100
AcDbLine
62
7
6
CONTINUOUS
10
75.6045059195
20
210.9780483203
11
75.8003366953
21
210.8098738271
0
LINE
5
295
100
AcDbEntity
8
0
100
AcDbLine
62
7
6
CONTINUOUS
10
74.4744688089
20
213.6512519742
11
74.3139236008
21
213.7924442315
0
LINE
5
296
100
AcDbEntity
8
0
100
AcDbLine
62
7
6
CONTINUOUS
10
76.2125290886
20
210.9338062780
11
75.9142308308
21
211.2180899602
0
LINE
5
297
100
AcDbEntity
8
0
100
AcDbLine
62
7
6
CONTINUOUS
10
74.3260504494
20
218.2740551782
11
74.4613659476
21
218.1085265301
0
LINE
5
298
100
AcDbEntity
8
0
100
AcDbLine
62
7
6
CONTINUOUS
10
76.0941179694
20
217.9827133334
11
76.2294335256
21
217.8171846714
0
LINE
5
299
100
AcDbEntity
8
0
100
AcDbLine
62
7
6
CONTINUOUS
10
78.0168137609
20
224.8153908272
11
77.8464927076
21
225.1682934031
0
LINE
5
29A
100
AcDbEntity
8
0
100
AcDbLine
62
7
6
CONTINUOUS
10
79.4888166191
20
223.8017769498
11
79.3184955413
21
224.1546795426
0
LINE
5
29B
100
AcDbEntity
8
0
100
AcDbLine
62
7
6
CONTINUOUS
10
76.5989273933
20
201.5361076050
11
76.4356772842
21
201.3294153513
0
LINE
5
29C
100
AcDbEntity
8
0
100
AcDbLine
62
7
6
CONTINUOUS
10
76.6718463066
20
201.0214152062
11
76.8350964157
21
201.2281074599
0
LINE
5
29D
100
AcDbEntity
8
0
100
AcDbLine
62
7
6
CONTINUOUS
10
72.9924679422
20
210.6067346921
11
73.4616075729
21
210.9347752337
0
LINE
5
29E
100
AcDbEntity
8
0
100
AcDbLine
62
7
6
CONTINUOUS
10
74.3444531718
20
215.4115762883
11
74.0759348819
21
215.2362316152
0
LINE
5
29F
100
AcDbEntity
8
0
100
AcDbLine
62
7
6
CONTINUOUS
10
74.4016419828
20
215.0183684157
11
74.5806541408
21
215.1352643722
0
LINE
5
2A0
100
AcDbEntity
8
0
100
AcDbLine
62
7
6
CONTINUOUS
10
77.1222583338
20
219.8482265302
11
76.8925192527
21
219.7305307039
0
LINE
5
2A1
100
AcDbEntity
8
0
100
AcDbLine
62
7
6
CONTINUOUS
10
77.0345422182
20
219.3959135117
11
77.2642813131
21
219.5136093325
0
LINE
5
2A2
100
AcDbEntity
8
0
100
AcDbLine
62
7
6
CONTINUOUS
10
73.5890809552
20
218.8500983507
11
73.1976653791
21
218.6779510810
0
LINE
5
2A3
100
AcDbEntity
8
0
100
AcDbLine
62
7
6
CONTINUOUS
10
116.6677581229
20
192.5957026045
11
117.0507368006
21
192.6894525151
0
LINE
5
2A4
100
AcDbEntity
8
0
100
AcDbLine
62
7
6
CONTINUOUS
10
117.0507368006
20
193.2519525151
11
116.5720131852
21
193.1582026045
0
LINE
5
2A5
100
AcDbEntity
8
0
100
AcDbLine
62
7
6
CONTINUOUS
10
109.5188218214
20
192.3144526045
11
112.4869069763
21
192.3144526045
0
LINE
5
2A6
100
AcDbEntity
8
0
100
AcDbLine
62
7
6
CONTINUOUS
10
104.5720131852
20
192.4082025151
11
104.8592474618
21
192.4082025151
0
LINE
5
2A7
100
AcDbEntity
8
0
100
AcDbLine
62
7
6
CONTINUOUS
10
117.0507368006
20
192.6894525151
11
118.4869069763
21
192.6894525151
0
LINE
5
2A8
100
AcDbEntity
8
0
100
AcDbLine
62
7
6
CONTINUOUS
10
112.4869069763
20
192.8769526045
11
109.5188218214
21
192.8769526045
0
LINE
5
2A9
100
AcDbEntity
8
0
100
AcDbLine
62
7
6
CONTINUOUS
10
104.9549921312
20
192.9707025151
11
104.5720131852
21
192.9707025151
0
LINE
5
2AA
100
AcDbEntity
8
0
100
AcDbLine
62
7
6
CONTINUOUS
10
118.4869069763
20
193.2519525151
11
117.0507368006
21
193.2519525151
0
LINE
5
2AB
100
AcDbEntity
8
0
100
AcDbLine
62
7
6
CONTINUOUS
10
112.9656303235
20
192.7832026939
11
112.4869069763
21
192.8769526045
0
LINE
5
2AC
100
AcDbEntity
8
0
100
AcDbLine
62
7
6
CONTINUOUS
10
112.4869069763
20
192.3144526045
11
112.8698856540
21
192.2207026939
0
LINE
5
2AD
100
AcDbEntity
8
0
100
AcDbLine
62
7
6
CONTINUOUS
10
104.8592474618
20
192.4082025151
11
105.1464814701
21
192.3144526045
0
LINE
5
2AE
100
AcDbEntity
8
0
100
AcDbLine
62
7
6
CONTINUOUS
10
105.2422261395
20
192.8769526045
11
104.9549921312
21
192.9707025151
0
LINE
5
2AF
100
AcDbEntity
8
0
100
AcDbLine
62
7
6
CONTINUOUS
10
72.8284083206
20
209.3419981284
11
73.1084983726
21
209.1858014922
0
LINE
5
2B0
100
AcDbEntity
8
0
100
AcDbLine
62
7
6
CONTINUOUS
10
72.5173969253
20
213.7264329291
11
72.8431040262
21
213.5085697296
0
LINE
5
2B1
100
AcDbEntity
8
0
100
AcDbLine
62
7
6
CONTINUOUS
10
105.6252048173
20
192.5957026045
11
105.2422261395
21
192.8769526045
0
LINE
5
2B2
100
AcDbEntity
8
0
100
AcDbLine
62
7
6
CONTINUOUS
10
73.4973575211
20
217.0094244780
11
73.2792865902
21
217.1948184990
0
LINE
5
2B3
100
AcDbEntity
8
0
100
AcDbLine
62
7
6
CONTINUOUS
10
74.6347102471
20
218.4660663811
11
74.4166389706
21
218.6514589624
0
LINE
5
2B4
100
AcDbEntity
8
0
100
AcDbLine
62
9
6
CONTINUOUS
10
89.3188218214
20
198.6019526045
11
86.7988218214
21
189.9619526045
0
LINE
5
2B5
100
AcDbEntity
8
0
100
AcDbLine
62
7
6
CONTINUOUS
10
74.9209984135
20
204.5243707723
11
74.7255079024
21
204.3478608013
0
LINE
5
2B6
100
AcDbEntity
8
0
100
AcDbLine
62
7
6
CONTINUOUS
10
74.9068943794
20
204.0047298606
11
75.1023848905
21
204.1812398316
0
LINE
5
2B7
100
AcDbEntity
8
0
100
AcDbLine
62
7
6
CONTINUOUS
10
75.7501711797
20
209.9533533923
11
75.2810317260
21
209.6253128759
0
LINE
5
2B8
100
AcDbEntity
8
0
100
AcDbLine
62
7
6
CONTINUOUS
10
73.1724132451
20
211.1550149944
11
72.8535842194
21
210.9790172498
0
LINE
5
2B9
100
AcDbEntity
8
0
100
AcDbLine
62
7
6
CONTINUOUS
10
72.9816066790
20
215.4442387168
11
72.6281990476
21
215.2749681189
0
LINE
5
2BA
100
AcDbEntity
8
0
100
AcDbLine
62
7
6
CONTINUOUS
10
75.9274719034
20
216.5591725372
11
75.7317638846
21
216.4730981965
0
LINE
5
2BB
100
AcDbEntity
8
0
100
AcDbLine
62
7
6
CONTINUOUS
10
72.9539061485
20
215.0571049194
11
73.2178076480
21
215.1679268006
0
LINE
5
2BC
100
AcDbEntity
8
0
100
AcDbLine
62
9
6
CONTINUOUS
10
100.1504743190
20
194.6241822513
11
99.8916552739
21
194.6241822513
0
LINE
5
2BD
100
AcDbEntity
8
0
100
AcDbLine
62
9
6
CONTINUOUS
10
121.8871693238
20
194.6241822513
11
122.1459883689
21
194.6241822513
0
LINE
5
2BE
100
AcDbEntity
8
0
100
AcDbLine
62
7
6
CONTINUOUS
10
118.9656303235
20
193.1582026045
11
118.4869069763
21
193.2519525151
0
LINE
5
2BF
100
AcDbEntity
8
0
100
AcDbLine
62
7
6
CONTINUOUS
10
118.4869069763
20
192.6894525151
11
118.8698856540
21
192.5957026045
0
LINE
5
2C0
100
AcDbEntity
8
0
100
AcDbLine
62
7
6
CONTINUOUS
10
76.2162150675
20
204.6236958131
11
75.8695690436
21
204.7331285108
0
LINE
5
2C1
100
AcDbEntity
8
0
100
AcDbLine
62
7
6
CONTINUOUS
10
113.3486090683
20
192.5957026045
11
112.9656303235
21
192.7832026939
0
LINE
5
2C2
100
AcDbEntity
8
0
100
AcDbLine
62
7
6
CONTINUOUS
10
75.9142308308
20
211.2180899602
11
75.6341407492
21
211.3742865921
0
LINE
5
2C3
100
AcDbEntity
8
0
100
AcDbLine
62
7
6
CONTINUOUS
10
73.1162391064
20
213.7484371945
11
72.8708045568
21
213.8957035270
0
LINE
5
2C4
100
AcDbEntity
8
0
100
AcDbLine
62
7
6
CONTINUOUS
10
75.3446583336
20
215.0805976868
11
75.5900929427
21
214.9333313501
0
LINE
5
2C5
100
AcDbEntity
8
0
100
AcDbLine
62
7
6
CONTINUOUS
10
112.8698856540
20
192.2207026939
11
113.1571196624
21
192.0332026045
0
LINE
5
2C6
100
AcDbEntity
8
0
100
AcDbLine
62
7
6
CONTINUOUS
10
75.9435006039
20
215.1026019458
11
75.6177934733
21
215.3204651475
0
LINE
5
2C7
100
AcDbEntity
8
0
100
AcDbLine
62
7
6
CONTINUOUS
10
74.0252233945
20
218.4793116927
11
74.3260504494
21
218.2740551782
0
LINE
5
2C8
100
AcDbEntity
8
0
100
AcDbLine
62
7
6
CONTINUOUS
10
76.4704354015
20
218.0919594785
11
76.2523644705
21
218.2773534995
0
LINE
5
2C9
100
AcDbEntity
8
0
100
AcDbLine
62
7
6
CONTINUOUS
10
105.1464814701
20
192.3144526045
11
105.3379708089
21
192.1269525151
0
LINE
5
2CA
100
AcDbEntity
8
0
100
AcDbLine
62
7
6
CONTINUOUS
10
77.3826766658
20
225.0949730635
11
77.5562765200
21
224.8968941480
0
LINE
5
2CB
100
AcDbEntity
8
0
100
AcDbLine
62
7
6
CONTINUOUS
10
77.8464927076
20
225.1682934031
11
77.6728928534
21
225.3663723186
0
LINE
5
2CC
100
AcDbEntity
8
0
100
AcDbLine
62
7
6
CONTINUOUS
10
78.8546794504
20
224.0813592368
11
79.0282793046
21
223.8832803214
0
LINE
5
2CD
100
AcDbEntity
8
0
100
AcDbLine
62
7
6
CONTINUOUS
10
79.3184955413
20
224.1546795426
11
79.1448956380
21
224.3527584919
0
LINE
5
2CE
100
AcDbEntity
8
0
100
AcDbLine
62
9
6
CONTINUOUS
10
89.3188218214
20
227.4019526045
11
86.7988218214
21
236.0419526045
0
LINE
5
2CF
100
AcDbEntity
8
0
100
AcDbLine
62
7
6
CONTINUOUS
10
75.5702258178
20
209.4050730816
11
75.8890549024
21
209.5810708346
0
LINE
5
2D0
100
AcDbEntity
8
0
100
AcDbLine
62
7
6
CONTINUOUS
10
75.4746740301
20
213.3202733684
11
75.8280816913
21
213.4895439642
0
LINE
5
2D1
100
AcDbEntity
8
0
100
AcDbLine
62
7
6
CONTINUOUS
10
75.5023745607
20
213.7074071659
11
75.2384730016
21
213.5965852889
0
LINE
5
2D2
100
AcDbEntity
8
0
100
AcDbLine
62
7
6
CONTINUOUS
10
77.8593402218
20
201.8504493986
11
77.4992826692
21
201.9004238346
0
LINE
5
2D3
100
AcDbEntity
8
0
100
AcDbLine
62
7
6
CONTINUOUS
10
75.5840595350
20
204.3626940874
11
75.7950027352
21
204.3278647975
0
LINE
5
2D4
100
AcDbEntity
8
0
100
AcDbLine
62
7
6
CONTINUOUS
10
73.6801053590
20
209.3977335746
11
73.1381332024
21
209.5820397641
0
LINE
5
2D5
100
AcDbEntity
8
0
100
AcDbLine
62
7
6
CONTINUOUS
10
75.0625339400
20
211.1623545350
11
75.6045059195
21
210.9780483203
0
LINE
5
2D6
100
AcDbEntity
8
0
100
AcDbLine
62
7
6
CONTINUOUS
10
72.8431040262
20
213.5085697296
11
73.2583174967
21
213.3491552296
0
LINE
5
2D7
100
AcDbEntity
8
0
100
AcDbLine
62
7
6
CONTINUOUS
10
119.3486090683
20
192.9707025151
11
118.9656303235
21
193.1582026045
0
LINE
5
2D8
100
AcDbEntity
8
0
100
AcDbLine
62
7
6
CONTINUOUS
10
118.8698856540
20
192.5957026045
11
119.1571196624
21
192.4082025151
0
LINE
5
2D9
100
AcDbEntity
8
0
100
AcDbLine
62
7
6
CONTINUOUS
10
75.9437046148
20
218.0853423105
11
76.0941179694
21
217.9827133334
0
LINE
5
2DA
100
AcDbEntity
8
0
100
AcDbLine
62
7
6
CONTINUOUS
10
113.7315877796
20
192.2207026939
11
113.3486090683
21
192.5957026045
0
LINE
5
2DB
100
AcDbEntity
8
0
100
AcDbLine
62
7
6
CONTINUOUS
10
105.8166941561
20
192.2207026939
11
105.6252048173
21
192.5957026045
0
LINE
5
2DC
100
AcDbEntity
8
0
100
AcDbLine
62
9
6
CONTINUOUS
10
99.8916552739
20
188.9459934602
11
99.8916552739
21
194.6241822513
0
LINE
5
2DD
100
AcDbEntity
8
0
100
AcDbLine
62
9
6
CONTINUOUS
10
99.8916552739
20
231.3797229578
11
99.8916552739
21
237.0579116173
0
LINE
5
2DE
100
AcDbEntity
8
0
100
AcDbLine
62
9
6
CONTINUOUS
10
100.1504743190
20
188.9459935442
11
100.1504743190
21
194.6241819560
0
LINE
5
2DF
100
AcDbEntity
8
0
100
AcDbLine
62
9
6
CONTINUOUS
10
100.1504743190
20
231.3797229772
11
100.1504743190
21
237.0579116983
0
LINE
5
2E0
100
AcDbEntity
8
0
100
AcDbLine
62
7
6
CONTINUOUS
10
76.8690763495
20
201.7432530103
11
76.5989273933
21
201.5361076050
0
LINE
5
2E1
100
AcDbEntity
8
0
100
AcDbLine
62
7
6
CONTINUOUS
10
76.8350964157
20
201.2281074599
11
77.0377081801
21
201.3834665502
0
LINE
5
2E2
100
AcDbEntity
8
0
100
AcDbLine
62
7
6
CONTINUOUS
10
80.2504732529
20
201.8090812030
11
78.8321920369
21
200.7215684418
0
LINE
5
2E3
100
AcDbEntity
8
0
100
AcDbLine
62
7
6
CONTINUOUS
10
78.4269688864
20
200.4108505515
11
77.4139108209
21
199.6340556806
0
LINE
5
2E4
100
AcDbEntity
8
0
100
AcDbLine
62
7
6
CONTINUOUS
10
77.3123938845
20
199.0671239603
11
80.4866422753
21
201.5010810579
0
LINE
5
2E5
100
AcDbEntity
8
0
100
AcDbLine
62
7
6
CONTINUOUS
10
73.4160871661
20
211.2549924903
11
73.1724132451
21
211.1550149944
0
LINE
5
2E6
100
AcDbEntity
8
0
100
AcDbLine
62
7
6
CONTINUOUS
10
75.3265521328
20
209.3050956193
11
75.5702258178
21
209.4050730816
0
LINE
5
2E7
100
AcDbEntity
8
0
100
AcDbLine
62
7
6
CONTINUOUS
10
77.2796812216
20
201.4874921868
11
77.4934786501
21
201.4883980529
0
LINE
5
2E8
100
AcDbEntity
8
0
100
AcDbLine
62
7
6
CONTINUOUS
10
73.1084983726
20
209.1858014922
11
73.4637435571
21
209.1056266042
0
LINE
5
2E9
100
AcDbEntity
8
0
100
AcDbLine
62
7
6
CONTINUOUS
10
73.3662905785
20
213.6656921600
11
73.1162391064
21
213.7484371945
0
LINE
5
2EA
100
AcDbEntity
8
0
100
AcDbLine
62
7
6
CONTINUOUS
10
74.7245201621
20
213.5685069483
11
74.4744688089
21
213.6512519742
0
LINE
5
2EB
100
AcDbEntity
8
0
100
AcDbLine
62
7
6
CONTINUOUS
10
75.6177934733
20
215.3204651475
11
75.2025801811
21
215.4798796347
0
LINE
5
2EC
100
AcDbEntity
8
0
100
AcDbLine
62
7
6
CONTINUOUS
10
73.1059422906
20
216.8372786480
11
73.4218672020
21
216.6949218044
0
LINE
5
2ED
100
AcDbEntity
8
0
100
AcDbLine
62
7
6
CONTINUOUS
10
74.4166389706
20
218.6514589624
11
74.1007140592
21
218.7938158060
0
LINE
5
2EE
100
AcDbEntity
8
0
100
AcDbLine
62
7
6
CONTINUOUS
10
76.2523644705
20
218.2773534995
11
76.0191949339
21
218.3998449841
0
LINE
5
2EF
100
AcDbEntity
8
0
100
AcDbLine
62
7
6
CONTINUOUS
10
75.2640509934
20
224.1191058701
11
78.5585335890
21
221.8505414722
0
LINE
5
2F0
100
AcDbEntity
8
0
100
AcDbLine
62
7
6
CONTINUOUS
10
78.3580821654
20
222.4598120142
11
77.3066515278
21
223.1838219435
0
LINE
5
2F1
100
AcDbEntity
8
0
100
AcDbLine
62
7
6
CONTINUOUS
10
76.8860793317
20
223.4734258746
11
75.9047440111
21
224.1491685159
0
LINE
5
2F2
100
AcDbEntity
8
0
100
AcDbLine
62
7
6
CONTINUOUS
10
113.1571196624
20
192.0332026045
11
113.3486090683
21
191.7519526045
0
LINE
5
2F3
100
AcDbEntity
8
0
100
AcDbLine
62
7
6
CONTINUOUS
10
105.3379708089
20
192.1269525151
11
105.4337154784
21
191.8457025151
0
LINE
5
2F4
100
AcDbEntity
8
0
100
AcDbLine
62
7
6
CONTINUOUS
10
103.5188218214
20
191.7519526045
11
103.5188218214
21
189.5019526045
0
LINE
5
2F5
100
AcDbEntity
8
0
100
AcDbLine
62
7
6
CONTINUOUS
10
103.9975451686
20
190.0644526045
11
103.9975451686
21
191.8457025151
0
LINE
5
2F6
100
AcDbEntity
8
0
100
AcDbLine
62
7
6
CONTINUOUS
10
75.2219608220
20
204.6834660462
11
74.9209984135
21
204.5243707723
0
LINE
5
2F7
100
AcDbEntity
8
0
100
AcDbLine
62
7
6
CONTINUOUS
10
75.1023848905
20
204.1812398316
11
75.3281067496
21
204.3005613148
0
LINE
5
2F8
100
AcDbEntity
8
0
100
AcDbLine
62
7
6
CONTINUOUS
10
78.5668221364
20
204.1833841540
11
76.9867703877
21
203.3481344399
0
LINE
5
2F9
100
AcDbEntity
8
0
100
AcDbLine
62
7
6
CONTINUOUS
10
76.5353270912
20
203.1094916963
11
75.4067186390
21
202.5128847258
0
LINE
5
2FA
100
AcDbEntity
8
0
100
AcDbLine
62
7
6
CONTINUOUS
10
75.2119023689
20
201.9708848321
11
78.7482086134
21
203.8402532133
0
LINE
5
2FB
100
AcDbEntity
8
0
100
AcDbLine
62
7
6
CONTINUOUS
10
73.8282795077
20
211.3789249338
11
73.4160871661
21
211.2549924903
0
LINE
5
2FC
100
AcDbEntity
8
0
100
AcDbLine
62
7
6
CONTINUOUS
10
74.9143596732
20
209.1811631589
11
75.3265521328
21
209.3050956193
0
LINE
5
2FD
100
AcDbEntity
8
0
100
AcDbLine
62
7
6
CONTINUOUS
10
77.4992826692
20
201.9004238346
11
77.1110493909
21
201.8472786469
0
LINE
5
2FE
100
AcDbEntity
8
0
100
AcDbLine
62
7
6
CONTINUOUS
10
75.8695690436
20
204.7331285108
11
75.4779136074
21
204.7455988188
0
LINE
5
2FF
100
AcDbEntity
8
0
100
AcDbLine
62
7
6
CONTINUOUS
10
73.4637435571
20
209.1056266042
11
73.7256257658
21
209.0775163180
0
LINE
5
300
100
AcDbEntity
8
0
100
AcDbLine
62
7
6
CONTINUOUS
10
73.2583174967
20
213.3491552296
11
73.8479260972
21
213.2421139114
0
LINE
5
301
100
AcDbEntity
8
0
100
AcDbLine
62
7
6
CONTINUOUS
10
73.8710098375
20
213.5647249170
11
73.3662905785
21
213.6656921600
0
LINE
5
302
100
AcDbEntity
8
0
100
AcDbLine
62
7
6
CONTINUOUS
10
75.6341407492
20
211.3742865921
11
75.2788955058
21
211.4544614717
0
LINE
5
303
100
AcDbEntity
8
0
100
AcDbLine
62
7
6
CONTINUOUS
10
75.0946070993
20
215.1633427043
11
75.3446583336
21
215.0805976868
0
LINE
5
304
100
AcDbEntity
8
0
100
AcDbLine
62
7
6
CONTINUOUS
10
74.5808700839
20
219.6725417353
11
74.8973467152
21
219.5471142384
0
LINE
5
305
100
AcDbEntity
8
0
100
AcDbLine
62
7
6
CONTINUOUS
10
74.1385851256
20
220.4044885576
11
74.7715386099
21
220.1536334759
0
LINE
5
306
100
AcDbEntity
8
0
100
AcDbLine
62
7
6
CONTINUOUS
10
75.0880152412
20
220.0282059790
11
76.6703985640
21
219.4010684286
0
LINE
5
307
100
AcDbEntity
8
0
100
AcDbLine
62
7
6
CONTINUOUS
10
76.6313279535
20
219.7644643648
11
75.2071830018
21
220.3288881448
0
LINE
5
308
100
AcDbEntity
8
0
100
AcDbLine
62
7
6
CONTINUOUS
10
74.8907063705
20
220.4543156417
11
74.2577528862
21
220.7051707234
0
LINE
5
309
100
AcDbEntity
8
0
100
AcDbLine
62
7
6
CONTINUOUS
10
76.2533308512
20
221.4441017037
11
76.6305882497
21
221.2472405238
0
LINE
5
30A
100
AcDbEntity
8
0
100
AcDbLine
62
7
6
CONTINUOUS
10
77.0495500520
20
222.0501232437
11
76.6722926535
21
222.2469844237
0
LINE
5
30B
100
AcDbEntity
8
0
100
AcDbLine
62
7
6
CONTINUOUS
10
77.2424859337
20
225.1915077072
11
77.3826766658
21
225.0949730635
0
LINE
5
30C
100
AcDbEntity
8
0
100
AcDbLine
62
7
6
CONTINUOUS
10
78.6443933523
20
224.2261612024
11
78.8546794504
21
224.0813592368
0
LINE
5
30D
100
AcDbEntity
8
0
100
AcDbLine
62
7
6
CONTINUOUS
10
79.1448956380
20
224.3527584919
11
78.7944188079
21
224.5940951012
0
LINE
5
30E
100
AcDbEntity
8
0
100
AcDbLine
62
7
6
CONTINUOUS
10
77.6728928534
20
225.3663723186
11
77.3925111929
21
225.5594417412
0
LINE
5
30F
100
AcDbEntity
8
0
100
AcDbLine
62
7
6
CONTINUOUS
10
119.7315877796
20
192.5957026045
11
119.3486090683
21
192.9707025151
0
LINE
5
310
100
AcDbEntity
8
0
100
AcDbLine
62
7
6
CONTINUOUS
10
113.9230771436
20
191.8457025151
11
113.7315877796
21
192.2207026939
0
LINE
5
311
100
AcDbEntity
8
0
100
AcDbLine
62
7
6
CONTINUOUS
10
105.4337154784
20
191.8457025151
11
105.4337154784
21
190.0644526045
0
LINE
5
312
100
AcDbEntity
8
0
100
AcDbLine
62
7
6
CONTINUOUS
10
106.0081834950
20
190.0644526045
11
106.0081834950
21
191.6582025598
0
LINE
5
313
100
AcDbEntity
8
0
100
AcDbLine
62
7
6
CONTINUOUS
10
108.0188218214
20
189.5019526045
11
108.0188218214
21
190.0644526045
0
LINE
5
314
100
AcDbEntity
8
0
100
AcDbLine
62
7
6
CONTINUOUS
10
108.0188218214
20
192.4082025151
11
108.0188218214
21
193.0644526939
0
LINE
5
315
100
AcDbEntity
8
0
100
AcDbLine
62
7
6
CONTINUOUS
10
103.6145664908
20
192.2207026939
11
103.5188218214
21
191.7519526045
0
LINE
5
316
100
AcDbEntity
8
0
100
AcDbLine
62
7
6
CONTINUOUS
10
77.1110493909
20
201.8472786469
11
76.8690763495
21
201.7432530103
0
LINE
5
317
100
AcDbEntity
8
0
100
AcDbLine
62
7
6
CONTINUOUS
10
74.1947650562
20
209.4055575589
11
73.6801053590
21
209.3977335746
0
LINE
5
318
100
AcDbEntity
8
0
100
AcDbLine
62
7
6
CONTINUOUS
10
73.7256257658
20
209.0775163180
11
74.1560261868
21
209.0733624452
0
LINE
5
319
100
AcDbEntity
8
0
100
AcDbLine
62
7
6
CONTINUOUS
10
75.2788955058
20
211.4544614717
11
75.0170135331
21
211.4825717916
0
LINE
5
31A
100
AcDbEntity
8
0
100
AcDbLine
62
7
6
CONTINUOUS
10
74.4758965204
20
217.4397918767
11
74.8069196339
21
217.3603361436
0
LINE
5
31B
100
AcDbEntity
8
0
100
AcDbLine
62
7
6
CONTINUOUS
10
73.8597116059
20
218.5190396149
11
74.0252233945
21
218.4793116927
0
LINE
5
31C
100
AcDbEntity
8
0
100
AcDbLine
62
7
6
CONTINUOUS
10
75.6126815013
20
218.1647980435
11
75.9437046148
21
218.0853423105
0
LINE
5
31D
100
AcDbEntity
8
0
100
AcDbLine
62
7
6
CONTINUOUS
10
74.1007140592
20
218.7938158060
11
73.9352022707
21
218.8335437282
0
LINE
5
31E
100
AcDbEntity
8
0
100
AcDbLine
62
7
6
CONTINUOUS
10
76.0191949339
20
218.3998449841
11
75.6881718205
21
218.4793007172
0
LINE
5
31F
100
AcDbEntity
8
0
100
AcDbLine
62
7
6
CONTINUOUS
10
77.6370219389
20
219.9921243029
11
77.3205452799
21
220.1175518108
0
LINE
5
320
100
AcDbEntity
8
0
100
AcDbLine
62
7
6
CONTINUOUS
10
75.4693528387
20
220.9903908366
11
75.1528762074
21
221.1158183335
0
LINE
5
321
100
AcDbEntity
8
0
100
AcDbLine
62
7
6
CONTINUOUS
10
119.1571196624
20
192.4082025151
11
119.3486090683
21
192.1269525151
0
LINE
5
322
100
AcDbEntity
8
0
100
AcDbLine
62
7
6
CONTINUOUS
10
113.3486090683
20
191.7519526045
11
113.4443537377
21
191.3769525598
0
LINE
5
323
100
AcDbEntity
8
0
100
AcDbLine
62
7
6
CONTINUOUS
10
109.5188218214
20
192.8769526045
11
109.5188218214
21
192.3144526045
0
LINE
5
324
100
AcDbEntity
8
0
100
AcDbLine
62
7
6
CONTINUOUS
10
109.5188218214
20
190.0644526045
11
109.5188218214
21
189.5019526045
0
LINE
5
325
100
AcDbEntity
8
0
100
AcDbLine
62
7
6
CONTINUOUS
10
103.9975451686
20
191.8457025151
11
104.0932898380
21
192.1269525151
0
LINE
5
326
100
AcDbEntity
8
0
100
AcDbLine
62
7
6
CONTINUOUS
10
77.0377081801
20
201.3834665502
11
77.2796812216
21
201.4874921868
0
LINE
5
327
100
AcDbEntity
8
0
100
AcDbLine
62
7
6
CONTINUOUS
10
75.3281067496
20
204.3005613148
11
75.5840595350
21
204.3626940874
0
LINE
5
328
100
AcDbEntity
8
0
100
AcDbLine
62
7
6
CONTINUOUS
10
75.4779136074
20
204.7455988188
11
75.2219608220
21
204.6834660462
0
LINE
5
329
100
AcDbEntity
8
0
100
AcDbLine
62
7
6
CONTINUOUS
10
74.5478741247
20
211.1545305339
11
75.0625339400
21
211.1623545350
0
LINE
5
32A
100
AcDbEntity
8
DEFAULT_1
100
AcDbLine
62
2
6
CENTER
10
66.5188218214
20
213.0019526045
11
155.5188218214
21
213.0019526045
0
LINE
5
32B
100
AcDbEntity
8
0
100
AcDbLine
62
7
6
CONTINUOUS
10
75.0170135331
20
211.4825717916
11
74.5866129941
21
211.4867256476
0
LINE
5
32C
100
AcDbEntity
8
0
100
AcDbLine
62
7
6
CONTINUOUS
10
73.8479260972
20
213.2421139114
11
74.4421514880
21
213.1995953849
0
LINE
5
32D
100
AcDbEntity
8
0
100
AcDbLine
62
7
6
CONTINUOUS
10
74.0407885205
20
213.5525767666
11
73.8710098375
21
213.5647249170
0
LINE
5
32E
100
AcDbEntity
8
0
100
AcDbLine
62
7
6
CONTINUOUS
10
74.9791881867
20
213.5502847226
11
74.7245201621
21
213.5685069483
0
LINE
5
32F
100
AcDbEntity
8
0
100
AcDbLine
62
7
6
CONTINUOUS
10
74.8399390747
20
215.1815649299
11
75.0946070993
21
215.1633427043
0
LINE
5
330
100
AcDbEntity
8
0
100
AcDbLine
62
7
6
CONTINUOUS
10
75.2025801811
20
215.4798796347
11
74.7781333545
21
215.5102500192
0
LINE
5
331
100
AcDbEntity
8
0
100
AcDbLine
62
7
6
CONTINUOUS
10
78.3974209123
20
224.3176862857
11
78.6443933523
21
224.2261612024
0
LINE
5
332
100
AcDbEntity
8
0
100
AcDbLine
62
7
6
CONTINUOUS
10
78.7944188079
20
224.5940951012
11
78.5474463678
21
224.6856201845
0
LINE
5
333
100
AcDbEntity
8
0
100
AcDbLine
62
7
6
CONTINUOUS
10
76.9955133955
20
225.2830328581
11
77.2424859337
21
225.1915077072
0
LINE
5
334
100
AcDbEntity
8
0
100
AcDbLine
62
7
6
CONTINUOUS
10
77.3925111929
20
225.5594417412
11
77.1455388511
21
225.6509667569
0
LINE
5
335
100
AcDbEntity
8
0
100
AcDbLine
62
7
6
CONTINUOUS
10
119.9230771436
20
192.2207026939
11
119.7315877796
21
192.5957026045
0
LINE
5
336
100
AcDbEntity
8
0
100
AcDbLine
62
7
6
CONTINUOUS
10
114.0188218214
20
191.3769525598
11
113.9230771436
21
191.8457025151
0
LINE
5
337
100
AcDbEntity
8
0
100
AcDbLine
62
7
6
CONTINUOUS
10
113.4443537377
20
191.3769525598
11
113.4443537377
21
191.0019526492
0
LINE
5
338
100
AcDbEntity
8
0
100
AcDbLine
62
7
6
CONTINUOUS
10
114.0188218214
20
191.0019526492
11
114.0188218214
21
191.3769525598
0
LINE
5
339
100
AcDbEntity
8
0
100
AcDbLine
62
7
6
CONTINUOUS
10
74.1560261868
20
209.0733624452
11
74.9143596732
21
209.1811631589
0
LINE
5
33A
100
AcDbEntity
8
0
100
AcDbLine
62
7
6
CONTINUOUS
10
74.7845799901
20
209.4894025585
11
74.1947650562
21
209.4055575589
0
LINE
5
33B
100
AcDbEntity
8
0
100
AcDbLine
62
7
6
CONTINUOUS
10
73.9580591908
20
211.0706855343
11
74.5478741247
21
211.1545305339
0
LINE
5
33C
100
AcDbEntity
8
0
100
AcDbLine
62
7
6
CONTINUOUS
10
74.5866129941
20
211.4867256476
11
73.8282795077
21
211.3789249338
0
LINE
5
33D
100
AcDbEntity
8
0
100
AcDbLine
62
7
6
CONTINUOUS
10
74.4421514880
20
213.1995953849
11
75.0409937880
21
213.2215996418
0
LINE
5
33E
100
AcDbEntity
8
0
100
AcDbLine
62
7
6
CONTINUOUS
10
75.7697414063
20
212.2206413687
11
76.1950143721
21
212.2354846401
0
LINE
5
33F
100
AcDbEntity
8
0
100
AcDbLine
62
7
6
CONTINUOUS
10
76.1837323857
20
212.5587236179
11
75.7584594199
21
212.5438803466
0
LINE
5
340
100
AcDbEntity
8
0
100
AcDbLine
62
7
6
CONTINUOUS
10
75.4756638067
20
216.1354222788
11
75.7390294018
21
216.1387315757
0
LINE
5
341
100
AcDbEntity
8
0
100
AcDbLine
62
7
6
CONTINUOUS
10
76.8925192527
20
219.7305307039
11
76.6313279535
21
219.7644643648
0
LINE
5
342
100
AcDbEntity
8
0
100
AcDbLine
62
7
6
CONTINUOUS
10
119.3486090683
20
192.1269525151
11
119.4443537377
21
191.7519526045
0
LINE
5
343
100
AcDbEntity
8
0
100
AcDbLine
62
7
6
CONTINUOUS
10
115.5188218214
20
191.7519526045
11
115.5188218214
21
189.5019526045
0
LINE
5
344
100
AcDbEntity
8
0
100
AcDbLine
62
7
6
CONTINUOUS
10
116.0932898380
20
190.0644526045
11
116.0932898380
21
191.7519526045
0
LINE
5
345
100
AcDbEntity
8
0
100
AcDbLine
62
7
6
CONTINUOUS
10
103.9018004992
20
192.5957026045
11
103.6145664908
21
192.2207026939
0
LINE
5
346
100
AcDbEntity
8
0
100
AcDbLine
62
7
6
CONTINUOUS
10
75.2810317260
20
209.6253128759
11
74.7845799901
21
209.4894025585
0
LINE
5
347
100
AcDbEntity
8
0
100
AcDbLine
62
7
6
CONTINUOUS
10
75.2384730016
20
213.5965852889
11
74.9791881867
21
213.5502847226
0
LINE
5
348
100
AcDbEntity
8
0
100
AcDbLine
62
7
6
CONTINUOUS
10
76.6703985640
20
219.4010684286
11
77.0345422182
21
219.3959135117
0
LINE
5
349
100
AcDbEntity
8
0
100
AcDbLine
62
7
6
CONTINUOUS
10
75.6881718205
20
218.4793007172
11
75.3420507346
21
218.4958568071
0
LINE
5
34A
100
AcDbEntity
8
0
100
AcDbLine
62
7
6
CONTINUOUS
10
73.9352022707
20
218.8335437282
11
73.5890809552
21
218.8500983507
0
LINE
5
34B
100
AcDbEntity
8
0
100
AcDbLine
62
7
6
CONTINUOUS
10
120.0188218214
20
191.7519526045
11
119.9230771436
21
192.2207026939
0
LINE
5
34C
100
AcDbEntity
8
0
100
AcDbLine
62
7
6
CONTINUOUS
10
119.4443537377
20
191.7519526045
11
119.4443537377
21
190.0644526045
0
LINE
5
34D
100
AcDbEntity
8
0
100
AcDbLine
62
7
6
CONTINUOUS
10
120.0188218214
20
189.5019526045
11
120.0188218214
21
191.7519526045
0
LINE
5
34E
100
AcDbEntity
8
0
100
AcDbLine
62
7
6
CONTINUOUS
10
113.9230771436
20
190.5332026269
11
114.0188218214
21
191.0019526492
0
LINE
5
34F
100
AcDbEntity
8
0
100
AcDbLine
62
7
6
CONTINUOUS
10
115.6145664908
20
192.2207026939
11
115.5188218214
21
191.7519526045
0
LINE
5
350
100
AcDbEntity
8
0
100
AcDbLine
62
7
6
CONTINUOUS
10
113.4443537377
20
191.0019526492
11
113.3486090683
21
190.6269526045
0
LINE
5
351
100
AcDbEntity
8
0
100
AcDbLine
62
7
6
CONTINUOUS
10
116.0932898380
20
191.7519526045
11
116.1890345075
21
192.1269525151
0
LINE
5
352
100
AcDbEntity
8
0
100
AcDbLine
62
7
6
CONTINUOUS
10
104.0932898380
20
192.1269525151
11
104.2847791769
21
192.3144526045
0
LINE
5
353
100
AcDbEntity
8
0
100
AcDbLine
62
7
6
CONTINUOUS
10
73.4616075729
20
210.9347752337
11
73.9580591908
21
211.0706855343
0
LINE
5
354
100
AcDbEntity
8
0
100
AcDbLine
62
7
6
CONTINUOUS
10
75.0409937880
20
213.2215996418
11
75.4746740301
21
213.3202733684
0
LINE
5
355
100
AcDbEntity
8
0
100
AcDbLine
62
7
6
CONTINUOUS
10
74.5806541408
20
215.1352643722
11
74.8399390747
21
215.1815649299
0
LINE
5
356
100
AcDbEntity
8
0
100
AcDbLine
62
7
6
CONTINUOUS
10
73.2408914940
20
215.4905392830
11
72.9816066790
21
215.4442387168
0
LINE
5
357
100
AcDbEntity
8
0
100
AcDbLine
62
7
6
CONTINUOUS
10
75.7317638846
20
216.4730981965
11
75.5511544714
21
216.4499263921
0
LINE
5
358
100
AcDbEntity
8
0
100
AcDbLine
62
7
6
CONTINUOUS
10
75.2514622134
20
218.1184530229
11
75.6126815013
21
218.1647980435
0
LINE
5
359
100
AcDbEntity
8
0
100
AcDbLine
62
7
6
CONTINUOUS
10
78.5474463678
20
224.6856201845
11
78.1570044930
21
224.7188561835
0
LINE
5
35A
100
AcDbEntity
8
0
100
AcDbLine
62
7
6
CONTINUOUS
10
77.1455388511
20
225.6509667569
11
76.7550969762
21
225.6842027559
0
LINE
5
35B
100
AcDbEntity
8
0
100
AcDbLine
62
9
6
CONTINUOUS
10
121.8871693238
20
237.0579116649
11
121.8871693238
21
231.3797228293
0
LINE
5
35C
100
AcDbEntity
8
0
100
AcDbLine
62
9
6
CONTINUOUS
10
121.8871693238
20
194.6241819839
11
121.8871693238
21
188.9459935108
0
LINE
5
35D
100
AcDbEntity
8
0
100
AcDbLine
62
9
6
CONTINUOUS
10
122.1459883689
20
237.0579128213
11
122.1459883689
21
231.3797229578
0
LINE
5
35E
100
AcDbEntity
8
0
100
AcDbLine
62
9
6
CONTINUOUS
10
122.1459883689
20
194.6241822513
11
122.1459883689
21
188.9459934578
0
LINE
5
35F
100
AcDbEntity
8
0
100
AcDbLine
62
7
6
CONTINUOUS
10
113.7315877796
20
190.1582025822
11
113.9230771436
21
190.5332026269
0
LINE
5
360
100
AcDbEntity
8
0
100
AcDbLine
62
7
6
CONTINUOUS
10
115.8060558297
20
192.5957026045
11
115.6145664908
21
192.2207026939
0
LINE
5
361
100
AcDbEntity
8
0
100
AcDbLine
62
7
6
CONTINUOUS
10
104.2847791769
20
192.8769526045
11
103.9018004992
21
192.5957026045
0
LINE
5
362
100
AcDbEntity
8
0
100
AcDbLine
62
7
6
CONTINUOUS
10
75.7390294018
20
216.1387315757
11
76.0174927954
21
216.2049405574
0
LINE
5
363
100
AcDbEntity
8
0
100
AcDbLine
62
7
6
CONTINUOUS
10
74.7781333545
20
215.5102500192
11
74.3444531718
21
215.4115762883
0
LINE
5
364
100
AcDbEntity
8
0
100
AcDbLine
62
7
6
CONTINUOUS
10
78.1838560132
20
224.3076645908
11
78.3974209123
21
224.3176862857
0
LINE
5
365
100
AcDbEntity
8
0
100
AcDbLine
62
9
6
CONTINUOUS
10
132.7188218214
20
227.4019526045
11
135.2388218214
21
236.0419526045
0
LINE
5
366
100
AcDbEntity
8
0
100
AcDbLine
62
7
6
CONTINUOUS
10
113.3486090683
20
190.6269526045
11
113.1571196624
21
190.3457026045
0
LINE
5
367
100
AcDbEntity
8
0
100
AcDbLine
62
7
6
CONTINUOUS
10
116.1890345075
20
192.1269525151
11
116.3805238463
21
192.4082025151
0
LINE
5
368
100
AcDbEntity
8
0
100
AcDbLine
62
7
6
CONTINUOUS
10
75.3420507346
20
218.4958568071
11
75.0635869954
21
218.4296463857
0
LINE
5
369
100
AcDbEntity
8
0
100
AcDbLine
62
7
6
CONTINUOUS
10
73.5812482123
20
218.4528306332
11
73.8597116059
21
218.5190396149
0
LINE
5
36A
100
AcDbEntity
8
0
100
AcDbLine
62
7
6
CONTINUOUS
10
76.7819484965
20
225.2730111632
11
76.9955133955
21
225.2830328581
0
LINE
5
36B
100
AcDbEntity
8
0
100
AcDbLine
62
9
6
CONTINUOUS
10
132.7188218214
20
198.6019526045
11
135.2388218214
21
189.9619526045
0
LINE
5
36C
100
AcDbEntity
8
0
100
AcDbLine
62
7
6
CONTINUOUS
10
116.1890345075
20
192.9707025151
11
115.8060558297
21
192.5957026045
0
LINE
5
36D
100
AcDbEntity
8
0
100
AcDbLine
62
7
6
CONTINUOUS
10
113.3486090683
20
189.7832026045
11
113.7315877796
21
190.1582025822
0
LINE
5
36E
100
AcDbEntity
8
0
100
AcDbLine
62
7
6
CONTINUOUS
10
108.0188218214
20
193.0644526939
11
105.8166941561
21
192.2207026939
0
LINE
5
36F
100
AcDbEntity
8
0
100
AcDbLine
62
7
6
CONTINUOUS
10
106.0081834950
20
191.6582025598
11
108.0188218214
21
192.4082025151
0
LINE
5
370
100
AcDbEntity
8
0
100
AcDbLine
62
7
6
CONTINUOUS
10
104.5720131852
20
192.9707025151
11
104.2847791769
21
192.8769526045
0
LINE
5
371
100
AcDbEntity
8
0
100
AcDbLine
62
7
6
CONTINUOUS
10
104.2847791769
20
192.3144526045
11
104.5720131852
21
192.4082025151
0
LINE
5
372
100
AcDbEntity
8
0
100
AcDbLine
62
7
6
CONTINUOUS
10
76.7550969762
20
225.6842027559
11
76.3980633839
21
225.6158932637
0
LINE
5
373
100
AcDbEntity
8
0
100
AcDbLine
62
9
6
CONTINUOUS
10
100.1504743190
20
231.3797229578
11
99.8916552739
21
231.3797229578
0
LINE
5
374
100
AcDbEntity
8
0
100
AcDbLine
62
9
6
CONTINUOUS
10
121.8871693238
20
231.3797229578
11
122.1459883689
21
231.3797229578
0
LINE
5
375
100
AcDbEntity
8
0
100
AcDbLine
62
7
6
CONTINUOUS
10
113.1571196624
20
190.3457026045
11
112.8698856540
21
190.1582025822
0
LINE
5
376
100
AcDbEntity
8
0
100
AcDbLine
62
7
6
CONTINUOUS
10
116.3805238463
20
192.4082025151
11
116.6677581229
21
192.5957026045
0
LINE
5
377
100
AcDbEntity
8
0
100
AcDbLine
62
7
6
CONTINUOUS
10
116.5720131852
20
193.1582026045
11
116.1890345075
21
192.9707025151
0
LINE
5
378
100
AcDbEntity
8
0
100
AcDbLine
62
7
6
CONTINUOUS
10
112.9656303235
20
189.5957026073
11
113.3486090683
21
189.7832026045
0
LINE
5
379
100
AcDbEntity
8
0
100
AcDbLine
62
9
6
CONTINUOUS
10
100.1378890348
20
237.1738566958
11
99.8963288157
21
237.1195361417
0
LINE
5
37A
100
AcDbEntity
8
0
100
AcDbLine
62
9
6
CONTINUOUS
10
100.1504743190
20
237.0579116983
11
99.8916552739
21
237.0579116983
0
LINE
5
37B
100
AcDbEntity
8
0
100
AcDbLine
62
9
6
CONTINUOUS
10
121.8871693238
20
237.0579116649
11
122.1459883689
21
237.0579116649
0
LINE
5
37C
100
AcDbEntity
8
0
100
AcDbLine
62
9
6
CONTINUOUS
10
121.8997546159
20
237.1738566986
11
122.1413078418
21
237.1195377006
0
LINE
5
37D
100
AcDbEntity
8
0
100
AcDbLine
62
7
6
CONTINUOUS
10
72.2240071453
20
108.7570063649
11
72.2240071453
21
107.8634590964
0
LINE
5
37E
100
AcDbEntity
8
0
100
AcDbLine
62
7
6
CONTINUOUS
10
72.2424740952
20
108.7570063649
11
72.2424740952
21
107.8634590964
0
LINE
5
37F
100
AcDbEntity
8
0
100
AcDbLine
62
7
6
CONTINUOUS
10
72.3504472827
20
108.7217932874
11
72.3504472827
21
107.8634590964
0
LINE
5
380
100
AcDbEntity
8
0
100
AcDbLine
62
7
6
CONTINUOUS
10
72.6281990476
20
108.6257646203
11
72.6281990476
21
107.8634590964
0
LINE
5
381
100
AcDbEntity
8
0
100
AcDbLine
62
7
6
CONTINUOUS
10
72.7301922002
20
108.7224207710
11
72.7301922002
21
107.8634590964
0
LINE
5
382
100
AcDbEntity
8
0
100
AcDbLine
62
7
6
CONTINUOUS
10
72.7531231451
20
108.7568745601
11
72.7531231451
21
107.8634590964
0
LINE
5
383
100
AcDbEntity
8
0
100
AcDbLine
62
7
6
CONTINUOUS
10
72.7833192036
20
108.7568745621
11
72.7833192036
21
107.8634590964
0
LINE
5
384
100
AcDbEntity
8
0
100
AcDbLine
62
7
6
CONTINUOUS
10
72.9717617052
20
108.7224207863
11
72.9717617052
21
107.8634590964
0
LINE
5
385
100
AcDbEntity
8
0
100
AcDbLine
62
7
6
CONTINUOUS
10
73.1976653791
20
108.6571176495
11
73.1976653791
21
107.8634590964
0
LINE
5
386
100
AcDbEntity
8
0
100
AcDbLine
62
7
6
CONTINUOUS
10
73.5890809552
20
108.5464058913
11
73.5890809552
21
107.8634590964
0
LINE
5
387
100
AcDbEntity
8
0
100
AcDbLine
62
7
6
CONTINUOUS
10
73.9352022707
20
108.4613364955
11
73.9352022707
21
107.8634590964
0
LINE
5
388
100
AcDbEntity
8
0
100
AcDbLine
62
7
6
CONTINUOUS
10
74.1007140592
20
108.4286987258
11
74.1007140592
21
107.8634590964
0
LINE
5
389
100
AcDbEntity
8
0
100
AcDbLine
62
7
6
CONTINUOUS
10
74.1385851256
20
108.5393628334
11
74.1385851256
21
107.8634590964
0
LINE
5
38A
100
AcDbEntity
8
0
100
AcDbLine
62
7
6
CONTINUOUS
10
74.2577528862
20
108.5389272440
11
74.2577528862
21
107.8634590964
0
LINE
5
38B
100
AcDbEntity
8
0
100
AcDbLine
62
7
6
CONTINUOUS
10
74.8907063705
20
108.3988810179
11
74.8907063705
21
107.8634590964
0
LINE
5
38C
100
AcDbEntity
8
0
100
AcDbLine
62
7
6
CONTINUOUS
10
75.1528762074
20
108.4007877747
11
75.1528762074
21
107.8634590964
0
LINE
5
38D
100
AcDbEntity
8
0
100
AcDbLine
62
7
6
CONTINUOUS
10
75.2640509934
20
108.7720182788
11
75.2640509934
21
107.8634590964
0
LINE
5
38E
100
AcDbEntity
8
0
100
AcDbLine
62
7
6
CONTINUOUS
10
76.1445342798
20
108.7581606642
11
76.1445342798
21
107.8634590964
0
LINE
5
38F
100
AcDbEntity
8
0
100
AcDbLine
62
7
6
CONTINUOUS
10
76.3980633839
20
108.7243591845
11
76.3980633839
21
107.8634590964
0
LINE
5
390
100
AcDbEntity
8
0
100
AcDbLine
62
7
6
CONTINUOUS
10
76.7550969762
20
108.6281265021
11
76.7550969762
21
107.8634590964
0
LINE
5
391
100
AcDbEntity
8
0
100
AcDbLine
62
7
6
CONTINUOUS
10
77.1455388511
20
108.5236937491
11
77.1455388511
21
107.8634590964
0
LINE
5
392
100
AcDbEntity
8
0
100
AcDbLine
62
7
6
CONTINUOUS
10
77.3925111929
20
108.4624959948
11
77.3925111929
21
107.8634590964
0
LINE
5
393
100
AcDbEntity
8
0
100
AcDbLine
62
7
6
CONTINUOUS
10
77.6728928534
20
108.4035125344
11
77.6728928534
21
107.8634590964
0
LINE
5
394
100
AcDbEntity
8
0
100
AcDbLine
62
7
6
CONTINUOUS
10
77.8464927076
20
108.3763527791
11
77.8464927076
21
107.8634590964
0
LINE
5
395
100
AcDbEntity
8
0
100
AcDbLine
62
7
6
CONTINUOUS
10
78.0168137609
20
108.3634696738
11
78.0168137609
21
107.8634590964
0
LINE
5
396
100
AcDbEntity
8
0
100
AcDbLine
62
7
6
CONTINUOUS
10
78.1570044930
20
108.3670513631
11
78.1570044930
21
107.8634590964
0
LINE
5
397
100
AcDbEntity
8
0
100
AcDbLine
62
7
6
CONTINUOUS
10
78.5474463678
20
108.3634590964
11
78.5474463678
21
107.8634590964
0
LINE
5
398
100
AcDbEntity
8
0
100
AcDbLine
62
7
6
CONTINUOUS
10
78.7944188079
20
108.3634590964
11
78.7944188079
21
107.8634590964
0
LINE
5
399
100
AcDbEntity
8
0
100
AcDbLine
62
7
6
CONTINUOUS
10
79.1448956380
20
108.3634590964
11
79.1448956380
21
107.8634590964
0
LINE
5
39A
100
AcDbEntity
8
0
100
AcDbLine
62
7
6
CONTINUOUS
10
79.3184955413
20
108.3634590964
11
79.3184955413
21
107.8634590964
0
LINE
5
39B
100
AcDbEntity
8
0
100
AcDbLine
62
7
6
CONTINUOUS
10
79.4888166191
20
108.3634590964
11
79.4888166191
21
107.8634590964
0
LINE
5
39C
100
AcDbEntity
8
0
100
AcDbLine
62
7
6
CONTINUOUS
10
79.5523552413
20
108.3634590964
11
79.5523552413
21
107.8634590964
0
LINE
5
39D
100
AcDbEntity
8
0
100
AcDbLine
62
7
6
CONTINUOUS
10
80.2504732529
20
108.3634590964
11
80.2504732529
21
107.8634590964
0
LINE
5
39E
100
AcDbEntity
8
0
100
AcDbLine
62
7
6
CONTINUOUS
10
80.4866422753
20
108.3634590964
11
80.4866422753
21
107.8634590964
0
POLYLINE
5
39F
100
AcDbEntity
8
0
100
AcDb2dPolyline
62
9
6
CONTINUOUS
66
1
70
0
0
VERTEX
5
3A0
100
AcDbEntity
8
0
100
AcDbVertex
62
9
6
CONTINUOUS
100
AcDb2dVertex
10
86.7988218214
20
112.8634590964
0
VERTEX
5
3A1
100
AcDbEntity
8
0
100
AcDbVertex
62
9
6
CONTINUOUS
100
AcDb2dVertex
10
86.8080086400
20
113.4058741575
0
VERTEX
5
3A2
100
AcDbEntity
8
0
100
AcDbVertex
62
9
6
CONTINUOUS
100
AcDb2dVertex
10
86.8354351315
20
113.9403795857
0
VERTEX
5
3A3
100
AcDbEntity
8
0
100
AcDbVertex
62
9
6
CONTINUOUS
100
AcDb2dVertex
10
86.8807013556
20
114.4591810881
0
VERTEX
5
3A4
100
AcDbEntity
8
0
100
AcDbVertex
62
9
6
CONTINUOUS
100
AcDb2dVertex
10
86.9431472291
20
114.9547133706
0
VERTEX
5
3A5
100
AcDbEntity
8
0
100
AcDbVertex
62
9
6
CONTINUOUS
100
AcDb2dVertex
10
87.0218621504
20
115.4197504567
0
VERTEX
5
3A6
100
AcDbEntity
8
0
100
AcDbVertex
62
9
6
CONTINUOUS
100
AcDb2dVertex
10
87.1156982787
20
115.8475110585
0
VERTEX
5
3A7
100
AcDbEntity
8
0
100
AcDbVertex
62
9
6
CONTINUOUS
100
AcDb2dVertex
10
87.2232872720
20
116.2317574632
0
VERTEX
5
3A8
100
AcDbEntity
8
0
100
AcDbVertex
62
9
6
CONTINUOUS
100
AcDb2dVertex
10
87.3430602405
20
116.5668864929
0
VERTEX
5
3A9
100
AcDbEntity
8
0
100
AcDbVertex
62
9
6
CONTINUOUS
100
AcDb2dVertex
10
87.4732706246
20
116.8480112118
0
VERTEX
5
3AA
100
AcDbEntity
8
0
100
AcDbVertex
62
9
6
CONTINUOUS
100
AcDb2dVertex
10
87.6120196637
20
117.0710321885
0
VERTEX
5
3AB
100
AcDbEntity
8
0
100
AcDbVertex
62
9
6
CONTINUOUS
100
AcDb2dVertex
10
87.7572840844
20
117.2326972748
0
VERTEX
5
3AC
100
AcDbEntity
8
0
100
AcDbVertex
62
9
6
CONTINUOUS
100
AcDb2dVertex
10
87.9069456043
20
117.3306490298
0
VERTEX
5
3AD
100
AcDbEntity
8
0
100
AcDbVertex
62
9
6
CONTINUOUS
100
AcDb2dVertex
10
88.0588218214
20
117.3634590964
0
SEQEND
5
3AE
100
AcDbEntity
8
0
0
POLYLINE
5
3AF
100
AcDbEntity
8
0
100
AcDb2dPolyline
62
9
6
CONTINUOUS
66
1
70
0
0
VERTEX
5
3B0
100
AcDbEntity
8
0
100
AcDbVertex
62
9
6
CONTINUOUS
100
AcDb2dVertex
10
133.9788218214
20
108.3634590964
0
VERTEX
5
3B1
100
AcDbEntity
8
0
100
AcDbVertex
62
9
6
CONTINUOUS
100
AcDb2dVertex
10
134.1306980385
20
108.3962691629
0
VERTEX
5
3B2
100
AcDbEntity
8
0
100
AcDbVertex
62
9
6
CONTINUOUS
100
AcDb2dVertex
10
134.2803595584
20
108.4942209180
0
VERTEX
5
3B3
100
AcDbEntity
8
0
100
AcDbVertex
62
9
6
CONTINUOUS
100
AcDb2dVertex
10
134.4256239791
20
108.6558860043
0
VERTEX
5
3B4
100
AcDbEntity
8
0
100
AcDbVertex
62
9
6
CONTINUOUS
100
AcDb2dVertex
10
134.5643730182
20
108.8789069809
0
VERTEX
5
3B5
100
AcDbEntity
8
0
100
AcDbVertex
62
9
6
CONTINUOUS
100
AcDb2dVertex
10
134.6945834023
20
109.1600316999
0
VERTEX
5
3B6
100
AcDbEntity
8
0
100
AcDbVertex
62
9
6
CONTINUOUS
100
AcDb2dVertex
10
134.8143563708
20
109.4951607296
0
VERTEX
5
3B7
100
AcDbEntity
8
0
100
AcDbVertex
62
9
6
CONTINUOUS
100
AcDb2dVertex
10
134.9219453641
20
109.8794071343
0
VERTEX
5
3B8
100
AcDbEntity
8
0
100
AcDbVertex
62
9
6
CONTINUOUS
100
AcDb2dVertex
10
135.0157814924
20
110.3071677361
0
VERTEX
5
3B9
100
AcDbEntity
8
0
100
AcDbVertex
62
9
6
CONTINUOUS
100
AcDb2dVertex
10
135.0944964137
20
110.7722048222
0
VERTEX
5
3BA
100
AcDbEntity
8
0
100
AcDbVertex
62
9
6
CONTINUOUS
100
AcDb2dVertex
10
135.1569422872
20
111.2677371047
0
VERTEX
5
3BB
100
AcDbEntity
8
0
100
AcDbVertex
62
9
6
CONTINUOUS
100
AcDb2dVertex
10
135.2022085114
20
111.7865386071
0
VERTEX
5
3BC
100
AcDbEntity
8
0
100
AcDbVertex
62
9
6
CONTINUOUS
100
AcDb2dVertex
10
135.2296350028
20
112.3210440352
0
VERTEX
5
3BD
100
AcDbEntity
8
0
100
AcDbVertex
62
9
6
CONTINUOUS
100
AcDb2dVertex
10
135.2388218214
20
112.8634590964
0
SEQEND
5
3BE
100
AcDbEntity
8
0
0
POLYLINE
5
3BF
100
AcDbEntity
8
0
100
AcDb2dPolyline
62
9
6
CONTINUOUS
66
1
70
0
0
VERTEX
5
3C0
100
AcDbEntity
8
0
100
AcDbVertex
62
9
6
CONTINUOUS
100
AcDb2dVertex
10
88.0588218214
20
108.3634590964
0
VERTEX
5
3C1
100
AcDbEntity
8
0
100
AcDbVertex
62
9
6
CONTINUOUS
100
AcDb2dVertex
10
87.9069456043
20
108.3962691629
0
VERTEX
5
3C2
100
AcDbEntity
8
0
100
AcDbVertex
62
9
6
CONTINUOUS
100
AcDb2dVertex
10
87.7572840844
20
108.4942209180
0
VERTEX
5
3C3
100
AcDbEntity
8
0
100
AcDbVertex
62
9
6
CONTINUOUS
100
AcDb2dVertex
10
87.6120196637
20
108.6558860043
0
VERTEX
5
3C4
100
AcDbEntity
8
0
100
AcDbVertex
62
9
6
CONTINUOUS
100
AcDb2dVertex
10
87.4732706246
20
108.8789069809
0
VERTEX
5
3C5
100
AcDbEntity
8
0
100
AcDbVertex
62
9
6
CONTINUOUS
100
AcDb2dVertex
10
87.3430602405
20
109.1600316999
0
VERTEX
5
3C6
100
AcDbEntity
8
0
100
AcDbVertex
62
9
6
CONTINUOUS
100
AcDb2dVertex
10
87.2232872720
20
109.4951607296
0
VERTEX
5
3C7
100
AcDbEntity
8
0
100
AcDbVertex
62
9
6
CONTINUOUS
100
AcDb2dVertex
10
87.1156982787
20
109.8794071343
0
VERTEX
5
3C8
100
AcDbEntity
8
0
100
AcDbVertex
62
9
6
CONTINUOUS
100
AcDb2dVertex
10
87.0218621504
20
110.3071677361
0
VERTEX
5
3C9
100
AcDbEntity
8
0
100
AcDbVertex
62
9
6
CONTINUOUS
100
AcDb2dVertex
10
86.9431472291
20
110.7722048222
0
VERTEX
5
3CA
100
AcDbEntity
8
0
100
AcDbVertex
62
9
6
CONTINUOUS
100
AcDb2dVertex
10
86.8807013556
20
111.2677371047
0
VERTEX
5
3CB
100
AcDbEntity
8
0
100
AcDbVertex
62
9
6
CONTINUOUS
100
AcDb2dVertex
10
86.8354351315
20
111.7865386071
0
VERTEX
5
3CC
100
AcDbEntity
8
0
100
AcDbVertex
62
9
6
CONTINUOUS
100
AcDb2dVertex
10
86.8080086400
20
112.3210440352
0
VERTEX
5
3CD
100
AcDbEntity
8
0
100
AcDbVertex
62
9
6
CONTINUOUS
100
AcDb2dVertex
10
86.7988218214
20
112.8634590964
0
SEQEND
5
3CE
100
AcDbEntity
8
0
0
LINE
5
3CF
100
AcDbEntity
8
0
100
AcDbLine
62
7
6
CONTINUOUS
10
103.5188218214
20
109.8634590964
11
103.5188218214
21
109.4384590964
0
LINE
5
3D0
100
AcDbEntity
8
0
100
AcDbLine
62
7
6
CONTINUOUS
10
103.6145664908
20
109.8634590964
11
103.6145664908
21
109.4384590964
0
LINE
5
3D1
100
AcDbEntity
8
0
100
AcDbLine
62
7
6
CONTINUOUS
10
103.9018004992
20
109.8634590964
11
103.9018004992
21
109.4384590964
0
LINE
5
3D2
100
AcDbEntity
8
0
100
AcDbLine
62
7
6
CONTINUOUS
10
104.2847791769
20
109.8634590964
11
104.2847791769
21
109.4384590964
0
LINE
5
3D3
100
AcDbEntity
8
0
100
AcDbLine
62
7
6
CONTINUOUS
10
104.5720131852
20
109.8634590964
11
104.5720131852
21
109.4384590964
0
LINE
5
3D4
100
AcDbEntity
8
0
100
AcDbLine
62
7
6
CONTINUOUS
10
104.9549921312
20
109.8634590964
11
104.9549921312
21
109.4384590964
0
LINE
5
3D5
100
AcDbEntity
8
0
100
AcDbLine
62
7
6
CONTINUOUS
10
105.2422261395
20
109.8634590964
11
105.2422261395
21
109.4384590964
0
LINE
5
3D6
100
AcDbEntity
8
0
100
AcDbLine
62
7
6
CONTINUOUS
10
105.6252048173
20
109.8634590964
11
105.6252048173
21
109.4384590964
0
LINE
5
3D7
100
AcDbEntity
8
0
100
AcDbLine
62
7
6
CONTINUOUS
10
105.8166941561
20
109.8634590964
11
105.8166941561
21
109.4384590964
0
LINE
5
3D8
100
AcDbEntity
8
0
100
AcDbLine
62
7
6
CONTINUOUS
10
108.0188218214
20
109.8634590964
11
108.0188218214
21
109.4384590964
0
LINE
5
3D9
100
AcDbEntity
8
0
100
AcDbLine
62
7
6
CONTINUOUS
10
80.4866422753
20
107.8634590964
11
72.2240071453
21
107.8634590964
0
LINE
5
3DA
100
AcDbEntity
8
0
100
AcDbLine
62
7
6
CONTINUOUS
10
147.9741030419
20
108.3634590964
11
127.7444114684
21
108.3634590964
0
LINE
5
3DB
100
AcDbEntity
8
0
100
AcDbLine
62
7
6
CONTINUOUS
10
94.2931884173
20
108.3634590964
11
78.0120283314
21
108.3634590964
0
LINE
5
3DC
100
AcDbEntity
8
DEFAULT_2
100
AcDbLine
62
8
6
HIDDEN
10
74.0188218214
20
108.3634590964
11
74.0834871390
21
108.3634590964
0
LINE
5
3DD
100
AcDbEntity
8
DEFAULT_2
100
AcDbLine
62
8
6
HIDDEN
10
74.1125155491
20
108.3634590964
11
76.8097249767
21
108.3634590964
0
LINE
5
3DE
100
AcDbEntity
8
DEFAULT_2
100
AcDbLine
62
8
6
HIDDEN
10
76.8711608539
20
108.3634590964
11
77.4884685162
21
108.3634590964
0
LINE
5
3DF
100
AcDbEntity
8
0
100
AcDbLine
62
7
6
CONTINUOUS
10
120.0188218214
20
109.4384590964
11
115.5188218214
21
109.4384590964
0
LINE
5
3E0
100
AcDbEntity
8
0
100
AcDbLine
62
7
6
CONTINUOUS
10
114.0188218214
20
109.4384590964
11
109.5188218214
21
109.4384590964
0
LINE
5
3E1
100
AcDbEntity
8
0
100
AcDbLine
62
7
6
CONTINUOUS
10
108.0188218214
20
109.4384590964
11
103.5188218214
21
109.4384590964
0
LINE
5
3E2
100
AcDbEntity
8
0
100
AcDbLine
62
7
6
CONTINUOUS
10
121.8997545258
20
109.8634590964
11
100.1378891314
21
109.8634590964
0
LINE
5
3E3
100
AcDbEntity
8
0
100
AcDbLine
62
7
6
CONTINUOUS
10
109.5188218214
20
109.8634590964
11
109.5188218214
21
109.4384590964
0
LINE
5
3E4
100
AcDbEntity
8
0
100
AcDbLine
62
7
6
CONTINUOUS
10
99.8922022048
20
109.8295314724
11
94.5476004630
21
108.3974497518
0
LINE
5
3E5
100
AcDbEntity
8
0
100
AcDbLine
62
7
6
CONTINUOUS
10
127.4900167711
20
117.3294613648
11
122.1459883689
21
115.8975332701
0
LINE
5
3E6
100
AcDbEntity
8
0
100
AcDbLine
62
7
6
CONTINUOUS
10
122.1327025962
20
115.8940890032
11
122.1454342311
21
115.8974134139
0
LINE
5
3E7
100
AcDbEntity
8
0
100
AcDbLine
62
7
6
CONTINUOUS
10
99.9061409539
20
109.8331421956
11
99.8922068892
21
109.8295141373
0
LINE
5
3E8
100
AcDbEntity
8
0
100
AcDbLine
62
9
6
CONTINUOUS
10
122.2581035966
20
110.2920305250
11
99.7795401220
21
110.2920305250
0
LINE
5
3E9
100
AcDbEntity
8
DEFAULT_1
100
AcDbLine
62
2
6
CENTER
10
66.5188218214
20
112.8634590964
11
155.5188218214
21
112.8634590964
0
LINE
5
3EA
100
AcDbEntity
8
0
100
AcDbLine
62
7
6
CONTINUOUS
10
122.1366064108
20
109.8318333964
11
122.1454354498
21
109.8295092777
0
LINE
5
3EB
100
AcDbEntity
8
0
100
AcDbLine
62
7
6
CONTINUOUS
10
127.4900431765
20
108.3974497527
11
122.1459883689
21
109.8293849227
0
LINE
5
3EC
100
AcDbEntity
8
0
100
AcDbLine
62
7
6
CONTINUOUS
10
99.8991518111
20
115.8955791297
11
94.5476268693
21
117.3294613654
0
LINE
5
3ED
100
AcDbEntity
8
0
100
AcDbLine
62
7
6
CONTINUOUS
10
112.4869069763
20
109.8634590964
11
112.4869069763
21
109.4384590964
0
LINE
5
3EE
100
AcDbEntity
8
0
100
AcDbLine
62
7
6
CONTINUOUS
10
112.9656303235
20
109.8634590964
11
112.9656303235
21
109.4384590964
0
LINE
5
3EF
100
AcDbEntity
8
0
100
AcDbLine
62
7
6
CONTINUOUS
10
113.3486090683
20
109.8634590964
11
113.3486090683
21
109.4384590964
0
LINE
5
3F0
100
AcDbEntity
8
0
100
AcDbLine
62
7
6
CONTINUOUS
10
113.7315877796
20
109.8634590964
11
113.7315877796
21
109.4384590964
0
LINE
5
3F1
100
AcDbEntity
8
0
100
AcDbLine
62
7
6
CONTINUOUS
10
113.9230771436
20
109.8634590964
11
113.9230771436
21
109.4384590964
0
LINE
5
3F2
100
AcDbEntity
8
0
100
AcDbLine
62
7
6
CONTINUOUS
10
114.0188218214
20
109.8634590964
11
114.0188218214
21
109.4384590964
0
LINE
5
3F3
100
AcDbEntity
8
0
100
AcDbLine
62
9
6
CONTINUOUS
10
99.7795397927
20
115.4348876678
11
122.2581037571
21
115.4348876678
0
LINE
5
3F4
100
AcDbEntity
8
0
100
AcDbLine
62
7
6
CONTINUOUS
10
115.5188218214
20
109.8634590964
11
115.5188218214
21
109.4384590964
0
LINE
5
3F5
100
AcDbEntity
8
0
100
AcDbLine
62
7
6
CONTINUOUS
10
115.6145664908
20
109.8634590964
11
115.6145664908
21
109.4384590964
0
LINE
5
3F6
100
AcDbEntity
8
0
100
AcDbLine
62
7
6
CONTINUOUS
10
115.8060558297
20
109.8634590964
11
115.8060558297
21
109.4384590964
0
LINE
5
3F7
100
AcDbEntity
8
0
100
AcDbLine
62
7
6
CONTINUOUS
10
116.1890345075
20
109.8634590964
11
116.1890345075
21
109.4384590964
0
LINE
5
3F8
100
AcDbEntity
8
0
100
AcDbLine
62
7
6
CONTINUOUS
10
116.5720131852
20
109.8634590964
11
116.5720131852
21
109.4384590964
0
LINE
5
3F9
100
AcDbEntity
8
0
100
AcDbLine
62
7
6
CONTINUOUS
10
121.8997546320
20
115.8634590964
11
100.1378890154
21
115.8634590964
0
LINE
5
3FA
100
AcDbEntity
8
0
100
AcDbLine
62
7
6
CONTINUOUS
10
147.9741030419
20
117.3634590964
11
127.7450879866
21
117.3634590964
0
LINE
5
3FB
100
AcDbEntity
8
0
100
AcDbLine
62
7
6
CONTINUOUS
10
94.2925474479
20
117.3634590964
11
74.0188218214
21
117.3634590964
0
LINE
5
3FC
100
AcDbEntity
8
0
100
AcDbLine
62
7
6
CONTINUOUS
10
117.0507368006
20
109.8634590964
11
117.0507368006
21
109.4384590964
0
LINE
5
3FD
100
AcDbEntity
8
0
100
AcDbLine
62
7
6
CONTINUOUS
10
118.4869069763
20
109.8634590964
11
118.4869069763
21
109.4384590964
0
LINE
5
3FE
100
AcDbEntity
8
0
100
AcDbLine
62
7
6
CONTINUOUS
10
118.9656303235
20
109.8634590964
11
118.9656303235
21
109.4384590964
0
LINE
5
3FF
100
AcDbEntity
8
0
100
AcDbLine
62
7
6
CONTINUOUS
10
119.3486090683
20
109.8634590964
11
119.3486090683
21
109.4384590964
0
LINE
5
400
100
AcDbEntity
8
0
100
AcDbLine
62
7
6
CONTINUOUS
10
119.7315877796
20
109.8634590964
11
119.7315877796
21
109.4384590964
0
LINE
5
401
100
AcDbEntity
8
0
100
AcDbLine
62
7
6
CONTINUOUS
10
119.9230771436
20
109.8634590964
11
119.9230771436
21
109.4384590964
0
LINE
5
402
100
AcDbEntity
8
0
100
AcDbLine
62
7
6
CONTINUOUS
10
120.0188218214
20
109.8634590964
11
120.0188218214
21
109.4384590964
0
POLYLINE
5
403
100
AcDbEntity
8
0
100
AcDb2dPolyline
62
9
6
CONTINUOUS
66
1
70
0
0
VERTEX
5
404
100
AcDbEntity
8
0
100
AcDbVertex
62
9
6
CONTINUOUS
100
AcDb2dVertex
10
135.2388218214
20
112.8634590964
0
VERTEX
5
405
100
AcDbEntity
8
0
100
AcDbVertex
62
9
6
CONTINUOUS
100
AcDb2dVertex
10
135.2296350028
20
113.4058741575
0
VERTEX
5
406
100
AcDbEntity
8
0
100
AcDbVertex
62
9
6
CONTINUOUS
100
AcDb2dVertex
10
135.2022085114
20
113.9403795857
0
VERTEX
5
407
100
AcDbEntity
8
0
100
AcDbVertex
62
9
6
CONTINUOUS
100
AcDb2dVertex
10
135.1569422872
20
114.4591810881
0
VERTEX
5
408
100
AcDbEntity
8
0
100
AcDbVertex
62
9
6
CONTINUOUS
100
AcDb2dVertex
10
135.0944964137
20
114.9547133706
0
VERTEX
5
409
100
AcDbEntity
8
0
100
AcDbVertex
62
9
6
CONTINUOUS
100
AcDb2dVertex
10
135.0157814924
20
115.4197504567
0
VERTEX
5
40A
100
AcDbEntity
8
0
100
AcDbVertex
62
9
6
CONTINUOUS
100
AcDb2dVertex
10
134.9219453641
20
115.8475110585
0
VERTEX
5
40B
100
AcDbEntity
8
0
100
AcDbVertex
62
9
6
CONTINUOUS
100
AcDb2dVertex
10
134.8143563708
20
116.2317574632
0
VERTEX
5
40C
100
AcDbEntity
8
0
100
AcDbVertex
62
9
6
CONTINUOUS
100
AcDb2dVertex
10
134.6945834023
20
116.5668864929
0
VERTEX
5
40D
100
AcDbEntity
8
0
100
AcDbVertex
62
9
6
CONTINUOUS
100
AcDb2dVertex
10
134.5643730182
20
116.8480112118
0
VERTEX
5
40E
100
AcDbEntity
8
0
100
AcDbVertex
62
9
6
CONTINUOUS
100
AcDb2dVertex
10
134.4256239791
20
117.0710321885
0
VERTEX
5
40F
100
AcDbEntity
8
0
100
AcDbVertex
62
9
6
CONTINUOUS
100
AcDb2dVertex
10
134.2803595584
20
117.2326972748
0
VERTEX
5
410
100
AcDbEntity
8
0
100
AcDbVertex
62
9
6
CONTINUOUS
100
AcDb2dVertex
10
134.1306980385
20
117.3306490298
0
VERTEX
5
411
100
AcDbEntity
8
0
100
AcDbVertex
62
9
6
CONTINUOUS
100
AcDb2dVertex
10
133.9788218214
20
117.3634590964
0
SEQEND
5
412
100
AcDbEntity
8
0
0
ARC
5
413
100
AcDbEntity
8
0
100
AcDbCircle
62
7
6
CONTINUOUS
10
111.0188218214
20
273.0019526045
40
77.5000000000
100
AcDbArc
50
253.7397952917
51
286.2602047083
0
ARC
5
414
100
AcDbEntity
8
0
100
AcDbCircle
62
7
6
CONTINUOUS
10
111.0188218214
20
273.0019526045
40
86.5000000000
100
AcDbArc
50
253.7397952917
51
286.2602047083
0
ARC
5
415
100
AcDbEntity
8
0
100
AcDbCircle
62
7
6
CONTINUOUS
10
93.5188218214
20
213.0019526045
40
15.0000000000
100
AcDbArc
50
106.2602047083
51
253.7397952917
0
ARC
5
416
100
AcDbEntity
8
0
100
AcDbCircle
62
7
6
CONTINUOUS
10
93.5188218214
20
213.0019526045
40
24.0000000000
100
AcDbArc
50
106.2602047083
51
253.7397952917
0
ARC
5
417
100
AcDbEntity
8
0
100
AcDbCircle
62
7
6
CONTINUOUS
10
111.0188218214
20
153.0019526045
40
77.5000000000
100
AcDbArc
50
73.7397952917
51
106.2602047083
0
ARC
5
418
100
AcDbEntity
8
0
100
AcDbCircle
62
7
6
CONTINUOUS
10
111.0188218214
20
153.0019526045
40
86.5000000000
100
AcDbArc
50
73.7397952917
51
106.2602047083
0
ARC
5
419
100
AcDbEntity
8
0
100
AcDbCircle
62
7
6
CONTINUOUS
10
128.5188218214
20
213.0019526045
40
15.0000000000
100
AcDbArc
50
286.2602047083
51
73.7397952917
0
ARC
5
41A
100
AcDbEntity
8
0
100
AcDbCircle
62
7
6
CONTINUOUS
10
128.5188218214
20
213.0019526045
40
24.0000000000
100
AcDbArc
50
286.2602047083
51
73.7397952917
0
ARC
5
41B
100
AcDbEntity
8
0
100
AcDbCircle
62
9
6
CONTINUOUS
10
111.0188218214
20
153.0019526045
40
85.6929331299
100
AcDbArc
50
82.4635077262
51
97.5364922228
0
ARC
5
41C
100
AcDbEntity
8
0
100
AcDbCircle
62
9
6
CONTINUOUS
10
111.0188218214
20
153.0019526045
40
84.8722813233
100
AcDbArc
50
82.6342019346
51
97.3657980594
0
ARC
5
41D
100
AcDbEntity
8
0
100
AcDbCircle
62
9
6
CONTINUOUS
10
111.0188218214
20
153.0019526045
40
79.1277186767
100
AcDbArc
50
82.1053553852
51
97.8946446000
0
ARC
5
41E
100
AcDbEntity
8
0
100
AcDbCircle
62
9
6
CONTINUOUS
10
111.0188218214
20
153.0019526045
40
78.3070668701
100
AcDbArc
50
81.9128303768
51
98.0871695721
0
ARC
5
41F
100
AcDbEntity
8
0
100
AcDbCircle
62
9
6
CONTINUOUS
10
111.0188218214
20
273.0019526045
40
85.6929331299
100
AcDbArc
50
262.4635077262
51
277.5364922228
0
ARC
5
420
100
AcDbEntity
8
0
100
AcDbCircle
62
9
6
CONTINUOUS
10
111.0188218214
20
273.0019526045
40
84.8722813233
100
AcDbArc
50
262.6342019377
51
277.3657980745
0
ARC
5
421
100
AcDbEntity
8
0
100
AcDbCircle
62
9
6
CONTINUOUS
10
111.0188218214
20
273.0019526045
40
79.1277186767
100
AcDbArc
50
262.1053554274
51
277.8946445754
0
ARC
5
422
100
AcDbEntity
8
0
100
AcDbCircle
62
9
6
CONTINUOUS
10
111.0188218214
20
273.0019526045
40
78.3070668701
100
AcDbArc
50
261.9128303768
51
278.0871695721
0
ARC
5
423
100
AcDbEntity
8
DEFAULT_2
100
AcDbCircle
62
8
6
HIDDEN
10
148.0188218214
20
112.8634590964
40
4.5000000000
100
AcDbArc
50
90.0000000000
51
270.0000000000
0
ARC
5
424
100
AcDbEntity
8
DEFAULT_2
100
AcDbCircle
62
8
6
HIDDEN
10
74.0188218214
20
112.8634590964
40
4.5000000000
100
AcDbArc
50
246.4016231522
51
90.0000000000
0
ARC
5
425
100
AcDbEntity
8
0
100
AcDbCircle
62
7
6
CONTINUOUS
10
94.2891575025
20
109.3634763496
40
1.0000000000
100
AcDbArc
50
270.0085257123
51
284.9999998827
0
ARC
5
426
100
AcDbEntity
8
0
100
AcDbCircle
62
7
6
CONTINUOUS
10
127.7484863500
20
109.3634762935
40
1.0000000000
100
AcDbArc
50
255.0000001610
51
269.9914869707
0
ARC
5
427
100
AcDbEntity
8
0
100
AcDbCircle
62
7
6
CONTINUOUS
10
94.2891597483
20
116.3634412414
40
1.0000000000
100
AcDbArc
50
75.0000000498
51
89.9911898408
0
ARC
5
428
100
AcDbEntity
8
0
100
AcDbCircle
62
7
6
CONTINUOUS
10
127.7484838736
20
116.3634412358
40
1.0000000000
100
AcDbArc
50
90.0088056260
51
104.9999999595
0
ARC
5
429
100
AcDbEntity
8
0
100
AcDbCircle
62
7
6
CONTINUOUS
10
74.0188218214
20
112.8634590964
40
4.5000000000
100
AcDbArc
50
90.0000000000
51
246.4016231522
0
ARC
5
42A
100
AcDbEntity
8
0
100
AcDbCircle
62
7
6
CONTINUOUS
10
148.0188218214
20
112.8634590964
40
4.5000000000
100
AcDbArc
50
270.0000000000
51
90.0000000000
0
ARC
5
42B
100
AcDbEntity
8
0
100
AcDbCircle
62
7
6
CONTINUOUS
10
121.8871751525
20
108.8634590964
40
0.9999992457
100
AcDbArc
50
75.0003225796
51
90.0003339584
0
ARC
5
42C
100
AcDbEntity
8
0
100
AcDbCircle
62
7
6
CONTINUOUS
10
100.1504743190
20
108.8634590964
40
1.0000000000
100
AcDbArc
50
90.0000000000
51
104.9999999995
0
ARC
5
42D
100
AcDbEntity
8
0
100
AcDbCircle
62
7
6
CONTINUOUS
10
121.8871693238
20
116.8634590964
40
1.0000000000
100
AcDbArc
50
270.0000000000
51
284.9999999995
0
ARC
5
42E
100
AcDbEntity
8
0
100
AcDbCircle
62
7
6
CONTINUOUS
10
100.1504684886
20
116.8634590964
40
0.9999992455
100
AcDbArc
50
255.0003226749
51
270.0003340572
0
SPLINE
5
42F
100
AcDbEntity
8
0
100
AcDbSpline
62
9
6
CONTINUOUS
70
0
71
3
72
11
73
7
74
5
42
0.0000001000
43
0.0000001000
44
0.0000000001
40
0.0000000000
40
0.0000000000
40
0.0000000000
40
0.0000000000
40
0.2061859385
40
0.4517435732
40
0.7219758538
40
1.0000000000
40
1.0000000000
40
1.0000000000
40
1.0000000000
10
99.7795400462
20
188.0492755803
30
0.0000000000
10
99.8142097703
20
188.0972906281
30
0.0000000000
10
99.8809033927
20
188.2090408419
30
0.0000000000
10
99.9731733700
20
188.3948401481
30
0.0000000000
10
100.0608729528
20
188.6054923413
30
0.0000000000
10
100.1133141761
20
188.7540658040
30
0.0000000000
10
100.1378890274
20
188.8300485121
30
0.0000000000
11
99.7795400462
21
188.0492755803
31
0.0000000000
11
99.8732241768
21
188.2002397976
31
0.0000000000
11
99.9679947178
21
188.3894276089
31
0.0000000000
11
100.0580371101
21
188.6041739264
31
0.0000000000
11
100.1378890274
21
188.8300485121
31
0.0000000000
0
SPLINE
5
430
100
AcDbEntity
8
0
100
AcDbSpline
62
9
6
CONTINUOUS
70
0
71
3
72
11
73
7
74
5
42
0.0000001000
43
0.0000001000
44
0.0000000001
40
0.0000000000
40
0.0000000000
40
0.0000000000
40
0.0000000000
40
0.1994360711
40
0.4435409343
40
0.7164672622
40
1.0000000000
40
1.0000000000
40
1.0000000000
40
1.0000000000
10
99.7795134979
20
188.0492577727
30
0.0000000000
10
99.7876667146
20
188.1047204080
30
0.0000000000
10
99.8067763851
20
188.2279230483
30
0.0000000000
10
99.8348360189
20
188.4273517648
30
0.0000000000
10
99.8655200110
20
188.6502767077
30
0.0000000000
10
99.8860611093
20
188.8053361483
30
0.0000000000
10
99.8963288264
20
188.8843690776
30
0.0000000000
11
99.7795134979
21
188.0492577727
31
0.0000000000
11
99.8045002894
21
188.2155673332
31
0.0000000000
11
99.8336109220
21
188.4193419638
31
0.0000000000
11
99.8649242039
21
188.6473492070
31
0.0000000000
11
99.8963288264
21
188.8843690776
31
0.0000000000
0
SPLINE
5
431
100
AcDbEntity
8
0
100
AcDbSpline
62
9
6
CONTINUOUS
70
0
71
3
72
9
73
5
74
3
42
0.0000001000
43
0.0000001000
44
0.0000000001
40
0.0000000000
40
0.0000000000
40
0.0000000000
40
0.0000000000
40
0.4837460656
40
1.0000000000
40
1.0000000000
40
1.0000000000
40
1.0000000000
10
99.8963352627
20
188.8843676286
30
0.0000000000
10
99.8976005615
20
188.8942965511
30
0.0000000000
10
99.8978596641
20
188.9151543144
30
0.0000000000
10
99.8942784462
20
188.9356388863
30
0.0000000000
10
99.8916549365
20
188.9459935447
30
0.0000000000
11
99.8963352627
21
188.8843676286
31
0.0000000000
11
99.8969525669
21
188.9143889423
31
0.0000000000
11
99.8916549365
21
188.9459935447
31
0.0000000000
0
SPLINE
5
432
100
AcDbEntity
8
0
100
AcDbSpline
62
9
6
CONTINUOUS
70
0
71
3
72
33
73
29
74
27
42
0.0000001000
43
0.0000001000
44
0.0000000001
40
0.0000000000
40
0.0000000000
40
0.0000000000
40
0.0000000000
40
0.0632002588
40
0.1218061805
40
0.1754516539
40
0.2241158781
40
0.2682973036
40
0.3086198993
40
0.3457633214
40
0.3804130611
40
0.4128934247
40
0.4430031662
40
0.4704028555
40
0.4948772712
40
0.5168090855
40
0.5375904475
40
0.5591241770
40
0.5828318446
40
0.6094350732
40
0.6392330251
40
0.6718425740
40
0.7067868859
40
0.7445262614
40
0.7859043266
40
0.8316707877
40
0.8824700824
40
0.9386478362
40
1.0000000000
40
1.0000000000
40
1.0000000000
40
1.0000000000
10
122.1459883689
20
237.0579128213
30
0.0000000000
10
122.4031661077
20
236.9721399012
30
0.0000000000
10
122.8959001108
20
236.7978568317
30
0.0000000000
10
123.5954145580
20
236.5196632143
30
0.0000000000
10
124.2262899008
20
236.2390781760
30
0.0000000000
10
124.7894792382
20
235.9599194682
30
0.0000000000
10
125.2897949375
20
235.6838333512
30
0.0000000000
10
125.7343489237
20
235.4101704290
30
0.0000000000
10
126.1302315204
20
235.1366478170
30
0.0000000000
10
126.4823655121
20
234.8603146121
30
0.0000000000
10
126.7912361702
20
234.5793107397
30
0.0000000000
10
127.0525803781
20
234.2943179120
30
0.0000000000
10
127.2594371287
20
234.0086798676
30
0.0000000000
10
127.4056034705
20
233.7261397931
30
0.0000000000
10
127.4870094997
20
233.4473224533
30
0.0000000000
10
127.4973933596
20
233.1684797164
30
0.0000000000
10
127.4225564251
20
232.8905513501
30
0.0000000000
10
127.2534662876
20
232.6277537053
30
0.0000000000
10
126.9984096668
20
232.3933874510
30
0.0000000000
10
126.6729628982
20
232.1908014412
30
0.0000000000
10
126.2916864927
20
232.0183867050
30
0.0000000000
10
125.8638920982
20
231.8719858851
30
0.0000000000
10
125.3906060799
20
231.7466907650
30
0.0000000000
10
124.8657223292
20
231.6384899177
30
0.0000000000
10
124.2812378821
20
231.5451740710
30
0.0000000000
10
123.6306969960
20
231.4660454483
30
0.0000000000
10
122.9114452469
20
231.4012894995
30
0.0000000000
10
122.4082489166
20
231.3692856081
30
0.0000000000
10
122.1454414179
20
231.3553556485
30
0.0000000000
11
122.1459883689
21
237.0579128213
31
0.0000000000
11
122.9125736723
21
236.7862081639
31
0.0000000000
11
123.6131598332
21
236.5069607053
31
0.0000000000
11
124.2436811042
21
236.2258368279
31
0.0000000000
11
124.8044813954
21
235.9471025090
31
0.0000000000
11
125.3019232371
21
235.6717578073
31
0.0000000000
11
125.7433764208
21
235.3990304754
31
0.0000000000
11
126.1360774745
21
235.1265202236
31
0.0000000000
11
126.4861031051
21
234.8502782340
31
0.0000000000
11
126.7941777233
21
234.5677887652
31
0.0000000000
11
127.0544443715
21
234.2807359705
31
0.0000000000
11
127.2589634629
21
233.9935084381
31
0.0000000000
11
127.4007155518
21
233.7122541322
31
0.0000000000
11
127.4765790987
21
233.4404047983
31
0.0000000000
11
127.4840537854
21
233.1730779103
31
0.0000000000
11
127.4125156813
21
232.9053576120
31
0.0000000000
11
127.2510051059
21
232.6465258213
31
0.0000000000
11
127.0026536535
21
232.4108855287
31
0.0000000000
11
126.6795405640
21
232.2043845019
31
0.0000000000
11
126.2985259299
21
232.0285133958
31
0.0000000000
11
125.8737949288
21
231.8807765958
31
0.0000000000
11
125.4047396891
21
231.7548655633
31
0.0000000000
11
124.8834957732
21
231.6460237481
31
0.0000000000
11
124.3020871055
21
231.5520150699
31
0.0000000000
11
123.6532700680
21
231.4720485258
31
0.0000000000
11
122.9333254774
21
231.4062981154
31
0.0000000000
11
122.1454414179
21
231.3553556485
31
0.0000000000
0
SPLINE
5
433
100
AcDbEntity
8
0
100
AcDbSpline
62
9
6
CONTINUOUS
70
0
71
3
72
34
73
30
74
28
42
0.0000001000
43
0.0000001000
44
0.0000000001
40
0.0000000000
40
0.0000000000
40
0.0000000000
40
0.0000000000
40
0.0583146652
40
0.1127689306
40
0.1631047070
40
0.2091039976
40
0.2511209552
40
0.2896858358
40
0.3254041976
40
0.3589526936
40
0.3908754650
40
0.4212342305
40
0.4498355272
40
0.4764383275
40
0.5010570880
40
0.5244845011
40
0.5482196642
40
0.5734818728
40
0.6006212089
40
0.6296852902
40
0.6606114697
40
0.6930073191
40
0.7269122259
40
0.7630796084
40
0.8023259396
40
0.8453089959
40
0.8925451354
40
0.9441919342
40
1.0000000000
40
1.0000000000
40
1.0000000000
40
1.0000000000
10
122.2581199281
20
237.9546274681
30
0.0000000000
10
122.5195388801
20
237.8569701081
30
0.0000000000
10
123.0211800521
20
237.6574575900
30
0.0000000000
10
123.7331042592
20
237.3368331779
30
0.0000000000
10
124.3769210129
20
237.0103417834
30
0.0000000000
10
124.9526136232
20
236.6828064618
30
0.0000000000
10
125.4636664275
20
236.3570988554
30
0.0000000000
10
125.9166415846
20
236.0332482945
30
0.0000000000
10
126.3186272066
20
235.7091841805
30
0.0000000000
10
126.6755316736
20
235.3813482723
30
0.0000000000
10
126.9896364848
20
235.0465342758
30
0.0000000000
10
127.2584893813
20
234.7038111702
30
0.0000000000
10
127.4759843084
20
234.3557760080
30
0.0000000000
10
127.6352661546
20
234.0071643401
30
0.0000000000
10
127.7319298073
20
233.6614646731
30
0.0000000000
10
127.7617380925
20
233.3169746467
30
0.0000000000
10
127.7174392340
20
232.9703195586
30
0.0000000000
10
127.5877755918
20
232.6260905359
30
0.0000000000
10
127.3676645978
20
232.3005393075
30
0.0000000000
10
127.0699474267
20
232.0056311274
30
0.0000000000
10
126.7103313051
20
231.7461061070
30
0.0000000000
10
126.3026194810
20
231.5202211238
30
0.0000000000
10
125.8531864322
20
231.3227699808
30
0.0000000000
10
125.3597813298
20
231.1477771814
30
0.0000000000
10
124.8150639867
20
230.9908451531
30
0.0000000000
10
124.2115266661
20
230.8498655128
30
0.0000000000
10
123.5440975136
20
230.7245729444
30
0.0000000000
10
122.8117135362
20
230.6157668468
30
0.0000000000
10
122.3007552945
20
230.5570651849
30
0.0000000000
10
122.0350341223
20
230.5302686467
30
0.0000000000
11
122.2581199281
21
237.9546274681
31
0.0000000000
11
123.0358325736
21
237.6447008688
31
0.0000000000
11
123.7483872778
21
237.3230931376
31
0.0000000000
11
124.3925807103
21
236.9956345996
31
0.0000000000
11
124.9662101966
21
236.6684333859
31
0.0000000000
11
125.4744822695
21
236.3435827301
31
0.0000000000
11
125.9243852361
21
236.0209038045
31
0.0000000000
11
126.3230175655
21
235.6983432003
31
0.0000000000
11
126.6769791019
21
235.3717145194
31
0.0000000000
11
126.9895352771
21
235.0365341066
31
0.0000000000
11
127.2571807750
21
234.6925480130
31
0.0000000000
11
127.4729662658
21
234.3432055693
31
0.0000000000
11
127.6295462006
21
233.9948561431
31
0.0000000000
11
127.7223761323
21
233.6538263293
31
0.0000000000
11
127.7496597667
21
233.3185998875
31
0.0000000000
11
127.7058248326
21
232.9806780414
31
0.0000000000
11
127.5788077721
21
232.6409713937
31
0.0000000000
11
127.3634942297
21
232.3162442474
31
0.0000000000
11
127.0696133781
21
232.0200384037
31
0.0000000000
11
126.7115076528
21
231.7575731171
31
0.0000000000
11
126.3058977148
21
231.5300005933
31
0.0000000000
11
125.8610200950
21
231.3324808782
31
0.0000000000
11
125.3721634423
21
231.1574807380
31
0.0000000000
11
124.8311135503
21
231.0002288219
31
0.0000000000
11
124.2304753225
21
230.8587104844
31
0.0000000000
11
123.5641745209
21
230.7325254090
31
0.0000000000
11
122.8309036736
21
230.6225931824
31
0.0000000000
11
122.0350341223
21
230.5302686467
31
0.0000000000
0
SPLINE
5
434
100
AcDbEntity
8
0
100
AcDbSpline
62
9
6
CONTINUOUS
70
0
71
3
72
33
73
29
74
27
42
0.0000001000
43
0.0000001000
44
0.0000000001
40
0.0000000000
40
0.0000000000
40
0.0000000000
40
0.0000000000
40
0.0613603823
40
0.1175390956
40
0.1683366167
40
0.2141011407
40
0.2554767970
40
0.2932129659
40
0.3281526121
40
0.3607564405
40
0.3905487244
40
0.4171470844
40
0.4408516261
40
0.4623824479
40
0.4831585709
40
0.5050817966
40
0.5295450478
40
0.5569321508
40
0.5870287069
40
0.6194959814
40
0.6541322267
40
0.6912630238
40
0.7315759028
40
0.7757536276
40
0.8244231569
40
0.8780871945
40
0.9367360243
40
1.0000000000
40
1.0000000000
40
1.0000000000
40
1.0000000000
10
99.8922022048
20
231.3553564550
30
0.0000000000
10
99.6293594629
20
231.3692882987
30
0.0000000000
10
99.1261237119
20
231.4012942125
30
0.0000000000
10
98.4068405175
20
231.4660566078
30
0.0000000000
10
97.7563116871
20
231.5451873728
30
0.0000000000
10
97.1718536283
20
231.6385025332
30
0.0000000000
10
96.6470021323
20
231.7466996567
30
0.0000000000
10
96.1737590970
20
231.8719848477
30
0.0000000000
10
95.7460193365
20
232.0183648037
30
0.0000000000
10
95.3648019975
20
232.1907418274
30
0.0000000000
10
95.0394023710
20
232.3932690123
30
0.0000000000
10
94.7843564383
20
232.6275556422
30
0.0000000000
10
94.6152235034
20
232.8902649783
30
0.0000000000
10
94.5402957741
20
233.1681161432
30
0.0000000000
10
94.5505659467
20
233.4468906953
30
0.0000000000
10
94.6318392207
20
233.7256350960
30
0.0000000000
10
94.7778496892
20
234.0080997852
30
0.0000000000
10
94.9845331877
20
234.2936679744
30
0.0000000000
10
95.2456956323
20
234.5786015977
30
0.0000000000
10
95.5543808987
20
234.8595560254
30
0.0000000000
10
95.9063310063
20
235.1358513398
30
0.0000000000
10
96.3020413239
20
235.4093531177
30
0.0000000000
10
96.7464591228
20
235.6830245013
30
0.0000000000
10
97.2467080311
20
235.9591601121
30
0.0000000000
10
97.8099439762
20
236.2384203090
30
0.0000000000
10
98.4410569572
20
236.5191769485
30
0.0000000000
10
99.1410551213
20
236.7976090778
30
0.0000000000
10
99.6342182060
20
236.9720522423
30
0.0000000000
10
99.8916552739
20
237.0579116173
30
0.0000000000
11
99.8922022048
21
231.3553564550
31
0.0000000000
11
99.1042125196
21
231.4063062819
31
0.0000000000
11
98.3842558221
21
231.4720610746
31
0.0000000000
11
97.7354617899
21
231.5520284859
31
0.0000000000
11
97.1540781893
21
231.6460365750
31
0.0000000000
11
96.6328651056
21
231.7548747702
31
0.0000000000
11
96.1638499501
21
231.8807762421
31
0.0000000000
11
95.7391746946
21
232.0284907523
31
0.0000000000
11
95.3582219936
21
232.2043205247
31
0.0000000000
11
95.0351551529
21
232.4107585748
31
0.0000000000
11
94.7868119224
21
232.6463165746
31
0.0000000000
11
94.6252530616
21
232.9050708598
31
0.0000000000
11
94.5536286804
21
233.1727293969
31
0.0000000000
11
94.5609989985
21
233.4399917775
31
0.0000000000
11
94.6367341988
21
233.7117622056
31
0.0000000000
11
94.7783300526
21
233.9929343973
31
0.0000000000
11
94.9826737643
21
234.2800880197
31
0.0000000000
11
95.2427561090
21
234.5670789391
31
0.0000000000
11
95.5506464073
21
234.8495202684
31
0.0000000000
11
95.9004837130
21
235.1257206689
31
0.0000000000
11
96.2930052568
21
235.3982047389
31
0.0000000000
11
96.7343107456
21
235.6709333652
31
0.0000000000
11
97.2316742181
21
235.9463214748
31
0.0000000000
11
97.7925042374
21
236.2251495713
31
0.0000000000
11
98.4232188348
21
236.5064267551
31
0.0000000000
11
99.1243019262
21
236.7859191074
31
0.0000000000
11
99.8916552739
21
237.0579116173
31
0.0000000000
0
SPLINE
5
435
100
AcDbEntity
8
0
100
AcDbSpline
62
9
6
CONTINUOUS
70
0
71
3
72
34
73
30
74
28
42
0.0000001000
43
0.0000001000
44
0.0000000001
40
0.0000000000
40
0.0000000000
40
0.0000000000
40
0.0000000000
40
0.0558230399
40
0.1074713459
40
0.1547045023
40
0.1976844501
40
0.2369275798
40
0.2730913525
40
0.3069915111
40
0.3393811635
40
0.3703004369
40
0.3993575016
40
0.4264910474
40
0.4517491898
40
0.4754799404
40
0.4989002433
40
0.5235090778
40
0.5501003891
40
0.5786895202
40
0.6090359504
40
0.6409464300
40
0.6744822018
40
0.7101889386
40
0.7487455032
40
0.7907601574
40
0.8367658660
40
0.8871215883
40
0.9416218845
40
1.0000000000
40
1.0000000000
40
1.0000000000
40
1.0000000000
10
100.0026097591
20
230.5302686806
30
0.0000000000
10
99.7368178071
20
230.5570723531
30
0.0000000000
10
99.2257823309
20
230.6157846795
30
0.0000000000
10
98.4933370002
20
230.7246078473
30
0.0000000000
10
97.8259323156
20
230.8499046670
30
0.0000000000
10
97.2224413041
20
230.9908816624
30
0.0000000000
10
96.6777725573
20
231.1478067624
30
0.0000000000
10
96.1844222360
20
231.3227852293
30
0.0000000000
10
95.7350544772
20
231.5202089197
30
0.0000000000
10
95.3274153670
20
231.7460459029
30
0.0000000000
10
94.9678663334
20
232.0054957980
30
0.0000000000
10
94.6701870738
20
232.3003040977
30
0.0000000000
10
94.4500612067
20
232.6257419192
30
0.0000000000
10
94.3203184014
20
232.9698650768
30
0.0000000000
10
94.2759220464
20
233.3164309359
30
0.0000000000
10
94.3056018939
20
233.6608270331
30
0.0000000000
10
94.4021102676
20
234.0064273390
30
0.0000000000
10
94.5612125798
20
234.3549433631
30
0.0000000000
10
94.7785128651
20
234.7028961753
30
0.0000000000
10
95.0471646156
20
235.0455523148
30
0.0000000000
10
95.3610650085
20
235.3803118773
30
0.0000000000
10
95.7177664921
20
235.7081082414
30
0.0000000000
10
96.1195631134
20
236.0321562489
30
0.0000000000
10
96.5723902524
20
236.3560291635
30
0.0000000000
10
97.0833709863
20
236.6818106633
30
0.0000000000
10
97.6591163071
20
237.0094841586
30
0.0000000000
10
98.3032041048
20
237.3362052420
30
0.0000000000
10
99.0156705520
20
237.6571315931
30
0.0000000000
10
99.5177893396
20
237.8568598945
30
0.0000000000
10
99.7794922309
20
237.9546233028
30
0.0000000000
11
100.0026097591
21
230.5302686806
31
0.0000000000
11
99.2065286022
21
230.6226211533
31
0.0000000000
11
98.4732389719
21
230.7325642993
31
0.0000000000
11
97.8069831592
21
230.8587496799
31
0.0000000000
11
97.2063913425
21
231.0002651707
31
0.0000000000
11
96.6653884900
21
231.1575103189
31
0.0000000000
11
96.1765831178
21
231.3324969418
31
0.0000000000
11
95.7317688982
21
231.5299891350
31
0.0000000000
11
95.3262334884
21
231.7575108218
31
0.0000000000
11
94.9681946479
21
232.0198981848
31
0.0000000000
11
94.6743521670
21
232.3159990485
31
0.0000000000
11
94.4590202744
21
232.6406133668
31
0.0000000000
11
94.3319264715
21
232.9802282268
31
0.0000000000
11
94.2879944593
21
233.3180729172
31
0.0000000000
11
94.3151570927
21
233.6532061156
31
0.0000000000
11
94.4078342482
21
233.9941290945
31
0.0000000000
11
94.5642343566
21
234.3423776769
31
0.0000000000
11
94.7798241449
21
234.6916347560
31
0.0000000000
11
95.0472676800
21
235.0355525154
31
0.0000000000
11
95.3596208565
21
235.3706797010
31
0.0000000000
11
95.7133742232
21
235.6972632046
31
0.0000000000
11
96.1118094509
21
236.0198004714
31
0.0000000000
11
96.5615537366
21
236.3424939288
31
0.0000000000
11
97.0697424114
21
236.6674114702
31
0.0000000000
11
97.6434038068
21
236.9947401003
31
0.0000000000
11
98.2878138727
21
237.3224012802
31
0.0000000000
11
99.0009455839
21
237.6443332697
31
0.0000000000
11
99.7794922309
21
237.9546233028
31
0.0000000000
0
SPLINE
5
436
100
AcDbEntity
8
0
100
AcDbSpline
62
9
6
CONTINUOUS
70
0
71
3
72
33
73
29
74
27
42
0.0000001000
43
0.0000001000
44
0.0000000001
40
0.0000000000
40
0.0000000000
40
0.0000000000
40
0.0000000000
40
0.0631963697
40
0.1218026411
40
0.1754484694
40
0.2241130223
40
0.2682947353
40
0.3086175732
40
0.3457611903
40
0.3804110915
40
0.4128916120
40
0.4430015234
40
0.4704013952
40
0.4948759848
40
0.5168079205
40
0.5375893141
40
0.5591229834
40
0.5828305311
40
0.6094336168
40
0.6392314332
40
0.6718408751
40
0.7067850900
40
0.7445243395
40
0.7859022437
40
0.8316685173
40
0.8824676076
40
0.9386451591
40
1.0000000000
40
1.0000000000
40
1.0000000000
40
1.0000000000
10
99.8916552739
20
188.9459934602
30
0.0000000000
10
99.6344933676
20
189.0317611000
30
0.0000000000
10
99.1417730417
20
189.2060371910
30
0.0000000000
10
98.4422708001
20
189.4842245337
30
0.0000000000
10
97.8113906689
20
189.7648096455
30
0.0000000000
10
97.2481968883
20
190.0439687427
30
0.0000000000
10
96.7478772097
20
190.3200552376
30
0.0000000000
10
96.3033197692
20
190.5937184514
30
0.0000000000
10
95.9074341579
20
190.8672411922
30
0.0000000000
10
95.5552973774
20
191.1435743847
30
0.0000000000
10
95.2464238755
20
191.4245782158
30
0.0000000000
10
94.9850765592
20
191.7095711252
30
0.0000000000
10
94.7782164024
20
191.9952094522
30
0.0000000000
10
94.6320464729
20
192.2777499342
30
0.0000000000
10
94.5506367147
20
192.5565675897
30
0.0000000000
10
94.5402486860
20
192.8354104999
30
0.0000000000
10
94.6150807994
20
193.1133394724
30
0.0000000000
10
94.7841662162
20
193.3761385840
30
0.0000000000
10
95.0392189966
20
193.6105066122
30
0.0000000000
10
95.3646627930
20
193.8130943389
30
0.0000000000
10
95.7459369272
20
193.9855106016
30
0.0000000000
10
96.1737293955
20
194.1319126836
30
0.0000000000
10
96.6470134358
20
194.2572088163
30
0.0000000000
10
97.1718949252
20
194.3654105050
30
0.0000000000
10
97.7563768384
20
194.4587270904
30
0.0000000000
10
98.4069150513
20
194.5378564855
30
0.0000000000
10
99.1261764142
20
194.6026140227
30
0.0000000000
10
99.6293832801
20
194.6346194225
30
0.0000000000
10
99.8922022394
20
194.6485499896
30
0.0000000000
11
99.8916552739
21
188.9459934602
31
0.0000000000
11
99.1251165041
21
189.2176795308
31
0.0000000000
11
98.4245254888
21
189.4969269122
31
0.0000000000
11
97.7939993467
21
189.7780510370
31
0.0000000000
11
97.2331945452
21
190.0567857510
31
0.0000000000
11
96.7357487117
21
190.3321308512
31
0.0000000000
11
96.2942920654
21
190.6048584833
31
0.0000000000
11
95.9015880422
21
190.8773688350
31
0.0000000000
11
95.5515597063
21
191.1536107345
31
0.0000000000
11
95.2434822709
21
191.4361001035
31
0.0000000000
11
94.9832124705
21
191.7231529760
31
0.0000000000
11
94.7786898718
21
192.0103808836
31
0.0000000000
11
94.6369340963
21
192.2916358280
31
0.0000000000
11
94.5610668689
21
192.5634857500
31
0.0000000000
11
94.5535882838
21
192.8308129292
31
0.0000000000
11
94.6251219012
21
193.0985336170
31
0.0000000000
11
94.7866278233
21
193.3573664833
31
0.0000000000
11
95.0349752374
21
193.5930083485
31
0.0000000000
11
95.3580851653
21
193.7995110652
31
0.0000000000
11
95.7390975297
21
193.9753837764
31
0.0000000000
11
96.1638267314
21
194.1231219164
31
0.0000000000
11
96.6328800040
21
194.2490339777
31
0.0000000000
11
97.1541216138
21
194.3578766290
31
0.0000000000
11
97.7355277013
21
194.4518860549
31
0.0000000000
11
98.3843419839
21
194.5318533143
31
0.0000000000
11
99.1042838773
21
194.5976044391
31
0.0000000000
11
99.8922022394
21
194.6485499896
31
0.0000000000
0
SPLINE
5
437
100
AcDbEntity
8
0
100
AcDbSpline
62
9
6
CONTINUOUS
70
0
71
3
72
34
73
30
74
28
42
0.0000001000
43
0.0000001000
44
0.0000000001
40
0.0000000000
40
0.0000000000
40
0.0000000000
40
0.0000000000
40
0.0583146652
40
0.1127689306
40
0.1631047070
40
0.2091039976
40
0.2511209552
40
0.2896858358
40
0.3254041976
40
0.3589526936
40
0.3908754650
40
0.4212342305
40
0.4498355272
40
0.4764383275
40
0.5010570880
40
0.5244845011
40
0.5482196642
40
0.5734818728
40
0.6006212089
40
0.6296852902
40
0.6606114697
40
0.6930073191
40
0.7269122259
40
0.7630796084
40
0.8023259396
40
0.8453089959
40
0.8925451354
40
0.9441919342
40
1.0000000000
40
1.0000000000
40
1.0000000000
40
1.0000000000
10
99.7795237147
20
188.0492777409
30
0.0000000000
10
99.5181047627
20
188.1469351009
30
0.0000000000
10
99.0164635907
20
188.3464476191
30
0.0000000000
10
98.3045393836
20
188.6670720312
30
0.0000000000
10
97.6607226299
20
188.9935634257
30
0.0000000000
10
97.0850300196
20
189.3210987472
30
0.0000000000
10
96.5739772153
20
189.6468063537
30
0.0000000000
10
96.1210020582
20
189.9706569146
30
0.0000000000
10
95.7190164362
20
190.2947210285
30
0.0000000000
10
95.3621119692
20
190.6225569367
30
0.0000000000
10
95.0480071580
20
190.9573709332
30
0.0000000000
10
94.7791542615
20
191.3000940389
30
0.0000000000
10
94.5616593345
20
191.6481292010
30
0.0000000000
10
94.4023774882
20
191.9967408689
30
0.0000000000
10
94.3057138356
20
192.3424405360
30
0.0000000000
10
94.2759055503
20
192.6869305623
30
0.0000000000
10
94.3202044089
20
193.0335856505
30
0.0000000000
10
94.4498680510
20
193.3778146732
30
0.0000000000
10
94.6699790450
20
193.7033659016
30
0.0000000000
10
94.9676962161
20
193.9982740816
30
0.0000000000
10
95.3273123377
20
194.2577991021
30
0.0000000000
10
95.7350241618
20
194.4836840852
30
0.0000000000
10
96.1844572106
20
194.6811352283
30
0.0000000000
10
96.6778623130
20
194.8561280277
30
0.0000000000
10
97.2225796561
20
195.0130600559
30
0.0000000000
10
97.8261169767
20
195.1540396962
30
0.0000000000
10
98.4935461292
20
195.2793322647
30
0.0000000000
10
99.2259301066
20
195.3881383622
30
0.0000000000
10
99.7368883483
20
195.4468400242
30
0.0000000000
10
100.0026095206
20
195.4736365623
30
0.0000000000
11
99.7795237147
21
188.0492777409
31
0.0000000000
11
99.0018110693
21
188.3592043403
31
0.0000000000
11
98.2892563650
21
188.6808120715
31
0.0000000000
11
97.6450629326
21
189.0082706095
31
0.0000000000
11
97.0714334462
21
189.3354718232
31
0.0000000000
11
96.5631613733
21
189.6603224790
31
0.0000000000
11
96.1132584067
21
189.9830014045
31
0.0000000000
11
95.7146260773
21
190.3055620088
31
0.0000000000
11
95.3606645409
21
190.6321906896
31
0.0000000000
11
95.0481083657
21
190.9673711024
31
0.0000000000
11
94.7804628678
21
191.3113571961
31
0.0000000000
11
94.5646773770
21
191.6606996398
31
0.0000000000
11
94.4080974422
21
192.0090490660
31
0.0000000000
11
94.3152675105
21
192.3500788797
31
0.0000000000
11
94.2879838761
21
192.6853053216
31
0.0000000000
11
94.3318188102
21
193.0232271676
31
0.0000000000
11
94.4588358708
21
193.3629338154
31
0.0000000000
11
94.6741494131
21
193.6876609617
31
0.0000000000
11
94.9680302647
21
193.9838668054
31
0.0000000000
11
95.3261359900
21
194.2463320920
31
0.0000000000
11
95.7317459280
21
194.4739046158
31
0.0000000000
11
96.1766235478
21
194.6714243308
31
0.0000000000
11
96.6654802005
21
194.8464244711
31
0.0000000000
11
97.2065300925
21
195.0036763872
31
0.0000000000
11
97.8071683203
21
195.1451947247
31
0.0000000000
11
98.4734691219
21
195.2713798000
31
0.0000000000
11
99.2067399692
21
195.3813120267
31
0.0000000000
11
100.0026095206
21
195.4736365623
31
0.0000000000
0
SPLINE
5
438
100
AcDbEntity
8
0
100
AcDbSpline
62
9
6
CONTINUOUS
70
0
71
3
72
33
73
29
74
27
42
0.0000001000
43
0.0000001000
44
0.0000000001
40
0.0000000000
40
0.0000000000
40
0.0000000000
40
0.0000000000
40
0.0613600973
40
0.1175388296
40
0.1683363705
40
0.2141009129
40
0.2554765850
40
0.2932127662
40
0.3281524218
40
0.3607562608
40
0.3905485589
40
0.4171469341
40
0.4408514886
40
0.4623823165
40
0.4831584350
40
0.5050816457
40
0.5295448754
40
0.5569319558
40
0.5870284906
40
0.6194957451
40
0.6541319697
40
0.6912627418
40
0.7315755899
40
0.7757532780
40
0.8244227651
40
0.8780867571
40
0.9367355413
40
1.0000000000
40
1.0000000000
40
1.0000000000
40
1.0000000000
10
122.1454414335
20
194.6485487092
30
0.0000000000
10
122.4082829554
20
194.6346169302
30
0.0000000000
10
122.9115175747
20
194.6026111771
30
0.0000000000
10
123.6307997273
20
194.5378489533
30
0.0000000000
10
124.2813288174
20
194.4587182751
30
0.0000000000
10
124.8657871263
20
194.3654031994
30
0.0000000000
10
125.3906388478
20
194.2572061730
30
0.0000000000
10
125.8638820818
20
194.1319210996
30
0.0000000000
10
126.2916220393
20
193.9855412906
30
0.0000000000
10
126.6728396180
20
193.8131644456
30
0.0000000000
10
126.9982395680
20
193.6106374632
30
0.0000000000
10
127.2532859281
20
193.3763510450
30
0.0000000000
10
127.4224193979
20
193.1136418882
30
0.0000000000
10
127.4973476816
20
192.8357908052
30
0.0000000000
10
127.4870779949
20
192.5570162850
30
0.0000000000
10
127.4058051609
20
192.2782719324
30
0.0000000000
10
127.2597951209
20
191.9958073020
30
0.0000000000
10
127.0531120337
20
191.7102391567
30
0.0000000000
10
126.7919499691
20
191.4253055536
30
0.0000000000
10
126.4832650545
20
191.1443511311
30
0.0000000000
10
126.1313152954
20
190.8680558252
30
0.0000000000
10
125.7356053570
20
190.5945540728
30
0.0000000000
10
125.2911879943
20
190.3208827345
30
0.0000000000
10
124.7909395903
20
190.0447471798
30
0.0000000000
10
124.2277042109
20
189.7654870408
30
0.0000000000
10
123.5965918433
20
189.4847304201
30
0.0000000000
10
122.8965921777
20
189.2062975179
30
0.0000000000
10
122.4034274030
20
189.0318534886
30
0.0000000000
10
122.1459883689
20
188.9459934578
30
0.0000000000
11
122.1454414335
21
194.6485487092
31
0.0000000000
11
122.9334274673
21
194.5975992102
31
0.0000000000
11
123.6533844212
21
194.5318444970
31
0.0000000000
11
124.3021787221
21
194.4518771666
31
0.0000000000
11
124.8835625783
21
194.3578691633
31
0.0000000000
11
125.4047758929
21
194.2490310647
31
0.0000000000
11
125.8737912463
21
194.1231297123
31
0.0000000000
11
126.2984666849
21
193.9754153579
31
0.0000000000
11
126.6794196257
21
193.7995857735
31
0.0000000000
11
127.0024868115
21
193.5931479233
31
0.0000000000
11
127.2508304929
21
193.3575901124
31
0.0000000000
11
127.4123898818
21
193.0988359611
31
0.0000000000
11
127.4840147792
21
192.8311774796
31
0.0000000000
11
127.4766449151
21
192.5639151433
31
0.0000000000
11
127.4009101486
21
192.2921447944
31
0.0000000000
11
127.2593147343
21
192.0109726885
31
0.0000000000
11
127.0549714456
21
191.7238191212
31
0.0000000000
11
126.7948894859
21
191.4368282217
31
0.0000000000
11
126.4869995362
21
191.1543868907
31
0.0000000000
11
126.1371625688
21
190.8781864894
31
0.0000000000
11
125.7446413983
21
190.6057024413
31
0.0000000000
11
125.3033363464
21
190.3329738612
31
0.0000000000
11
124.8059733794
21
190.0575858101
31
0.0000000000
11
124.2451439337
21
189.7787577722
31
0.0000000000
11
123.6144299597
21
189.4974806288
31
0.0000000000
11
122.9133474953
21
189.2179882769
31
0.0000000000
11
122.1459883689
21
188.9459934578
31
0.0000000000
0
SPLINE
5
439
100
AcDbEntity
8
0
100
AcDbSpline
62
9
6
CONTINUOUS
70
0
71
3
72
34
73
30
74
28
42
0.0000001000
43
0.0000001000
44
0.0000000001
40
0.0000000000
40
0.0000000000
40
0.0000000000
40
0.0000000000
40
0.0558230399
40
0.1074713459
40
0.1547045023
40
0.1976844501
40
0.2369275798
40
0.2730913525
40
0.3069915111
40
0.3393811635
40
0.3703004369
40
0.3993575016
40
0.4264910474
40
0.4517491898
40
0.4754799404
40
0.4989002433
40
0.5235090778
40
0.5501003891
40
0.5786895202
40
0.6090359504
40
0.6409464300
40
0.6744822018
40
0.7101889386
40
0.7487455032
40
0.7907601574
40
0.8367658660
40
0.8871215883
40
0.9416218845
40
1.0000000000
40
1.0000000000
40
1.0000000000
40
1.0000000000
10
122.0350338837
20
195.4736365284
30
0.0000000000
10
122.3008258357
20
195.4468328560
30
0.0000000000
10
122.8118613120
20
195.3881205296
30
0.0000000000
10
123.5443066427
20
195.2792973618
30
0.0000000000
10
124.2117113273
20
195.1540005421
30
0.0000000000
10
124.8152023387
20
195.0130235467
30
0.0000000000
10
125.3598710855
20
194.8560984467
30
0.0000000000
10
125.8532214068
20
194.6811199798
30
0.0000000000
10
126.3025891656
20
194.4836962894
30
0.0000000000
10
126.7102282758
20
194.2578593062
30
0.0000000000
10
127.0697773094
20
193.9984094111
30
0.0000000000
10
127.3674565691
20
193.7036011114
30
0.0000000000
10
127.5875824361
20
193.3781632899
30
0.0000000000
10
127.7173252414
20
193.0340401322
30
0.0000000000
10
127.7617215964
20
192.6874742731
30
0.0000000000
10
127.7320417490
20
192.3430781759
30
0.0000000000
10
127.6355333752
20
191.9974778701
30
0.0000000000
10
127.4764310630
20
191.6489618460
30
0.0000000000
10
127.2591307777
20
191.3010090337
30
0.0000000000
10
126.9904790272
20
190.9583528942
30
0.0000000000
10
126.6765786343
20
190.6235933318
30
0.0000000000
10
126.3198771508
20
190.2957969677
30
0.0000000000
10
125.9180805295
20
189.9717489602
30
0.0000000000
10
125.4652533904
20
189.6478760456
30
0.0000000000
10
124.9542726566
20
189.3220945458
30
0.0000000000
10
124.3785273357
20
188.9944210505
30
0.0000000000
10
123.7344395380
20
188.6676999670
30
0.0000000000
10
123.0219730908
20
188.3467736160
30
0.0000000000
10
122.5198543033
20
188.1470453146
30
0.0000000000
10
122.2581514119
20
188.0492819063
30
0.0000000000
11
122.0350338837
21
195.4736365284
31
0.0000000000
11
122.8311150406
21
195.3812840558
31
0.0000000000
11
123.5644046710
21
195.2713409098
31
0.0000000000
11
124.2306604837
21
195.1451555292
31
0.0000000000
11
124.8312523003
21
195.0036400384
31
0.0000000000
11
125.3722551528
21
194.8463948901
31
0.0000000000
11
125.8610605250
21
194.6714082673
31
0.0000000000
11
126.3058747446
21
194.4739160741
31
0.0000000000
11
126.7114101544
21
194.2463943873
31
0.0000000000
11
127.0694489949
21
193.9840070243
31
0.0000000000
11
127.3632914758
21
193.6879061606
31
0.0000000000
11
127.5786233684
21
193.3632918422
31
0.0000000000
11
127.7057171713
21
193.0236769823
31
0.0000000000
11
127.7496491835
21
192.6858322918
31
0.0000000000
11
127.7224865501
21
192.3506990935
31
0.0000000000
11
127.6298093946
21
192.0097761145
31
0.0000000000
11
127.4734092862
21
191.6615275322
31
0.0000000000
11
127.2578194979
21
191.3122704531
31
0.0000000000
11
126.9903759628
21
190.9683526936
31
0.0000000000
11
126.6780227863
21
190.6332255080
31
0.0000000000
11
126.3242694196
21
190.3066420045
31
0.0000000000
11
125.9258341919
21
189.9841047376
31
0.0000000000
11
125.4760899063
21
189.6614112803
31
0.0000000000
11
124.9679012314
21
189.3364937389
31
0.0000000000
11
124.3942398361
21
189.0091651087
31
0.0000000000
11
123.7498297701
21
188.6815039289
31
0.0000000000
11
123.0366980589
21
188.3595719394
31
0.0000000000
11
122.2581514119
21
188.0492819063
31
0.0000000000
0
SPLINE
5
43A
100
AcDbEntity
8
0
100
AcDbSpline
62
9
6
CONTINUOUS
70
0
71
3
72
11
73
7
74
5
42
0.0000001000
43
0.0000001000
44
0.0000000001
40
0.0000000000
40
0.0000000000
40
0.0000000000
40
0.0000000000
40
0.2780207594
40
0.5482500551
40
0.7938057308
40
1.0000000000
40
1.0000000000
40
1.0000000000
40
1.0000000000
10
100.1378890341
20
237.1738566978
30
0.0000000000
10
100.1133144020
20
237.2498384537
30
0.0000000000
10
100.0608737875
20
237.3984101361
30
0.0000000000
10
99.9731759398
20
237.6090606126
30
0.0000000000
10
99.8809044629
20
237.7948598739
30
0.0000000000
10
99.8142135485
20
237.9066143137
30
0.0000000000
10
99.7795401220
20
237.9546296388
30
0.0000000000
11
100.1378890341
21
237.1738566978
31
0.0000000000
11
100.0580381547
21
237.3997285530
31
0.0000000000
11
99.9679971024
21
237.6144726412
31
0.0000000000
11
99.8732278588
21
237.8036592126
31
0.0000000000
11
99.7795401220
21
237.9546296388
31
0.0000000000
0
SPLINE
5
43B
100
AcDbEntity
8
0
100
AcDbSpline
62
9
6
CONTINUOUS
70
0
71
3
72
11
73
7
74
5
42
0.0000001000
43
0.0000001000
44
0.0000000001
40
0.0000000000
40
0.0000000000
40
0.0000000000
40
0.0000000000
40
0.2835301954
40
0.5564533760
40
0.8005555718
40
1.0000000000
40
1.0000000000
40
1.0000000000
40
1.0000000000
10
99.8963288157
20
237.1195361417
30
0.0000000000
10
99.8860612655
20
237.1985683828
30
0.0000000000
10
99.8655204359
20
237.3536262696
30
0.0000000000
10
99.8348360447
20
237.5765488099
30
0.0000000000
10
99.8067783712
20
237.7759785649
30
0.0000000000
10
99.7876633780
20
237.8991820577
30
0.0000000000
10
99.7795134120
20
237.9546475525
30
0.0000000000
11
99.8963288157
21
237.1195361417
31
0.0000000000
11
99.8649244641
21
237.3565539177
31
0.0000000000
11
99.8336114854
21
237.5845585548
31
0.0000000000
11
99.8045009298
21
237.7883309522
31
0.0000000000
11
99.7795134120
21
237.9546475525
31
0.0000000000
0
SPLINE
5
43C
100
AcDbEntity
8
0
100
AcDbSpline
62
9
6
CONTINUOUS
70
0
71
3
72
9
73
5
74
3
42
0.0000001000
43
0.0000001000
44
0.0000000001
40
0.0000000000
40
0.0000000000
40
0.0000000000
40
0.0000000000
40
0.5018422367
40
1.0000000000
40
1.0000000000
40
1.0000000000
40
1.0000000000
10
100.1504743190
20
237.0579116983
30
0.0000000000
10
100.1504181937
20
237.0774477517
30
0.0000000000
10
100.1481921647
20
237.1163871938
30
0.0000000000
10
100.1420845162
20
237.1549226454
30
0.0000000000
10
100.1378891314
20
237.1738560980
30
0.0000000000
11
100.1504743190
21
237.0579116983
31
0.0000000000
11
100.1472063940
21
237.1164289219
31
0.0000000000
11
100.1378891314
21
237.1738560980
31
0.0000000000
0
SPLINE
5
43D
100
AcDbEntity
8
0
100
AcDbSpline
62
9
6
CONTINUOUS
70
0
71
3
72
9
73
5
74
3
42
0.0000001000
43
0.0000001000
44
0.0000000001
40
0.0000000000
40
0.0000000000
40
0.0000000000
40
0.0000000000
40
0.5180761995
40
1.0000000000
40
1.0000000000
40
1.0000000000
40
1.0000000000
10
99.8916555437
20
237.0579116985
30
0.0000000000
10
99.8942972869
20
237.0683012700
30
0.0000000000
10
99.8978940838
20
237.0887878476
30
0.0000000000
10
99.8976023958
20
237.1096463483
30
0.0000000000
10
99.8963355049
20
237.1195376390
30
0.0000000000
11
99.8916555437
21
237.0579116985
31
0.0000000000
11
99.8969804358
21
237.0896283118
31
0.0000000000
11
99.8963355049
21
237.1195376390
31
0.0000000000
0
SPLINE
5
43E
100
AcDbEntity
8
0
100
AcDbSpline
62
9
6
CONTINUOUS
70
0
71
3
72
9
73
5
74
3
42
0.0000001000
43
0.0000001000
44
0.0000000001
40
0.0000000000
40
0.0000000000
40
0.0000000000
40
0.0000000000
40
0.5011778514
40
1.0000000000
40
1.0000000000
40
1.0000000000
40
1.0000000000
10
100.1493580855
20
231.3673463522
30
0.0000000000
10
100.1494477503
20
231.3694206260
30
0.0000000000
10
100.1498354464
20
231.3735472352
30
0.0000000000
10
100.1502112414
20
231.3776733203
30
0.0000000000
10
100.1504743190
20
231.3797229578
30
0.0000000000
11
100.1493580855
21
231.3673463522
31
0.0000000000
11
100.1498333704
21
231.3735568246
31
0.0000000000
11
100.1504743190
21
231.3797229578
31
0.0000000000
0
SPLINE
5
43F
100
AcDbEntity
8
0
100
AcDbSpline
62
9
6
CONTINUOUS
70
0
71
3
72
10
73
6
74
4
42
0.0000001000
43
0.0000001000
44
0.0000000001
40
0.0000000000
40
0.0000000000
40
0.0000000000
40
0.0000000000
40
0.3367423467
40
0.6709146452
40
1.0000000000
40
1.0000000000
40
1.0000000000
40
1.0000000000
10
100.1493580781
20
231.3673464054
30
0.0000000000
10
100.1204914073
20
231.3660461264
30
0.0000000000
10
100.0629797288
20
231.3634254147
30
0.0000000000
10
99.9772625941
20
231.3594288797
30
0.0000000000
10
99.9204129360
20
231.3567168345
30
0.0000000000
10
99.8922068892
20
231.3553552236
30
0.0000000000
11
100.1493580781
21
231.3673464054
31
0.0000000000
11
100.0627601257
21
231.3634001038
31
0.0000000000
11
99.9768272888
21
231.3593929853
31
0.0000000000
11
99.8922068892
21
231.3553552236
31
0.0000000000
0
SPLINE
5
440
100
AcDbEntity
8
0
100
AcDbSpline
62
9
6
CONTINUOUS
70
0
71
3
72
9
73
5
74
3
42
0.0000001000
43
0.0000001000
44
0.0000000001
40
0.0000000000
40
0.0000000000
40
0.0000000000
40
0.0000000000
40
0.5025135207
40
1.0000000000
40
1.0000000000
40
1.0000000000
40
1.0000000000
10
99.8922022048
20
231.3553564550
30
0.0000000000
10
99.8919989389
20
231.3594339870
30
0.0000000000
10
99.8918811514
20
231.3675594625
30
0.0000000000
10
99.8916698044
20
231.3756812301
30
0.0000000000
10
99.8916552739
20
231.3797229578
30
0.0000000000
11
99.8922022048
21
231.3553564550
31
0.0000000000
11
99.8918569337
21
231.3675993733
31
0.0000000000
11
99.8916552739
21
231.3797229578
31
0.0000000000
0
SPLINE
5
441
100
AcDbEntity
8
0
100
AcDbSpline
62
9
6
CONTINUOUS
70
0
71
3
72
12
73
8
74
6
42
0.0000001000
43
0.0000001000
44
0.0000000001
40
0.0000000000
40
0.0000000000
40
0.0000000000
40
0.0000000000
40
0.1901126319
40
0.3968337691
40
0.6066703161
40
0.8094954306
40
1.0000000000
40
1.0000000000
40
1.0000000000
40
1.0000000000
10
100.0026036756
20
230.5302518361
30
0.0000000000
10
99.9956783017
20
230.5825490734
30
0.0000000000
10
99.9821215854
20
230.6918294669
30
0.0000000000
10
99.9598032839
20
230.8586875829
30
0.0000000000
10
99.9369968981
20
231.0290382020
30
0.0000000000
10
99.9143678888
20
231.1948724044
30
0.0000000000
10
99.8994553838
20
231.3029927246
30
0.0000000000
10
99.8922016048
20
231.3553552217
30
0.0000000000
11
100.0026036756
21
230.5302518361
31
0.0000000000
11
99.9824497993
21
230.6872246928
31
0.0000000000
11
99.9599145129
21
230.8578300725
31
0.0000000000
11
99.9366644772
21
231.0309566118
31
0.0000000000
11
99.9138641926
21
231.1982540826
31
0.0000000000
11
99.8922016048
21
231.3553552217
31
0.0000000000
0
SPLINE
5
442
100
AcDbEntity
8
0
100
AcDbSpline
62
9
6
CONTINUOUS
70
0
71
3
72
12
73
8
74
6
42
0.0000001000
43
0.0000001000
44
0.0000000001
40
0.0000000000
40
0.0000000000
40
0.0000000000
40
0.0000000000
40
0.1975021810
40
0.4061067611
40
0.6143443435
40
0.8138170037
40
1.0000000000
40
1.0000000000
40
1.0000000000
40
1.0000000000
10
100.0026205188
20
230.5302702095
30
0.0000000000
10
100.0234046841
20
230.5824311760
30
0.0000000000
10
100.0569235878
20
230.6932766731
30
0.0000000000
10
100.0945051633
20
230.8638968717
30
0.0000000000
10
100.1215559290
20
231.0371228465
30
0.0000000000
10
100.1396783702
20
231.2050345602
30
0.0000000000
10
100.1469112747
20
231.3144716132
30
0.0000000000
10
100.1493580855
20
231.3673463522
30
0.0000000000
11
100.0026205188
21
230.5302702095
31
0.0000000000
11
100.0539552143
21
230.6907054944
31
0.0000000000
11
100.0927234410
21
230.8643474782
31
0.0000000000
11
100.1205179449
21
231.0397632644
31
0.0000000000
11
100.1388706009
21
231.2088990838
31
0.0000000000
11
100.1493580855
21
231.3673463522
31
0.0000000000
0
SPLINE
5
443
100
AcDbEntity
8
0
100
AcDbSpline
62
9
6
CONTINUOUS
70
0
71
3
72
12
73
8
74
6
42
0.0000001000
43
0.0000001000
44
0.0000000001
40
0.0000000000
40
0.0000000000
40
0.0000000000
40
0.0000000000
40
0.1864597265
40
0.3861236334
40
0.5943890271
40
0.8028206344
40
1.0000000000
40
1.0000000000
40
1.0000000000
40
1.0000000000
10
121.8882855571
20
231.3673463572
30
0.0000000000
10
121.8907362365
20
231.3143930228
30
0.0000000000
10
121.8979806863
20
231.2048232311
30
0.0000000000
10
121.9161321964
20
231.0367726394
30
0.0000000000
10
121.9432063295
20
230.8635370008
30
0.0000000000
10
121.9807826432
20
230.6930514210
30
0.0000000000
10
122.0142750958
20
230.5823467636
30
0.0000000000
10
122.0350231932
20
230.5302701997
30
0.0000000000
11
121.8882855571
21
231.3673463572
31
0.0000000000
11
121.8987932898
21
231.2086638421
31
0.0000000000
11
121.9171778603
21
231.0393673627
31
0.0000000000
11
121.9449983227
21
230.8639316193
31
0.0000000000
11
121.9837593542
21
230.6904391335
31
0.0000000000
11
122.0350231932
21
230.5302701997
31
0.0000000000
0
SPLINE
5
444
100
AcDbEntity
8
0
100
AcDbSpline
62
9
6
CONTINUOUS
70
0
71
3
72
10
73
6
74
4
42
0.0000001000
43
0.0000001000
44
0.0000000001
40
0.0000000000
40
0.0000000000
40
0.0000000000
40
0.0000000000
40
0.3367400424
40
0.6709120172
40
1.0000000000
40
1.0000000000
40
1.0000000000
40
1.0000000000
10
121.8882855614
20
231.3673463883
30
0.0000000000
10
121.9171526225
20
231.3660459869
30
0.0000000000
10
121.9746652504
20
231.3634251086
30
0.0000000000
10
122.0603841482
20
231.3594285718
30
0.0000000000
10
122.1172351819
20
231.3567167007
30
0.0000000000
10
122.1454420411
20
231.3553552199
30
0.0000000000
11
121.8882855614
21
231.3673463883
31
0.0000000000
11
121.9748846903
21
231.3633998491
31
0.0000000000
11
122.0608192116
21
231.3593927362
31
0.0000000000
11
122.1454420411
21
231.3553552199
31
0.0000000000
0
SPLINE
5
445
100
AcDbEntity
8
0
100
AcDbSpline
62
9
6
CONTINUOUS
70
0
71
3
72
12
73
8
74
6
42
0.0000001000
43
0.0000001000
44
0.0000000001
40
0.0000000000
40
0.0000000000
40
0.0000000000
40
0.0000000000
40
0.1907879360
40
0.3938042317
40
0.6036627085
40
0.8102047997
40
1.0000000000
40
1.0000000000
40
1.0000000000
40
1.0000000000
10
122.1454420411
20
231.3553552199
30
0.0000000000
10
122.1381773059
20
231.3029148679
30
0.0000000000
10
122.1232472945
20
231.1946640524
30
0.0000000000
10
122.1005999539
20
231.0286933359
30
0.0000000000
10
122.0777930403
20
230.8583332782
30
0.0000000000
10
122.0554938603
20
230.6916054873
30
0.0000000000
10
122.0419509366
20
230.5824622560
30
0.0000000000
10
122.0350398822
20
230.5302519833
30
0.0000000000
11
122.1454420411
21
231.3553552199
31
0.0000000000
11
122.1237474765
21
231.1980203924
31
0.0000000000
11
122.1009261849
21
231.0305651902
31
0.0000000000
11
122.0776745834
21
230.8574204701
31
0.0000000000
11
122.0551593096
21
230.6869628185
31
0.0000000000
11
122.0350398822
21
230.5302519833
31
0.0000000000
0
SPLINE
5
446
100
AcDbEntity
8
0
100
AcDbSpline
62
9
6
CONTINUOUS
70
0
71
3
72
9
73
5
74
3
42
0.0000001000
43
0.0000001000
44
0.0000000001
40
0.0000000000
40
0.0000000000
40
0.0000000000
40
0.0000000000
40
0.5010028282
40
1.0000000000
40
1.0000000000
40
1.0000000000
40
1.0000000000
10
121.8871693238
20
231.3797229578
30
0.0000000000
10
121.8874371148
20
231.3776646780
30
0.0000000000
10
121.8878587358
20
231.3735427573
30
0.0000000000
10
121.8882006894
20
231.3694119322
30
0.0000000000
10
121.8882855571
20
231.3673463572
30
0.0000000000
11
121.8871693238
21
231.3797229578
31
0.0000000000
11
121.8878395846
21
231.3735322551
31
0.0000000000
11
121.8882855571
21
231.3673463572
31
0.0000000000
0
SPLINE
5
447
100
AcDbEntity
8
0
100
AcDbSpline
62
9
6
CONTINUOUS
70
0
71
3
72
9
73
5
74
3
42
0.0000001000
43
0.0000001000
44
0.0000000001
40
0.0000000000
40
0.0000000000
40
0.0000000000
40
0.0000000000
40
0.4990669046
40
1.0000000000
40
1.0000000000
40
1.0000000000
40
1.0000000000
10
122.1459883689
20
231.3797229578
30
0.0000000000
10
122.1459827410
20
231.3756680351
30
0.0000000000
10
122.1458947824
20
231.3675431985
30
0.0000000000
10
122.1456466458
20
231.3594205604
30
0.0000000000
10
122.1454414179
20
231.3553556485
30
0.0000000000
11
122.1459883689
21
231.3797229578
31
0.0000000000
11
122.1458550514
21
231.3675589086
31
0.0000000000
11
122.1454414179
21
231.3553556485
31
0.0000000000
0
SPLINE
5
448
100
AcDbEntity
8
0
100
AcDbSpline
62
9
6
CONTINUOUS
70
0
71
3
72
9
73
5
74
3
42
0.0000001000
43
0.0000001000
44
0.0000000001
40
0.0000000000
40
0.0000000000
40
0.0000000000
40
0.0000000000
40
0.4992306270
40
1.0000000000
40
1.0000000000
40
1.0000000000
40
1.0000000000
10
121.8997545258
20
237.1738561399
30
0.0000000000
10
121.8955485721
20
237.1548835483
30
0.0000000000
10
121.8895765699
20
237.1163291005
30
0.0000000000
10
121.8872622830
20
237.0774045413
30
0.0000000000
10
121.8871693238
20
237.0579116649
30
0.0000000000
11
121.8997545258
21
237.1738561399
31
0.0000000000
11
121.8904973761
21
237.1162961827
31
0.0000000000
11
121.8871693238
21
237.0579116649
31
0.0000000000
0
SPLINE
5
449
100
AcDbEntity
8
0
100
AcDbSpline
62
9
6
CONTINUOUS
70
0
71
3
72
9
73
5
74
3
42
0.0000001000
43
0.0000001000
44
0.0000000001
40
0.0000000000
40
0.0000000000
40
0.0000000000
40
0.0000000000
40
0.4856832210
40
1.0000000000
40
1.0000000000
40
1.0000000000
40
1.0000000000
10
122.1413078418
20
237.1195377006
30
0.0000000000
10
122.1400200047
20
237.1095704175
30
0.0000000000
10
122.1397534387
20
237.0887070924
30
0.0000000000
10
122.1433548688
20
237.0682230975
30
0.0000000000
10
122.1459892999
20
237.0579116636
30
0.0000000000
11
122.1413078418
21
237.1195377006
31
0.0000000000
11
122.1406734860
21
237.0893939631
31
0.0000000000
11
122.1459892999
21
237.0579116636
31
0.0000000000
0
SPLINE
5
44A
100
AcDbEntity
8
0
100
AcDbSpline
62
9
6
CONTINUOUS
70
0
71
3
72
11
73
7
74
5
42
0.0000001000
43
0.0000001000
44
0.0000000001
40
0.0000000000
40
0.0000000000
40
0.0000000000
40
0.0000000000
40
0.1994360709
40
0.4435409337
40
0.7164672613
40
1.0000000000
40
1.0000000000
40
1.0000000000
40
1.0000000000
10
122.2581301449
20
237.9546474363
30
0.0000000000
10
122.2499769282
20
237.8991848011
30
0.0000000000
10
122.2308672577
20
237.7759821607
30
0.0000000000
10
122.2028076240
20
237.5765534443
30
0.0000000000
10
122.1721236318
20
237.3536285010
30
0.0000000000
10
122.1515825335
20
237.1985690601
30
0.0000000000
10
122.1413148163
20
237.1195361305
30
0.0000000000
11
122.2581301449
21
237.9546474363
31
0.0000000000
11
122.2331433534
21
237.7883378759
31
0.0000000000
11
122.2040327208
21
237.5845632453
31
0.0000000000
11
122.1727194389
21
237.3565560020
31
0.0000000000
11
122.1413148163
21
237.1195361305
31
0.0000000000
0
SPLINE
5
44B
100
AcDbEntity
8
0
100
AcDbSpline
62
9
6
CONTINUOUS
70
0
71
3
72
11
73
7
74
5
42
0.0000001000
43
0.0000001000
44
0.0000000001
40
0.0000000000
40
0.0000000000
40
0.0000000000
40
0.0000000000
40
0.2061859385
40
0.4517435732
40
0.7219758538
40
1.0000000000
40
1.0000000000
40
1.0000000000
40
1.0000000000
10
122.2581035966
20
237.9546296288
30
0.0000000000
10
122.2234338726
20
237.9066145810
30
0.0000000000
10
122.1567402501
20
237.7948643672
30
0.0000000000
10
122.0644702729
20
237.6090650610
30
0.0000000000
10
121.9767706900
20
237.3984128677
30
0.0000000000
10
121.9243294666
20
237.2498394050
30
0.0000000000
10
121.8997546154
20
237.1738566970
30
0.0000000000
11
122.2581035966
21
237.9546296288
31
0.0000000000
11
122.1644194660
21
237.8036654115
31
0.0000000000
11
122.0696489251
21
237.6144776001
31
0.0000000000
11
121.9796065327
21
237.3997312826
31
0.0000000000
11
121.8997546154
21
237.1738566970
31
0.0000000000
0
SPLINE
5
44C
100
AcDbEntity
8
0
100
AcDbSpline
62
9
6
CONTINUOUS
70
0
71
3
72
11
73
7
74
5
42
0.0000001000
43
0.0000001000
44
0.0000000001
40
0.0000000000
40
0.0000000000
40
0.0000000000
40
0.0000000000
40
0.2780207594
40
0.5482500551
40
0.7938057308
40
1.0000000000
40
1.0000000000
40
1.0000000000
40
1.0000000000
10
121.8997546087
20
188.8300485112
30
0.0000000000
10
121.9243292408
20
188.7540667554
30
0.0000000000
10
121.9767698554
20
188.6054950729
30
0.0000000000
10
122.0644677030
20
188.3948445964
30
0.0000000000
10
122.1567391799
20
188.2090453352
30
0.0000000000
10
122.2234300943
20
188.0972908954
30
0.0000000000
10
122.2581035209
20
188.0492755703
30
0.0000000000
11
121.8997546087
21
188.8300485112
31
0.0000000000
11
121.9796054881
21
188.6041766561
31
0.0000000000
11
122.0696465404
21
188.3894325678
31
0.0000000000
11
122.1644157841
21
188.2002459964
31
0.0000000000
11
122.2581035209
21
188.0492755703
31
0.0000000000
0
SPLINE
5
44D
100
AcDbEntity
8
0
100
AcDbSpline
62
9
6
CONTINUOUS
70
0
71
3
72
11
73
7
74
5
42
0.0000001000
43
0.0000001000
44
0.0000000001
40
0.0000000000
40
0.0000000000
40
0.0000000000
40
0.0000000000
40
0.2835301954
40
0.5564533760
40
0.8005555718
40
1.0000000000
40
1.0000000000
40
1.0000000000
40
1.0000000000
10
122.1413148271
20
188.8843690674
30
0.0000000000
10
122.1515823773
20
188.8053368263
30
0.0000000000
10
122.1721232069
20
188.6502789395
30
0.0000000000
10
122.2028075981
20
188.4273563991
30
0.0000000000
10
122.2308652716
20
188.2279266441
30
0.0000000000
10
122.2499802648
20
188.1047231514
30
0.0000000000
10
122.2581302309
20
188.0492576565
30
0.0000000000
11
122.1413148271
21
188.8843690674
31
0.0000000000
11
122.1727191787
21
188.6473512913
31
0.0000000000
11
122.2040321574
21
188.4193466542
31
0.0000000000
11
122.2331427130
21
188.2155742569
31
0.0000000000
11
122.2581302309
21
188.0492576565
31
0.0000000000
0
SPLINE
5
44E
100
AcDbEntity
8
0
100
AcDbSpline
62
9
6
CONTINUOUS
70
0
71
3
72
9
73
5
74
3
42
0.0000001000
43
0.0000001000
44
0.0000000001
40
0.0000000000
40
0.0000000000
40
0.0000000000
40
0.0000000000
40
0.4991876187
40
1.0000000000
40
1.0000000000
40
1.0000000000
40
1.0000000000
10
121.8871693238
20
188.9459935108
30
0.0000000000
10
121.8872260891
20
188.9265597821
30
0.0000000000
10
121.8893586600
20
188.8876151239
30
0.0000000000
10
121.8954945712
20
188.8490743974
30
0.0000000000
10
121.8997546223
20
188.8300484281
30
0.0000000000
11
121.8871693238
21
188.9459935108
31
0.0000000000
11
121.8903527806
21
188.8877790548
31
0.0000000000
11
121.8997546223
21
188.8300484281
31
0.0000000000
0
SPLINE
5
44F
100
AcDbEntity
8
0
100
AcDbSpline
62
9
6
CONTINUOUS
70
0
71
3
72
9
73
5
74
3
42
0.0000001000
43
0.0000001000
44
0.0000000001
40
0.0000000000
40
0.0000000000
40
0.0000000000
40
0.0000000000
40
0.5129136688
40
1.0000000000
40
1.0000000000
40
1.0000000000
40
1.0000000000
10
122.1459885643
20
188.9459935109
30
0.0000000000
10
122.1433620516
20
188.9357090562
30
0.0000000000
10
122.1397078195
20
188.9152334990
30
0.0000000000
10
122.1399961472
20
188.8943618143
30
0.0000000000
10
122.1413074583
20
188.8843674133
30
0.0000000000
11
122.1459885643
21
188.9459935109
31
0.0000000000
11
122.1406506507
21
188.9146004565
31
0.0000000000
11
122.1413074583
21
188.8843674133
31
0.0000000000
0
SPLINE
5
450
100
AcDbEntity
8
0
100
AcDbSpline
62
9
6
CONTINUOUS
70
0
71
3
72
9
73
5
74
3
42
0.0000001000
43
0.0000001000
44
0.0000000001
40
0.0000000000
40
0.0000000000
40
0.0000000000
40
0.0000000000
40
0.5006796618
40
1.0000000000
40
1.0000000000
40
1.0000000000
40
1.0000000000
10
121.8882855573
20
194.6365588568
30
0.0000000000
10
121.8881914042
20
194.6344868897
30
0.0000000000
10
121.8877891662
20
194.6303619478
30
0.0000000000
10
121.8874367092
20
194.6262333705
30
0.0000000000
10
121.8871693238
20
194.6241822513
30
0.0000000000
11
121.8882855573
21
194.6365588568
31
0.0000000000
11
121.8878010985
21
194.6303554294
31
0.0000000000
11
121.8871693238
21
194.6241822513
31
0.0000000000
0
SPLINE
5
451
100
AcDbEntity
8
0
100
AcDbSpline
62
9
6
CONTINUOUS
70
0
71
3
72
10
73
6
74
4
42
0.0000001000
43
0.0000001000
44
0.0000000001
40
0.0000000000
40
0.0000000000
40
0.0000000000
40
0.0000000000
40
0.3367430002
40
0.6709153962
40
1.0000000000
40
1.0000000000
40
1.0000000000
40
1.0000000000
10
121.8882855670
20
194.6365587883
30
0.0000000000
10
121.9171520982
20
194.6378601479
30
0.0000000000
10
121.9746634807
20
194.6404823297
30
0.0000000000
10
122.0603801755
20
194.6444789204
30
0.0000000000
10
122.1172295568
20
194.6471895040
30
0.0000000000
10
122.1454354498
20
194.6485499884
30
0.0000000000
11
121.8882855670
21
194.6365587883
31
0.0000000000
11
121.9748831465
21
194.6405072883
31
0.0000000000
11
122.0608155693
21
194.6445144388
31
0.0000000000
11
122.1454354498
21
194.6485499884
31
0.0000000000
0
SPLINE
5
452
100
AcDbEntity
8
0
100
AcDbSpline
62
9
6
CONTINUOUS
70
0
71
3
72
9
73
5
74
3
42
0.0000001000
43
0.0000001000
44
0.0000000001
40
0.0000000000
40
0.0000000000
40
0.0000000000
40
0.0000000000
40
0.5021746142
40
1.0000000000
40
1.0000000000
40
1.0000000000
40
1.0000000000
10
122.1454414335
20
194.6485487092
30
0.0000000000
10
122.1456367584
20
194.6444736183
30
0.0000000000
10
122.1456562306
20
194.6363461829
30
0.0000000000
10
122.1459721246
20
194.6282266539
30
0.0000000000
10
122.1459883689
20
194.6241822513
30
0.0000000000
11
122.1454414335
21
194.6485487092
31
0.0000000000
11
122.1457310667
21
194.6363128286
31
0.0000000000
11
122.1459883689
21
194.6241822513
31
0.0000000000
0
SPLINE
5
453
100
AcDbEntity
8
0
100
AcDbSpline
62
9
6
CONTINUOUS
70
0
71
3
72
12
73
8
74
6
42
0.0000001000
43
0.0000001000
44
0.0000000001
40
0.0000000000
40
0.0000000000
40
0.0000000000
40
0.0000000000
40
0.1901126327
40
0.3968337708
40
0.6066703186
40
0.8094954340
40
1.0000000000
40
1.0000000000
40
1.0000000000
40
1.0000000000
10
122.0350399672
20
195.4736533729
30
0.0000000000
10
122.0419653411
20
195.4213561357
30
0.0000000000
10
122.0555220574
20
195.3120757422
30
0.0000000000
10
122.0778403589
20
195.1452176262
30
0.0000000000
10
122.1006467447
20
194.9748670071
30
0.0000000000
10
122.1232757539
20
194.8090328058
30
0.0000000000
10
122.1381882586
20
194.7009124867
30
0.0000000000
10
122.1454420374
20
194.6485499908
30
0.0000000000
11
122.0350399672
21
195.4736533729
31
0.0000000000
11
122.0551938435
21
195.3166805163
31
0.0000000000
11
122.0777291299
21
195.1460751366
31
0.0000000000
11
122.1009791656
21
194.9729485973
31
0.0000000000
11
122.1237794502
21
194.8056511265
31
0.0000000000
11
122.1454420374
21
194.6485499908
31
0.0000000000
0
SPLINE
5
454
100
AcDbEntity
8
0
100
AcDbSpline
62
9
6
CONTINUOUS
70
0
71
3
72
12
73
8
74
6
42
0.0000001000
43
0.0000001000
44
0.0000000001
40
0.0000000000
40
0.0000000000
40
0.0000000000
40
0.0000000000
40
0.1975021810
40
0.4061067611
40
0.6143443435
40
0.8138170037
40
1.0000000000
40
1.0000000000
40
1.0000000000
40
1.0000000000
10
122.0350231240
20
195.4736349996
30
0.0000000000
10
122.0142389587
20
195.4214740331
30
0.0000000000
10
121.9807200550
20
195.3106285359
30
0.0000000000
10
121.9431384796
20
195.1400083374
30
0.0000000000
10
121.9160877139
20
194.9667823625
30
0.0000000000
10
121.8979652727
20
194.7988706489
30
0.0000000000
10
121.8907323682
20
194.6894335959
30
0.0000000000
10
121.8882855573
20
194.6365588568
30
0.0000000000
11
122.0350231240
21
195.4736349996
31
0.0000000000
11
121.9836884285
21
195.3131997147
31
0.0000000000
11
121.9449202018
21
195.1395577308
31
0.0000000000
11
121.9171256979
21
194.9641419447
31
0.0000000000
11
121.8987730419
21
194.7950061253
31
0.0000000000
11
121.8882855573
21
194.6365588568
31
0.0000000000
0
SPLINE
5
455
100
AcDbEntity
8
0
100
AcDbSpline
62
9
6
CONTINUOUS
70
0
71
3
72
12
73
8
74
6
42
0.0000001000
43
0.0000001000
44
0.0000000001
40
0.0000000000
40
0.0000000000
40
0.0000000000
40
0.0000000000
40
0.1864597266
40
0.3861236334
40
0.5943890271
40
0.8028206344
40
1.0000000000
40
1.0000000000
40
1.0000000000
40
1.0000000000
10
100.1493580857
20
194.6365588518
30
0.0000000000
10
100.1469074063
20
194.6895121862
30
0.0000000000
10
100.1396629565
20
194.7990819780
30
0.0000000000
10
100.1215114464
20
194.9671325697
30
0.0000000000
10
100.0944373133
20
195.1403682082
30
0.0000000000
10
100.0568609996
20
195.3108537880
30
0.0000000000
10
100.0233685470
20
195.4215584454
30
0.0000000000
10
100.0026204496
20
195.4736350094
30
0.0000000000
11
100.1493580857
21
194.6365588518
31
0.0000000000
11
100.1388503530
21
194.7952413670
31
0.0000000000
11
100.1204657825
21
194.9645378463
31
0.0000000000
11
100.0926453202
21
195.1399735898
31
0.0000000000
11
100.0538842886
21
195.3134660755
31
0.0000000000
11
100.0026204496
21
195.4736350094
31
0.0000000000
0
SPLINE
5
456
100
AcDbEntity
8
0
100
AcDbSpline
62
9
6
CONTINUOUS
70
0
71
3
72
10
73
6
74
4
42
0.0000001000
43
0.0000001000
44
0.0000000001
40
0.0000000000
40
0.0000000000
40
0.0000000000
40
0.0000000000
40
0.3367400425
40
0.6709120177
40
1.0000000000
40
1.0000000000
40
1.0000000000
40
1.0000000000
10
100.1493580814
20
194.6365588208
30
0.0000000000
10
100.1204910203
20
194.6378592219
30
0.0000000000
10
100.0629783923
20
194.6404801000
30
0.0000000000
10
99.9772594946
20
194.6444766389
30
0.0000000000
10
99.9204084609
20
194.6471885091
30
0.0000000000
10
99.8922016017
20
194.6485499892
30
0.0000000000
11
100.1493580814
21
194.6365588208
31
0.0000000000
11
100.0627589524
21
194.6405053599
31
0.0000000000
11
99.9768244311
21
194.6445124740
31
0.0000000000
11
99.8922016017
21
194.6485499892
31
0.0000000000
0
SPLINE
5
457
100
AcDbEntity
8
0
100
AcDbSpline
62
9
6
CONTINUOUS
70
0
71
3
72
12
73
8
74
6
42
0.0000001000
43
0.0000001000
44
0.0000000001
40
0.0000000000
40
0.0000000000
40
0.0000000000
40
0.0000000000
40
0.1907879360
40
0.3938042317
40
0.6036627085
40
0.8102047997
40
1.0000000000
40
1.0000000000
40
1.0000000000
40
1.0000000000
10
99.8922016017
20
194.6485499892
30
0.0000000000
10
99.8994663369
20
194.7009903412
30
0.0000000000
10
99.9143963483
20
194.8092411567
30
0.0000000000
10
99.9370436890
20
194.9752118731
30
0.0000000000
10
99.9598506025
20
195.1455719309
30
0.0000000000
10
99.9821497825
20
195.3122997218
30
0.0000000000
10
99.9956927062
20
195.4214429531
30
0.0000000000
10
100.0026037606
20
195.4736532258
30
0.0000000000
11
99.8922016017
21
194.6485499892
31
0.0000000000
11
99.9138961663
21
194.8058848167
31
0.0000000000
11
99.9367174580
21
194.9733400189
31
0.0000000000
11
99.9599690595
21
195.1464847390
31
0.0000000000
11
99.9824843332
21
195.3169423906
31
0.0000000000
11
100.0026037606
21
195.4736532258
31
0.0000000000
0
SPLINE
5
458
100
AcDbEntity
8
0
100
AcDbSpline
62
9
6
CONTINUOUS
70
0
71
3
72
9
73
5
74
3
42
0.0000001000
43
0.0000001000
44
0.0000000001
40
0.0000000000
40
0.0000000000
40
0.0000000000
40
0.0000000000
40
0.5042689474
40
1.0000000000
40
1.0000000000
40
1.0000000000
40
1.0000000000
10
100.1504743190
20
194.6241822513
30
0.0000000000
10
100.1501938531
20
194.6262527845
30
0.0000000000
10
100.1497052413
20
194.6303693291
30
0.0000000000
10
100.1494509325
20
194.6345068858
30
0.0000000000
10
100.1493580857
20
194.6365588518
30
0.0000000000
11
100.1504743190
21
194.6241822513
31
0.0000000000
11
100.1497606498
21
194.6304098189
31
0.0000000000
11
100.1493580857
21
194.6365588518
31
0.0000000000
0
SPLINE
5
459
100
AcDbEntity
8
0
100
AcDbSpline
62
9
6
CONTINUOUS
70
0
71
3
72
9
73
5
74
3
42
0.0000001000
43
0.0000001000
44
0.0000000001
40
0.0000000000
40
0.0000000000
40
0.0000000000
40
0.0000000000
40
0.5022154946
40
1.0000000000
40
1.0000000000
40
1.0000000000
40
1.0000000000
10
99.8916552739
20
194.6241822513
30
0.0000000000
10
99.8916442445
20
194.6282627692
30
0.0000000000
10
99.8917714216
20
194.6363878224
30
0.0000000000
10
99.8920232311
20
194.6445094221
30
0.0000000000
10
99.8922022394
20
194.6485499896
30
0.0000000000
11
99.8916552739
21
194.6241822513
31
0.0000000000
11
99.8918034200
21
194.6364229534
31
0.0000000000
11
99.8922022394
21
194.6485499896
31
0.0000000000
0
SPLINE
5
45A
100
AcDbEntity
8
0
100
AcDbSpline
62
9
6
CONTINUOUS
70
0
71
3
72
9
73
5
74
3
42
0.0000001000
43
0.0000001000
44
0.0000000001
40
0.0000000000
40
0.0000000000
40
0.0000000000
40
0.0000000000
40
0.4988921689
40
1.0000000000
40
1.0000000000
40
1.0000000000
40
1.0000000000
10
100.1378891429
20
188.8300492328
30
0.0000000000
10
100.1420693980
20
188.8490133417
30
0.0000000000
10
100.1480102173
20
188.8875684130
30
0.0000000000
10
100.1503676991
20
188.9264882202
30
0.0000000000
10
100.1504743190
20
188.9459935442
30
0.0000000000
11
100.1378891429
21
188.8300492328
31
0.0000000000
11
100.1471051854
21
188.8875737683
31
0.0000000000
11
100.1504743190
21
188.9459935442
31
0.0000000000
0
SPLINE
5
45B
100
AcDbEntity
8
0
100
AcDbSpline
62
7
6
CONTINUOUS
70
0
71
3
72
8
73
4
74
2
42
0.0000001000
43
0.0000001000
44
0.0000000001
40
0.0000000000
40
0.0000000000
40
0.0000000000
40
0.0000000000
40
1.0000000000
40
1.0000000000
40
1.0000000000
40
1.0000000000
10
100.0214477033
20
115.8718209135
30
0.0000000000
10
100.0185114610
20
115.8722031888
30
0.0000000000
10
100.0155769185
20
115.8725985109
30
0.0000000000
10
100.0126441922
20
115.8730068650
30
0.0000000000
11
100.0214477033
21
115.8718209135
31
0.0000000000
11
100.0126441922
21
115.8730068650
31
0.0000000000
0
SPLINE
5
45C
100
AcDbEntity
8
0
100
AcDbSpline
62
7
6
CONTINUOUS
70
0
71
3
72
8
73
4
74
2
42
0.0000001000
43
0.0000001000
44
0.0000000001
40
0.0000000000
40
0.0000000000
40
0.0000000000
40
0.0000000000
40
1.0000000000
40
1.0000000000
40
1.0000000000
40
1.0000000000
10
100.0126441922
20
115.8730068650
30
0.0000000000
10
100.0078882795
20
115.8736690803
30
0.0000000000
10
100.0031371428
20
115.8743655670
30
0.0000000000
10
99.9983912776
20
115.8750962611
30
0.0000000000
11
100.0126441922
21
115.8730068650
31
0.0000000000
11
99.9983912776
21
115.8750962611
31
0.0000000000
0
SPLINE
5
45D
100
AcDbEntity
8
0
100
AcDbSpline
62
7
6
CONTINUOUS
70
0
71
3
72
8
73
4
74
2
42
0.0000001000
43
0.0000001000
44
0.0000000001
40
0.0000000000
40
0.0000000000
40
0.0000000000
40
0.0000000000
40
1.0000000000
40
1.0000000000
40
1.0000000000
40
1.0000000000
10
99.9983912776
20
115.8750962611
30
0.0000000000
10
99.9916739712
20
115.8761304870
30
0.0000000000
10
99.9849672255
20
115.8772332428
30
0.0000000000
10
99.9782724284
20
115.8784042617
30
0.0000000000
11
99.9983912776
21
115.8750962611
31
0.0000000000
11
99.9782724284
21
115.8784042617
31
0.0000000000
0
SPLINE
5
45E
100
AcDbEntity
8
0
100
AcDbSpline
62
7
6
CONTINUOUS
70
0
71
3
72
10
73
6
74
4
42
0.0000001000
43
0.0000001000
44
0.0000000001
40
0.0000000000
40
0.0000000000
40
0.0000000000
40
0.0000000000
40
0.1922283689
40
0.8075429817
40
1.0000000000
40
1.0000000000
40
1.0000000000
40
1.0000000000
10
99.9782724284
20
115.8784042617
30
0.0000000000
10
99.9755168461
20
115.8788862537
30
0.0000000000
10
99.9639492691
20
115.8809596642
30
0.0000000000
10
99.9496712117
20
115.8837795480
30
0.0000000000
10
99.9381809246
20
115.8862609609
30
0.0000000000
10
99.9354458219
20
115.8868636741
30
0.0000000000
11
99.9782724284
21
115.8784042617
31
0.0000000000
11
99.9700118511
21
115.8798849134
31
0.0000000000
11
99.9436586487
21
115.8850900914
31
0.0000000000
11
99.9354458219
21
115.8868636741
31
0.0000000000
0
SPLINE
5
45F
100
AcDbEntity
8
0
100
AcDbSpline
62
7
6
CONTINUOUS
70
0
71
3
72
9
73
5
74
3
42
0.0000001000
43
0.0000001000
44
0.0000000001
40
0.0000000000
40
0.0000000000
40
0.0000000000
40
0.0000000000
40
0.6021821922
40
1.0000000000
40
1.0000000000
40
1.0000000000
40
1.0000000000
10
99.9354458219
20
115.8868636741
30
0.0000000000
10
99.9301237576
20
115.8880364559
30
0.0000000000
10
99.9213017356
20
115.8900563159
30
0.0000000000
10
99.9125079638
20
115.8921950897
30
0.0000000000
10
99.9090145586
20
115.8930655553
30
0.0000000000
11
99.9354458219
21
115.8868636741
31
0.0000000000
11
99.9195090727
21
115.8905122243
31
0.0000000000
11
99.9090145586
21
115.8930655553
31
0.0000000000
0
SPLINE
5
460
100
AcDbEntity
8
0
100
AcDbSpline
62
7
6
CONTINUOUS
70
0
71
3
72
9
73
5
74
3
42
0.0000001000
43
0.0000001000
44
0.0000000001
40
0.0000000000
40
0.0000000000
40
0.0000000000
40
0.0000000000
40
0.8629797515
40
1.0000000000
40
1.0000000000
40
1.0000000000
40
1.0000000000
10
99.9090145586
20
115.8930655553
30
0.0000000000
10
99.9061735882
20
115.8937734511
30
0.0000000000
10
99.9028853064
20
115.8946087821
30
0.0000000000
10
99.8996017081
20
115.8954621202
30
0.0000000000
10
99.8991518776
20
115.8955793846
30
0.0000000000
11
99.9090145586
21
115.8930655553
31
0.0000000000
11
99.9005016350
21
115.8952286091
31
0.0000000000
11
99.8991518776
21
115.8955793846
31
0.0000000000
0
SPLINE
5
461
100
AcDbEntity
8
0
100
AcDbSpline
62
7
6
CONTINUOUS
70
0
71
3
72
10
73
6
74
4
42
0.0000001000
43
0.0000001000
44
0.0000000001
40
0.0000000000
40
0.0000000000
40
0.0000000000
40
0.0000000000
40
0.1250122269
40
0.9225032950
40
1.0000000000
40
1.0000000000
40
1.0000000000
40
1.0000000000
10
122.1327027112
20
115.8940885507
30
0.0000000000
10
122.1314519599
20
115.8937708911
30
0.0000000000
10
122.1222172564
20
115.8914464508
30
0.0000000000
10
122.1121704108
20
115.8890720353
30
0.0000000000
10
122.1033526991
20
115.8871145034
30
0.0000000000
10
122.1025715158
20
115.8869420688
30
0.0000000000
11
122.1327027112
21
115.8940885507
31
0.0000000000
11
122.1289484784
21
115.8931433636
31
0.0000000000
11
122.1049144386
21
115.8874621980
31
0.0000000000
11
122.1025715158
21
115.8869420688
31
0.0000000000
0
SPLINE
5
462
100
AcDbEntity
8
0
100
AcDbSpline
62
7
6
CONTINUOUS
70
0
71
3
72
8
73
4
74
2
42
0.0000001000
43
0.0000001000
44
0.0000000001
40
0.0000000000
40
0.0000000000
40
0.0000000000
40
0.0000000000
40
1.0000000000
40
1.0000000000
40
1.0000000000
40
1.0000000000
10
122.1025715158
20
115.8869420688
30
0.0000000000
10
122.0937287520
20
115.8849901602
30
0.0000000000
10
122.0848593069
20
115.8831589378
30
0.0000000000
10
122.0759665956
20
115.8814485679
30
0.0000000000
11
122.1025715158
21
115.8869420688
31
0.0000000000
11
122.0759665956
21
115.8814485679
31
0.0000000000
0
SPLINE
5
463
100
AcDbEntity
8
0
100
AcDbSpline
62
7
6
CONTINUOUS
70
0
71
3
72
8
73
4
74
2
42
0.0000001000
43
0.0000001000
44
0.0000000001
40
0.0000000000
40
0.0000000000
40
0.0000000000
40
0.0000000000
40
1.0000000000
40
1.0000000000
40
1.0000000000
40
1.0000000000
10
122.0759665956
20
115.8814485679
30
0.0000000000
10
122.0708392688
20
115.8804624091
30
0.0000000000
10
122.0657042073
20
115.8795164266
30
0.0000000000
10
122.0605620420
20
115.8786107345
30
0.0000000000
11
122.0759665956
21
115.8814485679
31
0.0000000000
11
122.0605620420
21
115.8786107345
31
0.0000000000
0
SPLINE
5
464
100
AcDbEntity
8
0
100
AcDbSpline
62
7
6
CONTINUOUS
70
0
71
3
72
9
73
5
74
3
42
0.0000001000
43
0.0000001000
44
0.0000000001
40
0.0000000000
40
0.0000000000
40
0.0000000000
40
0.0000000000
40
0.3680794402
40
1.0000000000
40
1.0000000000
40
1.0000000000
40
1.0000000000
10
122.0605620420
20
115.8786107345
30
0.0000000000
10
122.0551154237
20
115.8776514190
30
0.0000000000
10
122.0402963720
20
115.8751679526
30
0.0000000000
10
122.0254240260
20
115.8730191298
30
0.0000000000
10
122.0160084326
20
115.8717953861
30
0.0000000000
11
122.0605620420
21
115.8786107345
31
0.0000000000
11
122.0441990268
21
115.8758685315
31
0.0000000000
11
122.0160084326
21
115.8717953861
31
0.0000000000
0
SPLINE
5
465
100
AcDbEntity
8
0
100
AcDbSpline
62
7
6
CONTINUOUS
70
0
71
3
72
9
73
5
74
3
42
0.0000001000
43
0.0000001000
44
0.0000000001
40
0.0000000000
40
0.0000000000
40
0.0000000000
40
0.0000000000
40
0.2483609443
40
1.0000000000
40
1.0000000000
40
1.0000000000
40
1.0000000000
10
122.0160084326
20
115.8717953861
30
0.0000000000
10
122.0140667000
20
115.8715430194
30
0.0000000000
10
122.0062455233
20
115.8705498605
30
0.0000000000
10
121.9984128582
20
115.8696492612
30
0.0000000000
10
121.9925199631
20
115.8690247271
30
0.0000000000
11
122.0160084326
21
115.8717953861
31
0.0000000000
11
122.0101810417
21
115.8710554050
31
0.0000000000
11
121.9925199631
21
115.8690247271
31
0.0000000000
0
SPLINE
5
466
100
AcDbEntity
8
0
100
AcDbSpline
62
7
6
CONTINUOUS
70
0
71
3
72
8
73
4
74
2
42
0.0000001000
43
0.0000001000
44
0.0000000001
40
0.0000000000
40
0.0000000000
40
0.0000000000
40
0.0000000000
40
1.0000000000
40
1.0000000000
40
1.0000000000
40
1.0000000000
10
121.9925199631
20
115.8690247271
30
0.0000000000
10
121.9865159965
20
115.8683884215
30
0.0000000000
10
121.9805062602
20
115.8678065010
30
0.0000000000
10
121.9744917401
20
115.8672790701
30
0.0000000000
11
121.9925199631
21
115.8690247271
31
0.0000000000
11
121.9744917401
21
115.8672790701
31
0.0000000000
0
SPLINE
5
467
100
AcDbEntity
8
0
100
AcDbSpline
62
7
6
CONTINUOUS
70
0
71
3
72
9
73
5
74
3
42
0.0000001000
43
0.0000001000
44
0.0000000001
40
0.0000000000
40
0.0000000000
40
0.0000000000
40
0.0000000000
40
0.8034231878
40
1.0000000000
40
1.0000000000
40
1.0000000000
40
1.0000000000
10
100.1443828611
20
109.8634261496
30
0.0000000000
10
100.1435544510
20
109.8634189659
30
0.0000000000
10
100.1428545916
20
109.8634113256
30
0.0000000000
10
100.1432630336
20
109.8634100532
30
0.0000000000
10
100.1433760653
20
109.8634100094
30
0.0000000000
11
100.1443828611
21
109.8634261496
31
0.0000000000
11
100.1431452806
21
109.8634107995
31
0.0000000000
11
100.1433760653
21
109.8634100094
31
0.0000000000
0
SPLINE
5
468
100
AcDbEntity
8
0
100
AcDbSpline
62
7
6
CONTINUOUS
70
0
71
3
72
8
73
4
74
2
42
0.0000001000
43
0.0000001000
44
0.0000000001
40
0.0000000000
40
0.0000000000
40
0.0000000000
40
0.0000000000
40
1.0000000000
40
1.0000000000
40
1.0000000000
40
1.0000000000
10
122.0372796040
20
109.8521255388
30
0.0000000000
10
122.0446943406
20
109.8509993449
30
0.0000000000
10
122.0520963884
20
109.8497896910
30
0.0000000000
10
122.0594838829
20
109.8484969335
30
0.0000000000
11
122.0372796040
21
109.8521255388
31
0.0000000000
11
122.0594838829
21
109.8484969335
31
0.0000000000
0
SPLINE
5
469
100
AcDbEntity
8
0
100
AcDbSpline
62
7
6
CONTINUOUS
70
0
71
3
72
10
73
6
74
4
42
0.0000001000
43
0.0000001000
44
0.0000000001
40
0.0000000000
40
0.0000000000
40
0.0000000000
40
0.0000000000
40
0.1406337555
40
0.7418041611
40
1.0000000000
40
1.0000000000
40
1.0000000000
40
1.0000000000
10
122.0594838829
20
109.8484969335
30
0.0000000000
10
122.0615308184
20
109.8481387347
30
0.0000000000
10
122.0723219431
20
109.8462156816
30
0.0000000000
10
122.0868256832
20
109.8433842650
30
0.0000000000
10
122.0992399378
20
109.8407134136
30
0.0000000000
10
122.1029650781
20
109.8398896565
30
0.0000000000
11
122.0594838829
21
109.8484969335
31
0.0000000000
11
122.0656212976
21
109.8474032042
31
0.0000000000
11
122.0917757411
21
109.8422968730
31
0.0000000000
11
122.1029650781
21
109.8398896565
31
0.0000000000
0
SPLINE
5
46A
100
AcDbEntity
8
0
100
AcDbSpline
62
7
6
CONTINUOUS
70
0
71
3
72
9
73
5
74
3
42
0.0000001000
43
0.0000001000
44
0.0000000001
40
0.0000000000
40
0.0000000000
40
0.0000000000
40
0.0000000000
40
0.5369075224
40
1.0000000000
40
1.0000000000
40
1.0000000000
40
1.0000000000
10
122.1033265488
20
109.8398096527
30
0.0000000000
10
122.1074155808
20
109.8389038399
30
0.0000000000
10
122.1150208856
20
109.8371689446
30
0.0000000000
10
122.1226054589
20
109.8353456976
30
0.0000000000
10
122.1261129333
20
109.8344816319
30
0.0000000000
11
122.1033265488
21
109.8398096527
31
0.0000000000
11
122.1155762952
21
109.8370154141
31
0.0000000000
11
122.1261129333
21
109.8344816319
31
0.0000000000
0
SPLINE
5
46B
100
AcDbEntity
8
0
100
AcDbSpline
62
7
6
CONTINUOUS
70
0
71
3
72
9
73
5
74
3
42
0.0000001000
43
0.0000001000
44
0.0000000001
40
0.0000000000
40
0.0000000000
40
0.0000000000
40
0.0000000000
40
0.8298022789
40
1.0000000000
40
1.0000000000
40
1.0000000000
40
1.0000000000
10
122.1261129333
20
109.8344816319
30
0.0000000000
10
122.1290195757
20
109.8337655810
30
0.0000000000
10
122.1325183466
20
109.8328863319
30
0.0000000000
10
122.1360118836
20
109.8319867516
30
0.0000000000
10
122.1366063218
20
109.8318330523
30
0.0000000000
11
122.1261129333
21
109.8344816319
31
0.0000000000
11
122.1348225479
21
109.8322923757
31
0.0000000000
11
122.1366063218
21
109.8318330523
31
0.0000000000
0
SPLINE
5
46C
100
AcDbEntity
8
0
100
AcDbSpline
62
7
6
CONTINUOUS
70
0
71
3
72
10
73
6
74
4
42
0.0000001000
43
0.0000001000
44
0.0000000001
40
0.0000000000
40
0.0000000000
40
0.0000000000
40
0.0000000000
40
0.1007500205
40
0.8296043300
40
1.0000000000
40
1.0000000000
40
1.0000000000
40
1.0000000000
10
99.9061408806
20
109.8331424856
30
0.0000000000
10
99.9071067931
20
109.8333864789
30
0.0000000000
10
99.9150637574
20
109.8353823439
30
0.0000000000
10
99.9246852475
20
109.8376671329
30
0.0000000000
10
99.9333636548
20
109.8396056229
30
0.0000000000
10
99.9350090171
20
109.8399687696
30
0.0000000000
11
99.9061408806
21
109.8331424856
31
0.0000000000
11
99.9090398054
21
109.8338697677
31
0.0000000000
11
99.9300757176
21
109.8388668190
31
0.0000000000
11
99.9350090171
21
109.8399687696
31
0.0000000000
0
SPLINE
5
46D
100
AcDbEntity
8
0
100
AcDbSpline
62
7
6
CONTINUOUS
70
0
71
3
72
9
73
5
74
3
42
0.0000001000
43
0.0000001000
44
0.0000000001
40
0.0000000000
40
0.0000000000
40
0.0000000000
40
0.0000000000
40
0.5999731506
40
1.0000000000
40
1.0000000000
40
1.0000000000
40
1.0000000000
10
99.9350090171
20
109.8399687696
30
0.0000000000
10
99.9419467081
20
109.8414999825
30
0.0000000000
10
99.9535373621
20
109.8439285253
30
0.0000000000
10
99.9651690114
20
109.8461506595
30
0.0000000000
10
99.9698280725
20
109.8470064590
30
0.0000000000
11
99.9350090171
21
109.8399687696
31
0.0000000000
11
99.9558696275
21
109.8443398030
31
0.0000000000
11
99.9698280725
21
109.8470064590
31
0.0000000000
0
SPLINE
5
46E
100
AcDbEntity
8
0
100
AcDbSpline
62
7
6
CONTINUOUS
70
0
71
3
72
8
73
4
74
2
42
0.0000001000
43
0.0000001000
44
0.0000000001
40
0.0000000000
40
0.0000000000
40
0.0000000000
40
0.0000000000
40
1.0000000000
40
1.0000000000
40
1.0000000000
40
1.0000000000
10
99.9698280725
20
109.8470064590
30
0.0000000000
10
99.9746858776
20
109.8478987647
30
0.0000000000
10
99.9795503022
20
109.8487550713
30
0.0000000000
10
99.9844208127
20
109.8495752835
30
0.0000000000
11
99.9698280725
21
109.8470064590
31
0.0000000000
11
99.9844208127
21
109.8495752835
31
0.0000000000
0
SPLINE
5
46F
100
AcDbEntity
8
0
100
AcDbSpline
62
7
6
CONTINUOUS
70
0
71
3
72
9
73
5
74
3
42
0.0000001000
43
0.0000001000
44
0.0000000001
40
0.0000000000
40
0.0000000000
40
0.0000000000
40
0.0000000000
40
0.8349518867
40
1.0000000000
40
1.0000000000
40
1.0000000000
40
1.0000000000
10
99.9844208127
20
109.8495752835
30
0.0000000000
10
99.9946890750
20
109.8513044973
30
0.0000000000
10
100.0070195001
20
109.8531833888
30
0.0000000000
10
100.0193814968
20
109.8548310891
30
0.0000000000
10
100.0214226420
20
109.8550967364
30
0.0000000000
11
99.9844208127
21
109.8495752835
31
0.0000000000
11
100.0153017083
21
109.8542808916
31
0.0000000000
11
100.0214226420
21
109.8550967364
31
0.0000000000
0
SPLINE
5
470
100
AcDbEntity
8
0
100
AcDbSpline
62
7
6
CONTINUOUS
70
0
71
3
72
8
73
4
74
2
42
0.0000001000
43
0.0000001000
44
0.0000000001
40
0.0000000000
40
0.0000000000
40
0.0000000000
40
0.0000000000
40
1.0000000000
40
1.0000000000
40
1.0000000000
40
1.0000000000
10
100.0214226420
20
109.8550967364
30
0.0000000000
10
100.0302413169
20
109.8562444535
30
0.0000000000
10
100.0390753176
20
109.8572745259
30
0.0000000000
10
100.0479214987
20
109.8581865773
30
0.0000000000
11
100.0214226420
21
109.8550967364
31
0.0000000000
11
100.0479214987
21
109.8581865773
31
0.0000000000
0
SPLINE
5
471
100
AcDbEntity
8
0
100
AcDbSpline
62
7
6
CONTINUOUS
70
0
71
3
72
8
73
4
74
2
42
0.0000001000
43
0.0000001000
44
0.0000000001
40
0.0000000000
40
0.0000000000
40
0.0000000000
40
0.0000000000
40
1.0000000000
40
1.0000000000
40
1.0000000000
40
1.0000000000
10
100.0479214987
20
109.8581865773
30
0.0000000000
10
100.0539275984
20
109.8588058131
30
0.0000000000
10
100.0599393129
20
109.8593706446
30
0.0000000000
10
100.0659556541
20
109.8598809873
30
0.0000000000
11
100.0479214987
21
109.8581865773
31
0.0000000000
11
100.0659556541
21
109.8598809873
31
0.0000000000
0
SPLINE
5
472
100
AcDbEntity
8
0
100
AcDbSpline
62
7
6
CONTINUOUS
70
0
71
3
72
8
73
4
74
2
42
0.0000001000
43
0.0000001000
44
0.0000000001
40
0.0000000000
40
0.0000000000
40
0.0000000000
40
0.0000000000
40
1.0000000000
40
1.0000000000
40
1.0000000000
40
1.0000000000
10
122.1033296257
20
109.8398235425
30
0.0000000000
10
122.1144677424
20
109.8373503619
30
0.0000000000
10
122.1255626202
20
109.8346863726
30
0.0000000000
10
122.1366063989
20
109.8318333504
30
0.0000000000
11
122.1033296257
21
109.8398235425
31
0.0000000000
11
122.1366063989
21
109.8318333504
31
0.0000000000
0
SPLINE
5
473
100
AcDbEntity
8
0
100
AcDbSpline
62
7
6
CONTINUOUS
70
0
71
3
72
8
73
4
74
2
42
0.0000001000
43
0.0000001000
44
0.0000000001
40
0.0000000000
40
0.0000000000
40
0.0000000000
40
0.0000000000
40
1.0000000000
40
1.0000000000
40
1.0000000000
40
1.0000000000
10
122.1033287364
20
115.8870977526
30
0.0000000000
10
122.1131554805
20
115.8892800660
30
0.0000000000
10
122.1229485594
20
115.8916109186
30
0.0000000000
10
122.1327025742
20
115.8940890901
30
0.0000000000
11
122.1033287364
21
115.8870977526
31
0.0000000000
11
122.1327025742
21
115.8940890901
31
0.0000000000
0
SPLINE
5
474
100
AcDbEntity
8
0
100
AcDbSpline
62
7
6
CONTINUOUS
70
0
71
3
72
8
73
4
74
2
42
0.0000001000
43
0.0000001000
44
0.0000000001
40
0.0000000000
40
0.0000000000
40
0.0000000000
40
0.0000000000
40
1.0000000000
40
1.0000000000
40
1.0000000000
40
1.0000000000
10
99.9343151038
20
115.8870982218
30
0.0000000000
10
99.9258553629
20
115.8889769978
30
0.0000000000
10
99.9174205732
20
115.8909658620
30
0.0000000000
10
99.9090141794
20
115.8930640358
30
0.0000000000
11
99.9343151038
21
115.8870982218
31
0.0000000000
11
99.9090141794
21
115.8930640358
31
0.0000000000
0
SPLINE
5
475
100
AcDbEntity
8
0
100
AcDbSpline
62
7
6
CONTINUOUS
70
0
71
3
72
8
73
4
74
2
42
0.0000001000
43
0.0000001000
44
0.0000000001
40
0.0000000000
40
0.0000000000
40
0.0000000000
40
0.0000000000
40
1.0000000000
40
1.0000000000
40
1.0000000000
40
1.0000000000
10
99.9086769835
20
115.8931482598
30
0.0000000000
10
99.9054977979
20
115.8939429384
30
0.0000000000
10
99.9023226809
20
115.8947532523
30
0.0000000000
10
99.8991518189
20
115.8955791594
30
0.0000000000
11
99.9086769835
21
115.8931482598
31
0.0000000000
11
99.8991518189
21
115.8955791594
31
0.0000000000
0
SPLINE
5
476
100
AcDbEntity
8
0
100
AcDbSpline
62
7
6
CONTINUOUS
70
0
71
3
72
9
73
5
74
3
42
0.0000001000
43
0.0000001000
44
0.0000000001
40
0.0000000000
40
0.0000000000
40
0.0000000000
40
0.0000000000
40
0.4857867409
40
1.0000000000
40
1.0000000000
40
1.0000000000
40
1.0000000000
10
78.0120490881
20
108.3634591162
30
0.0000000000
10
77.9851386763
20
108.3634595381
30
0.0000000000
10
77.9297230994
20
108.3655547255
30
0.0000000000
10
77.8746348223
20
108.3719537424
30
0.0000000000
10
77.8464927076
20
108.3763527791
30
0.0000000000
11
78.0120490881
21
108.3634591162
31
0.0000000000
11
77.9313756104
21
108.3665108220
31
0.0000000000
11
77.8464927076
21
108.3763527791
31
0.0000000000
0
SPLINE
5
477
100
AcDbEntity
8
0
100
AcDbSpline
62
9
6
CONTINUOUS
70
0
71
3
72
9
73
5
74
3
42
0.0000001000
43
0.0000001000
44
0.0000000001
40
0.0000000000
40
0.0000000000
40
0.0000000000
40
0.0000000000
40
0.2142540933
40
1.0000000000
40
1.0000000000
40
1.0000000000
40
1.0000000000
10
127.7488444578
20
117.3627106964
30
0.0000000000
10
127.7457666301
20
117.3601177138
30
0.0000000000
10
127.6918295998
20
117.3331008425
30
0.0000000000
10
127.6599018365
20
117.3227588392
30
0.0000000000
10
127.6319600953
20
117.3129076257
30
0.0000000000
11
127.7488444578
21
117.3627106964
31
0.0000000000
11
127.7236645024
21
117.3493062200
31
0.0000000000
11
127.6319600953
21
117.3129076257
31
0.0000000000
0
SPLINE
5
478
100
AcDbEntity
8
0
100
AcDbSpline
62
9
6
CONTINUOUS
70
0
71
3
72
9
73
5
74
3
42
0.0000001000
43
0.0000001000
44
0.0000000001
40
0.0000000000
40
0.0000000000
40
0.0000000000
40
0.0000000000
40
0.6106251516
40
1.0000000000
40
1.0000000000
40
1.0000000000
40
1.0000000000
10
127.6319600953
20
117.3129076257
30
0.0000000000
10
127.5848840548
20
117.2963103733
30
0.0000000000
10
127.4945193067
20
117.2611107317
30
0.0000000000
10
127.4087993227
20
117.2295930512
30
0.0000000000
10
127.3757148846
20
117.2175800278
30
0.0000000000
11
127.6319600953
21
117.3129076257
31
0.0000000000
11
127.4762579398
21
117.2546956677
31
0.0000000000
11
127.3757148846
21
117.2175800278
31
0.0000000000
0
SPLINE
5
479
100
AcDbEntity
8
0
100
AcDbSpline
62
9
6
CONTINUOUS
70
0
71
3
72
18
73
14
74
12
42
0.0000001000
43
0.0000001000
44
0.0000000001
40
0.0000000000
40
0.0000000000
40
0.0000000000
40
0.0000000000
40
0.0227162609
40
0.0751573801
40
0.1364023498
40
0.2057312574
40
0.2837432304
40
0.3717239383
40
0.4710634259
40
0.5831310597
40
0.7089624782
40
0.8481413298
40
1.0000000000
40
1.0000000000
40
1.0000000000
40
1.0000000000
10
127.3757148846
20
117.2175800278
30
0.0000000000
10
127.3372826319
20
117.2036252025
30
0.0000000000
10
127.2114355362
20
117.1586123499
30
0.0000000000
10
126.9780727665
20
117.0745535561
30
0.0000000000
10
126.6669793476
20
116.9642894974
30
0.0000000000
10
126.3113760531
20
116.8388642584
30
0.0000000000
10
125.9102017900
20
116.6982102087
30
0.0000000000
10
125.4575668355
20
116.5401927872
30
0.0000000000
10
124.9466502607
20
116.3625161228
30
0.0000000000
10
124.3709245858
20
116.1629680255
30
0.0000000000
10
123.7269838258
20
115.9404402094
30
0.0000000000
10
123.0148892805
20
115.6950130440
30
0.0000000000
10
122.5176165564
20
115.5240260380
30
0.0000000000
10
122.2581202375
20
115.4348876678
30
0.0000000000
11
127.3757148846
21
117.2175800278
31
0.0000000000
11
127.2609583765
21
117.1762959348
31
0.0000000000
11
126.9934012475
21
117.0803120739
31
0.0000000000
11
126.6805768575
21
116.9691936901
31
0.0000000000
11
126.3261804331
21
116.8442030080
31
0.0000000000
11
125.9271551024
21
116.7042479700
31
0.0000000000
11
125.4769183867
21
116.5470433735
31
0.0000000000
11
124.9683414999
21
116.3701517526
31
0.0000000000
11
124.3943934767
21
116.1711953436
31
0.0000000000
11
123.7497484391
21
115.9484005639
31
0.0000000000
11
123.0365207620
21
115.7025600804
31
0.0000000000
11
122.2581202375
21
115.4348876678
31
0.0000000000
0
SPLINE
5
47A
100
AcDbEntity
8
0
100
AcDbSpline
62
9
6
CONTINUOUS
70
0
71
3
72
10
73
6
74
4
42
0.0000001000
43
0.0000001000
44
0.0000000001
40
0.0000000000
40
0.0000000000
40
0.0000000000
40
0.0000000000
40
0.0588223335
40
0.2808509935
40
1.0000000000
40
1.0000000000
40
1.0000000000
40
1.0000000000
10
94.2894416429
20
108.3629067942
30
0.0000000000
10
94.2882076078
20
108.3628690338
30
0.0000000000
10
94.2856176285
20
108.3639318598
30
0.0000000000
10
94.3471557178
20
108.3940729707
30
0.0000000000
10
94.3797953334
20
108.4048617204
30
0.0000000000
10
94.4078342482
20
108.4148337125
30
0.0000000000
11
94.2894416429
21
108.3629067942
31
0.0000000000
11
94.2879944593
21
108.3636389514
31
0.0000000000
11
94.3151570927
21
108.3781108963
31
0.0000000000
11
94.4078342482
21
108.4148337125
31
0.0000000000
0
SPLINE
5
47B
100
AcDbEntity
8
0
100
AcDbSpline
62
9
6
CONTINUOUS
70
0
71
3
72
9
73
5
74
3
42
0.0000001000
43
0.0000001000
44
0.0000000001
40
0.0000000000
40
0.0000000000
40
0.0000000000
40
0.0000000000
40
0.6113522981
40
1.0000000000
40
1.0000000000
40
1.0000000000
40
1.0000000000
10
94.4078342482
20
108.4148337125
30
0.0000000000
10
94.4547951156
20
108.4315352646
30
0.0000000000
10
94.5458299083
20
108.4667846654
30
0.0000000000
10
94.6318629343
20
108.4983895785
30
0.0000000000
10
94.6649848648
20
108.5104170897
30
0.0000000000
11
94.4078342482
21
108.4148337125
31
0.0000000000
11
94.5642343566
21
108.4732727357
31
0.0000000000
11
94.6649848648
21
108.5104170897
31
0.0000000000
0
SPLINE
5
47C
100
AcDbEntity
8
0
100
AcDbSpline
62
9
6
CONTINUOUS
70
0
71
3
72
18
73
14
74
12
42
0.0000001000
43
0.0000001000
44
0.0000000001
40
0.0000000000
40
0.0000000000
40
0.0000000000
40
0.0000000000
40
0.0227591232
40
0.0752081559
40
0.1363965457
40
0.2056403137
40
0.2835828570
40
0.3715192714
40
0.4708416592
40
0.5829196405
40
0.7087796825
40
0.8480222265
40
1.0000000000
40
1.0000000000
40
1.0000000000
40
1.0000000000
10
94.6649848648
20
108.5104170897
30
0.0000000000
10
94.7034587794
20
108.5243880579
30
0.0000000000
10
94.8291941525
20
108.5694155672
30
0.0000000000
10
95.0625044589
20
108.6533961989
30
0.0000000000
10
95.3731534985
20
108.7635134873
30
0.0000000000
10
95.7281995614
20
108.8887312756
30
0.0000000000
10
96.1287948138
20
109.0291813436
30
0.0000000000
10
96.5809405821
20
109.1870255983
30
0.0000000000
10
97.0914675631
20
109.3645662797
30
0.0000000000
10
97.6668901097
20
109.5640087346
30
0.0000000000
10
98.3106245284
20
109.7864666401
30
0.0000000000
10
99.0226602830
20
110.0318680230
30
0.0000000000
10
99.5199460187
20
110.2028752251
30
0.0000000000
10
99.7794922309
20
110.2920305250
30
0.0000000000
11
94.6649848648
21
108.5104170897
31
0.0000000000
11
94.7798241449
21
108.5517571784
31
0.0000000000
11
95.0472676800
21
108.6476864419
31
0.0000000000
11
95.3596208565
21
108.7586287372
31
0.0000000000
11
95.7133742232
21
108.8833873939
31
0.0000000000
11
96.1118094509
21
109.0231323668
31
0.0000000000
11
96.5615537366
21
109.1801632170
31
0.0000000000
11
97.0697424114
21
109.3569189587
31
0.0000000000
11
97.6434038068
21
109.5557757438
31
0.0000000000
11
98.2878138727
21
109.7784893585
31
0.0000000000
11
99.0009455839
21
110.0242969781
31
0.0000000000
11
99.7794922309
21
110.2920305250
31
0.0000000000
0
SPLINE
5
47D
100
AcDbEntity
8
0
100
AcDbSpline
62
9
6
CONTINUOUS
70
0
71
3
72
18
73
14
74
12
42
0.0000001000
43
0.0000001000
44
0.0000000001
40
0.0000000000
40
0.0000000000
40
0.0000000000
40
0.0000000000
40
0.1518741339
40
0.2911282993
40
0.4170319494
40
0.5290909207
40
0.6284138860
40
0.7163726621
40
0.7943564030
40
0.8636442542
40
0.9248704820
40
0.9772927550
40
1.0000000000
40
1.0000000000
40
1.0000000000
40
1.0000000000
10
99.7795223922
20
115.4348876678
30
0.0000000000
10
99.5199895789
20
115.5240385534
30
0.0000000000
10
99.0225426301
20
115.6950860150
30
0.0000000000
10
98.3101420377
20
115.9406187543
30
0.0000000000
10
97.6659393450
20
116.1632377982
30
0.0000000000
10
97.0901113319
20
116.3628223554
30
0.0000000000
10
96.5792556822
20
116.5404789020
30
0.0000000000
10
96.1267172978
20
116.6984637157
30
0.0000000000
10
95.7256832974
20
116.8390696917
30
0.0000000000
10
95.3702168231
20
116.9644478546
30
0.0000000000
10
95.0592448772
20
117.0746695343
30
0.0000000000
10
94.8259543985
20
117.1587041008
30
0.0000000000
10
94.7001475406
20
117.2037021605
30
0.0000000000
10
94.6617290026
20
117.2176521736
30
0.0000000000
11
99.7795223922
21
115.4348876678
31
0.0000000000
11
99.0010125379
21
115.7025980733
31
0.0000000000
11
98.2873713334
21
115.9485813972
31
0.0000000000
11
97.6423314564
21
116.1715133536
31
0.0000000000
11
97.0684058541
21
116.3704629960
31
0.0000000000
11
96.5598941702
21
116.5473330135
31
0.0000000000
11
96.1097525800
21
116.7045055058
31
0.0000000000
11
95.7108565429
21
116.8444163351
31
0.0000000000
11
95.3566565929
21
116.9693387971
31
0.0000000000
11
95.0439161347
21
117.0804284126
31
0.0000000000
11
94.7764451639
21
117.1763825445
31
0.0000000000
11
94.6617290026
21
117.2176521736
31
0.0000000000
0
SPLINE
5
47E
100
AcDbEntity
8
0
100
AcDbSpline
62
9
6
CONTINUOUS
70
0
71
3
72
9
73
5
74
3
42
0.0000001000
43
0.0000001000
44
0.0000000001
40
0.0000000000
40
0.0000000000
40
0.0000000000
40
0.0000000000
40
0.3893771723
40
1.0000000000
40
1.0000000000
40
1.0000000000
40
1.0000000000
10
94.6617290026
20
117.2176521736
30
0.0000000000
10
94.6286562814
20
117.2296610868
30
0.0000000000
10
94.5429679567
20
117.2611680556
30
0.0000000000
10
94.4526412935
20
117.2963571148
30
0.0000000000
10
94.4055782197
20
117.3129479092
30
0.0000000000
11
94.6617290026
21
117.2176521736
31
0.0000000000
11
94.5612228865
21
117.2547555343
31
0.0000000000
11
94.4055782197
21
117.3129479092
31
0.0000000000
0
SPLINE
5
47F
100
AcDbEntity
8
0
100
AcDbSpline
62
9
6
CONTINUOUS
70
0
71
3
72
9
73
5
74
3
42
0.0000001000
43
0.0000001000
44
0.0000000001
40
0.0000000000
40
0.0000000000
40
0.0000000000
40
0.0000000000
40
0.7858435510
40
1.0000000000
40
1.0000000000
40
1.0000000000
40
1.0000000000
10
94.4055782197
20
117.3129479092
30
0.0000000000
10
94.3776544485
20
117.3227916680
30
0.0000000000
10
94.3457461447
20
117.3331245526
30
0.0000000000
10
94.2918759333
20
117.3601209874
30
0.0000000000
10
94.2888005361
20
117.3627123378
30
0.0000000000
11
94.4055782197
21
117.3129479092
31
0.0000000000
11
94.3139420010
21
117.3493223063
31
0.0000000000
11
94.2888005361
21
117.3627123378
31
0.0000000000
0
SPLINE
5
480
100
AcDbEntity
8
0
100
AcDbSpline
62
7
6
CONTINUOUS
70
0
71
3
72
8
73
4
74
2
42
0.0000001000
43
0.0000001000
44
0.0000000001
40
0.0000000000
40
0.0000000000
40
0.0000000000
40
0.0000000000
40
1.0000000000
40
1.0000000000
40
1.0000000000
40
1.0000000000
10
72.7301577849
20
108.5926873469
30
0.0000000000
10
72.6960505500
20
108.6033391829
30
0.0000000000
10
72.6620609777
20
108.6143651527
30
0.0000000000
10
72.6281990476
20
108.6257646203
30
0.0000000000
11
72.7301577849
21
108.5926873469
31
0.0000000000
11
72.6281990476
21
108.6257646203
31
0.0000000000
0
SPLINE
5
481
100
AcDbEntity
8
0
100
AcDbSpline
62
7
6
CONTINUOUS
70
0
71
3
72
9
73
5
74
3
42
0.0000001000
43
0.0000001000
44
0.0000000001
40
0.0000000000
40
0.0000000000
40
0.0000000000
40
0.0000000000
40
0.5031867441
40
1.0000000000
40
1.0000000000
40
1.0000000000
40
1.0000000000
10
72.6281990476
20
108.6257646203
30
0.0000000000
10
72.5811488955
20
108.6404821652
30
0.0000000000
10
72.4880686669
20
108.6711056500
30
0.0000000000
10
72.3959477449
20
108.7045058747
30
0.0000000000
10
72.3504472827
20
108.7217932874
30
0.0000000000
11
72.6281990476
21
108.6257646203
31
0.0000000000
11
72.4877183146
21
108.6720038904
31
0.0000000000
11
72.3504472827
21
108.7217932874
31
0.0000000000
0
SPLINE
5
482
100
AcDbEntity
8
0
100
AcDbSpline
62
7
6
CONTINUOUS
70
0
71
3
72
9
73
5
74
3
42
0.0000001000
43
0.0000001000
44
0.0000000001
40
0.0000000000
40
0.0000000000
40
0.0000000000
40
0.0000000000
40
0.5011551312
40
1.0000000000
40
1.0000000000
40
1.0000000000
40
1.0000000000
10
72.3504472827
20
108.7217932874
30
0.0000000000
10
72.3323136334
20
108.7273732805
30
0.0000000000
10
72.2962207956
20
108.7388051588
30
0.0000000000
10
72.2603261847
20
108.7508454136
30
0.0000000000
10
72.2424740952
20
108.7570063649
30
0.0000000000
11
72.3504472827
21
108.7217932874
31
0.0000000000
11
72.2961871976
21
108.7389843671
31
0.0000000000
11
72.2424740952
21
108.7570063649
31
0.0000000000
0
SPLINE
5
483
100
AcDbEntity
8
0
100
AcDbSpline
62
9
6
CONTINUOUS
70
0
71
3
72
18
73
14
74
12
42
0.0000001000
43
0.0000001000
44
0.0000000001
40
0.0000000000
40
0.0000000000
40
0.0000000000
40
0.0000000000
40
0.1518294145
40
0.2909730840
40
0.4168032487
40
0.5288860413
40
0.6282344946
40
0.7162105606
40
0.7941992840
40
0.8634905458
40
0.9247246309
40
0.9772183042
40
1.0000000000
40
1.0000000000
40
1.0000000000
40
1.0000000000
10
122.2581199281
20
110.2920305250
30
0.0000000000
10
122.5173869413
20
110.2029710621
30
0.0000000000
10
123.0142058715
20
110.0321400911
30
0.0000000000
10
123.7256962645
20
109.7869219549
30
0.0000000000
10
124.3691559548
20
109.5645617904
30
0.0000000000
10
124.9445234076
20
109.3651399691
30
0.0000000000
10
125.4551204682
20
109.1875769928
30
0.0000000000
10
125.9074127214
20
109.0296837771
30
0.0000000000
10
126.3081957078
20
108.8891700398
30
0.0000000000
10
126.6634453718
20
108.7638832828
30
0.0000000000
10
126.9742961168
20
108.6536958328
30
0.0000000000
10
127.2077830960
20
108.5696574263
30
0.0000000000
10
127.3336107614
20
108.5245943804
30
0.0000000000
10
127.3721186007
20
108.5106114352
30
0.0000000000
11
122.2581199281
21
110.2920305250
31
0.0000000000
11
123.0358325736
21
110.0245949448
31
0.0000000000
11
123.7483872778
21
109.7789872455
31
0.0000000000
11
124.3925807103
21
109.5563500345
31
0.0000000000
11
124.9662101966
21
109.3575061625
31
0.0000000000
11
125.4744822695
21
109.1807234575
31
0.0000000000
11
125.9243852361
21
109.0236393771
31
0.0000000000
11
126.3230175655
21
108.8838275761
31
0.0000000000
11
126.6769791019
21
108.7589979649
31
0.0000000000
11
126.9895352771
21
108.6479862660
31
0.0000000000
11
127.2571807750
21
108.5519876475
31
0.0000000000
11
127.3721186007
21
108.5106114352
31
0.0000000000
0
SPLINE
5
484
100
AcDbEntity
8
0
100
AcDbSpline
62
9
6
CONTINUOUS
70
0
71
3
72
9
73
5
74
3
42
0.0000001000
43
0.0000001000
44
0.0000000001
40
0.0000000000
40
0.0000000000
40
0.0000000000
40
0.0000000000
40
0.3885941236
40
1.0000000000
40
1.0000000000
40
1.0000000000
40
1.0000000000
10
127.3721186007
20
108.5106114352
30
0.0000000000
10
127.4052704587
20
108.4985733510
30
0.0000000000
10
127.4913967132
20
108.4669370597
30
0.0000000000
10
127.5825525519
20
108.4316562583
30
0.0000000000
10
127.6295462006
20
108.4149342564
30
0.0000000000
11
127.3721186007
21
108.5106114352
31
0.0000000000
11
127.4729662658
21
108.4734356565
31
0.0000000000
11
127.6295462006
21
108.4149342564
31
0.0000000000
0
SPLINE
5
485
100
AcDbEntity
8
0
100
AcDbSpline
62
9
6
CONTINUOUS
70
0
71
3
72
10
73
6
74
4
42
0.0000001000
43
0.0000001000
44
0.0000000001
40
0.0000000000
40
0.0000000000
40
0.0000000000
40
0.0000000000
40
0.7189303570
40
0.9414457150
40
1.0000000000
40
1.0000000000
40
1.0000000000
40
1.0000000000
10
127.6295462006
20
108.4149342564
30
0.0000000000
10
127.6576181866
20
108.4049452511
30
0.0000000000
10
127.6902948853
20
108.3941303436
30
0.0000000000
10
127.7520548441
20
108.3639372250
30
0.0000000000
10
127.7494354388
20
108.3628811045
30
0.0000000000
10
127.7482018075
20
108.3629197009
30
0.0000000000
11
127.6295462006
21
108.4149342564
31
0.0000000000
11
127.7223761323
21
108.3781582522
31
0.0000000000
11
127.7496597667
21
108.3636436131
31
0.0000000000
11
127.7482018075
21
108.3629197009
31
0.0000000000
0
SPLINE
5
486
100
AcDbEntity
8
0
100
AcDbSpline
62
7
6
CONTINUOUS
70
0
71
3
72
8
73
4
74
2
42
0.0000001000
43
0.0000001000
44
0.0000000001
40
0.0000000000
40
0.0000000000
40
0.0000000000
40
0.0000000000
40
1.0000000000
40
1.0000000000
40
1.0000000000
40
1.0000000000
10
75.2640295501
20
108.3869232781
30
0.0000000000
10
75.2269132786
20
108.3910133821
30
0.0000000000
10
75.1898564788
20
108.3956358340
30
0.0000000000
10
75.1528762074
20
108.4007877747
30
0.0000000000
11
75.2640295501
21
108.3869232781
31
0.0000000000
11
75.1528762074
21
108.4007877747
31
0.0000000000
0
SPLINE
5
487
100
AcDbEntity
8
0
100
AcDbSpline
62
7
6
CONTINUOUS
70
0
71
3
72
10
73
6
74
4
42
0.0000001000
43
0.0000001000
44
0.0000000001
40
0.0000000000
40
0.0000000000
40
0.0000000000
40
0.0000000000
40
0.3332071868
40
0.6665389147
40
1.0000000000
40
1.0000000000
40
1.0000000000
40
1.0000000000
10
75.1528762074
20
108.4007877747
30
0.0000000000
10
75.1237590045
20
108.4003917751
30
0.0000000000
10
75.0655119131
20
108.3997266311
30
0.0000000000
10
74.9781212090
20
108.3990955097
30
0.0000000000
10
74.9198484372
20
108.3989132045
30
0.0000000000
10
74.8907063705
20
108.3988810179
30
0.0000000000
11
75.1528762074
21
108.4007877747
31
0.0000000000
11
75.0655222432
21
108.3997878518
31
0.0000000000
11
74.9781321942
21
108.3991551987
31
0.0000000000
11
74.8907063705
21
108.3988810179
31
0.0000000000
0
SPLINE
5
488
100
AcDbEntity
8
0
100
AcDbSpline
62
7
6
CONTINUOUS
70
0
71
3
72
10
73
6
74
4
42
0.0000001000
43
0.0000001000
44
0.0000000001
40
0.0000000000
40
0.0000000000
40
0.0000000000
40
0.0000000000
40
0.3327640378
40
0.6662023408
40
1.0000000000
40
1.0000000000
40
1.0000000000
40
1.0000000000
10
74.8907063705
20
108.3988810179
30
0.0000000000
10
74.8193819053
20
108.4085646271
30
0.0000000000
10
74.6770925743
20
108.4319079978
30
0.0000000000
10
74.4658002781
20
108.4786683149
30
0.0000000000
10
74.3267269628
20
108.5175786100
30
0.0000000000
10
74.2577528862
20
108.5389272440
30
0.0000000000
11
74.8907063705
21
108.3988810179
31
0.0000000000
11
74.6776172911
21
108.4338325379
31
0.0000000000
11
74.4663528193
21
108.4805769681
31
0.0000000000
11
74.2577528862
21
108.5389272440
31
0.0000000000
0
SPLINE
5
489
100
AcDbEntity
8
0
100
AcDbSpline
62
7
6
CONTINUOUS
70
0
71
3
72
9
73
5
74
3
42
0.0000001000
43
0.0000001000
44
0.0000000001
40
0.0000000000
40
0.0000000000
40
0.0000000000
40
0.0000000000
40
0.5000359518
40
1.0000000000
40
1.0000000000
40
1.0000000000
40
1.0000000000
10
74.2577528862
20
108.5389272440
30
0.0000000000
10
74.2378899987
20
108.5388788725
30
0.0000000000
10
74.1981666937
20
108.5389030573
30
0.0000000000
10
74.1584442712
20
108.5391691399
30
0.0000000000
10
74.1385851256
20
108.5393628334
30
0.0000000000
11
74.2577528862
21
108.5389272440
31
0.0000000000
11
74.1981640581
21
108.5389635422
31
0.0000000000
11
74.1385851256
21
108.5393628334
31
0.0000000000
0
SPLINE
5
48A
100
AcDbEntity
8
0
100
AcDbSpline
62
9
6
CONTINUOUS
70
0
71
3
72
8
73
4
74
2
42
0.0000001000
43
0.0000001000
44
0.0000000001
40
0.0000000000
40
0.0000000000
40
0.0000000000
40
0.0000000000
40
1.0000000000
40
1.0000000000
40
1.0000000000
40
1.0000000000
10
100.1378890341
20
109.8634590964
30
0.0000000000
10
100.1097022580
20
109.8634621097
30
0.0000000000
10
100.0822895397
20
109.8757298858
30
0.0000000000
10
100.0580381547
20
109.8912850963
30
0.0000000000
11
100.1378890341
21
109.8634590964
31
0.0000000000
11
100.0580381547
21
109.8912850963
31
0.0000000000
0
SPLINE
5
48B
100
AcDbEntity
8
0
100
AcDbSpline
62
9
6
CONTINUOUS
70
0
71
3
72
8
73
4
74
2
42
0.0000001000
43
0.0000001000
44
0.0000000001
40
0.0000000000
40
0.0000000000
40
0.0000000000
40
0.0000000000
40
1.0000000000
40
1.0000000000
40
1.0000000000
40
1.0000000000
10
100.0580381547
20
109.8912850963
30
0.0000000000
10
100.0420132933
20
109.9015636884
30
0.0000000000
10
100.0273687708
20
109.9132776792
30
0.0000000000
10
100.0136974653
20
109.9259565634
30
0.0000000000
11
100.0580381547
21
109.8912850963
31
0.0000000000
11
100.0136974653
21
109.9259565634
31
0.0000000000
0
SPLINE
5
48C
100
AcDbEntity
8
0
100
AcDbSpline
62
9
6
CONTINUOUS
70
0
71
3
72
10
73
6
74
4
42
0.0000001000
43
0.0000001000
44
0.0000000001
40
0.0000000000
40
0.0000000000
40
0.0000000000
40
0.0000000000
40
0.1534944373
40
0.5333642758
40
1.0000000000
40
1.0000000000
40
1.0000000000
40
1.0000000000
10
100.0136974653
20
109.9259565634
30
0.0000000000
10
99.9972978412
20
109.9411657134
30
0.0000000000
10
99.9451784212
20
109.9988392142
30
0.0000000000
10
99.8632541589
20
110.1200168204
30
0.0000000000
10
99.8081341851
20
110.2304203097
30
0.0000000000
10
99.7795401220
20
110.2920305250
30
0.0000000000
11
100.0136974653
21
109.9259565634
31
0.0000000000
11
99.9679971024
21
109.9749371831
31
0.0000000000
11
99.8732278588
21
110.1110787092
31
0.0000000000
11
99.7795401220
21
110.2920305250
31
0.0000000000
0
SPLINE
5
48D
100
AcDbEntity
8
0
100
AcDbSpline
62
9
6
CONTINUOUS
70
0
71
3
72
9
73
5
74
3
42
0.0000001000
43
0.0000001000
44
0.0000000001
40
0.0000000000
40
0.0000000000
40
0.0000000000
40
0.0000000000
40
0.6666179420
40
1.0000000000
40
1.0000000000
40
1.0000000000
40
1.0000000000
10
100.1378890348
20
109.8634914247
30
0.0000000000
10
100.1107735912
20
109.8634916383
30
0.0000000000
10
100.0700752054
20
109.8617512354
30
0.0000000000
10
100.0296106983
20
109.8574114026
30
0.0000000000
10
100.0161575843
20
109.8556773229
30
0.0000000000
11
100.1378890348
21
109.8634914247
31
0.0000000000
11
100.0566169737
21
109.8600161374
31
0.0000000000
11
100.0161575843
21
109.8556773229
31
0.0000000000
0
SPLINE
5
48E
100
AcDbEntity
8
0
100
AcDbSpline
62
9
6
CONTINUOUS
70
0
71
3
72
9
73
5
74
3
42
0.0000001000
43
0.0000001000
44
0.0000000001
40
0.0000000000
40
0.0000000000
40
0.0000000000
40
0.0000000000
40
0.3332091537
40
1.0000000000
40
1.0000000000
40
1.0000000000
40
1.0000000000
10
100.0161575843
20
109.8556773229
30
0.0000000000
10
100.0027009547
20
109.8539427901
30
0.0000000000
10
99.9624272002
20
109.8478747086
30
0.0000000000
10
99.9225865514
20
109.8392329287
30
0.0000000000
10
99.8963288157
20
109.8323548032
30
0.0000000000
11
100.0161575843
21
109.8556773229
31
0.0000000000
11
99.9759098744
21
109.8496131561
31
0.0000000000
11
99.8963288157
21
109.8323548032
31
0.0000000000
0
SPLINE
5
48F
100
AcDbEntity
8
0
100
AcDbSpline
62
9
6
CONTINUOUS
70
0
71
3
72
11
73
7
74
5
42
0.0000001000
43
0.0000001000
44
0.0000000001
40
0.0000000000
40
0.0000000000
40
0.0000000000
40
0.0000000000
40
0.0963016150
40
0.2966863317
40
0.6026200225
40
1.0000000000
40
1.0000000000
40
1.0000000000
40
1.0000000000
10
99.8963288157
20
109.8323548032
30
0.0000000000
10
99.8811167369
20
109.8351307005
30
0.0000000000
10
99.8537788638
20
109.8844797326
30
0.0000000000
10
99.8282284561
20
109.9718224604
30
0.0000000000
10
99.8002579574
20
110.1174129628
30
0.0000000000
10
99.7859551882
20
110.2285790837
30
0.0000000000
10
99.7795134120
20
110.2920609105
30
0.0000000000
11
99.8963288157
21
109.8323548032
31
0.0000000000
11
99.8649244641
21
109.8664983710
31
0.0000000000
11
99.8336114854
21
109.9578064996
31
0.0000000000
11
99.8045009298
21
110.1022753123
31
0.0000000000
11
99.7795134120
21
110.2920609105
31
0.0000000000
0
SPLINE
5
490
100
AcDbEntity
8
0
100
AcDbSpline
62
9
6
CONTINUOUS
70
0
71
3
72
8
73
4
74
2
42
0.0000001000
43
0.0000001000
44
0.0000000001
40
0.0000000000
40
0.0000000000
40
0.0000000000
40
0.0000000000
40
1.0000000000
40
1.0000000000
40
1.0000000000
40
1.0000000000
10
99.8916555437
20
109.8293839159
30
0.0000000000
10
99.8929322650
20
109.8297263940
30
0.0000000000
10
99.8959609868
20
109.8303327175
30
0.0000000000
10
99.8970029373
20
109.8307827763
30
0.0000000000
11
99.8916555437
21
109.8293839159
31
0.0000000000
11
99.8970029373
21
109.8307827763
31
0.0000000000
0
SPLINE
5
491
100
AcDbEntity
8
0
100
AcDbSpline
62
7
6
CONTINUOUS
70
0
71
3
72
9
73
5
74
3
42
0.0000001000
43
0.0000001000
44
0.0000000001
40
0.0000000000
40
0.0000000000
40
0.0000000000
40
0.0000000000
40
0.5000109190
40
1.0000000000
40
1.0000000000
40
1.0000000000
40
1.0000000000
10
72.2424740952
20
108.7570063649
30
0.0000000000
10
72.2393978739
20
108.7568892566
30
0.0000000000
10
72.2332405530
20
108.7567720042
30
0.0000000000
10
72.2270832323
20
108.7568892617
30
0.0000000000
10
72.2240071453
20
108.7570063649
30
0.0000000000
11
72.2424740952
21
108.7570063649
31
0.0000000000
11
72.2332404186
21
108.7568306317
31
0.0000000000
11
72.2240071453
21
108.7570063649
31
0.0000000000
0
SPLINE
5
492
100
AcDbEntity
8
0
100
AcDbSpline
62
9
6
CONTINUOUS
70
0
71
3
72
8
73
4
74
2
42
0.0000001000
43
0.0000001000
44
0.0000000001
40
0.0000000000
40
0.0000000000
40
0.0000000000
40
0.0000000000
40
1.0000000000
40
1.0000000000
40
1.0000000000
40
1.0000000000
10
121.8997546320
20
115.8634590964
30
0.0000000000
10
121.9279409777
20
115.8634549788
30
0.0000000000
10
121.9553534716
20
115.8511884980
30
0.0000000000
10
121.9796044484
20
115.8356339687
30
0.0000000000
11
121.8997546320
21
115.8634590964
31
0.0000000000
11
121.9796044484
21
115.8356339687
31
0.0000000000
0
SPLINE
5
493
100
AcDbEntity
8
0
100
AcDbSpline
62
9
6
CONTINUOUS
70
0
71
3
72
8
73
4
74
2
42
0.0000001000
43
0.0000001000
44
0.0000000001
40
0.0000000000
40
0.0000000000
40
0.0000000000
40
0.0000000000
40
1.0000000000
40
1.0000000000
40
1.0000000000
40
1.0000000000
10
121.9796044484
20
115.8356339687
30
0.0000000000
10
121.9956252998
20
115.8253582258
30
0.0000000000
10
122.0102663762
20
115.8136474861
30
0.0000000000
10
122.0239346465
20
115.8009721505
30
0.0000000000
11
121.9796044484
21
115.8356339687
31
0.0000000000
11
122.0239346465
21
115.8009721505
31
0.0000000000
0
SPLINE
5
494
100
AcDbEntity
8
0
100
AcDbSpline
62
9
6
CONTINUOUS
70
0
71
3
72
10
73
6
74
4
42
0.0000001000
43
0.0000001000
44
0.0000000001
40
0.0000000000
40
0.0000000000
40
0.0000000000
40
0.0000000000
40
0.1534417400
40
0.5332175609
40
1.0000000000
40
1.0000000000
40
1.0000000000
40
1.0000000000
10
122.0239346465
20
115.8009721505
30
0.0000000000
10
122.0403296635
20
115.7857681534
30
0.0000000000
10
122.0924392592
20
115.7281106780
30
0.0000000000
10
122.1743738064
20
115.6069340639
30
0.0000000000
10
122.2295015578
20
115.4965203275
30
0.0000000000
10
122.2581037571
20
115.4348876678
30
0.0000000000
11
122.0239346465
21
115.8009721505
31
0.0000000000
11
122.0696230680
21
115.7520084404
31
0.0000000000
11
122.1643802088
21
115.6159012901
31
0.0000000000
11
122.2581037571
21
115.4348876678
31
0.0000000000
0
SPLINE
5
495
100
AcDbEntity
8
0
100
AcDbSpline
62
7
6
CONTINUOUS
70
0
71
3
72
9
73
5
74
3
42
0.0000001000
43
0.0000001000
44
0.0000000001
40
0.0000000000
40
0.0000000000
40
0.0000000000
40
0.0000000000
40
0.4992208099
40
1.0000000000
40
1.0000000000
40
1.0000000000
40
1.0000000000
10
77.8464927076
20
108.3763527791
30
0.0000000000
10
77.8174314408
20
108.3796368736
30
0.0000000000
10
77.7593526045
20
108.3874636215
30
0.0000000000
10
77.7016596798
20
108.3977540054
30
0.0000000000
10
77.6728928534
20
108.4035125344
30
0.0000000000
11
77.8464927076
21
108.3763527791
31
0.0000000000
11
77.7595392908
21
108.3880654153
31
0.0000000000
11
77.6728928534
21
108.4035125344
31
0.0000000000
0
SPLINE
5
496
100
AcDbEntity
8
0
100
AcDbSpline
62
7
6
CONTINUOUS
70
0
71
3
72
9
73
5
74
3
42
0.0000001000
43
0.0000001000
44
0.0000000001
40
0.0000000000
40
0.0000000000
40
0.0000000000
40
0.0000000000
40
0.4992378137
40
1.0000000000
40
1.0000000000
40
1.0000000000
40
1.0000000000
10
77.6728928534
20
108.4035125344
30
0.0000000000
10
77.6258197200
20
108.4111758667
30
0.0000000000
10
77.5318716078
20
108.4287038351
30
0.0000000000
10
77.4388262982
20
108.4505197955
30
0.0000000000
10
77.3925111929
20
108.4624959948
30
0.0000000000
11
77.6728928534
21
108.4035125344
31
0.0000000000
11
77.5322398328
21
108.4297458482
31
0.0000000000
11
77.3925111929
21
108.4624959948
31
0.0000000000
0
SPLINE
5
497
100
AcDbEntity
8
0
100
AcDbSpline
62
7
6
CONTINUOUS
70
0
71
3
72
9
73
5
74
3
42
0.0000001000
43
0.0000001000
44
0.0000000001
40
0.0000000000
40
0.0000000000
40
0.0000000000
40
0.0000000000
40
0.5003771995
40
1.0000000000
40
1.0000000000
40
1.0000000000
40
1.0000000000
10
77.3925111929
20
108.4624959948
30
0.0000000000
10
77.3510321926
20
108.4714927315
30
0.0000000000
10
77.2683958090
20
108.4906886913
30
0.0000000000
10
77.1863577182
20
108.5122989709
30
0.0000000000
10
77.1455388511
20
108.5236937491
30
0.0000000000
11
77.3925111929
21
108.4624959948
31
0.0000000000
11
77.2684832671
21
108.4913076637
31
0.0000000000
11
77.1455388511
21
108.5236937491
31
0.0000000000
0
SPLINE
5
498
100
AcDbEntity
8
0
100
AcDbSpline
62
7
6
CONTINUOUS
70
0
71
3
72
9
73
5
74
3
42
0.0000001000
43
0.0000001000
44
0.0000000001
40
0.0000000000
40
0.0000000000
40
0.0000000000
40
0.0000000000
40
0.5031852596
40
1.0000000000
40
1.0000000000
40
1.0000000000
40
1.0000000000
10
77.1455388511
20
108.5236937491
30
0.0000000000
10
77.0794824868
20
108.5389722041
30
0.0000000000
10
76.9487107224
20
108.5715625543
30
0.0000000000
10
76.8191314645
20
108.6086124258
30
0.0000000000
10
76.7550969762
20
108.6281265021
30
0.0000000000
11
77.1455388511
21
108.5236937491
31
0.0000000000
11
76.9481795755
21
108.5728993021
31
0.0000000000
11
76.7550969762
21
108.6281265021
31
0.0000000000
0
SPLINE
5
499
100
AcDbEntity
8
0
100
AcDbSpline
62
9
6
CONTINUOUS
70
0
71
3
72
8
73
4
74
2
42
0.0000001000
43
0.0000001000
44
0.0000000001
40
0.0000000000
40
0.0000000000
40
0.0000000000
40
0.0000000000
40
1.0000000000
40
1.0000000000
40
1.0000000000
40
1.0000000000
10
121.8997546159
20
109.8634551089
30
0.0000000000
10
121.9133129498
20
109.8634555494
30
0.0000000000
10
121.9268749988
20
109.8631658893
30
0.0000000000
10
121.9404259167
20
109.8625867751
30
0.0000000000
11
121.8997546159
21
109.8634551089
31
0.0000000000
11
121.9404259167
21
109.8625867751
31
0.0000000000
0
SPLINE
5
49A
100
AcDbEntity
8
0
100
AcDbSpline
62
9
6
CONTINUOUS
70
0
71
3
72
9
73
5
74
3
42
0.0000001000
43
0.0000001000
44
0.0000000001
40
0.0000000000
40
0.0000000000
40
0.0000000000
40
0.0000000000
40
0.4999364636
40
1.0000000000
40
1.0000000000
40
1.0000000000
40
1.0000000000
10
121.9404259167
20
109.8625867751
30
0.0000000000
10
121.9539753811
20
109.8620077230
30
0.0000000000
10
121.9810554935
20
109.8602706142
30
0.0000000000
10
122.0080316990
20
109.8573782299
30
0.0000000000
10
122.0214844989
20
109.8556446035
30
0.0000000000
11
121.9404259167
21
109.8625867751
31
0.0000000000
11
121.9810260822
21
109.8599820894
31
0.0000000000
11
122.0214844989
21
109.8556446035
31
0.0000000000
0
SPLINE
5
49B
100
AcDbEntity
8
0
100
AcDbSpline
62
9
6
CONTINUOUS
70
0
71
3
72
9
73
5
74
3
42
0.0000001000
43
0.0000001000
44
0.0000000001
40
0.0000000000
40
0.0000000000
40
0.0000000000
40
0.0000000000
40
0.3332130207
40
1.0000000000
40
1.0000000000
40
1.0000000000
40
1.0000000000
10
122.0214844989
20
109.8556446035
30
0.0000000000
10
122.0349406507
20
109.8539105453
30
0.0000000000
10
122.0752125357
20
109.8478440002
30
0.0000000000
10
122.1150514140
20
109.8392038439
30
0.0000000000
10
122.1413078418
20
109.8323268095
30
0.0000000000
11
122.0214844989
21
109.8556446035
31
0.0000000000
11
122.0617308064
21
109.8495818912
31
0.0000000000
11
122.1413078418
21
109.8323268095
31
0.0000000000
0
SPLINE
5
49C
100
AcDbEntity
8
0
100
AcDbSpline
62
9
6
CONTINUOUS
70
0
71
3
72
8
73
4
74
2
42
0.0000001000
43
0.0000001000
44
0.0000000001
40
0.0000000000
40
0.0000000000
40
0.0000000000
40
0.0000000000
40
1.0000000000
40
1.0000000000
40
1.0000000000
40
1.0000000000
10
122.1413078418
20
109.8323268095
30
0.0000000000
10
122.1394956908
20
109.8319942615
30
0.0000000000
10
122.1442099886
20
109.8298664462
30
0.0000000000
10
122.1459892999
20
109.8293883977
30
0.0000000000
11
122.1413078418
21
109.8323268095
31
0.0000000000
11
122.1459892999
21
109.8293883977
31
0.0000000000
0
SPLINE
5
49D
100
AcDbEntity
8
0
100
AcDbSpline
62
9
6
CONTINUOUS
70
0
71
3
72
11
73
7
74
5
42
0.0000001000
43
0.0000001000
44
0.0000000001
40
0.0000000000
40
0.0000000000
40
0.0000000000
40
0.0000000000
40
0.3973668971
40
0.7033082837
40
0.9036968995
40
1.0000000000
40
1.0000000000
40
1.0000000000
40
1.0000000000
10
122.2581301449
20
110.2920607308
30
0.0000000000
10
122.2516858661
20
110.2285813032
30
0.0000000000
10
122.2373863886
20
110.1174158308
30
0.0000000000
10
122.2094158484
20
109.9718253778
30
0.0000000000
10
122.1838651129
20
109.8844810554
30
0.0000000000
10
122.1565271387
20
109.8351306282
30
0.0000000000
10
122.1413148163
20
109.8323547832
30
0.0000000000
11
122.2581301449
21
110.2920607308
31
0.0000000000
11
122.2331433534
21
110.1022814951
31
0.0000000000
11
122.2040327208
21
109.9578089962
31
0.0000000000
11
122.1727194389
21
109.8664990403
31
0.0000000000
11
122.1413148163
21
109.8323547832
31
0.0000000000
0
SPLINE
5
49E
100
AcDbEntity
8
0
100
AcDbSpline
62
9
6
CONTINUOUS
70
0
71
3
72
10
73
6
74
4
42
0.0000001000
43
0.0000001000
44
0.0000000001
40
0.0000000000
40
0.0000000000
40
0.0000000000
40
0.0000000000
40
0.4666224501
40
0.8465017060
40
1.0000000000
40
1.0000000000
40
1.0000000000
40
1.0000000000
10
122.2581035966
20
110.2920305250
30
0.0000000000
10
122.2295130417
20
110.2304211840
30
0.0000000000
10
122.1743904039
20
110.1200202495
30
0.0000000000
10
122.0924679727
20
109.9988424499
30
0.0000000000
10
122.0403477987
20
109.9411675947
30
0.0000000000
10
122.0239479024
20
109.9259580722
30
0.0000000000
11
122.2581035966
21
110.2920305250
31
0.0000000000
11
122.1644194660
21
110.1110845103
31
0.0000000000
11
122.0696489251
21
109.9749398818
31
0.0000000000
11
122.0239479024
21
109.9259580722
31
0.0000000000
0
SPLINE
5
49F
100
AcDbEntity
8
0
100
AcDbSpline
62
9
6
CONTINUOUS
70
0
71
3
72
8
73
4
74
2
42
0.0000001000
43
0.0000001000
44
0.0000000001
40
0.0000000000
40
0.0000000000
40
0.0000000000
40
0.0000000000
40
1.0000000000
40
1.0000000000
40
1.0000000000
40
1.0000000000
10
122.0239479024
20
109.9259580722
30
0.0000000000
10
122.0102764004
20
109.9132789056
30
0.0000000000
10
121.9956316499
20
109.9015646428
30
0.0000000000
10
121.9796065327
20
109.8912857810
30
0.0000000000
11
122.0239479024
21
109.9259580722
31
0.0000000000
11
121.9796065327
21
109.8912857810
31
0.0000000000
0
SPLINE
5
4A0
100
AcDbEntity
8
0
100
AcDbSpline
62
9
6
CONTINUOUS
70
0
71
3
72
8
73
4
74
2
42
0.0000001000
43
0.0000001000
44
0.0000000001
40
0.0000000000
40
0.0000000000
40
0.0000000000
40
0.0000000000
40
1.0000000000
40
1.0000000000
40
1.0000000000
40
1.0000000000
10
121.9796065327
20
109.8912857810
30
0.0000000000
10
121.9553548498
20
109.8757302194
30
0.0000000000
10
121.9279417933
20
109.8634620731
30
0.0000000000
10
121.8997546154
20
109.8634590964
30
0.0000000000
11
121.9796065327
21
109.8912857810
31
0.0000000000
11
121.8997546154
21
109.8634590964
31
0.0000000000
0
SPLINE
5
4A1
100
AcDbEntity
8
0
100
AcDbSpline
62
7
6
CONTINUOUS
70
0
71
3
72
9
73
5
74
3
42
0.0000001000
43
0.0000001000
44
0.0000000001
40
0.0000000000
40
0.0000000000
40
0.0000000000
40
0.0000000000
40
0.5045473073
40
1.0000000000
40
1.0000000000
40
1.0000000000
40
1.0000000000
10
76.7550969762
20
108.6281265021
30
0.0000000000
10
76.6946876996
20
108.6429186043
30
0.0000000000
10
76.5752890298
20
108.6736062300
30
0.0000000000
10
76.4566399956
20
108.7070768961
30
0.0000000000
10
76.3980633839
20
108.7243591845
30
0.0000000000
11
76.7550969762
21
108.6281265021
31
0.0000000000
11
76.5743939781
21
108.6745937951
31
0.0000000000
11
76.3980633839
21
108.7243591845
31
0.0000000000
0
SPLINE
5
4A2
100
AcDbEntity
8
0
100
AcDbSpline
62
7
6
CONTINUOUS
70
0
71
3
72
9
73
5
74
3
42
0.0000001000
43
0.0000001000
44
0.0000000001
40
0.0000000000
40
0.0000000000
40
0.0000000000
40
0.0000000000
40
0.5022525650
40
1.0000000000
40
1.0000000000
40
1.0000000000
40
1.0000000000
10
76.3980633839
20
108.7243591845
30
0.0000000000
10
76.3555768857
20
108.7297018131
30
0.0000000000
10
76.2710233678
20
108.7406468413
30
0.0000000000
10
76.1865548634
20
108.7522302987
30
0.0000000000
10
76.1445342798
20
108.7581606642
30
0.0000000000
11
76.3980633839
21
108.7243591845
31
0.0000000000
11
76.2706638885
21
108.7408571987
31
0.0000000000
11
76.1445342798
21
108.7581606642
31
0.0000000000
0
SPLINE
5
4A3
100
AcDbEntity
8
0
100
AcDbSpline
62
7
6
CONTINUOUS
70
0
71
3
72
10
73
6
74
4
42
0.0000001000
43
0.0000001000
44
0.0000000001
40
0.0000000000
40
0.0000000000
40
0.0000000000
40
0.0000000000
40
0.3341953232
40
0.6675029712
40
1.0000000000
40
1.0000000000
40
1.0000000000
40
1.0000000000
10
76.1445342798
20
108.7581606642
30
0.0000000000
10
76.0464339144
20
108.7568662316
30
0.0000000000
10
75.8504634475
20
108.7561693477
30
0.0000000000
10
75.5569154967
20
108.7607541228
30
0.0000000000
10
75.3615617444
20
108.7676100953
30
0.0000000000
10
75.2640509934
20
108.7720182788
30
0.0000000000
11
76.1445342798
21
108.7581606642
31
0.0000000000
11
75.8502094391
21
108.7571102296
31
0.0000000000
11
75.5567005586
21
108.7617110080
31
0.0000000000
11
75.2640509934
21
108.7720182788
31
0.0000000000
0
SPLINE
5
4A4
100
AcDbEntity
8
0
100
AcDbSpline
62
9
6
CONTINUOUS
70
0
71
3
72
8
73
4
74
2
42
0.0000001000
43
0.0000001000
44
0.0000000001
40
0.0000000000
40
0.0000000000
40
0.0000000000
40
0.0000000000
40
1.0000000000
40
1.0000000000
40
1.0000000000
40
1.0000000000
10
100.1378890149
20
115.8634630793
30
0.0000000000
10
100.1243306832
20
115.8634626392
30
0.0000000000
10
100.1107686363
20
115.8637522998
30
0.0000000000
10
100.0972177205
20
115.8643314143
30
0.0000000000
11
100.1378890149
21
115.8634630793
31
0.0000000000
11
100.0972177205
21
115.8643314143
31
0.0000000000
0
SPLINE
5
4A5
100
AcDbEntity
8
0
100
AcDbSpline
62
9
6
CONTINUOUS
70
0
71
3
72
9
73
5
74
3
42
0.0000001000
43
0.0000001000
44
0.0000000001
40
0.0000000000
40
0.0000000000
40
0.0000000000
40
0.0000000000
40
0.4999364623
40
1.0000000000
40
1.0000000000
40
1.0000000000
40
1.0000000000
10
100.0972177205
20
115.8643314143
30
0.0000000000
10
100.0836682582
20
115.8649104667
30
0.0000000000
10
100.0565881498
20
115.8666475759
30
0.0000000000
10
100.0296119483
20
115.8695399602
30
0.0000000000
10
100.0161591504
20
115.8712735864
30
0.0000000000
11
100.0972177205
21
115.8643314143
31
0.0000000000
11
100.0566175612
21
115.8669361005
31
0.0000000000
11
100.0161591504
21
115.8712735864
31
0.0000000000
0
SPLINE
5
4A6
100
AcDbEntity
8
0
100
AcDbSpline
62
9
6
CONTINUOUS
70
0
71
3
72
9
73
5
74
3
42
0.0000001000
43
0.0000001000
44
0.0000000001
40
0.0000000000
40
0.0000000000
40
0.0000000000
40
0.0000000000
40
0.3332130194
40
1.0000000000
40
1.0000000000
40
1.0000000000
40
1.0000000000
10
100.0161591504
20
115.8712735864
30
0.0000000000
10
100.0027030006
20
115.8730076446
30
0.0000000000
10
99.9624311212
20
115.8790741891
30
0.0000000000
10
99.9225922482
20
115.8877143439
30
0.0000000000
10
99.8963358239
20
115.8945913769
30
0.0000000000
11
100.0161591504
21
115.8712735864
31
0.0000000000
11
99.9759128486
21
115.8773362981
31
0.0000000000
11
99.8963358239
21
115.8945913769
31
0.0000000000
0
SPLINE
5
4A7
100
AcDbEntity
8
0
100
AcDbSpline
62
9
6
CONTINUOUS
70
0
71
3
72
8
73
4
74
2
42
0.0000001000
43
0.0000001000
44
0.0000000001
40
0.0000000000
40
0.0000000000
40
0.0000000000
40
0.0000000000
40
1.0000000000
40
1.0000000000
40
1.0000000000
40
1.0000000000
10
99.8963358239
20
115.8945913769
30
0.0000000000
10
99.8981479833
20
115.8949239207
30
0.0000000000
10
99.8934336614
20
115.8970517442
30
0.0000000000
10
99.8916543427
20
115.8975297945
30
0.0000000000
11
99.8963358239
21
115.8945913769
31
0.0000000000
11
99.8916543427
21
115.8975297945
31
0.0000000000
0
SPLINE
5
4A8
100
AcDbEntity
8
0
100
AcDbSpline
62
9
6
CONTINUOUS
70
0
71
3
72
11
73
7
74
5
42
0.0000001000
43
0.0000001000
44
0.0000000001
40
0.0000000000
40
0.0000000000
40
0.0000000000
40
0.0000000000
40
0.3974967897
40
0.7033743204
40
0.9036972486
40
1.0000000000
40
1.0000000000
40
1.0000000000
40
1.0000000000
10
99.7795135189
20
115.4348577356
30
0.0000000000
10
99.7859644259
20
115.4983574971
30
0.0000000000
10
99.8002646179
20
115.6095333073
30
0.0000000000
10
99.8282336347
20
115.7551234781
30
0.0000000000
10
99.8537852409
20
115.8424492700
30
0.0000000000
10
99.8811170313
20
115.8917869245
30
0.0000000000
10
99.8963290470
20
115.8945641952
30
0.0000000000
11
99.7795135189
21
115.4348577356
31
0.0000000000
11
99.8045126647
21
115.6246985846
31
0.0000000000
11
99.8336185682
21
115.7691407582
31
0.0000000000
11
99.8649248532
21
115.8604197300
31
0.0000000000
11
99.8963290470
21
115.8945641952
31
0.0000000000
0
SPLINE
5
4A9
100
AcDbEntity
8
0
100
AcDbSpline
62
9
6
CONTINUOUS
70
0
71
3
72
10
73
6
74
4
42
0.0000001000
43
0.0000001000
44
0.0000000001
40
0.0000000000
40
0.0000000000
40
0.0000000000
40
0.0000000000
40
0.4667687221
40
0.8465542805
40
1.0000000000
40
1.0000000000
40
1.0000000000
40
1.0000000000
10
99.7795397927
20
115.4348876678
30
0.0000000000
10
99.8081384223
20
115.4965194041
30
0.0000000000
10
99.8632688919
20
115.6069305300
30
0.0000000000
10
99.9452016178
20
115.7281073115
30
0.0000000000
10
99.9973119877
20
115.7857661977
30
0.0000000000
10
100.0137072834
20
115.8009705836
30
0.0000000000
11
99.7795397927
21
115.4348876678
31
0.0000000000
11
99.8732596601
21
115.6158952899
31
0.0000000000
11
99.9680181831
21
115.7520056374
31
0.0000000000
11
100.0137072834
21
115.8009705836
31
0.0000000000
0
SPLINE
5
4AA
100
AcDbEntity
8
0
100
AcDbSpline
62
9
6
CONTINUOUS
70
0
71
3
72
8
73
4
74
2
42
0.0000001000
43
0.0000001000
44
0.0000000001
40
0.0000000000
40
0.0000000000
40
0.0000000000
40
0.0000000000
40
1.0000000000
40
1.0000000000
40
1.0000000000
40
1.0000000000
10
100.0137072834
20
115.8009705836
30
0.0000000000
10
100.0273757523
20
115.8136462119
30
0.0000000000
10
100.0420170592
20
115.8253572348
30
0.0000000000
10
100.0580381707
20
115.8356332592
30
0.0000000000
11
100.0137072834
21
115.8009705836
31
0.0000000000
11
100.0580381707
21
115.8356332592
31
0.0000000000
0
SPLINE
5
4AB
100
AcDbEntity
8
0
100
AcDbSpline
62
9
6
CONTINUOUS
70
0
71
3
72
8
73
4
74
2
42
0.0000001000
43
0.0000001000
44
0.0000000001
40
0.0000000000
40
0.0000000000
40
0.0000000000
40
0.0000000000
40
1.0000000000
40
1.0000000000
40
1.0000000000
40
1.0000000000
10
100.0580381707
20
115.8356332592
30
0.0000000000
10
100.0822894401
20
115.8511881499
30
0.0000000000
10
100.1097022682
20
115.8634550158
30
0.0000000000
10
100.1378890154
20
115.8634590964
30
0.0000000000
11
100.0580381707
21
115.8356332592
31
0.0000000000
11
100.1378890154
21
115.8634590964
31
0.0000000000
0
SPLINE
5
4AC
100
AcDbEntity
8
0
100
AcDbSpline
62
9
6
CONTINUOUS
70
0
71
3
72
9
73
5
74
3
42
0.0000001000
43
0.0000001000
44
0.0000000001
40
0.0000000000
40
0.0000000000
40
0.0000000000
40
0.0000000000
40
0.6666179435
40
1.0000000000
40
1.0000000000
40
1.0000000000
40
1.0000000000
10
121.8997546312
20
115.8634276511
30
0.0000000000
10
121.9268700455
20
115.8634274436
30
0.0000000000
10
121.9675683866
20
115.8651678470
30
0.0000000000
10
122.0080328505
20
115.8695076676
30
0.0000000000
10
122.0214859503
20
115.8712417419
30
0.0000000000
11
121.8997546312
21
115.8634276511
31
0.0000000000
11
121.9810266042
21
115.8669029395
31
0.0000000000
11
122.0214859503
21
115.8712417419
31
0.0000000000
0
SPLINE
5
4AD
100
AcDbEntity
8
0
100
AcDbSpline
62
9
6
CONTINUOUS
70
0
71
3
72
9
73
5
74
3
42
0.0000001000
43
0.0000001000
44
0.0000000001
40
0.0000000000
40
0.0000000000
40
0.0000000000
40
0.0000000000
40
0.3332091588
40
1.0000000000
40
1.0000000000
40
1.0000000000
40
1.0000000000
10
122.0214859503
20
115.8712417419
30
0.0000000000
10
122.0349425656
20
115.8729762692
30
0.0000000000
10
122.0752162772
20
115.8790443300
30
0.0000000000
10
122.1150568862
20
115.8876860769
30
0.0000000000
10
122.1413145976
20
115.8945641753
30
0.0000000000
11
122.0214859503
21
115.8712417419
31
0.0000000000
11
122.0617336180
21
115.8773058882
31
0.0000000000
11
122.1413145976
21
115.8945641753
31
0.0000000000
0
SPLINE
5
4AE
100
AcDbEntity
8
0
100
AcDbSpline
62
9
6
CONTINUOUS
70
0
71
3
72
11
73
7
74
5
42
0.0000001000
43
0.0000001000
44
0.0000000001
40
0.0000000000
40
0.0000000000
40
0.0000000000
40
0.0000000000
40
0.0963012382
40
0.2966201302
40
0.6024899410
40
1.0000000000
40
1.0000000000
40
1.0000000000
40
1.0000000000
10
122.1413145976
20
115.8945641753
30
0.0000000000
10
122.1565263594
20
115.8917868537
30
0.0000000000
10
122.1838579934
20
115.8424506131
30
0.0000000000
10
122.2094092691
20
115.7551264909
30
0.0000000000
10
122.2373780589
20
115.6095362739
30
0.0000000000
10
122.2516814544
20
115.4983598387
30
0.0000000000
10
122.2581301280
20
115.4348576991
30
0.0000000000
11
122.1413145976
21
115.8945641753
31
0.0000000000
11
122.1727184836
21
115.8604204079
31
0.0000000000
11
122.2040244121
21
115.7691433541
31
0.0000000000
11
122.2331300974
21
115.6247049076
31
0.0000000000
11
122.2581301280
21
115.4348576991
31
0.0000000000
0
SPLINE
5
4AF
100
AcDbEntity
8
0
100
AcDbSpline
62
9
6
CONTINUOUS
70
0
71
3
72
8
73
4
74
2
42
0.0000001000
43
0.0000001000
44
0.0000000001
40
0.0000000000
40
0.0000000000
40
0.0000000000
40
0.0000000000
40
1.0000000000
40
1.0000000000
40
1.0000000000
40
1.0000000000
10
122.1459880991
20
115.8975342769
30
0.0000000000
10
122.1447113620
20
115.8971917946
30
0.0000000000
10
122.1416825877
20
115.8965854630
30
0.0000000000
10
122.1406406585
20
115.8961354015
30
0.0000000000
11
122.1459880991
21
115.8975342769
31
0.0000000000
11
122.1406406585
21
115.8961354015
31
0.0000000000
0
SPLINE
5
4B0
100
AcDbEntity
8
0
100
AcDbSpline
62
7
6
CONTINUOUS
70
0
71
3
72
8
73
4
74
2
42
0.0000001000
43
0.0000001000
44
0.0000000001
40
0.0000000000
40
0.0000000000
40
0.0000000000
40
0.0000000000
40
1.0000000000
40
1.0000000000
40
1.0000000000
40
1.0000000000
10
74.1385489529
20
108.4218141949
30
0.0000000000
10
74.1259256387
20
108.4240458069
30
0.0000000000
10
74.1133137710
20
108.4263407055
30
0.0000000000
10
74.1007140592
20
108.4286987258
30
0.0000000000
11
74.1385489529
21
108.4218141949
31
0.0000000000
11
74.1007140592
21
108.4286987258
31
0.0000000000
0
SPLINE
5
4B1
100
AcDbEntity
8
0
100
AcDbSpline
62
7
6
CONTINUOUS
70
0
71
3
72
8
73
4
74
2
42
0.0000001000
43
0.0000001000
44
0.0000000001
40
0.0000000000
40
0.0000000000
40
0.0000000000
40
0.0000000000
40
1.0000000000
40
1.0000000000
40
1.0000000000
40
1.0000000000
10
74.1007140592
20
108.4286987258
30
0.0000000000
10
74.0868724679
20
108.4311457392
30
0.0000000000
10
74.0730427724
20
108.4336610207
30
0.0000000000
10
74.0592257248
20
108.4362444138
30
0.0000000000
11
74.1007140592
21
108.4286987258
31
0.0000000000
11
74.0592257248
21
108.4362444138
31
0.0000000000
0
SPLINE
5
4B2
100
AcDbEntity
8
0
100
AcDbSpline
62
7
6
CONTINUOUS
70
0
71
3
72
9
73
5
74
3
42
0.0000001000
43
0.0000001000
44
0.0000000001
40
0.0000000000
40
0.0000000000
40
0.0000000000
40
0.0000000000
40
0.3332661879
40
1.0000000000
40
1.0000000000
40
1.0000000000
40
1.0000000000
10
74.0592257248
20
108.4362444138
30
0.0000000000
10
74.0454079074
20
108.4388279509
30
0.0000000000
10
74.0039840594
20
108.4467845229
30
0.0000000000
10
73.9626808776
20
108.4553530068
30
0.0000000000
10
73.9352022707
20
108.4613364955
30
0.0000000000
11
74.0592257248
21
108.4362444138
31
0.0000000000
11
74.0178109735
21
108.4441992266
31
0.0000000000
11
73.9352022707
21
108.4613364955
31
0.0000000000
0
SPLINE
5
4B3
100
AcDbEntity
8
0
100
AcDbSpline
62
7
6
CONTINUOUS
70
0
71
3
72
9
73
5
74
3
42
0.0000001000
43
0.0000001000
44
0.0000000001
40
0.0000000000
40
0.0000000000
40
0.0000000000
40
0.0000000000
40
0.5004791798
40
1.0000000000
40
1.0000000000
40
1.0000000000
40
1.0000000000
10
73.9352022707
20
108.4613364955
30
0.0000000000
10
73.8769554882
20
108.4733422925
30
0.0000000000
10
73.7610152624
20
108.4995270056
30
0.0000000000
10
73.6461463031
20
108.5300706338
30
0.0000000000
10
73.5890809552
20
108.5464058913
30
0.0000000000
11
73.9352022707
21
108.4613364955
31
0.0000000000
11
73.7611724802
21
108.5006439184
31
0.0000000000
11
73.5890809552
21
108.5464058913
31
0.0000000000
0
SPLINE
5
4B4
100
AcDbEntity
8
0
100
AcDbSpline
62
7
6
CONTINUOUS
70
0
71
3
72
9
73
5
74
3
42
0.0000001000
43
0.0000001000
44
0.0000000001
40
0.0000000000
40
0.0000000000
40
0.0000000000
40
0.0000000000
40
0.5046327814
40
1.0000000000
40
1.0000000000
40
1.0000000000
40
1.0000000000
10
73.5890809552
20
108.5464058913
30
0.0000000000
10
73.5226261858
20
108.5627445715
30
0.0000000000
10
73.3914828537
20
108.5973875187
30
0.0000000000
10
73.2616254202
20
108.6365773295
30
0.0000000000
10
73.1976653791
20
108.6571176495
30
0.0000000000
11
73.5890809552
21
108.5464058913
31
0.0000000000
11
73.3905951965
21
108.5988663832
31
0.0000000000
11
73.1976653791
21
108.6571176495
31
0.0000000000
0
SPLINE
5
4B5
100
AcDbEntity
8
0
100
AcDbSpline
62
7
6
CONTINUOUS
70
0
71
3
72
9
73
5
74
3
42
0.0000001000
43
0.0000001000
44
0.0000000001
40
0.0000000000
40
0.0000000000
40
0.0000000000
40
0.0000000000
40
0.5023564536
40
1.0000000000
40
1.0000000000
40
1.0000000000
40
1.0000000000
10
73.1976653791
20
108.6571176495
30
0.0000000000
10
73.1596502877
20
108.6673896105
30
0.0000000000
10
73.0841515455
20
108.6884900405
30
0.0000000000
10
73.0090371800
20
108.7109212007
30
0.0000000000
10
72.9717617052
20
108.7224207863
30
0.0000000000
11
73.1976653791
21
108.6571176495
31
0.0000000000
11
73.0838927290
21
108.6889253106
31
0.0000000000
11
72.9717617052
21
108.7224207863
31
0.0000000000
0
SPLINE
5
4B6
100
AcDbEntity
8
0
100
AcDbSpline
62
7
6
CONTINUOUS
70
0
71
3
72
9
73
5
74
3
42
0.0000001000
43
0.0000001000
44
0.0000000001
40
0.0000000000
40
0.0000000000
40
0.0000000000
40
0.0000000000
40
0.5018516209
40
1.0000000000
40
1.0000000000
40
1.0000000000
40
1.0000000000
10
72.9717617052
20
108.7224207863
30
0.0000000000
10
72.9401533017
20
108.7277040636
30
0.0000000000
10
72.8772467268
20
108.7386980779
30
0.0000000000
10
72.8145172572
20
108.7506629024
30
0.0000000000
10
72.7833192036
20
108.7568745621
30
0.0000000000
11
72.9717617052
21
108.7224207863
31
0.0000000000
11
72.8770583734
21
108.7389832948
31
0.0000000000
11
72.7833192036
21
108.7568745621
31
0.0000000000
0
SPLINE
5
4B7
100
AcDbEntity
8
0
100
AcDbSpline
62
7
6
CONTINUOUS
70
0
71
3
72
9
73
5
74
3
42
0.0000001000
43
0.0000001000
44
0.0000000001
40
0.0000000000
40
0.0000000000
40
0.0000000000
40
0.0000000000
40
0.5000053092
40
1.0000000000
40
1.0000000000
40
1.0000000000
40
1.0000000000
10
72.7833192036
20
108.7568745621
30
0.0000000000
10
72.7782865377
20
108.7568452747
30
0.0000000000
10
72.7682211209
20
108.7568159890
30
0.0000000000
10
72.7581557042
20
108.7568452740
30
0.0000000000
10
72.7531231451
20
108.7568745601
30
0.0000000000
11
72.7833192036
21
108.7568745621
31
0.0000000000
11
72.7682210140
21
108.7568306317
31
0.0000000000
11
72.7531231451
21
108.7568745601
31
0.0000000000
0
SPLINE
5
4B8
100
AcDbEntity
8
0
100
AcDbSpline
62
7
6
CONTINUOUS
70
0
71
3
72
9
73
5
74
3
42
0.0000001000
43
0.0000001000
44
0.0000000001
40
0.0000000000
40
0.0000000000
40
0.0000000000
40
0.0000000000
40
0.5126325246
40
1.0000000000
40
1.0000000000
40
1.0000000000
40
1.0000000000
10
72.7531231451
20
108.7568745601
30
0.0000000000
10
72.7494343736
20
108.7508389805
30
0.0000000000
10
72.7420239263
20
108.7391947458
30
0.0000000000
10
72.7341502693
20
108.7278575452
30
0.0000000000
10
72.7301922002
20
108.7224207710
30
0.0000000000
11
72.7531231451
21
108.7568745601
31
0.0000000000
11
72.7417149731
21
108.7389812398
31
0.0000000000
11
72.7301922002
21
108.7224207710
31
0.0000000000
0
ENDSEC
0
SECTION
2
OBJECTS
0
DICTIONARY
5
4B9
100
AcDbDictionary
3
ACAD_GROUP
350
4BA
3
ACAD_MLINESTYLE
350
4BB
0
DICTIONARY
5
4BA
102
{ACAD_REACTORS
330
4B9
102
}
100
AcDbDictionary
0
DICTIONARY
5
4BB
102
{ACAD_REACTORS
330
4B9
102
}
100
AcDbDictionary
3
STANDARD
350
4BC
0
MLINESTYLE
5
4BC
102
{ACAD_REACTORS
330
4BB
102
}
100
AcDbMlineStyle
2
STANDARD
70
0
3

62
256
51
90.0
52
90.0
71
2
49
0.5
62
256
6
BYLAYER
49
-0.5
62
256
6
BYLAYER
0
ENDSEC
0
EOF
