999
DXF file: 001-m33930-p-1.dxf
999
Pro/ENGINEER 2011490 by Parametric Technology Corporation
  0
SECTION
  2
HEADER
  9
$ACADVER
  1
AC1015
  9
$DWGCODEPAGE
  3
ANSI_1252
  9
$EXTMAX
 10
1189.0
 20
841.0
 30
0.0
  9
$EXTMIN
 10
0.0
 20
0.0
 30
0.0
  9
$LIMMIN
 10
0.0
 20
0.0
  9
$LIMMAX
 10
1189.0
 20
841.0
  9
$VIEWCTR
 10
594.5
 20
420.5
  9
$VIEWSIZE
 40
841.0
  9
$CLAYER
  8
0
  9
$LTSCALE
 40
65.395
  9
$CELTYPE
  6
BYLAYER
  9
$DIMSCALE
 40
1.0
  9
$DIMASZ
 40
3.5
  9
$DIMEXO
 40
7.43125
  9
$DIMDLI
 40
45.182
  9
$DIMEXE
 40
21.402
  9
$DIMCEN
 40
10.701
  9
$DIMLFAC
 40
1.0
  9
$DIMBLK
  1
_FILLED
  9
$DIMTXT
 40
3.5
  9
$DIMTOL
 70
1
  9
$DIMLIM
 70
0
  9
$DIMTFAC
 40
1.0
  9
$DIMTP
 40
0.005
  9
$DIMTM
 40
0.005
  9
$PDMODE
 70
3
  9
$PDSIZE
 40
0.3125
  9
$HANDSEED
  5
2E1
  9
$TILEMODE
 70
1
  9
$MEASUREMENT
 70
1
  9
$INSUNITS
 70
4
  0
ENDSEC
  0
SECTION
  2
CLASSES
  0
CLASS
  1
ACDBDICTIONARYWDFLT
  2
AcDbDictionaryWithDefault
  3
AutoCAD 2000
 90
0
280
0
281
0
  0
CLASS
  1
ACDBPLACEHOLDER
  2
AcDbPlaceHolder
  3
AutoCAD 2000
 90
0
280
0
281
0
  0
CLASS
  1
LAYOUT
  2
AcDbLayout
  3
AutoCAD 2000
 90
0
280
0
281
0
  0
ENDSEC
  0
SECTION
  2
TABLES
  0
TABLE
  2
VPORT
  5
8
100
AcDbSymbolTable
 70
2
  0
VPORT
  5
1F4
100
AcDbSymbolTableRecord
100
AcDbViewportTableRecord
  2
*ACTIVE
 70
0
 10
0.0
 20
0.0
 11
1.0
 21
1.0
 12
594.5
 22
420.5
 13
0.0
 23
0.0
 14
1.0
 24
1.0
 15
0.0
 25
0.0
 16
0.0
 26
0.0
 36
1.0
 17
0.0
 27
0.0
 37
0.0
 40
841.0
 41
1.4137931034
 42
50.0
 43
0.0
 44
0.0
 50
0.0
 51
0.0
 71
0
 72
100
 73
1
 74
1
 75
0
 76
0
 77
0
 78
0
  0
ENDTAB
  0
TABLE
  2
LTYPE
  5
5
100
AcDbSymbolTable
 70
6
  0
LTYPE
  5
14
100
AcDbSymbolTableRecord
100
AcDbLinetypeTableRecord
  2
BYBLOCK
 70
0
  3

 72
65
 73
0
 40
0.0
  0
LTYPE
  5
15
100
AcDbSymbolTableRecord
100
AcDbLinetypeTableRecord
  2
BYLAYER
 70
0
  3

 72
65
 73
0
 40
0.0
  0
LTYPE
  5
16
100
AcDbSymbolTableRecord
100
AcDbLinetypeTableRecord
  2
CONTINUOUS
 70
64
  3
Solid line
 72
65
 73
0
 40
0.0
  0
LTYPE
  5
1F5
100
AcDbSymbolTableRecord
100
AcDbLinetypeTableRecord
  2
CENTER
 70
64
  3
____ _ ____ _ ____ _ ____ _ ____ _ ____ _ ____
 72
65
 73
4
 40
0.6
 49
0.375
 74
0
 49
-0.075
 74
0
 49
0.075
 74
0
 49
-0.075
 74
0
  0
LTYPE
  5
1F6
100
AcDbSymbolTableRecord
100
AcDbLinetypeTableRecord
  2
HIDDEN
 70
64
  3
- - - - - - - - - - - - - - - - - - - -
 72
65
 73
2
 40
0.2
 49
0.1
 74
0
 49
-0.1
 74
0
  0
LTYPE
  5
1F7
100
AcDbSymbolTableRecord
100
AcDbLinetypeTableRecord
  2
PHANTOM
 70
64
  3
_____ _ _ _____ _ _ _____ _ _ _____
 72
65
 73
6
 40
0.8
 49
0.45
 74
0
 49
-0.05
 74
0
 49
0.1
 74
0
 49
-0.05
 74
0
 49
0.1
 74
0
 49
-0.05
 74
0
  0
LTYPE
  5
1F8
100
AcDbSymbolTableRecord
100
AcDbLinetypeTableRecord
  2
DOT
 70
64
  3
. . . . . . . . . . . . . . . . . . . .
 72
65
 73
2
 40
0.2
 49
0.1
 74
0
 49
-0.1
 74
0
  0
LTYPE
  5
1F9
100
AcDbSymbolTableRecord
100
AcDbLinetypeTableRecord
  2
DASHED
 70
64
  3
- - - - - - - - - - - - - - - - - - - -
 72
65
 73
2
 40
0.2
 49
0.1
 74
0
 49
-0.1
 74
0
  0
ENDTAB
  0
TABLE
  2
LAYER
  5
2
100
AcDbSymbolTable
 70
36
  0
LAYER
  5
10
100
AcDbSymbolTableRecord
100
AcDbLayerTableRecord
  2
0
 70
0
 62
7
  6
CONTINUOUS
370
-3
390
F
  0
LAYER
  5
1FA
100
AcDbSymbolTableRecord
100
AcDbLayerTableRecord
  2
DEFAULT_1
 70
0
 62
7
  6
CENTER
370
-3
390
F
  0
LAYER
  5
1FB
100
AcDbSymbolTableRecord
100
AcDbLayerTableRecord
  2
DEFAULT_2
 70
0
 62
8
  6
HIDDEN
370
-3
390
F
  0
LAYER
  5
1FC
100
AcDbSymbolTableRecord
100
AcDbLayerTableRecord
  2
DEFAULT_3
 70
0
 62
7
  6
PHANTOM
370
-3
390
F
  0
LAYER
  5
1FD
100
AcDbSymbolTableRecord
100
AcDbLayerTableRecord
  2
BEZUGSACHSEN
 70
0
 62
7
  6
CONTINUOUS
370
-3
390
F
  0
LAYER
  5
1FE
100
AcDbSymbolTableRecord
100
AcDbLayerTableRecord
  2
BEZUGSEBENEN
 70
0
 62
7
  6
CONTINUOUS
370
-3
390
F
  0
LAYER
  5
1FF
100
AcDbSymbolTableRecord
100
AcDbLayerTableRecord
  2
BOHRUNGEN
 70
0
 62
7
  6
CONTINUOUS
370
-3
390
F
  0
LAYER
  5
200
100
AcDbSymbolTableRecord
100
AcDbLayerTableRecord
  2
FASEN
 70
0
 62
7
  6
CONTINUOUS
370
-3
390
F
  0
LAYER
  5
201
100
AcDbSymbolTableRecord
100
AcDbLayerTableRecord
  2
GEWINDE
 70
0
 62
7
  6
CONTINUOUS
370
-3
390
F
  0
LAYER
  5
202
100
AcDbSymbolTableRecord
100
AcDbLayerTableRecord
  2
HILFEN
 70
0
 62
7
  6
CONTINUOUS
370
-3
390
F
  0
LAYER
  5
203
100
AcDbSymbolTableRecord
100
AcDbLayerTableRecord
  2
PLATZIERUNG
 70
0
 62
7
  6
CONTINUOUS
370
-3
390
F
  0
LAYER
  5
204
100
AcDbSymbolTableRecord
100
AcDbLayerTableRecord
  2
RUNDUNGEN
 70
0
 62
7
  6
CONTINUOUS
370
-3
390
F
  0
LAYER
  5
205
100
AcDbSymbolTableRecord
100
AcDbLayerTableRecord
  2
TEIL_STARTBEZUEGE
 70
0
 62
7
  6
CONTINUOUS
370
-3
390
F
  0
LAYER
  5
206
100
AcDbSymbolTableRecord
100
AcDbLayerTableRecord
  2
TEXTE
 70
0
 62
7
  6
CONTINUOUS
370
-3
390
F
  0
LAYER
  5
207
100
AcDbSymbolTableRecord
100
AcDbLayerTableRecord
  2
XSEC_DATUMS
 70
0
 62
7
  6
CONTINUOUS
370
-3
390
F
  0
LAYER
  5
208
100
AcDbSymbolTableRecord
100
AcDbLayerTableRecord
  2
ZEICHNUNGSBEMASSUNGEN
 70
0
 62
7
  6
CONTINUOUS
370
-3
390
F
  0
ENDTAB
  0
TABLE
  2
STYLE
  5
3
100
AcDbSymbolTable
 70
1
  0
STYLE
  5
11
100
AcDbSymbolTableRecord
100
AcDbTextStyleTableRecord
  2
STANDARD
 70
0
 40
0.0
 41
0.7
 50
0.0
 71
0
 42
0.2
  3
txt
  4

  0
STYLE
  5
209
100
AcDbSymbolTableRecord
100
AcDbTextStyleTableRecord
  2
TEXTSTYLE_1
 70
0
 40
0.0
 41
0.8
 50
0.0
 71
0
 42
0.2
  3
gdt
  4

  0
ENDTAB
  0
TABLE
  2
VIEW
  5
6
100
AcDbSymbolTable
 70
0
  0
ENDTAB
  0
TABLE
  2
UCS
  5
7
100
AcDbSymbolTable
 70
0
  0
ENDTAB
  0
TABLE
  2
APPID
  5
9
100
AcDbSymbolTable
 70
1
  0
APPID
  5
20A
100
AcDbSymbolTableRecord
100
AcDbRegAppTableRecord
  2
ACAD
 70
0
  0
ENDTAB
  0
TABLE
  2
BLOCK_RECORD
  5
1
100
AcDbSymbolTable
 70
0
  0
BLOCK_RECORD
  5
20B
100
AcDbSymbolTableRecord
100
AcDbBlockTableRecord
  2
*Model_Space
  0
BLOCK_RECORD
  5
20C
100
AcDbSymbolTableRecord
100
AcDbBlockTableRecord
  2
*Paper_Space
  0
ENDTAB
  0
TABLE
  2
DIMSTYLE
  5
A
100
AcDbSymbolTable
 70
1
100
AcDbDimStyleTable
 71
0
  0
DIMSTYLE
105
20D
100
AcDbSymbolTableRecord
100
AcDbDimStyleTableRecord
  2
STANDARD
 70
0
  3

  4

 40
1.0
 41
3.5
 42
0.0625
 43
0.38
 44
0.18
 45
0.0
 46
0.0
 47
0.005
 48
0.005
140
3.5
141
0.09
142
0.0
143
25.4
144
1.0
145
0.0
146
1.0
147
0.09
 71
1.0
 72
0.0
 73
0
 74
0
 75
0
 76
0
 77
1
 78
8
170
0
171
2
172
0
173
0
174
0
175
0
176
0
177
0
178
5
270
2
271
3
272
3
273
2
274
2
275
0
280
0
281
0
282
0
283
1
284
8
285
0
286
0
287
3
288
0
340
11
  0
ENDTAB
  0
ENDSEC
  0
SECTION
  2
BLOCKS
  0
BLOCK
  5
20
100
AcDbEntity
  8
0
100
AcDbBlockBegin
  2
*Model_Space
 70
0
 10
0.0
 20
0.0
 30
0.0
  3
*Model_Space
  1

  0
ENDBLK
  5
21
100
AcDbEntity
  8
0
100
AcDbBlockEnd
  0
BLOCK
  5
1C
100
AcDbEntity
  8
0
100
AcDbBlockBegin
  2
*Paper_Space
 70
0
 10
0.0
 20
0.0
 30
0.0
  3
*Paper_Space
  1

  0
ENDBLK
  5
1D
100
AcDbEntity
  8
0
100
AcDbBlockEnd
  0
ENDSEC
  0
SECTION
  2
ENTITIES
  0
MTEXT
  5
20E
100
AcDbEntity
  8
0
100
AcDbMText
 62
5
  6
CONTINUOUS
  7
STANDARD
 71
2
 72
1
 10
736.6429163228
 20
548.7743801064
 30
0.0
 11
1.0
 21
0.0
 31
0.0
 44
0.9
  1
RUD\PVCB-28
 40
15.0
 41
71.0714285714
  0
MTEXT
  5
20F
100
AcDbEntity
  8
0
100
AcDbMText
 62
5
  6
CONTINUOUS
  7
STANDARD
 71
2
 72
1
 10
326.2032556404
 20
545.6877960715
 30
0.0
 11
1.0
 21
0.0
 31
0.0
 44
0.9
  1
RUD\PVCB-28
 40
15.0
 41
71.0714285714
  0
LINE
  5
210
100
AcDbEntity
  8
0
100
AcDbLine
 62
7
  6
CONTINUOUS
 10
0.0
 20
0.0
 11
0.0
 21
841.0
  0
LINE
  5
211
100
AcDbEntity
  8
0
100
AcDbLine
 62
7
  6
CONTINUOUS
 10
0.0
 20
0.0
 11
1189.0
 21
0.0
  0
LINE
  5
212
100
AcDbEntity
  8
0
100
AcDbLine
 62
7
  6
CONTINUOUS
 10
0.0
 20
841.0
 11
1189.0
 21
841.0
  0
LINE
  5
213
100
AcDbEntity
  8
0
100
AcDbLine
 62
7
  6
CONTINUOUS
 10
1189.0
 20
0.0
 11
1189.0
 21
841.0
  0
LINE
  5
214
100
AcDbEntity
  8
RUNDUNGEN
100
AcDbLine
 62
7
  6
CONTINUOUS
 10
821.4421855944
 20
127.3173108783
 11
806.6421855944
 21
127.3173108783
  0
LINE
  5
215
100
AcDbEntity
  8
0
100
AcDbLine
 62
7
  6
CONTINUOUS
 10
821.4421855944
 20
127.3173108783
 11
806.6421855944
 21
127.3173108783
  0
LINE
  5
216
100
AcDbEntity
  8
0
100
AcDbLine
 62
7
  6
CONTINUOUS
 10
671.2421855944
 20
127.3173108783
 11
656.4421855944
 21
127.3173108783
  0
LINE
  5
217
100
AcDbEntity
  8
BEZUGSACHSEN
100
AcDbLine
 62
7
  6
CONTINUOUS
 10
793.9421855944
 20
135.4928813829
 11
767.2709084433
 21
135.4928813829
  0
LINE
  5
218
100
AcDbEntity
  8
BEZUGSACHSEN
100
AcDbLine
 62
7
  6
CONTINUOUS
 10
710.6134627454
 20
135.4928813829
 11
683.9421855944
 21
135.4928813829
  0
LINE
  5
219
100
AcDbEntity
  8
BEZUGSACHSEN
100
AcDbLine
 62
7
  6
CONTINUOUS
 10
793.9421855944
 20
136.1483048662
 11
766.9007428681
 21
136.1483048662
  0
LINE
  5
21A
100
AcDbEntity
  8
BEZUGSACHSEN
100
AcDbLine
 62
7
  6
CONTINUOUS
 10
710.9836283207
 20
136.1483048662
 11
683.9421855944
 21
136.1483048662
  0
LINE
  5
21B
100
AcDbEntity
  8
0
100
AcDbLine
 62
7
  6
CONTINUOUS
 10
806.6421855944
 20
163.3173108783
 11
800.6421855944
 21
163.3173108783
  0
LINE
  5
21C
100
AcDbEntity
  8
0
100
AcDbLine
 62
7
  6
CONTINUOUS
 10
797.0421855944
 20
163.3173108783
 11
794.5421855944
 21
163.3173108783
  0
LINE
  5
21D
100
AcDbEntity
  8
0
100
AcDbLine
 62
7
  6
CONTINUOUS
 10
671.2421855944
 20
163.3173108783
 11
677.2421855944
 21
163.3173108783
  0
LINE
  5
21E
100
AcDbEntity
  8
0
100
AcDbLine
 62
7
  6
CONTINUOUS
 10
680.8421855944
 20
163.3173108783
 11
683.3421855944
 21
163.3173108783
  0
LINE
  5
21F
100
AcDbEntity
  8
BEZUGSACHSEN
100
AcDbLine
 62
7
  6
CONTINUOUS
 10
677.2421855944
 20
167.3173108783
 11
678.3421855944
 21
167.3173108783
  0
LINE
  5
220
100
AcDbEntity
  8
BEZUGSACHSEN
100
AcDbLine
 62
7
  6
CONTINUOUS
 10
679.7421855944
 20
167.3173108783
 11
680.8421855944
 21
167.3173108783
  0
LINE
  5
221
100
AcDbEntity
  8
BEZUGSACHSEN
100
AcDbLine
 62
7
  6
CONTINUOUS
 10
797.0421855944
 20
167.3173108783
 11
798.1421855944
 21
167.3173108783
  0
LINE
  5
222
100
AcDbEntity
  8
BEZUGSACHSEN
100
AcDbLine
 62
7
  6
CONTINUOUS
 10
799.5421855944
 20
167.3173108783
 11
800.6421855944
 21
167.3173108783
  0
LINE
  5
223
100
AcDbEntity
  8
BEZUGSACHSEN
100
AcDbLine
 62
7
  6
CONTINUOUS
 10
747.2421855944
 20
185.5673108783
 11
730.6421855944
 21
185.5673108783
  0
LINE
  5
224
100
AcDbEntity
  8
BEZUGSACHSEN
100
AcDbLine
 62
7
  6
CONTINUOUS
 10
677.2421855944
 20
187.3173108783
 11
678.3421855944
 21
187.3173108783
  0
LINE
  5
225
100
AcDbEntity
  8
BEZUGSACHSEN
100
AcDbLine
 62
7
  6
CONTINUOUS
 10
679.7421855944
 20
187.3173108783
 11
680.8421855944
 21
187.3173108783
  0
LINE
  5
226
100
AcDbEntity
  8
BEZUGSACHSEN
100
AcDbLine
 62
7
  6
CONTINUOUS
 10
797.0421855944
 20
187.3173108783
 11
798.1421855944
 21
187.3173108783
  0
LINE
  5
227
100
AcDbEntity
  8
BEZUGSACHSEN
100
AcDbLine
 62
7
  6
CONTINUOUS
 10
799.5421855944
 20
187.3173108783
 11
800.6421855944
 21
187.3173108783
  0
LINE
  5
228
100
AcDbEntity
  8
0
100
AcDbLine
 62
7
  6
CONTINUOUS
 10
806.6421855944
 20
191.3173108783
 11
800.6421855944
 21
191.3173108783
  0
LINE
  5
229
100
AcDbEntity
  8
0
100
AcDbLine
 62
7
  6
CONTINUOUS
 10
797.0421855944
 20
191.3173108783
 11
794.5421855944
 21
191.3173108783
  0
LINE
  5
22A
100
AcDbEntity
  8
0
100
AcDbLine
 62
7
  6
CONTINUOUS
 10
671.2421855944
 20
191.3173108783
 11
677.2421855944
 21
191.3173108783
  0
LINE
  5
22B
100
AcDbEntity
  8
0
100
AcDbLine
 62
7
  6
CONTINUOUS
 10
680.8421855944
 20
191.3173108783
 11
683.3421855944
 21
191.3173108783
  0
LINE
  5
22C
100
AcDbEntity
  8
RUNDUNGEN
100
AcDbLine
 62
7
  6
CONTINUOUS
 10
673.2421855944
 20
193.3173108783
 11
680.9421855944
 21
193.3173108783
  0
LINE
  5
22D
100
AcDbEntity
  8
RUNDUNGEN
100
AcDbLine
 62
7
  6
CONTINUOUS
 10
796.9421855944
 20
193.3173108783
 11
804.6421855944
 21
193.3173108783
  0
LINE
  5
22E
100
AcDbEntity
  8
0
100
AcDbLine
 62
7
  6
CONTINUOUS
 10
654.9421855944
 20
210.3173108783
 11
637.9421855944
 21
210.3173108783
  0
LINE
  5
22F
100
AcDbEntity
  8
0
100
AcDbLine
 62
7
  6
CONTINUOUS
 10
637.9421855944
 20
210.3173108783
 11
636.4421855944
 21
211.8173108783
  0
LINE
  5
230
100
AcDbEntity
  8
0
100
AcDbLine
 62
7
  6
CONTINUOUS
 10
840.9421855944
 20
222.3173108783
 11
821.4421855944
 21
222.3173108783
  0
LINE
  5
231
100
AcDbEntity
  8
0
100
AcDbLine
 62
7
  6
CONTINUOUS
 10
796.9421855944
 20
222.3173108783
 11
793.9421855944
 21
222.3173108783
  0
LINE
  5
232
100
AcDbEntity
  8
0
100
AcDbLine
 62
7
  6
CONTINUOUS
 10
683.9421855944
 20
222.3173108783
 11
680.9421855944
 21
222.3173108783
  0
LINE
  5
233
100
AcDbEntity
  8
BEZUGSACHSEN
100
AcDbLine
 62
7
  6
CONTINUOUS
 10
793.9421855944
 20
224.3870566386
 11
766.9007428681
 21
224.3870566386
  0
LINE
  5
234
100
AcDbEntity
  8
BEZUGSACHSEN
100
AcDbLine
 62
7
  6
CONTINUOUS
 10
710.9836283207
 20
224.3870566386
 11
683.9421855944
 21
224.3870566386
  0
LINE
  5
235
100
AcDbEntity
  8
BEZUGSACHSEN
100
AcDbLine
 62
7
  6
CONTINUOUS
 10
793.9421855944
 20
228.1201636591
 11
767.2709084433
 21
228.1201636591
  0
LINE
  5
236
100
AcDbEntity
  8
BEZUGSACHSEN
100
AcDbLine
 62
7
  6
CONTINUOUS
 10
710.6134627454
 20
228.1201636591
 11
683.9421855944
 21
228.1201636591
  0
LINE
  5
237
100
AcDbEntity
  8
0
100
AcDbLine
 62
7
  6
CONTINUOUS
 10
833.9421855944
 20
298.8173108783
 11
821.4421855944
 21
298.8173108783
  0
LINE
  5
238
100
AcDbEntity
  8
0
100
AcDbLine
 62
7
  6
CONTINUOUS
 10
821.4421855944
 20
299.3173108783
 11
831.4421855944
 21
299.3173108783
  0
LINE
  5
239
100
AcDbEntity
  8
0
100
AcDbLine
 62
7
  6
CONTINUOUS
 10
656.4421855944
 20
322.8173108783
 11
654.9421855944
 21
324.3173108783
  0
LINE
  5
23A
100
AcDbEntity
  8
0
100
AcDbLine
 62
7
  6
CONTINUOUS
 10
840.9421855944
 20
312.3173108783
 11
833.9421855944
 21
312.3173108783
  0
LINE
  5
23B
100
AcDbEntity
  8
0
100
AcDbLine
 62
7
  6
CONTINUOUS
 10
796.9421855944
 20
312.3173108783
 11
793.9421855944
 21
312.3173108783
  0
LINE
  5
23C
100
AcDbEntity
  8
0
100
AcDbLine
 62
7
  6
CONTINUOUS
 10
683.9421855944
 20
312.3173108783
 11
680.9421855944
 21
312.3173108783
  0
LINE
  5
23D
100
AcDbEntity
  8
0
100
AcDbLine
 62
7
  6
CONTINUOUS
 10
654.9421855944
 20
324.3173108783
 11
637.9421855944
 21
324.3173108783
  0
LINE
  5
23E
100
AcDbEntity
  8
BEZUGSACHSEN
100
AcDbLine
 62
7
  6
CONTINUOUS
 10
767.1178439703
 20
135.748067198
 11
755.2421855944
 21
156.3173108783
  0
LINE
  5
23F
100
AcDbEntity
  8
BEZUGSACHSEN
100
AcDbLine
 62
7
  6
CONTINUOUS
 10
679.0421855944
 20
171.2872081521
 11
679.7421855944
 21
167.3173108783
  0
LINE
  5
240
100
AcDbEntity
  8
0
100
AcDbLine
 62
7
  6
CONTINUOUS
 10
636.4421855944
 20
322.8173108783
 11
636.4421855944
 21
211.8173108783
  0
LINE
  5
241
100
AcDbEntity
  8
0
100
AcDbLine
 62
7
  6
CONTINUOUS
 10
637.9421855944
 20
324.3173108783
 11
637.9421855944
 21
210.3173108783
  0
LINE
  5
242
100
AcDbEntity
  8
0
100
AcDbLine
 62
7
  6
CONTINUOUS
 10
654.9421855944
 20
324.3173108783
 11
654.9421855944
 21
210.3173108783
  0
LINE
  5
243
100
AcDbEntity
  8
0
100
AcDbLine
 62
7
  6
CONTINUOUS
 10
656.4421855944
 20
569.1673108783
 11
656.4421855944
 21
498.3173108783
  0
LINE
  5
244
100
AcDbEntity
  8
RUNDUNGEN
100
AcDbLine
 62
7
  6
CONTINUOUS
 10
656.4421855944
 20
127.3173108783
 11
656.4421855944
 21
168.9733881353
  0
LINE
  5
245
100
AcDbEntity
  8
0
100
AcDbLine
 62
7
  6
CONTINUOUS
 10
656.4421855944
 20
168.9733881353
 11
656.4421855944
 21
490.3173108783
  0
LINE
  5
246
100
AcDbEntity
  8
0
100
AcDbLine
 62
7
  6
CONTINUOUS
 10
658.4421855944
 20
492.3173108783
 11
656.4421855944
 21
490.3173108783
  0
LINE
  5
247
100
AcDbEntity
  8
0
100
AcDbLine
 62
7
  6
CONTINUOUS
 10
821.4421855944
 20
339.3173108783
 11
831.4421855944
 21
339.3173108783
  0
LINE
  5
248
100
AcDbEntity
  8
BEZUGSACHSEN
100
AcDbLine
 62
7
  6
CONTINUOUS
 10
747.2421855944
 20
349.0673108783
 11
730.6421855944
 21
349.0673108783
  0
LINE
  5
249
100
AcDbEntity
  8
BEZUGSACHSEN
100
AcDbLine
 62
7
  6
CONTINUOUS
 10
678.3421855944
 20
187.3173108783
 11
679.0421855944
 21
183.3474136046
  0
LINE
  5
24A
100
AcDbEntity
  8
0
100
AcDbLine
 62
7
  6
CONTINUOUS
 10
658.4421855944
 20
442.4179824064
 11
658.4421855944
 21
179.7437177495
  0
LINE
  5
24B
100
AcDbEntity
  8
0
100
AcDbLine
 62
7
  6
CONTINUOUS
 10
671.2421855944
 20
127.3173108783
 11
671.2421855944
 21
179.7437177495
  0
LINE
  5
24C
100
AcDbEntity
  8
RUNDUNGEN
100
AcDbLine
 62
7
  6
CONTINUOUS
 10
671.2421855944
 20
179.7437177495
 11
671.2421855944
 21
191.3173108783
  0
LINE
  5
24D
100
AcDbEntity
  8
0
100
AcDbLine
 62
7
  6
CONTINUOUS
 10
677.2421855944
 20
191.3173108783
 11
677.2421855944
 21
163.3173108783
  0
LINE
  5
24E
100
AcDbEntity
  8
BEZUGSACHSEN
100
AcDbLine
 62
7
  6
CONTINUOUS
 10
678.3421855944
 20
167.3173108783
 11
678.3421855944
 21
187.3173108783
  0
LINE
  5
24F
100
AcDbEntity
  8
BEZUGSACHSEN
100
AcDbLine
 62
7
  6
CONTINUOUS
 10
679.0421855944
 20
171.2872081521
 11
679.0421855944
 21
183.3474136046
  0
LINE
  5
250
100
AcDbEntity
  8
BEZUGSACHSEN
100
AcDbLine
 62
7
  6
CONTINUOUS
 10
679.7421855944
 20
167.3173108783
 11
679.7421855944
 21
187.3173108783
  0
LINE
  5
251
100
AcDbEntity
  8
0
100
AcDbLine
 62
7
  6
CONTINUOUS
 10
680.8421855944
 20
191.3173108783
 11
680.8421855944
 21
163.3173108783
  0
LINE
  5
252
100
AcDbEntity
  8
0
100
AcDbLine
 62
7
  6
CONTINUOUS
 10
680.9421855944
 20
193.3173108783
 11
680.9421855944
 21
411.3173108783
  0
LINE
  5
253
100
AcDbEntity
  8
0
100
AcDbLine
 62
7
  6
CONTINUOUS
 10
683.3421855944
 20
191.3173108783
 11
683.3421855944
 21
163.3173108783
  0
LINE
  5
254
100
AcDbEntity
  8
FASEN
100
AcDbLine
 62
7
  6
CONTINUOUS
 10
683.9421855944
 20
135.4928813829
 11
683.9421855944
 21
374.9165711302
  0
LINE
  5
255
100
AcDbEntity
  8
0
100
AcDbLine
 62
7
  6
CONTINUOUS
 10
688.9421855944
 20
720.2893346204
 11
688.9421855944
 21
581.1673108783
  0
LINE
  5
256
100
AcDbEntity
  8
BEZUGSACHSEN
100
AcDbLine
 62
7
  6
CONTINUOUS
 10
793.9421855944
 20
371.9539606247
 11
766.9007428681
 21
371.9539606247
  0
LINE
  5
257
100
AcDbEntity
  8
BEZUGSACHSEN
100
AcDbLine
 62
7
  6
CONTINUOUS
 10
710.9836283207
 20
371.9539606247
 11
683.9421855944
 21
371.9539606247
  0
LINE
  5
258
100
AcDbEntity
  8
BEZUGSACHSEN
100
AcDbLine
 62
7
  6
CONTINUOUS
 10
793.9421855944
 20
374.9165711302
 11
755.2421855944
 21
374.9165711302
  0
LINE
  5
259
100
AcDbEntity
  8
BEZUGSACHSEN
100
AcDbLine
 62
7
  6
CONTINUOUS
 10
683.9421855944
 20
374.9165711302
 11
722.6421855944
 21
374.9165711302
  0
LINE
  5
25A
100
AcDbEntity
  8
FASEN
100
AcDbLine
 62
7
  6
CONTINUOUS
 10
720.4421855944
 20
434.3173108783
 11
720.4421855944
 21
443.8173108783
  0
LINE
  5
25B
100
AcDbEntity
  8
BEZUGSACHSEN
100
AcDbLine
 62
7
  6
CONTINUOUS
 10
722.6421855944
 20
156.3173108783
 11
722.6421855944
 21
374.9165711302
  0
LINE
  5
25C
100
AcDbEntity
  8
BEZUGSACHSEN
100
AcDbLine
 62
7
  6
CONTINUOUS
 10
679.0421855944
 20
183.3474136046
 11
679.7421855944
 21
187.3173108783
  0
LINE
  5
25D
100
AcDbEntity
  8
BEZUGSACHSEN
100
AcDbLine
 62
7
  6
CONTINUOUS
 10
678.3421855944
 20
167.3173108783
 11
679.0421855944
 21
171.2872081521
  0
LINE
  5
25E
100
AcDbEntity
  8
FASEN
100
AcDbLine
 62
7
  6
CONTINUOUS
 10
708.4421855944
 20
422.3173108783
 11
720.4421855944
 21
434.3173108783
  0
LINE
  5
25F
100
AcDbEntity
  8
FASEN
100
AcDbLine
 62
7
  6
CONTINUOUS
 10
691.9421855944
 20
422.3173108783
 11
708.4421855944
 21
422.3173108783
  0
LINE
  5
260
100
AcDbEntity
  8
FASEN
100
AcDbLine
 62
7
  6
CONTINUOUS
 10
769.4421855944
 20
422.3173108783
 11
785.9421855944
 21
422.3173108783
  0
LINE
  5
261
100
AcDbEntity
  8
0
100
AcDbLine
 62
7
  6
CONTINUOUS
 10
842.4421855944
 20
310.8173108783
 11
840.9421855944
 21
312.3173108783
  0
LINE
  5
262
100
AcDbEntity
  8
0
100
AcDbLine
 62
7
  6
CONTINUOUS
 10
656.4421855944
 20
498.3173108783
 11
662.4421855944
 21
492.3173108783
  0
LINE
  5
263
100
AcDbEntity
  8
BEZUGSACHSEN
100
AcDbLine
 62
7
  6
CONTINUOUS
 10
755.2421855944
 20
156.3173108783
 11
755.2421855944
 21
374.9165711302
  0
LINE
  5
264
100
AcDbEntity
  8
FASEN
100
AcDbLine
 62
7
  6
CONTINUOUS
 10
757.4421855944
 20
443.8173108783
 11
757.4421855944
 21
434.3173108783
  0
LINE
  5
265
100
AcDbEntity
  8
0
100
AcDbLine
 62
7
  6
CONTINUOUS
 10
637.9421855944
 20
324.3173108783
 11
636.4421855944
 21
322.8173108783
  0
LINE
  5
266
100
AcDbEntity
  8
0
100
AcDbLine
 62
7
  6
CONTINUOUS
 10
821.4421855944
 20
498.3173108783
 11
815.4421855944
 21
492.3173108783
  0
LINE
  5
267
100
AcDbEntity
  8
FASEN
100
AcDbLine
 62
7
  6
CONTINUOUS
 10
757.4421855944
 20
434.3173108783
 11
769.4421855944
 21
422.3173108783
  0
LINE
  5
268
100
AcDbEntity
  8
BEZUGSACHSEN
100
AcDbLine
 62
7
  6
CONTINUOUS
 10
798.8421855944
 20
171.2872081521
 11
799.5421855944
 21
167.3173108783
  0
LINE
  5
269
100
AcDbEntity
  8
BEZUGSACHSEN
100
AcDbLine
 62
7
  6
CONTINUOUS
 10
798.1421855944
 20
187.3173108783
 11
798.8421855944
 21
183.3474136046
  0
LINE
  5
26A
100
AcDbEntity
  8
0
100
AcDbLine
 62
7
  6
CONTINUOUS
 10
788.9421855944
 20
581.1673108783
 11
788.9421855944
 21
720.2893346204
  0
LINE
  5
26B
100
AcDbEntity
  8
FASEN
100
AcDbLine
 62
7
  6
CONTINUOUS
 10
793.9421855944
 20
374.9165711302
 11
793.9421855944
 21
135.4928813829
  0
LINE
  5
26C
100
AcDbEntity
  8
0
100
AcDbLine
 62
7
  6
CONTINUOUS
 10
794.5421855944
 20
191.3173108783
 11
794.5421855944
 21
163.3173108783
  0
LINE
  5
26D
100
AcDbEntity
  8
0
100
AcDbLine
 62
7
  6
CONTINUOUS
 10
796.9421855944
 20
411.3173108783
 11
796.9421855944
 21
193.3173108783
  0
LINE
  5
26E
100
AcDbEntity
  8
0
100
AcDbLine
 62
7
  6
CONTINUOUS
 10
797.0421855944
 20
191.3173108783
 11
797.0421855944
 21
163.3173108783
  0
LINE
  5
26F
100
AcDbEntity
  8
BEZUGSACHSEN
100
AcDbLine
 62
7
  6
CONTINUOUS
 10
798.1421855944
 20
167.3173108783
 11
798.1421855944
 21
187.3173108783
  0
LINE
  5
270
100
AcDbEntity
  8
BEZUGSACHSEN
100
AcDbLine
 62
7
  6
CONTINUOUS
 10
798.8421855944
 20
171.2872081521
 11
798.8421855944
 21
183.3474136046
  0
LINE
  5
271
100
AcDbEntity
  8
BEZUGSACHSEN
100
AcDbLine
 62
7
  6
CONTINUOUS
 10
799.5421855944
 20
167.3173108783
 11
799.5421855944
 21
187.3173108783
  0
LINE
  5
272
100
AcDbEntity
  8
0
100
AcDbLine
 62
7
  6
CONTINUOUS
 10
800.6421855944
 20
191.3173108783
 11
800.6421855944
 21
163.3173108783
  0
LINE
  5
273
100
AcDbEntity
  8
0
100
AcDbLine
 62
7
  6
CONTINUOUS
 10
806.6421855944
 20
127.3173108783
 11
806.6421855944
 21
179.7437177495
  0
LINE
  5
274
100
AcDbEntity
  8
RUNDUNGEN
100
AcDbLine
 62
7
  6
CONTINUOUS
 10
806.6421855944
 20
179.7437177495
 11
806.6421855944
 21
191.3173108783
  0
LINE
  5
275
100
AcDbEntity
  8
0
100
AcDbLine
 62
7
  6
CONTINUOUS
 10
658.4421855944
 20
492.3173108783
 11
819.4421855944
 21
492.3173108783
  0
LINE
  5
276
100
AcDbEntity
  8
0
100
AcDbLine
 62
7
  6
CONTINUOUS
 10
656.4421855944
 20
498.3173108783
 11
821.4421855944
 21
498.3173108783
  0
LINE
  5
277
100
AcDbEntity
  8
0
100
AcDbLine
 62
7
  6
CONTINUOUS
 10
819.4421855944
 20
442.4179824064
 11
819.4421855944
 21
179.7437177495
  0
LINE
  5
278
100
AcDbEntity
  8
0
100
AcDbLine
 62
7
  6
CONTINUOUS
 10
821.4421855944
 20
569.1673108783
 11
821.4421855944
 21
498.3173108783
  0
LINE
  5
279
100
AcDbEntity
  8
0
100
AcDbLine
 62
7
  6
CONTINUOUS
 10
821.4421855944
 20
490.3173108783
 11
821.4421855944
 21
168.9733881353
  0
LINE
  5
27A
100
AcDbEntity
  8
RUNDUNGEN
100
AcDbLine
 62
7
  6
CONTINUOUS
 10
821.4421855944
 20
168.9733881353
 11
821.4421855944
 21
127.3173108783
  0
LINE
  5
27B
100
AcDbEntity
  8
0
100
AcDbLine
 62
7
  6
CONTINUOUS
 10
831.4421855944
 20
339.3173108783
 11
831.4421855944
 21
299.3173108783
  0
LINE
  5
27C
100
AcDbEntity
  8
0
100
AcDbLine
 62
7
  6
CONTINUOUS
 10
833.9421855944
 20
298.8173108783
 11
833.9421855944
 21
312.3173108783
  0
LINE
  5
27D
100
AcDbEntity
  8
0
100
AcDbLine
 62
7
  6
CONTINUOUS
 10
840.9421855944
 20
312.3173108783
 11
840.9421855944
 21
222.3173108783
  0
LINE
  5
27E
100
AcDbEntity
  8
0
100
AcDbLine
 62
7
  6
CONTINUOUS
 10
842.4421855944
 20
310.8173108783
 11
842.4421855944
 21
223.8173108783
  0
LINE
  5
27F
100
AcDbEntity
  8
BEZUGSACHSEN
100
AcDbLine
 62
7
  6
CONTINUOUS
 10
798.8421855944
 20
183.3474136046
 11
799.5421855944
 21
187.3173108783
  0
LINE
  5
280
100
AcDbEntity
  8
BEZUGSACHSEN
100
AcDbLine
 62
7
  6
CONTINUOUS
 10
798.1421855944
 20
167.3173108783
 11
798.8421855944
 21
171.2872081521
  0
LINE
  5
281
100
AcDbEntity
  8
0
100
AcDbLine
 62
7
  6
CONTINUOUS
 10
656.4421855944
 20
211.8173108783
 11
654.9421855944
 21
210.3173108783
  0
LINE
  5
282
100
AcDbEntity
  8
0
100
AcDbLine
 62
7
  6
CONTINUOUS
 10
821.4421855944
 20
490.3173108783
 11
819.4421855944
 21
492.3173108783
  0
LINE
  5
283
100
AcDbEntity
  8
BEZUGSACHSEN
100
AcDbLine
 62
7
  6
CONTINUOUS
 10
722.6421855944
 20
156.3173108783
 11
710.7665272339
 21
135.7480672246
  0
LINE
  5
284
100
AcDbEntity
  8
0
100
AcDbLine
 62
7
  6
CONTINUOUS
 10
821.4421855944
 20
569.1673108783
 11
800.9421855944
 21
569.1673108783
  0
LINE
  5
285
100
AcDbEntity
  8
0
100
AcDbLine
 62
7
  6
CONTINUOUS
 10
676.9421855944
 20
569.1673108783
 11
656.4421855944
 21
569.1673108783
  0
LINE
  5
286
100
AcDbEntity
  8
0
100
AcDbLine
 62
7
  6
CONTINUOUS
 10
842.4421855944
 20
223.8173108783
 11
840.9421855944
 21
222.3173108783
  0
LINE
  5
287
100
AcDbEntity
  8
RUNDUNGEN
100
AcDbLine
 62
7
  6
CONTINUOUS
 10
267.9647386893
 20
127.3173108783
 11
383.1119249469
 21
127.3173108783
  0
LINE
  5
288
100
AcDbEntity
  8
RUNDUNGEN
100
AcDbLine
 62
7
  6
CONTINUOUS
 10
224.3251283825
 20
158.5305143139
 11
246.7515352537
 21
136.1041074427
  0
LINE
  5
289
100
AcDbEntity
  8
FASEN
100
AcDbLine
 62
7
  6
CONTINUOUS
 10
201.5679621722
 20
224.3870566386
 11
215.5383318181
 21
214.2369889589
  0
LINE
  5
28A
100
AcDbEntity
  8
FASEN
100
AcDbLine
 62
7
  6
CONTINUOUS
 10
199.6658491396
 20
228.1201636591
 11
201.5679621722
 21
224.3870566386
  0
LINE
  5
28B
100
AcDbEntity
  8
0
100
AcDbLine
 62
7
  6
CONTINUOUS
 10
260.5383318181
 20
299.3173108783
 11
293.9116257797
 21
299.3173108783
  0
LINE
  5
28C
100
AcDbEntity
  8
0
100
AcDbLine
 62
7
  6
CONTINUOUS
 10
357.1650378565
 20
299.3173108783
 11
390.5383318181
 21
299.3173108783
  0
LINE
  5
28D
100
AcDbEntity
  8
0
100
AcDbLine
 62
7
  6
CONTINUOUS
 10
215.5383318181
 20
179.7437177495
 11
215.5383318181
 21
487.9871838593
  0
LINE
  5
28E
100
AcDbEntity
  8
0
100
AcDbLine
 62
7
  6
CONTINUOUS
 10
217.5383318181
 20
443.1178916941
 11
217.5383318181
 21
168.9733881353
  0
LINE
  5
28F
100
AcDbEntity
  8
0
100
AcDbLine
 62
7
  6
CONTINUOUS
 10
218.0383318181
 20
492.3173108783
 11
215.5383274004
 21
487.9871762078
  0
LINE
  5
290
100
AcDbEntity
  8
0
100
AcDbLine
 62
7
  6
CONTINUOUS
 10
390.5383318181
 20
339.3173108783
 11
260.5383318181
 21
339.3173108783
  0
LINE
  5
291
100
AcDbEntity
  8
0
100
AcDbLine
 62
7
  6
CONTINUOUS
 10
243.0383318181
 20
654.6673108783
 11
243.0383318181
 21
498.3173108783
  0
LINE
  5
292
100
AcDbEntity
  8
0
100
AcDbLine
 62
7
  6
CONTINUOUS
 10
255.5383318181
 20
334.3173108783
 11
255.5383318181
 21
304.3173108783
  0
LINE
  5
293
100
AcDbEntity
  8
0
100
AcDbLine
 62
7
  6
CONTINUOUS
 10
259.916308076
 20
654.6673108783
 11
259.916308076
 21
581.1673108783
  0
LINE
  5
294
100
AcDbEntity
  8
FASEN
100
AcDbLine
 62
7
  6
CONTINUOUS
 10
215.5383318181
 20
276.9706422928
 11
199.6658491396
 21
228.1201636591
  0
LINE
  5
295
100
AcDbEntity
  8
DEFAULT_2
100
AcDbLine
 62
8
  6
HIDDEN
 10
215.5383318181
 20
422.3173108783
 11
435.5383318181
 21
422.3173108783
  0
LINE
  5
296
100
AcDbEntity
  8
0
100
AcDbLine
 62
7
  6
CONTINUOUS
 10
243.0383318181
 20
498.3173108783
 11
249.0383318181
 21
492.3173108783
  0
LINE
  5
297
100
AcDbEntity
  8
0
100
AcDbLine
 62
7
  6
CONTINUOUS
 10
408.0383318181
 20
498.3173108783
 11
402.0383318181
 21
492.3173108783
  0
LINE
  5
298
100
AcDbEntity
  8
DEFAULT_2
100
AcDbLine
 62
8
  6
HIDDEN
 10
215.5383318181
 20
462.3173108783
 11
435.5383318181
 21
462.3173108783
  0
LINE
  5
299
100
AcDbEntity
  8
0
100
AcDbLine
 62
7
  6
CONTINUOUS
 10
391.1603555601
 20
654.6673108783
 11
391.1603555601
 21
581.1673108783
  0
LINE
  5
29A
100
AcDbEntity
  8
0
100
AcDbLine
 62
7
  6
CONTINUOUS
 10
254.8305249713
 20
490.3173108783
 11
396.2461386649
 21
490.3173108783
  0
LINE
  5
29B
100
AcDbEntity
  8
0
100
AcDbLine
 62
7
  6
CONTINUOUS
 10
218.0383318181
 20
492.3173108783
 11
433.0383318181
 21
492.3173108783
  0
LINE
  5
29C
100
AcDbEntity
  8
0
100
AcDbLine
 62
7
  6
CONTINUOUS
 10
243.0383318181
 20
498.3173108783
 11
408.0383318181
 21
498.3173108783
  0
LINE
  5
29D
100
AcDbEntity
  8
FASEN
100
AcDbLine
 62
7
  6
CONTINUOUS
 10
451.0662379798
 20
229.180661132
 11
435.5383318181
 21
276.9706422928
  0
LINE
  5
29E
100
AcDbEntity
  8
0
100
AcDbLine
 62
7
  6
CONTINUOUS
 10
395.5383318181
 20
304.3173108783
 11
395.5383318181
 21
334.3173108783
  0
LINE
  5
29F
100
AcDbEntity
  8
0
100
AcDbLine
 62
7
  6
CONTINUOUS
 10
408.0383318181
 20
654.6673108783
 11
408.0383318181
 21
498.3173108783
  0
LINE
  5
2A0
100
AcDbEntity
  8
0
100
AcDbLine
 62
7
  6
CONTINUOUS
 10
433.5383318181
 20
443.1178916941
 11
433.5383318181
 21
168.9733881353
  0
LINE
  5
2A1
100
AcDbEntity
  8
0
100
AcDbLine
 62
7
  6
CONTINUOUS
 10
435.5383318181
 20
487.9871838593
 11
435.5383318181
 21
179.7437177495
  0
LINE
  5
2A2
100
AcDbEntity
  8
0
100
AcDbLine
 62
7
  6
CONTINUOUS
 10
433.0383318181
 20
492.3173108783
 11
435.5383362358
 21
487.9871762078
  0
LINE
  5
2A3
100
AcDbEntity
  8
FASEN
100
AcDbLine
 62
7
  6
CONTINUOUS
 10
450.4108144966
 20
225.0424801219
 11
451.0662379798
 21
229.180661132
  0
LINE
  5
2A4
100
AcDbEntity
  8
0
100
AcDbLine
 62
7
  6
CONTINUOUS
 10
379.9648878363
 20
569.1673108783
 11
271.1117757999
 21
569.1673108783
  0
LINE
  5
2A5
100
AcDbEntity
  8
FASEN
100
AcDbLine
 62
7
  6
CONTINUOUS
 10
435.5383318181
 20
214.2369889589
 11
450.4108144966
 21
225.0424801219
  0
LINE
  5
2A6
100
AcDbEntity
  8
RUNDUNGEN
100
AcDbLine
 62
7
  6
CONTINUOUS
 10
404.3251283825
 20
136.1041074427
 11
426.7515352537
 21
158.5305143139
  0
ARC
  5
2A7
100
AcDbEntity
  8
BEZUGSACHSEN
100
AcDbCircle
 62
7
  6
CONTINUOUS
 10
523.79944226
 20
207.7112457726
 40
187.9255229585
100
AcDbArc
 50
5.090910086
 51
6.2346812052
  0
ARC
  5
2A8
100
AcDbEntity
  8
BEZUGSACHSEN
100
AcDbCircle
 62
7
  6
CONTINUOUS
 10
954.0849289288
 20
207.7112457726
 40
187.9255229585
100
AcDbArc
 50
173.7653187948
 51
174.909089914
  0
ARC
  5
2A9
100
AcDbEntity
  8
BEZUGSACHSEN
100
AcDbCircle
 62
7
  6
CONTINUOUS
 10
592.3498065888
 20
358.6356000073
 40
119.3790701431
100
AcDbArc
 50
6.4054589728
 51
7.8384521093
  0
ARC
  5
2AA
100
AcDbEntity
  8
BEZUGSACHSEN
100
AcDbCircle
 62
7
  6
CONTINUOUS
 10
885.5345645999
 20
358.6356000073
 40
119.3790701431
100
AcDbArc
 50
172.1615478907
 51
173.5945410272
  0
ARC
  5
2AB
100
AcDbEntity
  8
0
100
AcDbCircle
 62
7
  6
CONTINUOUS
 10
738.9421855944
 20
654.6673108783
 40
82.5
100
AcDbArc
 50
52.6947990342
 51
127.3052009658
  0
ARC
  5
2AC
100
AcDbEntity
  8
0
100
AcDbCircle
 62
7
  6
CONTINUOUS
 10
641.6153322208
 20
397.542495265
 40
47.9265306551
100
AcDbArc
 50
69.4455826909
 51
71.9789551636
  0
ARC
  5
2AD
100
AcDbEntity
  8
0
100
AcDbCircle
 62
7
  6
CONTINUOUS
 10
836.1231858957
 20
397.9592723383
 40
47.4850784139
100
AcDbArc
 50
108.0092669498
 51
110.5661951958
  0
ARC
  5
2AE
100
AcDbEntity
  8
0
100
AcDbCircle
 62
7
  6
CONTINUOUS
 10
738.9421855944
 20
443.8173108783
 40
18.5
100
AcDbArc
 50
0.0
 51
180.0
  0
ARC
  5
2AF
100
AcDbEntity
  8
0
100
AcDbCircle
 62
7
  6
CONTINUOUS
 10
800.9421855944
 20
581.1673108783
 40
12.0
100
AcDbArc
 50
180.0
 51
270.0
  0
ARC
  5
2B0
100
AcDbEntity
  8
0
100
AcDbCircle
 62
7
  6
CONTINUOUS
 10
676.9421855944
 20
581.1673108783
 40
12.0
100
AcDbArc
 50
270.0
 51
360.0
  0
ARC
  5
2B1
100
AcDbEntity
  8
0
100
AcDbCircle
 62
7
  6
CONTINUOUS
 10
785.9421855944
 20
411.3173108783
 40
11.0
100
AcDbArc
 50
0.0
 51
90.0
  0
ARC
  5
2B2
100
AcDbEntity
  8
0
100
AcDbCircle
 62
7
  6
CONTINUOUS
 10
691.9421855944
 20
411.3173108783
 40
11.0
100
AcDbArc
 50
90.0
 51
180.0
  0
ARC
  5
2B3
100
AcDbEntity
  8
BEZUGSACHSEN
100
AcDbCircle
 62
7
  6
CONTINUOUS
 10
774.9896476766
 20
140.2961901541
 40
9.091243617
100
AcDbArc
 50
210.0106712553
 51
211.8936690023
  0
ARC
  5
2B4
100
AcDbEntity
  8
BEZUGSACHSEN
100
AcDbCircle
 62
7
  6
CONTINUOUS
 10
702.8947235946
 20
140.2961901041
 40
9.0912435206
100
AcDbArc
 50
328.1063309911
 51
329.9893293809
  0
ARC
  5
2B5
100
AcDbEntity
  8
BEZUGSACHSEN
100
AcDbCircle
 62
7
  6
CONTINUOUS
 10
703.4516538876
 20
139.9748847578
 40
8.4482751214
100
AcDbArc
 50
329.9871164372
 51
333.0673935289
  0
ARC
  5
2B6
100
AcDbEntity
  8
BEZUGSACHSEN
100
AcDbCircle
 62
7
  6
CONTINUOUS
 10
774.3139648909
 20
139.9104805818
 40
8.3132320354
100
AcDbArc
 50
206.9075817315
 51
210.0379089671
  0
ARC
  5
2B7
100
AcDbEntity
  8
RUNDUNGEN
100
AcDbCircle
 62
7
  6
CONTINUOUS
 10
730.6421855944
 20
177.5673108783
 40
8.0
100
AcDbArc
 50
90.0
 51
180.0
  0
ARC
  5
2B8
100
AcDbEntity
  8
RUNDUNGEN
100
AcDbCircle
 62
7
  6
CONTINUOUS
 10
730.6421855944
 20
357.0673108783
 40
8.0
100
AcDbArc
 50
180.0
 51
270.0
  0
ARC
  5
2B9
100
AcDbEntity
  8
RUNDUNGEN
100
AcDbCircle
 62
7
  6
CONTINUOUS
 10
747.2421855944
 20
177.5673108783
 40
8.0
100
AcDbArc
 50
0.0
 51
90.0
  0
ARC
  5
2BA
100
AcDbEntity
  8
RUNDUNGEN
100
AcDbCircle
 62
7
  6
CONTINUOUS
 10
747.2421855944
 20
357.0673108783
 40
8.0
100
AcDbArc
 50
270.0
 51
360.0
  0
ARC
  5
2BB
100
AcDbEntity
  8
RUNDUNGEN
100
AcDbCircle
 62
7
  6
CONTINUOUS
 10
673.2421855944
 20
191.3173108783
 40
2.0
100
AcDbArc
 50
90.0
 51
180.0
  0
ARC
  5
2BC
100
AcDbEntity
  8
RUNDUNGEN
100
AcDbCircle
 62
7
  6
CONTINUOUS
 10
804.6421855944
 20
191.3173108783
 40
2.0
100
AcDbArc
 50
0.0
 51
90.0
  0
ARC
  5
2BD
100
AcDbEntity
  8
0
100
AcDbCircle
 62
7
  6
CONTINUOUS
 10
232.2193321195
 20
397.9592723382
 40
47.485078414
100
AcDbArc
 50
108.0092669498
 51
110.5661951957
  0
ARC
  5
2BE
100
AcDbEntity
  8
RUNDUNGEN
100
AcDbCircle
 62
7
  6
CONTINUOUS
 10
245.5383318181
 20
179.7437177495
 40
30.0
100
AcDbArc
 50
180.0
 51
225.0
  0
ARC
  5
2BF
100
AcDbEntity
  8
RUNDUNGEN
100
AcDbCircle
 62
7
  6
CONTINUOUS
 10
267.9647386893
 20
157.3173108783
 40
30.0
100
AcDbArc
 50
225.0
 51
270.0
  0
ARC
  5
2C0
100
AcDbEntity
  8
0
100
AcDbCircle
 62
7
  6
CONTINUOUS
 10
260.5383318181
 20
334.3173108783
 40
5.0
100
AcDbArc
 50
90.0
 51
180.0
  0
ARC
  5
2C1
100
AcDbEntity
  8
0
100
AcDbCircle
 62
7
  6
CONTINUOUS
 10
260.5383318181
 20
304.3173108783
 40
5.0
100
AcDbArc
 50
180.0
 51
270.0
  0
CIRCLE
  5
2C2
100
AcDbEntity
  8
RUNDUNGEN
100
AcDbCircle
 62
8
  6
HIDDEN
 10
325.5383318181
 20
267.3173108783
 40
81.75
  0
ARC
  5
2C3
100
AcDbEntity
  8
0
100
AcDbCircle
 62
7
  6
CONTINUOUS
 10
418.7114784444
 20
397.5424952647
 40
47.9265306554
100
AcDbArc
 50
69.4455826909
 51
71.9789551636
  0
CIRCLE
  5
2C4
100
AcDbEntity
  8
0
100
AcDbCircle
 62
7
  6
CONTINUOUS
 10
325.5383318181
 20
267.3173108783
 40
45.0
  0
CIRCLE
  5
2C5
100
AcDbEntity
  8
0
100
AcDbCircle
 62
7
  6
CONTINUOUS
 10
325.5383318181
 20
267.3173108783
 40
43.5
  0
ARC
  5
2C6
100
AcDbEntity
  8
RUNDUNGEN
100
AcDbCircle
 62
7
  6
CONTINUOUS
 10
383.1119249469
 20
157.3173108783
 40
30.0
100
AcDbArc
 50
270.0
 51
315.0
  0
ARC
  5
2C7
100
AcDbEntity
  8
RUNDUNGEN
100
AcDbCircle
 62
7
  6
CONTINUOUS
 10
405.5383318181
 20
179.7437177495
 40
30.0
100
AcDbArc
 50
315.0
 51
360.0
  0
ARC
  5
2C8
100
AcDbEntity
  8
0
100
AcDbCircle
 62
7
  6
CONTINUOUS
 10
390.5383318181
 20
304.3173108783
 40
5.0
100
AcDbArc
 50
270.0
 51
360.0
  0
ARC
  5
2C9
100
AcDbEntity
  8
0
100
AcDbCircle
 62
7
  6
CONTINUOUS
 10
390.5383318181
 20
334.3173108783
 40
5.0
100
AcDbArc
 50
0.0
 51
90.0
  0
ARC
  5
2CA
100
AcDbEntity
  8
0
100
AcDbCircle
 62
7
  6
CONTINUOUS
 10
325.5383318181
 20
654.6673108783
 40
82.5
100
AcDbArc
 50
0.0
 51
180.0
  0
ARC
  5
2CB
100
AcDbEntity
  8
0
100
AcDbCircle
 62
7
  6
CONTINUOUS
 10
325.5383318181
 20
654.6673108783
 40
65.622023742
100
AcDbArc
 50
0.0
 51
180.0
  0
CIRCLE
  5
2CC
100
AcDbEntity
  8
FASEN
100
AcDbCircle
 62
7
  6
CONTINUOUS
 10
325.5383318181
 20
654.6673108783
 40
39.5
  0
CIRCLE
  5
2CD
100
AcDbEntity
  8
FASEN
100
AcDbCircle
 62
7
  6
CONTINUOUS
 10
325.5383318181
 20
654.6673108783
 40
37.5
  0
SPLINE
  5
2CE
100
AcDbEntity
  8
BEZUGSACHSEN
100
AcDbSpline
 62
7
  6
CONTINUOUS
 70
0
 71
3
 72
10
 73
6
 74
0
 42
0.0000001
 43
0.0000001
 44
0.0000000001
 40
0.0
 40
0.0
 40
0.0
 40
0.0
 40
0.2496151771
 40
0.6244915166
 40
1.0
 40
1.0
 40
1.0
 40
1.0
 10
755.2421855944
 20
326.4981976179
 30
0.0
 10
755.8187883996
 20
330.3650326088
 30
0.0
 10
757.55890989
 20
339.9964432925
 30
0.0
 10
761.3825807799
 20
355.1995179395
 30
0.0
 10
764.971083916
 20
366.3981401153
 30
0.0
 10
766.9007428681
 20
371.9539606247
 30
0.0
  0
SPLINE
  5
2CF
100
AcDbEntity
  8
BEZUGSACHSEN
100
AcDbSpline
 62
7
  6
CONTINUOUS
 70
0
 71
3
 72
10
 73
6
 74
0
 42
0.0000001
 43
0.0000001
 44
0.0000000001
 40
0.0
 40
0.0
 40
0.0
 40
0.0
 40
0.2565501683
 40
0.5088732179
 40
1.0
 40
1.0
 40
1.0
 40
1.0
 10
710.9836283207
 20
136.1483048662
 30
0.0
 10
712.2611784301
 20
138.4216111442
 30
0.0
 10
714.6964103867
 20
142.9886772128
 30
0.0
 10
718.9788317878
 20
152.207784335
 30
0.0
 10
721.4713394704
 20
159.3887261575
 30
0.0
 10
722.6421855944
 20
164.241511389
 30
0.0
  0
SPLINE
  5
2D0
100
AcDbEntity
  8
BEZUGSACHSEN
100
AcDbSpline
 62
7
  6
CONTINUOUS
 70
0
 71
3
 72
10
 73
6
 74
0
 42
0.0000001
 43
0.0000001
 44
0.0000000001
 40
0.0
 40
0.0
 40
0.0
 40
0.0
 40
0.4911267838
 40
0.7434498329
 40
1.0
 40
1.0
 40
1.0
 40
1.0
 10
722.6421855944
 20
196.2938501159
 30
0.0
 10
721.4713394663
 20
201.1466353645
 30
0.0
 10
718.9788317771
 20
208.3275771979
 30
0.0
 10
714.6964103709
 20
217.5466843174
 30
0.0
 10
712.2611784242
 20
222.1137503712
 30
0.0
 10
710.9836283207
 20
224.3870566386
 30
0.0
  0
SPLINE
  5
2D1
100
AcDbEntity
  8
BEZUGSACHSEN
100
AcDbSpline
 62
7
  6
CONTINUOUS
 70
0
 71
3
 72
10
 73
6
 74
0
 42
0.0000001
 43
0.0000001
 44
0.0000000001
 40
0.0
 40
0.0
 40
0.0
 40
0.0
 40
0.2565501683
 40
0.5088732179
 40
1.0
 40
1.0
 40
1.0
 40
1.0
 10
766.9007428681
 20
136.1483048662
 30
0.0
 10
765.6231927587
 20
138.4216111442
 30
0.0
 10
763.1879608021
 20
142.9886772128
 30
0.0
 10
758.905539401
 20
152.207784335
 30
0.0
 10
756.4130317183
 20
159.3887261575
 30
0.0
 10
755.2421855944
 20
164.241511389
 30
0.0
  0
SPLINE
  5
2D2
100
AcDbEntity
  8
BEZUGSACHSEN
100
AcDbSpline
 62
7
  6
CONTINUOUS
 70
0
 71
3
 72
10
 73
6
 74
0
 42
0.0000001
 43
0.0000001
 44
0.0000000001
 40
0.0
 40
0.0
 40
0.0
 40
0.0
 40
0.4911267838
 40
0.7434498329
 40
1.0
 40
1.0
 40
1.0
 40
1.0
 10
755.2421855944
 20
196.2938501159
 30
0.0
 10
756.4130317225
 20
201.1466353645
 30
0.0
 10
758.9055394117
 20
208.3275771979
 30
0.0
 10
763.1879608179
 20
217.5466843174
 30
0.0
 10
765.6231927646
 20
222.1137503712
 30
0.0
 10
766.9007428681
 20
224.3870566386
 30
0.0
  0
SPLINE
  5
2D3
100
AcDbEntity
  8
0
100
AcDbSpline
 62
7
  6
CONTINUOUS
 70
0
 71
3
 72
23
 73
19
 74
0
 42
0.0000001
 43
0.0000001
 44
0.0000000001
 40
0.0
 40
0.0
 40
0.0
 40
0.0
 40
0.062524598
 40
0.1250477712
 40
0.1875683141
 40
0.2500836057
 40
0.3125896678
 40
0.3750801161
 40
0.4375491141
 40
0.4999999996
 40
0.5624508854
 40
0.6249198835
 40
0.6874103318
 40
0.7499163939
 40
0.8124316856
 40
0.8749522285
 40
0.9374754019
 40
1.0
 40
1.0
 40
1.0
 40
1.0
 10
819.4421855944
 20
442.4179824064
 30
0.0
 10
816.6767536236
 20
445.2467268278
 30
0.0
 10
811.0508525334
 20
450.812546554
 30
0.0
 10
802.27219743
 20
458.804371516
 30
0.0
 10
793.0849452158
 20
466.3263456801
 30
0.0
 10
783.4095040964
 20
473.2150148348
 30
0.0
 10
773.1634753253
 20
479.234399001
 30
0.0
 10
762.2885411957
 20
484.0511370586
 30
0.0
 10
750.8127659534
 20
487.2363256561
 30
0.0
 10
738.9421856512
 20
488.3625585216
 30
0.0
 10
727.0716053385
 20
487.2363256765
 30
0.0
 10
715.5958300669
 20
484.051137088
 30
0.0
 10
704.720895924
 20
479.2343990356
 30
0.0
 10
694.4748671528
 20
473.2150148667
 30
0.0
 10
684.7994260164
 20
466.3263457216
 30
0.0
 10
675.6121737987
 20
458.8043715402
 30
0.0
 10
666.8335186723
 20
450.8125465713
 30
0.0
 10
661.2076175712
 20
445.246726834
 30
0.0
 10
658.4421855944
 20
442.4179824064
 30
0.0
  0
SPLINE
  5
2D4
100
AcDbEntity
  8
BEZUGSACHSEN
100
AcDbSpline
 62
7
  6
CONTINUOUS
 70
0
 71
3
 72
9
 73
5
 74
0
 42
0.0000001
 43
0.0000001
 44
0.0000000001
 40
0.0
 40
0.0
 40
0.0
 40
0.0
 40
0.2505784187
 40
1.0
 40
1.0
 40
1.0
 40
1.0
 10
710.6134627454
 20
228.1201636591
 30
0.0
 10
711.9427839469
 20
231.909913413
 30
0.0
 10
717.0002890469
 20
247.114159476
 30
0.0
 10
720.8707068439
 20
262.7564680291
 30
0.0
 10
722.6421855944
 20
274.6364241388
 30
0.0
  0
SPLINE
  5
2D5
100
AcDbEntity
  8
BEZUGSACHSEN
100
AcDbSpline
 62
7
  6
CONTINUOUS
 70
0
 71
3
 72
10
 73
6
 74
0
 42
0.0000001
 43
0.0000001
 44
0.0000000001
 40
0.0
 40
0.0
 40
0.0
 40
0.0
 40
0.2496151771
 40
0.6244915166
 40
1.0
 40
1.0
 40
1.0
 40
1.0
 10
722.6421855944
 20
326.4981976179
 30
0.0
 10
722.0655827892
 20
330.3650326088
 30
0.0
 10
720.3254612988
 20
339.9964432925
 30
0.0
 10
716.5017904089
 20
355.1995179395
 30
0.0
 10
712.9132872728
 20
366.3981401153
 30
0.0
 10
710.9836283207
 20
371.9539606247
 30
0.0
  0
SPLINE
  5
2D6
100
AcDbEntity
  8
BEZUGSACHSEN
100
AcDbSpline
 62
7
  6
CONTINUOUS
 70
0
 71
3
 72
9
 73
5
 74
0
 42
0.0000001
 43
0.0000001
 44
0.0000000001
 40
0.0
 40
0.0
 40
0.0
 40
0.0
 40
0.2505784187
 40
1.0
 40
1.0
 40
1.0
 40
1.0
 10
767.2709084433
 20
228.1201636591
 30
0.0
 10
765.9415872419
 20
231.909913413
 30
0.0
 10
760.8840821419
 20
247.114159476
 30
0.0
 10
757.0136643449
 20
262.7564680291
 30
0.0
 10
755.2421855944
 20
274.6364241388
 30
0.0
  0
SPLINE
  5
2D7
100
AcDbEntity
  8
0
100
AcDbSpline
 62
7
  6
CONTINUOUS
 70
0
 71
3
 72
15
 73
11
 74
0
 42
0.0000001
 43
0.0000001
 44
0.0000000001
 40
0.0
 40
0.0
 40
0.0
 40
0.0
 40
0.1133045336
 40
0.2243907633
 40
0.3354685058
 40
0.4499087209
 40
0.5718007634
 40
0.7045152651
 40
0.8485489384
 40
1.0
 40
1.0
 40
1.0
 40
1.0
 10
271.1117757999
 20
569.1673108783
 30
0.0
 10
270.4140312819
 20
569.1673108783
 30
0.0
 10
269.0294230929
 20
569.2600703322
 30
0.0
 10
267.0077909738
 20
569.734128113
 30
0.0
 10
265.1051292648
 20
570.5939558825
 30
0.0
 10
263.380571097
 20
571.891175957
 30
0.0
 10
261.9130255164
 20
573.6524101544
 30
0.0
 10
260.7872080588
 20
575.8549524347
 30
0.0
 10
260.0769921212
 20
578.4105015415
 30
0.0
 10
259.916308076
 20
580.2346549232
 30
0.0
 10
259.916308076
 20
581.1673108783
 30
0.0
  0
SPLINE
  5
2D8
100
AcDbEntity
  8
0
100
AcDbSpline
 62
7
  6
CONTINUOUS
 70
0
 71
3
 72
15
 73
11
 74
0
 42
0.0000001
 43
0.0000001
 44
0.0000000001
 40
0.0
 40
0.0
 40
0.0
 40
0.0
 40
0.1514510616
 40
0.2954847349
 40
0.4281992366
 40
0.5500912791
 40
0.6645314942
 40
0.7756092367
 40
0.8866954664
 40
1.0
 40
1.0
 40
1.0
 40
1.0
 10
391.1603555601
 20
581.1673108783
 30
0.0
 10
391.1603555601
 20
580.2346549232
 30
0.0
 10
390.999671515
 20
578.4105015415
 30
0.0
 10
390.2894555774
 20
575.8549524347
 30
0.0
 10
389.1636381197
 20
573.6524101544
 30
0.0
 10
387.6960925391
 20
571.891175957
 30
0.0
 10
385.9715343714
 20
570.5939558825
 30
0.0
 10
384.0688726623
 20
569.734128113
 30
0.0
 10
382.0472405432
 20
569.2600703322
 30
0.0
 10
380.6626323543
 20
569.1673108783
 30
0.0
 10
379.9648878363
 20
569.1673108783
 30
0.0
  0
SPLINE
  5
2D9
100
AcDbEntity
  8
0
100
AcDbSpline
 62
7
  6
CONTINUOUS
 70
0
 71
3
 72
10
 73
6
 74
0
 42
0.0000001
 43
0.0000001
 44
0.0000000001
 40
0.0
 40
0.0
 40
0.0
 40
0.0
 40
0.2500008871
 40
0.50000577
 40
1.0
 40
1.0
 40
1.0
 40
1.0
 10
254.8305249713
 20
490.3173108783
 30
0.0
 10
251.5025984496
 20
486.5662578493
 30
0.0
 10
244.9963247914
 20
478.9306685847
 30
0.0
 10
232.4460585192
 20
463.2819096153
 30
0.0
 10
223.433094121
 20
451.2315047772
 30
0.0
 10
217.5383318181
 20
443.1178916941
 30
0.0
  0
SPLINE
  5
2DA
100
AcDbEntity
  8
0
100
AcDbSpline
 62
7
  6
CONTINUOUS
 70
0
 71
3
 72
10
 73
6
 74
0
 42
0.0000001
 43
0.0000001
 44
0.0000000001
 40
0.0
 40
0.0
 40
0.0
 40
0.0
 40
0.4999942301
 40
0.7499991126
 40
1.0
 40
1.0
 40
1.0
 40
1.0
 10
433.5383318181
 20
443.1178916941
 30
0.0
 10
427.6435695148
 20
451.2315047776
 30
0.0
 10
418.6306050942
 20
463.2819095911
 30
0.0
 10
406.0803388618
 20
478.9306685925
 30
0.0
 10
399.5740651903
 20
486.5662578451
 30
0.0
 10
396.2461386649
 20
490.3173108783
 30
0.0
  0
ELLIPSE
  5
2DB
100
AcDbEntity
  8
RUNDUNGEN
100
AcDbEllipse
 62
7
  6
CONTINUOUS
 10
849.4421855944
 20
179.7437177495
 30
0.0
 11
0.0
 21
30.0
 31
0.0
 40
1.0
 41
1.5707963268
 42
1.9380043474
  0
ELLIPSE
  5
2DC
100
AcDbEntity
  8
RUNDUNGEN
100
AcDbEllipse
 62
7
  6
CONTINUOUS
 10
628.4421855944
 20
179.7437177495
 30
0.0
 11
0.0
 21
30.0
 31
0.0
 40
1.0
 41
-1.9380043474
 42
-1.5707963268
  0
ELLIPSE
  5
2DD
100
AcDbEntity
  8
0
100
AcDbEllipse
 62
7
  6
CONTINUOUS
 10
325.5383318181
 20
519.9695799715
 30
0.0
 11
-0.0
 21
91.5349549954
 31
0.0
 40
0.8164965809
 41
-4.4054992157
 42
-4.3824928509
  0
ELLIPSE
  5
2DE
100
AcDbEntity
  8
0
100
AcDbEllipse
 62
7
  6
CONTINUOUS
 10
325.5383318181
 20
519.9695799715
 30
0.0
 11
0.0
 21
91.5349549954
 31
0.0
 40
0.8164965809
 41
-1.9006924563
 42
-1.8776860915
  0
ENDSEC
  0
SECTION
  2
OBJECTS
  0
DICTIONARY
  5
C
100
AcDbDictionary
280
0
281
1
  3
ACAD_GROUP
350
D
  3
ACAD_MLINESTYLE
350
17
  3
ACAD_LAYOUT
350
1A
  3
ACAD_PLOTSETTINGS
350
19
  3
ACAD_PLOTSTYLENAME
350
E
  0
DICTIONARY
  5
D
102
{ACAD_REACTORS
330
C
102
}
100
AcDbDictionary
280
0
281
1
  0
ACDBDICTIONARYWDFLT
  5
E
102
{ACAD_REACTORS
330
C
102
}
100
AcDbDictionary
281
1
  3
Normal
350
F
100
AcDbDictionaryWithDefault
340
F
  0
DICTIONARY
  5
17
102
{ACAD_REACTORS
330
C
102
}
100
AcDbDictionary
280
0
281
1
  3
Standard
350
18
  0
DICTIONARY
  5
19
102
{ACAD_REACTORS
330
C
102
}
100
AcDbDictionary
281
1
  0
DICTIONARY
  5
1A
102
{ACAD_REACTORS
330
C
102
}
100
AcDbDictionary
281
1
  3
Model
350
2DF
  3
Layout1
350
2E0
  0
ACDBPLACEHOLDER
  5
F
102
{ACAD_REACTORS
330
E
102
}
  0
MLINESTYLE
  5
18
102
{ACAD_REACTORS
330
17
102
}
100
AcDbMlineStyle
  2
STANDARD
 70
0
  3

 62
256
 51
90.0
 52
90.0
 71
2
 49
0.5
 62
256
  6
BYLAYER
 49
-0.5
 62
256
  6
BYLAYER
  0
LAYOUT
  5
2DF
102
{ACAD_REACTORS
330
1A
102
}
100
AcDbPlotSettings
  1

  2
none_device
  4
ISO_A0_(1189.00_x_841.00_MM)
  6

 40
0.0
 41
0.0
 42
0.0
 43
0.0
 44
1189.0
 45
841.0
 46
0.0
 47
0.0
 48
0.0
 49
0.0
140
0.0
141
0.0
142
1.0
143
1.0
 70
1024
 72
1
 73
0
 74
0
  7

 75
0
147
1.0
148
0.0
149
0.0
100
AcDbLayout
  1
Model
 70
0
 71
0
 10
0.0
 20
0.0
 11
1189.0
 21
841.0
 12
0.0
 22
0.0
 32
0.0
 14
0.0
 24
0.0
 34
0.0
 15
0.0
 25
0.0
 35
0.0
146
0.0
 13
0.0
 23
0.0
 33
0.0
 16
1.0
 26
0.0
 36
0.0
 17
0.0
 27
1.0
 37
0.0
 76
0
330
20B
345
0
346
0
  0
LAYOUT
  5
2E0
102
{ACAD_REACTORS
330
1A
102
}
100
AcDbPlotSettings
  1

  2
none_device
  4
ISO_A0_(1189.00_x_841.00_MM)
  6

 40
0.0
 41
0.0
 42
0.0
 43
0.0
 44
1189.0
 45
841.0
 46
0.0
 47
0.0
 48
0.0
 49
0.0
140
0.0
141
0.0
142
1.0
143
1.0
 70
0
 72
1
 73
0
 74
0
  7

 75
0
147
1.0
148
0.0
149
0.0
100
AcDbLayout
  1
Layout1
 70
0
 71
1
 10
0.0
 20
0.0
 11
1189.0
 21
841.0
 12
0.0
 22
0.0
 32
0.0
 14
0.0
 24
0.0
 34
0.0
 15
0.0
 25
0.0
 35
0.0
146
0.0
 13
0.0
 23
0.0
 33
0.0
 16
1.0
 26
0.0
 36
0.0
 17
0.0
 27
1.0
 37
0.0
 76
0
330
20C
345
0
346
0
  0
ENDSEC
  0
EOF
