999
DXF file: VSAK-2-8_190_7994075_M32394-P-1.dxf
999
Pro/ENGINEER 2010140 by Parametric Technology Corporation
  0
SECTION
  2
HEADER
  9
$ACADVER
  1
AC1015
  9
$DWGCODEPAGE
  3
ANSI_1252
  9
$EXTMAX
 10
841.0
 20
594.0
 30
0.0
  9
$EXTMIN
 10
0.0
 20
0.0
 30
0.0
  9
$LIMMIN
 10
0.0
 20
0.0
  9
$LIMMAX
 10
841.0
 20
594.0
  9
$VIEWCTR
 10
420.5
 20
297.0
  9
$VIEWSIZE
 40
594.0
  9
$CLAYER
  8
0
  9
$LTSCALE
 40
46.255
  9
$CELTYPE
  6
BYLAYER
  9
$DIMSCALE
 40
1.0
  9
$DIMASZ
 40
3.5
  9
$DIMEXO
 40
5.25625
  9
$DIMDLI
 40
31.958
  9
$DIMEXE
 40
15.138
  9
$DIMCEN
 40
7.569
  9
$DIMLFAC
 40
1.0
  9
$DIMBLK
  1
_FILLED
  9
$DIMTXT
 40
3.5
  9
$DIMTOL
 70
1
  9
$DIMLIM
 70
0
  9
$DIMTFAC
 40
1.0
  9
$DIMTP
 40
0.005
  9
$DIMTM
 40
0.005
  9
$PDMODE
 70
3
  9
$PDSIZE
 40
0.3125
  9
$HANDSEED
  5
609
  9
$TILEMODE
 70
1
  9
$MEASUREMENT
 70
1
  9
$INSUNITS
 70
4
  0
ENDSEC
  0
SECTION
  2
CLASSES
  0
CLASS
  1
ACDBDICTIONARYWDFLT
  2
AcDbDictionaryWithDefault
  3
AutoCAD 2000
 90
0
280
0
281
0
  0
CLASS
  1
ACDBPLACEHOLDER
  2
AcDbPlaceHolder
  3
AutoCAD 2000
 90
0
280
0
281
0
  0
CLASS
  1
LAYOUT
  2
AcDbLayout
  3
AutoCAD 2000
 90
0
280
0
281
0
  0
ENDSEC
  0
SECTION
  2
TABLES
  0
TABLE
  2
VPORT
  5
8
100
AcDbSymbolTable
 70
2
  0
VPORT
  5
1F4
100
AcDbSymbolTableRecord
100
AcDbViewportTableRecord
  2
*ACTIVE
 70
0
 10
0.0
 20
0.0
 11
1.0
 21
1.0
 12
420.5
 22
297.0
 13
0.0
 23
0.0
 14
1.0
 24
1.0
 15
0.0
 25
0.0
 16
0.0
 26
0.0
 36
1.0
 17
0.0
 27
0.0
 37
0.0
 40
594.0
 41
1.4158249158
 42
50.0
 43
0.0
 44
0.0
 50
0.0
 51
0.0
 71
0
 72
100
 73
1
 74
1
 75
0
 76
0
 77
0
 78
0
  0
ENDTAB
  0
TABLE
  2
LTYPE
  5
5
100
AcDbSymbolTable
 70
6
  0
LTYPE
  5
14
100
AcDbSymbolTableRecord
100
AcDbLinetypeTableRecord
  2
BYBLOCK
 70
0
  3

 72
65
 73
0
 40
0.0
  0
LTYPE
  5
15
100
AcDbSymbolTableRecord
100
AcDbLinetypeTableRecord
  2
BYLAYER
 70
0
  3

 72
65
 73
0
 40
0.0
  0
LTYPE
  5
16
100
AcDbSymbolTableRecord
100
AcDbLinetypeTableRecord
  2
CONTINUOUS
 70
64
  3
Solid line
 72
65
 73
0
 40
0.0
  0
LTYPE
  5
1F5
100
AcDbSymbolTableRecord
100
AcDbLinetypeTableRecord
  2
CENTER
 70
64
  3
____ _ ____ _ ____ _ ____ _ ____ _ ____ _ ____
 72
65
 73
4
 40
0.6
 49
0.375
 74
0
 49
-0.075
 74
0
 49
0.075
 74
0
 49
-0.075
 74
0
  0
LTYPE
  5
1F6
100
AcDbSymbolTableRecord
100
AcDbLinetypeTableRecord
  2
HIDDEN
 70
64
  3
- - - - - - - - - - - - - - - - - - - -
 72
65
 73
2
 40
0.2
 49
0.1
 74
0
 49
-0.1
 74
0
  0
LTYPE
  5
1F7
100
AcDbSymbolTableRecord
100
AcDbLinetypeTableRecord
  2
PHANTOM
 70
64
  3
_____ _ _ _____ _ _ _____ _ _ _____
 72
65
 73
6
 40
0.8
 49
0.45
 74
0
 49
-0.05
 74
0
 49
0.1
 74
0
 49
-0.05
 74
0
 49
0.1
 74
0
 49
-0.05
 74
0
  0
LTYPE
  5
1F8
100
AcDbSymbolTableRecord
100
AcDbLinetypeTableRecord
  2
DOT
 70
64
  3
. . . . . . . . . . . . . . . . . . . .
 72
65
 73
2
 40
0.2
 49
0.1
 74
0
 49
-0.1
 74
0
  0
LTYPE
  5
1F9
100
AcDbSymbolTableRecord
100
AcDbLinetypeTableRecord
  2
DASHED
 70
64
  3
- - - - - - - - - - - - - - - - - - - -
 72
65
 73
2
 40
0.2
 49
0.1
 74
0
 49
-0.1
 74
0
  0
ENDTAB
  0
TABLE
  2
LAYER
  5
2
100
AcDbSymbolTable
 70
36
  0
LAYER
  5
10
100
AcDbSymbolTableRecord
100
AcDbLayerTableRecord
  2
0
 70
0
 62
7
  6
CONTINUOUS
370
-3
390
F
  0
LAYER
  5
1FA
100
AcDbSymbolTableRecord
100
AcDbLayerTableRecord
  2
DEFAULT_1
 70
0
 62
7
  6
CENTER
370
-3
390
F
  0
LAYER
  5
1FB
100
AcDbSymbolTableRecord
100
AcDbLayerTableRecord
  2
DEFAULT_2
 70
0
 62
8
  6
HIDDEN
370
-3
390
F
  0
LAYER
  5
1FC
100
AcDbSymbolTableRecord
100
AcDbLayerTableRecord
  2
DEFAULT_3
 70
0
 62
7
  6
PHANTOM
370
-3
390
F
  0
LAYER
  5
1FD
100
AcDbSymbolTableRecord
100
AcDbLayerTableRecord
  2
AUSFORMSCHRAEGEN
 70
0
 62
7
  6
CONTINUOUS
370
-3
390
F
  0
LAYER
  5
1FE
100
AcDbSymbolTableRecord
100
AcDbLayerTableRecord
  2
BEZUGSACHSEN
 70
0
 62
7
  6
CONTINUOUS
370
-3
390
F
  0
LAYER
  5
1FF
100
AcDbSymbolTableRecord
100
AcDbLayerTableRecord
  2
BEZUGSEBENEN
 70
0
 62
7
  6
CONTINUOUS
370
-3
390
F
  0
LAYER
  5
200
100
AcDbSymbolTableRecord
100
AcDbLayerTableRecord
  2
BG_STARTBEZUEGE
 70
0
 62
7
  6
CONTINUOUS
370
-3
390
F
  0
LAYER
  5
201
100
AcDbSymbolTableRecord
100
AcDbLayerTableRecord
  2
FASEN
 70
0
 62
7
  6
CONTINUOUS
370
-3
390
F
  0
LAYER
  5
202
100
AcDbSymbolTableRecord
100
AcDbLayerTableRecord
  2
HILFEN
 70
0
 62
7
  6
CONTINUOUS
370
-3
390
F
  0
LAYER
  5
203
100
AcDbSymbolTableRecord
100
AcDbLayerTableRecord
  2
KONSTRUKTIONSELEMENTE
 70
0
 62
7
  6
CONTINUOUS
370
-3
390
F
  0
LAYER
  5
204
100
AcDbSymbolTableRecord
100
AcDbLayerTableRecord
  2
NORM
 70
0
 62
7
  6
CONTINUOUS
370
-3
390
F
  0
LAYER
  5
205
100
AcDbSymbolTableRecord
100
AcDbLayerTableRecord
  2
PLATZIERUNG
 70
0
 62
7
  6
CONTINUOUS
370
-3
390
F
  0
LAYER
  5
206
100
AcDbSymbolTableRecord
100
AcDbLayerTableRecord
  2
PLAZIERUNG
 70
0
 62
7
  6
CONTINUOUS
370
-3
390
F
  0
LAYER
  5
207
100
AcDbSymbolTableRecord
100
AcDbLayerTableRecord
  2
RUNDUNGEN
 70
0
 62
7
  6
CONTINUOUS
370
-3
390
F
  0
LAYER
  5
208
100
AcDbSymbolTableRecord
100
AcDbLayerTableRecord
  2
TEIL_STARTBEZUEGE
 70
0
 62
7
  6
CONTINUOUS
370
-3
390
F
  0
LAYER
  5
209
100
AcDbSymbolTableRecord
100
AcDbLayerTableRecord
  2
T_STARTBEZUEGE
 70
0
 62
7
  6
CONTINUOUS
370
-3
390
F
  0
ENDTAB
  0
TABLE
  2
STYLE
  5
3
100
AcDbSymbolTable
 70
1
  0
STYLE
  5
11
100
AcDbSymbolTableRecord
100
AcDbTextStyleTableRecord
  2
STANDARD
 70
0
 40
0.0
 41
0.7
 50
0.0
 71
0
 42
0.2
  3
txt
  4

  0
STYLE
  5
20A
100
AcDbSymbolTableRecord
100
AcDbTextStyleTableRecord
  2
TEXTSTYLE_1
 70
0
 40
0.0
 41
0.8
 50
0.0
 71
0
 42
0.2
  3
gdt
  4

  0
ENDTAB
  0
TABLE
  2
VIEW
  5
6
100
AcDbSymbolTable
 70
0
  0
ENDTAB
  0
TABLE
  2
UCS
  5
7
100
AcDbSymbolTable
 70
0
  0
ENDTAB
  0
TABLE
  2
APPID
  5
9
100
AcDbSymbolTable
 70
1
  0
APPID
  5
20B
100
AcDbSymbolTableRecord
100
AcDbRegAppTableRecord
  2
ACAD
 70
0
  0
ENDTAB
  0
TABLE
  2
BLOCK_RECORD
  5
1
100
AcDbSymbolTable
 70
0
  0
BLOCK_RECORD
  5
20C
100
AcDbSymbolTableRecord
100
AcDbBlockTableRecord
  2
*Model_Space
  0
BLOCK_RECORD
  5
20D
100
AcDbSymbolTableRecord
100
AcDbBlockTableRecord
  2
*Paper_Space
  0
ENDTAB
  0
TABLE
  2
DIMSTYLE
  5
A
100
AcDbSymbolTable
 70
1
100
AcDbDimStyleTable
 71
0
  0
DIMSTYLE
105
20E
100
AcDbSymbolTableRecord
100
AcDbDimStyleTableRecord
  2
STANDARD
 70
0
  3

  4

 40
1.0
 41
3.5
 42
0.0625
 43
0.38
 44
0.18
 45
0.0
 46
0.0
 47
0.005
 48
0.005
140
3.5
141
0.09
142
0.0
143
25.4
144
1.0
145
0.0
146
1.0
147
0.09
 71
1.0
 72
0.0
 73
0
 74
0
 75
0
 76
0
 77
1
 78
8
170
0
171
2
172
0
173
0
174
0
175
0
176
0
177
0
178
5
270
2
271
3
272
3
273
2
274
2
275
0
280
0
281
0
282
0
283
1
284
8
285
0
286
0
287
3
288
0
340
11
  0
ENDTAB
  0
ENDSEC
  0
SECTION
  2
BLOCKS
  0
BLOCK
  5
20
100
AcDbEntity
  8
0
100
AcDbBlockBegin
  2
*Model_Space
 70
0
 10
0.0
 20
0.0
 30
0.0
  3
*Model_Space
  1

  0
ENDBLK
  5
21
100
AcDbEntity
  8
0
100
AcDbBlockEnd
  0
BLOCK
  5
1C
100
AcDbEntity
  8
0
100
AcDbBlockBegin
  2
*Paper_Space
 70
0
 10
0.0
 20
0.0
 30
0.0
  3
*Paper_Space
  1

  0
ENDBLK
  5
1D
100
AcDbEntity
  8
0
100
AcDbBlockEnd
  0
ENDSEC
  0
SECTION
  2
ENTITIES
  0
MTEXT
  5
20F
100
AcDbEntity
  8
0
100
AcDbMText
 62
5
  6
CONTINUOUS
  7
STANDARD
 71
1
 72
1
 10
107.4901988354
 20
353.532786317
 30
0.0
 11
0.0
 21
1.0
 31
0.0
 44
0.9
  1
RUD
 40
8.0
 41
21.3333333333
  0
MTEXT
  5
210
100
AcDbEntity
  8
0
100
AcDbMText
 62
5
  6
CONTINUOUS
  7
STANDARD
 71
1
 72
1
 10
320.3420084201
 20
335.653076426
 30
0.0
 11
0.0
 21
1.0
 31
0.0
 44
0.9
  1
VSAK 2-8/190
 40
8.0
 41
75.4285714286
  0
MTEXT
  5
211
100
AcDbEntity
  8
0
100
AcDbMText
 62
5
  6
CONTINUOUS
  7
STANDARD
 71
1
 72
1
 10
568.1973426347
 20
325.4517093917
 30
0.0
 11
0.0
 21
1.0
 31
0.0
 44
0.9
  1
RUD VSAK 2-8/190
 40
8.0
 41
101.5238095238
  0
LINE
  5
212
100
AcDbEntity
  8
0
100
AcDbLine
 62
7
  6
CONTINUOUS
 10
0.0
 20
0.0
 11
0.0
 21
594.0
  0
LINE
  5
213
100
AcDbEntity
  8
0
100
AcDbLine
 62
7
  6
CONTINUOUS
 10
0.0
 20
0.0
 11
841.0
 21
0.0
  0
LINE
  5
214
100
AcDbEntity
  8
0
100
AcDbLine
 62
7
  6
CONTINUOUS
 10
0.0
 20
594.0
 11
841.0
 21
594.0
  0
LINE
  5
215
100
AcDbEntity
  8
0
100
AcDbLine
 62
7
  6
CONTINUOUS
 10
841.0
 20
0.0
 11
841.0
 21
594.0
  0
LINE
  5
216
100
AcDbEntity
  8
KONSTRUKTIONSELEMENTE
100
AcDbLine
 62
7
  6
CONTINUOUS
 10
61.6120087868
 20
25.9423338523
 11
67.9166737263
 21
22.3023338523
  0
LINE
  5
217
100
AcDbEntity
  8
KONSTRUKTIONSELEMENTE
100
AcDbLine
 62
7
  6
CONTINUOUS
 10
61.4070199815
 20
26.3872828266
 11
61.753430143
 21
26.1872828266
  0
LINE
  5
218
100
AcDbEntity
  8
KONSTRUKTIONSELEMENTE
100
AcDbLine
 62
7
  6
CONTINUOUS
 10
68.0580950825
 20
22.5472828266
 11
68.4045052441
 21
22.3472828266
  0
LINE
  5
219
100
AcDbEntity
  8
KONSTRUKTIONSELEMENTE
100
AcDbLine
 62
7
  6
CONTINUOUS
 10
61.06198111
 20
39.3238377744
 11
64.4975817441
 21
37.3402928234
  0
LINE
  5
21A
100
AcDbEntity
  8
KONSTRUKTIONSELEMENTE
100
AcDbLine
 62
7
  6
CONTINUOUS
 10
76.3448092679
 20
30.5002928234
 11
89.33594298
 21
22.9998582777
  0
LINE
  5
21B
100
AcDbEntity
  8
KONSTRUKTIONSELEMENTE
100
AcDbLine
 62
7
  6
CONTINUOUS
 10
57.1049971616
 20
70.0278912031
 11
61.9633763319
 21
69.0172497832
  0
LINE
  5
21C
100
AcDbEntity
  8
KONSTRUKTIONSELEMENTE
100
AcDbLine
 62
7
  6
CONTINUOUS
 10
57.2464185179
 20
70.2728401774
 11
62.1047976881
 21
69.2621987575
  0
LINE
  5
21D
100
AcDbEntity
  8
KONSTRUKTIONSELEMENTE
100
AcDbLine
 62
7
  6
CONTINUOUS
 10
58.2946710062
 20
71.265706495
 11
62.0318857525
 21
70.4882900182
  0
LINE
  5
21E
100
AcDbEntity
  8
KONSTRUKTIONSELEMENTE
100
AcDbLine
 62
7
  6
CONTINUOUS
 10
59.4260418561
 20
73.2252982892
 11
62.8629473465
 21
72.5103522294
  0
LINE
  5
21F
100
AcDbEntity
  8
KONSTRUKTIONSELEMENTE
100
AcDbLine
 62
7
  6
CONTINUOUS
 10
56.6146643948
 20
78.273354931
 11
56.7743137349
 21
78.2117810901
  0
LINE
  5
220
100
AcDbEntity
  8
KONSTRUKTIONSELEMENTE
100
AcDbLine
 62
7
  6
CONTINUOUS
 10
93.6237044339
 20
23.1796532851
 11
90.0650867259
 21
27.1665938249
  0
LINE
  5
221
100
AcDbEntity
  8
KONSTRUKTIONSELEMENTE
100
AcDbLine
 62
7
  6
CONTINUOUS
 10
95.0379179963
 20
25.6291430279
 11
91.4793002883
 21
29.6160835677
  0
LINE
  5
222
100
AcDbEntity
  8
KONSTRUKTIONSELEMENTE
100
AcDbLine
 62
7
  6
CONTINUOUS
 10
58.3744261792
 20
77.7938346244
 11
61.93891871
 21
77.0523478721
  0
LINE
  5
223
100
AcDbEntity
  8
KONSTRUKTIONSELEMENTE
100
AcDbLine
 62
7
  6
CONTINUOUS
 10
61.473043565
 20
77.2627135111
 11
56.6146643948
 21
78.273354931
  0
LINE
  5
224
100
AcDbEntity
  8
KONSTRUKTIONSELEMENTE
100
AcDbLine
 62
7
  6
CONTINUOUS
 10
87.0161922892
 20
76.1874547791
 11
60.0966873666
 21
81.7872578665
  0
LINE
  5
225
100
AcDbEntity
  8
KONSTRUKTIONSELEMENTE
100
AcDbLine
 62
7
  6
CONTINUOUS
 10
88.4304058516
 20
78.6369445218
 11
61.5109009289
 21
84.2367476092
  0
LINE
  5
226
100
AcDbEntity
  8
KONSTRUKTIONSELEMENTE
100
AcDbLine
 62
7
  6
CONTINUOUS
 10
118.345852008
 20
41.326571403
 11
121.904469716
 21
37.3396308632
  0
LINE
  5
227
100
AcDbEntity
  8
KONSTRUKTIONSELEMENTE
100
AcDbLine
 62
7
  6
CONTINUOUS
 10
98.7281331139
 20
69.4255625912
 11
123.3921317836
 21
41.7929523363
  0
LINE
  5
228
100
AcDbEntity
  8
KONSTRUKTIONSELEMENTE
100
AcDbLine
 62
7
  6
CONTINUOUS
 10
121.1648273831
 20
93.7452676018
 11
118.4582437613
 21
95.3079143844
  0
LINE
  5
229
100
AcDbEntity
  8
KONSTRUKTIONSELEMENTE
100
AcDbLine
 62
7
  6
CONTINUOUS
 10
99.5659111281
 20
106.2154077159
 11
96.8593275063
 21
107.7780544985
  0
LINE
  5
22A
100
AcDbEntity
  8
0
100
AcDbLine
 62
7
  6
CONTINUOUS
 10
116.1774930319
 20
104.0725249046
 11
108.2966618575
 21
108.6225249046
  0
LINE
  5
22B
100
AcDbEntity
  8
KONSTRUKTIONSELEMENTE
100
AcDbLine
 62
7
  6
CONTINUOUS
 10
124.806345346
 20
44.2424420791
 11
100.1423466762
 21
71.875052334
  0
LINE
  5
22C
100
AcDbEntity
  8
0
100
AcDbLine
 62
7
  6
CONTINUOUS
 10
120.9774930319
 20
112.3863687809
 11
113.0966618575
 21
116.9363687809
  0
LINE
  5
22D
100
AcDbEntity
  8
BEZUGSACHSEN
100
AcDbLine
 62
7
  6
CONTINUOUS
 10
145.9567556488
 20
142.2028662326
 11
146.3690632037
 21
142.0639351756
  0
LINE
  5
22E
100
AcDbEntity
  8
BEZUGSACHSEN
100
AcDbLine
 62
7
  6
CONTINUOUS
 10
146.8691573374
 20
135.7076542596
 11
147.2879101963
 21
135.5524887443
  0
LINE
  5
22F
100
AcDbEntity
  8
BEZUGSACHSEN
100
AcDbLine
 62
7
  6
CONTINUOUS
 10
147.6566441996
 20
137.9764244116
 11
148.0753971181
 21
137.8212588936
  0
LINE
  5
230
100
AcDbEntity
  8
BEZUGSACHSEN
100
AcDbLine
 62
7
  6
CONTINUOUS
 10
149.3537626405
 20
137.8294030154
 11
149.7725156781
 21
137.6742374918
  0
LINE
  5
231
100
AcDbEntity
  8
BEZUGSACHSEN
100
AcDbLine
 62
7
  6
CONTINUOUS
 10
148.6576058139
 20
135.6919872129
 11
148.9913447933
 21
135.5407897109
  0
LINE
  5
232
100
AcDbEntity
  8
BEZUGSACHSEN
100
AcDbLine
 62
7
  6
CONTINUOUS
 10
148.8434241331
 20
136.0223632937
 11
149.0921492925
 21
135.8751338022
  0
LINE
  5
233
100
AcDbEntity
  8
KONSTRUKTIONSELEMENTE
100
AcDbLine
 62
7
  6
CONTINUOUS
 10
56.5417524592
 20
79.4994461916
 11
56.6146643948
 21
78.273354931
  0
LINE
  5
234
100
AcDbEntity
  8
KONSTRUKTIONSELEMENTE
100
AcDbLine
 62
7
  6
CONTINUOUS
 10
57.1049971616
 20
70.0278912031
 11
58.738979926
 21
42.550743994
  0
LINE
  5
235
100
AcDbEntity
  8
KONSTRUKTIONSELEMENTE
100
AcDbLine
 62
7
  6
CONTINUOUS
 10
57.2464185179
 20
70.2728401774
 11
57.228190534
 21
70.5793629925
  0
LINE
  5
236
100
AcDbEntity
  8
KONSTRUKTIONSELEMENTE
100
AcDbLine
 62
7
  6
CONTINUOUS
 10
62.6715427751
 20
75.7290224009
 11
63.0298568041
 21
69.7035932857
  0
LINE
  5
237
100
AcDbEntity
  8
0
100
AcDbLine
 62
7
  6
CONTINUOUS
 10
301.0966816569
 20
162.0814559547
 11
308.7597707068
 21
163.7102958149
  0
LINE
  5
238
100
AcDbEntity
  8
BEZUGSACHSEN
100
AcDbLine
 62
7
  6
CONTINUOUS
 10
146.3690632037
 20
142.0639351756
 11
146.7122220442
 21
142.1160847188
  0
LINE
  5
239
100
AcDbEntity
  8
BEZUGSACHSEN
100
AcDbLine
 62
7
  6
CONTINUOUS
 10
146.3908205525
 20
142.5040174166
 11
146.6539519481
 21
142.5272064192
  0
LINE
  5
23A
100
AcDbEntity
  8
BEZUGSACHSEN
100
AcDbLine
 62
7
  6
CONTINUOUS
 10
146.3399328277
 20
146.1654561397
 11
146.7363909101
 21
146.1674168984
  0
LINE
  5
23B
100
AcDbEntity
  8
BEZUGSACHSEN
100
AcDbLine
 62
7
  6
CONTINUOUS
 10
129.2441276464
 20
153.6725672371
 11
130.3097228502
 21
153.6502649741
  0
LINE
  5
23C
100
AcDbEntity
  8
BEZUGSACHSEN
100
AcDbLine
 62
7
  6
CONTINUOUS
 10
129.6611389314
 20
154.1745895674
 11
130.6010838841
 21
154.1549170881
  0
LINE
  5
23D
100
AcDbEntity
  8
BEZUGSACHSEN
100
AcDbLine
 62
7
  6
CONTINUOUS
 10
147.8370232056
 20
145.2604515024
 11
148.2032322743
 21
145.2489055515
  0
LINE
  5
23E
100
AcDbEntity
  8
BEZUGSACHSEN
100
AcDbLine
 62
7
  6
CONTINUOUS
 10
123.6741170206
 20
156.0896755029
 11
123.8942979377
 21
156.0821389974
  0
LINE
  5
23F
100
AcDbEntity
  8
BEZUGSACHSEN
100
AcDbLine
 62
7
  6
CONTINUOUS
 10
147.5429516563
 20
135.540584713
 11
147.2879101963
 21
135.5524887443
  0
LINE
  5
240
100
AcDbEntity
  8
BEZUGSACHSEN
100
AcDbLine
 62
7
  6
CONTINUOUS
 10
149.2463862533
 20
135.5288856796
 11
148.9913447933
 21
135.5407897109
  0
LINE
  5
241
100
AcDbEntity
  8
BEZUGSACHSEN
100
AcDbLine
 62
7
  6
CONTINUOUS
 10
147.5587423355
 20
135.8788968147
 11
147.3037008755
 21
135.8908008461
  0
LINE
  5
242
100
AcDbEntity
  8
BEZUGSACHSEN
100
AcDbLine
 62
7
  6
CONTINUOUS
 10
149.2621769325
 20
135.8671977813
 11
149.0921492925
 21
135.8751338022
  0
LINE
  5
243
100
AcDbEntity
  8
BEZUGSACHSEN
100
AcDbLine
 62
7
  6
CONTINUOUS
 10
149.3379719613
 20
137.4910909137
 11
149.1679443214
 21
137.4990269346
  0
LINE
  5
244
100
AcDbEntity
  8
BEZUGSACHSEN
100
AcDbLine
 62
7
  6
CONTINUOUS
 10
147.3858120604
 20
137.6500163413
 11
147.6408535204
 21
137.6381123099
  0
LINE
  5
245
100
AcDbEntity
  8
BEZUGSACHSEN
100
AcDbLine
 62
7
  6
CONTINUOUS
 10
149.0987211806
 20
137.8413070468
 11
149.3537626405
 21
137.8294030154
  0
LINE
  5
246
100
AcDbEntity
  8
BEZUGSACHSEN
100
AcDbLine
 62
7
  6
CONTINUOUS
 10
147.4016027396
 20
137.988328443
 11
147.6566441996
 21
137.9764244116
  0
LINE
  5
247
100
AcDbEntity
  8
BEZUGSACHSEN
100
AcDbLine
 62
7
  6
CONTINUOUS
 10
127.0148181711
 20
153.4104295871
 11
127.3630880054
 21
153.3848394611
  0
LINE
  5
248
100
AcDbEntity
  8
BEZUGSACHSEN
100
AcDbLine
 62
7
  6
CONTINUOUS
 10
146.3834879385
 20
146.5873497022
 11
146.5992193828
 21
146.5593358043
  0
LINE
  5
249
100
AcDbEntity
  8
BEZUGSACHSEN
100
AcDbLine
 62
7
  6
CONTINUOUS
 10
126.9937221913
 20
153.9251086992
 11
127.2752653273
 21
153.8878689306
  0
LINE
  5
24A
100
AcDbEntity
  8
BEZUGSACHSEN
100
AcDbLine
 62
7
  6
CONTINUOUS
 10
147.8952930776
 20
144.8493297208
 11
148.181474454
 21
144.8088247886
  0
LINE
  5
24B
100
AcDbEntity
  8
0
100
AcDbLine
 62
7
  6
CONTINUOUS
 10
135.1774732325
 20
162.0814559547
 11
127.5143841826
 21
163.7102958149
  0
LINE
  5
24C
100
AcDbEntity
  8
BEZUGSACHSEN
100
AcDbLine
 62
7
  6
CONTINUOUS
 10
130.9531319942
 20
157.6376747932
 11
131.2899566463
 21
157.5455002462
  0
LINE
  5
24D
100
AcDbEntity
  8
BEZUGSACHSEN
100
AcDbLine
 62
7
  6
CONTINUOUS
 10
148.2032322743
 20
145.2489055515
 11
148.6155398012
 21
145.1099744843
  0
LINE
  5
24E
100
AcDbEntity
  8
BEZUGSACHSEN
100
AcDbLine
 62
7
  6
CONTINUOUS
 10
130.9424469848
 20
157.1271483593
 11
131.2115500745
 21
157.0363911837
  0
LINE
  5
24F
100
AcDbEntity
  8
0
100
AcDbLine
 62
7
  6
CONTINUOUS
 10
307.6256096557
 20
95.7088431695
 11
313.4252872197
 21
93.5979331678
  0
LINE
  5
250
100
AcDbEntity
  8
BEZUGSACHSEN
100
AcDbLine
 62
7
  6
CONTINUOUS
 10
126.7186375381
 20
153.5315075462
 11
127.0148181711
 21
153.4104295871
  0
LINE
  5
251
100
AcDbEntity
  8
BEZUGSACHSEN
100
AcDbLine
 62
7
  6
CONTINUOUS
 10
123.8067730903
 20
156.504045308
 11
124.1506346509
 21
156.3613658507
  0
LINE
  5
252
100
AcDbEntity
  8
BEZUGSACHSEN
100
AcDbLine
 62
7
  6
CONTINUOUS
 10
146.0541901684
 20
146.3094498013
 11
146.3399328277
 21
146.1654561397
  0
LINE
  5
253
100
AcDbEntity
  8
BEZUGSACHSEN
100
AcDbLine
 62
7
  6
CONTINUOUS
 10
126.764268249
 20
154.0578363449
 11
126.9937221913
 21
153.9251086992
  0
LINE
  5
254
100
AcDbEntity
  8
BEZUGSACHSEN
100
AcDbLine
 62
7
  6
CONTINUOUS
 10
146.1616169763
 20
142.6371769459
 11
146.3908205525
 21
142.5040174166
  0
LINE
  5
255
100
AcDbEntity
  8
BEZUGSACHSEN
100
AcDbLine
 62
7
  6
CONTINUOUS
 10
148.181474454
 20
144.8088247886
 11
148.4106779742
 21
144.675665239
  0
LINE
  5
256
100
AcDbEntity
  8
BEZUGSACHSEN
100
AcDbLine
 62
7
  6
CONTINUOUS
 10
149.3379719613
 20
137.4910909137
 11
149.5866973589
 21
137.3438614111
  0
LINE
  5
257
100
AcDbEntity
  8
BEZUGSACHSEN
100
AcDbLine
 62
7
  6
CONTINUOUS
 10
123.8942979377
 20
156.0821389974
 11
124.081314928
 21
155.971010075
  0
LINE
  5
258
100
AcDbEntity
  8
BEZUGSACHSEN
100
AcDbLine
 62
7
  6
CONTINUOUS
 10
131.2899566463
 20
157.5455002462
 11
131.557278901
 21
157.3696553315
  0
LINE
  5
259
100
AcDbEntity
  8
BEZUGSACHSEN
100
AcDbLine
 62
7
  6
CONTINUOUS
 10
146.9731199146
 20
136.1096595322
 11
147.3037008755
 21
135.8908008461
  0
LINE
  5
25A
100
AcDbEntity
  8
BEZUGSACHSEN
100
AcDbLine
 62
7
  6
CONTINUOUS
 10
147.6408535204
 20
137.6381123099
 11
147.9714345409
 21
137.419253621
  0
LINE
  5
25B
100
AcDbEntity
  8
BEZUGSACHSEN
100
AcDbLine
 62
7
  6
CONTINUOUS
 10
146.205611402
 20
146.7173357513
 11
146.3834879385
 21
146.5873497022
  0
LINE
  5
25C
100
AcDbEntity
  8
BEZUGSACHSEN
100
AcDbLine
 62
7
  6
CONTINUOUS
 10
145.7045018234
 20
142.3997212484
 11
145.9567556488
 21
142.2028662326
  0
LINE
  5
25D
100
AcDbEntity
  8
BEZUGSACHSEN
100
AcDbLine
 62
7
  6
CONTINUOUS
 10
148.6155398012
 20
145.1099744843
 11
148.867793078
 21
144.9131209188
  0
LINE
  5
25E
100
AcDbEntity
  8
BEZUGSACHSEN
100
AcDbLine
 62
7
  6
CONTINUOUS
 10
124.1506346509
 20
156.3613658507
 11
124.4613322847
 21
156.1150939765
  0
LINE
  5
25F
100
AcDbEntity
  8
BEZUGSACHSEN
100
AcDbLine
 62
7
  6
CONTINUOUS
 10
131.2115500745
 20
157.0363911837
 11
131.4111515418
 21
156.8619636241
  0
LINE
  5
260
100
AcDbEntity
  8
BEZUGSACHSEN
100
AcDbLine
 62
7
  6
CONTINUOUS
 10
146.6235902263
 20
135.9225449339
 11
146.8691573374
 21
135.7076542596
  0
LINE
  5
261
100
AcDbEntity
  8
BEZUGSACHSEN
100
AcDbLine
 62
7
  6
CONTINUOUS
 10
148.4120387325
 20
135.9068778859
 11
148.6576058139
 21
135.6919872129
  0
LINE
  5
262
100
AcDbEntity
  8
BEZUGSACHSEN
100
AcDbLine
 62
7
  6
CONTINUOUS
 10
149.7725156781
 20
137.6742374918
 11
150.0180827594
 21
137.4593468189
  0
LINE
  5
263
100
AcDbEntity
  8
BEZUGSACHSEN
100
AcDbLine
 62
7
  6
CONTINUOUS
 10
126.3931830631
 20
153.8202620495
 11
126.7186375381
 21
153.5315075462
  0
LINE
  5
264
100
AcDbEntity
  8
BEZUGSACHSEN
100
AcDbLine
 62
7
  6
CONTINUOUS
 10
148.6010151298
 20
136.3049151481
 11
148.8434241331
 21
136.0223632937
  0
LINE
  5
265
100
AcDbEntity
  8
BEZUGSACHSEN
100
AcDbLine
 62
7
  6
CONTINUOUS
 10
124.5007346686
 20
154.6737405913
 11
125.7647222817
 21
153.0595617269
  0
LINE
  5
266
100
AcDbEntity
  8
BEZUGSACHSEN
100
AcDbLine
 62
7
  6
CONTINUOUS
 10
126.5869035209
 20
154.2860517504
 11
126.764268249
 21
154.0578363449
  0
LINE
  5
267
100
AcDbEntity
  8
BEZUGSACHSEN
100
AcDbLine
 62
7
  6
CONTINUOUS
 10
124.1810616991
 20
154.370499743
 11
125.3213685782
 21
152.891463796
  0
LINE
  5
268
100
AcDbEntity
  8
BEZUGSACHSEN
100
AcDbLine
 62
7
  6
CONTINUOUS
 10
124.081314928
 20
155.971010075
 11
124.2351678103
 21
155.7562886669
  0
LINE
  5
269
100
AcDbEntity
  8
BEZUGSACHSEN
100
AcDbLine
 62
7
  6
CONTINUOUS
 10
124.4613322847
 20
156.1150939765
 11
124.6151851669
 21
155.9003725684
  0
LINE
  5
26A
100
AcDbEntity
  8
BEZUGSACHSEN
100
AcDbLine
 62
7
  6
CONTINUOUS
 10
149.677771892
 20
135.6443710763
 11
149.2463862533
 21
135.5288856796
  0
LINE
  5
26B
100
AcDbEntity
  8
BEZUGSACHSEN
100
AcDbLine
 62
7
  6
CONTINUOUS
 10
147.974337176
 20
135.6560701152
 11
147.5429516563
 21
135.540584713
  0
LINE
  5
26C
100
AcDbEntity
  8
BEZUGSACHSEN
100
AcDbLine
 62
7
  6
CONTINUOUS
 10
147.4016027396
 20
137.988328443
 11
146.9702172795
 21
137.872843038
  0
LINE
  5
26D
100
AcDbEntity
  8
BEZUGSACHSEN
100
AcDbLine
 62
7
  6
CONTINUOUS
 10
147.4138368082
 20
145.1793413781
 11
147.8370232056
 21
145.2604515024
  0
LINE
  5
26E
100
AcDbEntity
  8
BEZUGSACHSEN
100
AcDbLine
 62
7
  6
CONTINUOUS
 10
127.3630880054
 20
153.3848394611
 11
127.6299944119
 21
153.4314379943
  0
LINE
  5
26F
100
AcDbEntity
  8
BEZUGSACHSEN
100
AcDbLine
 62
7
  6
CONTINUOUS
 10
127.2752653273
 20
153.8878689306
 11
127.5421717338
 21
153.9344674637
  0
LINE
  5
270
100
AcDbEntity
  8
BEZUGSACHSEN
100
AcDbLine
 62
7
  6
CONTINUOUS
 10
125.6075186386
 20
157.1388429491
 11
126.0078782483
 21
157.2087407489
  0
LINE
  5
271
100
AcDbEntity
  8
BEZUGSACHSEN
100
AcDbLine
 62
7
  6
CONTINUOUS
 10
127.6093159237
 20
157.4883318146
 11
128.0096753425
 21
157.558229581
  0
LINE
  5
272
100
AcDbEntity
  8
BEZUGSACHSEN
100
AcDbLine
 62
7
  6
CONTINUOUS
 10
147.5521342931
 20
144.7971801979
 11
147.8952930776
 21
144.8493297208
  0
LINE
  5
273
100
AcDbEntity
  8
BEZUGSACHSEN
100
AcDbLine
 62
7
  6
CONTINUOUS
 10
123.4599196606
 20
156.4635538235
 11
123.8067730903
 21
156.504045308
  0
LINE
  5
274
100
AcDbEntity
  8
BEZUGSACHSEN
100
AcDbLine
 62
7
  6
CONTINUOUS
 10
129.7234681618
 20
157.1526608487
 11
130.9424469848
 21
157.1271483593
  0
LINE
  5
275
100
AcDbEntity
  8
BEZUGSACHSEN
100
AcDbLine
 62
7
  6
CONTINUOUS
 10
129.3278268969
 20
157.6716914456
 11
130.9531319942
 21
157.6376747932
  0
LINE
  5
276
100
AcDbEntity
  8
0
100
AcDbLine
 62
7
  6
CONTINUOUS
 10
154.2760409156
 20
148.2594460962
 11
149.033879693
 21
154.0814559547
  0
LINE
  5
277
100
AcDbEntity
  8
BEZUGSACHSEN
100
AcDbLine
 62
7
  6
CONTINUOUS
 10
148.0753971181
 20
137.8212588936
 11
148.3178061214
 21
137.5387070393
  0
LINE
  5
278
100
AcDbEntity
  8
BEZUGSACHSEN
100
AcDbLine
 62
7
  6
CONTINUOUS
 10
149.5866973589
 20
137.3438614111
 11
149.8291063622
 21
137.0613095567
  0
LINE
  5
279
100
AcDbEntity
  8
BEZUGSACHSEN
100
AcDbLine
 62
7
  6
CONTINUOUS
 10
145.9893916158
 20
142.8629895739
 11
146.1616169763
 21
142.6371769459
  0
LINE
  5
27A
100
AcDbEntity
  8
BEZUGSACHSEN
100
AcDbLine
 62
7
  6
CONTINUOUS
 10
148.4106779742
 20
144.675665239
 11
148.5829043897
 21
144.4498496954
  0
LINE
  5
27B
100
AcDbEntity
  8
BEZUGSACHSEN
100
AcDbLine
 62
7
  6
CONTINUOUS
 10
131.557278901
 20
157.3696553315
 11
131.821039486
 21
157.023634939
  0
LINE
  5
27C
100
AcDbEntity
  8
BEZUGSACHSEN
100
AcDbLine
 62
7
  6
CONTINUOUS
 10
146.3843392786
 20
136.2727579707
 11
146.6235902263
 21
135.9225449339
  0
LINE
  5
27D
100
AcDbEntity
  8
BEZUGSACHSEN
100
AcDbLine
 62
7
  6
CONTINUOUS
 10
150.0180827594
 20
137.4593468189
 11
150.2573335402
 21
137.1091306858
  0
LINE
  5
27E
100
AcDbEntity
  8
BEZUGSACHSEN
100
AcDbLine
 62
7
  6
CONTINUOUS
 10
145.5092272268
 20
142.689226432
 11
145.7045018234
 21
142.3997212484
  0
LINE
  5
27F
100
AcDbEntity
  8
BEZUGSACHSEN
100
AcDbLine
 62
7
  6
CONTINUOUS
 10
148.867793078
 20
144.9131209188
 11
149.0630687227
 21
144.623612817
  0
LINE
  5
280
100
AcDbEntity
  8
BEZUGSACHSEN
100
AcDbLine
 62
7
  6
CONTINUOUS
 10
126.2011814043
 20
154.1323157822
 11
126.3931830631
 21
153.8202620495
  0
LINE
  5
281
100
AcDbEntity
  8
BEZUGSACHSEN
100
AcDbLine
 62
7
  6
CONTINUOUS
 10
144.4484093279
 20
145.1818777211
 11
144.6934461767
 21
144.7759525298
  0
LINE
  5
282
100
AcDbEntity
  8
BEZUGSACHSEN
100
AcDbLine
 62
7
  6
CONTINUOUS
 10
145.1864681529
 20
147.4175436896
 11
145.6984370953
 21
146.5694218994
  0
LINE
  5
283
100
AcDbEntity
  8
BEZUGSACHSEN
100
AcDbLine
 62
7
  6
CONTINUOUS
 10
145.5405096669
 20
147.8191355431
 11
146.205611402
 21
146.7173357513
  0
LINE
  5
284
100
AcDbEntity
  8
BEZUGSACHSEN
100
AcDbLine
 62
7
  6
CONTINUOUS
 10
146.6334176002
 20
148.4788697054
 11
147.2985193352
 21
147.3770699136
  0
LINE
  5
285
100
AcDbEntity
  8
BEZUGSACHSEN
100
AcDbLine
 62
7
  6
CONTINUOUS
 10
146.8157247313
 20
136.3882433761
 11
146.9731199146
 21
136.1096595322
  0
LINE
  5
286
100
AcDbEntity
  8
BEZUGSACHSEN
100
AcDbLine
 62
7
  6
CONTINUOUS
 10
148.3333412132
 20
136.0461713565
 11
148.4120387325
 21
135.9068778859
  0
LINE
  5
287
100
AcDbEntity
  8
BEZUGSACHSEN
100
AcDbLine
 62
7
  6
CONTINUOUS
 10
147.9714345409
 20
137.419253621
 11
148.1288297242
 21
137.1406697771
  0
LINE
  5
288
100
AcDbEntity
  8
BEZUGSACHSEN
100
AcDbLine
 62
7
  6
CONTINUOUS
 10
148.3178061214
 20
137.5387070393
 11
148.3965036408
 21
137.3994135687
  0
LINE
  5
289
100
AcDbEntity
  8
BEZUGSACHSEN
100
AcDbLine
 62
7
  6
CONTINUOUS
 10
131.4111515418
 20
156.8619636241
 11
131.5412513819
 21
156.6038654424
  0
LINE
  5
28A
100
AcDbEntity
  8
BEZUGSACHSEN
100
AcDbLine
 62
7
  6
CONTINUOUS
 10
123.3579456294
 20
152.1470303277
 11
121.9398502341
 21
155.8872182174
  0
LINE
  5
28B
100
AcDbEntity
  8
BEZUGSACHSEN
100
AcDbLine
 62
7
  6
CONTINUOUS
 10
123.7379629861
 20
152.2911142293
 11
123.1043458855
 21
153.9622620335
  0
LINE
  5
28C
100
AcDbEntity
  8
BEZUGSACHSEN
100
AcDbLine
 62
7
  6
CONTINUOUS
 10
122.9233124524
 20
154.439732771
 11
122.470728785
 21
155.6334098376
  0
LINE
  5
28D
100
AcDbEntity
  8
0
100
AcDbLine
 62
7
  6
CONTINUOUS
 10
95.8897120003
 20
109.1628089507
 11
94.9110756804
 21
114.7129313198
  0
LINE
  5
28E
100
AcDbEntity
  8
RUNDUNGEN
100
AcDbLine
 62
7
  6
CONTINUOUS
 10
94.9110756804
 20
114.7129313198
 11
94.8179749048
 21
115.2409320557
  0
LINE
  5
28F
100
AcDbEntity
  8
0
100
AcDbLine
 62
7
  6
CONTINUOUS
 10
296.7776829203
 20
108.7541392803
 11
300.4774677539
 21
106.6180675107
  0
LINE
  5
290
100
AcDbEntity
  8
BEZUGSACHSEN
100
AcDbLine
 62
7
  6
CONTINUOUS
 10
146.7876881341
 20
149.0467176884
 11
147.6278163041
 21
147.6549711418
  0
LINE
  5
291
100
AcDbEntity
  8
BEZUGSACHSEN
100
AcDbLine
 62
7
  6
CONTINUOUS
 10
126.4616287604
 20
154.6097551076
 11
126.5869035209
 21
154.2860517504
  0
LINE
  5
292
100
AcDbEntity
  8
BEZUGSACHSEN
100
AcDbLine
 62
7
  6
CONTINUOUS
 10
124.2351678103
 20
155.7562886669
 11
124.3256846114
 21
155.5175530752
  0
LINE
  5
293
100
AcDbEntity
  8
BEZUGSACHSEN
100
AcDbLine
 62
7
  6
CONTINUOUS
 10
124.6151851669
 20
155.9003725684
 11
124.7358742069
 21
155.5820585205
  0
LINE
  5
294
100
AcDbEntity
  8
BEZUGSACHSEN
100
AcDbLine
 62
7
  6
CONTINUOUS
 10
131.821039486
 20
157.023634939
 11
131.9493584961
 21
156.6804492566
  0
LINE
  5
295
100
AcDbEntity
  8
BEZUGSACHSEN
100
AcDbLine
 62
7
  6
CONTINUOUS
 10
145.3017809994
 20
143.2624682023
 11
145.5092272268
 21
142.689226432
  0
LINE
  5
296
100
AcDbEntity
  8
BEZUGSACHSEN
100
AcDbLine
 62
7
  6
CONTINUOUS
 10
145.7819453884
 20
143.4362313442
 11
145.9893916158
 21
142.8629895739
  0
LINE
  5
297
100
AcDbEntity
  8
BEZUGSACHSEN
100
AcDbLine
 62
7
  6
CONTINUOUS
 10
147.0867249433
 20
143.3321323922
 11
147.2941711708
 21
142.7588906219
  0
LINE
  5
298
100
AcDbEntity
  8
BEZUGSACHSEN
100
AcDbLine
 62
7
  6
CONTINUOUS
 10
147.5668892763
 20
143.5058955138
 11
147.9126329887
 21
142.5504925633
  0
LINE
  5
299
100
AcDbEntity
  8
BEZUGSACHSEN
100
AcDbLine
 62
7
  6
CONTINUOUS
 10
126.0612691507
 20
154.5398573078
 11
126.2011814043
 21
154.1323157822
  0
LINE
  5
29A
100
AcDbEntity
  8
BEZUGSACHSEN
100
AcDbLine
 62
7
  6
CONTINUOUS
 10
124.3528651623
 20
155.2548037458
 11
124.3256846114
 21
155.5175530752
  0
LINE
  5
29B
100
AcDbEntity
  8
BEZUGSACHSEN
100
AcDbLine
 62
7
  6
CONTINUOUS
 10
124.7630547577
 20
155.319309191
 11
124.7358742069
 21
155.5820585205
  0
LINE
  5
29C
100
AcDbEntity
  8
RUNDUNGEN
100
AcDbLine
 62
7
  6
CONTINUOUS
 10
100.691569369
 20
126.8860167031
 11
100.691569369
 21
131.1581602424
  0
LINE
  5
29D
100
AcDbEntity
  8
0
100
AcDbLine
 62
7
  6
CONTINUOUS
 10
101.1370774447
 20
449.7717054261
 11
101.1370774447
 21
289.7717054261
  0
LINE
  5
29E
100
AcDbEntity
  8
BEZUGSACHSEN
100
AcDbLine
 62
7
  6
CONTINUOUS
 10
148.4945820032
 20
143.1932984259
 11
148.6328794882
 21
142.8111372457
  0
LINE
  5
29F
100
AcDbEntity
  8
BEZUGSACHSEN
100
AcDbLine
 62
7
  6
CONTINUOUS
 10
148.5829043897
 20
144.4498496954
 11
148.7903506172
 21
143.8766079251
  0
LINE
  5
2A0
100
AcDbEntity
  8
BEZUGSACHSEN
100
AcDbLine
 62
7
  6
CONTINUOUS
 10
149.0630687227
 20
144.623612817
 11
149.2705149502
 21
144.0503710467
  0
LINE
  5
2A1
100
AcDbEntity
  8
BEZUGSACHSEN
100
AcDbLine
 62
7
  6
CONTINUOUS
 10
147.6278163041
 20
147.6549711418
 11
147.7299822239
 21
147.3210421178
  0
LINE
  5
2A2
100
AcDbEntity
  8
BEZUGSACHSEN
100
AcDbLine
 62
7
  6
CONTINUOUS
 10
146.7433433679
 20
136.6628592096
 11
146.8157247313
 21
136.3882433761
  0
LINE
  5
2A3
100
AcDbEntity
  8
BEZUGSACHSEN
100
AcDbLine
 62
7
  6
CONTINUOUS
 10
148.1288297242
 20
137.1406697771
 11
148.2012110876
 21
136.8660539437
  0
LINE
  5
2A4
100
AcDbEntity
  8
BEZUGSACHSEN
100
AcDbLine
 62
7
  6
CONTINUOUS
 10
148.5286337664
 20
136.5795309815
 11
148.6010151298
 21
136.3049151481
  0
LINE
  5
2A5
100
AcDbEntity
  8
BEZUGSACHSEN
100
AcDbLine
 62
7
  6
CONTINUOUS
 10
149.8291063622
 20
137.0613095567
 11
149.9014877256
 21
136.7866937233
  0
LINE
  5
2A6
100
AcDbEntity
  8
BEZUGSACHSEN
100
AcDbLine
 62
7
  6
CONTINUOUS
 10
146.3151161304
 20
136.6150380832
 11
146.3843392786
 21
136.2727579707
  0
LINE
  5
2A7
100
AcDbEntity
  8
BEZUGSACHSEN
100
AcDbLine
 62
7
  6
CONTINUOUS
 10
131.5412513819
 20
156.6038654424
 11
131.6018488297
 21
156.2620971314
  0
LINE
  5
2A8
100
AcDbEntity
  8
BEZUGSACHSEN
100
AcDbLine
 62
7
  6
CONTINUOUS
 10
126.0612691507
 20
154.5398573078
 11
125.6075186386
 21
157.1388429491
  0
LINE
  5
2A9
100
AcDbEntity
  8
BEZUGSACHSEN
100
AcDbLine
 62
7
  6
CONTINUOUS
 10
126.4616287604
 20
154.6097551076
 11
126.0078782483
 21
157.2087407489
  0
LINE
  5
2AA
100
AcDbEntity
  8
BEZUGSACHSEN
100
AcDbLine
 62
7
  6
CONTINUOUS
 10
127.6093159237
 20
157.4883318146
 11
128.0630664358
 21
154.8893461734
  0
LINE
  5
2AB
100
AcDbEntity
  8
BEZUGSACHSEN
100
AcDbLine
 62
7
  6
CONTINUOUS
 10
128.0096753425
 20
157.558229581
 11
128.4634258546
 21
154.9592439398
  0
LINE
  5
2AC
100
AcDbEntity
  8
BEZUGSACHSEN
100
AcDbLine
 62
7
  6
CONTINUOUS
 10
131.9493584961
 20
156.6804492566
 11
131.9705223928
 21
156.526854163
  0
LINE
  5
2AD
100
AcDbEntity
  8
0
100
AcDbLine
 62
7
  6
CONTINUOUS
 10
155.9742087422
 20
132.1024584892
 11
154.2760409156
 21
148.2594460962
  0
LINE
  5
2AE
100
AcDbEntity
  8
BEZUGSACHSEN
100
AcDbLine
 62
7
  6
CONTINUOUS
 10
145.2665601394
 20
143.6098973472
 11
145.3017809994
 21
143.2624682023
  0
LINE
  5
2AF
100
AcDbEntity
  8
BEZUGSACHSEN
100
AcDbLine
 62
7
  6
CONTINUOUS
 10
149.2705149502
 20
144.0503710467
 11
149.3057347621
 21
143.70294482
  0
LINE
  5
2B0
100
AcDbEntity
  8
BEZUGSACHSEN
100
AcDbLine
 62
7
  6
CONTINUOUS
 10
145.7697737505
 20
143.7199679283
 11
145.7819453884
 21
143.4362313442
  0
LINE
  5
2B1
100
AcDbEntity
  8
BEZUGSACHSEN
100
AcDbLine
 62
7
  6
CONTINUOUS
 10
128.4698847141
 20
154.5284031142
 11
128.4634258546
 21
154.9592439398
  0
LINE
  5
2B2
100
AcDbEntity
  8
0
100
AcDbLine
 62
7
  6
CONTINUOUS
 10
123.1370774447
 20
449.7717054261
 11
123.1370774447
 21
289.7717054261
  0
LINE
  5
2B3
100
AcDbEntity
  8
BEZUGSACHSEN
100
AcDbLine
 62
7
  6
CONTINUOUS
 10
129.2441276464
 20
153.6725672371
 11
129.3278268969
 21
157.6716914456
  0
LINE
  5
2B4
100
AcDbEntity
  8
BEZUGSACHSEN
100
AcDbLine
 62
7
  6
CONTINUOUS
 10
129.6611389314
 20
154.1745895674
 11
129.7234681618
 21
157.1526608487
  0
LINE
  5
2B5
100
AcDbEntity
  8
BEZUGSACHSEN
100
AcDbLine
 62
7
  6
CONTINUOUS
 10
131.6018488297
 20
156.2620971314
 11
131.593731056
 21
155.8742324237
  0
LINE
  5
2B6
100
AcDbEntity
  8
BEZUGSACHSEN
100
AcDbLine
 62
7
  6
CONTINUOUS
 10
128.0548881839
 20
154.5423435829
 11
128.0630664358
 21
154.8893461734
  0
LINE
  5
2B7
100
AcDbEntity
  8
0
100
AcDbLine
 62
7
  6
CONTINUOUS
 10
308.7597707068
 20
163.7102958149
 11
323.6012163364
 21
157.1024584892
  0
LINE
  5
2B8
100
AcDbEntity
  8
BEZUGSACHSEN
100
AcDbLine
 62
7
  6
CONTINUOUS
 10
150.2573335402
 20
137.1091306858
 11
150.3265568256
 21
136.766853671
  0
LINE
  5
2B9
100
AcDbEntity
  8
BEZUGSACHSEN
100
AcDbLine
 62
7
  6
CONTINUOUS
 10
147.2985193352
 20
147.3770699136
 11
147.3306748412
 21
147.159119326
  0
LINE
  5
2BA
100
AcDbEntity
  8
BEZUGSACHSEN
100
AcDbLine
 62
7
  6
CONTINUOUS
 10
148.7903506172
 20
143.8766079251
 11
148.8025212
 21
143.5928742566
  0
LINE
  5
2BB
100
AcDbEntity
  8
BEZUGSACHSEN
100
AcDbLine
 62
7
  6
CONTINUOUS
 10
146.3340648876
 20
137.0210113664
 11
146.3151161304
 21
136.6150380832
  0
LINE
  5
2BC
100
AcDbEntity
  8
BEZUGSACHSEN
100
AcDbLine
 62
7
  6
CONTINUOUS
 10
146.7559759691
 20
136.9335101299
 11
146.7433433679
 21
136.6628592096
  0
LINE
  5
2BD
100
AcDbEntity
  8
BEZUGSACHSEN
100
AcDbLine
 62
7
  6
CONTINUOUS
 10
148.2012110876
 20
136.8660539437
 11
148.1885784864
 21
136.5954030234
  0
LINE
  5
2BE
100
AcDbEntity
  8
BEZUGSACHSEN
100
AcDbLine
 62
7
  6
CONTINUOUS
 10
148.5412663676
 20
136.8501819018
 11
148.5286337664
 21
136.5795309815
  0
LINE
  5
2BF
100
AcDbEntity
  8
BEZUGSACHSEN
100
AcDbLine
 62
7
  6
CONTINUOUS
 10
149.9014877256
 20
136.7866937233
 11
149.8888551244
 21
136.516042803
  0
LINE
  5
2C0
100
AcDbEntity
  8
BEZUGSACHSEN
100
AcDbLine
 62
7
  6
CONTINUOUS
 10
150.3265568256
 20
136.766853671
 11
150.3139242244
 21
136.4962027507
  0
LINE
  5
2C1
100
AcDbEntity
  8
BEZUGSACHSEN
100
AcDbLine
 62
7
  6
CONTINUOUS
 10
124.6937350349
 20
154.9289534153
 11
124.7630547577
 21
155.319309191
  0
LINE
  5
2C2
100
AcDbEntity
  8
BEZUGSACHSEN
100
AcDbLine
 62
7
  6
CONTINUOUS
 10
128.3949801572
 20
154.1697508817
 11
128.4698847141
 21
154.5284031142
  0
LINE
  5
2C3
100
AcDbEntity
  8
0
100
AcDbLine
 62
7
  6
CONTINUOUS
 10
104.5499461472
 20
143.0330229328
 11
100.691569369
 21
131.1581602424
  0
LINE
  5
2C4
100
AcDbEntity
  8
0
100
AcDbLine
 62
7
  6
CONTINUOUS
 10
296.7776829203
 20
108.7541392803
 11
288.422938553
 21
118.0330229328
  0
LINE
  5
2C5
100
AcDbEntity
  8
BEZUGSACHSEN
100
AcDbLine
 62
7
  6
CONTINUOUS
 10
147.7299822239
 20
147.3210421178
 11
147.6514223068
 21
146.9571371098
  0
LINE
  5
2C6
100
AcDbEntity
  8
BEZUGSACHSEN
100
AcDbLine
 62
7
  6
CONTINUOUS
 10
145.3344164389
 20
143.9225930014
 11
145.2665601394
 21
143.6098973472
  0
LINE
  5
2C7
100
AcDbEntity
  8
BEZUGSACHSEN
100
AcDbLine
 62
7
  6
CONTINUOUS
 10
124.2865371274
 20
155.0476188432
 11
124.3528651623
 21
155.2548037458
  0
LINE
  5
2C8
100
AcDbEntity
  8
BEZUGSACHSEN
100
AcDbLine
 62
7
  6
CONTINUOUS
 10
127.9653465055
 20
154.2675296442
 11
128.0548881839
 21
154.5423435829
  0
LINE
  5
2C9
100
AcDbEntity
  8
BEZUGSACHSEN
100
AcDbLine
 62
7
  6
CONTINUOUS
 10
149.3057347621
 20
143.70294482
 11
149.2378790111
 21
143.3902477156
  0
LINE
  5
2CA
100
AcDbEntity
  8
BEZUGSACHSEN
100
AcDbLine
 62
7
  6
CONTINUOUS
 10
146.4348693942
 20
137.3553554573
 11
146.3340648876
 21
137.0210113664
  0
LINE
  5
2CB
100
AcDbEntity
  8
BEZUGSACHSEN
100
AcDbLine
 62
7
  6
CONTINUOUS
 10
150.3139242244
 20
136.4962027507
 11
150.2131198698
 21
136.1618617568
  0
LINE
  5
2CC
100
AcDbEntity
  8
BEZUGSACHSEN
100
AcDbLine
 62
7
  6
CONTINUOUS
 10
145.8606798417
 20
143.9689695793
 11
145.7697737505
 21
143.7199679283
  0
LINE
  5
2CD
100
AcDbEntity
  8
KONSTRUKTIONSELEMENTE
100
AcDbLine
 62
7
  6
CONTINUOUS
 10
56.8148655904
 20
80.7220297148
 11
58.2290791528
 21
83.1715194576
  0
LINE
  5
2CE
100
AcDbEntity
  8
KONSTRUKTIONSELEMENTE
100
AcDbLine
 62
7
  6
CONTINUOUS
 10
57.3101244733
 20
70.9461380495
 11
58.4414953232
 21
72.9057298437
  0
LINE
  5
2CF
100
AcDbEntity
  8
KONSTRUKTIONSELEMENTE
100
AcDbLine
 62
7
  6
CONTINUOUS
 10
57.1049971616
 20
70.0278912031
 11
57.2464185179
 21
70.2728401774
  0
LINE
  5
2D0
100
AcDbEntity
  8
0
100
AcDbLine
 62
7
  6
CONTINUOUS
 10
112.672938553
 20
157.1024584892
 11
104.5499461472
 21
143.0330229328
  0
LINE
  5
2D1
100
AcDbEntity
  8
RUNDUNGEN
100
AcDbLine
 62
7
  6
CONTINUOUS
 10
95.0555396033
 20
116.588228411
 11
104.3741786101
 21
132.7285846282
  0
LINE
  5
2D2
100
AcDbEntity
  8
0
100
AcDbLine
 62
7
  6
CONTINUOUS
 10
288.422938553
 20
118.0330229328
 11
280.2999461472
 21
132.1024584892
  0
LINE
  5
2D3
100
AcDbEntity
  8
0
100
AcDbLine
 62
7
  6
CONTINUOUS
 10
297.258960128
 20
112.7285846282
 11
306.5775991348
 21
96.588228411
  0
LINE
  5
2D4
100
AcDbEntity
  8
0
100
AcDbLine
 62
7
  6
CONTINUOUS
 10
309.1483884214
 20
109.0054237387
 11
311.7659646327
 21
104.4716487479
  0
LINE
  5
2D5
100
AcDbEntity
  8
BEZUGSACHSEN
100
AcDbLine
 62
7
  6
CONTINUOUS
 10
148.8025212
 20
143.5928742566
 11
148.7116151648
 21
143.343872626
  0
LINE
  5
2D6
100
AcDbEntity
  8
BEZUGSACHSEN
100
AcDbLine
 62
7
  6
CONTINUOUS
 10
146.8536222457
 20
137.2001899424
 11
146.7559759691
 21
136.9335101299
  0
LINE
  5
2D7
100
AcDbEntity
  8
BEZUGSACHSEN
100
AcDbLine
 62
7
  6
CONTINUOUS
 10
148.1885784864
 20
136.5954030234
 11
148.0909322098
 21
136.3287232109
  0
LINE
  5
2D8
100
AcDbEntity
  8
BEZUGSACHSEN
100
AcDbLine
 62
7
  6
CONTINUOUS
 10
148.6389126442
 20
137.1168617143
 11
148.5412663676
 21
136.8501819018
  0
LINE
  5
2D9
100
AcDbEntity
  8
BEZUGSACHSEN
100
AcDbLine
 62
7
  6
CONTINUOUS
 10
149.8888551244
 20
136.516042803
 11
149.7912088478
 21
136.2493629905
  0
LINE
  5
2DA
100
AcDbEntity
  8
BEZUGSACHSEN
100
AcDbLine
 62
7
  6
CONTINUOUS
 10
147.3306748412
 20
147.159119326
 11
147.2549642244
 21
146.955176351
  0
LINE
  5
2DB
100
AcDbEntity
  8
BEZUGSACHSEN
100
AcDbLine
 62
7
  6
CONTINUOUS
 10
128.1866222011
 20
153.7877993787
 11
128.3949801572
 21
154.1697508817
  0
LINE
  5
2DC
100
AcDbEntity
  8
KONSTRUKTIONSELEMENTE
100
AcDbLine
 62
7
  6
CONTINUOUS
 10
107.0945408441
 20
120.5704572449
 11
104.4769646327
 21
116.0366822541
  0
LINE
  5
2DD
100
AcDbEntity
  8
0
100
AcDbLine
 62
7
  6
CONTINUOUS
 10
167.6797338293
 20
218.3770226693
 11
124.7380145996
 21
143.999783199
  0
LINE
  5
2DE
100
AcDbEntity
  8
KONSTRUKTIONSELEMENTE
100
AcDbLine
 62
7
  6
CONTINUOUS
 10
96.9037876868
 20
95.7894879967
 11
91.6004868279
 21
86.6039014612
  0
LINE
  5
2DF
100
AcDbEntity
  8
KONSTRUKTIONSELEMENTE
100
AcDbLine
 62
7
  6
CONTINUOUS
 10
64.8932728965
 20
34.8256500035
 11
60.7920535656
 21
27.7221297494
  0
LINE
  5
2E0
100
AcDbEntity
  8
0
100
AcDbLine
 62
7
  6
CONTINUOUS
 10
105.9910814678
 20
104.6291425287
 11
110.5521618575
 21
112.529165501
  0
LINE
  5
2E1
100
AcDbEntity
  8
KONSTRUKTIONSELEMENTE
100
AcDbLine
 62
7
  6
CONTINUOUS
 10
110.5521618575
 20
112.529165501
 11
115.7966618575
 21
121.6129059613
  0
LINE
  5
2E2
100
AcDbEntity
  8
KONSTRUKTIONSELEMENTE
100
AcDbLine
 62
7
  6
CONTINUOUS
 10
61.6120087868
 20
25.9423338523
 11
66.1374921863
 21
33.7807010292
  0
LINE
  5
2E3
100
AcDbEntity
  8
KONSTRUKTIONSELEMENTE
100
AcDbLine
 62
7
  6
CONTINUOUS
 10
116.3572511899
 20
120.4838751673
 11
114.0059885315
 21
116.4113687809
  0
LINE
  5
2E4
100
AcDbEntity
  8
KONSTRUKTIONSELEMENTE
100
AcDbLine
 62
7
  6
CONTINUOUS
 10
100.8009020038
 20
93.5394879967
 11
95.4976011449
 21
84.3539014612
  0
LINE
  5
2E5
100
AcDbEntity
  8
KONSTRUKTIONSELEMENTE
100
AcDbLine
 62
7
  6
CONTINUOUS
 10
125.4899658003
 20
134.3022008834
 11
122.7470318938
 21
129.5512999956
  0
LINE
  5
2E6
100
AcDbEntity
  8
KONSTRUKTIONSELEMENTE
100
AcDbLine
 62
7
  6
CONTINUOUS
 10
119.4699179904
 20
123.8751722128
 11
116.7347619802
 21
119.1377430365
  0
LINE
  5
2E7
100
AcDbEntity
  8
KONSTRUKTIONSELEMENTE
100
AcDbLine
 62
7
  6
CONTINUOUS
 10
96.8521411622
 20
84.7000335921
 11
88.0969373422
 21
69.5355757451
  0
LINE
  5
2E8
100
AcDbEntity
  8
KONSTRUKTIONSELEMENTE
100
AcDbLine
 62
7
  6
CONTINUOUS
 10
110.2885202862
 20
107.4725249046
 11
101.4833074927
 21
92.2214489748
  0
LINE
  5
2E9
100
AcDbEntity
  8
KONSTRUKTIONSELEMENTE
100
AcDbLine
 62
7
  6
CONTINUOUS
 10
114.1856346032
 20
105.2225249046
 11
105.3804218098
 21
89.9714489748
  0
LINE
  5
2EA
100
AcDbEntity
  8
KONSTRUKTIONSELEMENTE
100
AcDbLine
 62
7
  6
CONTINUOUS
 10
129.8200928192
 20
131.8022008834
 11
127.0771589127
 21
127.0512999956
  0
LINE
  5
2EB
100
AcDbEntity
  8
KONSTRUKTIONSELEMENTE
100
AcDbLine
 62
7
  6
CONTINUOUS
 10
123.8000450094
 20
121.3751722128
 11
121.0648889992
 21
116.6377430365
  0
LINE
  5
2EC
100
AcDbEntity
  8
KONSTRUKTIONSELEMENTE
100
AcDbLine
 62
7
  6
CONTINUOUS
 10
101.1822681811
 20
82.2000335921
 11
92.4270643611
 21
67.0355757451
  0
LINE
  5
2ED
100
AcDbEntity
  8
KONSTRUKTIONSELEMENTE
100
AcDbLine
 62
7
  6
CONTINUOUS
 10
101.5597789714
 20
80.8539014612
 11
106.8630798303
 21
90.0394879967
  0
LINE
  5
2EE
100
AcDbEntity
  8
KONSTRUKTIONSELEMENTE
100
AcDbLine
 62
7
  6
CONTINUOUS
 10
120.068166358
 20
112.9113687809
 11
122.4194290164
 21
116.9838751673
  0
LINE
  5
2EF
100
AcDbEntity
  8
KONSTRUKTIONSELEMENTE
100
AcDbLine
 62
7
  6
CONTINUOUS
 10
67.9166737263
 20
22.3023338523
 11
72.4421571259
 21
30.1407010292
  0
LINE
  5
2F0
100
AcDbEntity
  8
0
100
AcDbLine
 62
7
  6
CONTINUOUS
 10
297.7088742144
 20
135.9493105714
 11
254.7088742144
 21
210.4274952969
  0
LINE
  5
2F1
100
AcDbEntity
  8
0
100
AcDbLine
 62
7
  6
CONTINUOUS
 10
312.5966618575
 20
117.0629059613
 11
322.4022422472
 21
100.0791425287
  0
LINE
  5
2F2
100
AcDbEntity
  8
0
100
AcDbLine
 62
7
  6
CONTINUOUS
 10
320.4774930319
 20
121.6129059613
 11
330.2830734216
 21
104.6291425287
  0
LINE
  5
2F3
100
AcDbEntity
  8
0
100
AcDbLine
 62
7
  6
CONTINUOUS
 10
311.565280675
 20
143.9493105714
 11
268.565280675
 21
218.4274952969
  0
LINE
  5
2F4
100
AcDbEntity
  8
BEZUGSACHSEN
100
AcDbLine
 62
7
  6
CONTINUOUS
 10
147.6514223068
 20
146.9571371098
 11
147.464996267
 21
146.6072397144
  0
LINE
  5
2F5
100
AcDbEntity
  8
0
100
AcDbLine
 62
7
  6
CONTINUOUS
 10
118.4329930319
 20
107.979165501
 11
113.8719126422
 21
100.0791425287
  0
LINE
  5
2F6
100
AcDbEntity
  8
KONSTRUKTIONSELEMENTE
100
AcDbLine
 62
7
  6
CONTINUOUS
 10
118.4329930319
 20
107.979165501
 11
123.6774930319
 21
117.0629059613
  0
LINE
  5
2F7
100
AcDbEntity
  8
KONSTRUKTIONSELEMENTE
100
AcDbLine
 62
7
  6
CONTINUOUS
 10
69.8679997973
 20
22.4821297494
 11
73.9692191282
 21
29.5856500035
  0
LINE
  5
2F8
100
AcDbEntity
  8
0
100
AcDbLine
 62
7
  6
CONTINUOUS
 10
181.5361402899
 20
210.3770226693
 11
138.5944210601
 21
135.999783199
  0
LINE
  5
2F9
100
AcDbEntity
  8
KONSTRUKTIONSELEMENTE
100
AcDbLine
 62
7
  6
CONTINUOUS
 10
105.4568932885
 20
78.6039014612
 11
110.7601941474
 21
87.7894879967
  0
LINE
  5
2FA
100
AcDbEntity
  8
KONSTRUKTIONSELEMENTE
100
AcDbLine
 62
7
  6
CONTINUOUS
 10
127.1257664681
 20
109.0054237387
 11
124.5081902567
 21
104.4716487479
  0
LINE
  5
2FB
100
AcDbEntity
  8
RUNDUNGEN
100
AcDbLine
 62
7
  6
CONTINUOUS
 10
129.6965557547
 20
96.588228411
 11
139.0151947615
 21
112.7285846282
  0
LINE
  5
2FC
100
AcDbEntity
  8
BEZUGSACHSEN
100
AcDbLine
 62
7
  6
CONTINUOUS
 10
145.5623280506
 20
144.2932082408
 11
145.3344164389
 21
143.9225930014
  0
LINE
  5
2FD
100
AcDbEntity
  8
BEZUGSACHSEN
100
AcDbLine
 62
7
  6
CONTINUOUS
 10
149.2378790111
 20
143.3902477156
 11
149.0099674274
 21
143.0196324863
  0
LINE
  5
2FE
100
AcDbEntity
  8
BEZUGSACHSEN
100
AcDbLine
 62
7
  6
CONTINUOUS
 10
124.5007346686
 20
154.6737405913
 11
124.6937350349
 21
154.9289534153
  0
LINE
  5
2FF
100
AcDbEntity
  8
BEZUGSACHSEN
100
AcDbLine
 62
7
  6
CONTINUOUS
 10
127.794441029
 20
154.064904232
 11
127.9653465055
 21
154.2675296442
  0
LINE
  5
300
100
AcDbEntity
  8
0
100
AcDbLine
 62
7
  6
CONTINUOUS
 10
329.1796140454
 20
120.5704572449
 11
331.7971902567
 21
116.0366822541
  0
LINE
  5
301
100
AcDbEntity
  8
0
100
AcDbLine
 62
7
  6
CONTINUOUS
 10
341.2186152861
 20
116.588228411
 11
331.8999762794
 21
132.7285846282
  0
LINE
  5
302
100
AcDbEntity
  8
0
100
AcDbLine
 62
7
  6
CONTINUOUS
 10
323.6012163364
 20
157.1024584892
 11
331.7242087422
 21
143.0330229328
  0
LINE
  5
303
100
AcDbEntity
  8
0
100
AcDbLine
 62
7
  6
CONTINUOUS
 10
147.8512163364
 20
118.0330229328
 11
155.9742087422
 21
132.1024584892
  0
LINE
  5
304
100
AcDbEntity
  8
KONSTRUKTIONSELEMENTE
100
AcDbLine
 62
7
  6
CONTINUOUS
 10
95.1097576211
 20
25.2916675174
 11
93.6955440587
 21
22.8421777746
  0
LINE
  5
305
100
AcDbEntity
  8
KONSTRUKTIONSELEMENTE
100
AcDbLine
 62
7
  6
CONTINUOUS
 10
125.5247415939
 20
40.8676869744
 11
124.1105280316
 21
38.4181972316
  0
LINE
  5
306
100
AcDbEntity
  8
BEZUGSACHSEN
100
AcDbLine
 62
7
  6
CONTINUOUS
 10
147.0362823423
 20
137.4629017444
 11
146.8536222457
 21
137.2001899424
  0
LINE
  5
307
100
AcDbEntity
  8
BEZUGSACHSEN
100
AcDbLine
 62
7
  6
CONTINUOUS
 10
148.4878337614
 20
137.5307710183
 11
148.3965036408
 21
137.3994135687
  0
LINE
  5
308
100
AcDbEntity
  8
BEZUGSACHSEN
100
AcDbLine
 62
7
  6
CONTINUOUS
 10
148.0909322098
 20
136.3287232109
 11
147.9082721132
 21
136.0660114088
  0
LINE
  5
309
100
AcDbEntity
  8
BEZUGSACHSEN
100
AcDbLine
 62
7
  6
CONTINUOUS
 10
148.3333412132
 20
136.0461713565
 11
148.2420110926
 21
135.9148139068
  0
LINE
  5
30A
100
AcDbEntity
  8
BEZUGSACHSEN
100
AcDbLine
 62
7
  6
CONTINUOUS
 10
146.7057014112
 20
137.6817604292
 11
146.4348693942
 21
137.3553554573
  0
LINE
  5
30B
100
AcDbEntity
  8
BEZUGSACHSEN
100
AcDbLine
 62
7
  6
CONTINUOUS
 10
150.2131198698
 20
136.1618617568
 11
149.9422877306
 21
135.8354536864
  0
LINE
  5
30C
100
AcDbEntity
  8
BEZUGSACHSEN
100
AcDbLine
 62
7
  6
CONTINUOUS
 10
146.0541901684
 20
146.3094498013
 11
144.6934461767
 21
144.7759525298
  0
LINE
  5
30D
100
AcDbEntity
  8
BEZUGSACHSEN
100
AcDbLine
 62
7
  6
CONTINUOUS
 10
145.6984370953
 20
146.5694218994
 11
144.4484093279
 21
145.1818777211
  0
LINE
  5
30E
100
AcDbEntity
  8
BEZUGSACHSEN
100
AcDbLine
 62
7
  6
CONTINUOUS
 10
146.0546630224
 20
144.1832377142
 11
145.8606798417
 21
143.9689695793
  0
LINE
  5
30F
100
AcDbEntity
  8
BEZUGSACHSEN
100
AcDbLine
 62
7
  6
CONTINUOUS
 10
124.1267006879
 20
154.8959984362
 11
124.2865371274
 21
155.0476188432
  0
LINE
  5
310
100
AcDbEntity
  8
BEZUGSACHSEN
100
AcDbLine
 62
7
  6
CONTINUOUS
 10
127.9489900211
 20
153.5735243532
 11
128.1866222011
 21
153.7877993787
  0
LINE
  5
311
100
AcDbEntity
  8
0
100
AcDbLine
 62
7
  6
CONTINUOUS
 10
139.4964719692
 20
108.7541392803
 11
147.8512163364
 21
118.0330229328
  0
LINE
  5
312
100
AcDbEntity
  8
BEZUGSACHSEN
100
AcDbLine
 62
7
  6
CONTINUOUS
 10
147.2549642244
 20
146.955176351
 11
147.0713882861
 21
146.7652396613
  0
LINE
  5
313
100
AcDbEntity
  8
BEZUGSACHSEN
100
AcDbLine
 62
7
  6
CONTINUOUS
 10
147.464996267
 20
146.6072397144
 11
147.2814203286
 21
146.4173030247
  0
LINE
  5
314
100
AcDbEntity
  8
BEZUGSACHSEN
100
AcDbLine
 62
7
  6
CONTINUOUS
 10
148.9065865608
 20
137.3756055059
 11
148.6389126442
 21
137.1168617143
  0
LINE
  5
315
100
AcDbEntity
  8
BEZUGSACHSEN
100
AcDbLine
 62
7
  6
CONTINUOUS
 10
148.2420110926
 20
135.9148139068
 11
147.974337176
 21
135.6560701152
  0
LINE
  5
316
100
AcDbEntity
  8
BEZUGSACHSEN
100
AcDbLine
 62
7
  6
CONTINUOUS
 10
149.7912088478
 20
136.2493629905
 11
149.5235349312
 21
135.9906191989
  0
LINE
  5
317
100
AcDbEntity
  8
BEZUGSACHSEN
100
AcDbLine
 62
7
  6
CONTINUOUS
 10
145.8363381486
 20
144.5364383741
 11
145.5623280506
 21
144.2932082408
  0
LINE
  5
318
100
AcDbEntity
  8
0
100
AcDbLine
 62
7
  6
CONTINUOUS
 10
331.7242087422
 20
143.0330229328
 11
335.5825855204
 21
131.1581602424
  0
LINE
  5
319
100
AcDbEntity
  8
0
100
AcDbLine
 62
7
  6
CONTINUOUS
 10
280.2999461472
 20
132.1024584892
 11
281.9981139738
 21
148.2594460962
  0
LINE
  5
31A
100
AcDbEntity
  8
BEZUGSACHSEN
100
AcDbLine
 62
7
  6
CONTINUOUS
 10
146.9702172795
 20
137.872843038
 11
146.7057014112
 21
137.6817604292
  0
LINE
  5
31B
100
AcDbEntity
  8
BEZUGSACHSEN
100
AcDbLine
 62
7
  6
CONTINUOUS
 10
148.7523496
 20
137.7218536285
 11
148.4878337614
 21
137.5307710183
  0
LINE
  5
31C
100
AcDbEntity
  8
BEZUGSACHSEN
100
AcDbLine
 62
7
  6
CONTINUOUS
 10
149.9422877306
 20
135.8354536864
 11
149.677771892
 21
135.6443710763
  0
LINE
  5
31D
100
AcDbEntity
  8
BEZUGSACHSEN
100
AcDbLine
 62
7
  6
CONTINUOUS
 10
148.7116151648
 20
143.343872626
 11
148.4945820032
 21
143.1932984259
  0
LINE
  5
31E
100
AcDbEntity
  8
BEZUGSACHSEN
100
AcDbLine
 62
7
  6
CONTINUOUS
 10
146.3517233486
 20
144.3627723534
 11
146.0546630224
 21
144.1832377142
  0
LINE
  5
31F
100
AcDbEntity
  8
BEZUGSACHSEN
100
AcDbLine
 62
7
  6
CONTINUOUS
 10
145.7736684502
 20
148.4346044386
 11
146.7876881341
 21
149.0467176884
  0
LINE
  5
320
100
AcDbEntity
  8
BEZUGSACHSEN
100
AcDbLine
 62
7
  6
CONTINUOUS
 10
145.5405096669
 20
147.8191355431
 11
146.6334176002
 21
148.4788697054
  0
LINE
  5
321
100
AcDbEntity
  8
BEZUGSACHSEN
100
AcDbLine
 62
7
  6
CONTINUOUS
 10
147.0713882861
 20
146.7652396613
 11
146.8528065362
 21
146.6332927303
  0
LINE
  5
322
100
AcDbEntity
  8
BEZUGSACHSEN
100
AcDbLine
 62
7
  6
CONTINUOUS
 10
147.2814203286
 20
146.4173030247
 11
146.9899780634
 21
146.2413738244
  0
LINE
  5
323
100
AcDbEntity
  8
BEZUGSACHSEN
100
AcDbLine
 62
7
  6
CONTINUOUS
 10
127.5421717338
 20
153.9344674637
 11
127.794441029
 21
154.064904232
  0
LINE
  5
324
100
AcDbEntity
  8
BEZUGSACHSEN
100
AcDbLine
 62
7
  6
CONTINUOUS
 10
127.6299944119
 20
153.4314379943
 11
127.9489900211
 21
153.5735243532
  0
LINE
  5
325
100
AcDbEntity
  8
0
100
AcDbLine
 62
7
  6
CONTINUOUS
 10
127.5143841826
 20
163.7102958149
 11
112.672938553
 21
157.1024584892
  0
LINE
  5
326
100
AcDbEntity
  8
BEZUGSACHSEN
100
AcDbLine
 62
7
  6
CONTINUOUS
 10
121.9398502341
 20
155.8872182174
 11
123.4599196606
 21
156.4635538235
  0
LINE
  5
327
100
AcDbEntity
  8
BEZUGSACHSEN
100
AcDbLine
 62
7
  6
CONTINUOUS
 10
122.470728785
 20
155.6334098376
 11
123.6741170206
 21
156.0896755029
  0
LINE
  5
328
100
AcDbEntity
  8
BEZUGSACHSEN
100
AcDbLine
 62
7
  6
CONTINUOUS
 10
122.9233124524
 20
154.439732771
 11
124.1267006879
 21
154.8959984362
  0
LINE
  5
329
100
AcDbEntity
  8
BEZUGSACHSEN
100
AcDbLine
 62
7
  6
CONTINUOUS
 10
123.1043458855
 20
153.9622620335
 11
124.1810616991
 21
154.370499743
  0
LINE
  5
32A
100
AcDbEntity
  8
0
100
AcDbLine
 62
7
  6
CONTINUOUS
 10
313.1370774447
 20
289.7717054261
 11
313.1370774447
 21
449.7717054261
  0
LINE
  5
32B
100
AcDbEntity
  8
BEZUGSACHSEN
100
AcDbLine
 62
7
  6
CONTINUOUS
 10
146.2134258636
 20
144.7449335336
 11
145.8363381486
 21
144.5364383741
  0
LINE
  5
32C
100
AcDbEntity
  8
BEZUGSACHSEN
100
AcDbLine
 62
7
  6
CONTINUOUS
 10
149.0099674274
 20
143.0196324863
 11
148.6328794882
 21
142.8111372457
  0
LINE
  5
32D
100
AcDbEntity
  8
BEZUGSACHSEN
100
AcDbLine
 62
7
  6
CONTINUOUS
 10
147.3858120604
 20
137.6500163413
 11
147.0362823423
 21
137.4629017444
  0
LINE
  5
32E
100
AcDbEntity
  8
BEZUGSACHSEN
100
AcDbLine
 62
7
  6
CONTINUOUS
 10
147.9082721132
 20
136.0660114088
 11
147.5587423355
 21
135.8788968147
  0
LINE
  5
32F
100
AcDbEntity
  8
BEZUGSACHSEN
100
AcDbLine
 62
7
  6
CONTINUOUS
 10
149.1679443214
 20
137.4990269346
 11
148.9065865608
 21
137.3756055059
  0
LINE
  5
330
100
AcDbEntity
  8
BEZUGSACHSEN
100
AcDbLine
 62
7
  6
CONTINUOUS
 10
149.5235349312
 20
135.9906191989
 11
149.2621769325
 21
135.8671977813
  0
LINE
  5
331
100
AcDbEntity
  8
BEZUGSACHSEN
100
AcDbLine
 62
7
  6
CONTINUOUS
 10
123.3579456294
 20
152.1470303277
 11
123.7379629861
 21
152.2911142293
  0
LINE
  5
332
100
AcDbEntity
  8
BEZUGSACHSEN
100
AcDbLine
 62
7
  6
CONTINUOUS
 10
125.3213685782
 20
152.891463796
 11
125.7647222817
 21
153.0595617269
  0
LINE
  5
333
100
AcDbEntity
  8
BEZUGSACHSEN
100
AcDbLine
 62
7
  6
CONTINUOUS
 10
146.2134258636
 20
144.7449335336
 11
147.4138368082
 21
145.1793413781
  0
LINE
  5
334
100
AcDbEntity
  8
BEZUGSACHSEN
100
AcDbLine
 62
7
  6
CONTINUOUS
 10
146.3517233486
 20
144.3627723534
 11
147.5521342931
 21
144.7971801979
  0
LINE
  5
335
100
AcDbEntity
  8
BEZUGSACHSEN
100
AcDbLine
 62
7
  6
CONTINUOUS
 10
147.5668892763
 20
143.5058955138
 11
147.0867249433
 21
143.3321323922
  0
LINE
  5
336
100
AcDbEntity
  8
BEZUGSACHSEN
100
AcDbLine
 62
7
  6
CONTINUOUS
 10
147.2941711708
 20
142.7588906219
 11
146.6539519481
 21
142.5272064192
  0
LINE
  5
337
100
AcDbEntity
  8
BEZUGSACHSEN
100
AcDbLine
 62
7
  6
CONTINUOUS
 10
147.9126329887
 20
142.5504925633
 11
146.7122220442
 21
142.1160847188
  0
LINE
  5
338
100
AcDbEntity
  8
0
100
AcDbLine
 62
7
  6
CONTINUOUS
 10
335.1370774447
 20
289.7717054261
 11
335.1370774447
 21
449.7717054261
  0
LINE
  5
339
100
AcDbEntity
  8
0
100
AcDbLine
 62
7
  6
CONTINUOUS
 10
335.5825855204
 20
126.8860167031
 11
335.5825855204
 21
131.1581602424
  0
LINE
  5
33A
100
AcDbEntity
  8
RUNDUNGEN
100
AcDbLine
 62
7
  6
CONTINUOUS
 10
135.7966871355
 20
106.6180675107
 11
139.4964719692
 21
108.7541392803
  0
LINE
  5
33B
100
AcDbEntity
  8
BEZUGSACHSEN
100
AcDbLine
 62
7
  6
CONTINUOUS
 10
149.0987211806
 20
137.8413070468
 11
148.7523496
 21
137.7218536285
  0
LINE
  5
33C
100
AcDbEntity
  8
BEZUGSACHSEN
100
AcDbLine
 62
7
  6
CONTINUOUS
 10
146.5992193828
 20
146.5593358043
 11
146.8528065362
 21
146.6332927303
  0
LINE
  5
33D
100
AcDbEntity
  8
BEZUGSACHSEN
100
AcDbLine
 62
7
  6
CONTINUOUS
 10
146.7363909101
 20
146.1674168984
 11
146.9899780634
 21
146.2413738244
  0
LINE
  5
33E
100
AcDbEntity
  8
0
100
AcDbLine
 62
7
  6
CONTINUOUS
 10
281.9981139738
 20
148.2594460962
 11
287.2402751964
 21
154.0814559547
  0
LINE
  5
33F
100
AcDbEntity
  8
RUNDUNGEN
100
AcDbLine
 62
7
  6
CONTINUOUS
 10
128.6485452338
 20
95.7088431695
 11
128.1447327955
 21
95.5254704383
  0
LINE
  5
340
100
AcDbEntity
  8
0
100
AcDbLine
 62
7
  6
CONTINUOUS
 10
128.1447327955
 20
95.5254704383
 11
122.8488676697
 21
93.5979331678
  0
LINE
  5
341
100
AcDbEntity
  8
0
100
AcDbLine
 62
7
  6
CONTINUOUS
 10
340.3844428891
 20
109.1628089507
 11
341.4561799846
 21
115.2409320557
  0
LINE
  5
342
100
AcDbEntity
  8
KONSTRUKTIONSELEMENTE
100
AcDbLine
 62
7
  6
CONTINUOUS
 10
90.2689223017
 20
31.3891636009
 11
113.0582768494
 21
42.7996309697
  0
LINE
  5
343
100
AcDbEntity
  8
KONSTRUKTIONSELEMENTE
100
AcDbLine
 62
7
  6
CONTINUOUS
 10
93.2920263338
 20
22.6015333491
 11
93.6033208763
 21
22.7573963075
  0
LINE
  5
344
100
AcDbEntity
  8
KONSTRUKTIONSELEMENTE
100
AcDbLine
 62
7
  6
CONTINUOUS
 10
122.4332272319
 20
37.1923249065
 11
123.1882962079
 21
37.5703825603
  0
LINE
  5
345
100
AcDbEntity
  8
0
100
AcDbLine
 62
7
  6
CONTINUOUS
 10
323.1774930319
 20
116.9363687809
 11
315.2966618575
 21
112.3863687809
  0
LINE
  5
346
100
AcDbEntity
  8
0
100
AcDbLine
 62
7
  6
CONTINUOUS
 10
327.9774930319
 20
108.6225249046
 11
320.0966618575
 21
104.0725249046
  0
LINE
  5
347
100
AcDbEntity
  8
KONSTRUKTIONSELEMENTE
100
AcDbLine
 62
7
  6
CONTINUOUS
 10
315.1093275063
 20
93.7452676018
 11
317.8159111281
 21
95.3079143844
  0
LINE
  5
348
100
AcDbEntity
  8
KONSTRUKTIONSELEMENTE
100
AcDbLine
 62
7
  6
CONTINUOUS
 10
336.7082437613
 20
106.2154077159
 11
339.4148273831
 21
107.7780544985
  0
LINE
  5
349
100
AcDbEntity
  8
KONSTRUKTIONSELEMENTE
100
AcDbLine
 62
7
  6
CONTINUOUS
 10
413.6587643898
 20
24.1346068084
 11
415.9215060896
 21
22.1750150142
  0
LINE
  5
34A
100
AcDbEntity
  8
KONSTRUKTIONSELEMENTE
100
AcDbLine
 62
7
  6
CONTINUOUS
 10
416.1414050695
 20
22.3023338523
 11
415.858562357
 21
22.5472828266
  0
LINE
  5
34B
100
AcDbEntity
  8
KONSTRUKTIONSELEMENTE
100
AcDbLine
 62
7
  6
CONTINUOUS
 10
413.3129779448
 20
24.7518235951
 11
413.5958206573
 21
24.5068746208
  0
LINE
  5
34C
100
AcDbEntity
  8
KONSTRUKTIONSELEMENTE
100
AcDbLine
 62
7
  6
CONTINUOUS
 10
416.1414050695
 20
25.9423338523
 11
415.858562357
 21
26.1872828266
  0
LINE
  5
34D
100
AcDbEntity
  8
KONSTRUKTIONSELEMENTE
100
AcDbLine
 62
7
  6
CONTINUOUS
 10
413.3129779448
 20
28.3918235951
 11
413.5958206573
 21
28.1468746208
  0
LINE
  5
34E
100
AcDbEntity
  8
KONSTRUKTIONSELEMENTE
100
AcDbLine
 62
7
  6
CONTINUOUS
 10
424.8364988857
 20
24.8751219791
 11
427.6649260104
 21
22.4256322364
  0
LINE
  5
34F
100
AcDbEntity
  8
KONSTRUKTIONSELEMENTE
100
AcDbLine
 62
7
  6
CONTINUOUS
 10
453.3240382399
 20
39.624224538
 11
456.1524653646
 21
37.1747347953
  0
LINE
  5
350
100
AcDbEntity
  8
KONSTRUKTIONSELEMENTE
100
AcDbLine
 62
7
  6
CONTINUOUS
 10
452.0671118628
 20
70.0278912031
 11
453.6210603041
 21
69.0172497832
  0
LINE
  5
351
100
AcDbEntity
  8
KONSTRUKTIONSELEMENTE
100
AcDbLine
 62
7
  6
CONTINUOUS
 10
451.7842691503
 20
70.2728401774
 11
453.3382175917
 21
69.2621987575
  0
LINE
  5
352
100
AcDbEntity
  8
KONSTRUKTIONSELEMENTE
100
AcDbLine
 62
7
  6
CONTINUOUS
 10
449.238684738
 20
72.4773809459
 11
449.5494057787
 21
72.2752973082
  0
LINE
  5
353
100
AcDbEntity
  8
KONSTRUKTIONSELEMENTE
100
AcDbLine
 62
7
  6
CONTINUOUS
 10
453.168242848
 20
71.265706495
 11
454.363587803
 21
70.4882900182
  0
LINE
  5
354
100
AcDbEntity
  8
KONSTRUKTIONSELEMENTE
100
AcDbLine
 62
7
  6
CONTINUOUS
 10
450.9055011482
 20
73.2252982892
 11
452.1008461032
 21
72.4478818124
  0
LINE
  5
355
100
AcDbEntity
  8
KONSTRUKTIONSELEMENTE
100
AcDbLine
 62
7
  6
CONTINUOUS
 10
457.164588959
 20
77.7938346244
 11
458.3599339139
 21
77.0164181476
  0
LINE
  5
356
100
AcDbEntity
  8
KONSTRUKTIONSELEMENTE
100
AcDbLine
 62
7
  6
CONTINUOUS
 10
458.9627265337
 20
78.273354931
 11
458.4235412684
 21
78.2117810901
  0
LWPOLYLINE
  5
357
100
AcDbEntity
  8
0
100
AcDbPolyline
 62
7
  6
CONTINUOUS
 90
14
 70
0
 10
572.6164102732
 20
93.4841833904
 10
573.2934413198
 20
93.5110045346
 10
573.9774837091
 20
93.5590574034
 10
574.6655324784
 20
93.6292781042
 10
575.3541040507
 20
93.7225189715
 10
576.039654255
 20
93.8395682976
 10
576.7186035793
 20
93.981174668
 10
577.3875592702
 20
94.1481329069
 10
578.0421182618
 20
94.3409858696
 10
578.6822834768
 20
94.5618322536
 10
579.302303049
 20
94.8112768201
 10
579.9120530944
 20
95.0976479956
 10
580.5184247162
 20
95.432843232
 10
581.0399279861
 20
95.7731368791
  0
LINE
  5
358
100
AcDbEntity
  8
0
100
AcDbLine
 62
7
  6
CONTINUOUS
 10
572.0584503211
 20
93.4773187697
 11
572.6164102732
 21
93.4841833904
  0
LWPOLYLINE
  5
359
100
AcDbEntity
  8
RUNDUNGEN
100
AcDbPolyline
 62
7
  6
CONTINUOUS
 90
15
 70
0
 10
572.0584503212
 20
93.4773187696
 10
572.6169981216
 20
93.4841906228
 10
573.2947577536
 20
93.5110766306
 10
573.9781227908
 20
93.5591123168
 10
574.6649789552
 20
93.6292125508
 10
575.3521270466
 20
93.7222171463
 10
576.0362969963
 20
93.8389333689
 10
576.7141468769
 20
93.980156798
 10
577.3824836963
 20
94.1467561038
 10
578.0371114254
 20
94.3393902853
 10
578.6779308566
 20
94.5602118076
 10
579.2993462612
 20
94.8099939874
 10
579.9105092428
 20
95.0968639104
 10
580.5177946733
 20
95.4324641119
 10
581.0399273812
 20
95.7731364503
  0
LINE
  5
35A
100
AcDbEntity
  8
KONSTRUKTIONSELEMENTE
100
AcDbLine
 62
7
  6
CONTINUOUS
 10
460.5166749751
 20
77.2627135111
 11
458.9627265337
 21
78.273354931
  0
LINE
  5
35B
100
AcDbEntity
  8
KONSTRUKTIONSELEMENTE
100
AcDbLine
 62
7
  6
CONTINUOUS
 10
472.3570479595
 20
76.1874547791
 11
463.7468672281
 21
81.7872578665
  0
LINE
  5
35C
100
AcDbEntity
  8
KONSTRUKTIONSELEMENTE
100
AcDbLine
 62
7
  6
CONTINUOUS
 10
469.5286208348
 20
78.6369445218
 11
460.9184401034
 21
84.2367476092
  0
LINE
  5
35D
100
AcDbEntity
  8
KONSTRUKTIONSELEMENTE
100
AcDbLine
 62
7
  6
CONTINUOUS
 10
457.148788779
 20
77.8053020889
 11
457.164588959
 21
77.7938346244
  0
LINE
  5
35E
100
AcDbEntity
  8
BEZUGSACHSEN
100
AcDbLine
 62
7
  6
CONTINUOUS
 10
472.5788064076
 20
76.019926984
 11
472.3570479595
 21
76.1874547791
  0
LINE
  5
35F
100
AcDbEntity
  8
BEZUGSACHSEN
100
AcDbLine
 62
7
  6
CONTINUOUS
 10
469.7503792829
 20
78.4694167267
 11
469.5286208348
 21
78.6369445218
  0
LINE
  5
360
100
AcDbEntity
  8
KONSTRUKTIONSELEMENTE
100
AcDbLine
 62
7
  6
CONTINUOUS
 10
458.3768596295
 20
77.003467315
 11
458.3599339139
 21
77.0164181476
  0
LINE
  5
361
100
AcDbEntity
  8
KONSTRUKTIONSELEMENTE
100
AcDbLine
 62
7
  6
CONTINUOUS
 10
452.0671118628
 20
70.0278912031
 11
451.7842691503
 21
70.2728401774
  0
LINE
  5
362
100
AcDbEntity
  8
KONSTRUKTIONSELEMENTE
100
AcDbLine
 62
7
  6
CONTINUOUS
 10
449.238684738
 20
72.4773809459
 11
449.5215274505
 21
72.2324319716
  0
LINE
  5
363
100
AcDbEntity
  8
KONSTRUKTIONSELEMENTE
100
AcDbLine
 62
7
  6
CONTINUOUS
 10
456.5783850497
 20
78.2996172489
 11
457.1519939505
 21
77.802857369
  0
LINE
  5
364
100
AcDbEntity
  8
BEZUGSACHSEN
100
AcDbLine
 62
7
  6
CONTINUOUS
 10
469.7493774532
 20
78.4708950516
 11
472.369484762
 21
76.2018155616
  0
LINE
  5
365
100
AcDbEntity
  8
0
100
AcDbLine
 62
7
  6
CONTINUOUS
 10
569.0036467739
 20
131.1581602424
 11
575.1132538684
 21
131.1581602424
  0
LINE
  5
366
100
AcDbEntity
  8
0
100
AcDbLine
 62
7
  6
CONTINUOUS
 10
569.0844090139
 20
143.0330229328
 11
575.0324916284
 21
143.0330229328
  0
LINE
  5
367
100
AcDbEntity
  8
BEZUGSACHSEN
100
AcDbLine
 62
7
  6
CONTINUOUS
 10
567.0584503212
 20
152.1470303277
 11
567.0223844162
 21
152.1470303277
  0
LINE
  5
368
100
AcDbEntity
  8
BEZUGSACHSEN
100
AcDbLine
 62
7
  6
CONTINUOUS
 10
576.8672214614
 20
152.1470303277
 11
577.0945162261
 21
152.1470303277
  0
LINE
  5
369
100
AcDbEntity
  8
BEZUGSACHSEN
100
AcDbLine
 62
7
  6
CONTINUOUS
 10
567.0584503212
 20
152.2911142293
 11
567.0136720418
 21
152.2911142293
  0
LINE
  5
36A
100
AcDbEntity
  8
BEZUGSACHSEN
100
AcDbLine
 62
7
  6
CONTINUOUS
 10
567.1046977895
 20
152.891463796
 11
566.9984331831
 21
152.891463796
  0
LINE
  5
36B
100
AcDbEntity
  8
BEZUGSACHSEN
100
AcDbLine
 62
7
  6
CONTINUOUS
 10
576.9848335488
 20
152.891463796
 11
577.1184674593
 21
152.891463796
  0
LINE
  5
36C
100
AcDbEntity
  8
BEZUGSACHSEN
100
AcDbLine
 62
7
  6
CONTINUOUS
 10
567.1311364549
 20
153.0595617269
 11
567.0003020888
 21
153.0595617269
  0
LINE
  5
36D
100
AcDbEntity
  8
BEZUGSACHSEN
100
AcDbLine
 62
7
  6
CONTINUOUS
 10
567.1914231195
 20
153.3848394611
 11
566.9784089987
 21
153.3848394611
  0
LINE
  5
36E
100
AcDbEntity
  8
BEZUGSACHSEN
100
AcDbLine
 62
7
  6
CONTINUOUS
 10
577.044238305
 20
153.3848394611
 11
577.1384916436
 21
153.3848394611
  0
LINE
  5
36F
100
AcDbEntity
  8
BEZUGSACHSEN
100
AcDbLine
 62
7
  6
CONTINUOUS
 10
577.0385456071
 20
153.4104295871
 11
577.1190804846
 21
153.4104295871
  0
LINE
  5
370
100
AcDbEntity
  8
BEZUGSACHSEN
100
AcDbLine
 62
7
  6
CONTINUOUS
 10
567.2000596472
 20
153.4314379943
 11
566.9764609462
 21
153.4314379943
  0
LINE
  5
371
100
AcDbEntity
  8
BEZUGSACHSEN
100
AcDbLine
 62
7
  6
CONTINUOUS
 10
577.0115501323
 20
153.5315075462
 11
577.083742356
 21
153.5315075462
  0
LINE
  5
372
100
AcDbEntity
  8
BEZUGSACHSEN
100
AcDbLine
 62
7
  6
CONTINUOUS
 10
567.2263937972
 20
153.5735243532
 11
566.9910423943
 21
153.5735243532
  0
LINE
  5
373
100
AcDbEntity
  8
BEZUGSACHSEN
100
AcDbLine
 62
7
  6
CONTINUOUS
 10
567.2405720227
 20
153.6385505846
 11
566.9565522075
 21
153.6385505846
  0
LINE
  5
374
100
AcDbEntity
  8
BEZUGSACHSEN
100
AcDbLine
 62
7
  6
CONTINUOUS
 10
577.1163601393
 20
153.6385505846
 11
577.1603484348
 21
153.6385505846
  0
LINE
  5
375
100
AcDbEntity
  8
BEZUGSACHSEN
100
AcDbLine
 62
7
  6
CONTINUOUS
 10
577.1113628465
 20
153.6725672371
 11
577.1408776551
 21
153.6725672371
  0
LINE
  5
376
100
AcDbEntity
  8
BEZUGSACHSEN
100
AcDbLine
 62
7
  6
CONTINUOUS
 10
567.2580522639
 20
153.716551523
 11
566.9722929491
 21
153.716551523
  0
LINE
  5
377
100
AcDbEntity
  8
BEZUGSACHSEN
100
AcDbLine
 62
7
  6
CONTINUOUS
 10
576.947098259
 20
153.8202620495
 11
577.0162476271
 21
153.8202620495
  0
LINE
  5
378
100
AcDbEntity
  8
BEZUGSACHSEN
100
AcDbLine
 62
7
  6
CONTINUOUS
 10
567.283391713
 20
153.8810575866
 11
567.0047991885
 21
153.8810575866
  0
LINE
  5
379
100
AcDbEntity
  8
BEZUGSACHSEN
100
AcDbLine
 62
7
  6
CONTINUOUS
 10
577.0254722377
 20
153.9344674637
 11
577.0458396953
 21
153.9344674637
  0
LINE
  5
37A
100
AcDbEntity
  8
BEZUGSACHSEN
100
AcDbLine
 62
7
  6
CONTINUOUS
 10
576.9914139041
 20
154.064904232
 11
577.0310969856
 21
154.064904232
  0
LINE
  5
37B
100
AcDbEntity
  8
BEZUGSACHSEN
100
AcDbLine
 62
7
  6
CONTINUOUS
 10
576.8772427715
 20
154.1323157822
 11
576.9508920932
 21
154.1323157822
  0
LINE
  5
37C
100
AcDbEntity
  8
BEZUGSACHSEN
100
AcDbLine
 62
7
  6
CONTINUOUS
 10
567.3454212716
 20
154.2157391357
 11
567.0696664566
 21
154.2157391357
  0
LINE
  5
37D
100
AcDbEntity
  8
BEZUGSACHSEN
100
AcDbLine
 62
7
  6
CONTINUOUS
 10
576.942277015
 20
154.2675296442
 11
576.999758887
 21
154.2675296442
  0
LINE
  5
37E
100
AcDbEntity
  8
BEZUGSACHSEN
100
AcDbLine
 62
7
  6
CONTINUOUS
 10
576.7857895336
 20
154.5398573078
 11
576.8711328158
 21
154.5398573078
  0
LINE
  5
37F
100
AcDbEntity
  8
BEZUGSACHSEN
100
AcDbLine
 62
7
  6
CONTINUOUS
 10
576.8916722637
 20
154.5423435829
 11
576.9523145546
 21
154.5423435829
  0
LINE
  5
380
100
AcDbEntity
  8
BEZUGSACHSEN
100
AcDbLine
 62
7
  6
CONTINUOUS
 10
567.4079762183
 20
154.5532554247
 11
567.1338937632
 21
154.5532554247
  0
LINE
  5
381
100
AcDbEntity
  8
BEZUGSACHSEN
100
AcDbLine
 62
7
  6
CONTINUOUS
 10
576.8259356201
 20
154.8893461734
 11
576.889086099
 21
154.8893461734
  0
LINE
  5
382
100
AcDbEntity
  8
BEZUGSACHSEN
100
AcDbLine
 62
7
  6
CONTINUOUS
 10
576.589224841
 20
154.8959984362
 11
576.6921198896
 21
154.8959984362
  0
LINE
  5
383
100
AcDbEntity
  8
BEZUGSACHSEN
100
AcDbLine
 62
7
  6
CONTINUOUS
 10
567.4865639284
 20
154.9772767645
 11
567.213316707
 21
154.9772767645
  0
LINE
  5
384
100
AcDbEntity
  8
BEZUGSACHSEN
100
AcDbLine
 62
7
  6
CONTINUOUS
 10
576.5592860858
 20
155.0476188432
 11
576.676796106
 21
155.0476188432
  0
LINE
  5
385
100
AcDbEntity
  8
BEZUGSACHSEN
100
AcDbLine
 62
7
  6
CONTINUOUS
 10
576.5183708439
 20
155.2548037458
 11
576.6453094307
 21
155.2548037458
  0
LINE
  5
386
100
AcDbEntity
  8
BEZUGSACHSEN
100
AcDbLine
 62
7
  6
CONTINUOUS
 10
576.4664779447
 20
155.5175530752
 11
576.5979486522
 21
155.5175530752
  0
LINE
  5
387
100
AcDbEntity
  8
BEZUGSACHSEN
100
AcDbLine
 62
7
  6
CONTINUOUS
 10
576.4483575916
 20
155.7562886669
 11
576.5506286026
 21
155.7562886669
  0
LINE
  5
388
100
AcDbEntity
  8
BEZUGSACHSEN
100
AcDbLine
 62
7
  6
CONTINUOUS
 10
576.1277593586
 20
155.8872182174
 11
576.3580564848
 21
155.8872182174
  0
LINE
  5
389
100
AcDbEntity
  8
BEZUGSACHSEN
100
AcDbLine
 62
7
  6
CONTINUOUS
 10
576.4539650144
 20
155.971010075
 11
576.50334771
 21
155.971010075
  0
LINE
  5
38A
100
AcDbEntity
  8
BEZUGSACHSEN
100
AcDbLine
 62
7
  6
CONTINUOUS
 10
567.7231151547
 20
156.2535929683
 11
567.449593713
 21
156.2535929683
  0
LINE
  5
38B
100
AcDbEntity
  8
BEZUGSACHSEN
100
AcDbLine
 62
7
  6
CONTINUOUS
 10
576.1348661547
 20
156.4635538235
 11
576.3764700236
 21
156.4635538235
  0
LINE
  5
38C
100
AcDbEntity
  8
BEZUGSACHSEN
100
AcDbLine
 62
7
  6
CONTINUOUS
 10
576.1490431691
 20
156.504045308
 11
576.3929271758
 21
156.504045308
  0
LINE
  5
38D
100
AcDbEntity
  8
BEZUGSACHSEN
100
AcDbLine
 62
7
  6
CONTINUOUS
 10
567.8022282915
 20
156.6804492566
 11
567.5277656896
 21
156.6804492566
  0
LINE
  5
38E
100
AcDbEntity
  8
BEZUGSACHSEN
100
AcDbLine
 62
7
  6
CONTINUOUS
 10
567.8658339981
 20
157.023634939
 11
567.5897587452
 21
157.023634939
  0
LINE
  5
38F
100
AcDbEntity
  8
0
100
AcDbLine
 62
7
  6
CONTINUOUS
 10
569.1318222541
 20
157.1024584892
 11
574.9850783882
 21
157.1024584892
  0
LINE
  5
390
100
AcDbEntity
  8
BEZUGSACHSEN
100
AcDbLine
 62
7
  6
CONTINUOUS
 10
576.1285412877
 20
157.1388429491
 11
576.3846225734
 21
157.1388429491
  0
LINE
  5
391
100
AcDbEntity
  8
BEZUGSACHSEN
100
AcDbLine
 62
7
  6
CONTINUOUS
 10
576.1323476144
 20
157.2087407489
 11
576.3908727815
 21
157.2087407489
  0
LINE
  5
392
100
AcDbEntity
  8
BEZUGSACHSEN
100
AcDbLine
 62
7
  6
CONTINUOUS
 10
567.9299650872
 20
157.3696553315
 11
567.6513092271
 21
157.3696553315
  0
LINE
  5
393
100
AcDbEntity
  8
BEZUGSACHSEN
100
AcDbLine
 62
7
  6
CONTINUOUS
 10
576.1323476129
 20
157.4883318146
 11
576.4001417679
 21
157.4883318146
  0
LINE
  5
394
100
AcDbEntity
  8
BEZUGSACHSEN
100
AcDbLine
 62
7
  6
CONTINUOUS
 10
567.9674536592
 20
157.5455002462
 11
567.6820705905
 21
157.5455002462
  0
LINE
  5
395
100
AcDbEntity
  8
BEZUGSACHSEN
100
AcDbLine
 62
7
  6
CONTINUOUS
 10
576.1285412877
 20
157.558229581
 11
576.3985108299
 21
157.558229581
  0
LINE
  5
396
100
AcDbEntity
  8
BEZUGSACHSEN
100
AcDbLine
 62
7
  6
CONTINUOUS
 10
567.9818439408
 20
157.6376747932
 11
567.6978688562
 21
157.6376747932
  0
LINE
  5
397
100
AcDbEntity
  8
BEZUGSACHSEN
100
AcDbLine
 62
7
  6
CONTINUOUS
 10
567.9899653006
 20
157.6716914456
 11
567.7133169743
 21
157.6716914456
  0
LINE
  5
398
100
AcDbEntity
  8
BEZUGSACHSEN
100
AcDbLine
 62
7
  6
CONTINUOUS
 10
576.1269353417
 20
157.6716914456
 11
576.403583668
 21
157.6716914456
  0
LWPOLYLINE
  5
399
100
AcDbEntity
  8
RUNDUNGEN
100
AcDbPolyline
 62
7
  6
CONTINUOUS
 90
15
 70
0
 10
563.0769732611
 20
95.7731364503
 10
563.599105969
 20
95.4324641119
 10
564.2063913995
 20
95.0968639104
 10
564.8175543811
 20
94.8099939874
 10
565.4389697857
 20
94.5602118076
 10
566.0797892169
 20
94.3393902853
 10
566.734416946
 20
94.1467561038
 10
567.4027537654
 20
93.980156798
 10
568.080603646
 20
93.8389333689
 10
568.7647735957
 20
93.7222171463
 10
569.4519216871
 20
93.6292125508
 10
570.1387778515
 20
93.5591123168
 10
570.8221428887
 20
93.5110766306
 10
571.4999025207
 20
93.4841906228
 10
572.0584503211
 20
93.4773187696
  0
LWPOLYLINE
  5
39A
100
AcDbEntity
  8
0
100
AcDbPolyline
 62
7
  6
CONTINUOUS
 90
15
 70
0
 10
563.0769726563
 20
95.7731368791
 10
563.5984759261
 20
95.432843232
 10
564.2048475479
 20
95.0976479956
 10
564.8145975933
 20
94.8112768201
 10
565.4346171655
 20
94.5618322536
 10
566.0747823805
 20
94.3409858696
 10
566.7293413721
 20
94.1481329069
 10
567.398297063
 20
93.981174668
 10
568.0772463874
 20
93.8395682976
 10
568.7627965916
 20
93.7225189715
 10
569.451368164
 20
93.6292781042
 10
570.1394169332
 20
93.5590574034
 10
570.8234593225
 20
93.5110045346
 10
571.5009709694
 20
93.484164351
 10
572.0584503212
 20
93.4773187697
  0
LINE
  5
39B
100
AcDbEntity
  8
0
100
AcDbLine
 62
7
  6
CONTINUOUS
 10
569.1318222541
 20
163.7102958149
 11
574.9850783882
 21
163.7102958149
  0
LINE
  5
39C
100
AcDbEntity
  8
0
100
AcDbLine
 62
7
  6
CONTINUOUS
 10
562.3715178331
 20
96.272780594
 11
563.0775232494
 21
95.7727466399
  0
LINE
  5
39D
100
AcDbEntity
  8
KONSTRUKTIONSELEMENTE
100
AcDbLine
 62
7
  6
CONTINUOUS
 10
413.3129779448
 20
28.3918235951
 11
413.3129779448
 21
24.7518235951
  0
LINE
  5
39E
100
AcDbEntity
  8
KONSTRUKTIONSELEMENTE
100
AcDbLine
 62
7
  6
CONTINUOUS
 10
413.5958206573
 20
28.3468746208
 11
413.5958206573
 21
28.1468746208
  0
LINE
  5
39F
100
AcDbEntity
  8
KONSTRUKTIONSELEMENTE
100
AcDbLine
 62
7
  6
CONTINUOUS
 10
413.5958206573
 20
24.5068746208
 11
413.5958206573
 21
24.3068746208
  0
LINE
  5
3A0
100
AcDbEntity
  8
KONSTRUKTIONSELEMENTE
100
AcDbLine
 62
7
  6
CONTINUOUS
 10
415.858562357
 20
26.3872828266
 11
415.858562357
 21
26.1872828266
  0
LINE
  5
3A1
100
AcDbEntity
  8
KONSTRUKTIONSELEMENTE
100
AcDbLine
 62
7
  6
CONTINUOUS
 10
415.858562357
 20
22.5472828266
 11
415.858562357
 21
22.3472828266
  0
LINE
  5
3A2
100
AcDbEntity
  8
KONSTRUKTIONSELEMENTE
100
AcDbLine
 62
7
  6
CONTINUOUS
 10
416.1414050695
 20
25.9423338523
 11
416.1414050695
 21
22.3023338523
  0
LINE
  5
3A3
100
AcDbEntity
  8
KONSTRUKTIONSELEMENTE
100
AcDbLine
 62
7
  6
CONTINUOUS
 10
424.6266864438
 20
25.4493480204
 11
424.6266864438
 21
29.3407010292
  0
LINE
  5
3A4
100
AcDbEntity
  8
KONSTRUKTIONSELEMENTE
100
AcDbLine
 62
7
  6
CONTINUOUS
 10
424.6266864438
 20
39.7897825662
 11
424.6266864438
 21
41.7733275172
  0
LINE
  5
3A5
100
AcDbEntity
  8
KONSTRUKTIONSELEMENTE
100
AcDbLine
 62
7
  6
CONTINUOUS
 10
427.172270856
 20
29.9452417977
 11
427.172270856
 21
30.7452417977
  0
LINE
  5
3A6
100
AcDbEntity
  8
KONSTRUKTIONSELEMENTE
100
AcDbLine
 62
7
  6
CONTINUOUS
 10
427.172270856
 20
37.5852417977
 11
427.172270856
 21
38.3852417977
  0
LINE
  5
3A7
100
AcDbEntity
  8
KONSTRUKTIONSELEMENTE
100
AcDbLine
 62
7
  6
CONTINUOUS
 10
427.4551135685
 20
39.3238377744
 11
427.4551135685
 21
37.3402928234
  0
LINE
  5
3A8
100
AcDbEntity
  8
KONSTRUKTIONSELEMENTE
100
AcDbLine
 62
7
  6
CONTINUOUS
 10
427.4551135685
 20
30.5002928234
 11
427.4551135685
 21
22.9998582777
  0
LINE
  5
3A9
100
AcDbEntity
  8
KONSTRUKTIONSELEMENTE
100
AcDbLine
 62
7
  6
CONTINUOUS
 10
577.1949252262
 20
135.8173545767
 11
579.0506246556
 21
134.4570494284
  0
LINE
  5
3AA
100
AcDbEntity
  8
RUNDUNGEN
100
AcDbLine
 62
7
  6
CONTINUOUS
 10
579.0506246541
 20
134.4570494294
 11
579.0512526776
 21
134.4565884831
  0
LWPOLYLINE
  5
3AB
100
AcDbEntity
  8
KONSTRUKTIONSELEMENTE
100
AcDbPolyline
 62
7
  6
CONTINUOUS
 90
3
 70
0
 10
577.1948878192
 20
135.8173876333
 10
577.0231905172
 20
135.9466079779
 10
576.8102675898
 20
136.1173339597
  0
LINE
  5
3AC
100
AcDbEntity
  8
KONSTRUKTIONSELEMENTE
100
AcDbLine
 62
7
  6
CONTINUOUS
 10
576.8102675898
 20
136.1173339597
 11
576.7844894546
 21
136.1389051933
  0
LINE
  5
3AD
100
AcDbEntity
  8
RUNDUNGEN
100
AcDbLine
 62
7
  6
CONTINUOUS
 10
576.7847806398
 20
136.1386602533
 11
576.786612078
 21
136.137120928
  0
LWPOLYLINE
  5
3AE
100
AcDbEntity
  8
RUNDUNGEN
100
AcDbPolyline
 62
7
  6
CONTINUOUS
 90
5
 70
0
 10
576.7866837686
 20
136.1370557099
 10
576.7799594024
 20
136.1428373042
 10
576.7669452354
 20
136.154754112
 10
576.7540493685
 20
136.167510525
 10
576.7467859587
 20
136.1751579842
  0
LWPOLYLINE
  5
3AF
100
AcDbEntity
  8
RUNDUNGEN
100
AcDbPolyline
 62
7
  6
CONTINUOUS
 90
7
 70
0
 10
561.5688008411
 20
97.0700504605
 10
561.6493181022
 20
96.9636444809
 10
561.8037438774
 20
96.7802512594
 10
561.9656147777
 20
96.6118112774
 10
562.133401826
 20
96.4586200411
 10
562.3054567098
 20
96.3208729634
 10
562.3717004339
 20
96.2725899677
  0
LWPOLYLINE
  5
3B0
100
AcDbEntity
  8
0
100
AcDbPolyline
 62
7
  6
CONTINUOUS
 90
7
 70
0
 10
561.5688008411
 20
97.0700504605
 10
561.6493181022
 20
96.9636444809
 10
561.8037438774
 20
96.7802512594
 10
561.9656147777
 20
96.6118112774
 10
562.133401826
 20
96.4586200411
 10
562.3054567098
 20
96.3208729634
 10
562.3717004339
 20
96.2725899677
  0
LINE
  5
3B1
100
AcDbEntity
  8
KONSTRUKTIONSELEMENTE
100
AcDbLine
 62
7
  6
CONTINUOUS
 10
456.1607995686
 20
80.1713728843
 11
456.1342994089
 21
80.7228446738
  0
LINE
  5
3B2
100
AcDbEntity
  8
RUNDUNGEN
100
AcDbLine
 62
7
  6
CONTINUOUS
 10
576.7467968175
 20
136.1751393195
 11
576.7277169309
 21
136.1963258983
  0
LINE
  5
3B3
100
AcDbEntity
  8
0
100
AcDbLine
 62
7
  6
CONTINUOUS
 10
561.5688635602
 20
97.0699815985
 11
561.3080721489
 21
97.4282562039
  0
LINE
  5
3B4
100
AcDbEntity
  8
RUNDUNGEN
100
AcDbLine
 62
7
  6
CONTINUOUS
 10
576.7277169309
 20
136.1963258983
 11
576.6963664311
 21
136.2342221093
  0
LINE
  5
3B5
100
AcDbEntity
  8
RUNDUNGEN
100
AcDbLine
 62
7
  6
CONTINUOUS
 10
576.6963664311
 20
136.2342221093
 11
576.6828469962
 21
136.252524712
  0
LINE
  5
3B6
100
AcDbEntity
  8
RUNDUNGEN
100
AcDbLine
 62
7
  6
CONTINUOUS
 10
582.8725514231
 20
125.7086660918
 11
577.9862223436
 21
133.0381597109
  0
LWPOLYLINE
  5
3B7
100
AcDbEntity
  8
RUNDUNGEN
100
AcDbPolyline
 62
7
  6
CONTINUOUS
 90
7
 70
0
 10
577.9862149705
 20
133.0381706216
 10
577.8777469932
 20
133.2038481783
 10
577.7192067418
 20
133.457517293
 10
577.5693552762
 20
133.7114993438
 10
577.4281272043
 20
133.9655753177
 10
577.2954863264
 20
134.2195386449
 10
577.1880126998
 20
134.4382582574
  0
LINE
  5
3B8
100
AcDbEntity
  8
RUNDUNGEN
100
AcDbLine
 62
7
  6
CONTINUOUS
 10
577.1894121408
 20
134.4353264171
 11
577.1880145658
 21
134.4382547664
  0
LINE
  5
3B9
100
AcDbEntity
  8
0
100
AcDbLine
 62
7
  6
CONTINUOUS
 10
539.0584503212
 20
161.599945666
 11
539.0584503212
 21
192.7768602022
  0
LINE
  5
3BA
100
AcDbEntity
  8
KONSTRUKTIONSELEMENTE
100
AcDbLine
 62
7
  6
CONTINUOUS
 10
429.7547013394
 20
23.1796532851
 11
431.4281842763
 21
27.1665938249
  0
LINE
  5
3BB
100
AcDbEntity
  8
KONSTRUKTIONSELEMENTE
100
AcDbLine
 62
7
  6
CONTINUOUS
 10
575.1189471013
 20
163.1320053761
 11
576.1308229294
 21
157.6724119674
  0
LINE
  5
3BC
100
AcDbEntity
  8
RUNDUNGEN
100
AcDbLine
 62
7
  6
CONTINUOUS
 10
575.2099808099
 20
129.6322504847
 11
575.1132538684
 21
131.1581602424
  0
LINE
  5
3BD
100
AcDbEntity
  8
0
100
AcDbLine
 62
7
  6
CONTINUOUS
 10
568.9648521047
 20
146.2501495943
 11
569.0844090139
 21
143.0330229328
  0
LINE
  5
3BE
100
AcDbEntity
  8
0
100
AcDbLine
 62
7
  6
CONTINUOUS
 10
555.0584503212
 20
161.599945666
 11
555.0584503212
 21
192.7768602022
  0
LINE
  5
3BF
100
AcDbEntity
  8
0
100
AcDbLine
 62
7
  6
CONTINUOUS
 10
560.8084503212
 20
109.0054237387
 11
560.8084503212
 21
102.4493828128
  0
LINE
  5
3C0
100
AcDbEntity
  8
0
100
AcDbLine
 62
7
  6
CONTINUOUS
 10
560.8084503212
 20
102.2794468427
 11
560.8084503212
 21
98.9404196304
  0
LINE
  5
3C1
100
AcDbEntity
  8
0
100
AcDbLine
 62
7
  6
CONTINUOUS
 10
560.8084503212
 20
114.431456448
 11
560.8084503212
 21
124.2879404918
  0
LINE
  5
3C2
100
AcDbEntity
  8
0
100
AcDbLine
 62
7
  6
CONTINUOUS
 10
561.0584503212
 20
555.7071330901
 11
561.0584503212
 21
183.8362777621
  0
LINE
  5
3C3
100
AcDbEntity
  8
0
100
AcDbLine
 62
7
  6
CONTINUOUS
 10
562.9362895418
 20
110.4059751927
 11
562.9362895418
 21
107.979165501
  0
LINE
  5
3C4
100
AcDbEntity
  8
0
100
AcDbLine
 62
7
  6
CONTINUOUS
 10
564.0584503212
 20
129.9298177446
 11
564.0584503212
 21
132.6037890785
  0
LINE
  5
3C5
100
AcDbEntity
  8
0
100
AcDbLine
 62
7
  6
CONTINUOUS
 10
567.0584503212
 20
152.3290391196
 11
567.0584503212
 21
135.9200664964
  0
LINE
  5
3C6
100
AcDbEntity
  8
KONSTRUKTIONSELEMENTE
100
AcDbLine
 62
7
  6
CONTINUOUS
 10
454.0499038615
 20
41.5052895744
 11
453.3295571553
 21
39.789120606
  0
LINE
  5
3C7
100
AcDbEntity
  8
KONSTRUKTIONSELEMENTE
100
AcDbLine
 62
7
  6
CONTINUOUS
 10
457.831467217
 20
41.326571403
 11
456.1579842801
 21
37.3396308632
  0
LINE
  5
3C8
100
AcDbEntity
  8
KONSTRUKTIONSELEMENTE
100
AcDbLine
 62
7
  6
CONTINUOUS
 10
470.8444388755
 20
65.8218912629
 11
460.7585048408
 21
41.7929523363
  0
LINE
  5
3C9
100
AcDbEntity
  8
BEZUGSACHSEN
100
AcDbLine
 62
7
  6
CONTINUOUS
 10
577.1593388679
 20
153.6446614625
 11
577.0648463932
 21
154.1544972324
  0
LINE
  5
3CA
100
AcDbEntity
  8
BEZUGSACHSEN
100
AcDbLine
 62
7
  6
CONTINUOUS
 10
576.5090046674
 20
157.1535508103
 11
576.4177619286
 21
157.6458525745
  0
LINE
  5
3CB
100
AcDbEntity
  8
BEZUGSACHSEN
100
AcDbLine
 62
7
  6
CONTINUOUS
 10
577.1599137922
 20
153.6415358387
 11
577.1603484348
 21
153.6385505846
  0
LINE
  5
3CC
100
AcDbEntity
  8
BEZUGSACHSEN
100
AcDbLine
 62
7
  6
CONTINUOUS
 10
576.5130608579
 20
157.1316590242
 11
576.5136688817
 21
157.1271483593
  0
LINE
  5
3CD
100
AcDbEntity
  8
0
100
AcDbLine
 62
7
  6
CONTINUOUS
 10
580.0515377207
 20
132.7726265618
 11
580.0427666514
 21
132.8377253617
  0
LINE
  5
3CE
100
AcDbEntity
  8
0
100
AcDbLine
 62
7
  6
CONTINUOUS
 10
580.0584489999
 20
132.604566958
 11
580.0515377207
 21
132.7726265618
  0
LWPOLYLINE
  5
3CF
100
AcDbEntity
  8
KONSTRUKTIONSELEMENTE
100
AcDbPolyline
 62
7
  6
CONTINUOUS
 90
11
 70
0
 10
580.0584490005
 20
132.60456591
 10
580.0515342717
 20
132.7727104296
 10
580.0224432755
 20
132.988469248
 10
579.9710880207
 20
133.2004102294
 10
579.8974036662
 20
133.4084920778
 10
579.801004052
 20
133.6121068555
 10
579.6815027375
 20
133.8100465076
 10
579.5379540877
 20
134.0016297028
 10
579.3698224523
 20
134.1852636065
 10
579.175459774
 20
134.3603236371
 10
579.0512523881
 20
134.4565880887
  0
LINE
  5
3D0
100
AcDbEntity
  8
0
100
AcDbLine
 62
7
  6
CONTINUOUS
 10
575.0324916284
 20
143.0330229328
 11
575.1132538684
 21
131.1581602424
  0
LINE
  5
3D1
100
AcDbEntity
  8
RUNDUNGEN
100
AcDbLine
 62
7
  6
CONTINUOUS
 10
580.0584500913
 20
132.6045659105
 11
580.0584503212
 21
132.6037890785
  0
LINE
  5
3D2
100
AcDbEntity
  8
RUNDUNGEN
100
AcDbLine
 62
7
  6
CONTINUOUS
 10
577.0584503212
 20
142.6221270042
 11
577.0584503212
 21
135.9200712533
  0
LINE
  5
3D3
100
AcDbEntity
  8
KONSTRUKTIONSELEMENTE
100
AcDbLine
 62
7
  6
CONTINUOUS
 10
577.0584503212
 20
142.6221270137
 11
577.0584503212
 21
135.9200712533
  0
LINE
  5
3D4
100
AcDbEntity
  8
BEZUGSACHSEN
100
AcDbLine
 62
7
  6
CONTINUOUS
 10
577.0584503212
 20
152.1470303277
 11
577.0584503212
 21
142.6221270137
  0
LINE
  5
3D5
100
AcDbEntity
  8
KONSTRUKTIONSELEMENTE
100
AcDbLine
 62
7
  6
CONTINUOUS
 10
580.0584503212
 20
129.9298177446
 11
580.0584503212
 21
132.6037890785
  0
LINE
  5
3D6
100
AcDbEntity
  8
KONSTRUKTIONSELEMENTE
100
AcDbLine
 62
7
  6
CONTINUOUS
 10
581.1806111005
 20
110.4059751927
 11
581.1806111005
 21
107.979165501
  0
LINE
  5
3D7
100
AcDbEntity
  8
0
100
AcDbLine
 62
7
  6
CONTINUOUS
 10
583.0584503212
 20
555.7071330901
 11
583.0584503212
 21
183.8362777621
  0
LINE
  5
3D8
100
AcDbEntity
  8
KONSTRUKTIONSELEMENTE
100
AcDbLine
 62
7
  6
CONTINUOUS
 10
583.3084503212
 20
109.0054237387
 11
583.3084503212
 21
102.4493828128
  0
LINE
  5
3D9
100
AcDbEntity
  8
RUNDUNGEN
100
AcDbLine
 62
7
  6
CONTINUOUS
 10
583.3084503212
 20
102.2794468427
 11
583.3084503212
 21
98.9404196304
  0
LINE
  5
3DA
100
AcDbEntity
  8
RUNDUNGEN
100
AcDbLine
 62
7
  6
CONTINUOUS
 10
583.3084503212
 20
114.431456448
 11
583.3084503212
 21
124.2879404918
  0
LINE
  5
3DB
100
AcDbEntity
  8
0
100
AcDbLine
 62
7
  6
CONTINUOUS
 10
569.0844090139
 20
143.0330229328
 11
569.0036467739
 21
131.1581602424
  0
LINE
  5
3DC
100
AcDbEntity
  8
0
100
AcDbLine
 62
7
  6
CONTINUOUS
 10
575.1520485376
 20
146.2501495943
 11
575.0324916284
 21
143.0330229328
  0
LINE
  5
3DD
100
AcDbEntity
  8
KONSTRUKTIONSELEMENTE
100
AcDbLine
 62
7
  6
CONTINUOUS
 10
564.0653629216
 20
132.7726265618
 11
564.0584516418
 21
132.60456591
  0
LINE
  5
3DE
100
AcDbEntity
  8
0
100
AcDbLine
 62
7
  6
CONTINUOUS
 10
568.9069198324
 20
129.6322504847
 11
569.0036467739
 21
131.1581602424
  0
LINE
  5
3DF
100
AcDbEntity
  8
BEZUGSACHSEN
100
AcDbLine
 62
7
  6
CONTINUOUS
 10
567.6985039091
 20
157.6424113934
 11
567.6978688562
 21
157.6376747932
  0
LINE
  5
3E0
100
AcDbEntity
  8
KONSTRUKTIONSELEMENTE
100
AcDbLine
 62
7
  6
CONTINUOUS
 10
564.0748334488
 20
132.8429247872
 11
564.0653629216
 21
132.7726265618
  0
LINE
  5
3E1
100
AcDbEntity
  8
0
100
AcDbLine
 62
7
  6
CONTINUOUS
 10
589.0584503212
 20
192.7768602022
 11
589.0584503212
 21
161.599945666
  0
LINE
  5
3E2
100
AcDbEntity
  8
0
100
AcDbLine
 62
7
  6
CONTINUOUS
 10
605.0584503212
 20
192.7768602022
 11
605.0584503212
 21
161.599945666
  0
LINE
  5
3E3
100
AcDbEntity
  8
0
100
AcDbLine
 62
7
  6
CONTINUOUS
 10
567.1170581447
 20
152.9836019621
 11
568.997953541
 21
163.1320053761
  0
LINE
  5
3E4
100
AcDbEntity
  8
KONSTRUKTIONSELEMENTE
100
AcDbLine
 62
7
  6
CONTINUOUS
 10
457.1596696202
 20
81.9489359344
 11
456.1342994089
 21
80.7228446738
  0
LINE
  5
3E5
100
AcDbEntity
  8
KONSTRUKTIONSELEMENTE
100
AcDbLine
 62
7
  6
CONTINUOUS
 10
449.238684738
 20
72.4773809459
 11
426.2597686136
 21
45.0002337368
  0
LINE
  5
3E6
100
AcDbEntity
  8
KONSTRUKTIONSELEMENTE
100
AcDbLine
 62
7
  6
CONTINUOUS
 10
449.5215274505
 20
72.2324319716
 11
449.7778700033
 21
72.5389547868
  0
LINE
  5
3E7
100
AcDbEntity
  8
KONSTRUKTIONSELEMENTE
100
AcDbLine
 62
7
  6
CONTINUOUS
 10
452.1496981981
 20
72.4274296638
 11
456.8580290402
 21
78.0574384491
  0
LINE
  5
3E8
100
AcDbEntity
  8
KONSTRUKTIONSELEMENTE
100
AcDbLine
 62
7
  6
CONTINUOUS
 10
451.7842691503
 20
70.2728401774
 11
452.0406117031
 21
70.5793629925
  0
LINE
  5
3E9
100
AcDbEntity
  8
KONSTRUKTIONSELEMENTE
100
AcDbLine
 62
7
  6
CONTINUOUS
 10
459.988096745
 20
79.4994461916
 11
458.9627265337
 21
78.273354931
  0
LINE
  5
3EA
100
AcDbEntity
  8
KONSTRUKTIONSELEMENTE
100
AcDbLine
 62
7
  6
CONTINUOUS
 10
452.0671118628
 20
70.0278912031
 11
429.0881957383
 21
42.550743994
  0
LINE
  5
3EB
100
AcDbEntity
  8
KONSTRUKTIONSELEMENTE
100
AcDbLine
 62
7
  6
CONTINUOUS
 10
454.4658487366
 20
69.9485422599
 11
455.4912189479
 21
71.1746335206
  0
LINE
  5
3EC
100
AcDbEntity
  8
KONSTRUKTIONSELEMENTE
100
AcDbLine
 62
7
  6
CONTINUOUS
 10
459.7877091171
 20
75.7290224009
 11
454.7486914491
 21
69.7035932857
  0
LINE
  5
3ED
100
AcDbEntity
  8
0
100
AcDbLine
 62
7
  6
CONTINUOUS
 10
566.9274885015
 20
134.4353264171
 11
566.9288830701
 21
134.4382484653
  0
LWPOLYLINE
  5
3EE
100
AcDbEntity
  8
0
100
AcDbPolyline
 62
7
  6
CONTINUOUS
 90
7
 70
0
 10
566.9288849329
 20
134.4382519495
 10
566.8227429253
 20
134.2221670838
 10
566.6899121037
 20
133.9676884853
 10
566.5484567031
 20
133.7130906336
 10
566.3983401055
 20
133.458581402
 10
566.2394962803
 20
133.2043812206
 10
566.1306857064
 20
133.0381706735
  0
LWPOLYLINE
  5
3EF
100
AcDbEntity
  8
0
100
AcDbPolyline
 62
7
  6
CONTINUOUS
 90
7
 70
0
 10
567.4150236617
 20
136.2208749001
 10
567.4178531952
 20
136.225795954
 10
567.4315221715
 20
136.248577981
 10
567.4333591072
 20
136.2515264633
 10
567.4205381316
 20
136.2342271727
 10
567.3891867793
 20
136.1963294114
 10
567.3701119282
 20
136.1751480842
  0
LINE
  5
3F0
100
AcDbEntity
  8
0
100
AcDbLine
 62
7
  6
CONTINUOUS
 10
566.1306782987
 20
133.0381597109
 11
561.2443492193
 21
125.7086660918
  0
LINE
  5
3F1
100
AcDbEntity
  8
KONSTRUKTIONSELEMENTE
100
AcDbLine
 62
7
  6
CONTINUOUS
 10
466.5485034096
 20
80.575123438
 11
467.1842260912
 21
81.12567543
  0
LINE
  5
3F2
100
AcDbEntity
  8
KONSTRUKTIONSELEMENTE
100
AcDbLine
 62
7
  6
CONTINUOUS
 10
467.5377794817
 20
81.4318616478
 11
470.3662066065
 21
83.8813513906
  0
LINE
  5
3F3
100
AcDbEntity
  8
KONSTRUKTIONSELEMENTE
100
AcDbLine
 62
7
  6
CONTINUOUS
 10
521.6314482425
 20
128.2783529785
 11
524.4598753673
 21
130.7278427213
  0
LINE
  5
3F4
100
AcDbEntity
  8
KONSTRUKTIONSELEMENTE
100
AcDbLine
 62
7
  6
CONTINUOUS
 10
524.8134287579
 20
131.0340289392
 11
527.6418558826
 21
133.483518682
  0
LINE
  5
3F5
100
AcDbEntity
  8
KONSTRUKTIONSELEMENTE
100
AcDbLine
 62
7
  6
CONTINUOUS
 10
490.8591899833
 20
101.2980766803
 11
501.4657917011
 21
110.4836632158
  0
LINE
  5
3F6
100
AcDbEntity
  8
KONSTRUKTIONSELEMENTE
100
AcDbLine
 62
7
  6
CONTINUOUS
 10
521.088004879
 20
123.3097152958
 11
510.4814031612
 21
114.1241287604
  0
LINE
  5
3F7
100
AcDbEntity
  8
KONSTRUKTIONSELEMENTE
100
AcDbLine
 62
7
  6
CONTINUOUS
 10
489.9753065068
 20
96.3653281252
 11
479.368704789
 21
87.1797415898
  0
LWPOLYLINE
  5
3F8
100
AcDbEntity
  8
0
100
AcDbPolyline
 62
7
  6
CONTINUOUS
 90
4
 70
0
 10
567.3701146837
 20
136.1751579842
 10
567.3628512738
 20
136.167510525
 10
567.3499554069
 20
136.154754112
 10
567.3369412399
 20
136.1428373042
  0
LINE
  5
3F9
100
AcDbEntity
  8
KONSTRUKTIONSELEMENTE
100
AcDbLine
 62
7
  6
CONTINUOUS
 10
422.6467874564
 20
36.7852417977
 11
414.4443487947
 21
29.6817215436
  0
LINE
  5
3FA
100
AcDbEntity
  8
KONSTRUKTIONSELEMENTE
100
AcDbLine
 62
7
  6
CONTINUOUS
 10
413.3129779448
 20
28.3918235951
 11
413.7024713974
 21
28.7291348196
  0
LINE
  5
3FB
100
AcDbEntity
  8
KONSTRUKTIONSELEMENTE
100
AcDbLine
 62
7
  6
CONTINUOUS
 10
494.593340535
 20
98.5790054698
 11
504.4117332193
 21
107.0819829587
  0
LINE
  5
3FC
100
AcDbEntity
  8
KONSTRUKTIONSELEMENTE
100
AcDbLine
 62
7
  6
CONTINUOUS
 10
470.8110478353
 20
77.6522169177
 11
473.63947496
 21
80.1017066605
  0
LINE
  5
3FD
100
AcDbEntity
  8
KONSTRUKTIONSELEMENTE
100
AcDbLine
 62
7
  6
CONTINUOUS
 10
526.0612448676
 20
125.5002911118
 11
527.7331437208
 21
126.9481979912
  0
LINE
  5
3FE
100
AcDbEntity
  8
KONSTRUKTIONSELEMENTE
100
AcDbLine
 62
7
  6
CONTINUOUS
 10
528.0866971114
 20
127.2543842091
 11
530.2449260068
 21
129.1234652597
  0
LINE
  5
3FF
100
AcDbEntity
  8
KONSTRUKTIONSELEMENTE
100
AcDbLine
 62
7
  6
CONTINUOUS
 10
424.9095291562
 20
34.8256500035
 11
416.7070904945
 21
27.7221297494
  0
LINE
  5
400
100
AcDbEntity
  8
KONSTRUKTIONSELEMENTE
100
AcDbLine
 62
7
  6
CONTINUOUS
 10
524.0339463972
 20
119.9080350388
 11
513.4273446794
 21
110.7224485033
  0
LINE
  5
401
100
AcDbEntity
  8
KONSTRUKTIONSELEMENTE
100
AcDbLine
 62
7
  6
CONTINUOUS
 10
492.921248025
 20
92.9636478681
 11
482.3146463072
 21
83.7780613327
  0
LINE
  5
402
100
AcDbEntity
  8
KONSTRUKTIONSELEMENTE
100
AcDbLine
 62
7
  6
CONTINUOUS
 10
415.858562357
 20
26.1872828266
 11
424.9095291562
 21
34.0256500035
  0
LINE
  5
403
100
AcDbEntity
  8
KONSTRUKTIONSELEMENTE
100
AcDbLine
 62
7
  6
CONTINUOUS
 10
416.1414050695
 20
25.9423338523
 11
425.1923718687
 21
33.7807010292
  0
LINE
  5
404
100
AcDbEntity
  8
KONSTRUKTIONSELEMENTE
100
AcDbLine
 62
7
  6
CONTINUOUS
 10
535.7735838662
 20
126.4412356715
 11
529.7631762262
 21
121.236069968
  0
LINE
  5
405
100
AcDbEntity
  8
KONSTRUKTIONSELEMENTE
100
AcDbLine
 62
7
  6
CONTINUOUS
 10
478.4979345901
 20
76.8390683801
 11
472.4875269501
 21
71.6339026767
  0
LINE
  5
406
100
AcDbEntity
  8
KONSTRUKTIONSELEMENTE
100
AcDbLine
 62
7
  6
CONTINUOUS
 10
509.5975196847
 20
103.4413802053
 11
498.9909179669
 21
94.2557936698
  0
LINE
  5
407
100
AcDbEntity
  8
KONSTRUKTIONSELEMENTE
100
AcDbLine
 62
7
  6
CONTINUOUS
 10
416.1414050695
 20
22.3023338523
 11
425.1923718687
 21
30.1407010292
  0
LINE
  5
408
100
AcDbEntity
  8
KONSTRUKTIONSELEMENTE
100
AcDbLine
 62
7
  6
CONTINUOUS
 10
416.7070904945
 20
22.4821297494
 11
424.9095291562
 21
29.5856500035
  0
LINE
  5
409
100
AcDbEntity
  8
KONSTRUKTIONSELEMENTE
100
AcDbLine
 62
7
  6
CONTINUOUS
 10
484.1975171138
 20
79.6586752832
 11
492.921248025
 21
87.2136478681
  0
LINE
  5
40A
100
AcDbEntity
  8
KONSTRUKTIONSELEMENTE
100
AcDbLine
 62
7
  6
CONTINUOUS
 10
514.9205433618
 20
106.2655964952
 11
524.0339463972
 21
114.1580350388
  0
LINE
  5
40B
100
AcDbEntity
  8
KONSTRUKTIONSELEMENTE
100
AcDbLine
 62
7
  6
CONTINUOUS
 10
512.5434612029
 20
100.0396999482
 11
501.9368594851
 21
90.8541134128
  0
LINE
  5
40C
100
AcDbEntity
  8
KONSTRUKTIONSELEMENTE
100
AcDbLine
 62
7
  6
CONTINUOUS
 10
539.0468522198
 20
122.6615909414
 11
533.0364445797
 21
117.4564252379
  0
LINE
  5
40D
100
AcDbEntity
  8
KONSTRUKTIONSELEMENTE
100
AcDbLine
 62
7
  6
CONTINUOUS
 10
481.7712029437
 20
73.05942365
 11
475.7607953036
 21
67.8542579466
  0
LINE
  5
40E
100
AcDbEntity
  8
RUNDUNGEN
100
AcDbLine
 62
7
  6
CONTINUOUS
 10
582.8088284934
 20
97.4282562039
 11
582.5480370821
 21
97.0699815985
  0
LINE
  5
40F
100
AcDbEntity
  8
0
100
AcDbLine
 62
7
  6
CONTINUOUS
 10
567.3369412399
 20
136.1428373042
 11
567.3332177894
 21
136.1396014284
  0
LINE
  5
410
100
AcDbEntity
  8
0
100
AcDbLine
 62
7
  6
CONTINUOUS
 10
567.3332177894
 20
136.1396014284
 11
567.3313759426
 21
136.1380389641
  0
LINE
  5
411
100
AcDbEntity
  8
0
100
AcDbLine
 62
7
  6
CONTINUOUS
 10
567.3321203917
 20
136.1386605805
 11
567.3062190698
 21
136.1169892533
  0
LWPOLYLINE
  5
412
100
AcDbEntity
  8
0
100
AcDbPolyline
 62
7
  6
CONTINUOUS
 90
3
 70
0
 10
567.3062190698
 20
136.1169892533
 10
567.0934185139
 20
135.9463825398
 10
566.9220140543
 20
135.8173885357
  0
LWPOLYLINE
  5
413
100
AcDbEntity
  8
0
100
AcDbPolyline
 62
7
  6
CONTINUOUS
 90
11
 70
0
 10
565.0656487466
 20
134.4565884505
 10
564.941417047
 20
134.3603041254
 10
564.7470267045
 20
134.1852125349
 10
564.5788629889
 20
134.0015288991
 10
564.4352904635
 20
133.8098870643
 10
564.3157788597
 20
133.611887486
 10
564.2193879172
 20
133.4082276193
 10
564.1457307153
 20
133.2001347549
 10
564.0944118211
 20
132.9882272423
 10
564.0653542045
 20
132.7725618635
 10
564.0584516424
 20
132.604566958
  0
LINE
  5
414
100
AcDbEntity
  8
0
100
AcDbLine
 62
7
  6
CONTINUOUS
 10
565.0656484571
 20
134.4565888449
 11
566.9219754161
 21
135.8173545767
  0
LWPOLYLINE
  5
415
100
AcDbEntity
  8
0
100
AcDbPolyline
 62
7
  6
CONTINUOUS
 90
7
 70
0
 10
581.7452002084
 20
96.2725899677
 10
581.8114439325
 20
96.3208729634
 10
581.9834988164
 20
96.4586200411
 10
582.1512858646
 20
96.6118112774
 10
582.3131567649
 20
96.7802512594
 10
582.4675825401
 20
96.9636444809
 10
582.5480998012
 20
97.0700504605
  0
LWPOLYLINE
  5
416
100
AcDbEntity
  8
RUNDUNGEN
100
AcDbPolyline
 62
7
  6
CONTINUOUS
 90
7
 70
0
 10
581.7452002084
 20
96.2725899677
 10
581.8114439325
 20
96.3208729634
 10
581.9834988164
 20
96.4586200411
 10
582.1512858646
 20
96.6118112774
 10
582.3131567649
 20
96.7802512594
 10
582.4675825401
 20
96.9636444809
 10
582.5480998012
 20
97.0700504605
  0
LINE
  5
417
100
AcDbEntity
  8
RUNDUNGEN
100
AcDbLine
 62
7
  6
CONTINUOUS
 10
581.745411526
 20
96.2727401453
 11
581.0393773929
 21
95.7727466399
  0
LINE
  5
418
100
AcDbEntity
  8
KONSTRUKTIONSELEMENTE
100
AcDbLine
 62
7
  6
CONTINUOUS
 10
435.1869547594
 20
31.3891636009
 11
456.4633866437
 21
42.7996309697
  0
LINE
  5
419
100
AcDbEntity
  8
KONSTRUKTIONSELEMENTE
100
AcDbLine
 62
7
  6
CONTINUOUS
 10
429.0881957383
 20
22.6015333491
 11
429.3788242911
 21
22.7573963075
  0
LINE
  5
41A
100
AcDbEntity
  8
KONSTRUKTIONSELEMENTE
100
AcDbLine
 62
7
  6
CONTINUOUS
 10
456.2947923374
 20
37.1923249065
 11
456.9997343577
 21
37.5703825603
  0
ARC
  5
41B
100
AcDbEntity
  8
KONSTRUKTIONSELEMENTE
100
AcDbCircle
 62
7
  6
CONTINUOUS
 10
96.1175774447
 20
78.4277319119
 40
28.0
100
AcDbArc
 50
69.3520350576
 51
82.9267093509
  0
ARC
  5
41C
100
AcDbEntity
  8
KONSTRUKTIONSELEMENTE
100
AcDbCircle
 62
7
  6
CONTINUOUS
 10
96.1175774447
 20
78.4277319119
 40
28.0
100
AcDbArc
 50
37.0732906491
 51
50.6479649424
  0
ARC
  5
41D
100
AcDbEntity
  8
BEZUGSACHSEN
100
AcDbCircle
 62
7
  6
CONTINUOUS
 10
130.2620774447
 20
137.567740711
 40
11.0
100
AcDbArc
 50
106.7212007008
 51
13.2787992992
  0
ARC
  5
41E
100
AcDbEntity
  8
0
100
AcDbCircle
 62
7
  6
CONTINUOUS
 10
174.6370774447
 20
214.4274952969
 40
8.0
100
AcDbArc
 50
330.0
 51
150.0
  0
ARC
  5
41F
100
AcDbEntity
  8
0
100
AcDbCircle
 62
7
  6
CONTINUOUS
 10
131.6370774447
 20
139.9493105714
 40
8.0
100
AcDbArc
 50
150.0
 51
330.0
  0
ARC
  5
420
100
AcDbEntity
  8
KONSTRUKTIONSELEMENTE
100
AcDbCircle
 62
7
  6
CONTINUOUS
 10
119.7370774447
 20
119.3379059613
 40
4.55
100
AcDbArc
 50
330.0
 51
150.0
  0
ARC
  5
421
100
AcDbEntity
  8
KONSTRUKTIONSELEMENTE
100
AcDbCircle
 62
7
  6
CONTINUOUS
 10
75.8272824841
 20
26.7773032656
 40
3.7399682219
100
AcDbArc
 50
81.3149175254
 51
82.0930351415
  0
ARC
  5
422
100
AcDbEntity
  8
KONSTRUKTIONSELEMENTE
100
AcDbCircle
 62
7
  6
CONTINUOUS
 10
61.5321416012
 20
35.0306067028
 40
3.7399682215
100
AcDbArc
 50
37.9069648584
 51
38.6850824746
  0
ARC
  5
423
100
AcDbEntity
  8
KONSTRUKTIONSELEMENTE
100
AcDbCircle
 62
7
  6
CONTINUOUS
 10
99.0172046717
 20
83.4500335921
 40
2.5
100
AcDbArc
 50
330.0
 51
150.0
  0
ARC
  5
424
100
AcDbEntity
  8
KONSTRUKTIONSELEMENTE
100
AcDbCircle
 62
7
  6
CONTINUOUS
 10
90.2620008516
 20
68.2855757451
 40
2.5
100
AcDbArc
 50
150.0
 51
330.0
  0
ARC
  5
425
100
AcDbEntity
  8
KONSTRUKTIONSELEMENTE
100
AcDbCircle
 62
7
  6
CONTINUOUS
 10
127.6550293097
 20
133.0522008834
 40
2.5
100
AcDbArc
 50
141.6386766468
 51
150.0
  0
ARC
  5
426
100
AcDbEntity
  8
KONSTRUKTIONSELEMENTE
100
AcDbCircle
 62
7
  6
CONTINUOUS
 10
127.6550293097
 20
133.0522008834
 40
2.5
100
AcDbArc
 50
330.0
 51
338.3613233532
  0
ARC
  5
427
100
AcDbEntity
  8
KONSTRUKTIONSELEMENTE
100
AcDbCircle
 62
7
  6
CONTINUOUS
 10
118.8998254897
 20
117.8877430365
 40
2.5
100
AcDbArc
 50
150.0
 51
330.0
  0
ARC
  5
428
100
AcDbEntity
  8
KONSTRUKTIONSELEMENTE
100
AcDbCircle
 62
7
  6
CONTINUOUS
 10
103.4318646512
 20
91.0964489748
 40
2.25
100
AcDbArc
 50
150.0
 51
330.0
  0
ARC
  5
429
100
AcDbEntity
  8
RUNDUNGEN
100
AcDbCircle
 62
7
  6
CONTINUOUS
 10
136.7966871355
 20
104.8860167031
 40
2.0
100
AcDbArc
 50
120.0
 51
150.0
  0
ARC
  5
42A
100
AcDbEntity
  8
0
100
AcDbCircle
 62
7
  6
CONTINUOUS
 10
97.8593272541
 20
109.5101067364
 40
2.0
100
AcDbArc
 50
190.0000416102
 51
240.0000267465
  0
ARC
  5
42B
100
AcDbEntity
  8
RUNDUNGEN
100
AcDbCircle
 62
7
  6
CONTINUOUS
 10
96.7875904109
 20
115.588228411
 40
2.0
100
AcDbArc
 50
150.0
 51
190.0
  0
ARC
  5
42C
100
AcDbEntity
  8
0
100
AcDbCircle
 62
7
  6
CONTINUOUS
 10
122.1648281534
 20
95.4773186898
 40
2.0
100
AcDbArc
 50
239.9999849045
 51
289.9999765155
  0
ARC
  5
42D
100
AcDbEntity
  8
RUNDUNGEN
100
AcDbCircle
 62
7
  6
CONTINUOUS
 10
127.9645049471
 20
97.588228411
 40
2.0
100
AcDbArc
 50
290.0
 51
330.0
  0
ARC
  5
42E
100
AcDbEntity
  8
RUNDUNGEN
100
AcDbCircle
 62
7
  6
CONTINUOUS
 10
98.691569369
 20
126.8860167031
 40
2.0
100
AcDbArc
 50
330.0
 51
360.0
  0
CIRCLE
  5
42F
100
AcDbEntity
  8
BEZUGSACHSEN
100
AcDbCircle
 62
7
  6
CONTINUOUS
 10
127.3676508803
 20
103.1544468427
 40
1.75
  0
ARC
  5
430
100
AcDbEntity
  8
KONSTRUKTIONSELEMENTE
100
AcDbCircle
 62
7
  6
CONTINUOUS
 10
64.7199254442
 20
34.5946990135
 40
1.6348551464
100
AcDbArc
 50
337.9702150978
 51
339.9065806722
  0
ARC
  5
431
100
AcDbEntity
  8
KONSTRUKTIONSELEMENTE
100
AcDbCircle
 62
7
  6
CONTINUOUS
 10
64.7434256532
 20
34.5848889003
 40
1.6093910746
100
AcDbArc
 50
330.0208671421
 51
337.9801551546
  0
ARC
  5
432
100
AcDbEntity
  8
KONSTRUKTIONSELEMENTE
100
AcDbCircle
 62
7
  6
CONTINUOUS
 10
340.1565774447
 20
78.4277319119
 40
28.0
100
AcDbArc
 50
97.0732906491
 51
110.6479649424
  0
ARC
  5
433
100
AcDbEntity
  8
KONSTRUKTIONSELEMENTE
100
AcDbCircle
 62
7
  6
CONTINUOUS
 10
340.1565774447
 20
78.4277319119
 40
28.0
100
AcDbArc
 50
129.3520350576
 51
142.9267093509
  0
ARC
  5
434
100
AcDbEntity
  8
0
100
AcDbCircle
 62
7
  6
CONTINUOUS
 10
306.0120774447
 20
137.567740711
 40
11.0
100
AcDbArc
 50
166.7212007008
 51
73.2787992992
  0
ARC
  5
435
100
AcDbEntity
  8
0
100
AcDbCircle
 62
7
  6
CONTINUOUS
 10
261.6370774447
 20
214.4274952969
 40
8.0
100
AcDbArc
 50
30.0
 51
210.0
  0
ARC
  5
436
100
AcDbEntity
  8
0
100
AcDbCircle
 62
7
  6
CONTINUOUS
 10
304.6370774447
 20
139.9493105714
 40
8.0
100
AcDbArc
 50
210.0
 51
30.0
  0
ARC
  5
437
100
AcDbEntity
  8
0
100
AcDbCircle
 62
7
  6
CONTINUOUS
 10
316.5370774447
 20
119.3379059613
 40
4.55
100
AcDbArc
 50
30.0
 51
210.0
  0
ARC
  5
438
100
AcDbEntity
  8
0
100
AcDbCircle
 62
7
  6
CONTINUOUS
 10
299.4774677539
 20
104.8860167031
 40
2.0
100
AcDbArc
 50
30.0
 51
60.0
  0
ARC
  5
439
100
AcDbEntity
  8
0
100
AcDbCircle
 62
7
  6
CONTINUOUS
 10
337.5825855204
 20
126.8860167031
 40
2.0
100
AcDbArc
 50
180.0
 51
210.0
  0
ARC
  5
43A
100
AcDbEntity
  8
0
100
AcDbCircle
 62
7
  6
CONTINUOUS
 10
308.3096499423
 20
97.588228411
 40
2.0
100
AcDbArc
 50
210.0
 51
250.0
  0
ARC
  5
43B
100
AcDbEntity
  8
0
100
AcDbCircle
 62
7
  6
CONTINUOUS
 10
339.4865644786
 20
115.588228411
 40
2.0
100
AcDbArc
 50
350.0
 51
30.0
  0
ARC
  5
43C
100
AcDbEntity
  8
0
100
AcDbCircle
 62
7
  6
CONTINUOUS
 10
338.4148276353
 20
109.5101067364
 40
2.0
100
AcDbArc
 50
299.9999732535
 51
349.9999583898
  0
ARC
  5
43D
100
AcDbEntity
  8
0
100
AcDbCircle
 62
7
  6
CONTINUOUS
 10
314.109326736
 20
95.4773186898
 40
2.0
100
AcDbArc
 50
250.0000234845
 51
300.0000150955
  0
CIRCLE
  5
43E
100
AcDbEntity
  8
BEZUGSACHSEN
100
AcDbCircle
 62
7
  6
CONTINUOUS
 10
308.9065040091
 20
103.1544468427
 40
1.75
  0
ARC
  5
43F
100
AcDbEntity
  8
0
100
AcDbCircle
 62
7
  6
CONTINUOUS
 10
218.1370774447
 20
289.7717054261
 40
117.0
100
AcDbArc
 50
180.0
 51
236.0788061492
  0
ARC
  5
440
100
AcDbEntity
  8
0
100
AcDbCircle
 62
7
  6
CONTINUOUS
 10
218.1370774447
 20
289.7717054261
 40
117.0
100
AcDbArc
 50
243.9213608551
 51
296.0786391449
  0
ARC
  5
441
100
AcDbEntity
  8
0
100
AcDbCircle
 62
7
  6
CONTINUOUS
 10
218.1370774447
 20
289.7717054261
 40
117.0
100
AcDbArc
 50
303.9211938508
 51
360.0
  0
ARC
  5
442
100
AcDbEntity
  8
0
100
AcDbCircle
 62
7
  6
CONTINUOUS
 10
218.1370774447
 20
449.7717054261
 40
117.0
100
AcDbArc
 50
0.0
 51
180.0
  0
ARC
  5
443
100
AcDbEntity
  8
0
100
AcDbCircle
 62
7
  6
CONTINUOUS
 10
218.1370774447
 20
449.7717054261
 40
95.0
100
AcDbArc
 50
0.0
 51
180.0
  0
ARC
  5
444
100
AcDbEntity
  8
0
100
AcDbCircle
 62
7
  6
CONTINUOUS
 10
218.1370774447
 20
289.7717054261
 40
95.0
100
AcDbArc
 50
180.0
 51
235.1686587661
  0
ARC
  5
445
100
AcDbEntity
  8
0
100
AcDbCircle
 62
7
  6
CONTINUOUS
 10
218.1370774447
 20
289.7717054261
 40
95.0
100
AcDbArc
 50
244.8306974472
 51
295.1693025528
  0
ARC
  5
446
100
AcDbEntity
  8
0
100
AcDbCircle
 62
7
  6
CONTINUOUS
 10
218.1370774447
 20
289.7717054261
 40
95.0
100
AcDbArc
 50
304.8313412339
 51
360.0
  0
ARC
  5
447
100
AcDbEntity
  8
BEZUGSACHSEN
100
AcDbCircle
 62
7
  6
CONTINUOUS
 10
444.2977111499
 20
122.6457906988
 40
136.3306920273
100
AcDbArc
 50
13.0940398736
 51
13.2186660371
  0
ARC
  5
448
100
AcDbEntity
  8
BEZUGSACHSEN
100
AcDbCircle
 62
7
  6
CONTINUOUS
 10
490.9258581005
 20
144.1052057649
 40
86.4780821628
100
AcDbArc
 50
7.0196974911
 51
7.1900964322
  0
ARC
  5
449
100
AcDbEntity
  8
BEZUGSACHSEN
100
AcDbCircle
 62
7
  6
CONTINUOUS
 10
501.6243191483
 20
143.5700286972
 40
76.1060909461
100
AcDbArc
 50
10.0582956175
 51
10.1916892449
  0
ARC
  5
44A
100
AcDbEntity
  8
BEZUGSACHSEN
100
AcDbCircle
 62
7
  6
CONTINUOUS
 10
523.4854598835
 20
145.7754322791
 40
54.2042671448
100
AcDbArc
 50
8.2715542334
 51
8.5004983613
  0
ARC
  5
44B
100
AcDbEntity
  8
BEZUGSACHSEN
100
AcDbCircle
 62
7
  6
CONTINUOUS
 10
523.0972776149
 20
149.5559258185
 40
53.8602218155
100
AcDbArc
 50
5.6900458088
 51
5.8521592761
  0
ARC
  5
44C
100
AcDbEntity
  8
BEZUGSACHSEN
100
AcDbCircle
 62
7
  6
CONTINUOUS
 10
532.3591542231
 20
142.534323822
 40
46.0958777452
100
AcDbArc
 50
14.3066042554
 51
14.4769256317
  0
ARC
  5
44D
100
AcDbEntity
  8
BEZUGSACHSEN
100
AcDbCircle
 62
7
  6
CONTINUOUS
 10
544.718593984
 20
145.9738002155
 40
33.3788772258
100
AcDbArc
 50
18.1316695878
 51
18.3895707138
  0
ARC
  5
44E
100
AcDbEntity
  8
BEZUGSACHSEN
100
AcDbCircle
 62
7
  6
CONTINUOUS
 10
556.8435314883
 20
147.5584509399
 40
21.1031642459
100
AcDbArc
 50
16.0993273625
 51
16.4417736314
  0
ARC
  5
44F
100
AcDbEntity
  8
BEZUGSACHSEN
100
AcDbCircle
 62
7
  6
CONTINUOUS
 10
562.4769605936
 20
151.9984068125
 40
14.7333362738
100
AcDbArc
 50
5.5816721689
 51
6.1371293398
  0
ARC
  5
450
100
AcDbEntity
  8
BEZUGSACHSEN
100
AcDbCircle
 62
7
  6
CONTINUOUS
 10
454.0221013677
 20
78.1937332039
 40
14.4517402502
100
AcDbArc
 50
313.4518533951
 51
314.9958166966
  0
ARC
  5
451
100
AcDbEntity
  8
KONSTRUKTIONSELEMENTE
100
AcDbCircle
 62
7
  6
CONTINUOUS
 10
562.4880137094
 20
156.3436215832
 40
13.6473794337
100
AcDbArc
 50
358.0835248568
 51
0.5035178859
  0
ARC
  5
452
100
AcDbEntity
  8
BEZUGSACHSEN
100
AcDbCircle
 62
7
  6
CONTINUOUS
 10
563.048067044
 20
156.600925469
 40
13.3291108839
100
AcDbArc
 50
356.9306295707
 51
359.4094913812
  0
ARC
  5
453
100
AcDbEntity
  8
BEZUGSACHSEN
100
AcDbCircle
 62
7
  6
CONTINUOUS
 10
563.4537531171
 20
156.2020795842
 40
13.0022839564
100
AcDbArc
 50
357.4933040219
 51
359.5046747401
  0
ARC
  5
454
100
AcDbEntity
  8
BEZUGSACHSEN
100
AcDbCircle
 62
7
  6
CONTINUOUS
 10
564.5508826312
 20
155.0085675112
 40
12.1417590967
100
AcDbArc
 50
357.31474131
 51
359.4687898801
  0
ARC
  5
455
100
AcDbEntity
  8
BEZUGSACHSEN
100
AcDbCircle
 62
7
  6
CONTINUOUS
 10
564.803915828
 20
155.0308333567
 40
11.8959175
100
AcDbArc
 50
9.8168715503
 51
10.1497427301
  0
ARC
  5
456
100
AcDbEntity
  8
BEZUGSACHSEN
100
AcDbCircle
 62
7
  6
CONTINUOUS
 10
564.9817073458
 20
154.5314707063
 40
11.8055816221
100
AcDbArc
 50
357.2364001246
 51
359.2187388196
  0
ARC
  5
457
100
AcDbEntity
  8
0
100
AcDbCircle
 62
7
  6
CONTINUOUS
 10
565.9808204975
 20
161.6122977228
 40
10.9223771608
100
AcDbArc
 50
180.0647954986
 51
193.6840112435
  0
ARC
  5
458
100
AcDbEntity
  8
BEZUGSACHSEN
100
AcDbCircle
 62
7
  6
CONTINUOUS
 10
566.3543048778
 20
152.86881086
 40
10.7644365665
100
AcDbArc
 50
356.3473589365
 51
356.9236208602
  0
ARC
  5
459
100
AcDbEntity
  8
BEZUGSACHSEN
100
AcDbCircle
 62
7
  6
CONTINUOUS
 10
566.6020091763
 20
152.8586016055
 40
10.5165096273
100
AcDbArc
 50
0.1790392394
 51
1.0949324511
  0
ARC
  5
45A
100
AcDbEntity
  8
0
100
AcDbCircle
 62
7
  6
CONTINUOUS
 10
560.4684632234
 20
133.2251694308
 40
9.8560449905
100
AcDbArc
 50
311.8722712678
 51
319.9710876468
  0
ARC
  5
45B
100
AcDbEntity
  8
KONSTRUKTIONSELEMENTE
100
AcDbCircle
 62
7
  6
CONTINUOUS
 10
525.9384055215
 20
122.8708132593
 40
6.8544496741
100
AcDbArc
 50
180.0468621101
 51
190.0347873196
  0
ARC
  5
45C
100
AcDbEntity
  8
KONSTRUKTIONSELEMENTE
100
AcDbCircle
 62
7
  6
CONTINUOUS
 10
494.9928820504
 20
96.0776546084
 40
6.5947824563
100
AcDbArc
 50
180.0290752758
 51
188.778086953
  0
ARC
  5
45D
100
AcDbEntity
  8
KONSTRUKTIONSELEMENTE
100
AcDbCircle
 62
7
  6
CONTINUOUS
 10
496.1521641152
 20
97.0289565266
 40
3.6351988047
100
AcDbArc
 50
238.8071952043
 51
240.6860889462
  0
ARC
  5
45E
100
AcDbEntity
  8
KONSTRUKTIONSELEMENTE
100
AcDbCircle
 62
7
  6
CONTINUOUS
 10
527.1166489956
 20
123.8763675649
 40
3.4480880973
100
AcDbArc
 50
240.3855846735
 51
242.1133696711
  0
ARC
  5
45F
100
AcDbEntity
  8
KONSTRUKTIONSELEMENTE
100
AcDbCircle
 62
7
  6
CONTINUOUS
 10
421.5426242662
 20
40.828668379
 40
3.4287789508
100
AcDbArc
 50
339.0636471637
 51
341.3795103678
  0
ARC
  5
460
100
AcDbEntity
  8
KONSTRUKTIONSELEMENTE
100
AcDbCircle
 62
7
  6
CONTINUOUS
 10
506.5409552409
 20
104.6216928008
 40
3.2537077432
100
AcDbArc
 50
125.8262786327
 51
130.8740696877
  0
ARC
  5
461
100
AcDbEntity
  8
0
100
AcDbCircle
 62
7
  6
CONTINUOUS
 10
563.488348231
 20
99.0153620141
 40
2.6967589152
100
AcDbArc
 50
213.3585546604
 51
216.0522962764
  0
ARC
  5
462
100
AcDbEntity
  8
KONSTRUKTIONSELEMENTE
100
AcDbCircle
 62
7
  6
CONTINUOUS
 10
508.1248966303
 20
105.1628670971
 40
2.3966654421
100
AcDbArc
 50
23.4830152976
 51
29.1758184914
  0
ARC
  5
463
100
AcDbEntity
  8
KONSTRUKTIONSELEMENTE
100
AcDbCircle
 62
7
  6
CONTINUOUS
 10
534.3913122942
 20
128.2149409635
 40
2.2319350359
100
AcDbArc
 50
329.6480991189
 51
331.3181221814
  0
ARC
  5
464
100
AcDbEntity
  8
KONSTRUKTIONSELEMENTE
100
AcDbCircle
 62
7
  6
CONTINUOUS
 10
477.1867347402
 20
78.370783499
 40
2.1487055737
100
AcDbArc
 50
21.3241761366
 51
27.3321484597
  0
ARC
  5
465
100
AcDbEntity
  8
KONSTRUKTIONSELEMENTE
100
AcDbCircle
 62
7
  6
CONTINUOUS
 10
477.2690377427
 20
78.404306999
 40
2.0598469893
100
AcDbArc
 50
18.6815072044
 51
21.288032893
  0
ARC
  5
466
100
AcDbEntity
  8
BEZUGSACHSEN
100
AcDbCircle
 62
7
  6
CONTINUOUS
 10
714.3989624992
 20
125.4870604366
 40
150.1041586773
100
AcDbArc
 50
168.9659910709
 51
169.0961186966
  0
ARC
  5
467
100
AcDbEntity
  8
BEZUGSACHSEN
100
AcDbCircle
 62
7
  6
CONTINUOUS
 10
611.5446886681
 20
149.7817967319
 40
44.5444088173
100
AcDbArc
 50
169.962580429
 51
170.1921979653
  0
ARC
  5
468
100
AcDbEntity
  8
BEZUGSACHSEN
100
AcDbCircle
 62
7
  6
CONTINUOUS
 10
599.6910885718
 20
147.3368137162
 40
33.3349762484
100
AcDbArc
 50
168.6782932554
 51
168.9665119244
  0
ARC
  5
469
100
AcDbEntity
  8
BEZUGSACHSEN
100
AcDbCircle
 62
7
  6
CONTINUOUS
 10
581.6399400487
 20
151.9984068125
 40
14.7333362738
100
AcDbArc
 50
173.8628706602
 51
174.4183278311
  0
ARC
  5
46A
100
AcDbEntity
  8
0
100
AcDbCircle
 62
7
  6
CONTINUOUS
 10
572.0584503212
 20
183.7717054261
 40
11.0
100
AcDbArc
 50
180.0
 51
360.0
  0
ARC
  5
46B
100
AcDbEntity
  8
BEZUGSACHSEN
100
AcDbCircle
 62
7
  6
CONTINUOUS
 10
577.7625957607
 20
152.8688108598
 40
10.7644365627
100
AcDbArc
 50
183.0763791397
 51
183.6526410637
  0
ARC
  5
46C
100
AcDbEntity
  8
BEZUGSACHSEN
100
AcDbCircle
 62
7
  6
CONTINUOUS
 10
577.514891466
 20
152.8586016055
 40
10.5165096273
100
AcDbArc
 50
178.9050675489
 51
179.8209607606
  0
ARC
  5
46D
100
AcDbEntity
  8
RUNDUNGEN
100
AcDbCircle
 62
7
  6
CONTINUOUS
 10
583.6484374189
 20
133.2251694307
 40
9.8560449904
100
AcDbArc
 50
220.0289123532
 51
228.1277287322
  0
ARC
  5
46E
100
AcDbEntity
  8
BEZUGSACHSEN
100
AcDbCircle
 62
7
  6
CONTINUOUS
 10
575.5997216908
 20
156.2358947908
 40
8.0252268127
100
AcDbArc
 50
169.9404464084
 51
170.6081225603
  0
ARC
  5
46F
100
AcDbEntity
  8
BEZUGSACHSEN
100
AcDbCircle
 62
7
  6
CONTINUOUS
 10
569.4669937195
 20
152.69377571
 40
7.7368238876
100
AcDbArc
 50
10.8923160205
 51
11.291455932
  0
ARC
  5
470
100
AcDbEntity
  8
BEZUGSACHSEN
100
AcDbCircle
 62
7
  6
CONTINUOUS
 10
571.5227867198
 20
152.757664273
 40
4.6504256058
100
AcDbArc
 50
168.1006292262
 51
169.0810281996
  0
ARC
  5
471
100
AcDbEntity
  8
0
100
AcDbCircle
 62
7
  6
CONTINUOUS
 10
570.5584503212
 20
152.3457776229
 40
3.5
100
AcDbArc
 50
169.5
 51
180.0
  0
ARC
  5
472
100
AcDbEntity
  8
BEZUGSACHSEN
100
AcDbCircle
 62
7
  6
CONTINUOUS
 10
573.5584503212
 20
152.3457776229
 40
3.5
100
AcDbArc
 50
3.5846535992
 51
8.9775342353
  0
ARC
  5
473
100
AcDbEntity
  8
0
100
AcDbCircle
 62
7
  6
CONTINUOUS
 10
573.1695471915
 20
120.0034713002
 40
3.388941815
100
AcDbArc
 50
6.9204050835
 51
8.3824961397
  0
ARC
  5
474
100
AcDbEntity
  8
0
100
AcDbCircle
 62
7
  6
CONTINUOUS
 10
570.9473534503
 20
120.0034713003
 40
3.3889418144
100
AcDbArc
 50
171.6175038601
 51
173.0795949165
  0
ARC
  5
475
100
AcDbEntity
  8
0
100
AcDbCircle
 62
7
  6
CONTINUOUS
 10
573.1768739789
 20
120.0044087842
 40
3.3815554495
100
AcDbArc
 50
4.1120834444
 51
6.9195943906
  0
ARC
  5
476
100
AcDbEntity
  8
0
100
AcDbCircle
 62
7
  6
CONTINUOUS
 10
570.9400266634
 20
120.0044087842
 40
3.3815554495
100
AcDbArc
 50
173.0804056094
 51
175.8879165556
  0
ARC
  5
477
100
AcDbEntity
  8
KONSTRUKTIONSELEMENTE
100
AcDbCircle
 62
7
  6
CONTINUOUS
 10
572.90366475
 20
157.347564454
 40
3.2317500645
100
AcDbArc
 50
2.4964579671
 51
3.7375375563
  0
ARC
  5
478
100
AcDbEntity
  8
KONSTRUKTIONSELEMENTE
100
AcDbCircle
 62
7
  6
CONTINUOUS
 10
572.9036647569
 20
157.3495080757
 40
3.2317500575
100
AcDbArc
 50
356.2624624427
 51
357.503542626
  0
ARC
  5
479
100
AcDbEntity
  8
BEZUGSACHSEN
100
AcDbCircle
 62
7
  6
CONTINUOUS
 10
573.2395098064
 20
157.4553048829
 40
3.1609939059
100
AcDbArc
 50
354.2542249652
 51
355.5262649407
  0
ARC
  5
47A
100
AcDbEntity
  8
BEZUGSACHSEN
100
AcDbCircle
 62
7
  6
CONTINUOUS
 10
573.3043887351
 20
157.4510659258
 40
3.0959773233
100
AcDbArc
 50
0.6896787306
 51
1.9836230245
  0
ARC
  5
47B
100
AcDbEntity
  8
RUNDUNGEN
100
AcDbCircle
 62
7
  6
CONTINUOUS
 10
580.6285524114
 20
99.015362014
 40
2.6967589151
100
AcDbArc
 50
323.9477037235
 51
326.6414453396
  0
ARC
  5
47C
100
AcDbEntity
  8
RUNDUNGEN
100
AcDbCircle
 62
7
  6
CONTINUOUS
 10
580.6458849734
 20
99.0040031371
 40
2.6760359834
100
AcDbArc
 50
326.6405178837
 51
329.8387757758
  0
ARC
  5
47D
100
AcDbEntity
  8
BEZUGSACHSEN
100
AcDbCircle
 62
7
  6
CONTINUOUS
 10
574.5002344497
 20
154.0141359702
 40
2.5468516917
100
AcDbArc
 50
357.1582422843
 51
357.9816292775
  0
ARC
  5
47E
100
AcDbEntity
  8
BEZUGSACHSEN
100
AcDbCircle
 62
7
  6
CONTINUOUS
 10
569.4398565099
 20
153.5110803006
 40
2.4646826571
100
AcDbArc
 50
181.8517444802
 51
182.9359697314
  0
ARC
  5
47F
100
AcDbEntity
  8
BEZUGSACHSEN
100
AcDbCircle
 62
7
  6
CONTINUOUS
 10
574.6770441324
 20
153.5110803006
 40
2.4646826571
100
AcDbArc
 50
357.0640302686
 51
358.1482555198
  0
ARC
  5
480
100
AcDbEntity
  8
BEZUGSACHSEN
100
AcDbCircle
 62
7
  6
CONTINUOUS
 10
574.9320192406
 20
152.8629293397
 40
2.3475030229
100
AcDbArc
 50
25.8876845161
 51
26.9023950846
  0
ARC
  5
481
100
AcDbEntity
  8
BEZUGSACHSEN
100
AcDbCircle
 62
7
  6
CONTINUOUS
 10
574.6269681815
 20
157.1982025408
 40
1.8974892445
100
AcDbArc
 50
337.2215490859
 51
338.5413695553
  0
ARC
  5
482
100
AcDbEntity
  8
BEZUGSACHSEN
100
AcDbCircle
 62
7
  6
CONTINUOUS
 10
575.6632085917
 20
154.3661172144
 40
1.8969607228
100
AcDbArc
 50
64.7716682594
 51
65.3111307411
  0
ARC
  5
483
100
AcDbEntity
  8
KONSTRUKTIONSELEMENTE
100
AcDbCircle
 62
7
  6
CONTINUOUS
 10
574.4273631207
 20
157.0841181073
 40
1.8167736903
100
AcDbArc
 50
340.0271456952
 51
341.3801696096
  0
ARC
  5
484
100
AcDbEntity
  8
BEZUGSACHSEN
100
AcDbCircle
 62
7
  6
CONTINUOUS
 10
576.3546926183
 20
152.8104529301
 40
0.9717308265
100
AcDbArc
 50
36.2348461758
 51
38.1287683093
  0
ARC
  5
485
100
AcDbEntity
  8
0
100
AcDbCircle
 62
7
  6
CONTINUOUS
 10
572.0584503212
 20
555.7717054261
 40
11.0
100
AcDbArc
 50
0.0
 51
180.0
  0
SPLINE
  5
486
100
AcDbEntity
  8
KONSTRUKTIONSELEMENTE
100
AcDbSpline
 62
7
  6
CONTINUOUS
 70
0
 71
3
 72
10
 73
6
 74
0
 42
0.0000001
 43
0.0000001
 44
0.0000000001
 40
0.0
 40
0.0
 40
0.0
 40
0.0
 40
0.3116645009
 40
0.6060899939
 40
1.0
 40
1.0
 40
1.0
 40
1.0
 10
106.8630798303
 20
90.0394879967
 30
0.0
 10
106.9616572536
 20
90.2102291022
 30
0.0
 10
106.984915857
 20
90.6255712981
 30
0.0
 10
106.8058022967
 20
91.2299760507
 30
0.0
 10
106.5918021642
 20
91.6161195729
 30
0.0
 10
106.4509492491
 20
91.8216731141
 30
0.0
  0
SPLINE
  5
487
100
AcDbEntity
  8
KONSTRUKTIONSELEMENTE
100
AcDbSpline
 62
7
  6
CONTINUOUS
 70
0
 71
3
 72
10
 73
6
 74
0
 42
0.0000001
 43
0.0000001
 44
0.0000000001
 40
0.0
 40
0.0
 40
0.0
 40
0.0
 40
0.3939255147
 40
0.6883533687
 40
1.0
 40
1.0
 40
1.0
 40
1.0
 10
102.5506509879
 20
94.0736406085
 30
0.0
 10
102.30216668
 20
94.0928689744
 30
0.0
 10
101.8606857377
 20
94.0851265951
 30
0.0
 10
101.247590891
 20
93.938098206
 30
0.0
 10
100.8994876558
 20
93.7102433547
 30
0.0
 10
100.8009020038
 20
93.5394879967
 30
0.0
  0
SPLINE
  5
488
100
AcDbEntity
  8
KONSTRUKTIONSELEMENTE
100
AcDbSpline
 62
7
  6
CONTINUOUS
 70
0
 71
3
 72
13
 73
9
 74
0
 42
0.0000001
 43
0.0000001
 44
0.0000000001
 40
0.0
 40
0.0
 40
0.0
 40
0.0
 40
0.1194785188
 40
0.2392741704
 40
0.3602835725
 40
0.4830059608
 40
0.7355440041
 40
1.0
 40
1.0
 40
1.0
 40
1.0
 10
110.7601941474
 20
87.7894879967
 30
0.0
 10
110.939513953
 20
88.1000790108
 30
0.0
 10
111.233866646
 20
88.7621037967
 30
0.0
 10
111.4609969858
 20
89.8266575405
 30
0.0
 10
111.4759806624
 20
90.9245789602
 30
0.0
 10
111.2217818538
 20
92.39968484
 30
0.0
 10
110.4176608704
 20
94.1795437267
 30
0.0
 10
109.3996600004
 20
95.3764213826
 30
0.0
 10
108.81699251
 20
95.9155393903
 30
0.0
  0
SPLINE
  5
489
100
AcDbEntity
  8
KONSTRUKTIONSELEMENTE
100
AcDbSpline
 62
7
  6
CONTINUOUS
 70
0
 71
3
 72
13
 73
9
 74
0
 42
0.0000001
 43
0.0000001
 44
0.0000000001
 40
0.0
 40
0.0
 40
0.0
 40
0.0
 40
0.2644681654
 40
0.5169944072
 40
0.6397129492
 40
0.760706397
 40
0.8805228501
 40
1.0
 40
1.0
 40
1.0
 40
1.0
 10
104.9146524755
 20
98.1690543808
 30
0.0
 10
104.156264666
 20
98.4042828159
 30
0.0
 10
102.6104616176
 20
98.6878550928
 30
0.0
 10
100.6665326213
 20
98.4945721191
 30
0.0
 10
99.261683294
 20
97.9772456259
 30
0.0
 10
98.3180084641
 20
97.4153863901
 30
0.0
 10
97.5094812165
 20
96.6862047911
 30
0.0
 10
97.083144822
 20
96.1001436675
 30
0.0
 10
96.9037876868
 20
95.7894879967
 30
0.0
  0
SPLINE
  5
48A
100
AcDbEntity
  8
KONSTRUKTIONSELEMENTE
100
AcDbSpline
 62
7
  6
CONTINUOUS
 70
0
 71
3
 72
13
 73
9
 74
0
 42
0.0000001
 43
0.0000001
 44
0.0000000001
 40
0.0
 40
0.0
 40
0.0
 40
0.0
 40
0.1197290731
 40
0.2397365246
 40
0.3609040964
 40
0.4836831257
 40
0.7359942557
 40
1.0
 40
1.0
 40
1.0
 40
1.0
 10
91.6004868279
 20
86.6039014612
 30
0.0
 10
91.4258799769
 20
86.3014735239
 30
0.0
 10
91.137653027
 20
85.6580425591
 30
0.0
 10
90.9081870885
 20
84.6240252254
 30
0.0
 10
90.8800370665
 20
83.5565008738
 30
0.0
 10
91.1032922341
 20
82.11958911
 30
0.0
 10
91.8475208714
 20
80.3768483911
 30
0.0
 10
92.8065041683
 20
79.1920824848
 30
0.0
 10
93.3577693157
 20
78.6544526852
 30
0.0
  0
SPLINE
  5
48B
100
AcDbEntity
  8
KONSTRUKTIONSELEMENTE
100
AcDbSpline
 62
7
  6
CONTINUOUS
 70
0
 71
3
 72
13
 73
9
 74
0
 42
0.0000001
 43
0.0000001
 44
0.0000000001
 40
0.0
 40
0.0
 40
0.0
 40
0.0
 40
0.2640112835
 40
0.5163080567
 40
0.6390830379
 40
0.7602378991
 40
0.8802701562
 40
1.0
 40
1.0
 40
1.0
 40
1.0
 10
97.6947334782
 20
76.1507906884
 30
0.0
 10
98.4359268198
 20
75.9422955696
 30
0.0
 10
99.9412840749
 20
75.7042979364
 30
0.0
 10
101.8223962453
 20
75.9312996559
 30
0.0
 10
103.1781643377
 20
76.4563783203
 30
0.0
 10
104.0885484545
 20
77.0144280334
 30
0.0
 10
104.8691569867
 20
77.7302082338
 30
0.0
 10
105.2823038897
 20
78.3015037522
 30
0.0
 10
105.4568932885
 20
78.6039014612
 30
0.0
  0
SPLINE
  5
48C
100
AcDbEntity
  8
KONSTRUKTIONSELEMENTE
100
AcDbSpline
 62
7
  6
CONTINUOUS
 70
0
 71
3
 72
10
 73
6
 74
0
 42
0.0000001
 43
0.0000001
 44
0.0000000001
 40
0.0
 40
0.0
 40
0.0
 40
0.0
 40
0.3192646009
 40
0.6086079864
 40
1.0
 40
1.0
 40
1.0
 40
1.0
 10
95.4976011449
 20
84.3539014612
 30
0.0
 10
95.4117312573
 20
84.2051704531
 30
0.0
 10
95.3742949288
 20
83.8562972568
 30
0.0
 10
95.4944160606
 20
83.332741131
 30
0.0
 10
95.6505510718
 20
82.9965992377
 30
0.0
 10
95.7561748474
 20
82.8144723814
 30
0.0
  0
SPLINE
  5
48D
100
AcDbEntity
  8
KONSTRUKTIONSELEMENTE
100
AcDbSpline
 62
7
  6
CONTINUOUS
 70
0
 71
3
 72
10
 73
6
 74
0
 42
0.0000001
 43
0.0000001
 44
0.0000000001
 40
0.0
 40
0.0
 40
0.0
 40
0.0
 40
0.3914026107
 40
0.6807340322
 40
1.0
 40
1.0
 40
1.0
 40
1.0
 10
100.0974129379
 20
80.3081179897
 30
0.0
 10
100.3079438723
 20
80.3077137778
 30
0.0
 10
100.6770865884
 20
80.3406085559
 30
0.0
 10
101.1905457922
 20
80.4983045751
 30
0.0
 10
101.4739140786
 20
80.7051791043
 30
0.0
 10
101.5597789714
 20
80.8539014612
 30
0.0
  0
SPLINE
  5
48E
100
AcDbEntity
  8
KONSTRUKTIONSELEMENTE
100
AcDbSpline
 62
7
  6
CONTINUOUS
 70
0
 71
3
 72
10
 73
6
 74
0
 42
0.0000001
 43
0.0000001
 44
0.0000000001
 40
0.0
 40
0.0
 40
0.0
 40
0.0
 40
0.3192646009
 40
0.6086079864
 40
1.0
 40
1.0
 40
1.0
 40
1.0
 10
122.4194290164
 20
116.9838751673
 30
0.0
 10
122.505298904
 20
117.1326061755
 30
0.0
 10
122.5427352326
 20
117.4814793717
 30
0.0
 10
122.4226141007
 20
118.0050354976
 30
0.0
 10
122.2664790896
 20
118.3411773909
 30
0.0
 10
122.160855314
 20
118.5233042472
 30
0.0
  0
SPLINE
  5
48F
100
AcDbEntity
  8
KONSTRUKTIONSELEMENTE
100
AcDbSpline
 62
7
  6
CONTINUOUS
 70
0
 71
3
 72
10
 73
6
 74
0
 42
0.0000001
 43
0.0000001
 44
0.0000000001
 40
0.0
 40
0.0
 40
0.0
 40
0.0
 40
0.3914026107
 40
0.6807340322
 40
1.0
 40
1.0
 40
1.0
 40
1.0
 10
117.8196172235
 20
121.0296586389
 30
0.0
 10
117.609086289
 20
121.0300628507
 30
0.0
 10
117.239943573
 20
120.9971680727
 30
0.0
 10
116.7264843692
 20
120.8394720534
 30
0.0
 10
116.4431160828
 20
120.6325975242
 30
0.0
 10
116.3572511899
 20
120.4838751673
 30
0.0
  0
SPLINE
  5
490
100
AcDbEntity
  8
KONSTRUKTIONSELEMENTE
100
AcDbSpline
 62
7
  6
CONTINUOUS
 70
0
 71
3
 72
9
 73
5
 74
0
 42
0.0000001
 43
0.0000001
 44
0.0000000001
 40
0.0
 40
0.0
 40
0.0
 40
0.0
 40
0.2461884529
 40
1.0
 40
1.0
 40
1.0
 40
1.0
 10
107.5357119439
 20
107.307626215
 30
0.0
 10
107.6415057637
 20
107.1362575344
 30
0.0
 10
108.0966491388
 20
106.4560338569
 30
0.0
 10
108.6474104473
 20
105.8410343747
 30
0.0
 10
109.1000376514
 20
105.4222372382
 30
0.0
  0
SPLINE
  5
491
100
AcDbEntity
  8
KONSTRUKTIONSELEMENTE
100
AcDbSpline
 62
7
  6
CONTINUOUS
 70
0
 71
3
 72
9
 73
5
 74
0
 42
0.0000001
 43
0.0000001
 44
0.0000000001
 40
0.0
 40
0.0
 40
0.0
 40
0.0
 40
0.2541577505
 40
1.0
 40
1.0
 40
1.0
 40
1.0
 10
113.0023776859
 20
103.1687222477
 30
0.0
 10
113.2014234585
 20
103.1069844072
 30
0.0
 10
113.9919534785
 20
102.8889636436
 30
0.0
 10
114.8118667812
 20
102.7737135787
 30
0.0
 10
115.4231738083
 20
102.755961004
 30
0.0
  0
SPLINE
  5
492
100
AcDbEntity
  8
KONSTRUKTIONSELEMENTE
100
AcDbSpline
 62
7
  6
CONTINUOUS
 70
0
 71
3
 72
9
 73
5
 74
0
 42
0.0000001
 43
0.0000001
 44
0.0000000001
 40
0.0
 40
0.0
 40
0.0
 40
0.0
 40
0.2427240457
 40
1.0
 40
1.0
 40
1.0
 40
1.0
 10
119.3447028609
 20
136.325811394
 30
0.0
 10
119.6737478784
 20
135.9140073404
 30
0.0
 10
121.0928896204
 20
134.2687157382
 30
0.0
 10
122.7470661791
 20
132.8297801117
 30
0.0
 10
124.0850634557
 20
131.8735726436
 30
0.0
  0
SPLINE
  5
493
100
AcDbEntity
  8
KONSTRUKTIONSELEMENTE
100
AcDbSpline
 62
7
  6
CONTINUOUS
 70
0
 71
3
 72
9
 73
5
 74
0
 42
0.0000001
 43
0.0000001
 44
0.0000000001
 40
0.0
 40
0.0
 40
0.0
 40
0.0
 40
0.2566178912
 40
1.0
 40
1.0
 40
1.0
 40
1.0
 10
128.4189757534
 20
129.3713412843
 30
0.0
 10
128.9269728242
 20
129.1403807308
 30
0.0
 10
130.9351285842
 20
128.3055915085
 30
0.0
 10
133.0554941938
 20
127.7325053045
 30
0.0
 10
134.6538567086
 20
127.490747296
 30
0.0
  0
SPLINE
  5
494
100
AcDbEntity
  8
BEZUGSACHSEN
100
AcDbSpline
 62
7
  6
CONTINUOUS
 70
0
 71
3
 72
11
 73
7
 74
0
 42
0.0000001
 43
0.0000001
 44
0.0000000001
 40
0.0
 40
0.0
 40
0.0
 40
0.0
 40
0.2247459803
 40
0.4666479017
 40
0.7259253114
 40
1.0
 40
1.0
 40
1.0
 40
1.0
 10
95.0096989058
 20
66.2631182612
 30
0.0
 10
94.753052075
 20
66.1084426156
 30
0.0
 10
94.1747380452
 20
65.859324352
 30
0.0
 10
93.2156674728
 20
65.6862447012
 30
0.0
 10
92.1764870429
 20
65.7035851258
 30
0.0
 10
91.474389719
 20
65.8379316956
 30
0.0
 10
91.1218200978
 20
65.933998439
 30
0.0
  0
SPLINE
  5
495
100
AcDbEntity
  8
BEZUGSACHSEN
100
AcDbSpline
 62
7
  6
CONTINUOUS
 70
0
 71
3
 72
11
 73
7
 74
0
 42
0.0000001
 43
0.0000001
 44
0.0000000001
 40
0.0
 40
0.0
 40
0.0
 40
0.0
 40
0.2740746886
 40
0.5333520983
 40
0.7752540197
 40
1.0
 40
1.0
 40
1.0
 40
1.0
 10
87.7955655425
 20
67.8544124019
 30
0.0
 10
87.5360844917
 20
68.1117132787
 30
0.0
 10
87.0686882873
 20
68.6525741123
 30
0.0
 10
86.5340808242
 20
69.5438605514
 30
0.0
 10
86.2044369125
 20
70.4609798565
 30
0.0
 10
86.1310226424
 20
71.0863736294
 30
0.0
 10
86.1366522654
 20
71.3859741276
 30
0.0
  0
SPLINE
  5
496
100
AcDbEntity
  8
KONSTRUKTIONSELEMENTE
100
AcDbSpline
 62
7
  6
CONTINUOUS
 70
0
 71
3
 72
13
 73
9
 74
0
 42
0.0000001
 43
0.0000001
 44
0.0000000001
 40
0.0
 40
0.0
 40
0.0
 40
0.0
 40
0.1036865026
 40
0.2123166057
 40
0.3277694079
 40
0.450761267
 40
0.7166663069
 40
1.0
 40
1.0
 40
1.0
 40
1.0
 10
66.2552730341
 20
34.0330415309
 30
0.0
 10
66.3031597974
 20
34.1639365929
 30
0.0
 10
66.3667578504
 20
34.445685304
 30
0.0
 10
66.3600300889
 20
34.8896987587
 30
0.0
 10
66.2552821702
 20
35.3475188249
 30
0.0
 10
65.9839694812
 20
35.9722943004
 30
0.0
 10
65.4234399883
 20
36.6991277401
 30
0.0
 10
64.8274235432
 20
37.1498585719
 30
0.0
 10
64.4975817441
 20
37.3402928234
 30
0.0
  0
SPLINE
  5
497
100
AcDbEntity
  8
KONSTRUKTIONSELEMENTE
100
AcDbSpline
 62
7
  6
CONTINUOUS
 70
0
 71
3
 72
9
 73
5
 74
0
 42
0.0000001
 43
0.0000001
 44
0.0000000001
 40
0.0
 40
0.0
 40
0.0
 40
0.0
 40
0.4892987036
 40
1.0
 40
1.0
 40
1.0
 40
1.0
 10
62.9478274234
 20
69.3366550396
 30
0.0
 10
62.9788385048
 20
69.3903336821
 30
0.0
 10
63.0250965963
 20
69.5107378559
 30
0.0
 10
63.0336977846
 20
69.6390031382
 30
0.0
 10
63.0298568041
 20
69.7035932857
 30
0.0
  0
SPLINE
  5
498
100
AcDbEntity
  8
KONSTRUKTIONSELEMENTE
100
AcDbSpline
 62
7
  6
CONTINUOUS
 70
0
 71
3
 72
11
 73
7
 74
0
 42
0.0000001
 43
0.0000001
 44
0.0000000001
 40
0.0
 40
0.0
 40
0.0
 40
0.0
 40
0.2200436456
 40
0.4557793627
 40
0.7157728079
 40
1.0
 40
1.0
 40
1.0
 40
1.0
 10
58.4415907645
 20
72.9058930328
 30
0.0
 10
58.481972639
 20
72.9757920529
 30
0.0
 10
58.597035586
 20
73.1041836272
 30
0.0
 10
58.8368249686
 20
73.2229450876
 30
0.0
 10
59.1232258852
 20
73.2668001582
 30
0.0
 10
59.3239555667
 20
73.2465343082
 30
0.0
 10
59.4260418561
 20
73.2252982892
 30
0.0
  0
SPLINE
  5
499
100
AcDbEntity
  8
KONSTRUKTIONSELEMENTE
100
AcDbSpline
 62
7
  6
CONTINUOUS
 70
0
 71
3
 72
11
 73
7
 74
0
 42
0.0000001
 43
0.0000001
 44
0.0000000001
 40
0.0
 40
0.0
 40
0.0
 40
0.0
 40
0.2200599668
 40
0.4557760239
 40
0.7157731965
 40
1.0
 40
1.0
 40
1.0
 40
1.0
 10
58.2290893094
 20
83.1715138128
 30
0.0
 10
58.3636896932
 20
83.4045902836
 30
0.0
 10
58.7471096213
 20
83.8327955037
 30
0.0
 10
59.5465257872
 20
84.2288466431
 30
0.0
 10
60.5013321046
 20
84.3750758156
 30
0.0
 10
61.1705553995
 20
84.3075463833
 30
0.0
 10
61.5109009289
 20
84.2367476092
 30
0.0
  0
SPLINE
  5
49A
100
AcDbEntity
  8
KONSTRUKTIONSELEMENTE
100
AcDbSpline
 62
7
  6
CONTINUOUS
 70
0
 71
3
 72
9
 73
5
 74
0
 42
0.0000001
 43
0.0000001
 44
0.0000000001
 40
0.0
 40
0.0
 40
0.0
 40
0.0
 40
0.4891681133
 40
1.0
 40
1.0
 40
1.0
 40
1.0
 10
56.8148285658
 20
80.7219420296
 30
0.0
 10
56.7115819414
 20
80.5431377423
 30
0.0
 10
56.5575004961
 20
80.142003311
 30
0.0
 10
56.5289530159
 20
79.7146823585
 30
0.0
 10
56.5417524592
 20
79.4994461916
 30
0.0
  0
SPLINE
  5
49B
100
AcDbEntity
  8
KONSTRUKTIONSELEMENTE
100
AcDbSpline
 62
7
  6
CONTINUOUS
 70
0
 71
3
 72
9
 73
5
 74
0
 42
0.0000001
 43
0.0000001
 44
0.0000000001
 40
0.0
 40
0.0
 40
0.0
 40
0.0
 40
0.4891681133
 40
1.0
 40
1.0
 40
1.0
 40
1.0
 10
89.3467479033
 20
30.5414248364
 30
0.0
 10
89.4499736462
 20
30.7202411797
 30
0.0
 10
89.7203255314
 20
31.0542468412
 30
0.0
 10
90.0761225917
 20
31.2926301605
 30
0.0
 10
90.2689223017
 20
31.3891636009
 30
0.0
  0
SPLINE
  5
49C
100
AcDbEntity
  8
KONSTRUKTIONSELEMENTE
100
AcDbSpline
 62
7
  6
CONTINUOUS
 70
0
 71
3
 72
9
 73
5
 74
0
 42
0.0000001
 43
0.0000001
 44
0.0000000001
 40
0.0
 40
0.0
 40
0.0
 40
0.0
 40
0.4753722117
 40
1.0
 40
1.0
 40
1.0
 40
1.0
 10
90.5152325907
 20
31.5148869469
 30
0.0
 10
90.5678473784
 20
31.1781148565
 30
0.0
 10
90.8094755141
 20
30.4883468498
 30
0.0
 10
91.2288067163
 20
29.8967270814
 30
0.0
 10
91.4793002883
 20
29.6160835677
 30
0.0
  0
SPLINE
  5
49D
100
AcDbEntity
  8
KONSTRUKTIONSELEMENTE
100
AcDbSpline
 62
7
  6
CONTINUOUS
 70
0
 71
3
 72
11
 73
7
 74
0
 42
0.0000001
 43
0.0000001
 44
0.0000000001
 40
0.0
 40
0.0
 40
0.0
 40
0.0
 40
0.2094829334
 40
0.4446557434
 40
0.7120095299
 40
1.0
 40
1.0
 40
1.0
 40
1.0
 10
60.7920535656
 20
27.7221297494
 30
0.0
 10
60.7358291307
 20
27.6247461714
 30
0.0
 10
60.6783174592
 20
27.3790731474
 30
0.0
 10
60.7821930533
 20
26.9997554001
 30
0.0
 10
61.0335578019
 20
26.6495726197
 30
0.0
 10
61.2731401377
 20
26.4645783904
 30
0.0
 10
61.4070199815
 20
26.3872828266
 30
0.0
  0
SPLINE
  5
49E
100
AcDbEntity
  8
BEZUGSACHSEN
100
AcDbSpline
 62
7
  6
CONTINUOUS
 70
0
 71
3
 72
9
 73
5
 74
0
 42
0.0000001
 43
0.0000001
 44
0.0000000001
 40
0.0
 40
0.0
 40
0.0
 40
0.0
 40
0.2459387646
 40
1.0
 40
1.0
 40
1.0
 40
1.0
 10
100.1423466762
 20
71.875052334
 30
0.0
 10
99.9041652676
 20
72.141901766
 30
0.0
 10
98.9061400515
 20
73.2002785963
 30
0.0
 10
97.7961043039
 20
74.1521240103
 30
0.0
 10
96.9132400347
 20
74.8027116447
 30
0.0
  0
SPLINE
  5
49F
100
AcDbEntity
  8
BEZUGSACHSEN
100
AcDbSpline
 62
7
  6
CONTINUOUS
 70
0
 71
3
 72
9
 73
5
 74
0
 42
0.0000001
 43
0.0000001
 44
0.0000000001
 40
0.0
 40
0.0
 40
0.0
 40
0.0
 40
0.2536983179
 40
1.0
 40
1.0
 40
1.0
 40
1.0
 10
92.580386509
 20
77.3042857941
 30
0.0
 10
92.2423158898
 20
77.4520786099
 30
0.0
 10
90.8955478927
 20
78.0013606421
 30
0.0
 10
89.4930356791
 20
78.4158959622
 30
0.0
 10
88.4304058516
 20
78.6369445218
 30
0.0
  0
SPLINE
  5
4A0
100
AcDbEntity
  8
KONSTRUKTIONSELEMENTE
100
AcDbSpline
 62
7
  6
CONTINUOUS
 70
0
 71
3
 72
10
 73
6
 74
0
 42
0.0000001
 43
0.0000001
 44
0.0000000001
 40
0.0
 40
0.0
 40
0.0
 40
0.0
 40
0.2210513433
 40
0.4578290806
 40
1.0
 40
1.0
 40
1.0
 40
1.0
 10
95.1097393404
 20
25.2916384241
 30
0.0
 10
95.123199506
 20
25.3149489553
 30
0.0
 10
95.1411134996
 20
25.369598285
 30
0.0
 10
95.1332971854
 20
25.493228546
 30
0.0
 10
95.0818808317
 20
25.5798887316
 30
0.0
 10
95.0379179963
 20
25.6291430279
 30
0.0
  0
SPLINE
  5
4A1
100
AcDbEntity
  8
BEZUGSACHSEN
100
AcDbSpline
 62
7
  6
CONTINUOUS
 70
0
 71
3
 72
11
 73
7
 74
0
 42
0.0000001
 43
0.0000001
 44
0.0000000001
 40
0.0
 40
0.0
 40
0.0
 40
0.0
 40
0.2211778223
 40
0.4572018266
 40
0.7166414314
 40
1.0
 40
1.0
 40
1.0
 40
1.0
 10
85.1034922678
 20
70.3507767867
 30
0.0
 10
85.2826106851
 20
70.6610189859
 30
0.0
 10
85.7871291556
 20
71.2323043474
 30
0.0
 10
86.8367562624
 20
71.7754712368
 30
0.0
 10
88.0941434159
 20
71.997763755
 30
0.0
 10
88.9798254644
 20
71.9319163124
 30
0.0
 10
89.4316075228
 20
71.8511219941
 30
0.0
  0
SPLINE
  5
4A2
100
AcDbEntity
  8
BEZUGSACHSEN
100
AcDbSpline
 62
7
  6
CONTINUOUS
 70
0
 71
3
 72
11
 73
7
 74
0
 42
0.0000001
 43
0.0000001
 44
0.0000000001
 40
0.0
 40
0.0
 40
0.0
 40
0.0
 40
0.2833585686
 40
0.5427981734
 40
0.7788221777
 40
1.0
 40
1.0
 40
1.0
 40
1.0
 10
93.765051146
 20
69.3492071517
 30
0.0
 10
94.0609121074
 20
68.9983495714
 30
0.0
 10
94.5607786896
 20
68.2642501389
 30
0.0
 10
94.9969612986
 20
67.0641746624
 30
0.0
 10
95.0513785273
 20
65.8835874788
 30
0.0
 10
94.8088901267
 20
65.1610189859
 30
0.0
 10
94.6297717095
 20
64.8507767867
 30
0.0
  0
SPLINE
  5
4A3
100
AcDbEntity
  8
KONSTRUKTIONSELEMENTE
100
AcDbSpline
 62
7
  6
CONTINUOUS
 70
0
 71
3
 72
9
 73
5
 74
0
 42
0.0000001
 43
0.0000001
 44
0.0000000001
 40
0.0
 40
0.0
 40
0.0
 40
0.0
 40
0.5108269807
 40
1.0
 40
1.0
 40
1.0
 40
1.0
 10
123.1882962079
 20
37.5703825603
 30
0.0
 10
123.3811008954
 20
37.666918493
 30
0.0
 10
123.7369101187
 20
37.9053155893
 30
0.0
 10
124.0072590629
 20
38.2393374403
 30
0.0
 10
124.1105031248
 20
38.4181540436
 30
0.0
  0
SPLINE
  5
4A4
100
AcDbEntity
  8
KONSTRUKTIONSELEMENTE
100
AcDbSpline
 62
7
  6
CONTINUOUS
 70
0
 71
3
 72
9
 73
5
 74
0
 42
0.0000001
 43
0.0000001
 44
0.0000000001
 40
0.0
 40
0.0
 40
0.0
 40
0.0
 40
0.5322168521
 40
1.0
 40
1.0
 40
1.0
 40
1.0
 10
121.904469716
 20
37.3396308632
 30
0.0
 10
121.9723913454
 20
37.2635340414
 30
0.0
 10
122.1419122957
 20
37.156150444
 30
0.0
 10
122.3530627027
 20
37.1521870982
 30
0.0
 10
122.4332272319
 20
37.1923249065
 30
0.0
  0
SPLINE
  5
4A5
100
AcDbEntity
  8
KONSTRUKTIONSELEMENTE
100
AcDbSpline
 62
7
  6
CONTINUOUS
 70
0
 71
3
 72
9
 73
5
 74
0
 42
0.0000001
 43
0.0000001
 44
0.0000000001
 40
0.0
 40
0.0
 40
0.0
 40
0.0
 40
0.2605100871
 40
1.0
 40
1.0
 40
1.0
 40
1.0
 10
93.6033208763
 20
22.7573963075
 30
0.0
 10
93.6131227905
 20
22.7623040561
 30
0.0
 10
93.6495153555
 20
22.7834602735
 30
0.0
 10
93.6799658288
 20
22.8152017111
 30
0.0
 10
93.6955257781
 20
22.8421486813
 30
0.0
  0
SPLINE
  5
4A6
100
AcDbEntity
  8
KONSTRUKTIONSELEMENTE
100
AcDbSpline
 62
7
  6
CONTINUOUS
 70
0
 71
3
 72
11
 73
7
 74
0
 42
0.0000001
 43
0.0000001
 44
0.0000000001
 40
0.0
 40
0.0
 40
0.0
 40
0.0
 40
0.2729767978
 40
0.5353848362
 40
0.7789285996
 40
1.0
 40
1.0
 40
1.0
 40
1.0
 10
89.33594298
 20
22.9998582777
 30
0.0
 10
89.6607039879
 20
22.8123574224
 30
0.0
 10
90.3359836531
 20
22.5065628333
 30
0.0
 10
91.3883057838
 20
22.2717064344
 30
0.0
 10
92.3966277945
 20
22.2814123642
 30
0.0
 10
93.0204670494
 20
22.4655655512
 30
0.0
 10
93.2920263338
 20
22.6015333491
 30
0.0
  0
SPLINE
  5
4A7
100
AcDbEntity
  8
KONSTRUKTIONSELEMENTE
100
AcDbSpline
 62
7
  6
CONTINUOUS
 70
0
 71
3
 72
13
 73
9
 74
0
 42
0.0000001
 43
0.0000001
 44
0.0000000001
 40
0.0
 40
0.0
 40
0.0
 40
0.0
 40
0.2870489256
 40
0.5535682914
 40
0.6755020148
 40
0.789331082
 40
0.8965440086
 40
1.0
 40
1.0
 40
1.0
 40
1.0
 10
76.3448092679
 20
30.5002928234
 30
0.0
 10
75.9878218466
 20
30.7063996072
 30
0.0
 10
75.2421992413
 20
31.0129453662
 30
0.0
 10
74.2579949574
 20
31.1106691865
 30
0.0
 10
73.5440600265
 20
30.9804166289
 30
0.0
 10
73.084939254
 20
30.7904710454
 30
0.0
 10
72.7058152122
 20
30.5111402129
 30
0.0
 10
72.5164405659
 20
30.2693637215
 30
0.0
 10
72.4421571259
 20
30.1407010292
 30
0.0
  0
SPLINE
  5
4A8
100
AcDbEntity
  8
KONSTRUKTIONSELEMENTE
100
AcDbSpline
 62
7
  6
CONTINUOUS
 70
0
 71
3
 72
11
 73
7
 74
0
 42
0.0000001
 43
0.0000001
 44
0.0000000001
 40
0.0
 40
0.0
 40
0.0
 40
0.0
 40
0.220058334
 40
0.4557781708
 40
0.71578719
 40
1.0
 40
1.0
 40
1.0
 40
1.0
 10
125.5247166872
 20
40.8676437864
 30
0.0
 10
125.6592971039
 20
41.1007343152
 30
0.0
 10
125.8384080788
 20
41.6469157872
 30
0.0
 10
125.7817024542
 20
42.5372803828
 30
0.0
 10
125.4309236525
 20
43.4372995313
 30
0.0
 10
125.0378238513
 20
43.9831023263
 30
0.0
 10
124.806345346
 20
44.2424420791
 30
0.0
  0
SPLINE
  5
4A9
100
AcDbEntity
  8
KONSTRUKTIONSELEMENTE
100
AcDbSpline
 62
7
  6
CONTINUOUS
 70
0
 71
3
 72
11
 73
7
 74
0
 42
0.0000001
 43
0.0000001
 44
0.0000000001
 40
0.0
 40
0.0
 40
0.0
 40
0.0
 40
0.2879904701
 40
0.5553442566
 40
0.7905170666
 40
1.0
 40
1.0
 40
1.0
 40
1.0
 10
68.4045052441
 20
22.3472828266
 30
0.0
 10
68.5383850879
 20
22.2699872627
 30
0.0
 10
68.8183859578
 20
22.1549999883
 30
0.0
 10
69.2473355159
 20
22.1124031206
 30
0.0
 10
69.6277721183
 20
22.2121030909
 30
0.0
 10
69.8117753624
 20
22.3847461714
 30
0.0
 10
69.8679997973
 20
22.4821297494
 30
0.0
  0
SPLINE
  5
4AA
100
AcDbEntity
  8
KONSTRUKTIONSELEMENTE
100
AcDbSpline
 62
7
  6
CONTINUOUS
 70
0
 71
3
 72
11
 73
7
 74
0
 42
0.0000001
 43
0.0000001
 44
0.0000000001
 40
0.0
 40
0.0
 40
0.0
 40
0.0
 40
0.2820767698
 40
0.5407553301
 40
0.7772666753
 40
1.0
 40
1.0
 40
1.0
 40
1.0
 10
76.3417710295
 20
30.4817146678
 30
0.0
 10
76.0920988997
 20
30.5163867723
 30
0.0
 10
75.6044753098
 20
30.5346262655
 30
0.0
 10
74.9167505238
 20
30.3902138076
 30
0.0
 10
74.3446871181
 20
30.0764686469
 30
0.0
 10
74.0687380749
 20
29.7580218755
 30
0.0
 10
73.9692191282
 20
29.5856500035
 30
0.0
  0
SPLINE
  5
4AB
100
AcDbEntity
  8
KONSTRUKTIONSELEMENTE
100
AcDbSpline
 62
7
  6
CONTINUOUS
 70
0
 71
3
 72
11
 73
7
 74
0
 42
0.0000001
 43
0.0000001
 44
0.0000000001
 40
0.0
 40
0.0
 40
0.0
 40
0.0
 40
0.2820767698
 40
0.5407553301
 40
0.7772666753
 40
1.0
 40
1.0
 40
1.0
 40
1.0
 10
64.4830117086
 20
37.328372554
 30
0.0
 10
64.6378746968
 20
37.1294861992
 30
0.0
 10
64.8974823563
 20
36.7163115294
 30
0.0
 10
65.116279892
 20
36.048518165
 30
0.0
 10
65.1306003154
 20
35.3962241427
 30
0.0
 10
64.9927918432
 20
34.9980218755
 30
0.0
 10
64.8932728965
 20
34.8256500035
 30
0.0
  0
SPLINE
  5
4AC
100
AcDbEntity
  8
KONSTRUKTIONSELEMENTE
100
AcDbSpline
 62
7
  6
CONTINUOUS
 70
0
 71
3
 72
9
 73
5
 74
0
 42
0.0000001
 43
0.0000001
 44
0.0000000001
 40
0.0
 40
0.0
 40
0.0
 40
0.0
 40
0.5107012964
 40
1.0
 40
1.0
 40
1.0
 40
1.0
 10
57.228190534
 20
70.5793629925
 30
0.0
 10
57.2243495534
 20
70.64395314
 30
0.0
 10
57.2329507417
 20
70.7722184224
 30
0.0
 10
57.2792088332
 20
70.8926225961
 30
0.0
 10
57.3102199146
 20
70.9463012386
 30
0.0
  0
SPLINE
  5
4AD
100
AcDbEntity
  8
KONSTRUKTIONSELEMENTE
100
AcDbSpline
 62
7
  6
CONTINUOUS
 70
0
 71
3
 72
11
 73
7
 74
0
 42
0.0000001
 43
0.0000001
 44
0.0000000001
 40
0.0
 40
0.0
 40
0.0
 40
0.0
 40
0.2210800583
 40
0.4646152767
 40
0.7270135498
 40
1.0
 40
1.0
 40
1.0
 40
1.0
 10
58.738979926
 20
42.550743994
 30
0.0
 10
58.7570087031
 20
42.2475710509
 30
0.0
 10
58.9094549832
 20
41.615235009
 30
0.0
 10
59.4052019242
 20
40.7371619139
 30
0.0
 10
60.1347464203
 20
39.9432619059
 30
0.0
 10
60.7372086911
 20
39.5113452178
 30
0.0
 10
61.06198111
 20
39.3238377744
 30
0.0
  0
SPLINE
  5
4AE
100
AcDbEntity
  8
KONSTRUKTIONSELEMENTE
100
AcDbSpline
 62
7
  6
CONTINUOUS
 70
0
 71
3
 72
13
 73
9
 74
0
 42
0.0000001
 43
0.0000001
 44
0.0000000001
 40
0.0
 40
0.0
 40
0.0
 40
0.0
 40
0.2198121251
 40
0.3415455497
 40
0.4695397045
 40
0.6018885822
 40
0.736224413
 40
1.0
 40
1.0
 40
1.0
 40
1.0
 10
113.0582768494
 20
42.7996309697
 30
0.0
 10
113.4404220731
 20
42.9909683591
 30
0.0
 10
114.1127370955
 20
43.1393209776
 30
0.0
 10
115.0260953705
 20
43.1010710196
 30
0.0
 10
115.7576010529
 20
42.9532702404
 30
0.0
 10
116.481931942
 20
42.6919075613
 30
0.0
 10
117.3959829024
 20
42.2099927622
 30
0.0
 10
118.0043500575
 20
41.7091772581
 30
0.0
 10
118.345852008
 20
41.326571403
 30
0.0
  0
SPLINE
  5
4AF
100
AcDbEntity
  8
KONSTRUKTIONSELEMENTE
100
AcDbSpline
 62
7
  6
CONTINUOUS
 70
0
 71
3
 72
10
 73
6
 74
0
 42
0.0000001
 43
0.0000001
 44
0.0000000001
 40
0.0
 40
0.0
 40
0.0
 40
0.0
 40
0.2210513433
 40
0.4578290806
 40
1.0
 40
1.0
 40
1.0
 40
1.0
 10
93.6955257781
 20
22.8421486813
 30
0.0
 10
93.7089859437
 20
22.8654592125
 30
0.0
 10
93.7268999372
 20
22.9201085423
 30
0.0
 10
93.719083623
 20
23.0437388032
 30
0.0
 10
93.6676672694
 20
23.1303989888
 30
0.0
 10
93.6237044339
 20
23.1796532851
 30
0.0
  0
SPLINE
  5
4B0
100
AcDbEntity
  8
BEZUGSACHSEN
100
AcDbSpline
 62
7
  6
CONTINUOUS
 70
0
 71
3
 72
9
 73
5
 74
0
 42
0.0000001
 43
0.0000001
 44
0.0000000001
 40
0.0
 40
0.0
 40
0.0
 40
0.0
 40
0.2459387646
 40
1.0
 40
1.0
 40
1.0
 40
1.0
 10
98.7281331139
 20
69.4255625912
 30
0.0
 10
98.4899517052
 20
69.6924120232
 30
0.0
 10
97.4919264891
 20
70.7507888535
 30
0.0
 10
96.3818907415
 20
71.7026342675
 30
0.0
 10
95.4990264723
 20
72.3532219019
 30
0.0
  0
SPLINE
  5
4B1
100
AcDbEntity
  8
BEZUGSACHSEN
100
AcDbSpline
 62
7
  6
CONTINUOUS
 70
0
 71
3
 72
9
 73
5
 74
0
 42
0.0000001
 43
0.0000001
 44
0.0000000001
 40
0.0
 40
0.0
 40
0.0
 40
0.0
 40
0.2536983179
 40
1.0
 40
1.0
 40
1.0
 40
1.0
 10
91.1661729467
 20
74.8547960513
 30
0.0
 10
90.8281023274
 20
75.0025888671
 30
0.0
 10
89.4813343304
 20
75.5518708993
 30
0.0
 10
88.0788221167
 20
75.9664062194
 30
0.0
 10
87.0161922892
 20
76.1874547791
 30
0.0
  0
SPLINE
  5
4B2
100
AcDbEntity
  8
BEZUGSACHSEN
100
AcDbSpline
 62
7
  6
CONTINUOUS
 70
0
 71
3
 72
19
 73
15
 74
0
 42
0.0000001
 43
0.0000001
 44
0.0000000001
 40
0.0
 40
0.0
 40
0.0
 40
0.0
 40
0.0517279957
 40
0.105334459
 40
0.1622489926
 40
0.2232158543
 40
0.3564755372
 40
0.5
 40
0.6435244628
 40
0.7767841457
 40
0.8377510074
 40
0.894665541
 40
0.9482720043
 40
1.0
 40
1.0
 40
1.0
 40
1.0
 10
94.6297717095
 20
64.8507767867
 30
0.0
 10
94.5020970469
 20
64.6296377844
 30
0.0
 10
94.1766084357
 20
64.2140849813
 30
0.0
 10
93.5249934281
 20
63.73398255
 30
0.0
 10
92.7358617968
 20
63.4075238571
 30
0.0
 10
91.5088869306
 20
63.1835940791
 30
0.0
 10
89.8164069347
 20
63.3520643184
 30
0.0
 10
87.8742574635
 20
64.1498828814
 30
0.0
 10
86.2122515848
 20
65.4329243799
 30
0.0
 10
85.2201120797
 20
66.8144199321
 30
0.0
 10
84.8005535231
 20
67.988976225
 30
0.0
 10
84.6887092287
 20
68.8356136111
 30
0.0
 10
84.7786826268
 20
69.6399799769
 30
0.0
 10
84.9758176053
 20
70.1296377844
 30
0.0
 10
85.1034922678
 20
70.3507767867
 30
0.0
  0
SPLINE
  5
4B3
100
AcDbEntity
  8
KONSTRUKTIONSELEMENTE
100
AcDbSpline
 62
7
  6
CONTINUOUS
 70
0
 71
3
 72
9
 73
5
 74
0
 42
0.0000001
 43
0.0000001
 44
0.0000000001
 40
0.0
 40
0.0
 40
0.0
 40
0.0
 40
0.5328609796
 40
1.0
 40
1.0
 40
1.0
 40
1.0
 10
62.1047976881
 20
69.2621987575
 30
0.0
 10
62.2436171661
 20
69.2333214901
 30
0.0
 10
62.5141247473
 20
69.2149711564
 30
0.0
 10
62.7769978889
 20
69.2993873471
 30
0.0
 10
62.8815254689
 20
69.3666570508
 30
0.0
  0
SPLINE
  5
4B4
100
AcDbEntity
  8
KONSTRUKTIONSELEMENTE
100
AcDbSpline
 62
7
  6
CONTINUOUS
 70
0
 71
3
 72
8
 73
4
 74
0
 42
0.0000001
 43
0.0000001
 44
0.0000000001
 40
0.0
 40
0.0
 40
0.0
 40
0.0
 40
1.0
 40
1.0
 40
1.0
 40
1.0
 10
62.8815254689
 20
69.3666570508
 30
0.0
 10
62.9201592817
 20
69.3915202031
 30
0.0
 10
62.9565909284
 20
69.4203102497
 30
0.0
 10
62.9892972292
 20
69.4525754898
 30
0.0
  0
SPLINE
  5
4B5
100
AcDbEntity
  8
KONSTRUKTIONSELEMENTE
100
AcDbSpline
 62
7
  6
CONTINUOUS
 70
0
 71
3
 72
11
 73
7
 74
0
 42
0.0000001
 43
0.0000001
 44
0.0000000001
 40
0.0
 40
0.0
 40
0.0
 40
0.0
 40
0.2816064552
 40
0.5417085427
 40
0.7793419382
 40
1.0
 40
1.0
 40
1.0
 40
1.0
 10
62.0318857525
 20
70.4882900182
 30
0.0
 10
62.1253776205
 20
70.4688418131
 30
0.0
 10
62.309561383
 20
70.4486593478
 30
0.0
 10
62.5746186532
 20
70.4801428055
 30
0.0
 10
62.8032371685
 20
70.5738924288
 30
0.0
 10
62.9229396467
 20
70.6788138762
 30
0.0
 10
62.9690674684
 20
70.7377298035
 30
0.0
  0
SPLINE
  5
4B6
100
AcDbEntity
  8
KONSTRUKTIONSELEMENTE
100
AcDbSpline
 62
7
  6
CONTINUOUS
 70
0
 71
3
 72
11
 73
7
 74
0
 42
0.0000001
 43
0.0000001
 44
0.0000000001
 40
0.0
 40
0.0
 40
0.0
 40
0.0
 40
0.2200436456
 40
0.4557793627
 40
0.7157728079
 40
1.0
 40
1.0
 40
1.0
 40
1.0
 10
57.3102199146
 20
70.9463012386
 30
0.0
 10
57.3506017891
 20
71.0162002587
 30
0.0
 10
57.4656647361
 20
71.144591833
 30
0.0
 10
57.7054541187
 20
71.2633532934
 30
0.0
 10
57.9918550353
 20
71.307208364
 30
0.0
 10
58.1925847168
 20
71.286942514
 30
0.0
 10
58.2946710062
 20
71.265706495
 30
0.0
  0
SPLINE
  5
4B7
100
AcDbEntity
  8
KONSTRUKTIONSELEMENTE
100
AcDbSpline
 62
7
  6
CONTINUOUS
 70
0
 71
3
 72
11
 73
7
 74
0
 42
0.0000001
 43
0.0000001
 44
0.0000000001
 40
0.0
 40
0.0
 40
0.0
 40
0.0
 40
0.220058334
 40
0.4557781708
 40
0.71578719
 40
1.0
 40
1.0
 40
1.0
 40
1.0
 10
124.1105031248
 20
38.4181540436
 30
0.0
 10
124.2450835416
 20
38.6512445724
 30
0.0
 10
124.4241945164
 20
39.1974260445
 30
0.0
 10
124.3674888919
 20
40.08779064
 30
0.0
 10
124.0167100901
 20
40.9878097886
 30
0.0
 10
123.6236102889
 20
41.5336125835
 30
0.0
 10
123.3921317836
 20
41.7929523363
 30
0.0
  0
SPLINE
  5
4B8
100
AcDbEntity
  8
KONSTRUKTIONSELEMENTE
100
AcDbSpline
 62
7
  6
CONTINUOUS
 70
0
 71
3
 72
11
 73
7
 74
0
 42
0.0000001
 43
0.0000001
 44
0.0000000001
 40
0.0
 40
0.0
 40
0.0
 40
0.0
 40
0.2842271921
 40
0.5442206373
 40
0.7799563544
 40
1.0
 40
1.0
 40
1.0
 40
1.0
 10
61.9633763319
 20
69.0172497832
 30
0.0
 10
62.0654626212
 20
68.9960137642
 30
0.0
 10
62.2661923028
 20
68.9757479142
 30
0.0
 10
62.5525932194
 20
69.0196029848
 30
0.0
 10
62.792382602
 20
69.1383644453
 30
0.0
 10
62.907445549
 20
69.2667560195
 30
0.0
 10
62.9478274234
 20
69.3366550396
 30
0.0
  0
SPLINE
  5
4B9
100
AcDbEntity
  8
KONSTRUKTIONSELEMENTE
100
AcDbSpline
 62
7
  6
CONTINUOUS
 70
0
 71
3
 72
11
 73
7
 74
0
 42
0.0000001
 43
0.0000001
 44
0.0000000001
 40
0.0
 40
0.0
 40
0.0
 40
0.0
 40
0.2842240174
 40
0.5442187073
 40
0.779940343
 40
1.0
 40
1.0
 40
1.0
 40
1.0
 10
60.0966873666
 20
81.7872578665
 30
0.0
 10
59.7563365279
 20
81.8580577449
 30
0.0
 10
59.0871024046
 20
81.9255864093
 30
0.0
 10
58.1322716318
 20
81.779349154
 30
0.0
 10
57.3328382209
 20
81.3832683552
 30
0.0
 10
56.9494205743
 20
80.9550307943
 30
0.0
 10
56.8148285658
 20
80.7219420296
 30
0.0
  0
SPLINE
  5
4BA
100
AcDbEntity
  8
KONSTRUKTIONSELEMENTE
100
AcDbSpline
 62
7
  6
CONTINUOUS
 70
0
 71
3
 72
11
 73
7
 74
0
 42
0.0000001
 43
0.0000001
 44
0.0000000001
 40
0.0
 40
0.0
 40
0.0
 40
0.0
 40
0.2842240174
 40
0.5442187073
 40
0.779940343
 40
1.0
 40
1.0
 40
1.0
 40
1.0
 10
90.0650867259
 20
27.1665938249
 30
0.0
 10
89.8335968132
 20
27.4259463582
 30
0.0
 10
89.4404982128
 20
27.9717557779
 30
0.0
 10
89.0897280045
 20
28.8717821111
 30
0.0
 10
89.0330273327
 20
29.762152153
 30
0.0
 10
89.212183116
 20
30.3083203556
 30
0.0
 10
89.3467479033
 20
30.5414248364
 30
0.0
  0
LINE
  5
4BB
100
AcDbEntity
  8
0
100
AcDbLine
 62
7
  6
CONTINUOUS
 10
317.8177247599
 20
95.308981664
 11
314.9154506173
 21
99.6963000031
  0
LINE
  5
4BC
100
AcDbEntity
  8
0
100
AcDbLine
 62
7
  6
CONTINUOUS
 10
334.3580205893
 20
110.9214730102
 11
336.7064126542
 21
106.2143707044
  0
SPLINE
  5
4BD
100
AcDbEntity
  8
0
100
AcDbSpline
 62
7
  6
CONTINUOUS
 70
0
 71
3
 72
10
 73
6
 74
0
 42
0.0000001
 43
0.0000001
 44
0.0000000001
 40
0.0
 40
0.0
 40
0.0
 40
0.0
 40
0.5169001708
 40
0.7640398444
 40
1.0
 40
1.0
 40
1.0
 40
1.0
 10
312.4519639533
 20
102.4493828128
 30
0.0
 10
312.4957834314
 20
102.1684762257
 30
0.0
 10
312.6418718652
 20
101.7561301339
 30
0.0
 10
312.997530286
 20
101.330977324
 30
0.0
 10
313.2136859092
 20
101.1714608055
 30
0.0
 10
313.3262306513
 20
101.1068305845
 30
0.0
  0
SPLINE
  5
4BE
100
AcDbEntity
  8
0
100
AcDbSpline
 62
7
  6
CONTINUOUS
 70
0
 71
3
 72
10
 73
6
 74
0
 42
0.0000001
 43
0.0000001
 44
0.0000000001
 40
0.0
 40
0.0
 40
0.0
 40
0.0
 40
0.2359601556
 40
0.4830998292
 40
1.0
 40
1.0
 40
1.0
 40
1.0
 10
333.9310752561
 20
113.0030431637
 30
0.0
 10
333.9313762139
 20
113.1328248799
 30
0.0
 10
333.9013086682
 20
113.3997794
 30
0.0
 10
333.7109447447
 20
113.9203650324
 30
0.0
 10
333.4268867709
 20
114.2530543732
 30
0.0
 10
333.2055242695
 20
114.431456448
 30
0.0
  0
SPLINE
  5
4BF
100
AcDbEntity
  8
0
100
AcDbSpline
 62
7
  6
CONTINUOUS
 70
0
 71
3
 72
11
 73
7
 74
0
 42
0.0000001
 43
0.0000001
 44
0.0000000001
 40
0.0
 40
0.0
 40
0.0
 40
0.0
 40
0.2449450505
 40
0.4925219357
 40
0.7442781348
 40
1.0
 40
1.0
 40
1.0
 40
1.0
 10
309.2043455376
 20
110.7697814023
 30
0.0
 10
309.1421796275
 20
110.6338908974
 30
0.0
 10
309.0343037266
 20
110.3521679428
 30
0.0
 10
308.9455243557
 20
109.9039012251
 30
0.0
 10
308.9624857082
 20
109.4382217687
 30
0.0
 10
309.0703835672
 20
109.1405321093
 30
0.0
 10
309.1483884214
 20
109.0054237387
 30
0.0
  0
SPLINE
  5
4C0
100
AcDbEntity
  8
0
100
AcDbSpline
 62
7
  6
CONTINUOUS
 70
0
 71
3
 72
11
 73
7
 74
0
 42
0.0000001
 43
0.0000001
 44
0.0000000001
 40
0.0
 40
0.0
 40
0.0
 40
0.0
 40
0.2557279993
 40
0.5074851301
 40
0.7550583766
 40
1.0
 40
1.0
 40
1.0
 40
1.0
 10
329.1796140454
 20
120.5704572449
 30
0.0
 10
329.1016073252
 20
120.7055688475
 30
0.0
 10
328.8977455142
 20
120.9478588557
 30
0.0
 10
328.5029321517
 20
121.195385327
 30
0.0
 10
328.0703352996
 20
121.3426305149
 30
0.0
 10
327.7724224223
 20
121.3900679958
 30
0.0
 10
327.6236569292
 20
121.4041757926
 30
0.0
  0
SPLINE
  5
4C1
100
AcDbEntity
  8
0
100
AcDbSpline
 62
7
  6
CONTINUOUS
 70
0
 71
3
 72
9
 73
5
 74
0
 42
0.0000001
 43
0.0000001
 44
0.0000000001
 40
0.0
 40
0.0
 40
0.0
 40
0.0
 40
0.494688926
 40
1.0
 40
1.0
 40
1.0
 40
1.0
 10
334.3580205893
 20
110.9214730102
 30
0.0
 10
334.2000727528
 20
111.2369609153
 30
0.0
 10
333.9801703518
 20
111.9268697934
 30
0.0
 10
333.930239523
 20
112.6426508755
 30
0.0
 10
333.9310752561
 20
113.0030431637
 30
0.0
  0
SPLINE
  5
4C2
100
AcDbEntity
  8
0
100
AcDbSpline
 62
7
  6
CONTINUOUS
 70
0
 71
3
 72
9
 73
5
 74
0
 42
0.0000001
 43
0.0000001
 44
0.0000000001
 40
0.0
 40
0.0
 40
0.0
 40
0.0
 40
0.505311074
 40
1.0
 40
1.0
 40
1.0
 40
1.0
 10
313.3262306513
 20
101.1068305845
 30
0.0
 10
313.6387573947
 20
100.9273582064
 30
0.0
 10
314.2336765809
 20
100.5262262993
 30
0.0
 10
314.7212039952
 20
99.9908307946
 30
0.0
 10
314.9154506173
 20
99.6963000031
 30
0.0
  0
SPLINE
  5
4C3
100
AcDbEntity
  8
0
100
AcDbSpline
 62
7
  6
CONTINUOUS
 70
0
 71
3
 72
9
 73
5
 74
0
 42
0.0000001
 43
0.0000001
 44
0.0000000001
 40
0.0
 40
0.0
 40
0.0
 40
0.0
 40
0.5001151744
 40
1.0
 40
1.0
 40
1.0
 40
1.0
 10
333.2055242695
 20
114.431456448
 30
0.0
 10
332.9271369173
 20
114.6558164044
 30
0.0
 10
332.4010310529
 20
115.1451044183
 30
0.0
 10
331.9758793539
 20
115.7271836591
 30
0.0
 10
331.7971902567
 20
116.0366822541
 30
0.0
  0
SPLINE
  5
4C4
100
AcDbEntity
  8
0
100
AcDbSpline
 62
7
  6
CONTINUOUS
 70
0
 71
3
 72
9
 73
5
 74
0
 42
0.0000001
 43
0.0000001
 44
0.0000000001
 40
0.0
 40
0.0
 40
0.0
 40
0.0
 40
0.4998848256
 40
1.0
 40
1.0
 40
1.0
 40
1.0
 10
311.7659646327
 20
104.4716487479
 30
0.0
 10
311.9446537299
 20
104.1621501529
 30
0.0
 10
312.2361732899
 20
103.5029183607
 30
0.0
 10
312.3968562075
 20
102.80265331
 30
0.0
 10
312.4519639533
 20
102.4493828128
 30
0.0
  0
SPLINE
  5
4C5
100
AcDbEntity
  8
KONSTRUKTIONSELEMENTE
100
AcDbSpline
 62
7
  6
CONTINUOUS
 70
0
 71
3
 72
9
 73
5
 74
0
 42
0.0000001
 43
0.0000001
 44
0.0000000001
 40
0.0
 40
0.0
 40
0.0
 40
0.0
 40
0.5001151744
 40
1.0
 40
1.0
 40
1.0
 40
1.0
 10
103.06863062
 20
114.431456448
 30
0.0
 10
103.3470179721
 20
114.6558164044
 30
0.0
 10
103.8731238365
 20
115.1451044183
 30
0.0
 10
104.2982755355
 20
115.7271836591
 30
0.0
 10
104.4769646327
 20
116.0366822541
 30
0.0
  0
SPLINE
  5
4C6
100
AcDbEntity
  8
KONSTRUKTIONSELEMENTE
100
AcDbSpline
 62
7
  6
CONTINUOUS
 70
0
 71
3
 72
9
 73
5
 74
0
 42
0.0000001
 43
0.0000001
 44
0.0000000001
 40
0.0
 40
0.0
 40
0.0
 40
0.0
 40
0.4998848256
 40
1.0
 40
1.0
 40
1.0
 40
1.0
 10
124.5081902567
 20
104.4716487479
 30
0.0
 10
124.3295011596
 20
104.1621501529
 30
0.0
 10
124.0379815996
 20
103.5029183607
 30
0.0
 10
123.877298682
 20
102.80265331
 30
0.0
 10
123.8221909361
 20
102.4493828128
 30
0.0
  0
SPLINE
  5
4C7
100
AcDbEntity
  8
KONSTRUKTIONSELEMENTE
100
AcDbSpline
 62
7
  6
CONTINUOUS
 70
0
 71
3
 72
9
 73
5
 74
0
 42
0.0000001
 43
0.0000001
 44
0.0000000001
 40
0.0
 40
0.0
 40
0.0
 40
0.0
 40
0.494688926
 40
1.0
 40
1.0
 40
1.0
 40
1.0
 10
101.9161343001
 20
110.9214730102
 30
0.0
 10
102.0740821366
 20
111.2369609153
 30
0.0
 10
102.2939845376
 20
111.9268697934
 30
0.0
 10
102.3439153664
 20
112.6426508755
 30
0.0
 10
102.3430796333
 20
113.0030431637
 30
0.0
  0
SPLINE
  5
4C8
100
AcDbEntity
  8
KONSTRUKTIONSELEMENTE
100
AcDbSpline
 62
7
  6
CONTINUOUS
 70
0
 71
3
 72
11
 73
7
 74
0
 42
0.0000001
 43
0.0000001
 44
0.0000000001
 40
0.0
 40
0.0
 40
0.0
 40
0.0
 40
0.2557279993
 40
0.5074851301
 40
0.7550583766
 40
1.0
 40
1.0
 40
1.0
 40
1.0
 10
107.0945408441
 20
120.5704572449
 30
0.0
 10
107.1725475642
 20
120.7055688475
 30
0.0
 10
107.3764093752
 20
120.9478588557
 30
0.0
 10
107.7712227377
 20
121.195385327
 30
0.0
 10
108.2038195899
 20
121.3426305149
 30
0.0
 10
108.5017324671
 20
121.3900679958
 30
0.0
 10
108.6504979603
 20
121.4041757926
 30
0.0
  0
SPLINE
  5
4C9
100
AcDbEntity
  8
KONSTRUKTIONSELEMENTE
100
AcDbSpline
 62
7
  6
CONTINUOUS
 70
0
 71
3
 72
11
 73
7
 74
0
 42
0.0000001
 43
0.0000001
 44
0.0000000001
 40
0.0
 40
0.0
 40
0.0
 40
0.0
 40
0.2449450505
 40
0.4925219357
 40
0.7442781348
 40
1.0
 40
1.0
 40
1.0
 40
1.0
 10
127.0698093519
 20
110.7697814023
 30
0.0
 10
127.1319752619
 20
110.6338908974
 30
0.0
 10
127.2398511629
 20
110.3521679428
 30
0.0
 10
127.3286305338
 20
109.9039012251
 30
0.0
 10
127.3116691812
 20
109.4382217687
 30
0.0
 10
127.2037713223
 20
109.1405321093
 30
0.0
 10
127.1257664681
 20
109.0054237387
 30
0.0
  0
LINE
  5
4CA
100
AcDbEntity
  8
0
100
AcDbLine
 62
7
  6
CONTINUOUS
 10
121.3587042721
 20
99.6963000031
 11
118.4564301295
 21
95.308981664
  0
LINE
  5
4CB
100
AcDbEntity
  8
0
100
AcDbLine
 62
7
  6
CONTINUOUS
 10
99.5677422353
 20
106.2143707044
 11
101.9161343001
 21
110.9214730102
  0
SPLINE
  5
4CC
100
AcDbEntity
  8
KONSTRUKTIONSELEMENTE
100
AcDbSpline
 62
7
  6
CONTINUOUS
 70
0
 71
3
 72
10
 73
6
 74
0
 42
0.0000001
 43
0.0000001
 44
0.0000000001
 40
0.0
 40
0.0
 40
0.0
 40
0.0
 40
0.2359601556
 40
0.4830998292
 40
1.0
 40
1.0
 40
1.0
 40
1.0
 10
102.3430796333
 20
113.0030431637
 30
0.0
 10
102.3427786755
 20
113.1328248799
 30
0.0
 10
102.3728462213
 20
113.3997794
 30
0.0
 10
102.5632101448
 20
113.9203650324
 30
0.0
 10
102.8472681185
 20
114.2530543732
 30
0.0
 10
103.06863062
 20
114.431456448
 30
0.0
  0
SPLINE
  5
4CD
100
AcDbEntity
  8
KONSTRUKTIONSELEMENTE
100
AcDbSpline
 62
7
  6
CONTINUOUS
 70
0
 71
3
 72
10
 73
6
 74
0
 42
0.0000001
 43
0.0000001
 44
0.0000000001
 40
0.0
 40
0.0
 40
0.0
 40
0.0
 40
0.5169001708
 40
0.7640398444
 40
1.0
 40
1.0
 40
1.0
 40
1.0
 10
123.8221909361
 20
102.4493828128
 30
0.0
 10
123.7783714581
 20
102.1684762257
 30
0.0
 10
123.6322830242
 20
101.7561301339
 30
0.0
 10
123.2766246034
 20
101.330977324
 30
0.0
 10
123.0604689803
 20
101.1714608055
 30
0.0
 10
122.9479242382
 20
101.1068305845
 30
0.0
  0
SPLINE
  5
4CE
100
AcDbEntity
  8
KONSTRUKTIONSELEMENTE
100
AcDbSpline
 62
7
  6
CONTINUOUS
 70
0
 71
3
 72
9
 73
5
 74
0
 42
0.0000001
 43
0.0000001
 44
0.0000000001
 40
0.0
 40
0.0
 40
0.0
 40
0.0
 40
0.505311074
 40
1.0
 40
1.0
 40
1.0
 40
1.0
 10
122.9479242382
 20
101.1068305845
 30
0.0
 10
122.6353974947
 20
100.9273582064
 30
0.0
 10
122.0404783085
 20
100.5262262993
 30
0.0
 10
121.5529508943
 20
99.9908307946
 30
0.0
 10
121.3587042721
 20
99.6963000031
 30
0.0
  0
SPLINE
  5
4CF
100
AcDbEntity
  8
KONSTRUKTIONSELEMENTE
100
AcDbSpline
 62
7
  6
CONTINUOUS
 70
0
 71
3
 72
9
 73
5
 74
0
 42
0.0000001
 43
0.0000001
 44
0.0000000001
 40
0.0
 40
0.0
 40
0.0
 40
0.0
 40
0.272606519
 40
1.0
 40
1.0
 40
1.0
 40
1.0
 10
524.6971190873
 20
130.822377225
 30
0.0
 10
524.7019089197
 20
130.8441541135
 30
0.0
 10
524.7239755257
 20
130.9227905523
 30
0.0
 10
524.7698792836
 20
130.9961260015
 30
0.0
 10
524.8148965854
 20
131.0350261277
 30
0.0
  0
SPLINE
  5
4D0
100
AcDbEntity
  8
KONSTRUKTIONSELEMENTE
100
AcDbSpline
 62
7
  6
CONTINUOUS
 70
0
 71
3
 72
9
 73
5
 74
0
 42
0.0000001
 43
0.0000001
 44
0.0000000001
 40
0.0
 40
0.0
 40
0.0
 40
0.0
 40
0.546991612
 40
1.0
 40
1.0
 40
1.0
 40
1.0
 10
527.864276497
 20
127.307089267
 30
0.0
 10
527.864276497
 20
127.2355038285
 30
0.0
 10
527.8493712781
 20
127.1026151321
 30
0.0
 10
527.7765340846
 20
126.9859634392
 30
0.0
 10
527.7316758932
 20
126.9472008027
 30
0.0
  0
SPLINE
  5
4D1
100
AcDbEntity
  8
KONSTRUKTIONSELEMENTE
100
AcDbSpline
 62
7
  6
CONTINUOUS
 70
0
 71
3
 72
9
 73
5
 74
0
 42
0.0000001
 43
0.0000001
 44
0.0000000001
 40
0.0
 40
0.0
 40
0.0
 40
0.0
 40
0.4714729988
 40
1.0
 40
1.0
 40
1.0
 40
1.0
 10
528.0852292838
 20
127.2533870205
 30
0.0
 10
528.053858066
 20
127.2262786802
 30
0.0
 10
527.9746113055
 20
127.1826237114
 30
0.0
 10
527.8861476917
 20
127.1696760725
 30
0.0
 10
527.8396946782
 20
127.168143114
 30
0.0
  0
SPLINE
  5
4D2
100
AcDbEntity
  8
KONSTRUKTIONSELEMENTE
100
AcDbSpline
 62
7
  6
CONTINUOUS
 70
0
 71
3
 72
9
 73
5
 74
0
 42
0.0000001
 43
0.0000001
 44
0.0000000001
 40
0.0
 40
0.0
 40
0.0
 40
0.0
 40
0.4820003923
 40
1.0
 40
1.0
 40
1.0
 40
1.0
 10
536.5949088196
 20
128.0756499381
 30
0.0
 10
536.5947226533
 20
127.9195842093
 30
0.0
 10
536.5526354395
 20
127.5946185212
 30
0.0
 10
536.4298715295
 20
127.29088041
 30
0.0
 10
536.3493844609
 20
127.1437325829
 30
0.0
  0
SPLINE
  5
4D3
100
AcDbEntity
  8
KONSTRUKTIONSELEMENTE
100
AcDbSpline
 62
7
  6
CONTINUOUS
 70
0
 71
3
 72
9
 73
5
 74
0
 42
0.0000001
 43
0.0000001
 44
0.0000000001
 40
0.0
 40
0.0
 40
0.0
 40
0.0
 40
0.2343643836
 40
1.0
 40
1.0
 40
1.0
 40
1.0
 10
536.3173342397
 20
127.0871229507
 30
0.0
 10
536.2839263042
 20
127.0300617637
 30
0.0
 10
536.1307885037
 20
126.7928742256
 30
0.0
 10
535.936872143
 20
126.5826474673
 30
0.0
 10
535.7735838662
 20
126.4412356715
 30
0.0
  0
SPLINE
  5
4D4
100
AcDbEntity
  8
KONSTRUKTIONSELEMENTE
100
AcDbSpline
 62
7
  6
CONTINUOUS
 70
0
 71
3
 72
9
 73
5
 74
0
 42
0.0000001
 43
0.0000001
 44
0.0000000001
 40
0.0
 40
0.0
 40
0.0
 40
0.0
 40
0.4959270657
 40
1.0
 40
1.0
 40
1.0
 40
1.0
 10
527.6418558826
 20
133.483518682
 30
0.0
 10
528.2639763167
 20
134.0222907821
 30
0.0
 10
529.6952107779
 20
134.9168300727
 30
0.0
 10
531.3189290864
 20
135.36378644
 30
0.0
 10
532.1482212128
 20
135.4734078421
 30
0.0
  0
SPLINE
  5
4D5
100
AcDbEntity
  8
KONSTRUKTIONSELEMENTE
100
AcDbSpline
 62
7
  6
CONTINUOUS
 70
0
 71
3
 72
11
 73
7
 74
0
 42
0.0000001
 43
0.0000001
 44
0.0000000001
 40
0.0
 40
0.0
 40
0.0
 40
0.0
 40
0.2544415708
 40
0.5052707429
 40
0.7533584052
 40
1.0
 40
1.0
 40
1.0
 40
1.0
 10
538.1720219568
 20
134.1424285975
 30
0.0
 10
538.6864889384
 20
133.8065032901
 30
0.0
 10
539.6375633751
 20
133.0219838046
 30
0.0
 10
540.7386229787
 20
131.55163793
 30
0.0
 10
541.4349250632
 20
129.8707312316
 30
0.0
 10
541.5940709348
 20
128.6703296335
 30
0.0
 10
541.5943423223
 20
128.0747369014
 30
0.0
  0
SPLINE
  5
4D6
100
AcDbEntity
  8
KONSTRUKTIONSELEMENTE
100
AcDbSpline
 62
7
  6
CONTINUOUS
 70
0
 71
3
 72
11
 73
7
 74
0
 42
0.0000001
 43
0.0000001
 44
0.0000000001
 40
0.0
 40
0.0
 40
0.0
 40
0.0
 40
0.2474803687
 40
0.4959793074
 40
0.7466457809
 40
1.0
 40
1.0
 40
1.0
 40
1.0
 10
541.5943423223
 20
128.0747369014
 30
0.0
 10
541.5945738515
 20
127.5666179219
 30
0.0
 10
541.4794819805
 20
126.5446858656
 30
0.0
 10
540.9723273673
 20
125.0854019405
 30
0.0
 10
540.1576359165
 20
123.7592779592
 30
0.0
 10
539.4400706134
 20
123.0021280594
 30
0.0
 10
539.0468522198
 20
122.6615909414
 30
0.0
  0
SPLINE
  5
4D7
100
AcDbEntity
  8
KONSTRUKTIONSELEMENTE
100
AcDbSpline
 62
7
  6
CONTINUOUS
 70
0
 71
3
 72
9
 73
5
 74
0
 42
0.0000001
 43
0.0000001
 44
0.0000000001
 40
0.0
 40
0.0
 40
0.0
 40
0.0
 40
0.5226045408
 40
1.0
 40
1.0
 40
1.0
 40
1.0
 10
536.298967901
 20
129.088663755
 30
0.0
 10
536.3948291744
 20
128.9297695169
 30
0.0
 10
536.5426010415
 20
128.6017758023
 30
0.0
 10
536.5951110328
 20
128.2451679907
 30
0.0
 10
536.5949088196
 20
128.0756499381
 30
0.0
  0
SPLINE
  5
4D8
100
AcDbEntity
  8
KONSTRUKTIONSELEMENTE
100
AcDbSpline
 62
7
  6
CONTINUOUS
 70
0
 71
3
 72
9
 73
5
 74
0
 42
0.0000001
 43
0.0000001
 44
0.0000000001
 40
0.0
 40
0.0
 40
0.0
 40
0.0
 40
0.4872963705
 40
1.0
 40
1.0
 40
1.0
 40
1.0
 10
529.7631762262
 20
121.236069968
 30
0.0
 10
529.2153580253
 20
120.7616454894
 30
0.0
 10
527.7313051567
 20
120.1936908682
 30
0.0
 10
526.1778110472
 20
120.4720157435
 30
0.0
 10
525.5038968886
 20
120.8286894047
 30
0.0
  0
SPLINE
  5
4D9
100
AcDbEntity
  8
KONSTRUKTIONSELEMENTE
100
AcDbSpline
 62
7
  6
CONTINUOUS
 70
0
 71
3
 72
11
 73
7
 74
0
 42
0.0000001
 43
0.0000001
 44
0.0000000001
 40
0.0
 40
0.0
 40
0.0
 40
0.0
 40
0.2474803687
 40
0.4959793074
 40
0.7466457809
 40
1.0
 40
1.0
 40
1.0
 40
1.0
 10
519.08395814
 20
122.8652070185
 30
0.0
 10
519.0837266108
 20
123.373325998
 30
0.0
 10
519.1988184818
 20
124.3952580543
 30
0.0
 10
519.705973095
 20
125.8545419794
 30
0.0
 10
520.5206645458
 20
127.1806659607
 30
0.0
 10
521.2382298489
 20
127.9378158605
 30
0.0
 10
521.6314482425
 20
128.2783529785
 30
0.0
  0
SPLINE
  5
4DA
100
AcDbEntity
  8
KONSTRUKTIONSELEMENTE
100
AcDbSpline
 62
7
  6
CONTINUOUS
 70
0
 71
3
 72
15
 73
11
 74
0
 42
0.0000001
 43
0.0000001
 44
0.0000000001
 40
0.0
 40
0.0
 40
0.0
 40
0.0
 40
0.12323614
 40
0.2480335987
 40
0.373900227
 40
0.5003927364
 40
0.6268181839
 40
0.7525256837
 40
0.877011671
 40
1.0
 40
1.0
 40
1.0
 40
1.0
 10
533.0364445797
 20
117.4564252379
 30
0.0
 10
532.6434464762
 20
117.1160788966
 30
0.0
 10
531.7827287421
 20
116.5078343926
 30
0.0
 10
530.3402647344
 20
115.8491333418
 30
0.0
 10
528.7894421169
 20
115.456990221
 30
0.0
 10
527.1874454998
 20
115.3420182258
 30
0.0
 10
525.5905414555
 20
115.5079082643
 30
0.0
 10
524.0554887984
 20
115.9498514471
 30
0.0
 10
522.6382834284
 20
116.6547147426
 30
0.0
 10
521.8012832551
 20
117.2915221862
 30
0.0
 10
521.4214452899
 20
117.6449629166
 30
0.0
  0
SPLINE
  5
4DB
100
AcDbEntity
  8
KONSTRUKTIONSELEMENTE
100
AcDbSpline
 62
7
  6
CONTINUOUS
 70
0
 71
3
 72
9
 73
5
 74
0
 42
0.0000001
 43
0.0000001
 44
0.0000000001
 40
0.0
 40
0.0
 40
0.0
 40
0.0
 40
0.4702695548
 40
1.0
 40
1.0
 40
1.0
 40
1.0
 10
524.4613431948
 20
130.7288399099
 30
0.0
 10
524.4935205576
 20
130.7566448521
 30
0.0
 10
524.5753747267
 20
130.8011232404
 30
0.0
 10
524.6665394197
 20
130.8133070414
 30
0.0
 10
524.7144329027
 20
130.8142854401
 30
0.0
  0
SPLINE
  5
4DC
100
AcDbEntity
  8
KONSTRUKTIONSELEMENTE
100
AcDbSpline
 62
7
  6
CONTINUOUS
 70
0
 71
3
 72
15
 73
11
 74
0
 42
0.0000001
 43
0.0000001
 44
0.0000000001
 40
0.0
 40
0.0
 40
0.0
 40
0.0
 40
0.082699247
 40
0.1957940838
 40
0.333737466
 40
0.4862052534
 40
0.6408263759
 40
0.7848058501
 40
0.9071588123
 40
1.0
 40
1.0
 40
1.0
 40
1.0
 10
524.7144329027
 20
130.8142854401
 30
0.0
 10
524.8507570135
 20
130.8170703563
 30
0.0
 10
525.1710313539
 20
130.7259725594
 30
0.0
 10
525.6495156228
 20
130.4534658055
 30
0.0
 10
526.1734881316
 20
130.0389991217
 30
0.0
 10
526.6925055747
 20
129.5185879701
 30
0.0
 10
527.16021754
 20
128.938694919
 30
0.0
 10
527.5345800807
 20
128.3515293227
 30
0.0
 10
527.781353745
 20
127.8123598411
 30
0.0
 10
527.864276497
 20
127.4601636119
 30
0.0
 10
527.864276497
 20
127.307089267
 30
0.0
  0
SPLINE
  5
4DD
100
AcDbEntity
  8
KONSTRUKTIONSELEMENTE
100
AcDbSpline
 62
7
  6
CONTINUOUS
 70
0
 71
3
 72
19
 73
15
 74
0
 42
0.0000001
 43
0.0000001
 44
0.0000000001
 40
0.0
 40
0.0
 40
0.0
 40
0.0
 40
0.0298938292
 40
0.0650835855
 40
0.108466288
 40
0.1609985436
 40
0.2222349321
 40
0.2911550146
 40
0.4456854225
 40
0.6095823449
 40
0.7660354067
 40
0.8997960834
 40
0.9545408033
 40
1.0
 40
1.0
 40
1.0
 40
1.0
 10
524.8148965854
 20
131.0350261277
 30
0.0
 10
524.8542562367
 20
131.0690373933
 30
0.0
 10
524.9608927734
 20
131.119908865
 30
0.0
 10
525.1527266376
 20
131.1256061353
 30
0.0
 10
525.376658735
 20
131.0746534068
 30
0.0
 10
525.6296525762
 20
130.968372726
 30
0.0
 10
525.9063946345
 20
130.8107853497
 30
0.0
 10
526.3120357829
 20
130.5254144062
 30
0.0
 10
526.8157569933
 20
130.0740899438
 30
0.0
 10
527.362303183
 20
129.4517707398
 30
0.0
 10
527.8105497873
 20
128.799124695
 30
0.0
 10
528.0799984265
 20
128.2581156416
 30
0.0
 10
528.1948384429
 20
127.8666359675
 30
0.0
 10
528.2178298876
 20
127.6923797608
 30
0.0
 10
528.2178298876
 20
127.6132754849
 30
0.0
  0
SPLINE
  5
4DE
100
AcDbEntity
  8
KONSTRUKTIONSELEMENTE
100
AcDbSpline
 62
7
  6
CONTINUOUS
 70
0
 71
3
 72
9
 73
5
 74
0
 42
0.0000001
 43
0.0000001
 44
0.0000000001
 40
0.0
 40
0.0
 40
0.0
 40
0.0
 40
0.546991612
 40
1.0
 40
1.0
 40
1.0
 40
1.0
 10
528.2178298876
 20
127.6132754849
 30
0.0
 10
528.2178298876
 20
127.5416900463
 30
0.0
 10
528.2029246687
 20
127.40880135
 30
0.0
 10
528.1300874752
 20
127.2921496571
 30
0.0
 10
528.0852292838
 20
127.2533870205
 30
0.0
  0
SPLINE
  5
4DF
100
AcDbEntity
  8
KONSTRUKTIONSELEMENTE
100
AcDbSpline
 62
7
  6
CONTINUOUS
 70
0
 71
3
 72
9
 73
5
 74
0
 42
0.0000001
 43
0.0000001
 44
0.0000000001
 40
0.0
 40
0.0
 40
0.0
 40
0.0
 40
0.272606519
 40
1.0
 40
1.0
 40
1.0
 40
1.0
 10
467.4214698112
 20
81.2202099336
 30
0.0
 10
467.4262596436
 20
81.2419868222
 30
0.0
 10
467.4483262496
 20
81.320623261
 30
0.0
 10
467.4942300075
 20
81.3939587101
 30
0.0
 10
467.5392473093
 20
81.4328588364
 30
0.0
  0
SPLINE
  5
4E0
100
AcDbEntity
  8
KONSTRUKTIONSELEMENTE
100
AcDbSpline
 62
7
  6
CONTINUOUS
 70
0
 71
3
 72
8
 73
4
 74
0
 42
0.0000001
 43
0.0000001
 44
0.0000000001
 40
0.0
 40
0.0
 40
0.0
 40
0.0
 40
1.0
 40
1.0
 40
1.0
 40
1.0
 10
470.8095800077
 20
77.6512197291
 30
0.0
 10
470.7897566782
 20
77.6340900925
 30
0.0
 10
470.7675666701
 20
77.6194157123
 30
0.0
 10
470.7441386605
 20
77.607688939
 30
0.0
  0
SPLINE
  5
4E1
100
AcDbEntity
  8
KONSTRUKTIONSELEMENTE
100
AcDbSpline
 62
7
  6
CONTINUOUS
 70
0
 71
3
 72
10
 73
6
 74
0
 42
0.0000001
 43
0.0000001
 44
0.0000000001
 40
0.0
 40
0.0
 40
0.0
 40
0.0
 40
0.2209805831
 40
0.4552103493
 40
1.0
 40
1.0
 40
1.0
 40
1.0
 10
479.3192595435
 20
78.4734826468
 30
0.0
 10
479.3190945221
 20
78.3351429497
 30
0.0
 10
479.2861326319
 20
78.0491348275
 30
0.0
 10
479.0761202939
 20
77.4550079854
 30
0.0
 10
478.7557464183
 20
77.0623399727
 30
0.0
 10
478.4979345901
 20
76.8390683801
 30
0.0
  0
SPLINE
  5
4E2
100
AcDbEntity
  8
KONSTRUKTIONSELEMENTE
100
AcDbSpline
 62
7
  6
CONTINUOUS
 70
0
 71
3
 72
11
 73
7
 74
0
 42
0.0000001
 43
0.0000001
 44
0.0000000001
 40
0.0
 40
0.0
 40
0.0
 40
0.0
 40
0.2461844042
 40
0.4959427175
 40
0.7478763938
 40
1.0
 40
1.0
 40
1.0
 40
1.0
 10
470.3662066065
 20
83.8813513906
 30
0.0
 10
470.8646741539
 20
84.3130369496
 30
0.0
 10
471.9818850018
 20
85.0595793695
 30
0.0
 10
473.8764255429
 20
85.760467024
 30
0.0
 10
475.8946055142
 20
86.0237162762
 30
0.0
 10
477.2521176307
 20
85.8983316783
 30
0.0
 10
477.9134102784
 20
85.7614097533
 30
0.0
  0
SPLINE
  5
4E3
100
AcDbEntity
  8
KONSTRUKTIONSELEMENTE
100
AcDbSpline
 62
7
  6
CONTINUOUS
 70
0
 71
3
 72
11
 73
7
 74
0
 42
0.0000001
 43
0.0000001
 44
0.0000000001
 40
0.0
 40
0.0
 40
0.0
 40
0.0
 40
0.2529889227
 40
0.5034781976
 40
0.7521869369
 40
1.0
 40
1.0
 40
1.0
 40
1.0
 10
482.0986155221
 20
83.5812692682
 30
0.0
 10
482.4444396557
 20
83.2458095242
 30
0.0
 10
483.0723927203
 20
82.5122140792
 30
0.0
 10
483.7799579226
 20
81.2561795008
 30
0.0
 10
484.2191214574
 20
79.8929569012
 30
0.0
 10
484.3184780026
 20
78.9445087631
 30
0.0
 10
484.3186930462
 20
78.4725696101
 30
0.0
  0
SPLINE
  5
4E4
100
AcDbEntity
  8
KONSTRUKTIONSELEMENTE
100
AcDbSpline
 62
7
  6
CONTINUOUS
 70
0
 71
3
 72
11
 73
7
 74
0
 42
0.0000001
 43
0.0000001
 44
0.0000000001
 40
0.0
 40
0.0
 40
0.0
 40
0.0
 40
0.2474803687
 40
0.4959793074
 40
0.7466457809
 40
1.0
 40
1.0
 40
1.0
 40
1.0
 10
484.3186930462
 20
78.4725696101
 30
0.0
 10
484.3189245754
 20
77.9644506305
 30
0.0
 10
484.2038327043
 20
76.9425185742
 30
0.0
 10
483.6966780912
 20
75.4832346492
 30
0.0
 10
482.8819866404
 20
74.1571106678
 30
0.0
 10
482.1644213373
 20
73.3999607681
 30
0.0
 10
481.7712029437
 20
73.05942365
 30
0.0
  0
SPLINE
  5
4E5
100
AcDbEntity
  8
KONSTRUKTIONSELEMENTE
100
AcDbSpline
 62
7
  6
CONTINUOUS
 70
0
 71
3
 72
9
 73
5
 74
0
 42
0.0000001
 43
0.0000001
 44
0.0000000001
 40
0.0
 40
0.0
 40
0.0
 40
0.0
 40
0.2350561603
 40
1.0
 40
1.0
 40
1.0
 40
1.0
 10
473.63947496
 20
80.1017066605
 30
0.0
 10
473.7186978456
 20
80.1703156919
 30
0.0
 10
474.0714503661
 20
80.4438120215
 30
0.0
 10
474.4804068343
 20
80.6424448904
 30
0.0
 10
474.804281768
 20
80.7493338079
 30
0.0
  0
SPLINE
  5
4E6
100
AcDbEntity
  8
KONSTRUKTIONSELEMENTE
100
AcDbSpline
 62
7
  6
CONTINUOUS
 70
0
 71
3
 72
9
 73
5
 74
0
 42
0.0000001
 43
0.0000001
 44
0.0000000001
 40
0.0
 40
0.0
 40
0.0
 40
0.0
 40
0.2578415756
 40
1.0
 40
1.0
 40
1.0
 40
1.0
 10
479.2203590352
 20
79.0640909279
 30
0.0
 10
479.2368822966
 20
79.015209165
 30
0.0
 10
479.2938332706
 20
78.8233047828
 30
0.0
 10
479.3194367082
 20
78.6220022164
 30
0.0
 10
479.3192595435
 20
78.4734826468
 30
0.0
  0
SPLINE
  5
4E7
100
AcDbEntity
  8
KONSTRUKTIONSELEMENTE
100
AcDbSpline
 62
7
  6
CONTINUOUS
 70
0
 71
3
 72
12
 73
8
 74
0
 42
0.0000001
 43
0.0000001
 44
0.0000000001
 40
0.0
 40
0.0
 40
0.0
 40
0.0
 40
0.2345920439
 40
0.4937113228
 40
0.6262751955
 40
0.7567885353
 40
1.0
 40
1.0
 40
1.0
 40
1.0
 10
472.4875269501
 20
71.6339026767
 30
0.0
 10
472.1959277843
 20
71.3813703915
 30
0.0
 10
471.4749153114
 20
70.9686505212
 30
0.0
 10
470.4476409207
 20
70.7650053055
 30
0.0
 10
469.5861625171
 20
70.795499127
 30
0.0
 10
468.7670635628
 20
70.9555346953
 30
0.0
 10
468.1940159453
 20
71.2168704175
 30
0.0
 10
467.8673935631
 20
71.4476430168
 30
0.0
  0
SPLINE
  5
4E8
100
AcDbEntity
  8
KONSTRUKTIONSELEMENTE
100
AcDbSpline
 62
7
  6
CONTINUOUS
 70
0
 71
3
 72
13
 73
9
 74
0
 42
0.0000001
 43
0.0000001
 44
0.0000000001
 40
0.0
 40
0.0
 40
0.0
 40
0.0
 40
0.1234647978
 40
0.2484904704
 40
0.5003324845
 40
0.7519822271
 40
0.8767365739
 40
1.0
 40
1.0
 40
1.0
 40
1.0
 10
475.7607953036
 20
67.8542579466
 30
0.0
 10
475.3692647297
 20
67.5151825232
 30
0.0
 10
474.5117748521
 20
66.9088888625
 30
0.0
 10
472.5949029936
 20
66.0307102474
 30
0.0
 10
469.9344608329
 20
65.5994310247
 30
0.0
 10
467.2874046747
 20
66.1014814442
 30
0.0
 10
465.3979905872
 20
67.0313056692
 30
0.0
 10
464.5602534936
 20
67.6614797279
 30
0.0
 10
464.1796251545
 20
68.0115026134
 30
0.0
  0
SPLINE
  5
4E9
100
AcDbEntity
  8
KONSTRUKTIONSELEMENTE
100
AcDbSpline
 62
7
  6
CONTINUOUS
 70
0
 71
3
 72
9
 73
5
 74
0
 42
0.0000001
 43
0.0000001
 44
0.0000000001
 40
0.0
 40
0.0
 40
0.0
 40
0.0
 40
0.4702695548
 40
1.0
 40
1.0
 40
1.0
 40
1.0
 10
467.1856939187
 20
81.1266726185
 30
0.0
 10
467.2178712815
 20
81.1544775608
 30
0.0
 10
467.2997254505
 20
81.1989559491
 30
0.0
 10
467.3908901436
 20
81.21113975
 30
0.0
 10
467.4387836266
 20
81.2121181487
 30
0.0
  0
SPLINE
  5
4EA
100
AcDbEntity
  8
KONSTRUKTIONSELEMENTE
100
AcDbSpline
 62
7
  6
CONTINUOUS
 70
0
 71
3
 72
15
 73
11
 74
0
 42
0.0000001
 43
0.0000001
 44
0.0000000001
 40
0.0
 40
0.0
 40
0.0
 40
0.0
 40
0.0821107363
 40
0.1941187715
 40
0.3307519301
 40
0.4820994956
 40
0.636214369
 40
0.7806389992
 40
0.9045657765
 40
1.0
 40
1.0
 40
1.0
 40
1.0
 10
467.4387836266
 20
81.2121181487
 30
0.0
 10
467.5730538372
 20
81.2148611065
 30
0.0
 10
467.8881947766
 20
81.1264646629
 30
0.0
 10
468.3597512319
 20
80.860432433
 30
0.0
 10
468.8767547378
 20
80.4551695321
 30
0.0
 10
469.3907631077
 20
79.9449126098
 30
0.0
 10
469.8569488216
 20
79.373954532
 30
0.0
 10
470.2343092392
 20
78.7926619046
 30
0.0
 10
470.4894344123
 20
78.2540918402
 30
0.0
 10
470.5808712025
 20
77.900932336
 30
0.0
 10
470.5877276179
 20
77.7449932157
 30
0.0
  0
SPLINE
  5
4EB
100
AcDbEntity
  8
KONSTRUKTIONSELEMENTE
100
AcDbSpline
 62
7
  6
CONTINUOUS
 70
0
 71
3
 72
19
 73
15
 74
0
 42
0.0000001
 43
0.0000001
 44
0.0000000001
 40
0.0
 40
0.0
 40
0.0
 40
0.0
 40
0.0298938292
 40
0.0650835855
 40
0.108466288
 40
0.1609985436
 40
0.2222349321
 40
0.2911550146
 40
0.4456854225
 40
0.6095823449
 40
0.7660354067
 40
0.8997960834
 40
0.9545408033
 40
1.0
 40
1.0
 40
1.0
 40
1.0
 10
467.5392473093
 20
81.4328588364
 30
0.0
 10
467.5786069606
 20
81.466870102
 30
0.0
 10
467.6852434973
 20
81.5177415736
 30
0.0
 10
467.8770773615
 20
81.523438844
 30
0.0
 10
468.1010094588
 20
81.4724861154
 30
0.0
 10
468.3540033001
 20
81.3662054346
 30
0.0
 10
468.6307453584
 20
81.2086180584
 30
0.0
 10
469.0363865068
 20
80.9232471148
 30
0.0
 10
469.5401077171
 20
80.4719226524
 30
0.0
 10
470.0866539069
 20
79.8496034485
 30
0.0
 10
470.5349005111
 20
79.1969574036
 30
0.0
 10
470.8043491504
 20
78.6559483503
 30
0.0
 10
470.9191891668
 20
78.2644686761
 30
0.0
 10
470.9421806115
 20
78.0902124694
 30
0.0
 10
470.9421806115
 20
78.0111081935
 30
0.0
  0
SPLINE
  5
4EC
100
AcDbEntity
  8
KONSTRUKTIONSELEMENTE
100
AcDbSpline
 62
7
  6
CONTINUOUS
 70
0
 71
3
 72
9
 73
5
 74
0
 42
0.0000001
 43
0.0000001
 44
0.0000000001
 40
0.0
 40
0.0
 40
0.0
 40
0.0
 40
0.546991612
 40
1.0
 40
1.0
 40
1.0
 40
1.0
 10
470.9421806115
 20
78.0111081935
 30
0.0
 10
470.9421806115
 20
77.9395227549
 30
0.0
 10
470.9272753925
 20
77.8066340586
 30
0.0
 10
470.8544381991
 20
77.6899823657
 30
0.0
 10
470.8095800077
 20
77.6512197291
 30
0.0
  0
SPLINE
  5
4ED
100
AcDbEntity
  8
KONSTRUKTIONSELEMENTE
100
AcDbSpline
 62
7
  6
CONTINUOUS
 70
0
 71
3
 72
9
 73
5
 74
0
 42
0.0000001
 43
0.0000001
 44
0.0000000001
 40
0.0
 40
0.0
 40
0.0
 40
0.0
 40
0.244567645
 40
1.0
 40
1.0
 40
1.0
 40
1.0
 10
524.0339463972
 20
114.1580350388
 30
0.0
 10
524.1600466235
 20
114.2672410382
 30
0.0
 10
524.6683699334
 20
114.7221296623
 30
0.0
 10
525.1489002883
 20
115.2078910973
 30
0.0
 10
525.4957432823
 20
115.5889409216
 30
0.0
  0
SPLINE
  5
4EE
100
AcDbEntity
  8
KONSTRUKTIONSELEMENTE
100
AcDbSpline
 62
7
  6
CONTINUOUS
 70
0
 71
3
 72
13
 73
9
 74
0
 42
0.0000001
 43
0.0000001
 44
0.0000000001
 40
0.0
 40
0.0
 40
0.0
 40
0.0
 40
0.2450798975
 40
0.4867641821
 40
0.6110076878
 40
0.7383847014
 40
0.8684495212
 40
1.0
 40
1.0
 40
1.0
 40
1.0
 10
528.5972130892
 20
120.5901895032
 30
0.0
 10
528.7077488096
 20
120.9426148497
 30
0.0
 10
528.8783781048
 20
121.6601802462
 30
0.0
 10
528.8943826841
 20
122.5917946418
 30
0.0
 10
528.7447450164
 20
123.323118668
 30
0.0
 10
528.5334182111
 20
123.861473064
 30
0.0
 10
528.221666914
 20
124.3620345674
 30
0.0
 10
527.9484362183
 20
124.6506765634
 30
0.0
 10
527.798616817
 20
124.7805212117
 30
0.0
  0
SPLINE
  5
4EF
100
AcDbEntity
  8
KONSTRUKTIONSELEMENTE
100
AcDbSpline
 62
7
  6
CONTINUOUS
 70
0
 71
3
 72
24
 73
20
 74
0
 42
0.0000001
 43
0.0000001
 44
0.0000000001
 40
0.0
 40
0.0
 40
0.0
 40
0.0
 40
0.0399684528
 40
0.0656722898
 40
0.0749868115
 40
0.0817678249
 40
0.0908545801
 40
0.1035924024
 40
0.1198773536
 40
0.1395387897
 40
0.1623831141
 40
0.1882178473
 40
0.2480971592
 40
0.3177404014
 40
0.3960771619
 40
0.4821888571
 40
0.5751564087
 40
0.7783595522
 40
1.0
 40
1.0
 40
1.0
 40
1.0
 10
525.6205615895
 20
121.0342486596
 30
0.0
 10
525.6506727459
 20
121.0314225151
 30
0.0
 10
525.7071131844
 20
121.0301289002
 30
0.0
 10
525.746340789
 20
121.0290918823
 30
0.0
 10
525.8005170076
 20
121.0359723518
 30
0.0
 10
525.7712347653
 20
121.0301070415
 30
0.0
 10
525.7539980327
 20
121.0251769699
 30
0.0
 10
525.724827908
 20
121.0165868759
 30
0.0
 10
525.6905950562
 20
121.0046790816
 30
0.0
 10
525.6487600507
 20
120.988923098
 30
0.0
 10
525.6009338484
 20
120.969427775
 30
0.0
 10
525.5255712649
 20
120.9366568765
 30
0.0
 10
525.4194494233
 20
120.8860188732
 30
0.0
 10
525.280611152
 20
120.812002259
 30
0.0
 10
525.1276031716
 20
120.7226856631
 30
0.0
 10
524.9627626625
 20
120.618851075
 30
0.0
 10
524.7229960484
 20
120.456947087
 30
0.0
 10
524.4086219375
 20
120.2227184404
 30
0.0
 10
524.160724602
 20
120.0178281848
 30
0.0
 10
524.0339463972
 20
119.9080350388
 30
0.0
  0
SPLINE
  5
4F0
100
AcDbEntity
  8
KONSTRUKTIONSELEMENTE
100
AcDbSpline
 62
7
  6
CONTINUOUS
 70
0
 71
3
 72
14
 73
10
 74
0
 42
0.0000001
 43
0.0000001
 44
0.0000000001
 40
0.0
 40
0.0
 40
0.0
 40
0.0
 40
0.1261639273
 40
0.2490859875
 40
0.3675996524
 40
0.4838289665
 40
0.6024561707
 40
0.7271761049
 40
1.0
 40
1.0
 40
1.0
 40
1.0
 10
527.798616817
 20
124.7805212117
 30
0.0
 10
527.5607426151
 20
124.9866807064
 30
0.0
 10
527.0212774675
 20
125.3195743978
 30
0.0
 10
526.1201610873
 20
125.5473891413
 30
0.0
 10
525.2193809191
 20
125.5290461657
 30
0.0
 10
524.3560344357
 20
125.328389914
 30
0.0
 10
523.5232219753
 20
124.9871487524
 30
0.0
 10
522.3958948492
 20
124.3604181965
 30
0.0
 10
521.6025625435
 20
123.755335305
 30
0.0
 10
521.088004879
 20
123.3097152958
 30
0.0
  0
SPLINE
  5
4F1
100
AcDbEntity
  8
KONSTRUKTIONSELEMENTE
100
AcDbSpline
 62
7
  6
CONTINUOUS
 70
0
 71
3
 72
11
 73
7
 74
0
 42
0.0000001
 43
0.0000001
 44
0.0000000001
 40
0.0
 40
0.0
 40
0.0
 40
0.0
 40
0.2560606671
 40
0.5094317095
 40
0.7578652676
 40
1.0
 40
1.0
 40
1.0
 40
1.0
 10
506.7167327414
 20
103.5016425875
 30
0.0
 10
506.8631737801
 20
103.3747258798
 30
0.0
 10
507.1799432391
 20
103.1497570371
 30
0.0
 10
507.7066076999
 20
102.9145210378
 30
0.0
 10
508.2558928291
 20
102.7787974255
 30
0.0
 10
508.6280384702
 20
102.7521273059
 30
0.0
 10
508.8112844159
 20
102.7525526357
 30
0.0
  0
SPLINE
  5
4F2
100
AcDbEntity
  8
KONSTRUKTIONSELEMENTE
100
AcDbSpline
 62
7
  6
CONTINUOUS
 70
0
 71
3
 72
14
 73
10
 74
0
 42
0.0000001
 43
0.0000001
 44
0.0000000001
 40
0.0
 40
0.0
 40
0.0
 40
0.0
 40
0.3076593044
 40
0.4655740208
 40
0.6174499256
 40
0.7563299601
 40
0.8741882754
 40
0.9604979356
 40
1.0
 40
1.0
 40
1.0
 40
1.0
 10
513.4273446794
 20
110.7224485033
 30
0.0
 10
512.9770832807
 20
110.3325106937
 30
0.0
 10
512.3403927749
 20
109.6891582187
 30
0.0
 10
511.5825300534
 20
108.7641790515
 30
0.0
 10
511.0774638191
 20
108.0564236674
 30
0.0
 10
510.6659106685
 20
107.3801316316
 30
0.0
 10
510.3680717715
 20
106.7848618646
 30
0.0
 10
510.2043836016
 20
106.3421912717
 30
0.0
 10
510.1454379576
 20
106.1040605507
 30
0.0
 10
510.1391561547
 20
106.0278415144
 30
0.0
  0
SPLINE
  5
4F3
100
AcDbEntity
  8
KONSTRUKTIONSELEMENTE
100
AcDbSpline
 62
7
  6
CONTINUOUS
 70
0
 71
3
 72
17
 73
13
 74
0
 42
0.0000001
 43
0.0000001
 44
0.0000000001
 40
0.0
 40
0.0
 40
0.0
 40
0.0
 40
0.1381799396
 40
0.2793498645
 40
0.4167408576
 40
0.5447967012
 40
0.6614058717
 40
0.770730898
 40
0.825836819
 40
0.8824126798
 40
0.9407184285
 40
1.0
 40
1.0
 40
1.0
 40
1.0
 10
510.4814031612
 20
114.1241287604
 30
0.0
 10
510.0465769557
 20
113.7475582202
 30
0.0
 10
509.2086472115
 20
112.9378709472
 30
0.0
 10
508.0787198097
 20
111.6183708986
 30
0.0
 10
507.1031659389
 20
110.2316957308
 30
0.0
 10
506.3313412504
 20
108.8365456784
 30
0.0
 10
505.7990025628
 20
107.4567500778
 30
0.0
 10
505.6035054709
 20
106.2884515561
 30
0.0
 10
505.6704634892
 20
105.3662761142
 30
0.0
 10
505.8564717901
 20
104.6781414789
 30
0.0
 10
506.1990295214
 20
104.0318297152
 30
0.0
 10
506.5302447303
 20
103.6632669832
 30
0.0
 10
506.7167327414
 20
103.5016425875
 30
0.0
  0
SPLINE
  5
4F4
100
AcDbEntity
  8
KONSTRUKTIONSELEMENTE
100
AcDbSpline
 62
7
  6
CONTINUOUS
 70
0
 71
3
 72
9
 73
5
 74
0
 42
0.0000001
 43
0.0000001
 44
0.0000000001
 40
0.0
 40
0.0
 40
0.0
 40
0.0
 40
0.2442277043
 40
1.0
 40
1.0
 40
1.0
 40
1.0
 10
492.921248025
 20
87.2136478681
 30
0.0
 10
493.0769970896
 20
87.3485305147
 30
0.0
 10
493.703593843
 20
87.9135679364
 30
0.0
 10
494.2881568767
 20
88.5248956622
 30
0.0
 10
494.7047983852
 20
89.0075228661
 30
0.0
  0
SPLINE
  5
4F5
100
AcDbEntity
  8
KONSTRUKTIONSELEMENTE
100
AcDbSpline
 62
7
  6
CONTINUOUS
 70
0
 71
3
 72
13
 73
9
 74
0
 42
0.0000001
 43
0.0000001
 44
0.0000000001
 40
0.0
 40
0.0
 40
0.0
 40
0.0
 40
0.2465994456
 40
0.4878359344
 40
0.611665412
 40
0.738649883
 40
0.8685336703
 40
1.0
 40
1.0
 40
1.0
 40
1.0
 10
497.4276753264
 20
93.4719274604
 30
0.0
 10
497.5521302465
 20
93.8379822043
 30
0.0
 10
497.7480732715
 20
94.5814643835
 30
0.0
 10
497.7902115095
 20
95.5510510888
 30
0.0
 10
497.651722564
 20
96.3133416956
 30
0.0
 10
497.4425396389
 20
96.8760240916
 30
0.0
 10
497.1245669471
 20
97.3997887622
 30
0.0
 10
496.8416809319
 20
97.7011386721
 30
0.0
 10
496.6859184448
 20
97.8361340411
 30
0.0
  0
SPLINE
  5
4F6
100
AcDbEntity
  8
KONSTRUKTIONSELEMENTE
100
AcDbSpline
 62
7
  6
CONTINUOUS
 70
0
 71
3
 72
24
 73
20
 74
0
 42
0.0000001
 43
0.0000001
 44
0.0000000001
 40
0.0
 40
0.0
 40
0.0
 40
0.0
 40
0.0399684528
 40
0.0656722898
 40
0.0749868115
 40
0.0817678249
 40
0.0908545801
 40
0.1035924024
 40
0.1198773536
 40
0.1395387897
 40
0.1623831141
 40
0.1882178473
 40
0.2480971592
 40
0.3177404014
 40
0.3960771619
 40
0.4821888571
 40
0.5751564087
 40
0.7783595522
 40
1.0
 40
1.0
 40
1.0
 40
1.0
 10
494.5078632173
 20
94.089861489
 30
0.0
 10
494.5379743737
 20
94.0870353445
 30
0.0
 10
494.5944148122
 20
94.0857417296
 30
0.0
 10
494.6336424168
 20
94.0847047117
 30
0.0
 10
494.6878186354
 20
94.0915851812
 30
0.0
 10
494.6585363931
 20
94.0857198709
 30
0.0
 10
494.6412996605
 20
94.0807897993
 30
0.0
 10
494.6121295358
 20
94.0721997053
 30
0.0
 10
494.577896684
 20
94.060291911
 30
0.0
 10
494.5360616785
 20
94.0445359274
 30
0.0
 10
494.4882354762
 20
94.0250406044
 30
0.0
 10
494.4128728927
 20
93.9922697059
 30
0.0
 10
494.3067510511
 20
93.9416317026
 30
0.0
 10
494.1679127797
 20
93.8676150884
 30
0.0
 10
494.0149047994
 20
93.7782984924
 30
0.0
 10
493.8500642903
 20
93.6744639044
 30
0.0
 10
493.6102976762
 20
93.5125599164
 30
0.0
 10
493.2959235653
 20
93.2783312698
 30
0.0
 10
493.0480262298
 20
93.0734410142
 30
0.0
 10
492.921248025
 20
92.9636478681
 30
0.0
  0
SPLINE
  5
4F7
100
AcDbEntity
  8
KONSTRUKTIONSELEMENTE
100
AcDbSpline
 62
7
  6
CONTINUOUS
 70
0
 71
3
 72
14
 73
10
 74
0
 42
0.0000001
 43
0.0000001
 44
0.0000000001
 40
0.0
 40
0.0
 40
0.0
 40
0.0
 40
0.1261639273
 40
0.2490859875
 40
0.3675996524
 40
0.4838289665
 40
0.6024561707
 40
0.7271761049
 40
1.0
 40
1.0
 40
1.0
 40
1.0
 10
496.6859184448
 20
97.8361340411
 30
0.0
 10
496.4480442429
 20
98.0422935358
 30
0.0
 10
495.9085790953
 20
98.3751872272
 30
0.0
 10
495.0074627151
 20
98.6030019707
 30
0.0
 10
494.1066825468
 20
98.5846589951
 30
0.0
 10
493.2433360635
 20
98.3840027434
 30
0.0
 10
492.4105236031
 20
98.0427615818
 30
0.0
 10
491.283196477
 20
97.4160310259
 30
0.0
 10
490.4898641713
 20
96.8109481344
 30
0.0
 10
489.9753065068
 20
96.3653281252
 30
0.0
  0
SPLINE
  5
4F8
100
AcDbEntity
  8
KONSTRUKTIONSELEMENTE
100
AcDbSpline
 62
7
  6
CONTINUOUS
 70
0
 71
3
 72
9
 73
5
 74
0
 42
0.0000001
 43
0.0000001
 44
0.0000000001
 40
0.0
 40
0.0
 40
0.0
 40
0.0
 40
0.5068172679
 40
1.0
 40
1.0
 40
1.0
 40
1.0
 10
475.6040343692
 20
76.5572554168
 30
0.0
 10
475.8477899529
 20
76.3459986787
 30
0.0
 10
476.4017953176
 20
76.0071039393
 30
0.0
 10
477.0303083
 20
75.8555580682
 30
0.0
 10
477.3426929226
 20
75.8249119387
 30
0.0
  0
SPLINE
  5
4F9
100
AcDbEntity
  8
KONSTRUKTIONSELEMENTE
100
AcDbSpline
 62
7
  6
CONTINUOUS
 70
0
 71
3
 72
14
 73
10
 74
0
 42
0.0000001
 43
0.0000001
 44
0.0000000001
 40
0.0
 40
0.0
 40
0.0
 40
0.0
 40
0.3076593044
 40
0.4655740208
 40
0.6174499256
 40
0.7563299601
 40
0.8741882754
 40
0.9604979356
 40
1.0
 40
1.0
 40
1.0
 40
1.0
 10
482.3146463072
 20
83.7780613327
 30
0.0
 10
481.8643849085
 20
83.3881235231
 30
0.0
 10
481.2276944027
 20
82.7447710481
 30
0.0
 10
480.4698316812
 20
81.8197918809
 30
0.0
 10
479.9647654469
 20
81.1120364968
 30
0.0
 10
479.5532122963
 20
80.435744461
 30
0.0
 10
479.2553733993
 20
79.840474694
 30
0.0
 10
479.0916852294
 20
79.3978041011
 30
0.0
 10
479.0327395854
 20
79.1596733801
 30
0.0
 10
479.0264577825
 20
79.0834543438
 30
0.0
  0
SPLINE
  5
4FA
100
AcDbEntity
  8
KONSTRUKTIONSELEMENTE
100
AcDbSpline
 62
7
  6
CONTINUOUS
 70
0
 71
3
 72
17
 73
13
 74
0
 42
0.0000001
 43
0.0000001
 44
0.0000000001
 40
0.0
 40
0.0
 40
0.0
 40
0.0
 40
0.1381799396
 40
0.2793498645
 40
0.4167408576
 40
0.5447967012
 40
0.6614058717
 40
0.770730898
 40
0.825836819
 40
0.8824126798
 40
0.9407184285
 40
1.0
 40
1.0
 40
1.0
 40
1.0
 10
479.368704789
 20
87.1797415898
 30
0.0
 10
478.9338785834
 20
86.8031710495
 30
0.0
 10
478.0959488393
 20
85.9934837766
 30
0.0
 10
476.9660214375
 20
84.673983728
 30
0.0
 10
475.9904675667
 20
83.2873085602
 30
0.0
 10
475.2186428782
 20
81.8921585078
 30
0.0
 10
474.6863041906
 20
80.5123629072
 30
0.0
 10
474.4908070987
 20
79.3440643855
 30
0.0
 10
474.557765117
 20
78.4218889436
 30
0.0
 10
474.7437734179
 20
77.7337543083
 30
0.0
 10
475.0863311491
 20
77.0874425445
 30
0.0
 10
475.4175463581
 20
76.7188798126
 30
0.0
 10
475.6040343692
 20
76.5572554168
 30
0.0
  0
SPLINE
  5
4FB
100
AcDbEntity
  8
KONSTRUKTIONSELEMENTE
100
AcDbSpline
 62
7
  6
CONTINUOUS
 70
0
 71
3
 72
11
 73
7
 74
0
 42
0.0000001
 43
0.0000001
 44
0.0000000001
 40
0.0
 40
0.0
 40
0.0
 40
0.0
 40
0.247258039
 40
0.4956520534
 40
0.7463451021
 40
1.0
 40
1.0
 40
1.0
 40
1.0
 10
488.3981004433
 20
96.0743080249
 30
0.0
 10
488.3979049764
 20
96.5643133043
 30
0.0
 10
488.5089807759
 20
97.5500636058
 30
0.0
 10
488.9988922856
 20
98.957838073
 30
0.0
 10
489.7859320005
 20
100.2379269497
 30
0.0
 10
490.4791978537
 20
100.9689938429
 30
0.0
 10
490.8591899833
 20
101.2980766803
 30
0.0
  0
SPLINE
  5
4FC
100
AcDbEntity
  8
KONSTRUKTIONSELEMENTE
100
AcDbSpline
 62
7
  6
CONTINUOUS
 70
0
 71
3
 72
11
 73
7
 74
0
 42
0.0000001
 43
0.0000001
 44
0.0000000001
 40
0.0
 40
0.0
 40
0.0
 40
0.0
 40
0.247258039
 40
0.4956520534
 40
0.7463451021
 40
1.0
 40
1.0
 40
1.0
 40
1.0
 10
515.0045507429
 20
105.2634686036
 30
0.0
 10
515.0047462098
 20
104.7734633242
 30
0.0
 10
514.8936704102
 20
103.7877130227
 30
0.0
 10
514.4037589006
 20
102.3799385556
 30
0.0
 10
513.6167191857
 20
101.0998496788
 30
0.0
 10
512.9234533324
 20
100.3687827856
 30
0.0
 10
512.5434612029
 20
100.0396999482
 30
0.0
  0
SPLINE
  5
4FD
100
AcDbEntity
  8
KONSTRUKTIONSELEMENTE
100
AcDbSpline
 62
7
  6
CONTINUOUS
 70
0
 71
3
 72
9
 73
5
 74
0
 42
0.0000001
 43
0.0000001
 44
0.0000000001
 40
0.0
 40
0.0
 40
0.0
 40
0.0
 40
0.2390508737
 40
1.0
 40
1.0
 40
1.0
 40
1.0
 10
504.636463767
 20
107.259784214
 30
0.0
 10
504.7321082348
 20
107.3289658048
 30
0.0
 10
505.1469523118
 20
107.5977181983
 30
0.0
 10
505.6158020697
 20
107.780486336
 30
0.0
 10
505.9808854752
 20
107.8693933816
 30
0.0
  0
SPLINE
  5
4FE
100
AcDbEntity
  8
KONSTRUKTIONSELEMENTE
100
AcDbSpline
 62
7
  6
CONTINUOUS
 70
0
 71
3
 72
9
 73
5
 74
0
 42
0.0000001
 43
0.0000001
 44
0.0000000001
 40
0.0
 40
0.0
 40
0.0
 40
0.0
 40
0.2598514407
 40
1.0
 40
1.0
 40
1.0
 40
1.0
 10
510.3230660196
 20
106.1178836295
 30
0.0
 10
510.3533473816
 20
106.0480478793
 30
0.0
 10
510.456651104
 20
105.7738041286
 30
0.0
 10
510.5051014316
 20
105.4784894832
 30
0.0
 10
510.5051136576
 20
105.2616777668
 30
0.0
  0
SPLINE
  5
4FF
100
AcDbEntity
  8
KONSTRUKTIONSELEMENTE
100
AcDbSpline
 62
7
  6
CONTINUOUS
 70
0
 71
3
 72
9
 73
5
 74
0
 42
0.0000001
 43
0.0000001
 44
0.0000000001
 40
0.0
 40
0.0
 40
0.0
 40
0.0
 40
0.4614411915
 40
1.0
 40
1.0
 40
1.0
 40
1.0
 10
510.5051136576
 20
105.2616777668
 30
0.0
 10
510.5051317184
 20
104.9413955846
 30
0.0
 10
510.3336378969
 20
104.2409353532
 30
0.0
 10
509.8800925976
 20
103.6860955263
 30
0.0
 10
509.5975196847
 20
103.4413802053
 30
0.0
  0
SPLINE
  5
500
100
AcDbEntity
  8
KONSTRUKTIONSELEMENTE
100
AcDbSpline
 62
7
  6
CONTINUOUS
 70
0
 71
3
 72
9
 73
5
 74
0
 42
0.0000001
 43
0.0000001
 44
0.0000000001
 40
0.0
 40
0.0
 40
0.0
 40
0.0
 40
0.4898470903
 40
1.0
 40
1.0
 40
1.0
 40
1.0
 10
498.9909179669
 20
94.2557936698
 30
0.0
 10
498.3932090377
 20
93.7381625531
 30
0.0
 10
496.7765893467
 20
93.1256189307
 30
0.0
 10
495.0904004855
 20
93.4560446855
 30
0.0
 10
494.3723919727
 20
93.8592433739
 30
0.0
  0
SPLINE
  5
501
100
AcDbEntity
  8
KONSTRUKTIONSELEMENTE
100
AcDbSpline
 62
7
  6
CONTINUOUS
 70
0
 71
3
 72
11
 73
7
 74
0
 42
0.0000001
 43
0.0000001
 44
0.0000000001
 40
0.0
 40
0.0
 40
0.0
 40
0.0
 40
0.245958326
 40
0.4956468363
 40
0.7476883331
 40
1.0
 40
1.0
 40
1.0
 40
1.0
 10
501.4657917011
 20
110.4836632158
 30
0.0
 10
501.9434856546
 20
110.8973583147
 30
0.0
 10
503.01323537
 20
111.6142992411
 30
0.0
 10
504.8269578154
 20
112.2935723757
 30
0.0
 10
506.7612071028
 20
112.5594021561
 30
0.0
 10
508.064892972
 20
112.451845818
 30
0.0
 10
508.7011207918
 20
112.3275631328
 30
0.0
  0
SPLINE
  5
502
100
AcDbEntity
  8
KONSTRUKTIONSELEMENTE
100
AcDbSpline
 62
7
  6
CONTINUOUS
 70
0
 71
3
 72
11
 73
7
 74
0
 42
0.0000001
 43
0.0000001
 44
0.0000000001
 40
0.0
 40
0.0
 40
0.0
 40
0.0
 40
0.2532343944
 40
0.50377714
 40
0.752387739
 40
1.0
 40
1.0
 40
1.0
 40
1.0
 10
512.8601708267
 20
110.1933310661
 30
0.0
 10
513.1942944796
 20
109.8692692811
 30
0.0
 10
513.8008864491
 20
109.1609766238
 30
0.0
 10
514.484576162
 20
107.9487068124
 30
0.0
 10
514.9085487558
 20
106.6334585228
 30
0.0
 10
515.004369189
 20
105.7185964763
 30
0.0
 10
515.0045507429
 20
105.2634686036
 30
0.0
  0
SPLINE
  5
503
100
AcDbEntity
  8
KONSTRUKTIONSELEMENTE
100
AcDbSpline
 62
7
  6
CONTINUOUS
 70
0
 71
3
 72
13
 73
9
 74
0
 42
0.0000001
 43
0.0000001
 44
0.0000000001
 40
0.0
 40
0.0
 40
0.0
 40
0.0
 40
0.1233769833
 40
0.2483733747
 40
0.5003778919
 40
0.7521575176
 40
0.8768774439
 40
1.0
 40
1.0
 40
1.0
 40
1.0
 10
501.9368594851
 20
90.8541134128
 30
0.0
 10
501.5563515609
 20
90.524583884
 30
0.0
 10
500.7226392434
 20
89.9353784108
 30
0.0
 10
498.8575565933
 20
89.0826330127
 30
0.0
 10
496.2686882597
 20
88.665398516
 30
0.0
 10
493.6935976216
 20
89.1564165111
 30
0.0
 10
491.857620097
 20
90.063508456
 30
0.0
 10
491.0445515856
 20
90.6774676457
 30
0.0
 10
490.6756301888
 20
91.0183914651
 30
0.0
  0
LINE
  5
504
100
AcDbEntity
  8
BEZUGSACHSEN
100
AcDbLine
 62
7
  6
CONTINUOUS
 10
567.0726384255
 20
153.3848427623
 11
567.0681895166
 21
153.3648647719
  0
LINE
  5
505
100
AcDbEntity
  8
BEZUGSACHSEN
100
AcDbLine
 62
7
  6
CONTINUOUS
 10
567.0681895166
 20
153.3648647719
 11
567.0003020888
 21
153.0595617269
  0
LINE
  5
506
100
AcDbEntity
  8
BEZUGSACHSEN
100
AcDbLine
 62
7
  6
CONTINUOUS
 10
567.0223844162
 20
152.1470303277
 11
567.0200258828
 21
152.1830361653
  0
LINE
  5
507
100
AcDbEntity
  8
BEZUGSACHSEN
100
AcDbLine
 62
7
  6
CONTINUOUS
 10
567.0136720418
 20
152.2911142293
 11
567.0225455496
 21
152.3361192897
  0
LINE
  5
508
100
AcDbEntity
  8
BEZUGSACHSEN
100
AcDbLine
 62
7
  6
CONTINUOUS
 10
567.0225455496
 20
152.3361192897
 11
567.0257223811
 21
152.3522313328
  0
LINE
  5
509
100
AcDbEntity
  8
BEZUGSACHSEN
100
AcDbLine
 62
7
  6
CONTINUOUS
 10
567.0257223811
 20
152.3522313328
 11
567.0675786765
 21
152.5644980914
  0
LINE
  5
50A
100
AcDbEntity
  8
BEZUGSACHSEN
100
AcDbLine
 62
7
  6
CONTINUOUS
 10
566.9910423943
 20
153.5735243532
 11
567.0005358177
 21
153.6385508927
  0
SPLINE
  5
50B
100
AcDbEntity
  8
BEZUGSACHSEN
100
AcDbSpline
 62
7
  6
CONTINUOUS
 70
0
 71
3
 72
9
 73
5
 74
0
 42
0.0000001
 43
0.0000001
 44
0.0000000001
 40
0.0
 40
0.0
 40
0.0
 40
0.0
 40
0.2766747133
 40
1.0
 40
1.0
 40
1.0
 40
1.0
 10
567.7133169743
 20
157.6716914456
 30
0.0
 10
567.7113797509
 20
157.6693439814
 30
0.0
 10
567.704767793
 20
157.6605761577
 30
0.0
 10
567.6999520572
 20
157.6502349744
 30
0.0
 10
567.6985009892
 20
157.6424113936
 30
0.0
  0
LINE
  5
50C
100
AcDbEntity
  8
BEZUGSACHSEN
100
AcDbLine
 62
7
  6
CONTINUOUS
 10
567.0696664566
 20
154.2157391357
 11
567.1338937632
 21
154.5532554247
  0
LINE
  5
50D
100
AcDbEntity
  8
BEZUGSACHSEN
100
AcDbLine
 62
7
  6
CONTINUOUS
 10
567.1338937632
 20
154.5532554247
 11
567.213316707
 21
154.9772767645
  0
LINE
  5
50E
100
AcDbEntity
  8
BEZUGSACHSEN
100
AcDbLine
 62
7
  6
CONTINUOUS
 10
567.449593713
 20
156.2535929683
 11
567.213316707
 21
154.9772767645
  0
LINE
  5
50F
100
AcDbEntity
  8
BEZUGSACHSEN
100
AcDbLine
 62
7
  6
CONTINUOUS
 10
567.5277656896
 20
156.6804492566
 11
567.449593713
 21
156.2535929683
  0
LINE
  5
510
100
AcDbEntity
  8
BEZUGSACHSEN
100
AcDbLine
 62
7
  6
CONTINUOUS
 10
567.5897587452
 20
157.023634939
 11
567.5277656896
 21
156.6804492566
  0
LINE
  5
511
100
AcDbEntity
  8
BEZUGSACHSEN
100
AcDbLine
 62
7
  6
CONTINUOUS
 10
567.6513092271
 20
157.3696553315
 11
567.6049393869
 21
157.1093853576
  0
LINE
  5
512
100
AcDbEntity
  8
BEZUGSACHSEN
100
AcDbLine
 62
7
  6
CONTINUOUS
 10
567.6049393869
 20
157.1093853576
 11
567.5897587452
 21
157.023634939
  0
SPLINE
  5
513
100
AcDbEntity
  8
KONSTRUKTIONSELEMENTE
100
AcDbSpline
 62
7
  6
CONTINUOUS
 70
0
 71
3
 72
9
 73
5
 74
0
 42
0.0000001
 43
0.0000001
 44
0.0000000001
 40
0.0
 40
0.0
 40
0.0
 40
0.0
 40
0.4930472412
 40
1.0
 40
1.0
 40
1.0
 40
1.0
 10
549.6272273823
 20
127.9553097964
 30
0.0
 10
550.9017368518
 20
129.0590673744
 30
0.0
 10
553.3770572485
 20
131.4261187349
 30
0.0
 10
555.6411404102
 20
133.9948216721
 30
0.0
 10
556.7310006818
 20
135.3429555339
 30
0.0
  0
SPLINE
  5
514
100
AcDbEntity
  8
KONSTRUKTIONSELEMENTE
100
AcDbSpline
 62
7
  6
CONTINUOUS
 70
0
 71
3
 72
13
 73
9
 74
0
 42
0.0000001
 43
0.0000001
 44
0.0000000001
 40
0.0
 40
0.0
 40
0.0
 40
0.0
 40
0.2665751266
 40
0.3918281567
 40
0.5137342803
 40
0.7544185804
 40
0.8767044937
 40
1.0
 40
1.0
 40
1.0
 40
1.0
 10
564.6166823898
 20
149.3626295149
 30
0.0
 10
564.8380676684
 20
150.1774750442
 30
0.0
 10
565.0890829972
 20
151.4003250551
 30
0.0
 10
565.1812167781
 20
153.0281442901
 30
0.0
 10
565.0936651083
 20
154.5726523018
 30
0.0
 10
564.6822516146
 20
156.0864446348
 30
0.0
 10
563.8767159037
 20
157.4095555218
 30
0.0
 10
563.3411377952
 20
157.9832221979
 30
0.0
 10
563.0456577656
 20
158.2385936717
 30
0.0
  0
SPLINE
  5
515
100
AcDbEntity
  8
KONSTRUKTIONSELEMENTE
100
AcDbSpline
 62
7
  6
CONTINUOUS
 70
0
 71
3
 72
19
 73
15
 74
0
 42
0.0000001
 43
0.0000001
 44
0.0000000001
 40
0.0
 40
0.0
 40
0.0
 40
0.0
 40
0.1463712
 40
0.2968003233
 40
0.4441138256
 40
0.5815946947
 40
0.6450087779
 40
0.7043267543
 40
0.7594923199
 40
0.8108474075
 40
0.8592559102
 40
0.9060360039
 40
0.9526828682
 40
1.0
 40
1.0
 40
1.0
 40
1.0
 10
545.6993053581
 20
152.9908834726
 30
0.0
 10
544.3933259789
 20
151.8598721533
 30
0.0
 10
541.8600428585
 20
149.4315808869
 30
0.0
 10
538.4017307949
 20
145.4841017177
 30
0.0
 10
535.3598514201
 20
141.3365157516
 30
0.0
 10
533.2495948407
 20
137.7994488795
 30
0.0
 10
531.9207322599
 20
135.0283121755
 30
0.0
 10
531.1455256462
 20
133.0747176852
 30
0.0
 10
530.5763981572
 20
131.1990317858
 30
0.0
 10
530.2265724246
 20
129.4000451373
 30
0.0
 10
530.1219532058
 20
127.6671892621
 30
0.0
 10
530.3100541821
 20
125.9928061024
 30
0.0
 10
530.8603323426
 20
124.4082636219
 30
0.0
 10
531.5058683802
 20
123.4830829596
 30
0.0
 10
531.8911211722
 20
123.0787374708
 30
0.0
  0
SPLINE
  5
516
100
AcDbEntity
  8
KONSTRUKTIONSELEMENTE
100
AcDbSpline
 62
7
  6
CONTINUOUS
 70
0
 71
3
 72
29
 73
25
 74
0
 42
0.0000001
 43
0.0000001
 44
0.0000000001
 40
0.0
 40
0.0
 40
0.0
 40
0.0
 40
0.0038425111
 40
0.006877826
 40
0.0083401759
 40
0.0090978557
 40
0.0122169244
 40
0.0179337516
 40
0.0265411311
 40
0.0382974786
 40
0.0531437932
 40
0.0709517797
 40
0.0916105212
 40
0.1150179064
 40
0.1410570151
 40
0.1696072658
 40
0.2337651466
 40
0.3066512757
 40
0.3874470915
 40
0.475421617
 40
0.5698903892
 40
0.6702089349
 40
0.7757710248
 40
1.0
 40
1.0
 40
1.0
 40
1.0
 10
559.128602228
 20
153.701126683
 30
0.0
 10
559.139999857
 20
153.6924325862
 30
0.0
 10
559.1635132295
 20
153.6758495176
 30
0.0
 10
559.1800059894
 20
153.6621588937
 30
0.0
 10
559.2100090214
 20
153.6436466425
 30
0.0
 10
559.1830899512
 20
153.6498209595
 30
0.0
 10
559.1550418767
 20
153.6585023545
 30
0.0
 10
559.0866004299
 20
153.6699953162
 30
0.0
 10
558.9916786929
 20
153.6787370762
 30
0.0
 10
558.859355028
 20
153.680700904
 30
0.0
 10
558.6940945989
 20
153.6731014389
 30
0.0
 10
558.4960112889
 20
153.6529092561
 30
0.0
 10
558.2679054
 20
153.6170895663
 30
0.0
 10
558.0118482059
 20
153.5632787844
 30
0.0
 10
557.7299264753
 20
153.4909237512
 30
0.0
 10
557.3055158874
 20
153.3635484673
 30
0.0
 10
556.7248209975
 20
153.1510780399
 30
0.0
 10
555.980363508
 20
152.8240548623
 30
0.0
 10
555.1759197617
 20
152.4161549705
 30
0.0
 10
554.322329289
 20
151.9298724861
 30
0.0
 10
553.4288751075
 20
151.3685015975
 30
0.0
 10
552.5039043687
 20
150.7356115767
 30
0.0
 10
551.2125371515
 20
149.7828032514
 30
0.0
 10
550.2595757089
 20
149.0029395113
 30
0.0
 10
549.6272273823
 20
148.4553097964
 30
0.0
  0
SPLINE
  5
517
100
AcDbEntity
  8
KONSTRUKTIONSELEMENTE
100
AcDbSpline
 62
7
  6
CONTINUOUS
 70
0
 71
3
 72
9
 73
5
 74
0
 42
0.0000001
 43
0.0000001
 44
0.0000000001
 40
0.0
 40
0.0
 40
0.0
 40
0.0
 40
0.4908670988
 40
1.0
 40
1.0
 40
1.0
 40
1.0
 10
545.6993053581
 20
132.4908834726
 30
0.0
 10
546.723727653
 20
133.3780592042
 30
0.0
 10
548.7298854544
 20
135.2799136946
 30
0.0
 10
550.5824837968
 20
137.3308056879
 30
0.0
 10
551.4843427777
 20
138.408949425
 30
0.0
  0
SPLINE
  5
518
100
AcDbEntity
  8
KONSTRUKTIONSELEMENTE
100
AcDbSpline
 62
7
  6
CONTINUOUS
 70
0
 71
3
 72
9
 73
5
 74
0
 42
0.0000001
 43
0.0000001
 44
0.0000000001
 40
0.0
 40
0.0
 40
0.0
 40
0.0
 40
0.3121972729
 40
1.0
 40
1.0
 40
1.0
 40
1.0
 10
559.1518892205
 20
152.7747371932
 30
0.0
 10
559.1560846822
 20
152.8540659078
 30
0.0
 10
559.164010559
 20
153.1082556872
 30
0.0
 10
559.1500239904
 20
153.3642125738
 30
0.0
 10
559.1192030294
 20
153.5364908908
 30
0.0
  0
SPLINE
  5
519
100
AcDbEntity
  8
KONSTRUKTIONSELEMENTE
100
AcDbSpline
 62
7
  6
CONTINUOUS
 70
0
 71
3
 72
9
 73
5
 74
0
 42
0.0000001
 43
0.0000001
 44
0.0000000001
 40
0.0
 40
0.0
 40
0.0
 40
0.0
 40
0.2922909709
 40
1.0
 40
1.0
 40
1.0
 40
1.0
 10
559.1192030294
 20
153.5364908908
 30
0.0
 10
559.1166990017
 20
153.5504875237
 30
0.0
 10
559.1076231712
 20
153.5982788928
 30
0.0
 10
559.0967053124
 20
153.6457351157
 30
0.0
 10
559.0876387526
 20
153.6789471951
 30
0.0
  0
SPLINE
  5
51A
100
AcDbEntity
  8
KONSTRUKTIONSELEMENTE
100
AcDbSpline
 62
7
  6
CONTINUOUS
 70
0
 71
3
 72
9
 73
5
 74
0
 42
0.0000001
 43
0.0000001
 44
0.0000000001
 40
0.0
 40
0.0
 40
0.0
 40
0.0
 40
0.2129668983
 40
1.0
 40
1.0
 40
1.0
 40
1.0
 10
536.2185020067
 20
127.2802322074
 30
0.0
 10
536.2258035201
 20
127.2791167574
 30
0.0
 10
536.2601535378
 20
127.2743090491
 30
0.0
 10
536.2947408511
 20
127.2712627939
 30
0.0
 10
536.3219886461
 20
127.2696365903
 30
0.0
  0
SPLINE
  5
51B
100
AcDbEntity
  8
KONSTRUKTIONSELEMENTE
100
AcDbSpline
 62
7
  6
CONTINUOUS
 70
0
 71
3
 72
9
 73
5
 74
0
 42
0.0000001
 43
0.0000001
 44
0.0000000001
 40
0.0
 40
0.0
 40
0.0
 40
0.0
 40
0.23512902
 40
1.0
 40
1.0
 40
1.0
 40
1.0
 10
536.3219886461
 20
127.2696365903
 30
0.0
 10
536.3272337734
 20
127.2693235504
 30
0.0
 10
536.3495485718
 20
127.268116587
 30
0.0
 10
536.3718885045
 20
127.2673909125
 30
0.0
 10
536.3889779948
 20
127.2670608852
 30
0.0
  0
SPLINE
  5
51C
100
AcDbEntity
  8
KONSTRUKTIONSELEMENTE
100
AcDbSpline
 62
7
  6
CONTINUOUS
 70
0
 71
3
 72
9
 73
5
 74
0
 42
0.0000001
 43
0.0000001
 44
0.0000000001
 40
0.0
 40
0.0
 40
0.0
 40
0.0
 40
0.4751668021
 40
1.0
 40
1.0
 40
1.0
 40
1.0
 10
541.4632605658
 20
129.3068804162
 30
0.0
 10
542.1741589051
 20
129.7542163296
 30
0.0
 10
543.6255006782
 20
130.767356767
 30
0.0
 10
544.9980110042
 20
131.8835447466
 30
0.0
 10
545.6993053581
 20
132.4908834726
 30
0.0
  0
SPLINE
  5
51D
100
AcDbEntity
  8
KONSTRUKTIONSELEMENTE
100
AcDbSpline
 62
7
  6
CONTINUOUS
 70
0
 71
3
 72
17
 73
13
 74
0
 42
0.0000001
 43
0.0000001
 44
0.0000000001
 40
0.0
 40
0.0
 40
0.0
 40
0.0
 40
0.054272456
 40
0.1081063965
 40
0.1614219537
 40
0.2144031746
 40
0.3216905582
 40
0.4354499083
 40
0.5594736346
 40
0.6952881283
 40
0.8426555219
 40
1.0
 40
1.0
 40
1.0
 40
1.0
 10
563.0456577656
 20
158.2385936717
 30
0.0
 10
562.7781319247
 20
158.4698054674
 30
0.0
 10
562.2003851507
 20
158.8814753236
 30
0.0
 10
561.2392241027
 20
159.3217017185
 30
0.0
 10
560.2261156037
 20
159.5899379051
 30
0.0
 10
558.8374065229
 20
159.7337620421
 30
0.0
 10
557.0430868767
 20
159.5604767489
 30
0.0
 10
554.8792860775
 20
158.9191556252
 30
0.0
 10
552.6568177883
 20
157.9124270096
 30
0.0
 10
550.364160457
 20
156.5700653999
 30
0.0
 10
548.0148313794
 20
154.9167257633
 30
0.0
 10
546.4742279696
 20
153.6619861401
 30
0.0
 10
545.6993053581
 20
152.9908834726
 30
0.0
  0
SPLINE
  5
51E
100
AcDbEntity
  8
KONSTRUKTIONSELEMENTE
100
AcDbSpline
 62
7
  6
CONTINUOUS
 70
0
 71
3
 72
22
 73
18
 74
0
 42
0.0000001
 43
0.0000001
 44
0.0000000001
 40
0.0
 40
0.0
 40
0.0
 40
0.0
 40
0.162321669
 40
0.3306247035
 40
0.4967012546
 40
0.6523451692
 40
0.7237421349
 40
0.7894880903
 40
0.848533679
 40
0.8997486967
 40
0.941866517
 40
0.9590746233
 40
0.9734537589
 40
0.9848015971
 40
0.9930216311
 40
0.9980486857
 40
1.0
 40
1.0
 40
1.0
 40
1.0
 10
549.6272273823
 20
148.4553097964
 30
0.0
 10
548.5730359102
 20
147.5423532011
 30
0.0
 10
546.5112030151
 20
145.582694532
 30
0.0
 10
543.6581500983
 20
142.4038326941
 30
0.0
 10
541.0959928545
 20
139.057927845
 30
0.0
 10
539.2691377919
 20
136.2110218833
 30
0.0
 10
538.0746009819
 20
133.9960817952
 30
0.0
 10
537.3590022326
 20
132.4688883106
 30
0.0
 10
536.8073355298
 20
131.0595231764
 30
0.0
 10
536.4265400146
 20
129.805560604
 30
0.0
 10
536.237153585
 20
128.8725568083
 30
0.0
 10
536.1740834834
 20
128.24204843
 30
0.0
 10
536.1630147954
 20
127.8729341744
 30
0.0
 10
536.1793885668
 20
127.5814177957
 30
0.0
 10
536.2113722367
 20
127.3719819895
 30
0.0
 10
536.244076989
 20
127.2457039521
 30
0.0
 10
536.2631537017
 20
127.1884679983
 30
0.0
 10
536.2709745478
 20
127.1736396112
 30
0.0
  0
SPLINE
  5
51F
100
AcDbEntity
  8
KONSTRUKTIONSELEMENTE
100
AcDbSpline
 62
7
  6
CONTINUOUS
 70
0
 71
3
 72
11
 73
7
 74
0
 42
0.0000001
 43
0.0000001
 44
0.0000000001
 40
0.0
 40
0.0
 40
0.0
 40
0.0
 40
0.2097914905
 40
0.4448755675
 40
0.7092742741
 40
1.0
 40
1.0
 40
1.0
 40
1.0
 10
537.5302490252
 20
121.3353506561
 30
0.0
 10
538.4989307176
 20
121.4543432459
 30
0.0
 10
540.5161127225
 20
122.0085902957
 30
0.0
 10
543.4954983057
 20
123.4479659658
 30
0.0
 10
546.584475397
 20
125.4553764612
 30
0.0
 10
548.6048532539
 20
127.069907829
 30
0.0
 10
549.6272273823
 20
127.9553097964
 30
0.0
  0
SPLINE
  5
520
100
AcDbEntity
  8
0
100
AcDbSpline
 62
7
  6
CONTINUOUS
 70
0
 71
3
 72
13
 73
9
 74
0
 42
0.0000001
 43
0.0000001
 44
0.0000000001
 40
0.0
 40
0.0
 40
0.0
 40
0.0
 40
0.1163023557
 40
0.2340384021
 40
0.3543786332
 40
0.4780387852
 40
0.7344041874
 40
1.0
 40
1.0
 40
1.0
 40
1.0
 10
576.5584503212
 20
120.5044468427
 30
0.0
 10
576.5584503212
 20
120.2493834061
 30
0.0
 10
576.499562095
 20
119.7342586967
 30
0.0
 10
576.2390833563
 20
118.9956093429
 30
0.0
 10
575.8173209168
 20
118.3164783135
 30
0.0
 10
575.0558029124
 20
117.517155041
 30
0.0
 10
573.7950152285
 20
116.8006202052
 30
0.0
 10
572.6409301882
 20
116.6073325257
 30
0.0
 10
572.0584503212
 20
116.6073325257
 30
0.0
  0
SPLINE
  5
521
100
AcDbEntity
  8
0
100
AcDbSpline
 62
7
  6
CONTINUOUS
 70
0
 71
3
 72
13
 73
9
 74
0
 42
0.0000001
 43
0.0000001
 44
0.0000000001
 40
0.0
 40
0.0
 40
0.0
 40
0.0
 40
0.2655958126
 40
0.5219612148
 40
0.6456213668
 40
0.7659615979
 40
0.8836976443
 40
1.0
 40
1.0
 40
1.0
 40
1.0
 10
572.0584503212
 20
116.6073325257
 30
0.0
 10
571.4759704541
 20
116.6073325257
 30
0.0
 10
570.3218854138
 20
116.8006202052
 30
0.0
 10
569.0610977299
 20
117.517155041
 30
0.0
 10
568.2995797255
 20
118.3164783135
 30
0.0
 10
567.877817286
 20
118.9956093429
 30
0.0
 10
567.6173385473
 20
119.7342586967
 30
0.0
 10
567.5584503212
 20
120.2493834061
 30
0.0
 10
567.5584503212
 20
120.5044468427
 30
0.0
  0
SPLINE
  5
522
100
AcDbEntity
  8
KONSTRUKTIONSELEMENTE
100
AcDbSpline
 62
7
  6
CONTINUOUS
 70
0
 71
3
 72
9
 73
5
 74
0
 42
0.0000001
 43
0.0000001
 44
0.0000000001
 40
0.0
 40
0.0
 40
0.0
 40
0.0
 40
0.2417174596
 40
1.0
 40
1.0
 40
1.0
 40
1.0
 10
581.5753144962
 20
110.9214730102
 30
0.0
 10
581.6884454371
 20
111.0822314213
 30
0.0
 10
582.1428942673
 20
111.7568824551
 30
0.0
 10
582.5510932753
 20
112.4616144618
 30
0.0
 10
582.8462807678
 20
113.0030431637
 30
0.0
  0
SPLINE
  5
523
100
AcDbEntity
  8
KONSTRUKTIONSELEMENTE
100
AcDbSpline
 62
7
  6
CONTINUOUS
 70
0
 71
3
 72
10
 73
6
 74
0
 42
0.0000001
 43
0.0000001
 44
0.0000000001
 40
0.0
 40
0.0
 40
0.0
 40
0.0
 40
0.499171325
 40
0.7576142525
 40
1.0
 40
1.0
 40
1.0
 40
1.0
 10
582.9065265325
 20
110.7697814023
 30
0.0
 10
583.0109336214
 20
110.4860199242
 30
0.0
 10
583.1547712212
 20
110.0488980776
 30
0.0
 10
583.2798118382
 20
109.4556234651
 30
0.0
 10
583.3084503212
 20
109.1522424553
 30
0.0
 10
583.3084503212
 20
109.0054237387
 30
0.0
  0
SPLINE
  5
524
100
AcDbEntity
  8
KONSTRUKTIONSELEMENTE
100
AcDbSpline
 62
7
  6
CONTINUOUS
 70
0
 71
3
 72
10
 73
6
 74
0
 42
0.0000001
 43
0.0000001
 44
0.0000000001
 40
0.0
 40
0.0
 40
0.0
 40
0.0
 40
0.5565648577
 40
0.7985290681
 40
1.0
 40
1.0
 40
1.0
 40
1.0
 10
582.8462807678
 20
113.0030431637
 30
0.0
 10
582.9807133628
 20
113.2496175181
 30
0.0
 10
583.1531895039
 20
113.61735256
 30
0.0
 10
583.2839076698
 20
114.1059499894
 30
0.0
 10
583.3084503212
 20
114.3297952123
 30
0.0
 10
583.3084503212
 20
114.431456448
 30
0.0
  0
SPLINE
  5
525
100
AcDbEntity
  8
0
100
AcDbSpline
 62
7
  6
CONTINUOUS
 70
0
 71
3
 72
9
 73
5
 74
0
 42
0.0000001
 43
0.0000001
 44
0.0000000001
 40
0.0
 40
0.0
 40
0.0
 40
0.0
 40
0.4983025356
 40
1.0
 40
1.0
 40
1.0
 40
1.0
 10
560.8084503212
 20
98.9404196304
 30
0.0
 10
560.8084503212
 20
98.6933922854
 30
0.0
 10
560.8830615397
 20
98.1948993522
 30
0.0
 10
561.0991367954
 20
97.7402148456
 30
0.0
 10
561.2358915676
 20
97.5324771142
 30
0.0
  0
SPLINE
  5
526
100
AcDbEntity
  8
0
100
AcDbSpline
 62
7
  6
CONTINUOUS
 70
0
 71
3
 72
9
 73
5
 74
0
 42
0.0000001
 43
0.0000001
 44
0.0000000001
 40
0.0
 40
0.0
 40
0.0
 40
0.0
 40
0.5017090063
 40
1.0
 40
1.0
 40
1.0
 40
1.0
 10
561.2443492192
 20
125.7086660918
 30
0.0
 10
561.104979082
 20
125.4996108859
 30
0.0
 10
560.8846308323
 20
125.0411065478
 30
0.0
 10
560.8084503212
 20
124.5374818581
 30
0.0
 10
560.8084503212
 20
124.2879404918
 30
0.0
  0
SPLINE
  5
527
100
AcDbEntity
  8
0
100
AcDbSpline
 62
7
  6
CONTINUOUS
 70
0
 71
3
 72
9
 73
5
 74
0
 42
0.0000001
 43
0.0000001
 44
0.0000000001
 40
0.0
 40
0.0
 40
0.0
 40
0.0
 40
0.2483050497
 40
1.0
 40
1.0
 40
1.0
 40
1.0
 10
568.9969693518
 20
163.126693801
 30
0.0
 10
569.0060082012
 20
163.1754482154
 30
0.0
 10
569.0446425954
 20
163.3713794558
 30
0.0
 10
569.0919568399
 20
163.565576697
 30
0.0
 10
569.1318222541
 20
163.7102958149
 30
0.0
  0
SPLINE
  5
528
100
AcDbEntity
  8
RUNDUNGEN
100
AcDbSpline
 62
7
  6
CONTINUOUS
 70
0
 71
3
 72
9
 73
5
 74
0
 42
0.0000001
 43
0.0000001
 44
0.0000000001
 40
0.0
 40
0.0
 40
0.0
 40
0.0
 40
0.4986194922
 40
1.0
 40
1.0
 40
1.0
 40
1.0
 10
583.3084503212
 20
98.9404196304
 30
0.0
 10
583.3084503212
 20
98.7178308184
 30
0.0
 10
583.2480953897
 20
98.2694064138
 30
0.0
 10
583.0720714453
 20
97.8529944046
 30
0.0
 10
582.9596259062
 20
97.6594692104
 30
0.0
  0
SPLINE
  5
529
100
AcDbEntity
  8
RUNDUNGEN
100
AcDbSpline
 62
7
  6
CONTINUOUS
 70
0
 71
3
 72
9
 73
5
 74
0
 42
0.0000001
 43
0.0000001
 44
0.0000000001
 40
0.0
 40
0.0
 40
0.0
 40
0.0
 40
0.5017090063
 40
1.0
 40
1.0
 40
1.0
 40
1.0
 10
582.8725514231
 20
125.7086660918
 30
0.0
 10
583.0119215603
 20
125.4996108859
 30
0.0
 10
583.23226981
 20
125.0411065478
 30
0.0
 10
583.3084503212
 20
124.5374818581
 30
0.0
 10
583.3084503212
 20
124.2879404918
 30
0.0
  0
SPLINE
  5
52A
100
AcDbEntity
  8
0
100
AcDbSpline
 62
7
  6
CONTINUOUS
 70
0
 71
3
 72
9
 73
5
 74
0
 42
0.0000001
 43
0.0000001
 44
0.0000000001
 40
0.0
 40
0.0
 40
0.0
 40
0.0
 40
0.2471615168
 40
1.0
 40
1.0
 40
1.0
 40
1.0
 10
562.5415861461
 20
110.9214730102
 30
0.0
 10
562.6903097519
 20
110.7101376288
 30
0.0
 10
563.3249579081
 20
109.8785862443
 30
0.0
 10
564.0872646027
 20
109.1456999243
 30
0.0
 10
564.7099302863
 20
108.6641741299
 30
0.0
  0
SPLINE
  5
52B
100
AcDbEntity
  8
0
100
AcDbSpline
 62
7
  6
CONTINUOUS
 70
0
 71
3
 72
17
 73
13
 74
0
 42
0.0000001
 43
0.0000001
 44
0.0000000001
 40
0.0
 40
0.0
 40
0.0
 40
0.0
 40
0.0585928805
 40
0.1183601573
 40
0.2414749644
 40
0.3693378469
 40
0.5
 40
0.6306621531
 40
0.7585250356
 40
0.8816398427
 40
0.9414071195
 40
1.0
 40
1.0
 40
1.0
 40
1.0
 10
563.5343866864
 20
109.7157094139
 30
0.0
 10
563.6990020858
 20
109.3417119728
 30
0.0
 10
564.0961216244
 20
108.6129152939
 30
0.0
 10
565.1322915886
 20
107.277999783
 30
0.0
 10
566.8488517985
 20
105.8982453338
 30
0.0
 10
569.3362187637
 20
104.864661462
 30
0.0
 10
572.0584503212
 20
104.5101079801
 30
0.0
 10
574.7806818786
 20
104.864661462
 30
0.0
 10
577.2680488438
 20
105.8982453338
 30
0.0
 10
578.9846090537
 20
107.277999783
 30
0.0
 10
580.0207790179
 20
108.6129152939
 30
0.0
 10
580.4178985565
 20
109.3417119728
 30
0.0
 10
580.5825139559
 20
109.7157094139
 30
0.0
  0
SPLINE
  5
52C
100
AcDbEntity
  8
0
100
AcDbSpline
 62
7
  6
CONTINUOUS
 70
0
 71
3
 72
9
 73
5
 74
0
 42
0.0000001
 43
0.0000001
 44
0.0000000001
 40
0.0
 40
0.0
 40
0.0
 40
0.0
 40
0.2534600419
 40
1.0
 40
1.0
 40
1.0
 40
1.0
 10
579.4060333059
 20
108.6634495619
 30
0.0
 10
579.6157574149
 20
108.8255993587
 30
0.0
 10
580.4198986891
 20
109.4947919587
 30
0.0
 10
581.1259469426
 20
110.2829243221
 30
0.0
 10
581.5753144962
 20
110.9214730102
 30
0.0
  0
SPLINE
  5
52D
100
AcDbEntity
  8
0
100
AcDbSpline
 62
7
  6
CONTINUOUS
 70
0
 71
3
 72
9
 73
5
 74
0
 42
0.0000001
 43
0.0000001
 44
0.0000000001
 40
0.0
 40
0.0
 40
0.0
 40
0.0
 40
0.2483050497
 40
1.0
 40
1.0
 40
1.0
 40
1.0
 10
575.1199312905
 20
163.126693801
 30
0.0
 10
575.1108924411
 20
163.1754482154
 30
0.0
 10
575.0722580469
 20
163.3713794558
 30
0.0
 10
575.0249438024
 20
163.565576697
 30
0.0
 10
574.9850783882
 20
163.7102958149
 30
0.0
  0
SPLINE
  5
52E
100
AcDbEntity
  8
0
100
AcDbSpline
 62
7
  6
CONTINUOUS
 70
0
 71
3
 72
9
 73
5
 74
0
 42
0.0000001
 43
0.0000001
 44
0.0000000001
 40
0.0
 40
0.0
 40
0.0
 40
0.0
 40
0.2417174596
 40
1.0
 40
1.0
 40
1.0
 40
1.0
 10
562.5415861461
 20
110.9214730102
 30
0.0
 10
562.4284552052
 20
111.0822314213
 30
0.0
 10
561.974006375
 20
111.7568824551
 30
0.0
 10
561.5658073671
 20
112.4616144618
 30
0.0
 10
561.2706198745
 20
113.0030431637
 30
0.0
  0
SPLINE
  5
52F
100
AcDbEntity
  8
0
100
AcDbSpline
 62
7
  6
CONTINUOUS
 70
0
 71
3
 72
10
 73
6
 74
0
 42
0.0000001
 43
0.0000001
 44
0.0000000001
 40
0.0
 40
0.0
 40
0.0
 40
0.0
 40
0.499171325
 40
0.7576142525
 40
1.0
 40
1.0
 40
1.0
 40
1.0
 10
561.2103741098
 20
110.7697814023
 30
0.0
 10
561.1059670209
 20
110.4860199242
 30
0.0
 10
560.9621294211
 20
110.0488980776
 30
0.0
 10
560.8370888041
 20
109.4556234651
 30
0.0
 10
560.8084503212
 20
109.1522424553
 30
0.0
 10
560.8084503212
 20
109.0054237387
 30
0.0
  0
SPLINE
  5
530
100
AcDbEntity
  8
0
100
AcDbSpline
 62
7
  6
CONTINUOUS
 70
0
 71
3
 72
10
 73
6
 74
0
 42
0.0000001
 43
0.0000001
 44
0.0000000001
 40
0.0
 40
0.0
 40
0.0
 40
0.0
 40
0.5565648577
 40
0.7985290681
 40
1.0
 40
1.0
 40
1.0
 40
1.0
 10
561.2706198745
 20
113.0030431637
 30
0.0
 10
561.1361872795
 20
113.2496175181
 30
0.0
 10
560.9637111384
 20
113.61735256
 30
0.0
 10
560.8329929726
 20
114.1059499894
 30
0.0
 10
560.8084503212
 20
114.3297952123
 30
0.0
 10
560.8084503212
 20
114.431456448
 30
0.0
  0
LINE
  5
531
100
AcDbEntity
  8
BEZUGSACHSEN
100
AcDbLine
 62
7
  6
CONTINUOUS
 10
576.7557175095
 20
154.6737405913
 11
576.7899174019
 21
154.5216127377
  0
LINE
  5
532
100
AcDbEntity
  8
BEZUGSACHSEN
100
AcDbLine
 62
7
  6
CONTINUOUS
 10
576.7899174019
 20
154.5216127377
 11
576.8220466248
 21
154.3785511848
  0
LINE
  5
533
100
AcDbEntity
  8
BEZUGSACHSEN
100
AcDbLine
 62
7
  6
CONTINUOUS
 10
576.8220466248
 20
154.3785511848
 11
576.8492262548
 21
154.2574156258
  0
LINE
  5
534
100
AcDbEntity
  8
BEZUGSACHSEN
100
AcDbLine
 62
7
  6
CONTINUOUS
 10
576.8492262548
 20
154.2574156258
 11
576.9085832548
 21
153.9924948058
  0
SPLINE
  5
535
100
AcDbEntity
  8
BEZUGSACHSEN
100
AcDbSpline
 62
7
  6
CONTINUOUS
 70
0
 71
3
 72
8
 73
4
 74
0
 42
0.0000001
 43
0.0000001
 44
0.0000000001
 40
0.0
 40
0.0
 40
0.0
 40
0.0
 40
1.0
 40
1.0
 40
1.0
 40
1.0
 10
576.9085832548
 20
153.9924948058
 30
0.0
 10
576.9781770699
 20
153.6815741653
 30
0.0
 10
577.0475342546
 20
153.3706004165
 30
0.0
 10
577.1165985535
 20
153.0595617269
 30
0.0
  0
LINE
  5
536
100
AcDbEntity
  8
BEZUGSACHSEN
100
AcDbLine
 62
7
  6
CONTINUOUS
 10
576.7239069207
 20
154.9289534153
 11
576.6601269663
 21
155.319309191
  0
LINE
  5
537
100
AcDbEntity
  8
BEZUGSACHSEN
100
AcDbLine
 62
7
  6
CONTINUOUS
 10
576.6601269663
 20
155.319309191
 11
576.6124993952
 21
155.5820585205
  0
LINE
  5
538
100
AcDbEntity
  8
BEZUGSACHSEN
100
AcDbLine
 62
7
  6
CONTINUOUS
 10
576.5494284357
 20
155.9003725684
 11
576.6124993952
 21
155.5820585205
  0
LINE
  5
539
100
AcDbEntity
  8
BEZUGSACHSEN
100
AcDbLine
 62
7
  6
CONTINUOUS
 10
576.5024349666
 20
156.1150939765
 11
576.5259922221
 21
156.0074878166
  0
LINE
  5
53A
100
AcDbEntity
  8
BEZUGSACHSEN
100
AcDbLine
 62
7
  6
CONTINUOUS
 10
576.5259922221
 20
156.0074878166
 11
576.5494284357
 21
155.9003725684
  0
LINE
  5
53B
100
AcDbEntity
  8
BEZUGSACHSEN
100
AcDbLine
 62
7
  6
CONTINUOUS
 10
576.4400051289
 20
156.3613658507
 11
576.5024349666
 21
156.1150939765
  0
SPLINE
  5
53C
100
AcDbEntity
  8
BEZUGSACHSEN
100
AcDbSpline
 62
7
  6
CONTINUOUS
 70
0
 71
3
 72
8
 73
4
 74
0
 42
0.0000001
 43
0.0000001
 44
0.0000000001
 40
0.0
 40
0.0
 40
0.0
 40
0.0
 40
1.0
 40
1.0
 40
1.0
 40
1.0
 10
577.0544665316
 20
154.1745895674
 30
0.0
 10
577.0589016267
 20
154.1689103718
 30
0.0
 10
577.0626508178
 20
154.1624146022
 30
0.0
 10
577.0645326632
 20
154.155458886
 30
0.0
  0
LINE
  5
53D
100
AcDbEntity
  8
BEZUGSACHSEN
100
AcDbLine
 62
7
  6
CONTINUOUS
 10
577.0645326632
 20
154.155458886
 11
577.0652566393
 21
154.1522835776
  0
LINE
  5
53E
100
AcDbEntity
  8
BEZUGSACHSEN
100
AcDbLine
 62
7
  6
CONTINUOUS
 10
577.1032286005
 20
152.2911142293
 11
577.0943550928
 21
152.3361192897
  0
LINE
  5
53F
100
AcDbEntity
  8
BEZUGSACHSEN
100
AcDbLine
 62
7
  6
CONTINUOUS
 10
577.0943550928
 20
152.3361192897
 11
576.9679048948
 21
152.9773023381
  0
LINE
  5
540
100
AcDbEntity
  8
BEZUGSACHSEN
100
AcDbLine
 62
7
  6
CONTINUOUS
 10
576.9679048948
 20
152.9773023381
 11
576.7735587239
 21
153.9622620335
  0
LINE
  5
541
100
AcDbEntity
  8
BEZUGSACHSEN
100
AcDbLine
 62
7
  6
CONTINUOUS
 10
577.0657133832
 20
154.149077078
 11
577.06443148
 21
154.1557549654
  0
LINE
  5
542
100
AcDbEntity
  8
BEZUGSACHSEN
100
AcDbLine
 62
7
  6
CONTINUOUS
 10
577.0540626192
 20
154.2086451365
 11
577.0500726362
 21
154.2284953803
  0
LINE
  5
543
100
AcDbEntity
  8
BEZUGSACHSEN
100
AcDbLine
 62
7
  6
CONTINUOUS
 10
576.6793096108
 20
154.439732771
 11
576.4435954103
 21
155.6334098376
  0
LINE
  5
544
100
AcDbEntity
  8
BEZUGSACHSEN
100
AcDbLine
 62
7
  6
CONTINUOUS
 10
577.0500726362
 20
154.2284953803
 11
577.0341695226
 21
154.3112447727
  0
LINE
  5
545
100
AcDbEntity
  8
BEZUGSACHSEN
100
AcDbLine
 62
7
  6
CONTINUOUS
 10
577.0341695226
 20
154.3112447727
 11
577.026143173
 21
154.3527787201
  0
LINE
  5
546
100
AcDbEntity
  8
BEZUGSACHSEN
100
AcDbLine
 62
7
  6
CONTINUOUS
 10
577.026143173
 20
154.3527787201
 11
577.0180669788
 21
154.3944188363
  0
LINE
  5
547
100
AcDbEntity
  8
BEZUGSACHSEN
100
AcDbLine
 62
7
  6
CONTINUOUS
 10
577.0180669788
 20
154.3944188363
 11
576.9822470805
 21
154.5833808267
  0
LINE
  5
548
100
AcDbEntity
  8
BEZUGSACHSEN
100
AcDbLine
 62
7
  6
CONTINUOUS
 10
576.9822470805
 20
154.5833808267
 11
576.9701921363
 21
154.6468473268
  0
LINE
  5
549
100
AcDbEntity
  8
BEZUGSACHSEN
100
AcDbLine
 62
7
  6
CONTINUOUS
 10
576.4112615538
 20
157.4904228025
 11
576.4617246319
 21
157.2220638833
  0
LINE
  5
54A
100
AcDbEntity
  8
BEZUGSACHSEN
100
AcDbLine
 62
7
  6
CONTINUOUS
 10
576.4617246319
 20
157.2220638833
 11
576.8871981237
 21
154.9592439398
  0
LINE
  5
54B
100
AcDbEntity
  8
BEZUGSACHSEN
100
AcDbLine
 62
7
  6
CONTINUOUS
 10
576.9701921363
 20
154.6468473268
 11
576.9543976813
 21
154.7312704243
  0
LINE
  5
54C
100
AcDbEntity
  8
BEZUGSACHSEN
100
AcDbLine
 62
7
  6
CONTINUOUS
 10
576.9543976813
 20
154.7312704243
 11
576.9385621234
 21
154.815900388
  0
LINE
  5
54D
100
AcDbEntity
  8
BEZUGSACHSEN
100
AcDbLine
 62
7
  6
CONTINUOUS
 10
576.9385621234
 20
154.815900388
 11
576.9109044486
 21
154.9636810747
  0
LINE
  5
54E
100
AcDbEntity
  8
BEZUGSACHSEN
100
AcDbLine
 62
7
  6
CONTINUOUS
 10
576.9109044486
 20
154.9636810747
 11
576.9067677751
 21
154.9857809276
  0
LINE
  5
54F
100
AcDbEntity
  8
BEZUGSACHSEN
100
AcDbLine
 62
7
  6
CONTINUOUS
 10
576.942277015
 20
154.2860517504
 11
576.9914139041
 21
154.0578363449
  0
LINE
  5
550
100
AcDbEntity
  8
BEZUGSACHSEN
100
AcDbLine
 62
7
  6
CONTINUOUS
 10
576.8783601806
 20
154.6097551076
 11
576.942277015
 21
154.2860517504
  0
LINE
  5
551
100
AcDbEntity
  8
BEZUGSACHSEN
100
AcDbLine
 62
7
  6
CONTINUOUS
 10
576.8783601806
 20
154.6097551076
 11
576.8626065465
 21
154.6937827478
  0
LINE
  5
552
100
AcDbEntity
  8
BEZUGSACHSEN
100
AcDbLine
 62
7
  6
CONTINUOUS
 10
576.8626065465
 20
154.6937827478
 11
576.815300267
 21
154.9460900482
  0
LINE
  5
553
100
AcDbEntity
  8
BEZUGSACHSEN
100
AcDbLine
 62
7
  6
CONTINUOUS
 10
576.815300267
 20
154.9460900482
 11
576.7588208995
 21
155.2472883617
  0
LINE
  5
554
100
AcDbEntity
  8
BEZUGSACHSEN
100
AcDbLine
 62
7
  6
CONTINUOUS
 10
576.7588208995
 20
155.2472883617
 11
576.7424205378
 21
155.3347431141
  0
LINE
  5
555
100
AcDbEntity
  8
BEZUGSACHSEN
100
AcDbLine
 62
7
  6
CONTINUOUS
 10
576.7424205378
 20
155.3347431141
 11
576.6932000509
 21
155.5971936889
  0
LINE
  5
556
100
AcDbEntity
  8
BEZUGSACHSEN
100
AcDbLine
 62
7
  6
CONTINUOUS
 10
576.6932000509
 20
155.5971936889
 11
576.6377252554
 21
155.8929634803
  0
LINE
  5
557
100
AcDbEntity
  8
BEZUGSACHSEN
100
AcDbLine
 62
7
  6
CONTINUOUS
 10
576.6377252554
 20
155.8929634803
 11
576.6333815274
 21
155.9161212515
  0
LINE
  5
558
100
AcDbEntity
  8
BEZUGSACHSEN
100
AcDbLine
 62
7
  6
CONTINUOUS
 10
576.6333815274
 20
155.9161212515
 11
576.5928760891
 21
156.1320597312
  0
LINE
  5
559
100
AcDbEntity
  8
BEZUGSACHSEN
100
AcDbLine
 62
7
  6
CONTINUOUS
 10
576.5928760891
 20
156.1320597312
 11
576.5461254756
 21
156.3812728622
  0
LINE
  5
55A
100
AcDbEntity
  8
BEZUGSACHSEN
100
AcDbLine
 62
7
  6
CONTINUOUS
 10
576.5461254756
 20
156.3812728622
 11
576.5186676561
 21
156.527632855
  0
LINE
  5
55B
100
AcDbEntity
  8
BEZUGSACHSEN
100
AcDbLine
 62
7
  6
CONTINUOUS
 10
576.5186676561
 20
156.527632855
 11
576.5150753123
 21
156.5467808388
  0
LINE
  5
55C
100
AcDbEntity
  8
BEZUGSACHSEN
100
AcDbLine
 62
7
  6
CONTINUOUS
 10
576.5150753123
 20
156.5467808388
 11
576.4033300721
 21
157.1423530297
  0
LINE
  5
55D
100
AcDbEntity
  8
BEZUGSACHSEN
100
AcDbLine
 62
7
  6
CONTINUOUS
 10
576.4033300721
 20
157.1423530297
 11
576.3908727815
 21
157.2087407489
  0
LINE
  5
55E
100
AcDbEntity
  8
BEZUGSACHSEN
100
AcDbLine
 62
7
  6
CONTINUOUS
 10
576.5256501537
 20
157.0590832343
 11
576.5295536815
 21
157.0363911837
  0
LINE
  5
55F
100
AcDbEntity
  8
BEZUGSACHSEN
100
AcDbLine
 62
7
  6
CONTINUOUS
 10
577.0942702617
 20
153.7877993787
 11
577.0625933713
 21
153.9775063966
  0
LINE
  5
560
100
AcDbEntity
  8
BEZUGSACHSEN
100
AcDbLine
 62
7
  6
CONTINUOUS
 10
577.0625933713
 20
153.9775063966
 11
577.0465184755
 21
154.0733114672
  0
LINE
  5
561
100
AcDbEntity
  8
BEZUGSACHSEN
100
AcDbLine
 62
7
  6
CONTINUOUS
 10
577.0465184755
 20
154.0733114672
 11
577.0302857104
 21
154.1697508817
  0
SPLINE
  5
562
100
AcDbEntity
  8
BEZUGSACHSEN
100
AcDbSpline
 62
7
  6
CONTINUOUS
 70
0
 71
3
 72
9
 73
5
 74
0
 42
0.0000001
 43
0.0000001
 44
0.0000000001
 40
0.0
 40
0.0
 40
0.0
 40
0.0
 40
0.2766747133
 40
1.0
 40
1.0
 40
1.0
 40
1.0
 10
576.403583668
 20
157.6716914456
 30
0.0
 10
576.4055208914
 20
157.6693439814
 30
0.0
 10
576.4121328493
 20
157.6605761577
 30
0.0
 10
576.4169485851
 20
157.6502349744
 30
0.0
 10
576.4183996531
 20
157.6424113936
 30
0.0
  0
LINE
  5
563
100
AcDbEntity
  8
BEZUGSACHSEN
100
AcDbLine
 62
7
  6
CONTINUOUS
 10
577.0302857104
 20
154.1697508817
 11
576.9985285196
 21
154.3483367141
  0
LINE
  5
564
100
AcDbEntity
  8
BEZUGSACHSEN
100
AcDbLine
 62
7
  6
CONTINUOUS
 10
576.9985285196
 20
154.3483367141
 11
576.9664629
 21
154.5284031142
  0
LINE
  5
565
100
AcDbEntity
  8
BEZUGSACHSEN
100
AcDbLine
 62
7
  6
CONTINUOUS
 10
576.9664629
 20
154.5284031142
 11
576.9467262946
 21
154.6356965551
  0
LINE
  5
566
100
AcDbEntity
  8
BEZUGSACHSEN
100
AcDbLine
 62
7
  6
CONTINUOUS
 10
576.9467262946
 20
154.6356965551
 11
576.9269366154
 21
154.743267837
  0
LINE
  5
567
100
AcDbEntity
  8
BEZUGSACHSEN
100
AcDbLine
 62
7
  6
CONTINUOUS
 10
576.9269366154
 20
154.743267837
 11
576.8871981237
 21
154.9592439398
  0
SPLINE
  5
568
100
AcDbEntity
  8
0
100
AcDbSpline
 62
7
  6
CONTINUOUS
 70
0
 71
3
 72
12
 73
8
 74
0
 42
0.0000001
 43
0.0000001
 44
0.0000000001
 40
0.0
 40
0.0
 40
0.0
 40
0.0
 40
0.2644958639
 40
0.5210805506
 40
0.7653379815
 40
0.8836492628
 40
1.0
 40
1.0
 40
1.0
 40
1.0
 10
572.0584503212
 20
123.9015611597
 30
0.0
 10
572.5948306292
 20
123.9015611597
 30
0.0
 10
573.6593930539
 20
123.7363934821
 30
0.0
 10
575.0651241437
 20
123.0177653505
 30
0.0
 10
575.9412001318
 20
122.0739682968
 30
0.0
 10
576.368807699
 20
121.195880222
 30
0.0
 10
576.4878895974
 20
120.7309452566
 30
0.0
 10
576.5222846535
 20
120.4975139459
 30
0.0
  0
SPLINE
  5
569
100
AcDbEntity
  8
0
100
AcDbSpline
 62
7
  6
CONTINUOUS
 70
0
 71
3
 72
12
 73
8
 74
0
 42
0.0000001
 43
0.0000001
 44
0.0000000001
 40
0.0
 40
0.0
 40
0.0
 40
0.0
 40
0.2644958639
 40
0.5210805506
 40
0.7653379815
 40
0.8836492628
 40
1.0
 40
1.0
 40
1.0
 40
1.0
 10
572.0584503212
 20
123.9015611597
 30
0.0
 10
571.5220700132
 20
123.9015611597
 30
0.0
 10
570.4575075884
 20
123.7363934821
 30
0.0
 10
569.0517764986
 20
123.0177653505
 30
0.0
 10
568.1757005106
 20
122.0739682968
 30
0.0
 10
567.7480929433
 20
121.195880222
 30
0.0
 10
567.6290110449
 20
120.7309452566
 30
0.0
 10
567.5946159888
 20
120.4975139459
 30
0.0
  0
SPLINE
  5
56A
100
AcDbEntity
  8
0
100
AcDbSpline
 62
7
  6
CONTINUOUS
 70
0
 71
3
 72
9
 73
5
 74
0
 42
0.0000001
 43
0.0000001
 44
0.0000000001
 40
0.0
 40
0.0
 40
0.0
 40
0.0
 40
0.5000522933
 40
1.0
 40
1.0
 40
1.0
 40
1.0
 10
574.9850783882
 20
157.1024584892
 30
0.0
 10
575.104501315
 20
155.2966609467
 30
0.0
 10
575.2595702796
 20
151.6791406204
 30
0.0
 10
575.2192428768
 20
148.0582650918
 30
0.0
 10
575.1520485376
 20
146.2501495943
 30
0.0
  0
SPLINE
  5
56B
100
AcDbEntity
  8
0
100
AcDbSpline
 62
7
  6
CONTINUOUS
 70
0
 71
3
 72
11
 73
7
 74
0
 42
0.0000001
 43
0.0000001
 44
0.0000000001
 40
0.0
 40
0.0
 40
0.0
 40
0.0
 40
0.2884727134
 40
0.5560355973
 40
0.7934838727
 40
1.0
 40
1.0
 40
1.0
 40
1.0
 10
560.8084503212
 20
102.4493828128
 30
0.0
 10
560.8084503212
 20
102.3092007215
 30
0.0
 10
560.825162802
 20
102.0384503705
 30
0.0
 10
560.9118914541
 20
101.660471168
 30
0.0
 10
561.0582065982
 20
101.3439739793
 30
0.0
 10
561.1965221936
 20
101.1745120986
 30
0.0
 10
561.2706198745
 20
101.1068305845
 30
0.0
  0
SPLINE
  5
56C
100
AcDbEntity
  8
0
100
AcDbSpline
 62
7
  6
CONTINUOUS
 70
0
 71
3
 72
9
 73
5
 74
0
 42
0.0000001
 43
0.0000001
 44
0.0000000001
 40
0.0
 40
0.0
 40
0.0
 40
0.0
 40
0.5000000001
 40
1.0
 40
1.0
 40
1.0
 40
1.0
 10
574.9850783882
 20
163.7102958149
 30
0.0
 10
575.1390387085
 20
162.6169115462
 30
0.0
 10
575.3080160424
 20
160.4063771519
 30
0.0
 10
575.1390387084
 20
158.1958427575
 30
0.0
 10
574.9850783882
 20
157.1024584892
 30
0.0
  0
SPLINE
  5
56D
100
AcDbEntity
  8
0
100
AcDbSpline
 62
7
  6
CONTINUOUS
 70
0
 71
3
 72
9
 73
5
 74
0
 42
0.0000001
 43
0.0000001
 44
0.0000000001
 40
0.0
 40
0.0
 40
0.0
 40
0.0
 40
0.5000000001
 40
1.0
 40
1.0
 40
1.0
 40
1.0
 10
569.1318222541
 20
163.7102958149
 30
0.0
 10
568.9778619338
 20
162.6169115462
 30
0.0
 10
568.8088845999
 20
160.4063771519
 30
0.0
 10
568.9778619339
 20
158.1958427575
 30
0.0
 10
569.1318222541
 20
157.1024584892
 30
0.0
  0
SPLINE
  5
56E
100
AcDbEntity
  8
0
100
AcDbSpline
 62
7
  6
CONTINUOUS
 70
0
 71
3
 72
9
 73
5
 74
0
 42
0.0000001
 43
0.0000001
 44
0.0000000001
 40
0.0
 40
0.0
 40
0.0
 40
0.0
 40
0.5000522933
 40
1.0
 40
1.0
 40
1.0
 40
1.0
 10
569.1318222541
 20
157.1024584892
 30
0.0
 10
569.0123993273
 20
155.2966609467
 30
0.0
 10
568.8573303628
 20
151.6791406204
 30
0.0
 10
568.8976577655
 20
148.0582650918
 30
0.0
 10
568.9648521047
 20
146.2501495943
 30
0.0
  0
SPLINE
  5
56F
100
AcDbEntity
  8
0
100
AcDbSpline
 62
7
  6
CONTINUOUS
 70
0
 71
3
 72
13
 73
9
 74
0
 42
0.0000001
 43
0.0000001
 44
0.0000000001
 40
0.0
 40
0.0
 40
0.0
 40
0.0
 40
0.2655958126
 40
0.5219612148
 40
0.6456213668
 40
0.7659615979
 40
0.8836976443
 40
1.0
 40
1.0
 40
1.0
 40
1.0
 10
572.0584503212
 20
124.4015611597
 30
0.0
 10
572.6409301882
 20
124.4015611597
 30
0.0
 10
573.7950152285
 20
124.2082734802
 30
0.0
 10
575.0558029124
 20
123.4917386445
 30
0.0
 10
575.8173209168
 20
122.6924153719
 30
0.0
 10
576.2390833563
 20
122.0132843425
 30
0.0
 10
576.499562095
 20
121.2746349887
 30
0.0
 10
576.5584503212
 20
120.7595102793
 30
0.0
 10
576.5584503212
 20
120.5044468427
 30
0.0
  0
SPLINE
  5
570
100
AcDbEntity
  8
0
100
AcDbSpline
 62
7
  6
CONTINUOUS
 70
0
 71
3
 72
9
 73
5
 74
0
 42
0.0000001
 43
0.0000001
 44
0.0000000001
 40
0.0
 40
0.0
 40
0.0
 40
0.0
 40
0.4922897873
 40
1.0
 40
1.0
 40
1.0
 40
1.0
 10
568.8628724685
 20
105.1276515781
 30
0.0
 10
569.3057596333
 20
104.7854765335
 30
0.0
 10
570.3369367832
 20
104.2504724725
 30
0.0
 10
571.4812471734
 20
104.0725249046
 30
0.0
 10
572.0584503212
 20
104.0725249046
 30
0.0
  0
SPLINE
  5
571
100
AcDbEntity
  8
0
100
AcDbSpline
 62
7
  6
CONTINUOUS
 70
0
 71
3
 72
21
 73
17
 74
0
 42
0.0000001
 43
0.0000001
 44
0.0000000001
 40
0.0
 40
0.0
 40
0.0
 40
0.0
 40
0.0580894532
 40
0.116890925
 40
0.1769961556
 40
0.2387585136
 40
0.3022670717
 40
0.367347063
 40
0.5
 40
0.632652937
 40
0.6977329283
 40
0.7612414864
 40
0.8230038444
 40
0.883109075
 40
0.9419105468
 40
1.0
 40
1.0
 40
1.0
 40
1.0
 10
581.1806111005
 20
107.979165501
 30
0.0
 10
581.1806111005
 20
107.4620994378
 30
0.0
 10
581.0612653402
 20
106.4178729853
 30
0.0
 10
580.5331242056
 20
104.9205135291
 30
0.0
 10
579.6784088102
 20
103.5439240871
 30
0.0
 10
578.5324380843
 20
102.3415955003
 30
0.0
 10
577.1403225186
 20
101.3576681072
 30
0.0
 10
575.0184101501
 20
100.3800921173
 30
0.0
 10
572.0584503212
 20
99.8772447104
 30
0.0
 10
569.0984904922
 20
100.3800921173
 30
0.0
 10
566.9765781237
 20
101.3576681072
 30
0.0
 10
565.584462558
 20
102.3415955003
 30
0.0
 10
564.4384918321
 20
103.5439240871
 30
0.0
 10
563.5837764367
 20
104.9205135291
 30
0.0
 10
563.0556353021
 20
106.4178729853
 30
0.0
 10
562.9362895418
 20
107.4620994378
 30
0.0
 10
562.9362895418
 20
107.979165501
 30
0.0
  0
SPLINE
  5
572
100
AcDbEntity
  8
0
100
AcDbSpline
 62
7
  6
CONTINUOUS
 70
0
 71
3
 72
9
 73
5
 74
0
 42
0.0000001
 43
0.0000001
 44
0.0000000001
 40
0.0
 40
0.0
 40
0.0
 40
0.0
 40
0.5077102127
 40
1.0
 40
1.0
 40
1.0
 40
1.0
 10
572.0584503212
 20
104.0725249046
 30
0.0
 10
572.6356534689
 20
104.0725249046
 30
0.0
 10
573.7799638591
 20
104.2504724725
 30
0.0
 10
574.811141009
 20
104.7854765335
 30
0.0
 10
575.2540281738
 20
105.1276515781
 30
0.0
  0
SPLINE
  5
573
100
AcDbEntity
  8
0
100
AcDbSpline
 62
7
  6
CONTINUOUS
 70
0
 71
3
 72
15
 73
11
 74
0
 42
0.0000001
 43
0.0000001
 44
0.0000000001
 40
0.0
 40
0.0
 40
0.0
 40
0.0
 40
0.1182244008
 40
0.2417576632
 40
0.3696586017
 40
0.5
 40
0.6303413983
 40
0.7582423368
 40
0.8817755992
 40
1.0
 40
1.0
 40
1.0
 40
1.0
 10
581.5753144962
 20
99.6963000031
 30
0.0
 10
581.0615506248
 20
99.0147403759
 30
0.0
 10
579.8141890481
 20
97.7613196514
 30
0.0
 10
577.5086886176
 20
96.3720118739
 30
0.0
 10
574.869051502
 20
95.5046265269
 30
0.0
 10
572.0584503212
 20
95.2102347842
 30
0.0
 10
569.2478491403
 20
95.5046265269
 30
0.0
 10
566.6082120247
 20
96.3720118739
 30
0.0
 10
564.3027115942
 20
97.7613196514
 30
0.0
 10
563.0553500175
 20
99.0147403759
 30
0.0
 10
562.5415861461
 20
99.6963000031
 30
0.0
  0
SPLINE
  5
574
100
AcDbEntity
  8
0
100
AcDbSpline
 62
7
  6
CONTINUOUS
 70
0
 71
3
 72
13
 73
9
 74
0
 42
0.0000001
 43
0.0000001
 44
0.0000000001
 40
0.0
 40
0.0
 40
0.0
 40
0.0
 40
0.1227466349
 40
0.2475184093
 40
0.4999982717
 40
0.7524791036
 40
0.8772519825
 40
1.0
 40
1.0
 40
1.0
 40
1.0
 10
564.7099302863
 20
108.6641741299
 30
0.0
 10
565.2190038203
 20
108.2704925053
 30
0.0
 10
566.3176179793
 20
107.5653614019
 30
0.0
 10
568.7377997676
 20
106.5332667463
 30
0.0
 10
572.0578259158
 20
106.0010549745
 30
0.0
 10
575.3779089201
 20
106.5329416164
 30
0.0
 10
577.7982124793
 20
107.5647960019
 30
0.0
 10
578.8969116772
 20
108.2698182858
 30
0.0
 10
579.4060333059
 20
108.6634495619
 30
0.0
  0
LINE
  5
575
100
AcDbEntity
  8
BEZUGSACHSEN
100
AcDbLine
 62
7
  6
CONTINUOUS
 10
576.7861914847
 20
154.370499743
 11
576.8717918591
 21
153.9907539495
  0
LINE
  5
576
100
AcDbEntity
  8
BEZUGSACHSEN
100
AcDbLine
 62
7
  6
CONTINUOUS
 10
576.8717918591
 20
153.9907539495
 11
576.873162959
 21
153.9846647678
  0
SPLINE
  5
577
100
AcDbEntity
  8
BEZUGSACHSEN
100
AcDbSpline
 62
7
  6
CONTINUOUS
 70
0
 71
3
 72
8
 73
4
 74
0
 42
0.0000001
 43
0.0000001
 44
0.0000000001
 40
0.0
 40
0.0
 40
0.0
 40
0.0
 40
1.0
 40
1.0
 40
1.0
 40
1.0
 10
576.873162959
 20
153.9846647678
 30
0.0
 10
576.9431589043
 20
153.6738007931
 30
0.0
 10
577.0129757558
 20
153.3628964109
 30
0.0
 10
577.0825712182
 20
153.0519425322
 30
0.0
  0
LINE
  5
578
100
AcDbEntity
  8
BEZUGSACHSEN
100
AcDbLine
 62
7
  6
CONTINUOUS
 10
577.0825712182
 20
153.0519425322
 11
577.1184674593
 21
152.891463796
  0
SPLINE
  5
579
100
AcDbEntity
  8
0
100
AcDbSpline
 62
7
  6
CONTINUOUS
 70
0
 71
3
 72
13
 73
9
 74
0
 42
0.0000001
 43
0.0000001
 44
0.0000000001
 40
0.0
 40
0.0
 40
0.0
 40
0.0
 40
0.1163023557
 40
0.2340384021
 40
0.3543786332
 40
0.4780387852
 40
0.7344041874
 40
1.0
 40
1.0
 40
1.0
 40
1.0
 10
567.5584503212
 20
120.5044468427
 30
0.0
 10
567.5584503212
 20
120.7595102793
 30
0.0
 10
567.6173385473
 20
121.2746349887
 30
0.0
 10
567.877817286
 20
122.0132843425
 30
0.0
 10
568.2995797255
 20
122.6924153719
 30
0.0
 10
569.0610977299
 20
123.4917386445
 30
0.0
 10
570.3218854138
 20
124.2082734802
 30
0.0
 10
571.4759704541
 20
124.4015611597
 30
0.0
 10
572.0584503212
 20
124.4015611597
 30
0.0
  0
LINE
  5
57A
100
AcDbEntity
  8
BEZUGSACHSEN
100
AcDbLine
 62
7
  6
CONTINUOUS
 10
577.0945162261
 20
152.1470303277
 11
577.0675698887
 21
152.2841021693
  0
LINE
  5
57B
100
AcDbEntity
  8
BEZUGSACHSEN
100
AcDbLine
 62
7
  6
CONTINUOUS
 10
577.0675698887
 20
152.2841021693
 11
577.0587244836
 21
152.3290928199
  0
LINE
  5
57C
100
AcDbEntity
  8
BEZUGSACHSEN
100
AcDbLine
 62
7
  6
CONTINUOUS
 10
577.0587244836
 20
152.3290928199
 11
576.7387174872
 21
153.9554030504
  0
LINE
  5
57D
100
AcDbEntity
  8
BEZUGSACHSEN
100
AcDbLine
 62
7
  6
CONTINUOUS
 10
576.7387174872
 20
153.9554030504
 11
576.7351517563
 21
153.9735112134
  0
LINE
  5
57E
100
AcDbEntity
  8
BEZUGSACHSEN
100
AcDbLine
 62
7
  6
CONTINUOUS
 10
576.7351517563
 20
153.9735112134
 11
576.6617930844
 21
154.3459977742
  0
LINE
  5
57F
100
AcDbEntity
  8
BEZUGSACHSEN
100
AcDbLine
 62
7
  6
CONTINUOUS
 10
576.6617930844
 20
154.3459977742
 11
576.6446732061
 21
154.4329105671
  0
LINE
  5
580
100
AcDbEntity
  8
BEZUGSACHSEN
100
AcDbLine
 62
7
  6
CONTINUOUS
 10
576.6446732061
 20
154.4329105671
 11
576.4094244296
 21
155.6266733968
  0
LINE
  5
581
100
AcDbEntity
  8
BEZUGSACHSEN
100
AcDbLine
 62
7
  6
CONTINUOUS
 10
576.4094244296
 20
155.6266733968
 11
576.3580564848
 21
155.8872182174
  0
SPLINE
  5
582
100
AcDbEntity
  8
KONSTRUKTIONSELEMENTE
100
AcDbSpline
 62
7
  6
CONTINUOUS
 70
0
 71
3
 72
8
 73
4
 74
0
 42
0.0000001
 43
0.0000001
 44
0.0000000001
 40
0.0
 40
0.0
 40
0.0
 40
0.0
 40
1.0
 40
1.0
 40
1.0
 40
1.0
 10
576.1277593586
 20
155.8872182174
 30
0.0
 10
576.3743673582
 20
154.6405127767
 30
0.0
 10
576.6208845714
 20
153.3937893654
 30
0.0
 10
576.8672214614
 20
152.1470303277
 30
0.0
  0
SPLINE
  5
583
100
AcDbEntity
  8
KONSTRUKTIONSELEMENTE
100
AcDbSpline
 62
7
  6
CONTINUOUS
 70
0
 71
3
 72
11
 73
7
 74
0
 42
0.0000001
 43
0.0000001
 44
0.0000000001
 40
0.0
 40
0.0
 40
0.0
 40
0.0
 40
0.2884727134
 40
0.5560355973
 40
0.7934838727
 40
1.0
 40
1.0
 40
1.0
 40
1.0
 10
583.3084503212
 20
102.4493828128
 30
0.0
 10
583.3084503212
 20
102.3092007215
 30
0.0
 10
583.2917378403
 20
102.0384503705
 30
0.0
 10
583.2050091882
 20
101.660471168
 30
0.0
 10
583.0586940441
 20
101.3439739793
 30
0.0
 10
582.9203784487
 20
101.1745120986
 30
0.0
 10
582.8462807678
 20
101.1068305845
 30
0.0
  0
LINE
  5
584
100
AcDbEntity
  8
BEZUGSACHSEN
100
AcDbLine
 62
7
  6
CONTINUOUS
 10
576.4717438253
 20
156.0821389974
 11
576.4796960669
 21
156.0542355255
  0
LINE
  5
585
100
AcDbEntity
  8
BEZUGSACHSEN
100
AcDbLine
 62
7
  6
CONTINUOUS
 10
576.4796960669
 20
156.0542355255
 11
576.4954979878
 21
155.9986710627
  0
LINE
  5
586
100
AcDbEntity
  8
BEZUGSACHSEN
100
AcDbLine
 62
7
  6
CONTINUOUS
 10
576.4954979878
 20
155.9986710627
 11
576.50334771
 21
155.971010075
  0
LINE
  5
587
100
AcDbEntity
  8
BEZUGSACHSEN
100
AcDbLine
 62
7
  6
CONTINUOUS
 10
576.50334771
 20
155.971010075
 11
576.5506286026
 21
155.7562886669
  0
LINE
  5
588
100
AcDbEntity
  8
BEZUGSACHSEN
100
AcDbLine
 62
7
  6
CONTINUOUS
 10
576.5506286026
 20
155.7562886669
 11
576.5979486522
 21
155.5175530752
  0
LINE
  5
589
100
AcDbEntity
  8
BEZUGSACHSEN
100
AcDbLine
 62
7
  6
CONTINUOUS
 10
576.6453094307
 20
155.2548037458
 11
576.5979486522
 21
155.5175530752
  0
LINE
  5
58A
100
AcDbEntity
  8
BEZUGSACHSEN
100
AcDbLine
 62
7
  6
CONTINUOUS
 10
576.676796106
 20
155.0476188432
 11
576.6453094307
 21
155.2548037458
  0
LINE
  5
58B
100
AcDbEntity
  8
BEZUGSACHSEN
100
AcDbLine
 62
7
  6
CONTINUOUS
 10
576.4001417679
 20
157.4883318146
 11
576.450626531
 21
157.2199822446
  0
LINE
  5
58C
100
AcDbEntity
  8
BEZUGSACHSEN
100
AcDbLine
 62
7
  6
CONTINUOUS
 10
576.450626531
 20
157.2199822446
 11
576.6937752829
 21
155.9275283109
  0
LINE
  5
58D
100
AcDbEntity
  8
BEZUGSACHSEN
100
AcDbLine
 62
7
  6
CONTINUOUS
 10
576.6937752829
 20
155.9275283109
 11
576.7537681114
 21
155.6086351792
  0
LINE
  5
58E
100
AcDbEntity
  8
BEZUGSACHSEN
100
AcDbLine
 62
7
  6
CONTINUOUS
 10
576.7537681114
 20
155.6086351792
 11
576.8031369717
 21
155.3462132922
  0
LINE
  5
58F
100
AcDbEntity
  8
BEZUGSACHSEN
100
AcDbLine
 62
7
  6
CONTINUOUS
 10
576.8031369717
 20
155.3462132922
 11
576.8762434482
 21
154.9576120912
  0
LINE
  5
590
100
AcDbEntity
  8
BEZUGSACHSEN
100
AcDbLine
 62
7
  6
CONTINUOUS
 10
576.8762434482
 20
154.9576120912
 11
576.889086099
 21
154.8893461734
  0
LINE
  5
591
100
AcDbEntity
  8
KONSTRUKTIONSELEMENTE
100
AcDbLine
 62
7
  6
CONTINUOUS
 10
576.184906887
 20
157.2087408788
 11
576.1831129681
 21
157.2182838037
  0
LINE
  5
592
100
AcDbEntity
  8
KONSTRUKTIONSELEMENTE
100
AcDbLine
 62
7
  6
CONTINUOUS
 10
576.1831129681
 20
157.2182838037
 11
576.1323476129
 21
157.4883318146
  0
LINE
  5
593
100
AcDbEntity
  8
BEZUGSACHSEN
100
AcDbLine
 62
7
  6
CONTINUOUS
 10
576.9523145546
 20
154.5423435829
 11
576.9365728594
 21
154.6287588468
  0
LINE
  5
594
100
AcDbEntity
  8
BEZUGSACHSEN
100
AcDbLine
 62
7
  6
CONTINUOUS
 10
576.9365728594
 20
154.6287588468
 11
576.9207875373
 21
154.7153976972
  0
LINE
  5
595
100
AcDbEntity
  8
BEZUGSACHSEN
100
AcDbLine
 62
7
  6
CONTINUOUS
 10
576.9207875373
 20
154.7153976972
 11
576.889086099
 21
154.8893461734
  0
LINE
  5
596
100
AcDbEntity
  8
BEZUGSACHSEN
100
AcDbLine
 62
7
  6
CONTINUOUS
 10
576.999758887
 20
154.2675296442
 11
576.9879854847
 21
154.3358367447
  0
LINE
  5
597
100
AcDbEntity
  8
BEZUGSACHSEN
100
AcDbLine
 62
7
  6
CONTINUOUS
 10
576.9879854847
 20
154.3358367447
 11
576.9761536263
 21
154.4044081009
  0
LINE
  5
598
100
AcDbEntity
  8
BEZUGSACHSEN
100
AcDbLine
 62
7
  6
CONTINUOUS
 10
576.9761536263
 20
154.4044081009
 11
576.9642633152
 21
154.4732437135
  0
LINE
  5
599
100
AcDbEntity
  8
BEZUGSACHSEN
100
AcDbLine
 62
7
  6
CONTINUOUS
 10
576.9642633152
 20
154.4732437135
 11
576.9523145546
 21
154.5423435829
  0
LINE
  5
59A
100
AcDbEntity
  8
BEZUGSACHSEN
100
AcDbLine
 62
7
  6
CONTINUOUS
 10
577.0310969856
 20
154.064904232
 11
577.0233353844
 21
154.1153809196
  0
LINE
  5
59B
100
AcDbEntity
  8
BEZUGSACHSEN
100
AcDbLine
 62
7
  6
CONTINUOUS
 10
577.0233353844
 20
154.1153809196
 11
577.0155251516
 21
154.1659773827
  0
LINE
  5
59C
100
AcDbEntity
  8
BEZUGSACHSEN
100
AcDbLine
 62
7
  6
CONTINUOUS
 10
577.0155251516
 20
154.1659773827
 11
576.999758887
 21
154.2675296442
  0
LINE
  5
59D
100
AcDbEntity
  8
BEZUGSACHSEN
100
AcDbLine
 62
7
  6
CONTINUOUS
 10
577.0458396953
 20
153.9344674637
 11
577.0385751451
 21
153.9996976562
  0
LINE
  5
59E
100
AcDbEntity
  8
BEZUGSACHSEN
100
AcDbLine
 62
7
  6
CONTINUOUS
 10
577.0385751451
 20
153.9996976562
 11
577.0348626505
 21
154.0323038934
  0
LINE
  5
59F
100
AcDbEntity
  8
BEZUGSACHSEN
100
AcDbLine
 62
7
  6
CONTINUOUS
 10
577.0348626505
 20
154.0323038934
 11
577.0310969856
 21
154.064904232
  0
LINE
  5
5A0
100
AcDbEntity
  8
BEZUGSACHSEN
100
AcDbLine
 62
7
  6
CONTINUOUS
 10
577.0455060385
 20
153.924436034
 11
577.0458396953
 21
153.9344674637
  0
SPLINE
  5
5A1
100
AcDbEntity
  8
0
100
AcDbSpline
 62
7
  6
CONTINUOUS
 70
0
 71
3
 72
9
 73
5
 74
0
 42
0.0000001
 43
0.0000001
 44
0.0000000001
 40
0.0
 40
0.0
 40
0.0
 40
0.0
 40
0.2208952364
 40
1.0
 40
1.0
 40
1.0
 40
1.0
 10
561.2706198745
 20
101.1068305845
 30
0.0
 10
561.3739247144
 20
101.0124709783
 30
0.0
 10
561.831972374
 20
100.5747980819
 30
0.0
 10
562.2445406198
 20
100.0903608733
 30
0.0
 10
562.5415861461
 20
99.6963000031
 30
0.0
  0
SPLINE
  5
5A2
100
AcDbEntity
  8
KONSTRUKTIONSELEMENTE
100
AcDbSpline
 62
7
  6
CONTINUOUS
 70
0
 71
3
 72
9
 73
5
 74
0
 42
0.0000001
 43
0.0000001
 44
0.0000000001
 40
0.0
 40
0.0
 40
0.0
 40
0.0
 40
0.2208952364
 40
1.0
 40
1.0
 40
1.0
 40
1.0
 10
582.8462807678
 20
101.1068305845
 30
0.0
 10
582.7429759279
 20
101.0124709783
 30
0.0
 10
582.2849282683
 20
100.5747980819
 30
0.0
 10
581.8723600225
 20
100.0903608733
 30
0.0
 10
581.5753144962
 20
99.6963000031
 30
0.0
  0
LINE
  5
5A3
100
AcDbEntity
  8
BEZUGSACHSEN
100
AcDbLine
 62
7
  6
CONTINUOUS
 10
576.8711328158
 20
154.5398573078
 11
576.8587449861
 21
154.6060853529
  0
LINE
  5
5A4
100
AcDbEntity
  8
BEZUGSACHSEN
100
AcDbLine
 62
7
  6
CONTINUOUS
 10
576.8587449861
 20
154.6060853529
 11
576.8430338229
 21
154.6900762809
  0
LINE
  5
5A5
100
AcDbEntity
  8
BEZUGSACHSEN
100
AcDbLine
 62
7
  6
CONTINUOUS
 10
576.8430338229
 20
154.6900762809
 11
576.7958276446
 21
154.9424087858
  0
LINE
  5
5A6
100
AcDbEntity
  8
BEZUGSACHSEN
100
AcDbLine
 62
7
  6
CONTINUOUS
 10
576.7958276446
 20
154.9424087858
 11
576.7521482899
 21
155.1758518675
  0
LINE
  5
5A7
100
AcDbEntity
  8
BEZUGSACHSEN
100
AcDbLine
 62
7
  6
CONTINUOUS
 10
576.7521482899
 20
155.1758518675
 11
576.7230973608
 21
155.3310945507
  0
LINE
  5
5A8
100
AcDbEntity
  8
BEZUGSACHSEN
100
AcDbLine
 62
7
  6
CONTINUOUS
 10
576.7230973608
 20
155.3310945507
 11
576.6739745475
 21
155.5935640325
  0
LINE
  5
5A9
100
AcDbEntity
  8
BEZUGSACHSEN
100
AcDbLine
 62
7
  6
CONTINUOUS
 10
576.6739745475
 20
155.5935640325
 11
576.6313997248
 21
155.8210139615
  0
LINE
  5
5AA
100
AcDbEntity
  8
BEZUGSACHSEN
100
AcDbLine
 62
7
  6
CONTINUOUS
 10
576.6313997248
 20
155.8210139615
 11
576.6142711164
 21
155.9125128303
  0
LINE
  5
5AB
100
AcDbEntity
  8
BEZUGSACHSEN
100
AcDbLine
 62
7
  6
CONTINUOUS
 10
576.6142711164
 20
155.9125128303
 11
576.5738417322
 21
156.1284631976
  0
LINE
  5
5AC
100
AcDbEntity
  8
BEZUGSACHSEN
100
AcDbLine
 62
7
  6
CONTINUOUS
 10
576.5738417322
 20
156.1284631976
 11
576.5271772453
 21
156.3776867821
  0
LINE
  5
5AD
100
AcDbEntity
  8
BEZUGSACHSEN
100
AcDbLine
 62
7
  6
CONTINUOUS
 10
576.5271772453
 20
156.3776867821
 11
576.5088902788
 21
156.4753441632
  0
LINE
  5
5AE
100
AcDbEntity
  8
BEZUGSACHSEN
100
AcDbLine
 62
7
  6
CONTINUOUS
 10
576.5088902788
 20
156.4753441632
 11
576.4997683398
 21
156.5240559827
  0
LINE
  5
5AF
100
AcDbEntity
  8
BEZUGSACHSEN
100
AcDbLine
 62
7
  6
CONTINUOUS
 10
576.4997683398
 20
156.5240559827
 11
576.3846225734
 21
157.1388429491
  0
LINE
  5
5B0
100
AcDbEntity
  8
KONSTRUKTIONSELEMENTE
100
AcDbLine
 62
7
  6
CONTINUOUS
 10
576.1285412877
 20
157.1388429491
 11
576.244385016
 21
156.5219491417
  0
LINE
  5
5B1
100
AcDbEntity
  8
KONSTRUKTIONSELEMENTE
100
AcDbLine
 62
7
  6
CONTINUOUS
 10
576.244385016
 20
156.5219491417
 11
576.2477468954
 21
156.504045254
  0
LINE
  5
5B2
100
AcDbEntity
  8
BEZUGSACHSEN
100
AcDbLine
 62
7
  6
CONTINUOUS
 10
576.8711328158
 20
154.5398573078
 11
576.9508920932
 21
154.1323157822
  0
LINE
  5
5B3
100
AcDbEntity
  8
BEZUGSACHSEN
100
AcDbLine
 62
7
  6
CONTINUOUS
 10
576.9508920932
 20
154.1323157822
 11
577.0162476271
 21
153.8202620495
  0
SPLINE
  5
5B4
100
AcDbEntity
  8
BEZUGSACHSEN
100
AcDbSpline
 62
7
  6
CONTINUOUS
 70
0
 71
3
 72
9
 73
5
 74
0
 42
0.0000001
 43
0.0000001
 44
0.0000000001
 40
0.0
 40
0.0
 40
0.0
 40
0.0
 40
0.2890565778
 40
1.0
 40
1.0
 40
1.0
 40
1.0
 10
577.1408776551
 20
153.6725672371
 30
0.0
 10
577.1434255931
 20
153.6701145023
 30
0.0
 10
577.1518082515
 20
153.661279832
 30
0.0
 10
577.1583313152
 20
153.6500883814
 30
0.0
 10
577.1599181045
 20
153.6415358391
 30
0.0
  0
LINE
  5
5B5
100
AcDbEntity
  8
KONSTRUKTIONSELEMENTE
100
AcDbLine
 62
7
  6
CONTINUOUS
 10
576.1269353417
 20
157.6716914456
 11
576.147279903
 21
157.5616952037
  0
LINE
  5
5B6
100
AcDbEntity
  8
BEZUGSACHSEN
100
AcDbLine
 62
7
  6
CONTINUOUS
 10
577.1408776551
 20
153.6725672371
 11
577.1188295817
 21
153.7923220897
  0
LINE
  5
5B7
100
AcDbEntity
  8
BEZUGSACHSEN
100
AcDbLine
 62
7
  6
CONTINUOUS
 10
577.1188295817
 20
153.7923220897
 11
577.099358066
 21
153.8980718062
  0
LINE
  5
5B8
100
AcDbEntity
  8
BEZUGSACHSEN
100
AcDbLine
 62
7
  6
CONTINUOUS
 10
577.099358066
 20
153.8980718062
 11
577.0921194752
 21
153.9373820935
  0
LINE
  5
5B9
100
AcDbEntity
  8
BEZUGSACHSEN
100
AcDbLine
 62
7
  6
CONTINUOUS
 10
577.0921194752
 20
153.9373820935
 11
577.0673618065
 21
154.0718224996
  0
LINE
  5
5BA
100
AcDbEntity
  8
BEZUGSACHSEN
100
AcDbLine
 62
7
  6
CONTINUOUS
 10
577.0673618065
 20
154.0718224996
 11
577.0487015792
 21
154.1731422482
  0
LINE
  5
5BB
100
AcDbEntity
  8
BEZUGSACHSEN
100
AcDbLine
 62
7
  6
CONTINUOUS
 10
577.0487015792
 20
154.1731422482
 11
577.0250957426
 21
154.3013031997
  0
LINE
  5
5BC
100
AcDbEntity
  8
BEZUGSACHSEN
100
AcDbLine
 62
7
  6
CONTINUOUS
 10
577.0250957426
 20
154.3013031997
 11
577.022754029
 21
154.3140161221
  0
LINE
  5
5BD
100
AcDbEntity
  8
BEZUGSACHSEN
100
AcDbLine
 62
7
  6
CONTINUOUS
 10
577.022754029
 20
154.3140161221
 11
576.9827090645
 21
154.531396359
  0
LINE
  5
5BE
100
AcDbEntity
  8
BEZUGSACHSEN
100
AcDbLine
 62
7
  6
CONTINUOUS
 10
576.9827090645
 20
154.531396359
 11
576.9653205299
 21
154.6257769611
  0
LINE
  5
5BF
100
AcDbEntity
  8
BEZUGSACHSEN
100
AcDbLine
 62
7
  6
CONTINUOUS
 10
576.9653205299
 20
154.6257769611
 11
576.9033257432
 21
154.9622153442
  0
LINE
  5
5C0
100
AcDbEntity
  8
BEZUGSACHSEN
100
AcDbLine
 62
7
  6
CONTINUOUS
 10
576.9033257432
 20
154.9622153442
 11
576.4857904627
 21
157.2262574016
  0
LINE
  5
5C1
100
AcDbEntity
  8
BEZUGSACHSEN
100
AcDbLine
 62
7
  6
CONTINUOUS
 10
576.4857904627
 20
157.2262574016
 11
576.4236682844
 21
157.5628722818
  0
LINE
  5
5C2
100
AcDbEntity
  8
BEZUGSACHSEN
100
AcDbLine
 62
7
  6
CONTINUOUS
 10
576.4236682844
 20
157.5628722818
 11
576.403583668
 21
157.6716914456
  0
SPLINE
  5
5C3
100
AcDbEntity
  8
KONSTRUKTIONSELEMENTE
100
AcDbSpline
 62
7
  6
CONTINUOUS
 70
0
 71
3
 72
15
 73
11
 74
0
 42
0.0000001
 43
0.0000001
 44
0.0000000001
 40
0.0
 40
0.0
 40
0.0
 40
0.0
 40
0.0715051056
 40
0.1527101127
 40
0.249801528
 40
0.3654136809
 40
0.4998429995
 40
0.6519018592
 40
0.8195872462
 40
1.0
 40
1.0
 40
1.0
 40
1.0
 10
427.2872381496
 20
30.9596965007
 30
0.0
 10
427.2443104492
 20
30.9968600184
 30
0.0
 10
427.1339263804
 20
31.0559594299
 30
0.0
 10
426.9339015802
 20
31.079547732
 30
0.0
 10
426.7010522974
 20
31.0474192838
 30
0.0
 10
426.4379204109
 20
30.9620081294
 30
0.0
 10
426.148676034
 20
30.8252780155
 30
0.0
 10
425.8388201417
 20
30.6398557576
 30
0.0
 10
425.5149027694
 20
30.4094787871
 30
0.0
 10
425.3006655002
 20
30.2344860652
 30
0.0
 10
425.1923718687
 20
30.1407010292
 30
0.0
  0
SPLINE
  5
5C4
100
AcDbEntity
  8
KONSTRUKTIONSELEMENTE
100
AcDbSpline
 62
7
  6
CONTINUOUS
 70
0
 71
3
 72
9
 73
5
 74
0
 42
0.0000001
 43
0.0000001
 44
0.0000000001
 40
0.0
 40
0.0
 40
0.0
 40
0.0
 40
0.5565087562
 40
1.0
 40
1.0
 40
1.0
 40
1.0
 10
424.3908531881
 20
38.8743514222
 30
0.0
 10
424.4613466714
 20
39.0358413723
 30
0.0
 10
424.5715249086
 20
39.333499845
 30
0.0
 10
424.6266864438
 20
39.6493615193
 30
0.0
 10
424.6266864438
 20
39.7897825662
 30
0.0
  0
SPLINE
  5
5C5
100
AcDbEntity
  8
KONSTRUKTIONSELEMENTE
100
AcDbSpline
 62
7
  6
CONTINUOUS
 70
0
 71
3
 72
9
 73
5
 74
0
 42
0.0000001
 43
0.0000001
 44
0.0000000001
 40
0.0
 40
0.0
 40
0.0
 40
0.0
 40
0.5487156268
 40
1.0
 40
1.0
 40
1.0
 40
1.0
 10
424.6266864438
 20
25.4493480204
 30
0.0
 10
424.6266864438
 20
25.3348582828
 30
0.0
 10
424.6493178029
 20
25.1228502919
 30
0.0
 10
424.7653664405
 20
24.9367242912
 30
0.0
 10
424.8365477216
 20
24.87508456
 30
0.0
  0
SPLINE
  5
5C6
100
AcDbEntity
  8
KONSTRUKTIONSELEMENTE
100
AcDbSpline
 62
7
  6
CONTINUOUS
 70
0
 71
3
 72
15
 73
11
 74
0
 42
0.0000001
 43
0.0000001
 44
0.0000000001
 40
0.0
 40
0.0
 40
0.0
 40
0.0
 40
0.0715051056
 40
0.1527101127
 40
0.249801528
 40
0.3654136809
 40
0.4998429995
 40
0.6519018592
 40
0.8195872462
 40
1.0
 40
1.0
 40
1.0
 40
1.0
 10
427.0043954371
 20
30.4046454749
 30
0.0
 10
426.9614677367
 20
30.4418089927
 30
0.0
 10
426.8510836679
 20
30.5009084042
 30
0.0
 10
426.6510588677
 20
30.5244967063
 30
0.0
 10
426.4182095849
 20
30.4923682581
 30
0.0
 10
426.1550776985
 20
30.4069571037
 30
0.0
 10
425.8658333215
 20
30.2702269897
 30
0.0
 10
425.5559774292
 20
30.0848047319
 30
0.0
 10
425.232060057
 20
29.8544277614
 30
0.0
 10
425.0178227878
 20
29.6794350394
 30
0.0
 10
424.9095291562
 20
29.5856500035
 30
0.0
  0
SPLINE
  5
5C7
100
AcDbEntity
  8
KONSTRUKTIONSELEMENTE
100
AcDbSpline
 62
7
  6
CONTINUOUS
 70
0
 71
3
 72
10
 73
6
 74
0
 42
0.0000001
 43
0.0000001
 44
0.0000000001
 40
0.0
 40
0.0
 40
0.0
 40
0.0
 40
0.3401098209
 40
0.6176924174
 40
1.0
 40
1.0
 40
1.0
 40
1.0
 10
453.3295571553
 20
39.789120606
 30
0.0
 10
453.3220083342
 20
39.7711361375
 30
0.0
 10
453.3101829754
 20
39.7372965741
 30
0.0
 10
453.2992805087
 20
39.6820652079
 30
0.0
 10
453.3074549783
 20
39.6385921496
 30
0.0
 10
453.3240256727
 20
39.624236188
 30
0.0
  0
SPLINE
  5
5C8
100
AcDbEntity
  8
KONSTRUKTIONSELEMENTE
100
AcDbSpline
 62
7
  6
CONTINUOUS
 70
0
 71
3
 72
10
 73
6
 74
0
 42
0.0000001
 43
0.0000001
 44
0.0000000001
 40
0.0
 40
0.0
 40
0.0
 40
0.0
 40
0.1889346049
 40
0.5351285558
 40
1.0
 40
1.0
 40
1.0
 40
1.0
 10
415.9214973313
 20
22.1750238864
 30
0.0
 10
415.9395168388
 20
22.1594188575
 30
0.0
 10
416.0023859833
 20
22.1282274872
 30
0.0
 10
416.1330555174
 20
22.1350517002
 30
0.0
 10
416.2294954472
 20
22.1706818168
 30
0.0
 10
416.2828264258
 20
22.1950910457
 30
0.0
  0
SPLINE
  5
5C9
100
AcDbEntity
  8
KONSTRUKTIONSELEMENTE
100
AcDbSpline
 62
7
  6
CONTINUOUS
 70
0
 71
3
 72
9
 73
5
 74
0
 42
0.0000001
 43
0.0000001
 44
0.0000000001
 40
0.0
 40
0.0
 40
0.0
 40
0.0
 40
0.4593994969
 40
1.0
 40
1.0
 40
1.0
 40
1.0
 10
416.2828264258
 20
22.1950910457
 30
0.0
 10
416.3543197831
 20
22.2278130727
 30
0.0
 10
416.5022247612
 20
22.3157511754
 30
0.0
 10
416.6371493875
 20
22.421558974
 30
0.0
 10
416.7070904945
 20
22.4821297494
 30
0.0
  0
SPLINE
  5
5CA
100
AcDbEntity
  8
KONSTRUKTIONSELEMENTE
100
AcDbSpline
 62
7
  6
CONTINUOUS
 70
0
 71
3
 72
11
 73
7
 74
0
 42
0.0000001
 43
0.0000001
 44
0.0000000001
 40
0.0
 40
0.0
 40
0.0
 40
0.0
 40
0.1801343243
 40
0.3968155518
 40
0.6687400903
 40
1.0
 40
1.0
 40
1.0
 40
1.0
 10
427.6649748463
 20
22.4255948172
 30
0.0
 10
427.7334054874
 20
22.3663370143
 30
0.0
 10
427.9239169191
 20
22.2800436168
 30
0.0
 10
428.2660065175
 20
22.2844497073
 30
0.0
 10
428.6658138564
 20
22.393921145
 30
0.0
 10
428.9414944328
 20
22.5228580116
 30
0.0
 10
429.0881957383
 20
22.6015333491
 30
0.0
  0
SPLINE
  5
5CB
100
AcDbEntity
  8
BEZUGSACHSEN
100
AcDbSpline
 62
7
  6
CONTINUOUS
 70
0
 71
3
 72
16
 73
12
 74
0
 42
0.0000001
 43
0.0000001
 44
0.0000000001
 40
0.0
 40
0.0
 40
0.0
 40
0.0
 40
0.180402773
 40
0.3480789013
 40
0.5001293487
 40
0.5696674528
 40
0.6346058587
 40
0.7502117022
 40
0.8472976962
 40
0.9284979532
 40
1.0
 40
1.0
 40
1.0
 40
1.0
 10
466.3459865338
 20
70.3507767867
 30
0.0
 10
466.5321161257
 20
70.5119697417
 30
0.0
 10
466.9003416916
 20
70.8127486507
 30
0.0
 10
467.4570521916
 20
71.2086666218
 30
0.0
 10
467.9135897969
 20
71.4819442501
 30
0.0
 10
468.2636112584
 20
71.6568124602
 30
0.0
 10
468.5772353509
 20
71.7917994559
 30
0.0
 10
468.9390480034
 20
71.9091975009
 30
0.0
 10
469.3392361586
 20
71.9644137015
 30
0.0
 10
469.6830323121
 20
71.9238833895
 30
0.0
 10
469.8727626416
 20
71.8223095566
 30
0.0
 10
469.9465371284
 20
71.7584242998
 30
0.0
  0
SPLINE
  5
5CC
100
AcDbEntity
  8
BEZUGSACHSEN
100
AcDbSpline
 62
7
  6
CONTINUOUS
 70
0
 71
3
 72
11
 73
7
 74
0
 42
0.0000001
 43
0.0000001
 44
0.0000000001
 40
0.0
 40
0.0
 40
0.0
 40
0.0
 40
0.311390343
 40
0.575379809
 40
0.799563173
 40
1.0
 40
1.0
 40
1.0
 40
1.0
 10
473.2698673147
 20
72.3107821012
 30
0.0
 10
473.3468739979
 20
72.71173545
 30
0.0
 10
473.4449832099
 20
73.4630459439
 30
0.0
 10
473.3943921831
 20
74.5175966805
 30
0.0
 10
473.1249937675
 20
75.3929270816
 30
0.0
 10
472.7775423178
 20
75.8479679663
 30
0.0
 10
472.5790728825
 20
76.0202345961
 30
0.0
  0
SPLINE
  5
5CD
100
AcDbEntity
  8
KONSTRUKTIONSELEMENTE
100
AcDbSpline
 62
7
  6
CONTINUOUS
 70
0
 71
3
 72
13
 73
9
 74
0
 42
0.0000001
 43
0.0000001
 44
0.0000000001
 40
0.0
 40
0.0
 40
0.0
 40
0.0
 40
0.1071822666
 40
0.2276802357
 40
0.4932739715
 40
0.7624373184
 40
0.8872035516
 40
1.0
 40
1.0
 40
1.0
 40
1.0
 10
456.9997343577
 20
37.5703825603
 30
0.0
 10
457.1803162684
 20
37.6672279342
 30
0.0
 10
457.5499101675
 20
37.8992993081
 30
0.0
 10
458.2970885192
 20
38.4762582007
 30
0.0
 10
459.1919886528
 20
39.3595824626
 30
0.0
 10
459.9694426621
 20
40.3577432392
 30
0.0
 10
460.4738615687
 20
41.1858548068
 30
0.0
 10
460.675043829
 20
41.5941130867
 30
0.0
 10
460.7585048408
 20
41.7929523363
 30
0.0
  0
SPLINE
  5
5CE
100
AcDbEntity
  8
KONSTRUKTIONSELEMENTE
100
AcDbSpline
 62
7
  6
CONTINUOUS
 70
0
 71
3
 72
11
 73
7
 74
0
 42
0.0000001
 43
0.0000001
 44
0.0000000001
 40
0.0
 40
0.0
 40
0.0
 40
0.0
 40
0.2275180559
 40
0.493253217
 40
0.7625598897
 40
1.0
 40
1.0
 40
1.0
 40
1.0
 10
429.3788242911
 20
22.7573963075
 30
0.0
 10
429.4171363747
 20
22.7779429284
 30
0.0
 10
429.494011936
 20
22.8337880793
 30
0.0
 10
429.5980784056
 20
22.9362721184
 30
0.0
 10
429.688899756
 20
23.0531102436
 30
0.0
 10
429.7371418896
 20
23.137819287
 30
0.0
 10
429.7547013394
 20
23.1796532851
 30
0.0
  0
SPLINE
  5
5CF
100
AcDbEntity
  8
KONSTRUKTIONSELEMENTE
100
AcDbSpline
 62
7
  6
CONTINUOUS
 70
0
 71
3
 72
10
 73
6
 74
0
 42
0.0000001
 43
0.0000001
 44
0.0000000001
 40
0.0
 40
0.0
 40
0.0
 40
0.0
 40
0.1805529782
 40
0.5248657058
 40
1.0
 40
1.0
 40
1.0
 40
1.0
 10
456.1524527974
 20
37.1747464452
 30
0.0
 10
456.1592954775
 20
37.1688183139
 30
0.0
 10
456.1844701914
 20
37.1575233763
 30
0.0
 10
456.2361833646
 20
37.1643426284
 30
0.0
 10
456.2737964994
 20
37.1810649206
 30
0.0
 10
456.2947923374
 20
37.1923249065
 30
0.0
  0
SPLINE
  5
5D0
100
AcDbEntity
  8
BEZUGSACHSEN
100
AcDbSpline
 62
7
  6
CONTINUOUS
 70
0
 71
3
 72
17
 73
13
 74
0
 42
0.0000001
 43
0.0000001
 44
0.0000000001
 40
0.0
 40
0.0
 40
0.0
 40
0.0
 40
0.0291588352
 40
0.0611240919
 40
0.0979308632
 40
0.1407025491
 40
0.2452467409
 40
0.3737066793
 40
0.5209764399
 40
0.6799432227
 40
0.8424277474
 40
1.0
 40
1.0
 40
1.0
 40
1.0
 10
462.7454359392
 20
63.4431292736
 30
0.0
 10
462.6847174775
 20
63.495708623
 30
0.0
 10
462.576876057
 20
63.630005684
 30
0.0
 10
462.4820456168
 20
63.8861627357
 30
0.0
 10
462.4474103361
 20
64.1936907629
 30
0.0
 10
462.481628053
 20
64.7016400977
 30
0.0
 10
462.6876922613
 20
65.4395634114
 30
0.0
 10
463.1226053918
 20
66.3947640052
 30
0.0
 10
463.7412452466
 20
67.4227314522
 30
0.0
 10
464.5084126078
 20
68.4632332086
 30
0.0
 10
465.3801891449
 20
69.4557240405
 30
0.0
 10
466.0178800404
 20
70.0666282283
 30
0.0
 10
466.3459865338
 20
70.3507767867
 30
0.0
  0
SPLINE
  5
5D1
100
AcDbEntity
  8
KONSTRUKTIONSELEMENTE
100
AcDbSpline
 62
7
  6
CONTINUOUS
 70
0
 71
3
 72
9
 73
5
 74
0
 42
0.0000001
 43
0.0000001
 44
0.0000000001
 40
0.0
 40
0.0
 40
0.0
 40
0.0
 40
0.5484587228
 40
1.0
 40
1.0
 40
1.0
 40
1.0
 10
413.5958206573
 20
24.3068746208
 30
0.0
 10
413.5958206573
 20
24.2725509996
 30
0.0
 10
413.6026454904
 20
24.2089794034
 30
0.0
 10
413.6373941469
 20
24.1531148866
 30
0.0
 10
413.6587556315
 20
24.1346156806
 30
0.0
  0
SPLINE
  5
5D2
100
AcDbEntity
  8
KONSTRUKTIONSELEMENTE
100
AcDbSpline
 62
7
  6
CONTINUOUS
 70
0
 71
3
 72
13
 73
9
 74
0
 42
0.0000001
 43
0.0000001
 44
0.0000000001
 40
0.0
 40
0.0
 40
0.0
 40
0.0
 40
0.1127916838
 40
0.2375629883
 40
0.5067261525
 40
0.7723197091
 40
0.8928223742
 40
1.0
 40
1.0
 40
1.0
 40
1.0
 10
431.4281842763
 20
27.1665938249
 30
0.0
 10
431.5116417702
 20
27.3654246935
 30
0.0
 10
431.7128238323
 20
27.7736836388
 30
0.0
 10
432.2172391345
 20
28.6017979397
 30
0.0
 10
432.9947005424
 20
29.5999645964
 30
0.0
 10
433.8896052158
 20
30.4832963551
 30
0.0
 10
434.6367864313
 20
31.0602515289
 30
0.0
 10
435.0063806509
 20
31.2923224114
 30
0.0
 10
435.1869547594
 20
31.3891636009
 30
0.0
  0
SPLINE
  5
5D3
100
AcDbEntity
  8
KONSTRUKTIONSELEMENTE
100
AcDbSpline
 62
7
  6
CONTINUOUS
 70
0
 71
3
 72
12
 73
8
 74
0
 42
0.0000001
 43
0.0000001
 44
0.0000000001
 40
0.0
 40
0.0
 40
0.0
 40
0.0
 40
0.285581653
 40
0.5706156379
 40
0.817816411
 40
0.9180971044
 40
1.0
 40
1.0
 40
1.0
 40
1.0
 10
414.4443487947
 20
29.6817215436
 30
0.0
 10
414.3282403934
 20
29.5811687185
 30
0.0
 10
414.1120066337
 20
29.3615132457
 30
0.0
 10
413.8467811072
 20
29.0095426441
 30
0.0
 10
413.6824127789
 20
28.7087733287
 30
0.0
 10
413.6103555148
 20
28.4888117138
 30
0.0
 10
413.5958206573
 20
28.3909251999
 30
0.0
 10
413.5958206573
 20
28.3468746208
 30
0.0
  0
SPLINE
  5
5D4
100
AcDbEntity
  8
KONSTRUKTIONSELEMENTE
100
AcDbSpline
 62
7
  6
CONTINUOUS
 70
0
 71
3
 72
11
 73
7
 74
0
 42
0.0000001
 43
0.0000001
 44
0.0000000001
 40
0.0
 40
0.0
 40
0.0
 40
0.0
 40
0.3312528237
 40
0.6032079657
 40
0.8198699068
 40
1.0
 40
1.0
 40
1.0
 40
1.0
 10
456.4633866437
 20
42.7996309697
 30
0.0
 10
456.6100993257
 20
42.8783124084
 30
0.0
 10
456.885821717
 20
43.0072585567
 30
0.0
 10
457.2856689659
 20
43.1167449888
 30
0.0
 10
457.627810527
 20
43.1211007285
 30
0.0
 10
457.8182917208
 20
43.0347344818
 30
0.0
 10
457.8867231885
 20
42.9754672004
 30
0.0
  0
SPLINE
  5
5D5
100
AcDbEntity
  8
KONSTRUKTIONSELEMENTE
100
AcDbSpline
 62
7
  6
CONTINUOUS
 70
0
 71
3
 72
12
 73
8
 74
0
 42
0.0000001
 43
0.0000001
 44
0.0000000001
 40
0.0
 40
0.0
 40
0.0
 40
0.0
 40
0.0840630007
 40
0.1822661866
 40
0.418227079
 40
0.696783093
 40
1.0
 40
1.0
 40
1.0
 40
1.0
 10
424.6266864438
 20
41.7733275172
 30
0.0
 10
424.6266864438
 20
41.8761658594
 30
0.0
 10
424.6503671955
 20
42.0991860891
 30
0.0
 10
424.7753758433
 20
42.5963520924
 30
0.0
 10
425.0751256444
 20
43.288153943
 30
0.0
 10
425.59119934
 20
44.1470171432
 30
0.0
 10
426.0218021772
 20
44.7156842494
 30
0.0
 10
426.2597686136
 20
45.0002337368
 30
0.0
  0
SPLINE
  5
5D6
100
AcDbEntity
  8
KONSTRUKTIONSELEMENTE
100
AcDbSpline
 62
7
  6
CONTINUOUS
 70
0
 71
3
 72
15
 73
11
 74
0
 42
0.0000001
 43
0.0000001
 44
0.0000000001
 40
0.0
 40
0.0
 40
0.0
 40
0.0
 40
0.1696224697
 40
0.33497449
 40
0.4905840196
 40
0.6315529168
 40
0.7539177085
 40
0.8552312826
 40
0.9356200061
 40
1.0
 40
1.0
 40
1.0
 40
1.0
 10
457.1596696202
 20
81.9489359344
 30
0.0
 10
457.3271700758
 20
82.1492253933
 30
0.0
 10
457.6717018535
 20
82.5334997806
 30
0.0
 10
458.2142093153
 20
83.0596894368
 30
0.0
 10
458.7611869669
 20
83.5152405877
 30
0.0
 10
459.291984554
 20
83.8832030268
 30
0.0
 10
459.7870509099
 20
84.1509951462
 30
0.0
 10
460.2302633633
 20
84.3089611834
 30
0.0
 10
460.6111743656
 20
84.3544364283
 30
0.0
 10
460.8353648148
 20
84.2907772832
 30
0.0
 10
460.9184401034
 20
84.2367476092
 30
0.0
  0
SPLINE
  5
5D7
100
AcDbEntity
  8
KONSTRUKTIONSELEMENTE
100
AcDbSpline
 62
7
  6
CONTINUOUS
 70
0
 71
3
 72
9
 73
5
 74
0
 42
0.0000001
 43
0.0000001
 44
0.0000000001
 40
0.0
 40
0.0
 40
0.0
 40
0.0
 40
0.4567436759
 40
1.0
 40
1.0
 40
1.0
 40
1.0
 10
424.9095291562
 20
40.3448335919
 30
0.0
 10
424.9095291562
 20
40.2498110257
 30
0.0
 10
424.8841810019
 20
40.0418182312
 30
0.0
 10
424.8279555217
 20
39.8409880688
 30
0.0
 10
424.7919213342
 20
39.733865357
 30
0.0
  0
SPLINE
  5
5D8
100
AcDbEntity
  8
KONSTRUKTIONSELEMENTE
100
AcDbSpline
 62
7
  6
CONTINUOUS
 70
0
 71
3
 72
11
 73
7
 74
0
 42
0.0000001
 43
0.0000001
 44
0.0000000001
 40
0.0
 40
0.0
 40
0.0
 40
0.0
 40
0.2200619614
 40
0.4727409047
 40
0.7394872782
 40
1.0
 40
1.0
 40
1.0
 40
1.0
 10
424.7450281823
 20
39.6034605389
 30
0.0
 10
424.6523062506
 20
39.3607491472
 30
0.0
 10
424.4011118559
 20
38.8592804831
 30
0.0
 10
423.915415998
 20
38.1319715267
 30
0.0
 10
423.3253148881
 20
37.4229753208
 30
0.0
 10
422.8792948069
 20
36.9865990698
 30
0.0
 10
422.6467874564
 20
36.7852417977
 30
0.0
  0
SPLINE
  5
5D9
100
AcDbEntity
  8
KONSTRUKTIONSELEMENTE
100
AcDbSpline
 62
7
  6
CONTINUOUS
 70
0
 71
3
 72
12
 73
8
 74
0
 42
0.0000001
 43
0.0000001
 44
0.0000000001
 40
0.0
 40
0.0
 40
0.0
 40
0.0
 40
0.3358890466
 40
0.6331184293
 40
0.7558878341
 40
0.8575228726
 40
1.0
 40
1.0
 40
1.0
 40
1.0
 10
449.7778700033
 20
72.5389547868
 30
0.0
 10
449.8770488453
 20
72.6575483544
 30
0.0
 10
450.0794058759
 20
72.868671984
 30
0.0
 10
450.3537652421
 20
73.0849479447
 30
0.0
 10
450.5669044804
 20
73.1995129919
 30
0.0
 10
450.7229775078
 20
73.2567906813
 30
0.0
 10
450.8505272342
 20
73.2610516727
 30
0.0
 10
450.9055011482
 20
73.2252982892
 30
0.0
  0
SPLINE
  5
5DA
100
AcDbEntity
  8
KONSTRUKTIONSELEMENTE
100
AcDbSpline
 62
7
  6
CONTINUOUS
 70
0
 71
3
 72
12
 73
8
 74
0
 42
0.0000001
 43
0.0000001
 44
0.0000000001
 40
0.0
 40
0.0
 40
0.0
 40
0.0
 40
0.1424771274
 40
0.2441121659
 40
0.3668815707
 40
0.6641109534
 40
1.0
 40
1.0
 40
1.0
 40
1.0
 10
452.1008461032
 20
72.4478818124
 30
0.0
 10
452.1558200172
 20
72.4121284289
 30
0.0
 10
452.2833697436
 20
72.4163894203
 30
0.0
 10
452.439442771
 20
72.4736671097
 30
0.0
 10
452.6525820093
 20
72.5882321569
 30
0.0
 10
452.9269413755
 20
72.8045081176
 30
0.0
 10
453.1292984061
 20
73.0156317472
 30
0.0
 10
453.2284772481
 20
73.1342253148
 30
0.0
  0
SPLINE
  5
5DB
100
AcDbEntity
  8
BEZUGSACHSEN
100
AcDbSpline
 62
7
  6
CONTINUOUS
 70
0
 71
3
 72
16
 73
12
 74
0
 42
0.0000001
 43
0.0000001
 44
0.0000000001
 40
0.0
 40
0.0
 40
0.0
 40
0.0
 40
0.180402773
 40
0.3480789013
 40
0.5001293487
 40
0.5696674528
 40
0.6346058587
 40
0.7502117022
 40
0.8472976962
 40
0.9284979532
 40
1.0
 40
1.0
 40
1.0
 40
1.0
 10
466.3459865338
 20
64.8507767867
 30
0.0
 10
466.1598569419
 20
64.6895838317
 30
0.0
 10
465.791631376
 20
64.3888049227
 30
0.0
 10
465.2349208759
 20
63.9928869516
 30
0.0
 10
464.7783832706
 20
63.7196093233
 30
0.0
 10
464.4283618091
 20
63.5447411132
 30
0.0
 10
464.1147377166
 20
63.4097541175
 30
0.0
 10
463.7529250641
 20
63.2923560725
 30
0.0
 10
463.3527369089
 20
63.2371398719
 30
0.0
 10
463.0089407554
 20
63.2776701839
 30
0.0
 10
462.8192104259
 20
63.3792440168
 30
0.0
 10
462.7454359392
 20
63.4431292736
 30
0.0
  0
SPLINE
  5
5DC
100
AcDbEntity
  8
KONSTRUKTIONSELEMENTE
100
AcDbSpline
 62
7
  6
CONTINUOUS
 70
0
 71
3
 72
9
 73
5
 74
0
 42
0.0000001
 43
0.0000001
 44
0.0000000001
 40
0.0
 40
0.0
 40
0.0
 40
0.0
 40
0.5487156268
 40
1.0
 40
1.0
 40
1.0
 40
1.0
 10
427.4551135685
 20
22.9998582777
 30
0.0
 10
427.4551135685
 20
22.88536854
 30
0.0
 10
427.4777449277
 20
22.6733605491
 30
0.0
 10
427.5937935653
 20
22.4872345484
 30
0.0
 10
427.6649748463
 20
22.4255948172
 30
0.0
  0
SPLINE
  5
5DD
100
AcDbEntity
  8
KONSTRUKTIONSELEMENTE
100
AcDbSpline
 62
7
  6
CONTINUOUS
 70
0
 71
3
 72
9
 73
5
 74
0
 42
0.0000001
 43
0.0000001
 44
0.0000000001
 40
0.0
 40
0.0
 40
0.0
 40
0.0
 40
0.5486959742
 40
1.0
 40
1.0
 40
1.0
 40
1.0
 10
427.4551135685
 20
30.5002928234
 30
0.0
 10
427.4551135685
 20
30.5918787654
 30
0.0
 10
427.4370014273
 20
30.7614719494
 30
0.0
 10
427.3441905609
 20
30.9103914616
 30
0.0
 10
427.2872381496
 20
30.9596965007
 30
0.0
  0
SPLINE
  5
5DE
100
AcDbEntity
  8
KONSTRUKTIONSELEMENTE
100
AcDbSpline
 62
7
  6
CONTINUOUS
 70
0
 71
3
 72
13
 73
9
 74
0
 42
0.0000001
 43
0.0000001
 44
0.0000000001
 40
0.0
 40
0.0
 40
0.0
 40
0.0
 40
0.0843625955
 40
0.1746175943
 40
0.2754204456
 40
0.3897531286
 40
0.6639913559
 40
1.0
 40
1.0
 40
1.0
 40
1.0
 10
457.8867231885
 20
42.9754672004
 30
0.0
 10
457.9237424176
 20
42.9434055022
 30
0.0
 10
457.9906442987
 20
42.8650401499
 30
0.0
 10
458.0579016185
 20
42.7182286088
 30
0.0
 10
458.0941366047
 20
42.5434813292
 30
0.0
 10
458.1024278786
 20
42.2584333355
 30
0.0
 10
458.0265132201
 20
41.8408498868
 30
0.0
 10
457.9069596264
 20
41.5064260887
 30
0.0
 10
457.831467217
 20
41.326571403
 30
0.0
  0
SPLINE
  5
5DF
100
AcDbEntity
  8
BEZUGSACHSEN
100
AcDbSpline
 62
7
  6
CONTINUOUS
 70
0
 71
3
 72
11
 73
7
 74
0
 42
0.0000001
 43
0.0000001
 44
0.0000000001
 40
0.0
 40
0.0
 40
0.0
 40
0.0
 40
0.2121565924
 40
0.4416319996
 40
0.7016094034
 40
1.0
 40
1.0
 40
1.0
 40
1.0
 10
469.9465371284
 20
71.7584242998
 30
0.0
 10
470.0019864528
 20
71.7104077768
 30
0.0
 10
470.1014127906
 20
71.5906610063
 30
0.0
 10
470.1957097225
 20
71.3641991954
 30
0.0
 10
470.2394459673
 20
71.093472555
 30
0.0
 10
470.2361688406
 20
70.8995882575
 30
0.0
 10
470.227976924
 20
70.7967499694
 30
0.0
  0
SPLINE
  5
5E0
100
AcDbEntity
  8
BEZUGSACHSEN
100
AcDbSpline
 62
7
  6
CONTINUOUS
 70
0
 71
3
 72
9
 73
5
 74
0
 42
0.0000001
 43
0.0000001
 44
0.0000000001
 40
0.0
 40
0.0
 40
0.0
 40
0.0
 40
0.2553937655
 40
1.0
 40
1.0
 40
1.0
 40
1.0
 10
467.6286873193
 20
66.1155079246
 30
0.0
 10
467.5261633662
 20
66.0013929542
 30
0.0
 10
467.1181177229
 20
65.5605916454
 30
0.0
 10
466.6840821773
 20
65.1435762029
 30
0.0
 10
466.3459865338
 20
64.8507767867
 30
0.0
  0
SPLINE
  5
5E1
100
AcDbEntity
  8
KONSTRUKTIONSELEMENTE
100
AcDbSpline
 62
7
  6
CONTINUOUS
 70
0
 71
3
 72
13
 73
9
 74
0
 42
0.0000001
 43
0.0000001
 44
0.0000000001
 40
0.0
 40
0.0
 40
0.0
 40
0.0
 40
0.2854781235
 40
0.5704521399
 40
0.700966491
 40
0.8178838308
 40
0.9181009276
 40
1.0
 40
1.0
 40
1.0
 40
1.0
 10
425.1923718687
 20
33.7807010292
 30
0.0
 10
425.5019707556
 20
34.0488215302
 30
0.0
 10
426.0780971086
 20
34.6344064279
 30
0.0
 10
426.6863332226
 20
35.4396998931
 30
0.0
 10
427.0720717879
 20
36.0998920336
 30
0.0
 10
427.2827925805
 20
36.553086334
 30
0.0
 10
427.4163445435
 20
36.9617990814
 30
0.0
 10
427.4551135685
 20
37.2227964224
 30
0.0
 10
427.4551135685
 20
37.3402928234
 30
0.0
  0
SPLINE
  5
5E2
100
AcDbEntity
  8
KONSTRUKTIONSELEMENTE
100
AcDbSpline
 62
7
  6
CONTINUOUS
 70
0
 71
3
 72
12
 73
8
 74
0
 42
0.0000001
 43
0.0000001
 44
0.0000000001
 40
0.0
 40
0.0
 40
0.0
 40
0.0
 40
0.1424771274
 40
0.2441121659
 40
0.3668815707
 40
0.6641109534
 40
1.0
 40
1.0
 40
1.0
 40
1.0
 10
453.6210603041
 20
69.0172497832
 30
0.0
 10
453.6760342182
 20
68.9814963998
 30
0.0
 10
453.8035839446
 20
68.9857573912
 30
0.0
 10
453.959656972
 20
69.0430350805
 30
0.0
 10
454.1727962103
 20
69.1576001277
 30
0.0
 10
454.4471555765
 20
69.3738760884
 30
0.0
 10
454.6495126071
 20
69.5849997181
 30
0.0
 10
454.7486914491
 20
69.7035932857
 30
0.0
  0
SPLINE
  5
5E3
100
AcDbEntity
  8
KONSTRUKTIONSELEMENTE
100
AcDbSpline
 62
7
  6
CONTINUOUS
 70
0
 71
3
 72
10
 73
6
 74
0
 42
0.0000001
 43
0.0000001
 44
0.0000000001
 40
0.0
 40
0.0
 40
0.0
 40
0.0
 40
0.3401098209
 40
0.6176924174
 40
1.0
 40
1.0
 40
1.0
 40
1.0
 10
456.1579842801
 20
37.3396308632
 30
0.0
 10
456.1504354589
 20
37.3216463947
 30
0.0
 10
456.1386101002
 20
37.2878068313
 30
0.0
 10
456.1277076335
 20
37.2325754651
 30
0.0
 10
456.1358821031
 20
37.1891024068
 30
0.0
 10
456.1524527974
 20
37.1747464452
 30
0.0
  0
SPLINE
  5
5E4
100
AcDbEntity
  8
KONSTRUKTIONSELEMENTE
100
AcDbSpline
 62
7
  6
CONTINUOUS
 70
0
 71
3
 72
12
 73
8
 74
0
 42
0.0000001
 43
0.0000001
 44
0.0000000001
 40
0.0
 40
0.0
 40
0.0
 40
0.0
 40
0.303216907
 40
0.581772921
 40
0.8177338134
 40
0.9159369993
 40
1.0
 40
1.0
 40
1.0
 40
1.0
 10
429.0881957383
 20
42.550743994
 30
0.0
 10
428.8502293019
 20
42.2661945066
 30
0.0
 10
428.4196264648
 20
41.6975274004
 30
0.0
 10
427.9035527691
 20
40.8386642002
 30
0.0
 10
427.603802968
 20
40.1468623496
 30
0.0
 10
427.4787943202
 20
39.6496963463
 30
0.0
 10
427.4551135685
 20
39.4266761166
 30
0.0
 10
427.4551135685
 20
39.3238377744
 30
0.0
  0
SPLINE
  5
5E5
100
AcDbEntity
  8
KONSTRUKTIONSELEMENTE
100
AcDbSpline
 62
7
  6
CONTINUOUS
 70
0
 71
3
 72
15
 73
11
 74
0
 42
0.0000001
 43
0.0000001
 44
0.0000000001
 40
0.0
 40
0.0
 40
0.0
 40
0.0
 40
0.0643794215
 40
0.1447670279
 40
0.2460796662
 40
0.3684482679
 40
0.5094197477
 40
0.6650286244
 40
0.8303788796
 40
1.0
 40
1.0
 40
1.0
 40
1.0
 10
463.7468672281
 20
81.7872578665
 30
0.0
 10
463.6637926765
 20
81.8412870611
 30
0.0
 10
463.4396051993
 20
81.9049463318
 30
0.0
 10
463.0586980748
 20
81.8594728229
 30
0.0
 10
462.6154823012
 20
81.7015080631
 30
0.0
 10
462.120408418
 20
81.4337117598
 30
0.0
 10
461.5896041397
 20
81.0657434454
 30
0.0
 10
461.0426272399
 20
80.610190985
 30
0.0
 10
460.5001242391
 20
80.0840050745
 30
0.0
 10
460.1555958716
 20
79.6997340614
 30
0.0
 10
459.988096745
 20
79.4994461916
 30
0.0
  0
SPLINE
  5
5E6
100
AcDbEntity
  8
KONSTRUKTIONSELEMENTE
100
AcDbSpline
 62
7
  6
CONTINUOUS
 70
0
 71
3
 72
11
 73
7
 74
0
 42
0.0000001
 43
0.0000001
 44
0.0000000001
 40
0.0
 40
0.0
 40
0.0
 40
0.0
 40
0.3179594006
 40
0.6021603801
 40
0.8341697945
 40
1.0
 40
1.0
 40
1.0
 40
1.0
 10
457.0323524544
 20
76.6579062693
 30
0.0
 10
457.1330771017
 20
76.7132068556
 30
0.0
 10
457.3197676624
 20
76.8253405162
 30
0.0
 10
457.5634697518
 20
77.0046583784
 30
0.0
 10
457.7413779705
 20
77.1744895756
 30
0.0
 10
457.8251492438
 20
77.2969122268
 30
0.0
 10
457.8421191333
 20
77.3543885605
 30
0.0
  0
SPLINE
  5
5E7
100
AcDbEntity
  8
KONSTRUKTIONSELEMENTE
100
AcDbSpline
 62
7
  6
CONTINUOUS
 70
0
 71
3
 72
13
 73
9
 74
0
 42
0.0000001
 43
0.0000001
 44
0.0000000001
 40
0.0
 40
0.0
 40
0.0
 40
0.0
 40
0.3168637478
 40
0.6100579332
 40
0.7371323552
 40
0.8456364708
 40
0.9329740508
 40
1.0
 40
1.0
 40
1.0
 40
1.0
 10
458.3009816045
 20
75.5592411973
 30
0.0
 10
458.3518328937
 20
75.7082980134
 30
0.0
 10
458.4333074356
 20
76.0010466837
 30
0.0
 10
458.4896337346
 20
76.3645345844
 30
0.0
 10
458.4952327009
 20
76.6276744539
 30
0.0
 10
458.4794986981
 20
76.7880215002
 30
0.0
 10
458.4448350426
 20
76.9146497673
 30
0.0
 10
458.4021654841
 20
76.9815983932
 30
0.0
 10
458.3770350018
 20
77.0034683489
 30
0.0
  0
SPLINE
  5
5E8
100
AcDbEntity
  8
KONSTRUKTIONSELEMENTE
100
AcDbSpline
 62
7
  6
CONTINUOUS
 70
0
 71
3
 72
12
 73
8
 74
0
 42
0.0000001
 43
0.0000001
 44
0.0000000001
 40
0.0
 40
0.0
 40
0.0
 40
0.0
 40
0.3358890466
 40
0.6331184293
 40
0.7558878341
 40
0.8575228726
 40
1.0
 40
1.0
 40
1.0
 40
1.0
 10
452.0406117031
 20
70.5793629925
 30
0.0
 10
452.1397905451
 20
70.6979565601
 30
0.0
 10
452.3421475757
 20
70.9090801898
 30
0.0
 10
452.6165069419
 20
71.1253561505
 30
0.0
 10
452.8296461802
 20
71.2399211977
 30
0.0
 10
452.9857192076
 20
71.2971988871
 30
0.0
 10
453.113268934
 20
71.3014598785
 30
0.0
 10
453.168242848
 20
71.265706495
 30
0.0
  0
SPLINE
  5
5E9
100
AcDbEntity
  8
KONSTRUKTIONSELEMENTE
100
AcDbSpline
 62
7
  6
CONTINUOUS
 70
0
 71
3
 72
12
 73
8
 74
0
 42
0.0000001
 43
0.0000001
 44
0.0000000001
 40
0.0
 40
0.0
 40
0.0
 40
0.0
 40
0.1424771274
 40
0.2441121659
 40
0.3668815707
 40
0.6641109534
 40
1.0
 40
1.0
 40
1.0
 40
1.0
 10
454.363587803
 20
70.4882900182
 30
0.0
 10
454.418561717
 20
70.4525366347
 30
0.0
 10
454.5461114434
 20
70.4567976261
 30
0.0
 10
454.7021844708
 20
70.5140753155
 30
0.0
 10
454.9153237091
 20
70.6286403627
 30
0.0
 10
455.1896830753
 20
70.8449163234
 30
0.0
 10
455.3920401059
 20
71.056039953
 30
0.0
 10
455.4912189479
 20
71.1746335206
 30
0.0
  0
SPLINE
  5
5EA
100
AcDbEntity
  8
KONSTRUKTIONSELEMENTE
100
AcDbSpline
 62
7
  6
CONTINUOUS
 70
0
 71
3
 72
13
 73
9
 74
0
 42
0.0000001
 43
0.0000001
 44
0.0000000001
 40
0.0
 40
0.0
 40
0.0
 40
0.0
 40
0.1424374923
 40
0.2440429614
 40
0.3667933689
 40
0.5081503164
 40
0.6641988276
 40
1.0
 40
1.0
 40
1.0
 40
1.0
 10
453.3382175917
 20
69.2621987575
 30
0.0
 10
453.3931930842
 20
69.2264443474
 30
0.0
 10
453.5207536346
 20
69.2306966469
 30
0.0
 10
453.6768064651
 20
69.287987825
 30
0.0
 10
453.8264206375
 20
69.3682836476
 30
0.0
 10
453.9853193052
 20
69.4786397799
 30
0.0
 10
454.2096255679
 20
69.6654186654
 30
0.0
 10
454.366665403
 20
69.8299433216
 30
0.0
 10
454.4658487366
 20
69.9485422599
 30
0.0
  0
SPLINE
  5
5EB
100
AcDbEntity
  8
KONSTRUKTIONSELEMENTE
100
AcDbSpline
 62
7
  6
CONTINUOUS
 70
0
 71
3
 72
12
 73
8
 74
0
 42
0.0000001
 43
0.0000001
 44
0.0000000001
 40
0.0
 40
0.0
 40
0.0
 40
0.0
 40
0.285581653
 40
0.5706156379
 40
0.817816411
 40
0.9180971044
 40
1.0
 40
1.0
 40
1.0
 40
1.0
 10
416.7070904945
 20
27.7221297494
 30
0.0
 10
416.5909820932
 20
27.6215769243
 30
0.0
 10
416.3747483335
 20
27.4019214514
 30
0.0
 10
416.109522807
 20
27.0499508498
 30
0.0
 10
415.9451544787
 20
26.7491815345
 30
0.0
 10
415.8730972146
 20
26.5292199196
 30
0.0
 10
415.858562357
 20
26.4313334057
 30
0.0
 10
415.858562357
 20
26.3872828266
 30
0.0
  0
SPLINE
  5
5EC
100
AcDbEntity
  8
KONSTRUKTIONSELEMENTE
100
AcDbSpline
 62
7
  6
CONTINUOUS
 70
0
 71
3
 72
13
 73
9
 74
0
 42
0.0000001
 43
0.0000001
 44
0.0000000001
 40
0.0
 40
0.0
 40
0.0
 40
0.0
 40
0.0818990724
 40
0.1821161692
 40
0.299033509
 40
0.4295478601
 40
0.7145218765
 40
1.0
 40
1.0
 40
1.0
 40
1.0
 10
427.172270856
 20
38.3852417977
 30
0.0
 10
427.172270856
 20
38.2677453967
 30
0.0
 10
427.133501831
 20
38.0067480557
 30
0.0
 10
426.999949868
 20
37.5980353083
 30
0.0
 10
426.7892290754
 20
37.1448410078
 30
0.0
 10
426.4034905101
 20
36.4846488673
 30
0.0
 10
425.7952543961
 20
35.6793554022
 30
0.0
 10
425.2191280431
 20
35.0937705045
 30
0.0
 10
424.9095291562
 20
34.8256500035
 30
0.0
  0
SPLINE
  5
5ED
100
AcDbEntity
  8
KONSTRUKTIONSELEMENTE
100
AcDbSpline
 62
7
  6
CONTINUOUS
 70
0
 71
3
 72
13
 73
9
 74
0
 42
0.0000001
 43
0.0000001
 44
0.0000000001
 40
0.0
 40
0.0
 40
0.0
 40
0.0
 40
0.2854859153
 40
0.5704513138
 40
0.7009656111
 40
0.8178785543
 40
0.9181069222
 40
1.0
 40
1.0
 40
1.0
 40
1.0
 10
424.9095291562
 20
34.0256500035
 30
0.0
 10
425.2191362652
 20
34.293777625
 30
0.0
 10
425.7952598356
 20
34.8793620217
 30
0.0
 10
426.403496754
 20
35.6846549709
 30
0.0
 10
426.7892059544
 20
36.344839847
 30
0.0
 10
426.9999595178
 20
36.7980305838
 30
0.0
 10
427.1334859716
 20
37.2067522609
 30
0.0
 10
427.172270856
 20
37.4677540833
 30
0.0
 10
427.172270856
 20
37.5852417977
 30
0.0
  0
SPLINE
  5
5EE
100
AcDbEntity
  8
KONSTRUKTIONSELEMENTE
100
AcDbSpline
 62
7
  6
CONTINUOUS
 70
0
 71
3
 72
9
 73
5
 74
0
 42
0.0000001
 43
0.0000001
 44
0.0000000001
 40
0.0
 40
0.0
 40
0.0
 40
0.0
 40
0.2756955256
 40
1.0
 40
1.0
 40
1.0
 40
1.0
 10
427.172270856
 20
30.7452417977
 30
0.0
 10
427.172270856
 20
30.7734068932
 30
0.0
 10
427.1684615104
 20
30.8753661672
 30
0.0
 10
427.1476500214
 20
30.9778861448
 30
0.0
 10
427.1183197441
 20
31.0458199547
 30
0.0
  0
SPLINE
  5
5EF
100
AcDbEntity
  8
KONSTRUKTIONSELEMENTE
100
AcDbSpline
 62
7
  6
CONTINUOUS
 70
0
 71
3
 72
9
 73
5
 74
0
 42
0.0000001
 43
0.0000001
 44
0.0000000001
 40
0.0
 40
0.0
 40
0.0
 40
0.0
 40
0.5486959742
 40
1.0
 40
1.0
 40
1.0
 40
1.0
 10
427.172270856
 20
29.9452417977
 30
0.0
 10
427.172270856
 20
30.0368277397
 30
0.0
 10
427.1541587148
 20
30.2064209236
 30
0.0
 10
427.0613478484
 20
30.3553404358
 30
0.0
 10
427.0043954371
 20
30.4046454749
 30
0.0
  0
SPLINE
  5
5F0
100
AcDbEntity
  8
KONSTRUKTIONSELEMENTE
100
AcDbSpline
 62
7
  6
CONTINUOUS
 70
0
 71
3
 72
9
 73
5
 74
0
 42
0.0000001
 43
0.0000001
 44
0.0000000001
 40
0.0
 40
0.0
 40
0.0
 40
0.0
 40
0.5484587228
 40
1.0
 40
1.0
 40
1.0
 40
1.0
 10
415.858562357
 20
22.3472828266
 30
0.0
 10
415.858562357
 20
22.3129592053
 30
0.0
 10
415.8653871902
 20
22.2493876092
 30
0.0
 10
415.9001358467
 20
22.1935230924
 30
0.0
 10
415.9214973313
 20
22.1750238864
 30
0.0
  0
SPLINE
  5
5F1
100
AcDbEntity
  8
0
100
AcDbSpline
 62
7
  6
CONTINUOUS
 70
0
 71
3
 72
11
 73
7
 74
0
 42
0.0000001
 43
0.0000001
 44
0.0000000001
 40
0.0
 40
0.0
 40
0.0
 40
0.0
 40
0.2271632741
 40
0.4653196398
 40
0.722117124
 40
1.0
 40
1.0
 40
1.0
 40
1.0
 10
555.0584503212
 20
192.7768602022
 30
0.0
 10
555.0584503212
 20
193.7180883885
 30
0.0
 10
555.3163029287
 20
195.6549638124
 30
0.0
 10
556.4734281689
 20
198.4475292419
 30
0.0
 10
558.3973863618
 20
201.0438346173
 30
0.0
 10
560.1016281132
 20
202.492061092
 30
0.0
 10
561.0505699199
 20
203.1441230461
 30
0.0
  0
SPLINE
  5
5F2
100
AcDbEntity
  8
0
100
AcDbSpline
 62
7
  6
CONTINUOUS
 70
0
 71
3
 72
11
 73
7
 74
0
 42
0.0000001
 43
0.0000001
 44
0.0000000001
 40
0.0
 40
0.0
 40
0.0
 40
0.0
 40
0.2778854083
 40
0.5346836177
 40
0.7728387085
 40
1.0
 40
1.0
 40
1.0
 40
1.0
 10
583.0660851676
 20
203.1442883118
 30
0.0
 10
584.0150706774
 20
202.4922233307
 30
0.0
 10
585.7193897647
 20
201.0439824051
 30
0.0
 10
587.6434203324
 20
198.447624071
 30
0.0
 10
588.800592007
 20
195.6550110887
 30
0.0
 10
589.0584503212
 20
193.7181024423
 30
0.0
 10
589.0584503212
 20
192.7768602022
 30
0.0
  0
SPLINE
  5
5F3
100
AcDbEntity
  8
0
100
AcDbSpline
 62
7
  6
CONTINUOUS
 70
0
 71
3
 72
15
 73
11
 74
0
 42
0.0000001
 43
0.0000001
 44
0.0000000001
 40
0.0
 40
0.0
 40
0.0
 40
0.0
 40
0.1216443396
 40
0.2436829815
 40
0.3664942102
 40
0.490401278
 40
0.6156465481
 40
0.7423612383
 40
0.870532311
 40
1.0
 40
1.0
 40
1.0
 40
1.0
 10
539.0584503212
 20
192.7768602022
 30
0.0
 10
539.0584503212
 20
194.3191527834
 30
0.0
 10
539.3273483749
 20
197.4153400706
 30
0.0
 10
540.5234357523
 20
201.9277974165
 30
0.0
 10
542.4741096016
 20
206.2010494524
 30
0.0
 10
545.1205227062
 20
210.1293713292
 30
0.0
 10
548.3882442036
 20
213.6246023218
 30
0.0
 10
552.1924342789
 20
216.6134824589
 30
0.0
 10
556.4390846595
 20
219.0367929664
 30
0.0
 10
559.4893605796
 20
220.2406134476
 30
0.0
 10
561.0542055136
 20
220.7363201869
 30
0.0
  0
SPLINE
  5
5F4
100
AcDbEntity
  8
0
100
AcDbSpline
 62
7
  6
CONTINUOUS
 70
0
 71
3
 72
15
 73
11
 74
0
 42
0.0000001
 43
0.0000001
 44
0.0000000001
 40
0.0
 40
0.0
 40
0.0
 40
0.0
 40
0.1294682683
 40
0.257639392
 40
0.3843536869
 40
0.5095984777
 40
0.6335049419
 40
0.7563158278
 40
0.8783545891
 40
1.0
 40
1.0
 40
1.0
 40
1.0
 10
583.0592617522
 20
220.7374062046
 30
0.0
 10
584.6243080253
 20
220.2417975761
 30
0.0
 10
587.6750002655
 20
219.0381646117
 30
0.0
 10
591.9222616427
 20
216.614981036
 30
0.0
 10
595.7270355306
 20
213.6261187708
 30
0.0
 10
598.9952849594
 20
210.1307842616
 30
0.0
 10
601.6421491264
 20
206.2022451348
 30
0.0
 10
603.5931762103
 20
201.9286745371
 30
0.0
 10
604.7894982526
 20
197.415808193
 30
0.0
 10
605.0584503212
 20
194.3193119748
 30
0.0
 10
605.0584503212
 20
192.7768602022
 30
0.0
  0
SPLINE
  5
5F5
100
AcDbEntity
  8
0
100
AcDbSpline
 62
7
  6
CONTINUOUS
 70
0
 71
3
 72
15
 73
11
 74
0
 42
0.0000001
 43
0.0000001
 44
0.0000000001
 40
0.0
 40
0.0
 40
0.0
 40
0.0
 40
0.1212740553
 40
0.2430054443
 40
0.3656277137
 40
0.4894991939
 40
0.614868772
 40
0.7418320422
 40
0.8702986694
 40
1.0
 40
1.0
 40
1.0
 40
1.0
 10
605.0584503212
 20
161.599945666
 30
0.0
 10
605.0584503212
 20
159.9363683871
 30
0.0
 10
604.745177343
 20
156.5946680577
 30
0.0
 10
603.3544726838
 20
151.7476784245
 30
0.0
 10
601.0944224977
 20
147.1997007924
 30
0.0
 10
598.0434867111
 20
143.079975506
 30
0.0
 10
594.2997028707
 20
139.4937533063
 30
0.0
 10
589.9736682229
 20
136.5262589153
 30
0.0
 10
585.1868680658
 20
134.2441805255
 30
0.0
 10
581.7818669749
 20
133.2154620473
 30
0.0
 10
580.0454667992
 20
132.8276600193
 30
0.0
  0
SPLINE
  5
5F6
100
AcDbEntity
  8
0
100
AcDbSpline
 62
7
  6
CONTINUOUS
 70
0
 71
3
 72
11
 73
7
 74
0
 42
0.0000001
 43
0.0000001
 44
0.0000000001
 40
0.0
 40
0.0
 40
0.0
 40
0.0
 40
0.2543946817
 40
0.5061619811
 40
0.7547411569
 40
1.0
 40
1.0
 40
1.0
 40
1.0
 10
564.07078341
 20
132.8278111202
 30
0.0
 10
562.2217254894
 20
133.2408026403
 30
0.0
 10
558.600446236
 20
134.353746296
 30
0.0
 10
553.541385569
 20
136.8594023485
 30
0.0
 10
549.0240579991
 20
140.1331249188
 30
0.0
 10
546.4506991859
 20
142.7931966605
 30
0.0
 10
545.3062683863
 20
144.2168070224
 30
0.0
  0
SPLINE
  5
5F7
100
AcDbEntity
  8
0
100
AcDbSpline
 62
7
  6
CONTINUOUS
 70
0
 71
3
 72
9
 73
5
 74
0
 42
0.0000001
 43
0.0000001
 44
0.0000000001
 40
0.0
 40
0.0
 40
0.0
 40
0.0
 40
0.5014863472
 40
1.0
 40
1.0
 40
1.0
 40
1.0
 10
541.9572259141
 20
149.4276532668
 30
0.0
 10
541.0160720281
 20
151.3114525967
 30
0.0
 10
539.5562791427
 20
155.2929012542
 30
0.0
 10
539.0584503212
 20
159.5066102048
 30
0.0
 10
539.0584503212
 20
161.599945666
 30
0.0
  0
SPLINE
  5
5F8
100
AcDbEntity
  8
0
100
AcDbSpline
 62
7
  6
CONTINUOUS
 70
0
 71
3
 72
14
 73
10
 74
0
 42
0.0000001
 43
0.0000001
 44
0.0000000001
 40
0.0
 40
0.0
 40
0.0
 40
0.0
 40
0.1063900054
 40
0.2156017555
 40
0.3299155885
 40
0.4508360261
 40
0.5789278828
 40
0.7139370388
 40
1.0
 40
1.0
 40
1.0
 40
1.0
 10
589.0584503212
 20
161.599945666
 30
0.0
 10
589.0584503212
 20
160.9249312853
 30
0.0
 10
588.9282805061
 20
159.5536361782
 30
0.0
 10
588.3422239733
 20
157.5322818591
 30
0.0
 10
587.3582892087
 20
155.5676972103
 30
0.0
 10
585.9773535375
 20
153.7082017892
 30
0.0
 10
584.2132137929
 20
152.0113720974
 30
0.0
 10
581.3463654977
 20
150.0128720685
 30
0.0
 10
578.8193466787
 20
149.0023631868
 30
0.0
 10
577.0587026466
 20
148.5615513935
 30
0.0
  0
SPLINE
  5
5F9
100
AcDbEntity
  8
0
100
AcDbSpline
 62
7
  6
CONTINUOUS
 70
0
 71
3
 72
9
 73
5
 74
0
 42
0.0000001
 43
0.0000001
 44
0.0000000001
 40
0.0
 40
0.0
 40
0.0
 40
0.0
 40
0.5209612268
 40
1.0
 40
1.0
 40
1.0
 40
1.0
 10
567.0569517094
 20
148.5618632976
 30
0.0
 10
565.3360645857
 20
148.9928238283
 30
0.0
 10
562.1233746545
 20
150.26278322
 30
0.0
 10
559.4009078076
 20
152.4092839048
 30
0.0
 10
558.3070419796
 20
153.6194497824
 30
0.0
  0
ELLIPSE
  5
5FA
100
AcDbEntity
  8
KONSTRUKTIONSELEMENTE
100
AcDbEllipse
 62
7
  6
CONTINUOUS
 10
57.8954781588
 20
77.9785561471
 30
0.0
 11
1.2190545427
 21
-0.2881363524
 31
0.0
 40
0.0607989098
 41
-2.7235007144
 42
-1.1527043876
  0
ELLIPSE
  5
5FB
100
AcDbEntity
  8
KONSTRUKTIONSELEMENTE
100
AcDbEllipse
 62
7
  6
CONTINUOUS
 10
61.5503783512
 20
75.962247344
 30
0.0
 11
-0.6571930639
 21
1.2278016269
 31
0.0
 40
0.7424978488
 41
4.1566475332
 42
5.72744386
  0
ELLIPSE
  5
5FC
100
AcDbEntity
  8
0
100
AcDbEllipse
 62
7
  6
CONTINUOUS
 10
340.8457252412
 20
77.2340929145
 30
0.0
 11
-24.248711306
 21
42.0
 31
0.0
 40
0.5773502692
 41
-0.3895798701
 42
-0.1632238035
  0
ELLIPSE
  5
5FD
100
AcDbEntity
  8
0
100
AcDbEllipse
 62
7
  6
CONTINUOUS
 10
340.8457252412
 20
77.2340929145
 30
0.0
 11
-24.248711306
 21
42.0
 31
0.0
 40
0.5773502692
 41
0.1632238035
 42
0.3895798701
  0
ELLIPSE
  5
5FE
100
AcDbEntity
  8
KONSTRUKTIONSELEMENTE
100
AcDbEllipse
 62
7
  6
CONTINUOUS
 10
95.4284296482
 20
77.2340929145
 30
0.0
 11
24.248711306
 21
42.0
 31
0.0
 40
0.5773502692
 41
-0.3895798701
 42
-0.1632238035
  0
ELLIPSE
  5
5FF
100
AcDbEntity
  8
KONSTRUKTIONSELEMENTE
100
AcDbEllipse
 62
7
  6
CONTINUOUS
 10
95.4284296482
 20
77.2340929145
 30
0.0
 11
24.248711306
 21
42.0
 31
0.0
 40
0.5773502692
 41
0.1632238035
 42
0.3895798701
  0
ELLIPSE
  5
600
100
AcDbEntity
  8
KONSTRUKTIONSELEMENTE
100
AcDbEllipse
 62
7
  6
CONTINUOUS
 10
608.8084503212
 20
77.2340929145
 30
0.0
 11
-27.2509717051
 21
44.0929984453
 31
0.0
 40
0.1458980338
 41
0.5699258004
 42
0.6214036746
  0
ELLIPSE
  5
601
100
AcDbEntity
  8
0
100
AcDbEllipse
 62
7
  6
CONTINUOUS
 10
535.3084503212
 20
77.2340929145
 30
0.0
 11
27.2509717051
 21
44.0929984453
 31
0.0
 40
0.1458980338
 41
-0.6214036746
 42
-0.5699258004
  0
ELLIPSE
  5
602
100
AcDbEntity
  8
0
100
AcDbEllipse
 62
7
  6
CONTINUOUS
 10
566.9183647179
 20
130.3501183183
 30
0.0
 11
0.1486249178
 21
-3.9993103621
 31
0.0
 40
0.4997412519
 41
0.5050292078
 42
1.3717821734
  0
ELLIPSE
  5
603
100
AcDbEntity
  8
RUNDUNGEN
100
AcDbEllipse
 62
7
  6
CONTINUOUS
 10
577.1985359244
 20
130.3501183183
 30
0.0
 11
0.1486249178
 21
3.9993103621
 31
0.0
 40
0.4997412519
 41
-4.513374827
 42
-3.6466218614
  0
ELLIPSE
  5
604
100
AcDbEntity
  8
KONSTRUKTIONSELEMENTE
100
AcDbEllipse
 62
7
  6
CONTINUOUS
 10
456.5194030551
 20
79.9381479413
 30
0.0
 11
-0.1344257292
 21
1.6705470633
 31
0.0
 40
0.2046205075
 41
1.414284035
 42
2.9366755487
  0
ELLIPSE
  5
605
100
AcDbEntity
  8
KONSTRUKTIONSELEMENTE
100
AcDbEllipse
 62
7
  6
CONTINUOUS
 10
458.7821447549
 20
77.9785561471
 30
0.0
 11
1.6566910203
 21
0.13331076
 31
0.0
 40
0.1605475814
 41
1.7760442449
 42
3.2984357586
  0
ELLIPSE
  5
606
100
AcDbEntity
  8
KONSTRUKTIONSELEMENTE
100
AcDbEllipse
 62
7
  6
CONTINUOUS
 10
459.4291056306
 20
75.962247344
 30
0.0
 11
1.0985426996
 21
1.2922902194
 31
0.0
 40
0.2502772103
 41
-1.538620793
 42
0.0321755338
  0
ENDSEC
  0
SECTION
  2
OBJECTS
  0
DICTIONARY
  5
C
100
AcDbDictionary
280
0
281
1
  3
ACAD_GROUP
350
D
  3
ACAD_MLINESTYLE
350
17
  3
ACAD_LAYOUT
350
1A
  3
ACAD_PLOTSETTINGS
350
19
  3
ACAD_PLOTSTYLENAME
350
E
  0
DICTIONARY
  5
D
102
{ACAD_REACTORS
330
C
102
}
100
AcDbDictionary
280
0
281
1
  0
ACDBDICTIONARYWDFLT
  5
E
102
{ACAD_REACTORS
330
C
102
}
100
AcDbDictionary
281
1
  3
Normal
350
F
100
AcDbDictionaryWithDefault
340
F
  0
DICTIONARY
  5
17
102
{ACAD_REACTORS
330
C
102
}
100
AcDbDictionary
280
0
281
1
  3
Standard
350
18
  0
DICTIONARY
  5
19
102
{ACAD_REACTORS
330
C
102
}
100
AcDbDictionary
281
1
  0
DICTIONARY
  5
1A
102
{ACAD_REACTORS
330
C
102
}
100
AcDbDictionary
281
1
  3
Model
350
607
  3
Layout1
350
608
  0
ACDBPLACEHOLDER
  5
F
102
{ACAD_REACTORS
330
E
102
}
  0
MLINESTYLE
  5
18
102
{ACAD_REACTORS
330
17
102
}
100
AcDbMlineStyle
  2
STANDARD
 70
0
  3

 62
256
 51
90.0
 52
90.0
 71
2
 49
0.5
 62
256
  6
BYLAYER
 49
-0.5
 62
256
  6
BYLAYER
  0
LAYOUT
  5
607
102
{ACAD_REACTORS
330
1A
102
}
100
AcDbPlotSettings
  1

  2
none_device
  4
ISO_A1_(594.00_x_841.00_MM)
  6

 40
0.0
 41
0.0
 42
0.0
 43
0.0
 44
841.0
 45
594.0
 46
0.0
 47
0.0
 48
0.0
 49
0.0
140
0.0
141
0.0
142
1.0
143
1.0
 70
1024
 72
1
 73
0
 74
0
  7

 75
0
147
1.0
148
0.0
149
0.0
100
AcDbLayout
  1
Model
 70
0
 71
0
 10
0.0
 20
0.0
 11
841.0
 21
594.0
 12
0.0
 22
0.0
 32
0.0
 14
0.0
 24
0.0
 34
0.0
 15
0.0
 25
0.0
 35
0.0
146
0.0
 13
0.0
 23
0.0
 33
0.0
 16
1.0
 26
0.0
 36
0.0
 17
0.0
 27
1.0
 37
0.0
 76
0
330
20C
345
0
346
0
  0
LAYOUT
  5
608
102
{ACAD_REACTORS
330
1A
102
}
100
AcDbPlotSettings
  1

  2
none_device
  4
ISO_A1_(594.00_x_841.00_MM)
  6

 40
0.0
 41
0.0
 42
0.0
 43
0.0
 44
841.0
 45
594.0
 46
0.0
 47
0.0
 48
0.0
 49
0.0
140
0.0
141
0.0
142
1.0
143
1.0
 70
0
 72
1
 73
0
 74
0
  7

 75
0
147
1.0
148
0.0
149
0.0
100
AcDbLayout
  1
Layout1
 70
0
 71
1
 10
0.0
 20
0.0
 11
841.0
 21
594.0
 12
0.0
 22
0.0
 32
0.0
 14
0.0
 24
0.0
 34
0.0
 15
0.0
 25
0.0
 35
0.0
146
0.0
 13
0.0
 23
0.0
 33
0.0
 16
1.0
 26
0.0
 36
0.0
 17
0.0
 27
1.0
 37
0.0
 76
0
330
20D
345
0
346
0
  0
ENDSEC
  0
EOF
