999
DXF file: VSAK-2-8_140_7994071_M32393-P-2.dxf
999
Pro/ENGINEER 2010140 by Parametric Technology Corporation
  0
SECTION
  2
HEADER
  9
$ACADVER
  1
AC1015
  9
$DWGCODEPAGE
  3
ANSI_1252
  9
$EXTMAX
 10
841.0
 20
594.0
 30
0.0
  9
$EXTMIN
 10
0.0
 20
0.0
 30
0.0
  9
$LIMMIN
 10
0.0
 20
0.0
  9
$LIMMAX
 10
841.0
 20
594.0
  9
$VIEWCTR
 10
420.5
 20
297.0
  9
$VIEWSIZE
 40
594.0
  9
$CLAYER
  8
0
  9
$LTSCALE
 40
46.255
  9
$CELTYPE
  6
BYLAYER
  9
$DIMSCALE
 40
1.0
  9
$DIMASZ
 40
3.5
  9
$DIMEXO
 40
5.25625
  9
$DIMDLI
 40
31.958
  9
$DIMEXE
 40
15.138
  9
$DIMCEN
 40
7.569
  9
$DIMLFAC
 40
1.0
  9
$DIMBLK
  1
_FILLED
  9
$DIMTXT
 40
3.5
  9
$DIMTOL
 70
1
  9
$DIMLIM
 70
0
  9
$DIMTFAC
 40
1.0
  9
$DIMTP
 40
0.005
  9
$DIMTM
 40
0.005
  9
$PDMODE
 70
3
  9
$PDSIZE
 40
0.3125
  9
$HANDSEED
  5
609
  9
$TILEMODE
 70
1
  9
$MEASUREMENT
 70
1
  9
$INSUNITS
 70
4
  0
ENDSEC
  0
SECTION
  2
CLASSES
  0
CLASS
  1
ACDBDICTIONARYWDFLT
  2
AcDbDictionaryWithDefault
  3
AutoCAD 2000
 90
0
280
0
281
0
  0
CLASS
  1
ACDBPLACEHOLDER
  2
AcDbPlaceHolder
  3
AutoCAD 2000
 90
0
280
0
281
0
  0
CLASS
  1
LAYOUT
  2
AcDbLayout
  3
AutoCAD 2000
 90
0
280
0
281
0
  0
ENDSEC
  0
SECTION
  2
TABLES
  0
TABLE
  2
VPORT
  5
8
100
AcDbSymbolTable
 70
2
  0
VPORT
  5
1F4
100
AcDbSymbolTableRecord
100
AcDbViewportTableRecord
  2
*ACTIVE
 70
0
 10
0.0
 20
0.0
 11
1.0
 21
1.0
 12
420.5
 22
297.0
 13
0.0
 23
0.0
 14
1.0
 24
1.0
 15
0.0
 25
0.0
 16
0.0
 26
0.0
 36
1.0
 17
0.0
 27
0.0
 37
0.0
 40
594.0
 41
1.4158249158
 42
50.0
 43
0.0
 44
0.0
 50
0.0
 51
0.0
 71
0
 72
100
 73
1
 74
1
 75
0
 76
0
 77
0
 78
0
  0
ENDTAB
  0
TABLE
  2
LTYPE
  5
5
100
AcDbSymbolTable
 70
6
  0
LTYPE
  5
14
100
AcDbSymbolTableRecord
100
AcDbLinetypeTableRecord
  2
BYBLOCK
 70
0
  3

 72
65
 73
0
 40
0.0
  0
LTYPE
  5
15
100
AcDbSymbolTableRecord
100
AcDbLinetypeTableRecord
  2
BYLAYER
 70
0
  3

 72
65
 73
0
 40
0.0
  0
LTYPE
  5
16
100
AcDbSymbolTableRecord
100
AcDbLinetypeTableRecord
  2
CONTINUOUS
 70
64
  3
Solid line
 72
65
 73
0
 40
0.0
  0
LTYPE
  5
1F5
100
AcDbSymbolTableRecord
100
AcDbLinetypeTableRecord
  2
CENTER
 70
64
  3
____ _ ____ _ ____ _ ____ _ ____ _ ____ _ ____
 72
65
 73
4
 40
0.6
 49
0.375
 74
0
 49
-0.075
 74
0
 49
0.075
 74
0
 49
-0.075
 74
0
  0
LTYPE
  5
1F6
100
AcDbSymbolTableRecord
100
AcDbLinetypeTableRecord
  2
HIDDEN
 70
64
  3
- - - - - - - - - - - - - - - - - - - -
 72
65
 73
2
 40
0.2
 49
0.1
 74
0
 49
-0.1
 74
0
  0
LTYPE
  5
1F7
100
AcDbSymbolTableRecord
100
AcDbLinetypeTableRecord
  2
PHANTOM
 70
64
  3
_____ _ _ _____ _ _ _____ _ _ _____
 72
65
 73
6
 40
0.8
 49
0.45
 74
0
 49
-0.05
 74
0
 49
0.1
 74
0
 49
-0.05
 74
0
 49
0.1
 74
0
 49
-0.05
 74
0
  0
LTYPE
  5
1F8
100
AcDbSymbolTableRecord
100
AcDbLinetypeTableRecord
  2
DOT
 70
64
  3
. . . . . . . . . . . . . . . . . . . .
 72
65
 73
2
 40
0.2
 49
0.1
 74
0
 49
-0.1
 74
0
  0
LTYPE
  5
1F9
100
AcDbSymbolTableRecord
100
AcDbLinetypeTableRecord
  2
DASHED
 70
64
  3
- - - - - - - - - - - - - - - - - - - -
 72
65
 73
2
 40
0.2
 49
0.1
 74
0
 49
-0.1
 74
0
  0
ENDTAB
  0
TABLE
  2
LAYER
  5
2
100
AcDbSymbolTable
 70
36
  0
LAYER
  5
10
100
AcDbSymbolTableRecord
100
AcDbLayerTableRecord
  2
0
 70
0
 62
7
  6
CONTINUOUS
370
-3
390
F
  0
LAYER
  5
1FA
100
AcDbSymbolTableRecord
100
AcDbLayerTableRecord
  2
DEFAULT_1
 70
0
 62
7
  6
CENTER
370
-3
390
F
  0
LAYER
  5
1FB
100
AcDbSymbolTableRecord
100
AcDbLayerTableRecord
  2
DEFAULT_2
 70
0
 62
8
  6
HIDDEN
370
-3
390
F
  0
LAYER
  5
1FC
100
AcDbSymbolTableRecord
100
AcDbLayerTableRecord
  2
DEFAULT_3
 70
0
 62
7
  6
PHANTOM
370
-3
390
F
  0
LAYER
  5
1FD
100
AcDbSymbolTableRecord
100
AcDbLayerTableRecord
  2
AUSFORMSCHRAEGEN
 70
0
 62
7
  6
CONTINUOUS
370
-3
390
F
  0
LAYER
  5
1FE
100
AcDbSymbolTableRecord
100
AcDbLayerTableRecord
  2
BEZUGSACHSEN
 70
0
 62
7
  6
CONTINUOUS
370
-3
390
F
  0
LAYER
  5
1FF
100
AcDbSymbolTableRecord
100
AcDbLayerTableRecord
  2
BEZUGSEBENEN
 70
0
 62
7
  6
CONTINUOUS
370
-3
390
F
  0
LAYER
  5
200
100
AcDbSymbolTableRecord
100
AcDbLayerTableRecord
  2
BG_STARTBEZUEGE
 70
0
 62
7
  6
CONTINUOUS
370
-3
390
F
  0
LAYER
  5
201
100
AcDbSymbolTableRecord
100
AcDbLayerTableRecord
  2
FASEN
 70
0
 62
7
  6
CONTINUOUS
370
-3
390
F
  0
LAYER
  5
202
100
AcDbSymbolTableRecord
100
AcDbLayerTableRecord
  2
HILFEN
 70
0
 62
7
  6
CONTINUOUS
370
-3
390
F
  0
LAYER
  5
203
100
AcDbSymbolTableRecord
100
AcDbLayerTableRecord
  2
KONSTRUKTIONSELEMENTE
 70
0
 62
7
  6
CONTINUOUS
370
-3
390
F
  0
LAYER
  5
204
100
AcDbSymbolTableRecord
100
AcDbLayerTableRecord
  2
NORM
 70
0
 62
7
  6
CONTINUOUS
370
-3
390
F
  0
LAYER
  5
205
100
AcDbSymbolTableRecord
100
AcDbLayerTableRecord
  2
PLATZIERUNG
 70
0
 62
7
  6
CONTINUOUS
370
-3
390
F
  0
LAYER
  5
206
100
AcDbSymbolTableRecord
100
AcDbLayerTableRecord
  2
PLAZIERUNG
 70
0
 62
7
  6
CONTINUOUS
370
-3
390
F
  0
LAYER
  5
207
100
AcDbSymbolTableRecord
100
AcDbLayerTableRecord
  2
RUNDUNGEN
 70
0
 62
7
  6
CONTINUOUS
370
-3
390
F
  0
LAYER
  5
208
100
AcDbSymbolTableRecord
100
AcDbLayerTableRecord
  2
TEIL_STARTBEZUEGE
 70
0
 62
7
  6
CONTINUOUS
370
-3
390
F
  0
LAYER
  5
209
100
AcDbSymbolTableRecord
100
AcDbLayerTableRecord
  2
T_STARTBEZUEGE
 70
0
 62
7
  6
CONTINUOUS
370
-3
390
F
  0
ENDTAB
  0
TABLE
  2
STYLE
  5
3
100
AcDbSymbolTable
 70
1
  0
STYLE
  5
11
100
AcDbSymbolTableRecord
100
AcDbTextStyleTableRecord
  2
STANDARD
 70
0
 40
0.0
 41
0.7
 50
0.0
 71
0
 42
0.2
  3
txt
  4

  0
STYLE
  5
20A
100
AcDbSymbolTableRecord
100
AcDbTextStyleTableRecord
  2
TEXTSTYLE_1
 70
0
 40
0.0
 41
0.8
 50
0.0
 71
0
 42
0.2
  3
gdt
  4

  0
ENDTAB
  0
TABLE
  2
VIEW
  5
6
100
AcDbSymbolTable
 70
0
  0
ENDTAB
  0
TABLE
  2
UCS
  5
7
100
AcDbSymbolTable
 70
0
  0
ENDTAB
  0
TABLE
  2
APPID
  5
9
100
AcDbSymbolTable
 70
1
  0
APPID
  5
20B
100
AcDbSymbolTableRecord
100
AcDbRegAppTableRecord
  2
ACAD
 70
0
  0
ENDTAB
  0
TABLE
  2
BLOCK_RECORD
  5
1
100
AcDbSymbolTable
 70
0
  0
BLOCK_RECORD
  5
20C
100
AcDbSymbolTableRecord
100
AcDbBlockTableRecord
  2
*Model_Space
  0
BLOCK_RECORD
  5
20D
100
AcDbSymbolTableRecord
100
AcDbBlockTableRecord
  2
*Paper_Space
  0
ENDTAB
  0
TABLE
  2
DIMSTYLE
  5
A
100
AcDbSymbolTable
 70
1
100
AcDbDimStyleTable
 71
0
  0
DIMSTYLE
105
20E
100
AcDbSymbolTableRecord
100
AcDbDimStyleTableRecord
  2
STANDARD
 70
0
  3

  4

 40
1.0
 41
3.5
 42
0.0625
 43
0.38
 44
0.18
 45
0.0
 46
0.0
 47
0.005
 48
0.005
140
3.5
141
0.09
142
0.0
143
25.4
144
1.0
145
0.0
146
1.0
147
0.09
 71
1.0
 72
0.0
 73
0
 74
0
 75
0
 76
0
 77
1
 78
8
170
0
171
2
172
0
173
0
174
0
175
0
176
0
177
0
178
5
270
2
271
3
272
3
273
2
274
2
275
0
280
0
281
0
282
0
283
1
284
8
285
0
286
0
287
3
288
0
340
11
  0
ENDTAB
  0
ENDSEC
  0
SECTION
  2
BLOCKS
  0
BLOCK
  5
20
100
AcDbEntity
  8
0
100
AcDbBlockBegin
  2
*Model_Space
 70
0
 10
0.0
 20
0.0
 30
0.0
  3
*Model_Space
  1

  0
ENDBLK
  5
21
100
AcDbEntity
  8
0
100
AcDbBlockEnd
  0
BLOCK
  5
1C
100
AcDbEntity
  8
0
100
AcDbBlockBegin
  2
*Paper_Space
 70
0
 10
0.0
 20
0.0
 30
0.0
  3
*Paper_Space
  1

  0
ENDBLK
  5
1D
100
AcDbEntity
  8
0
100
AcDbBlockEnd
  0
ENDSEC
  0
SECTION
  2
ENTITIES
  0
MTEXT
  5
20F
100
AcDbEntity
  8
0
100
AcDbMText
 62
5
  6
CONTINUOUS
  7
STANDARD
 71
1
 72
1
 10
132.7897041662
 20
370.4592982577
 30
0.0
 11
0.0
 21
1.0
 31
0.0
 44
0.9
  1
RUD
 40
8.0
 41
21.3333333333
  0
MTEXT
  5
210
100
AcDbEntity
  8
0
100
AcDbMText
 62
5
  6
CONTINUOUS
  7
STANDARD
 71
1
 72
1
 10
295.1706894362
 20
345.5494752894
 30
0.0
 11
0.0
 21
1.0
 31
0.0
 44
0.9
  1
VSAK 2-8/140
 40
8.0
 41
75.4285714286
  0
MTEXT
  5
211
100
AcDbEntity
  8
0
100
AcDbMText
 62
5
  6
CONTINUOUS
  7
STANDARD
 71
1
 72
1
 10
568.1973426347
 20
330.2817234647
 30
0.0
 11
0.0
 21
1.0
 31
0.0
 44
0.9
  1
RUD VSAK 2-8/140
 40
8.0
 41
101.5238095238
  0
LINE
  5
212
100
AcDbEntity
  8
0
100
AcDbLine
 62
7
  6
CONTINUOUS
 10
0.0
 20
0.0
 11
0.0
 21
594.0
  0
LINE
  5
213
100
AcDbEntity
  8
0
100
AcDbLine
 62
7
  6
CONTINUOUS
 10
0.0
 20
0.0
 11
841.0
 21
0.0
  0
LINE
  5
214
100
AcDbEntity
  8
0
100
AcDbLine
 62
7
  6
CONTINUOUS
 10
0.0
 20
594.0
 11
841.0
 21
594.0
  0
LINE
  5
215
100
AcDbEntity
  8
0
100
AcDbLine
 62
7
  6
CONTINUOUS
 10
841.0
 20
0.0
 11
841.0
 21
594.0
  0
LINE
  5
216
100
AcDbEntity
  8
KONSTRUKTIONSELEMENTE
100
AcDbLine
 62
7
  6
CONTINUOUS
 10
74.1120087868
 20
79.6753491129
 11
80.4166737263
 21
76.0353491129
  0
LINE
  5
217
100
AcDbEntity
  8
KONSTRUKTIONSELEMENTE
100
AcDbLine
 62
7
  6
CONTINUOUS
 10
73.9070199815
 20
80.1202980872
 11
74.253430143
 21
79.9202980872
  0
LINE
  5
218
100
AcDbEntity
  8
KONSTRUKTIONSELEMENTE
100
AcDbLine
 62
7
  6
CONTINUOUS
 10
80.5580950825
 20
76.2802980872
 11
80.9045052441
 21
76.0802980872
  0
LINE
  5
219
100
AcDbEntity
  8
KONSTRUKTIONSELEMENTE
100
AcDbLine
 62
7
  6
CONTINUOUS
 10
73.56198111
 20
93.056853035
 11
76.9975817441
 21
91.073308084
  0
LINE
  5
21A
100
AcDbEntity
  8
KONSTRUKTIONSELEMENTE
100
AcDbLine
 62
7
  6
CONTINUOUS
 10
88.8448092679
 20
84.233308084
 11
101.83594298
 21
76.7328735383
  0
LINE
  5
21B
100
AcDbEntity
  8
KONSTRUKTIONSELEMENTE
100
AcDbLine
 62
7
  6
CONTINUOUS
 10
106.1237044339
 20
76.9126685457
 11
102.5650867259
 21
80.8996090856
  0
LINE
  5
21C
100
AcDbEntity
  8
KONSTRUKTIONSELEMENTE
100
AcDbLine
 62
7
  6
CONTINUOUS
 10
107.5379179963
 20
79.3621582885
 11
103.9793002883
 21
83.3490988283
  0
LINE
  5
21D
100
AcDbEntity
  8
KONSTRUKTIONSELEMENTE
100
AcDbLine
 62
7
  6
CONTINUOUS
 10
69.6049971616
 20
123.7609064637
 11
74.4633763319
 21
122.7502650438
  0
LINE
  5
21E
100
AcDbEntity
  8
KONSTRUKTIONSELEMENTE
100
AcDbLine
 62
7
  6
CONTINUOUS
 10
69.7464185179
 20
124.005855438
 11
74.6047976881
 21
122.9952140181
  0
LINE
  5
21F
100
AcDbEntity
  8
KONSTRUKTIONSELEMENTE
100
AcDbLine
 62
7
  6
CONTINUOUS
 10
70.7946710062
 20
124.9987217556
 11
74.5318857525
 21
124.2213052788
  0
LINE
  5
220
100
AcDbEntity
  8
KONSTRUKTIONSELEMENTE
100
AcDbLine
 62
7
  6
CONTINUOUS
 10
71.9260418561
 20
126.9583135498
 11
75.3629473465
 21
126.24336749
  0
LINE
  5
221
100
AcDbEntity
  8
KONSTRUKTIONSELEMENTE
100
AcDbLine
 62
7
  6
CONTINUOUS
 10
70.8744261792
 20
131.526849885
 11
74.43891871
 21
130.7853631327
  0
LINE
  5
222
100
AcDbEntity
  8
KONSTRUKTIONSELEMENTE
100
AcDbLine
 62
7
  6
CONTINUOUS
 10
73.973043565
 20
130.9957287717
 11
69.1146643948
 21
132.0063701916
  0
LINE
  5
223
100
AcDbEntity
  8
KONSTRUKTIONSELEMENTE
100
AcDbLine
 62
7
  6
CONTINUOUS
 10
99.5161922892
 20
129.9204700397
 11
72.5966873666
 21
135.5202731271
  0
LINE
  5
224
100
AcDbEntity
  8
KONSTRUKTIONSELEMENTE
100
AcDbLine
 62
7
  6
CONTINUOUS
 10
69.1146643948
 20
132.0063701916
 11
69.2743137349
 21
131.9447963507
  0
LINE
  5
225
100
AcDbEntity
  8
KONSTRUKTIONSELEMENTE
100
AcDbLine
 62
7
  6
CONTINUOUS
 10
100.9304058516
 20
132.3699597825
 11
74.0109009289
 21
137.9697628699
  0
LINE
  5
226
100
AcDbEntity
  8
KONSTRUKTIONSELEMENTE
100
AcDbLine
 62
7
  6
CONTINUOUS
 10
130.845852008
 20
95.0595866637
 11
134.404469716
 21
91.0726461238
  0
LINE
  5
227
100
AcDbEntity
  8
KONSTRUKTIONSELEMENTE
100
AcDbLine
 62
7
  6
CONTINUOUS
 10
111.2281331139
 20
123.1585778518
 11
135.8921317836
 21
95.5259675969
  0
LINE
  5
228
100
AcDbEntity
  8
KONSTRUKTIONSELEMENTE
100
AcDbLine
 62
7
  6
CONTINUOUS
 10
137.306345346
 20
97.9754573397
 11
112.6423466762
 21
125.6080675946
  0
LINE
  5
229
100
AcDbEntity
  8
KONSTRUKTIONSELEMENTE
100
AcDbLine
 62
7
  6
CONTINUOUS
 10
133.6648273831
 20
147.4782828624
 11
130.9582437613
 21
149.0409296451
  0
LINE
  5
22A
100
AcDbEntity
  8
KONSTRUKTIONSELEMENTE
100
AcDbLine
 62
7
  6
CONTINUOUS
 10
112.0659111281
 20
159.9484229765
 11
109.3593275063
 21
161.5110697591
  0
LINE
  5
22B
100
AcDbEntity
  8
0
100
AcDbLine
 62
7
  6
CONTINUOUS
 10
120.7966618575
 20
162.3555401652
 11
128.6774930319
 21
157.8055401652
  0
LINE
  5
22C
100
AcDbEntity
  8
KONSTRUKTIONSELEMENTE
100
AcDbLine
 62
7
  6
CONTINUOUS
 10
69.0417524592
 20
133.2324614523
 11
69.1146643948
 21
132.0063701916
  0
LINE
  5
22D
100
AcDbEntity
  8
KONSTRUKTIONSELEMENTE
100
AcDbLine
 62
7
  6
CONTINUOUS
 10
69.6049971616
 20
123.7609064637
 11
71.238979926
 21
96.2837592546
  0
LINE
  5
22E
100
AcDbEntity
  8
KONSTRUKTIONSELEMENTE
100
AcDbLine
 62
7
  6
CONTINUOUS
 10
69.7464185179
 20
124.005855438
 11
69.728190534
 21
124.3123782532
  0
LINE
  5
22F
100
AcDbEntity
  8
0
100
AcDbLine
 62
7
  6
CONTINUOUS
 10
125.5966618575
 20
170.6693840415
 11
133.4774930319
 21
166.1193840415
  0
LINE
  5
230
100
AcDbEntity
  8
KONSTRUKTIONSELEMENTE
100
AcDbLine
 62
7
  6
CONTINUOUS
 10
75.1715427751
 20
129.4620376615
 11
75.5298568041
 21
123.4366085463
  0
LINE
  5
231
100
AcDbEntity
  8
BEZUGSACHSEN
100
AcDbLine
 62
7
  6
CONTINUOUS
 10
159.3691573374
 20
189.4406695202
 11
159.7879101963
 21
189.285504005
  0
LINE
  5
232
100
AcDbEntity
  8
BEZUGSACHSEN
100
AcDbLine
 62
7
  6
CONTINUOUS
 10
161.1576058139
 20
189.4250024736
 11
161.4913447933
 21
189.2738049716
  0
LINE
  5
233
100
AcDbEntity
  8
0
100
AcDbLine
 62
7
  6
CONTINUOUS
 10
288.5966816569
 20
215.8144712153
 11
296.2597707068
 21
217.4433110755
  0
LINE
  5
234
100
AcDbEntity
  8
BEZUGSACHSEN
100
AcDbLine
 62
7
  6
CONTINUOUS
 10
158.8908205525
 20
196.2370326772
 11
159.1539519481
 21
196.2602216799
  0
LINE
  5
235
100
AcDbEntity
  8
BEZUGSACHSEN
100
AcDbLine
 62
7
  6
CONTINUOUS
 10
158.8399328277
 20
199.8984714003
 11
159.2363909101
 21
199.900432159
  0
LINE
  5
236
100
AcDbEntity
  8
BEZUGSACHSEN
100
AcDbLine
 62
7
  6
CONTINUOUS
 10
160.3370232056
 20
198.993466763
 11
160.7032322743
 21
198.9819208121
  0
LINE
  5
237
100
AcDbEntity
  8
BEZUGSACHSEN
100
AcDbLine
 62
7
  6
CONTINUOUS
 10
160.0429516563
 20
189.2735999736
 11
159.7879101963
 21
189.285504005
  0
LINE
  5
238
100
AcDbEntity
  8
BEZUGSACHSEN
100
AcDbLine
 62
7
  6
CONTINUOUS
 10
161.7463862533
 20
189.2619009402
 11
161.4913447933
 21
189.2738049716
  0
LINE
  5
239
100
AcDbEntity
  8
BEZUGSACHSEN
100
AcDbLine
 62
7
  6
CONTINUOUS
 10
160.0587423355
 20
189.6119120753
 11
159.8037008755
 21
189.6238161067
  0
LINE
  5
23A
100
AcDbEntity
  8
BEZUGSACHSEN
100
AcDbLine
 62
7
  6
CONTINUOUS
 10
161.7621769325
 20
189.6002130419
 11
161.5921492925
 21
189.6081490628
  0
LINE
  5
23B
100
AcDbEntity
  8
BEZUGSACHSEN
100
AcDbLine
 62
7
  6
CONTINUOUS
 10
161.8379719613
 20
191.2241061743
 11
161.6679443214
 21
191.2320421953
  0
LINE
  5
23C
100
AcDbEntity
  8
BEZUGSACHSEN
100
AcDbLine
 62
7
  6
CONTINUOUS
 10
159.8858120604
 20
191.3830316019
 11
160.1408535204
 21
191.3711275706
  0
LINE
  5
23D
100
AcDbEntity
  8
BEZUGSACHSEN
100
AcDbLine
 62
7
  6
CONTINUOUS
 10
161.5987211806
 20
191.5743223074
 11
161.8537626405
 21
191.562418276
  0
LINE
  5
23E
100
AcDbEntity
  8
BEZUGSACHSEN
100
AcDbLine
 62
7
  6
CONTINUOUS
 10
159.9016027396
 20
191.7213437036
 11
160.1566441996
 21
191.7094396723
  0
LINE
  5
23F
100
AcDbEntity
  8
BEZUGSACHSEN
100
AcDbLine
 62
7
  6
CONTINUOUS
 10
158.8834879385
 20
200.3203649629
 11
159.0992193828
 21
200.292351065
  0
LINE
  5
240
100
AcDbEntity
  8
BEZUGSACHSEN
100
AcDbLine
 62
7
  6
CONTINUOUS
 10
139.4937221913
 20
207.6581239598
 11
139.7752653273
 21
207.6208841912
  0
LINE
  5
241
100
AcDbEntity
  8
BEZUGSACHSEN
100
AcDbLine
 62
7
  6
CONTINUOUS
 10
160.3952930776
 20
198.5823449814
 11
160.681474454
 21
198.5418400492
  0
LINE
  5
242
100
AcDbEntity
  8
BEZUGSACHSEN
100
AcDbLine
 62
7
  6
CONTINUOUS
 10
143.4531319942
 20
211.3706900538
 11
143.7899566463
 21
211.2785155068
  0
LINE
  5
243
100
AcDbEntity
  8
BEZUGSACHSEN
100
AcDbLine
 62
7
  6
CONTINUOUS
 10
158.4567556488
 20
195.9358814932
 11
158.8690632037
 21
195.7969504362
  0
LINE
  5
244
100
AcDbEntity
  8
BEZUGSACHSEN
100
AcDbLine
 62
7
  6
CONTINUOUS
 10
160.7032322743
 20
198.9819208121
 11
161.1155398012
 21
198.8429897449
  0
LINE
  5
245
100
AcDbEntity
  8
BEZUGSACHSEN
100
AcDbLine
 62
7
  6
CONTINUOUS
 10
143.4424469848
 20
210.8601636199
 11
143.7115500745
 21
210.7694064443
  0
LINE
  5
246
100
AcDbEntity
  8
0
100
AcDbLine
 62
7
  6
CONTINUOUS
 10
295.1256096557
 20
149.4418584301
 11
300.9252872197
 21
147.3309484284
  0
LINE
  5
247
100
AcDbEntity
  8
BEZUGSACHSEN
100
AcDbLine
 62
7
  6
CONTINUOUS
 10
160.1566441996
 20
191.7094396723
 11
160.5753971181
 21
191.5542741542
  0
LINE
  5
248
100
AcDbEntity
  8
BEZUGSACHSEN
100
AcDbLine
 62
7
  6
CONTINUOUS
 10
161.8537626405
 20
191.562418276
 11
162.2725156781
 21
191.4072527525
  0
LINE
  5
249
100
AcDbEntity
  8
BEZUGSACHSEN
100
AcDbLine
 62
7
  6
CONTINUOUS
 10
139.2186375381
 20
207.2645228068
 11
139.5148181711
 21
207.1434448477
  0
LINE
  5
24A
100
AcDbEntity
  8
BEZUGSACHSEN
100
AcDbLine
 62
7
  6
CONTINUOUS
 10
136.3067730903
 20
210.2370605687
 11
136.6506346509
 21
210.0943811113
  0
LINE
  5
24B
100
AcDbEntity
  8
BEZUGSACHSEN
100
AcDbLine
 62
7
  6
CONTINUOUS
 10
158.5541901684
 20
200.0424650619
 11
158.8399328277
 21
199.8984714003
  0
LINE
  5
24C
100
AcDbEntity
  8
BEZUGSACHSEN
100
AcDbLine
 62
7
  6
CONTINUOUS
 10
139.264268249
 20
207.7908516055
 11
139.4937221913
 21
207.6581239598
  0
LINE
  5
24D
100
AcDbEntity
  8
BEZUGSACHSEN
100
AcDbLine
 62
7
  6
CONTINUOUS
 10
158.6616169763
 20
196.3701922065
 11
158.8908205525
 21
196.2370326772
  0
LINE
  5
24E
100
AcDbEntity
  8
BEZUGSACHSEN
100
AcDbLine
 62
7
  6
CONTINUOUS
 10
160.681474454
 20
198.5418400492
 11
160.9106779742
 21
198.4086804997
  0
LINE
  5
24F
100
AcDbEntity
  8
BEZUGSACHSEN
100
AcDbLine
 62
7
  6
CONTINUOUS
 10
161.3434241331
 20
189.7553785543
 11
161.5921492925
 21
189.6081490628
  0
LINE
  5
250
100
AcDbEntity
  8
BEZUGSACHSEN
100
AcDbLine
 62
7
  6
CONTINUOUS
 10
161.8379719613
 20
191.2241061743
 11
162.0866973589
 21
191.0768766717
  0
LINE
  5
251
100
AcDbEntity
  8
BEZUGSACHSEN
100
AcDbLine
 62
7
  6
CONTINUOUS
 10
136.3942979377
 20
209.815154258
 11
136.581314928
 21
209.7040253356
  0
LINE
  5
252
100
AcDbEntity
  8
BEZUGSACHSEN
100
AcDbLine
 62
7
  6
CONTINUOUS
 10
143.7899566463
 20
211.2785155068
 11
144.057278901
 21
211.1026705922
  0
LINE
  5
253
100
AcDbEntity
  8
BEZUGSACHSEN
100
AcDbLine
 62
7
  6
CONTINUOUS
 10
159.4731199146
 20
189.8426747929
 11
159.8037008755
 21
189.6238161067
  0
LINE
  5
254
100
AcDbEntity
  8
BEZUGSACHSEN
100
AcDbLine
 62
7
  6
CONTINUOUS
 10
160.1408535204
 20
191.3711275706
 11
160.4714345409
 21
191.1522688816
  0
LINE
  5
255
100
AcDbEntity
  8
BEZUGSACHSEN
100
AcDbLine
 62
7
  6
CONTINUOUS
 10
158.705611402
 20
200.4503510119
 11
158.8834879385
 21
200.3203649629
  0
LINE
  5
256
100
AcDbEntity
  8
BEZUGSACHSEN
100
AcDbLine
 62
7
  6
CONTINUOUS
 10
158.2045018234
 20
196.132736509
 11
158.4567556488
 21
195.9358814932
  0
LINE
  5
257
100
AcDbEntity
  8
BEZUGSACHSEN
100
AcDbLine
 62
7
  6
CONTINUOUS
 10
161.1155398012
 20
198.8429897449
 11
161.367793078
 21
198.6461361794
  0
LINE
  5
258
100
AcDbEntity
  8
BEZUGSACHSEN
100
AcDbLine
 62
7
  6
CONTINUOUS
 10
136.6506346509
 20
210.0943811113
 11
136.9613322847
 21
209.8481092371
  0
LINE
  5
259
100
AcDbEntity
  8
BEZUGSACHSEN
100
AcDbLine
 62
7
  6
CONTINUOUS
 10
143.7115500745
 20
210.7694064443
 11
143.9111515418
 21
210.5949788848
  0
LINE
  5
25A
100
AcDbEntity
  8
BEZUGSACHSEN
100
AcDbLine
 62
7
  6
CONTINUOUS
 10
159.1235902263
 20
189.6555601945
 11
159.3691573374
 21
189.4406695202
  0
LINE
  5
25B
100
AcDbEntity
  8
BEZUGSACHSEN
100
AcDbLine
 62
7
  6
CONTINUOUS
 10
160.9120387325
 20
189.6398931465
 11
161.1576058139
 21
189.4250024736
  0
LINE
  5
25C
100
AcDbEntity
  8
BEZUGSACHSEN
100
AcDbLine
 62
7
  6
CONTINUOUS
 10
162.2725156781
 20
191.4072527525
 11
162.5180827594
 21
191.1923620795
  0
LINE
  5
25D
100
AcDbEntity
  8
BEZUGSACHSEN
100
AcDbLine
 62
7
  6
CONTINUOUS
 10
138.8931830631
 20
207.5532773101
 11
139.2186375381
 21
207.2645228068
  0
LINE
  5
25E
100
AcDbEntity
  8
BEZUGSACHSEN
100
AcDbLine
 62
7
  6
CONTINUOUS
 10
161.1010151298
 20
190.0379304087
 11
161.3434241331
 21
189.7553785543
  0
LINE
  5
25F
100
AcDbEntity
  8
BEZUGSACHSEN
100
AcDbLine
 62
7
  6
CONTINUOUS
 10
137.0007346686
 20
208.406755852
 11
138.2647222817
 21
206.7925769875
  0
LINE
  5
260
100
AcDbEntity
  8
BEZUGSACHSEN
100
AcDbLine
 62
7
  6
CONTINUOUS
 10
139.0869035209
 20
208.019067011
 11
139.264268249
 21
207.7908516055
  0
LINE
  5
261
100
AcDbEntity
  8
BEZUGSACHSEN
100
AcDbLine
 62
7
  6
CONTINUOUS
 10
136.6810616991
 20
208.1035150036
 11
137.8213685782
 21
206.6244790566
  0
LINE
  5
262
100
AcDbEntity
  8
BEZUGSACHSEN
100
AcDbLine
 62
7
  6
CONTINUOUS
 10
136.581314928
 20
209.7040253356
 11
136.7351678103
 21
209.4893039275
  0
LINE
  5
263
100
AcDbEntity
  8
BEZUGSACHSEN
100
AcDbLine
 62
7
  6
CONTINUOUS
 10
136.9613322847
 20
209.8481092371
 11
137.1151851669
 21
209.633387829
  0
LINE
  5
264
100
AcDbEntity
  8
0
100
AcDbLine
 62
7
  6
CONTINUOUS
 10
108.3897120003
 20
162.8958242113
 11
107.4110756804
 21
168.4459465805
  0
LINE
  5
265
100
AcDbEntity
  8
RUNDUNGEN
100
AcDbLine
 62
7
  6
CONTINUOUS
 10
107.4110756804
 20
168.4459465805
 11
107.3179749048
 21
168.9739473163
  0
LINE
  5
266
100
AcDbEntity
  8
RUNDUNGEN
100
AcDbLine
 62
7
  6
CONTINUOUS
 10
113.191569369
 20
180.6190319637
 11
113.191569369
 21
184.891175503
  0
LINE
  5
267
100
AcDbEntity
  8
BEZUGSACHSEN
100
AcDbLine
 62
7
  6
CONTINUOUS
 10
162.177771892
 20
189.3773863369
 11
161.7463862533
 21
189.2619009402
  0
LINE
  5
268
100
AcDbEntity
  8
BEZUGSACHSEN
100
AcDbLine
 62
7
  6
CONTINUOUS
 10
160.474337176
 20
189.3890853759
 11
160.0429516563
 21
189.2735999736
  0
LINE
  5
269
100
AcDbEntity
  8
BEZUGSACHSEN
100
AcDbLine
 62
7
  6
CONTINUOUS
 10
159.9016027396
 20
191.7213437036
 11
159.4702172795
 21
191.6058582986
  0
LINE
  5
26A
100
AcDbEntity
  8
BEZUGSACHSEN
100
AcDbLine
 62
7
  6
CONTINUOUS
 10
159.9138368082
 20
198.9123566387
 11
160.3370232056
 21
198.993466763
  0
LINE
  5
26B
100
AcDbEntity
  8
BEZUGSACHSEN
100
AcDbLine
 62
7
  6
CONTINUOUS
 10
139.8630880054
 20
207.1178547217
 11
140.1299944119
 21
207.1644532549
  0
LINE
  5
26C
100
AcDbEntity
  8
BEZUGSACHSEN
100
AcDbLine
 62
7
  6
CONTINUOUS
 10
139.7752653273
 20
207.6208841912
 11
140.0421717338
 21
207.6674827244
  0
LINE
  5
26D
100
AcDbEntity
  8
BEZUGSACHSEN
100
AcDbLine
 62
7
  6
CONTINUOUS
 10
158.8690632037
 20
195.7969504362
 11
159.2122220442
 21
195.8490999794
  0
LINE
  5
26E
100
AcDbEntity
  8
BEZUGSACHSEN
100
AcDbLine
 62
7
  6
CONTINUOUS
 10
160.0521342931
 20
198.5301954585
 11
160.3952930776
 21
198.5823449814
  0
LINE
  5
26F
100
AcDbEntity
  8
BEZUGSACHSEN
100
AcDbLine
 62
7
  6
CONTINUOUS
 10
135.9599196606
 20
210.1965690841
 11
136.3067730903
 21
210.2370605687
  0
LINE
  5
270
100
AcDbEntity
  8
BEZUGSACHSEN
100
AcDbLine
 62
7
  6
CONTINUOUS
 10
141.7441276464
 20
207.4055824977
 11
142.8097228502
 21
207.3832802347
  0
LINE
  5
271
100
AcDbEntity
  8
BEZUGSACHSEN
100
AcDbLine
 62
7
  6
CONTINUOUS
 10
142.1611389314
 20
207.907604828
 11
143.1010838841
 21
207.8879323488
  0
LINE
  5
272
100
AcDbEntity
  8
BEZUGSACHSEN
100
AcDbLine
 62
7
  6
CONTINUOUS
 10
142.2234681618
 20
210.8856761093
 11
143.4424469848
 21
210.8601636199
  0
LINE
  5
273
100
AcDbEntity
  8
BEZUGSACHSEN
100
AcDbLine
 62
7
  6
CONTINUOUS
 10
141.8278268969
 20
211.4047067063
 11
143.4531319942
 21
211.3706900538
  0
LINE
  5
274
100
AcDbEntity
  8
BEZUGSACHSEN
100
AcDbLine
 62
7
  6
CONTINUOUS
 10
136.1741170206
 20
209.8226907635
 11
136.3942979377
 21
209.815154258
  0
LINE
  5
275
100
AcDbEntity
  8
BEZUGSACHSEN
100
AcDbLine
 62
7
  6
CONTINUOUS
 10
139.5148181711
 20
207.1434448477
 11
139.8630880054
 21
207.1178547217
  0
LINE
  5
276
100
AcDbEntity
  8
0
100
AcDbLine
 62
7
  6
CONTINUOUS
 10
147.6774732325
 20
215.8144712153
 11
140.0143841826
 21
217.4433110755
  0
LINE
  5
277
100
AcDbEntity
  8
0
100
AcDbLine
 62
7
  6
CONTINUOUS
 10
166.7760409156
 20
201.9924613568
 11
161.533879693
 21
207.8144712153
  0
LINE
  5
278
100
AcDbEntity
  8
BEZUGSACHSEN
100
AcDbLine
 62
7
  6
CONTINUOUS
 10
160.5753971181
 20
191.5542741542
 11
160.8178061214
 21
191.2717222999
  0
LINE
  5
279
100
AcDbEntity
  8
BEZUGSACHSEN
100
AcDbLine
 62
7
  6
CONTINUOUS
 10
162.0866973589
 20
191.0768766717
 11
162.3291063622
 21
190.7943248173
  0
LINE
  5
27A
100
AcDbEntity
  8
BEZUGSACHSEN
100
AcDbLine
 62
7
  6
CONTINUOUS
 10
158.4893916158
 20
196.5960048345
 11
158.6616169763
 21
196.3701922065
  0
LINE
  5
27B
100
AcDbEntity
  8
BEZUGSACHSEN
100
AcDbLine
 62
7
  6
CONTINUOUS
 10
160.9106779742
 20
198.4086804997
 11
161.0829043897
 21
198.182864956
  0
LINE
  5
27C
100
AcDbEntity
  8
BEZUGSACHSEN
100
AcDbLine
 62
7
  6
CONTINUOUS
 10
144.057278901
 20
211.1026705922
 11
144.321039486
 21
210.7566501996
  0
LINE
  5
27D
100
AcDbEntity
  8
BEZUGSACHSEN
100
AcDbLine
 62
7
  6
CONTINUOUS
 10
158.8843392786
 20
190.0057732313
 11
159.1235902263
 21
189.6555601945
  0
LINE
  5
27E
100
AcDbEntity
  8
BEZUGSACHSEN
100
AcDbLine
 62
7
  6
CONTINUOUS
 10
162.5180827594
 20
191.1923620795
 11
162.7573335402
 21
190.8421459464
  0
LINE
  5
27F
100
AcDbEntity
  8
BEZUGSACHSEN
100
AcDbLine
 62
7
  6
CONTINUOUS
 10
158.0092272268
 20
196.4222416926
 11
158.2045018234
 21
196.132736509
  0
LINE
  5
280
100
AcDbEntity
  8
BEZUGSACHSEN
100
AcDbLine
 62
7
  6
CONTINUOUS
 10
161.367793078
 20
198.6461361794
 11
161.5630687227
 21
198.3566280776
  0
LINE
  5
281
100
AcDbEntity
  8
BEZUGSACHSEN
100
AcDbLine
 62
7
  6
CONTINUOUS
 10
138.7011814043
 20
207.8653310428
 11
138.8931830631
 21
207.5532773101
  0
LINE
  5
282
100
AcDbEntity
  8
BEZUGSACHSEN
100
AcDbLine
 62
7
  6
CONTINUOUS
 10
156.9484093279
 20
198.9148929817
 11
157.1934461767
 21
198.5089677905
  0
LINE
  5
283
100
AcDbEntity
  8
BEZUGSACHSEN
100
AcDbLine
 62
7
  6
CONTINUOUS
 10
157.6864681529
 20
201.1505589502
 11
158.1984370953
 21
200.30243716
  0
LINE
  5
284
100
AcDbEntity
  8
BEZUGSACHSEN
100
AcDbLine
 62
7
  6
CONTINUOUS
 10
158.0405096669
 20
201.5521508037
 11
158.705611402
 21
200.4503510119
  0
LINE
  5
285
100
AcDbEntity
  8
BEZUGSACHSEN
100
AcDbLine
 62
7
  6
CONTINUOUS
 10
159.1334176002
 20
202.211884966
 11
159.7985193352
 21
201.1100851742
  0
LINE
  5
286
100
AcDbEntity
  8
BEZUGSACHSEN
100
AcDbLine
 62
7
  6
CONTINUOUS
 10
159.2876881341
 20
202.779732949
 11
160.1278163041
 21
201.3879864024
  0
LINE
  5
287
100
AcDbEntity
  8
BEZUGSACHSEN
100
AcDbLine
 62
7
  6
CONTINUOUS
 10
159.3157247313
 20
190.1212586367
 11
159.4731199146
 21
189.8426747929
  0
LINE
  5
288
100
AcDbEntity
  8
BEZUGSACHSEN
100
AcDbLine
 62
7
  6
CONTINUOUS
 10
160.8333412132
 20
189.7791866171
 11
160.9120387325
 21
189.6398931465
  0
LINE
  5
289
100
AcDbEntity
  8
BEZUGSACHSEN
100
AcDbLine
 62
7
  6
CONTINUOUS
 10
160.4714345409
 20
191.1522688816
 11
160.6288297242
 21
190.8736850377
  0
LINE
  5
28A
100
AcDbEntity
  8
BEZUGSACHSEN
100
AcDbLine
 62
7
  6
CONTINUOUS
 10
160.8178061214
 20
191.2717222999
 11
160.8965036408
 21
191.1324288293
  0
LINE
  5
28B
100
AcDbEntity
  8
BEZUGSACHSEN
100
AcDbLine
 62
7
  6
CONTINUOUS
 10
143.9111515418
 20
210.5949788848
 11
144.0412513819
 21
210.336880703
  0
LINE
  5
28C
100
AcDbEntity
  8
BEZUGSACHSEN
100
AcDbLine
 62
7
  6
CONTINUOUS
 10
138.9616287604
 20
208.3427703682
 11
139.0869035209
 21
208.019067011
  0
LINE
  5
28D
100
AcDbEntity
  8
BEZUGSACHSEN
100
AcDbLine
 62
7
  6
CONTINUOUS
 10
135.8579456294
 20
205.8800455884
 11
134.4398502341
 21
209.620233478
  0
LINE
  5
28E
100
AcDbEntity
  8
BEZUGSACHSEN
100
AcDbLine
 62
7
  6
CONTINUOUS
 10
136.2379629861
 20
206.0241294899
 11
135.6043458855
 21
207.6952772941
  0
LINE
  5
28F
100
AcDbEntity
  8
BEZUGSACHSEN
100
AcDbLine
 62
7
  6
CONTINUOUS
 10
135.4233124524
 20
208.1727480316
 11
134.970728785
 21
209.3664250983
  0
LINE
  5
290
100
AcDbEntity
  8
BEZUGSACHSEN
100
AcDbLine
 62
7
  6
CONTINUOUS
 10
136.7351678103
 20
209.4893039275
 11
136.8256846114
 21
209.2505683358
  0
LINE
  5
291
100
AcDbEntity
  8
BEZUGSACHSEN
100
AcDbLine
 62
7
  6
CONTINUOUS
 10
137.1151851669
 20
209.633387829
 11
137.2358742069
 21
209.3150737811
  0
LINE
  5
292
100
AcDbEntity
  8
BEZUGSACHSEN
100
AcDbLine
 62
7
  6
CONTINUOUS
 10
138.5612691507
 20
208.2728725685
 11
138.7011814043
 21
207.8653310428
  0
LINE
  5
293
100
AcDbEntity
  8
BEZUGSACHSEN
100
AcDbLine
 62
7
  6
CONTINUOUS
 10
136.8528651623
 20
208.9878190064
 11
136.8256846114
 21
209.2505683358
  0
LINE
  5
294
100
AcDbEntity
  8
BEZUGSACHSEN
100
AcDbLine
 62
7
  6
CONTINUOUS
 10
137.2630547577
 20
209.0523244517
 11
137.2358742069
 21
209.3150737811
  0
LINE
  5
295
100
AcDbEntity
  8
0
100
AcDbLine
 62
7
  6
CONTINUOUS
 10
126.1370774447
 20
441.8540855921
 11
126.1370774447
 21
321.8540855921
  0
LINE
  5
296
100
AcDbEntity
  8
BEZUGSACHSEN
100
AcDbLine
 62
7
  6
CONTINUOUS
 10
138.1075186386
 20
210.8718582097
 11
138.5078782483
 21
210.9417560095
  0
LINE
  5
297
100
AcDbEntity
  8
BEZUGSACHSEN
100
AcDbLine
 62
7
  6
CONTINUOUS
 10
140.1093159237
 20
211.2213470752
 11
140.5096753425
 21
211.2912448417
  0
LINE
  5
298
100
AcDbEntity
  8
0
100
AcDbLine
 62
7
  6
CONTINUOUS
 10
284.2776829203
 20
162.487154541
 11
287.9774677539
 21
160.3510827713
  0
LINE
  5
299
100
AcDbEntity
  8
BEZUGSACHSEN
100
AcDbLine
 62
7
  6
CONTINUOUS
 10
144.321039486
 20
210.7566501996
 11
144.4493584961
 21
210.4134645172
  0
LINE
  5
29A
100
AcDbEntity
  8
BEZUGSACHSEN
100
AcDbLine
 62
7
  6
CONTINUOUS
 10
157.8017809994
 20
196.9954834629
 11
158.0092272268
 21
196.4222416926
  0
LINE
  5
29B
100
AcDbEntity
  8
BEZUGSACHSEN
100
AcDbLine
 62
7
  6
CONTINUOUS
 10
158.2819453884
 20
197.1692466048
 11
158.4893916158
 21
196.5960048345
  0
LINE
  5
29C
100
AcDbEntity
  8
BEZUGSACHSEN
100
AcDbLine
 62
7
  6
CONTINUOUS
 10
159.5867249433
 20
197.0651476528
 11
159.7941711708
 21
196.4919058825
  0
LINE
  5
29D
100
AcDbEntity
  8
BEZUGSACHSEN
100
AcDbLine
 62
7
  6
CONTINUOUS
 10
160.0668892763
 20
197.2389107744
 11
160.4126329887
 21
196.2835078239
  0
LINE
  5
29E
100
AcDbEntity
  8
BEZUGSACHSEN
100
AcDbLine
 62
7
  6
CONTINUOUS
 10
160.9945820032
 20
196.9263136865
 11
161.1328794882
 21
196.5441525063
  0
LINE
  5
29F
100
AcDbEntity
  8
BEZUGSACHSEN
100
AcDbLine
 62
7
  6
CONTINUOUS
 10
161.0829043897
 20
198.182864956
 11
161.2903506172
 21
197.6096231857
  0
LINE
  5
2A0
100
AcDbEntity
  8
BEZUGSACHSEN
100
AcDbLine
 62
7
  6
CONTINUOUS
 10
161.5630687227
 20
198.3566280776
 11
161.7705149502
 21
197.7833863073
  0
LINE
  5
2A1
100
AcDbEntity
  8
BEZUGSACHSEN
100
AcDbLine
 62
7
  6
CONTINUOUS
 10
144.0412513819
 20
210.336880703
 11
144.1018488297
 21
209.995112392
  0
LINE
  5
2A2
100
AcDbEntity
  8
BEZUGSACHSEN
100
AcDbLine
 62
7
  6
CONTINUOUS
 10
138.5612691507
 20
208.2728725685
 11
138.1075186386
 21
210.8718582097
  0
LINE
  5
2A3
100
AcDbEntity
  8
BEZUGSACHSEN
100
AcDbLine
 62
7
  6
CONTINUOUS
 10
138.9616287604
 20
208.3427703682
 11
138.5078782483
 21
210.9417560095
  0
LINE
  5
2A4
100
AcDbEntity
  8
BEZUGSACHSEN
100
AcDbLine
 62
7
  6
CONTINUOUS
 10
140.1093159237
 20
211.2213470752
 11
140.5630664358
 21
208.622361434
  0
LINE
  5
2A5
100
AcDbEntity
  8
BEZUGSACHSEN
100
AcDbLine
 62
7
  6
CONTINUOUS
 10
140.5096753425
 20
211.2912448417
 11
140.9634258546
 21
208.6922592004
  0
LINE
  5
2A6
100
AcDbEntity
  8
BEZUGSACHSEN
100
AcDbLine
 62
7
  6
CONTINUOUS
 10
157.7665601394
 20
197.3429126078
 11
157.8017809994
 21
196.9954834629
  0
LINE
  5
2A7
100
AcDbEntity
  8
BEZUGSACHSEN
100
AcDbLine
 62
7
  6
CONTINUOUS
 10
140.9698847141
 20
208.2614183748
 11
140.9634258546
 21
208.6922592004
  0
LINE
  5
2A8
100
AcDbEntity
  8
0
100
AcDbLine
 62
7
  6
CONTINUOUS
 10
148.1370774447
 20
441.8540855921
 11
148.1370774447
 21
321.8540855921
  0
LINE
  5
2A9
100
AcDbEntity
  8
BEZUGSACHSEN
100
AcDbLine
 62
7
  6
CONTINUOUS
 10
141.7441276464
 20
207.4055824977
 11
141.8278268969
 21
211.4047067063
  0
LINE
  5
2AA
100
AcDbEntity
  8
BEZUGSACHSEN
100
AcDbLine
 62
7
  6
CONTINUOUS
 10
142.1611389314
 20
207.907604828
 11
142.2234681618
 21
210.8856761093
  0
LINE
  5
2AB
100
AcDbEntity
  8
BEZUGSACHSEN
100
AcDbLine
 62
7
  6
CONTINUOUS
 10
144.1018488297
 20
209.995112392
 11
144.093731056
 21
209.6072476843
  0
LINE
  5
2AC
100
AcDbEntity
  8
BEZUGSACHSEN
100
AcDbLine
 62
7
  6
CONTINUOUS
 10
140.5548881839
 20
208.2753588435
 11
140.5630664358
 21
208.622361434
  0
LINE
  5
2AD
100
AcDbEntity
  8
BEZUGSACHSEN
100
AcDbLine
 62
7
  6
CONTINUOUS
 10
160.1278163041
 20
201.3879864024
 11
160.2299822239
 21
201.0540573784
  0
LINE
  5
2AE
100
AcDbEntity
  8
BEZUGSACHSEN
100
AcDbLine
 62
7
  6
CONTINUOUS
 10
159.2433433679
 20
190.3958744702
 11
159.3157247313
 21
190.1212586367
  0
LINE
  5
2AF
100
AcDbEntity
  8
BEZUGSACHSEN
100
AcDbLine
 62
7
  6
CONTINUOUS
 10
160.6288297242
 20
190.8736850377
 11
160.7012110876
 21
190.5990692043
  0
LINE
  5
2B0
100
AcDbEntity
  8
BEZUGSACHSEN
100
AcDbLine
 62
7
  6
CONTINUOUS
 10
161.0286337664
 20
190.3125462421
 11
161.1010151298
 21
190.0379304087
  0
LINE
  5
2B1
100
AcDbEntity
  8
BEZUGSACHSEN
100
AcDbLine
 62
7
  6
CONTINUOUS
 10
162.3291063622
 20
190.7943248173
 11
162.4014877256
 21
190.5197089839
  0
LINE
  5
2B2
100
AcDbEntity
  8
BEZUGSACHSEN
100
AcDbLine
 62
7
  6
CONTINUOUS
 10
158.8151161304
 20
190.3480533439
 11
158.8843392786
 21
190.0057732313
  0
LINE
  5
2B3
100
AcDbEntity
  8
BEZUGSACHSEN
100
AcDbLine
 62
7
  6
CONTINUOUS
 10
162.7573335402
 20
190.8421459464
 11
162.8265568256
 21
190.4998689316
  0
LINE
  5
2B4
100
AcDbEntity
  8
BEZUGSACHSEN
100
AcDbLine
 62
7
  6
CONTINUOUS
 10
159.7985193352
 20
201.1100851742
 11
159.8306748412
 21
200.8921345866
  0
LINE
  5
2B5
100
AcDbEntity
  8
BEZUGSACHSEN
100
AcDbLine
 62
7
  6
CONTINUOUS
 10
144.4493584961
 20
210.4134645172
 11
144.4705223928
 21
210.2598694236
  0
LINE
  5
2B6
100
AcDbEntity
  8
0
100
AcDbLine
 62
7
  6
CONTINUOUS
 10
168.4742087422
 20
185.8354737498
 11
166.7760409156
 21
201.9924613568
  0
LINE
  5
2B7
100
AcDbEntity
  8
BEZUGSACHSEN
100
AcDbLine
 62
7
  6
CONTINUOUS
 10
161.7705149502
 20
197.7833863073
 11
161.8057347621
 21
197.4359600806
  0
LINE
  5
2B8
100
AcDbEntity
  8
BEZUGSACHSEN
100
AcDbLine
 62
7
  6
CONTINUOUS
 10
158.2697737505
 20
197.452983189
 11
158.2819453884
 21
197.1692466048
  0
LINE
  5
2B9
100
AcDbEntity
  8
BEZUGSACHSEN
100
AcDbLine
 62
7
  6
CONTINUOUS
 10
161.2903506172
 20
197.6096231857
 11
161.3025212
 21
197.3258895172
  0
LINE
  5
2BA
100
AcDbEntity
  8
BEZUGSACHSEN
100
AcDbLine
 62
7
  6
CONTINUOUS
 10
158.8340648876
 20
190.754026627
 11
158.8151161304
 21
190.3480533439
  0
LINE
  5
2BB
100
AcDbEntity
  8
BEZUGSACHSEN
100
AcDbLine
 62
7
  6
CONTINUOUS
 10
159.2559759691
 20
190.6665253905
 11
159.2433433679
 21
190.3958744702
  0
LINE
  5
2BC
100
AcDbEntity
  8
BEZUGSACHSEN
100
AcDbLine
 62
7
  6
CONTINUOUS
 10
160.7012110876
 20
190.5990692043
 11
160.6885784864
 21
190.328418284
  0
LINE
  5
2BD
100
AcDbEntity
  8
BEZUGSACHSEN
100
AcDbLine
 62
7
  6
CONTINUOUS
 10
137.1937350349
 20
208.6619686759
 11
137.2630547577
 21
209.0523244517
  0
LINE
  5
2BE
100
AcDbEntity
  8
BEZUGSACHSEN
100
AcDbLine
 62
7
  6
CONTINUOUS
 10
140.8949801572
 20
207.9027661423
 11
140.9698847141
 21
208.2614183748
  0
LINE
  5
2BF
100
AcDbEntity
  8
0
100
AcDbLine
 62
7
  6
CONTINUOUS
 10
117.0499461472
 20
196.7660381934
 11
113.191569369
 21
184.891175503
  0
LINE
  5
2C0
100
AcDbEntity
  8
0
100
AcDbLine
 62
7
  6
CONTINUOUS
 10
296.2597707068
 20
217.4433110755
 11
311.1012163364
 21
210.8354737498
  0
LINE
  5
2C1
100
AcDbEntity
  8
BEZUGSACHSEN
100
AcDbLine
 62
7
  6
CONTINUOUS
 10
161.0412663676
 20
190.5831971624
 11
161.0286337664
 21
190.3125462421
  0
LINE
  5
2C2
100
AcDbEntity
  8
BEZUGSACHSEN
100
AcDbLine
 62
7
  6
CONTINUOUS
 10
162.4014877256
 20
190.5197089839
 11
162.3888551244
 21
190.2490580636
  0
LINE
  5
2C3
100
AcDbEntity
  8
BEZUGSACHSEN
100
AcDbLine
 62
7
  6
CONTINUOUS
 10
162.8265568256
 20
190.4998689316
 11
162.8139242244
 21
190.2292180113
  0
LINE
  5
2C4
100
AcDbEntity
  8
BEZUGSACHSEN
100
AcDbLine
 62
7
  6
CONTINUOUS
 10
160.2299822239
 20
201.0540573784
 11
160.1514223068
 21
200.6901523704
  0
LINE
  5
2C5
100
AcDbEntity
  8
BEZUGSACHSEN
100
AcDbLine
 62
7
  6
CONTINUOUS
 10
157.8344164389
 20
197.655608262
 11
157.7665601394
 21
197.3429126078
  0
LINE
  5
2C6
100
AcDbEntity
  8
BEZUGSACHSEN
100
AcDbLine
 62
7
  6
CONTINUOUS
 10
136.7865371274
 20
208.7806341038
 11
136.8528651623
 21
208.9878190064
  0
LINE
  5
2C7
100
AcDbEntity
  8
BEZUGSACHSEN
100
AcDbLine
 62
7
  6
CONTINUOUS
 10
140.4653465055
 20
208.0005449049
 11
140.5548881839
 21
208.2753588435
  0
LINE
  5
2C8
100
AcDbEntity
  8
KONSTRUKTIONSELEMENTE
100
AcDbLine
 62
7
  6
CONTINUOUS
 10
69.3148655904
 20
134.4550449754
 11
70.7290791528
 21
136.9045347182
  0
LINE
  5
2C9
100
AcDbEntity
  8
KONSTRUKTIONSELEMENTE
100
AcDbLine
 62
7
  6
CONTINUOUS
 10
69.8101244733
 20
124.6791533101
 11
70.9414953232
 21
126.6387451043
  0
LINE
  5
2CA
100
AcDbEntity
  8
KONSTRUKTIONSELEMENTE
100
AcDbLine
 62
7
  6
CONTINUOUS
 10
69.6049971616
 20
123.7609064637
 11
69.7464185179
 21
124.005855438
  0
LINE
  5
2CB
100
AcDbEntity
  8
0
100
AcDbLine
 62
7
  6
CONTINUOUS
 10
125.172938553
 20
210.8354737498
 11
117.0499461472
 21
196.7660381934
  0
LINE
  5
2CC
100
AcDbEntity
  8
0
100
AcDbLine
 62
7
  6
CONTINUOUS
 10
284.2776829203
 20
162.487154541
 11
275.922938553
 21
171.7660381934
  0
LINE
  5
2CD
100
AcDbEntity
  8
BEZUGSACHSEN
100
AcDbLine
 62
7
  6
CONTINUOUS
 10
161.8057347621
 20
197.4359600806
 11
161.7378790111
 21
197.1232629762
  0
LINE
  5
2CE
100
AcDbEntity
  8
BEZUGSACHSEN
100
AcDbLine
 62
7
  6
CONTINUOUS
 10
158.9348693942
 20
191.0883707179
 11
158.8340648876
 21
190.754026627
  0
LINE
  5
2CF
100
AcDbEntity
  8
BEZUGSACHSEN
100
AcDbLine
 62
7
  6
CONTINUOUS
 10
162.8139242244
 20
190.2292180113
 11
162.7131198698
 21
189.8948770174
  0
LINE
  5
2D0
100
AcDbEntity
  8
BEZUGSACHSEN
100
AcDbLine
 62
7
  6
CONTINUOUS
 10
158.3606798417
 20
197.7019848399
 11
158.2697737505
 21
197.452983189
  0
LINE
  5
2D1
100
AcDbEntity
  8
BEZUGSACHSEN
100
AcDbLine
 62
7
  6
CONTINUOUS
 10
161.3025212
 20
197.3258895172
 11
161.2116151648
 21
197.0768878866
  0
LINE
  5
2D2
100
AcDbEntity
  8
BEZUGSACHSEN
100
AcDbLine
 62
7
  6
CONTINUOUS
 10
159.3536222457
 20
190.933205203
 11
159.2559759691
 21
190.6665253905
  0
LINE
  5
2D3
100
AcDbEntity
  8
BEZUGSACHSEN
100
AcDbLine
 62
7
  6
CONTINUOUS
 10
159.8306748412
 20
200.8921345866
 11
159.7549642244
 21
200.6881916116
  0
LINE
  5
2D4
100
AcDbEntity
  8
BEZUGSACHSEN
100
AcDbLine
 62
7
  6
CONTINUOUS
 10
140.6866222011
 20
207.5208146393
 11
140.8949801572
 21
207.9027661423
  0
LINE
  5
2D5
100
AcDbEntity
  8
RUNDUNGEN
100
AcDbLine
 62
7
  6
CONTINUOUS
 10
107.5555396033
 20
170.3212436717
 11
116.8741786101
 21
186.4615998888
  0
LINE
  5
2D6
100
AcDbEntity
  8
KONSTRUKTIONSELEMENTE
100
AcDbLine
 62
7
  6
CONTINUOUS
 10
119.5945408441
 20
174.3034725055
 11
116.9769646327
 21
169.7696975148
  0
LINE
  5
2D7
100
AcDbEntity
  8
0
100
AcDbLine
 62
7
  6
CONTINUOUS
 10
180.1797338293
 20
272.1100379299
 11
137.2380145996
 21
197.7327984596
  0
LINE
  5
2D8
100
AcDbEntity
  8
KONSTRUKTIONSELEMENTE
100
AcDbLine
 62
7
  6
CONTINUOUS
 10
109.4037876868
 20
149.5225032573
 11
104.1004868279
 21
140.3369167219
  0
LINE
  5
2D9
100
AcDbEntity
  8
0
100
AcDbLine
 62
7
  6
CONTINUOUS
 10
275.922938553
 20
171.7660381934
 11
267.7999461472
 21
185.8354737498
  0
LINE
  5
2DA
100
AcDbEntity
  8
BEZUGSACHSEN
100
AcDbLine
 62
7
  6
CONTINUOUS
 10
160.6885784864
 20
190.328418284
 11
160.5909322098
 21
190.0617384715
  0
LINE
  5
2DB
100
AcDbEntity
  8
BEZUGSACHSEN
100
AcDbLine
 62
7
  6
CONTINUOUS
 10
161.1389126442
 20
190.8498769749
 11
161.0412663676
 21
190.5831971624
  0
LINE
  5
2DC
100
AcDbEntity
  8
BEZUGSACHSEN
100
AcDbLine
 62
7
  6
CONTINUOUS
 10
162.3888551244
 20
190.2490580636
 11
162.2912088478
 21
189.9823782511
  0
LINE
  5
2DD
100
AcDbEntity
  8
BEZUGSACHSEN
100
AcDbLine
 62
7
  6
CONTINUOUS
 10
160.1514223068
 20
200.6901523704
 11
159.964996267
 21
200.340254975
  0
LINE
  5
2DE
100
AcDbEntity
  8
KONSTRUKTIONSELEMENTE
100
AcDbLine
 62
7
  6
CONTINUOUS
 10
77.3932728965
 20
88.5586652641
 11
73.2920535656
 21
81.45514501
  0
LINE
  5
2DF
100
AcDbEntity
  8
0
100
AcDbLine
 62
7
  6
CONTINUOUS
 10
118.4910814678
 20
158.3621577893
 11
123.0521618575
 21
166.2621807616
  0
LINE
  5
2E0
100
AcDbEntity
  8
KONSTRUKTIONSELEMENTE
100
AcDbLine
 62
7
  6
CONTINUOUS
 10
123.0521618575
 20
166.2621807616
 11
128.2966618575
 21
175.3459212219
  0
LINE
  5
2E1
100
AcDbEntity
  8
KONSTRUKTIONSELEMENTE
100
AcDbLine
 62
7
  6
CONTINUOUS
 10
74.1120087868
 20
79.6753491129
 11
78.6374921863
 21
87.5137162898
  0
LINE
  5
2E2
100
AcDbEntity
  8
KONSTRUKTIONSELEMENTE
100
AcDbLine
 62
7
  6
CONTINUOUS
 10
128.8572511899
 20
174.2168904279
 11
126.5059885315
 21
170.1443840415
  0
LINE
  5
2E3
100
AcDbEntity
  8
KONSTRUKTIONSELEMENTE
100
AcDbLine
 62
7
  6
CONTINUOUS
 10
113.3009020038
 20
147.2725032573
 11
107.9976011449
 21
138.0869167219
  0
LINE
  5
2E4
100
AcDbEntity
  8
KONSTRUKTIONSELEMENTE
100
AcDbLine
 62
7
  6
CONTINUOUS
 10
137.9899658003
 20
188.035216144
 11
135.2470318938
 21
183.2843152562
  0
LINE
  5
2E5
100
AcDbEntity
  8
KONSTRUKTIONSELEMENTE
100
AcDbLine
 62
7
  6
CONTINUOUS
 10
131.9699179904
 20
177.6081874734
 11
129.2347619802
 21
172.8707582971
  0
LINE
  5
2E6
100
AcDbEntity
  8
KONSTRUKTIONSELEMENTE
100
AcDbLine
 62
7
  6
CONTINUOUS
 10
109.3521411622
 20
138.4330488527
 11
100.5969373422
 21
123.2685910057
  0
LINE
  5
2E7
100
AcDbEntity
  8
KONSTRUKTIONSELEMENTE
100
AcDbLine
 62
7
  6
CONTINUOUS
 10
122.7885202862
 20
161.2055401652
 11
113.9833074927
 21
145.9544642354
  0
LINE
  5
2E8
100
AcDbEntity
  8
KONSTRUKTIONSELEMENTE
100
AcDbLine
 62
7
  6
CONTINUOUS
 10
126.6856346032
 20
158.9555401652
 11
117.8804218098
 21
143.7044642354
  0
LINE
  5
2E9
100
AcDbEntity
  8
KONSTRUKTIONSELEMENTE
100
AcDbLine
 62
7
  6
CONTINUOUS
 10
142.3200928192
 20
185.535216144
 11
139.5771589127
 21
180.7843152562
  0
LINE
  5
2EA
100
AcDbEntity
  8
KONSTRUKTIONSELEMENTE
100
AcDbLine
 62
7
  6
CONTINUOUS
 10
136.3000450094
 20
175.1081874734
 11
133.5648889992
 21
170.3707582971
  0
LINE
  5
2EB
100
AcDbEntity
  8
KONSTRUKTIONSELEMENTE
100
AcDbLine
 62
7
  6
CONTINUOUS
 10
113.6822681811
 20
135.9330488527
 11
104.9270643611
 21
120.7685910057
  0
LINE
  5
2EC
100
AcDbEntity
  8
KONSTRUKTIONSELEMENTE
100
AcDbLine
 62
7
  6
CONTINUOUS
 10
114.0597789714
 20
134.5869167219
 11
119.3630798303
 21
143.7725032573
  0
LINE
  5
2ED
100
AcDbEntity
  8
KONSTRUKTIONSELEMENTE
100
AcDbLine
 62
7
  6
CONTINUOUS
 10
132.568166358
 20
166.6443840415
 11
134.9194290164
 21
170.7168904279
  0
LINE
  5
2EE
100
AcDbEntity
  8
KONSTRUKTIONSELEMENTE
100
AcDbLine
 62
7
  6
CONTINUOUS
 10
80.4166737263
 20
76.0353491129
 11
84.9421571259
 21
83.8737162898
  0
LINE
  5
2EF
100
AcDbEntity
  8
0
100
AcDbLine
 62
7
  6
CONTINUOUS
 10
130.9329930319
 20
161.7121807616
 11
126.3719126422
 21
153.8121577893
  0
LINE
  5
2F0
100
AcDbEntity
  8
KONSTRUKTIONSELEMENTE
100
AcDbLine
 62
7
  6
CONTINUOUS
 10
130.9329930319
 20
161.7121807616
 11
136.1774930319
 21
170.7959212219
  0
LINE
  5
2F1
100
AcDbEntity
  8
KONSTRUKTIONSELEMENTE
100
AcDbLine
 62
7
  6
CONTINUOUS
 10
82.3679997973
 20
76.21514501
 11
86.4692191282
 21
83.3186652641
  0
LINE
  5
2F2
100
AcDbEntity
  8
0
100
AcDbLine
 62
7
  6
CONTINUOUS
 10
194.0361402899
 20
264.1100379299
 11
151.0944210601
 21
189.7327984596
  0
LINE
  5
2F3
100
AcDbEntity
  8
KONSTRUKTIONSELEMENTE
100
AcDbLine
 62
7
  6
CONTINUOUS
 10
117.9568932885
 20
132.3369167219
 11
123.2601941474
 21
141.5225032573
  0
LINE
  5
2F4
100
AcDbEntity
  8
KONSTRUKTIONSELEMENTE
100
AcDbLine
 62
7
  6
CONTINUOUS
 10
139.6257664681
 20
162.7384389993
 11
137.0081902567
 21
158.2046640085
  0
LINE
  5
2F5
100
AcDbEntity
  8
BEZUGSACHSEN
100
AcDbLine
 62
7
  6
CONTINUOUS
 10
137.0007346686
 20
208.406755852
 11
137.1937350349
 21
208.6619686759
  0
LINE
  5
2F6
100
AcDbEntity
  8
BEZUGSACHSEN
100
AcDbLine
 62
7
  6
CONTINUOUS
 10
140.294441029
 20
207.7979194927
 11
140.4653465055
 21
208.0005449049
  0
LINE
  5
2F7
100
AcDbEntity
  8
0
100
AcDbLine
 62
7
  6
CONTINUOUS
 10
294.0775991348
 20
150.3212436717
 11
284.758960128
 21
166.4615998888
  0
LINE
  5
2F8
100
AcDbEntity
  8
0
100
AcDbLine
 62
7
  6
CONTINUOUS
 10
296.6483884214
 20
162.7384389993
 11
299.2659646327
 21
158.2046640085
  0
LINE
  5
2F9
100
AcDbEntity
  8
0
100
AcDbLine
 62
7
  6
CONTINUOUS
 10
285.2088742144
 20
189.682325832
 11
242.2088742144
 21
264.1605105575
  0
LINE
  5
2FA
100
AcDbEntity
  8
RUNDUNGEN
100
AcDbLine
 62
7
  6
CONTINUOUS
 10
142.1965557547
 20
150.3212436717
 11
151.5151947615
 21
166.4615998888
  0
LINE
  5
2FB
100
AcDbEntity
  8
0
100
AcDbLine
 62
7
  6
CONTINUOUS
 10
160.3512163364
 20
171.7660381934
 11
168.4742087422
 21
185.8354737498
  0
LINE
  5
2FC
100
AcDbEntity
  8
KONSTRUKTIONSELEMENTE
100
AcDbLine
 62
7
  6
CONTINUOUS
 10
107.6097576211
 20
79.024682778
 11
106.1955440587
 21
76.5751930352
  0
LINE
  5
2FD
100
AcDbEntity
  8
BEZUGSACHSEN
100
AcDbLine
 62
7
  6
CONTINUOUS
 10
158.0623280506
 20
198.0262235014
 11
157.8344164389
 21
197.655608262
  0
LINE
  5
2FE
100
AcDbEntity
  8
BEZUGSACHSEN
100
AcDbLine
 62
7
  6
CONTINUOUS
 10
161.7378790111
 20
197.1232629762
 11
161.5099674274
 21
196.7526477469
  0
LINE
  5
2FF
100
AcDbEntity
  8
BEZUGSACHSEN
100
AcDbLine
 62
7
  6
CONTINUOUS
 10
159.5362823423
 20
191.195917005
 11
159.3536222457
 21
190.933205203
  0
LINE
  5
300
100
AcDbEntity
  8
BEZUGSACHSEN
100
AcDbLine
 62
7
  6
CONTINUOUS
 10
160.9878337614
 20
191.263786279
 11
160.8965036408
 21
191.1324288293
  0
LINE
  5
301
100
AcDbEntity
  8
BEZUGSACHSEN
100
AcDbLine
 62
7
  6
CONTINUOUS
 10
160.5909322098
 20
190.0617384715
 11
160.4082721132
 21
189.7990266694
  0
LINE
  5
302
100
AcDbEntity
  8
BEZUGSACHSEN
100
AcDbLine
 62
7
  6
CONTINUOUS
 10
160.8333412132
 20
189.7791866171
 11
160.7420110926
 21
189.6478291674
  0
LINE
  5
303
100
AcDbEntity
  8
BEZUGSACHSEN
100
AcDbLine
 62
7
  6
CONTINUOUS
 10
136.6267006879
 20
208.6290136968
 11
136.7865371274
 21
208.7806341038
  0
LINE
  5
304
100
AcDbEntity
  8
BEZUGSACHSEN
100
AcDbLine
 62
7
  6
CONTINUOUS
 10
140.4489900211
 20
207.3065396138
 11
140.6866222011
 21
207.5208146393
  0
LINE
  5
305
100
AcDbEntity
  8
0
100
AcDbLine
 62
7
  6
CONTINUOUS
 10
309.9022422472
 20
153.8121577893
 11
300.0966618575
 21
170.7959212219
  0
LINE
  5
306
100
AcDbEntity
  8
0
100
AcDbLine
 62
7
  6
CONTINUOUS
 10
317.7830734216
 20
158.3621577893
 11
307.9774930319
 21
175.3459212219
  0
LINE
  5
307
100
AcDbEntity
  8
0
100
AcDbLine
 62
7
  6
CONTINUOUS
 10
299.065280675
 20
197.682325832
 11
256.065280675
 21
272.1605105575
  0
LINE
  5
308
100
AcDbEntity
  8
0
100
AcDbLine
 62
7
  6
CONTINUOUS
 10
316.6796140454
 20
174.3034725055
 11
319.2971902567
 21
169.7696975148
  0
LINE
  5
309
100
AcDbEntity
  8
KONSTRUKTIONSELEMENTE
100
AcDbLine
 62
7
  6
CONTINUOUS
 10
138.0247415939
 20
94.600702235
 11
136.6105280316
 21
92.1512124922
  0
LINE
  5
30A
100
AcDbEntity
  8
BEZUGSACHSEN
100
AcDbLine
 62
7
  6
CONTINUOUS
 10
159.2057014112
 20
191.4147756898
 11
158.9348693942
 21
191.0883707179
  0
LINE
  5
30B
100
AcDbEntity
  8
BEZUGSACHSEN
100
AcDbLine
 62
7
  6
CONTINUOUS
 10
162.7131198698
 20
189.8948770174
 11
162.4422877306
 21
189.5684689471
  0
LINE
  5
30C
100
AcDbEntity
  8
BEZUGSACHSEN
100
AcDbLine
 62
7
  6
CONTINUOUS
 10
158.5541901684
 20
200.0424650619
 11
157.1934461767
 21
198.5089677905
  0
LINE
  5
30D
100
AcDbEntity
  8
BEZUGSACHSEN
100
AcDbLine
 62
7
  6
CONTINUOUS
 10
158.1984370953
 20
200.30243716
 11
156.9484093279
 21
198.9148929817
  0
LINE
  5
30E
100
AcDbEntity
  8
BEZUGSACHSEN
100
AcDbLine
 62
7
  6
CONTINUOUS
 10
158.5546630224
 20
197.9162529748
 11
158.3606798417
 21
197.7019848399
  0
LINE
  5
30F
100
AcDbEntity
  8
BEZUGSACHSEN
100
AcDbLine
 62
7
  6
CONTINUOUS
 10
159.7549642244
 20
200.6881916116
 11
159.5713882861
 21
200.4982549219
  0
LINE
  5
310
100
AcDbEntity
  8
BEZUGSACHSEN
100
AcDbLine
 62
7
  6
CONTINUOUS
 10
159.964996267
 20
200.340254975
 11
159.7814203286
 21
200.1503182853
  0
LINE
  5
311
100
AcDbEntity
  8
BEZUGSACHSEN
100
AcDbLine
 62
7
  6
CONTINUOUS
 10
158.3363381486
 20
198.2694536347
 11
158.0623280506
 21
198.0262235014
  0
LINE
  5
312
100
AcDbEntity
  8
0
100
AcDbLine
 62
7
  6
CONTINUOUS
 10
328.7186152861
 20
170.3212436717
 11
319.3999762794
 21
186.4615998888
  0
LINE
  5
313
100
AcDbEntity
  8
0
100
AcDbLine
 62
7
  6
CONTINUOUS
 10
311.1012163364
 20
210.8354737498
 11
319.2242087422
 21
196.7660381934
  0
LINE
  5
314
100
AcDbEntity
  8
0
100
AcDbLine
 62
7
  6
CONTINUOUS
 10
151.9964719692
 20
162.487154541
 11
160.3512163364
 21
171.7660381934
  0
LINE
  5
315
100
AcDbEntity
  8
BEZUGSACHSEN
100
AcDbLine
 62
7
  6
CONTINUOUS
 10
161.4065865608
 20
191.1086207665
 11
161.1389126442
 21
190.8498769749
  0
LINE
  5
316
100
AcDbEntity
  8
BEZUGSACHSEN
100
AcDbLine
 62
7
  6
CONTINUOUS
 10
160.7420110926
 20
189.6478291674
 11
160.474337176
 21
189.3890853759
  0
LINE
  5
317
100
AcDbEntity
  8
BEZUGSACHSEN
100
AcDbLine
 62
7
  6
CONTINUOUS
 10
162.2912088478
 20
189.9823782511
 11
162.0235349312
 21
189.7236344595
  0
LINE
  5
318
100
AcDbEntity
  8
BEZUGSACHSEN
100
AcDbLine
 62
7
  6
CONTINUOUS
 10
159.4702172795
 20
191.6058582986
 11
159.2057014112
 21
191.4147756898
  0
LINE
  5
319
100
AcDbEntity
  8
BEZUGSACHSEN
100
AcDbLine
 62
7
  6
CONTINUOUS
 10
161.2523496
 20
191.4548688891
 11
160.9878337614
 21
191.263786279
  0
LINE
  5
31A
100
AcDbEntity
  8
BEZUGSACHSEN
100
AcDbLine
 62
7
  6
CONTINUOUS
 10
162.4422877306
 20
189.5684689471
 11
162.177771892
 21
189.3773863369
  0
LINE
  5
31B
100
AcDbEntity
  8
BEZUGSACHSEN
100
AcDbLine
 62
7
  6
CONTINUOUS
 10
161.2116151648
 20
197.0768878866
 11
160.9945820032
 21
196.9263136865
  0
LINE
  5
31C
100
AcDbEntity
  8
BEZUGSACHSEN
100
AcDbLine
 62
7
  6
CONTINUOUS
 10
158.8517233486
 20
198.095787614
 11
158.5546630224
 21
197.9162529748
  0
LINE
  5
31D
100
AcDbEntity
  8
BEZUGSACHSEN
100
AcDbLine
 62
7
  6
CONTINUOUS
 10
158.2736684502
 20
202.1676196993
 11
159.2876881341
 21
202.779732949
  0
LINE
  5
31E
100
AcDbEntity
  8
BEZUGSACHSEN
100
AcDbLine
 62
7
  6
CONTINUOUS
 10
158.0405096669
 20
201.5521508037
 11
159.1334176002
 21
202.211884966
  0
LINE
  5
31F
100
AcDbEntity
  8
BEZUGSACHSEN
100
AcDbLine
 62
7
  6
CONTINUOUS
 10
159.5713882861
 20
200.4982549219
 11
159.3528065362
 21
200.3663079909
  0
LINE
  5
320
100
AcDbEntity
  8
BEZUGSACHSEN
100
AcDbLine
 62
7
  6
CONTINUOUS
 10
159.7814203286
 20
200.1503182853
 11
159.4899780634
 21
199.974389085
  0
LINE
  5
321
100
AcDbEntity
  8
BEZUGSACHSEN
100
AcDbLine
 62
7
  6
CONTINUOUS
 10
140.0421717338
 20
207.6674827244
 11
140.294441029
 21
207.7979194927
  0
LINE
  5
322
100
AcDbEntity
  8
BEZUGSACHSEN
100
AcDbLine
 62
7
  6
CONTINUOUS
 10
140.1299944119
 20
207.1644532549
 11
140.4489900211
 21
207.3065396138
  0
LINE
  5
323
100
AcDbEntity
  8
0
100
AcDbLine
 62
7
  6
CONTINUOUS
 10
140.0143841826
 20
217.4433110755
 11
125.172938553
 21
210.8354737498
  0
LINE
  5
324
100
AcDbEntity
  8
BEZUGSACHSEN
100
AcDbLine
 62
7
  6
CONTINUOUS
 10
134.4398502341
 20
209.620233478
 11
135.9599196606
 21
210.1965690841
  0
LINE
  5
325
100
AcDbEntity
  8
BEZUGSACHSEN
100
AcDbLine
 62
7
  6
CONTINUOUS
 10
134.970728785
 20
209.3664250983
 11
136.1741170206
 21
209.8226907635
  0
LINE
  5
326
100
AcDbEntity
  8
BEZUGSACHSEN
100
AcDbLine
 62
7
  6
CONTINUOUS
 10
135.4233124524
 20
208.1727480316
 11
136.6267006879
 21
208.6290136968
  0
LINE
  5
327
100
AcDbEntity
  8
BEZUGSACHSEN
100
AcDbLine
 62
7
  6
CONTINUOUS
 10
135.6043458855
 20
207.6952772941
 11
136.6810616991
 21
208.1035150036
  0
LINE
  5
328
100
AcDbEntity
  8
BEZUGSACHSEN
100
AcDbLine
 62
7
  6
CONTINUOUS
 10
135.8579456294
 20
205.8800455884
 11
136.2379629861
 21
206.0241294899
  0
LINE
  5
329
100
AcDbEntity
  8
BEZUGSACHSEN
100
AcDbLine
 62
7
  6
CONTINUOUS
 10
137.8213685782
 20
206.6244790566
 11
138.2647222817
 21
206.7925769875
  0
LINE
  5
32A
100
AcDbEntity
  8
0
100
AcDbLine
 62
7
  6
CONTINUOUS
 10
288.1370774447
 20
321.8540855921
 11
288.1370774447
 21
441.8540855921
  0
LINE
  5
32B
100
AcDbEntity
  8
0
100
AcDbLine
 62
7
  6
CONTINUOUS
 10
267.7999461472
 20
185.8354737498
 11
269.4981139738
 21
201.9924613568
  0
LINE
  5
32C
100
AcDbEntity
  8
BEZUGSACHSEN
100
AcDbLine
 62
7
  6
CONTINUOUS
 10
158.7134258636
 20
198.4779487942
 11
158.3363381486
 21
198.2694536347
  0
LINE
  5
32D
100
AcDbEntity
  8
BEZUGSACHSEN
100
AcDbLine
 62
7
  6
CONTINUOUS
 10
161.5099674274
 20
196.7526477469
 11
161.1328794882
 21
196.5441525063
  0
LINE
  5
32E
100
AcDbEntity
  8
BEZUGSACHSEN
100
AcDbLine
 62
7
  6
CONTINUOUS
 10
159.8858120604
 20
191.3830316019
 11
159.5362823423
 21
191.195917005
  0
LINE
  5
32F
100
AcDbEntity
  8
BEZUGSACHSEN
100
AcDbLine
 62
7
  6
CONTINUOUS
 10
160.4082721132
 20
189.7990266694
 11
160.0587423355
 21
189.6119120753
  0
LINE
  5
330
100
AcDbEntity
  8
BEZUGSACHSEN
100
AcDbLine
 62
7
  6
CONTINUOUS
 10
161.6679443214
 20
191.2320421953
 11
161.4065865608
 21
191.1086207665
  0
LINE
  5
331
100
AcDbEntity
  8
BEZUGSACHSEN
100
AcDbLine
 62
7
  6
CONTINUOUS
 10
162.0235349312
 20
189.7236344595
 11
161.7621769325
 21
189.6002130419
  0
LINE
  5
332
100
AcDbEntity
  8
BEZUGSACHSEN
100
AcDbLine
 62
7
  6
CONTINUOUS
 10
158.7134258636
 20
198.4779487942
 11
159.9138368082
 21
198.9123566387
  0
LINE
  5
333
100
AcDbEntity
  8
BEZUGSACHSEN
100
AcDbLine
 62
7
  6
CONTINUOUS
 10
158.8517233486
 20
198.095787614
 11
160.0521342931
 21
198.5301954585
  0
LINE
  5
334
100
AcDbEntity
  8
BEZUGSACHSEN
100
AcDbLine
 62
7
  6
CONTINUOUS
 10
160.0668892763
 20
197.2389107744
 11
159.5867249433
 21
197.0651476528
  0
LINE
  5
335
100
AcDbEntity
  8
BEZUGSACHSEN
100
AcDbLine
 62
7
  6
CONTINUOUS
 10
159.7941711708
 20
196.4919058825
 11
159.1539519481
 21
196.2602216799
  0
LINE
  5
336
100
AcDbEntity
  8
BEZUGSACHSEN
100
AcDbLine
 62
7
  6
CONTINUOUS
 10
160.4126329887
 20
196.2835078239
 11
159.2122220442
 21
195.8490999794
  0
LINE
  5
337
100
AcDbEntity
  8
BEZUGSACHSEN
100
AcDbLine
 62
7
  6
CONTINUOUS
 10
159.0992193828
 20
200.292351065
 11
159.3528065362
 21
200.3663079909
  0
LINE
  5
338
100
AcDbEntity
  8
BEZUGSACHSEN
100
AcDbLine
 62
7
  6
CONTINUOUS
 10
159.2363909101
 20
199.900432159
 11
159.4899780634
 21
199.974389085
  0
LINE
  5
339
100
AcDbEntity
  8
0
100
AcDbLine
 62
7
  6
CONTINUOUS
 10
319.2242087422
 20
196.7660381934
 11
323.0825855204
 21
184.891175503
  0
LINE
  5
33A
100
AcDbEntity
  8
RUNDUNGEN
100
AcDbLine
 62
7
  6
CONTINUOUS
 10
148.2966871355
 20
160.3510827713
 11
151.9964719692
 21
162.487154541
  0
LINE
  5
33B
100
AcDbEntity
  8
BEZUGSACHSEN
100
AcDbLine
 62
7
  6
CONTINUOUS
 10
161.5987211806
 20
191.5743223074
 11
161.2523496
 21
191.4548688891
  0
LINE
  5
33C
100
AcDbEntity
  8
0
100
AcDbLine
 62
7
  6
CONTINUOUS
 10
310.1370774447
 20
321.8540855921
 11
310.1370774447
 21
441.8540855921
  0
LINE
  5
33D
100
AcDbEntity
  8
0
100
AcDbLine
 62
7
  6
CONTINUOUS
 10
323.0825855204
 20
180.6190319637
 11
323.0825855204
 21
184.891175503
  0
LINE
  5
33E
100
AcDbEntity
  8
0
100
AcDbLine
 62
7
  6
CONTINUOUS
 10
269.4981139738
 20
201.9924613568
 11
274.7402751964
 21
207.8144712153
  0
LINE
  5
33F
100
AcDbEntity
  8
0
100
AcDbLine
 62
7
  6
CONTINUOUS
 10
140.6447327955
 20
149.2584856989
 11
135.3488676697
 21
147.3309484284
  0
LINE
  5
340
100
AcDbEntity
  8
RUNDUNGEN
100
AcDbLine
 62
7
  6
CONTINUOUS
 10
141.1485452338
 20
149.4418584301
 11
140.6447327955
 21
149.2584856989
  0
LINE
  5
341
100
AcDbEntity
  8
0
100
AcDbLine
 62
7
  6
CONTINUOUS
 10
327.8844428891
 20
162.8958242113
 11
328.9561799846
 21
168.9739473163
  0
LINE
  5
342
100
AcDbEntity
  8
KONSTRUKTIONSELEMENTE
100
AcDbLine
 62
7
  6
CONTINUOUS
 10
102.7689223017
 20
85.1221788615
 11
125.5582768494
 21
96.5326462303
  0
LINE
  5
343
100
AcDbEntity
  8
0
100
AcDbLine
 62
7
  6
CONTINUOUS
 10
310.6774930319
 20
170.6693840415
 11
302.7966618575
 21
166.1193840415
  0
LINE
  5
344
100
AcDbEntity
  8
KONSTRUKTIONSELEMENTE
100
AcDbLine
 62
7
  6
CONTINUOUS
 10
105.7920263338
 20
76.3345486097
 11
106.1033208763
 21
76.4904115681
  0
LINE
  5
345
100
AcDbEntity
  8
KONSTRUKTIONSELEMENTE
100
AcDbLine
 62
7
  6
CONTINUOUS
 10
134.9332272319
 20
90.9253401671
 11
135.6882962079
 21
91.3033978209
  0
LINE
  5
346
100
AcDbEntity
  8
0
100
AcDbLine
 62
7
  6
CONTINUOUS
 10
315.4774930319
 20
162.3555401652
 11
307.5966618575
 21
157.8055401652
  0
LINE
  5
347
100
AcDbEntity
  8
KONSTRUKTIONSELEMENTE
100
AcDbLine
 62
7
  6
CONTINUOUS
 10
302.6093275063
 20
147.4782828624
 11
305.3159111281
 21
149.0409296451
  0
LINE
  5
348
100
AcDbEntity
  8
KONSTRUKTIONSELEMENTE
100
AcDbLine
 62
7
  6
CONTINUOUS
 10
324.2082437613
 20
159.9484229765
 11
326.9148273831
 21
161.5110697591
  0
LINE
  5
349
100
AcDbEntity
  8
KONSTRUKTIONSELEMENTE
100
AcDbLine
 62
7
  6
CONTINUOUS
 10
413.6587643898
 20
77.867622069
 11
415.9215060896
 21
75.9080302748
  0
LINE
  5
34A
100
AcDbEntity
  8
KONSTRUKTIONSELEMENTE
100
AcDbLine
 62
7
  6
CONTINUOUS
 10
416.1414050695
 20
76.0353491129
 11
415.858562357
 21
76.2802980872
  0
LINE
  5
34B
100
AcDbEntity
  8
KONSTRUKTIONSELEMENTE
100
AcDbLine
 62
7
  6
CONTINUOUS
 10
413.3129779448
 20
78.4848388557
 11
413.5958206573
 21
78.2398898814
  0
LINE
  5
34C
100
AcDbEntity
  8
KONSTRUKTIONSELEMENTE
100
AcDbLine
 62
7
  6
CONTINUOUS
 10
416.1414050695
 20
79.6753491129
 11
415.858562357
 21
79.9202980872
  0
LINE
  5
34D
100
AcDbEntity
  8
KONSTRUKTIONSELEMENTE
100
AcDbLine
 62
7
  6
CONTINUOUS
 10
413.3129779448
 20
82.1248388557
 11
413.5958206573
 21
81.8798898814
  0
LINE
  5
34E
100
AcDbEntity
  8
KONSTRUKTIONSELEMENTE
100
AcDbLine
 62
7
  6
CONTINUOUS
 10
424.8364988857
 20
78.6081372398
 11
427.6649260104
 21
76.158647497
  0
LINE
  5
34F
100
AcDbEntity
  8
KONSTRUKTIONSELEMENTE
100
AcDbLine
 62
7
  6
CONTINUOUS
 10
453.3240382399
 20
93.3572397986
 11
456.1524653646
 21
90.9077500559
  0
LINE
  5
350
100
AcDbEntity
  8
KONSTRUKTIONSELEMENTE
100
AcDbLine
 62
7
  6
CONTINUOUS
 10
452.0671118628
 20
123.7609064637
 11
453.6210603041
 21
122.7502650438
  0
LINE
  5
351
100
AcDbEntity
  8
KONSTRUKTIONSELEMENTE
100
AcDbLine
 62
7
  6
CONTINUOUS
 10
451.7842691503
 20
124.005855438
 11
453.3382175917
 21
122.9952140181
  0
LINE
  5
352
100
AcDbEntity
  8
KONSTRUKTIONSELEMENTE
100
AcDbLine
 62
7
  6
CONTINUOUS
 10
449.238684738
 20
126.2103962065
 11
449.5494057787
 21
126.0083125689
  0
LINE
  5
353
100
AcDbEntity
  8
KONSTRUKTIONSELEMENTE
100
AcDbLine
 62
7
  6
CONTINUOUS
 10
453.168242848
 20
124.9987217556
 11
454.363587803
 21
124.2213052788
  0
LINE
  5
354
100
AcDbEntity
  8
KONSTRUKTIONSELEMENTE
100
AcDbLine
 62
7
  6
CONTINUOUS
 10
450.9055011482
 20
126.9583135498
 11
452.1008461032
 21
126.180897073
  0
LINE
  5
355
100
AcDbEntity
  8
KONSTRUKTIONSELEMENTE
100
AcDbLine
 62
7
  6
CONTINUOUS
 10
458.9627265337
 20
132.0063701916
 11
458.4235412684
 21
131.9447963507
  0
LINE
  5
356
100
AcDbEntity
  8
KONSTRUKTIONSELEMENTE
100
AcDbLine
 62
7
  6
CONTINUOUS
 10
457.164588959
 20
131.526849885
 11
458.3599339139
 21
130.7494334082
  0
LINE
  5
357
100
AcDbEntity
  8
KONSTRUKTIONSELEMENTE
100
AcDbLine
 62
7
  6
CONTINUOUS
 10
460.5166749751
 20
130.9957287717
 11
458.9627265337
 21
132.0063701916
  0
LINE
  5
358
100
AcDbEntity
  8
KONSTRUKTIONSELEMENTE
100
AcDbLine
 62
7
  6
CONTINUOUS
 10
472.3570479595
 20
129.9204700397
 11
463.7468672281
 21
135.5202731271
  0
LINE
  5
359
100
AcDbEntity
  8
KONSTRUKTIONSELEMENTE
100
AcDbLine
 62
7
  6
CONTINUOUS
 10
469.5286208348
 20
132.3699597825
 11
460.9184401034
 21
137.9697628699
  0
LINE
  5
35A
100
AcDbEntity
  8
KONSTRUKTIONSELEMENTE
100
AcDbLine
 62
7
  6
CONTINUOUS
 10
457.148788779
 20
131.5383173495
 11
457.164588959
 21
131.526849885
  0
LINE
  5
35B
100
AcDbEntity
  8
KONSTRUKTIONSELEMENTE
100
AcDbLine
 62
7
  6
CONTINUOUS
 10
458.3768596295
 20
130.7364825756
 11
458.3599339139
 21
130.7494334082
  0
LINE
  5
35C
100
AcDbEntity
  8
KONSTRUKTIONSELEMENTE
100
AcDbLine
 62
7
  6
CONTINUOUS
 10
452.0671118628
 20
123.7609064637
 11
451.7842691503
 21
124.005855438
  0
LINE
  5
35D
100
AcDbEntity
  8
KONSTRUKTIONSELEMENTE
100
AcDbLine
 62
7
  6
CONTINUOUS
 10
449.238684738
 20
126.2103962065
 11
449.5215274505
 21
125.9654472322
  0
LINE
  5
35E
100
AcDbEntity
  8
KONSTRUKTIONSELEMENTE
100
AcDbLine
 62
7
  6
CONTINUOUS
 10
456.5783850497
 20
132.0326325095
 11
457.1519939505
 21
131.5358726296
  0
LWPOLYLINE
  5
35F
100
AcDbEntity
  8
0
100
AcDbPolyline
 62
7
  6
CONTINUOUS
 90
14
 70
0
 10
572.6164102732
 20
147.217198651
 10
573.2934413198
 20
147.2440197952
 10
573.9774837091
 20
147.292072664
 10
574.6655324784
 20
147.3622933648
 10
575.3541040507
 20
147.4555342321
 10
576.039654255
 20
147.5725835583
 10
576.7186035793
 20
147.7141899286
 10
577.3875592702
 20
147.8811481675
 10
578.0421182618
 20
148.0740011302
 10
578.6822834768
 20
148.2948475143
 10
579.302303049
 20
148.5442920807
 10
579.9120530944
 20
148.8306632562
 10
580.5184247162
 20
149.1658584926
 10
581.0399279861
 20
149.5061521397
  0
LINE
  5
360
100
AcDbEntity
  8
0
100
AcDbLine
 62
7
  6
CONTINUOUS
 10
572.0584503211
 20
147.2103340303
 11
572.6164102732
 21
147.217198651
  0
LWPOLYLINE
  5
361
100
AcDbEntity
  8
RUNDUNGEN
100
AcDbPolyline
 62
7
  6
CONTINUOUS
 90
15
 70
0
 10
572.0584503212
 20
147.2103340302
 10
572.6169981216
 20
147.2172058834
 10
573.2947577536
 20
147.2440918912
 10
573.9781227908
 20
147.2921275774
 10
574.6649789552
 20
147.3622278114
 10
575.3521270466
 20
147.4552324069
 10
576.0362969963
 20
147.5719486295
 10
576.7141468769
 20
147.7131720586
 10
577.3824836963
 20
147.8797713644
 10
578.0371114254
 20
148.0724055459
 10
578.6779308566
 20
148.2932270683
 10
579.2993462612
 20
148.543009248
 10
579.9105092428
 20
148.829879171
 10
580.5177946733
 20
149.1654793725
 10
581.0399273812
 20
149.5061517109
  0
LINE
  5
362
100
AcDbEntity
  8
BEZUGSACHSEN
100
AcDbLine
 62
7
  6
CONTINUOUS
 10
472.5788064076
 20
129.7529422446
 11
472.3570479595
 21
129.9204700397
  0
LINE
  5
363
100
AcDbEntity
  8
BEZUGSACHSEN
100
AcDbLine
 62
7
  6
CONTINUOUS
 10
469.7503792829
 20
132.2024319874
 11
469.5286208348
 21
132.3699597825
  0
LINE
  5
364
100
AcDbEntity
  8
BEZUGSACHSEN
100
AcDbLine
 62
7
  6
CONTINUOUS
 10
469.7493774532
 20
132.2039103122
 11
472.369484762
 21
129.9348308222
  0
LINE
  5
365
100
AcDbEntity
  8
0
100
AcDbLine
 62
7
  6
CONTINUOUS
 10
569.0036467739
 20
184.891175503
 11
575.1132538684
 21
184.891175503
  0
LINE
  5
366
100
AcDbEntity
  8
0
100
AcDbLine
 62
7
  6
CONTINUOUS
 10
569.0844090139
 20
196.7660381934
 11
575.0324916284
 21
196.7660381934
  0
LINE
  5
367
100
AcDbEntity
  8
BEZUGSACHSEN
100
AcDbLine
 62
7
  6
CONTINUOUS
 10
567.0584503212
 20
205.8800455884
 11
567.0223844162
 21
205.8800455884
  0
LINE
  5
368
100
AcDbEntity
  8
BEZUGSACHSEN
100
AcDbLine
 62
7
  6
CONTINUOUS
 10
576.8672214614
 20
205.8800455884
 11
577.0945162261
 21
205.8800455884
  0
LINE
  5
369
100
AcDbEntity
  8
BEZUGSACHSEN
100
AcDbLine
 62
7
  6
CONTINUOUS
 10
567.0584503212
 20
206.0241294899
 11
567.0136720418
 21
206.0241294899
  0
LINE
  5
36A
100
AcDbEntity
  8
BEZUGSACHSEN
100
AcDbLine
 62
7
  6
CONTINUOUS
 10
567.1046977895
 20
206.6244790566
 11
566.9984331831
 21
206.6244790566
  0
LINE
  5
36B
100
AcDbEntity
  8
BEZUGSACHSEN
100
AcDbLine
 62
7
  6
CONTINUOUS
 10
576.9848335488
 20
206.6244790566
 11
577.1184674593
 21
206.6244790566
  0
LINE
  5
36C
100
AcDbEntity
  8
BEZUGSACHSEN
100
AcDbLine
 62
7
  6
CONTINUOUS
 10
567.1311364549
 20
206.7925769875
 11
567.0003020888
 21
206.7925769875
  0
LINE
  5
36D
100
AcDbEntity
  8
BEZUGSACHSEN
100
AcDbLine
 62
7
  6
CONTINUOUS
 10
567.1914231195
 20
207.1178547217
 11
566.9784089987
 21
207.1178547217
  0
LINE
  5
36E
100
AcDbEntity
  8
BEZUGSACHSEN
100
AcDbLine
 62
7
  6
CONTINUOUS
 10
577.044238305
 20
207.1178547217
 11
577.1384916436
 21
207.1178547217
  0
LINE
  5
36F
100
AcDbEntity
  8
BEZUGSACHSEN
100
AcDbLine
 62
7
  6
CONTINUOUS
 10
577.0385456071
 20
207.1434448477
 11
577.1190804846
 21
207.1434448477
  0
LINE
  5
370
100
AcDbEntity
  8
BEZUGSACHSEN
100
AcDbLine
 62
7
  6
CONTINUOUS
 10
567.2000596472
 20
207.1644532549
 11
566.9764609462
 21
207.1644532549
  0
LINE
  5
371
100
AcDbEntity
  8
BEZUGSACHSEN
100
AcDbLine
 62
7
  6
CONTINUOUS
 10
577.0115501323
 20
207.2645228068
 11
577.083742356
 21
207.2645228068
  0
LINE
  5
372
100
AcDbEntity
  8
BEZUGSACHSEN
100
AcDbLine
 62
7
  6
CONTINUOUS
 10
567.2263937972
 20
207.3065396138
 11
566.9910423943
 21
207.3065396138
  0
LINE
  5
373
100
AcDbEntity
  8
BEZUGSACHSEN
100
AcDbLine
 62
7
  6
CONTINUOUS
 10
567.2405720227
 20
207.3715658452
 11
566.9565522075
 21
207.3715658452
  0
LINE
  5
374
100
AcDbEntity
  8
BEZUGSACHSEN
100
AcDbLine
 62
7
  6
CONTINUOUS
 10
577.1163601393
 20
207.3715658452
 11
577.1603484348
 21
207.3715658452
  0
LINE
  5
375
100
AcDbEntity
  8
BEZUGSACHSEN
100
AcDbLine
 62
7
  6
CONTINUOUS
 10
577.1113628465
 20
207.4055824977
 11
577.1408776551
 21
207.4055824977
  0
LINE
  5
376
100
AcDbEntity
  8
BEZUGSACHSEN
100
AcDbLine
 62
7
  6
CONTINUOUS
 10
567.2580522639
 20
207.4495667836
 11
566.9722929491
 21
207.4495667836
  0
LINE
  5
377
100
AcDbEntity
  8
BEZUGSACHSEN
100
AcDbLine
 62
7
  6
CONTINUOUS
 10
576.947098259
 20
207.5532773101
 11
577.0162476271
 21
207.5532773101
  0
LINE
  5
378
100
AcDbEntity
  8
BEZUGSACHSEN
100
AcDbLine
 62
7
  6
CONTINUOUS
 10
567.283391713
 20
207.6140728473
 11
567.0047991885
 21
207.6140728473
  0
LINE
  5
379
100
AcDbEntity
  8
BEZUGSACHSEN
100
AcDbLine
 62
7
  6
CONTINUOUS
 10
577.0254722377
 20
207.6674827244
 11
577.0458396953
 21
207.6674827244
  0
LWPOLYLINE
  5
37A
100
AcDbEntity
  8
RUNDUNGEN
100
AcDbPolyline
 62
7
  6
CONTINUOUS
 90
15
 70
0
 10
563.0769732611
 20
149.5061517109
 10
563.599105969
 20
149.1654793725
 10
564.2063913995
 20
148.829879171
 10
564.8175543811
 20
148.543009248
 10
565.4389697857
 20
148.2932270683
 10
566.0797892169
 20
148.0724055459
 10
566.734416946
 20
147.8797713644
 10
567.4027537654
 20
147.7131720586
 10
568.080603646
 20
147.5719486295
 10
568.7647735957
 20
147.4552324069
 10
569.4519216871
 20
147.3622278114
 10
570.1387778515
 20
147.2921275774
 10
570.8221428887
 20
147.2440918912
 10
571.4999025207
 20
147.2172058834
 10
572.0584503211
 20
147.2103340302
  0
LWPOLYLINE
  5
37B
100
AcDbEntity
  8
0
100
AcDbPolyline
 62
7
  6
CONTINUOUS
 90
15
 70
0
 10
563.0769726563
 20
149.5061521397
 10
563.5984759261
 20
149.1658584926
 10
564.2048475479
 20
148.8306632562
 10
564.8145975933
 20
148.5442920807
 10
565.4346171655
 20
148.2948475143
 10
566.0747823805
 20
148.0740011302
 10
566.7293413721
 20
147.8811481675
 10
567.398297063
 20
147.7141899286
 10
568.0772463874
 20
147.5725835583
 10
568.7627965916
 20
147.4555342321
 10
569.451368164
 20
147.3622933648
 10
570.1394169332
 20
147.292072664
 10
570.8234593225
 20
147.2440197952
 10
571.5009709694
 20
147.2171796117
 10
572.0584503212
 20
147.2103340303
  0
LINE
  5
37C
100
AcDbEntity
  8
KONSTRUKTIONSELEMENTE
100
AcDbLine
 62
7
  6
CONTINUOUS
 10
413.3129779448
 20
82.1248388557
 11
413.3129779448
 21
78.4848388557
  0
LINE
  5
37D
100
AcDbEntity
  8
KONSTRUKTIONSELEMENTE
100
AcDbLine
 62
7
  6
CONTINUOUS
 10
413.5958206573
 20
82.0798898814
 11
413.5958206573
 21
81.8798898814
  0
LINE
  5
37E
100
AcDbEntity
  8
KONSTRUKTIONSELEMENTE
100
AcDbLine
 62
7
  6
CONTINUOUS
 10
413.5958206573
 20
78.2398898814
 11
413.5958206573
 21
78.0398898814
  0
LINE
  5
37F
100
AcDbEntity
  8
KONSTRUKTIONSELEMENTE
100
AcDbLine
 62
7
  6
CONTINUOUS
 10
415.858562357
 20
80.1202980872
 11
415.858562357
 21
79.9202980872
  0
LINE
  5
380
100
AcDbEntity
  8
KONSTRUKTIONSELEMENTE
100
AcDbLine
 62
7
  6
CONTINUOUS
 10
415.858562357
 20
76.2802980872
 11
415.858562357
 21
76.0802980872
  0
LINE
  5
381
100
AcDbEntity
  8
KONSTRUKTIONSELEMENTE
100
AcDbLine
 62
7
  6
CONTINUOUS
 10
416.1414050695
 20
79.6753491129
 11
416.1414050695
 21
76.0353491129
  0
LINE
  5
382
100
AcDbEntity
  8
KONSTRUKTIONSELEMENTE
100
AcDbLine
 62
7
  6
CONTINUOUS
 10
424.6266864438
 20
79.1823632811
 11
424.6266864438
 21
83.0737162898
  0
LINE
  5
383
100
AcDbEntity
  8
KONSTRUKTIONSELEMENTE
100
AcDbLine
 62
7
  6
CONTINUOUS
 10
424.6266864438
 20
93.5227978268
 11
424.6266864438
 21
95.5063427778
  0
LINE
  5
384
100
AcDbEntity
  8
KONSTRUKTIONSELEMENTE
100
AcDbLine
 62
7
  6
CONTINUOUS
 10
427.172270856
 20
83.6782570583
 11
427.172270856
 21
84.4782570583
  0
LINE
  5
385
100
AcDbEntity
  8
KONSTRUKTIONSELEMENTE
100
AcDbLine
 62
7
  6
CONTINUOUS
 10
427.172270856
 20
91.3182570583
 11
427.172270856
 21
92.1182570583
  0
LINE
  5
386
100
AcDbEntity
  8
KONSTRUKTIONSELEMENTE
100
AcDbLine
 62
7
  6
CONTINUOUS
 10
427.4551135685
 20
93.056853035
 11
427.4551135685
 21
91.073308084
  0
LINE
  5
387
100
AcDbEntity
  8
KONSTRUKTIONSELEMENTE
100
AcDbLine
 62
7
  6
CONTINUOUS
 10
427.4551135685
 20
84.233308084
 11
427.4551135685
 21
76.7328735383
  0
LINE
  5
388
100
AcDbEntity
  8
BEZUGSACHSEN
100
AcDbLine
 62
7
  6
CONTINUOUS
 10
576.9914139041
 20
207.7979194927
 11
577.0310969856
 21
207.7979194927
  0
LINE
  5
389
100
AcDbEntity
  8
BEZUGSACHSEN
100
AcDbLine
 62
7
  6
CONTINUOUS
 10
576.8772427715
 20
207.8653310428
 11
576.9508920932
 21
207.8653310428
  0
LINE
  5
38A
100
AcDbEntity
  8
BEZUGSACHSEN
100
AcDbLine
 62
7
  6
CONTINUOUS
 10
567.3454212716
 20
207.9487543963
 11
567.0696664566
 21
207.9487543963
  0
LINE
  5
38B
100
AcDbEntity
  8
BEZUGSACHSEN
100
AcDbLine
 62
7
  6
CONTINUOUS
 10
576.942277015
 20
208.0005449049
 11
576.999758887
 21
208.0005449049
  0
LINE
  5
38C
100
AcDbEntity
  8
BEZUGSACHSEN
100
AcDbLine
 62
7
  6
CONTINUOUS
 10
576.7857895336
 20
208.2728725685
 11
576.8711328158
 21
208.2728725685
  0
LINE
  5
38D
100
AcDbEntity
  8
BEZUGSACHSEN
100
AcDbLine
 62
7
  6
CONTINUOUS
 10
576.8916722637
 20
208.2753588435
 11
576.9523145546
 21
208.2753588435
  0
LINE
  5
38E
100
AcDbEntity
  8
BEZUGSACHSEN
100
AcDbLine
 62
7
  6
CONTINUOUS
 10
567.4079762183
 20
208.2862706853
 11
567.1338937632
 21
208.2862706853
  0
LINE
  5
38F
100
AcDbEntity
  8
BEZUGSACHSEN
100
AcDbLine
 62
7
  6
CONTINUOUS
 10
576.8259356201
 20
208.622361434
 11
576.889086099
 21
208.622361434
  0
LINE
  5
390
100
AcDbEntity
  8
BEZUGSACHSEN
100
AcDbLine
 62
7
  6
CONTINUOUS
 10
576.589224841
 20
208.6290136968
 11
576.6921198896
 21
208.6290136968
  0
LINE
  5
391
100
AcDbEntity
  8
BEZUGSACHSEN
100
AcDbLine
 62
7
  6
CONTINUOUS
 10
567.4865639284
 20
208.7102920251
 11
567.213316707
 21
208.7102920251
  0
LINE
  5
392
100
AcDbEntity
  8
BEZUGSACHSEN
100
AcDbLine
 62
7
  6
CONTINUOUS
 10
576.5592860858
 20
208.7806341038
 11
576.676796106
 21
208.7806341038
  0
LINE
  5
393
100
AcDbEntity
  8
BEZUGSACHSEN
100
AcDbLine
 62
7
  6
CONTINUOUS
 10
576.5183708439
 20
208.9878190064
 11
576.6453094307
 21
208.9878190064
  0
LINE
  5
394
100
AcDbEntity
  8
BEZUGSACHSEN
100
AcDbLine
 62
7
  6
CONTINUOUS
 10
576.4664779447
 20
209.2505683358
 11
576.5979486522
 21
209.2505683358
  0
LINE
  5
395
100
AcDbEntity
  8
BEZUGSACHSEN
100
AcDbLine
 62
7
  6
CONTINUOUS
 10
576.4483575916
 20
209.4893039275
 11
576.5506286026
 21
209.4893039275
  0
LINE
  5
396
100
AcDbEntity
  8
BEZUGSACHSEN
100
AcDbLine
 62
7
  6
CONTINUOUS
 10
576.1277593586
 20
209.620233478
 11
576.3580564848
 21
209.620233478
  0
LINE
  5
397
100
AcDbEntity
  8
BEZUGSACHSEN
100
AcDbLine
 62
7
  6
CONTINUOUS
 10
576.4539650144
 20
209.7040253356
 11
576.50334771
 21
209.7040253356
  0
LINE
  5
398
100
AcDbEntity
  8
BEZUGSACHSEN
100
AcDbLine
 62
7
  6
CONTINUOUS
 10
567.7231151547
 20
209.9866082289
 11
567.449593713
 21
209.9866082289
  0
LINE
  5
399
100
AcDbEntity
  8
BEZUGSACHSEN
100
AcDbLine
 62
7
  6
CONTINUOUS
 10
576.1348661547
 20
210.1965690841
 11
576.3764700236
 21
210.1965690841
  0
LINE
  5
39A
100
AcDbEntity
  8
BEZUGSACHSEN
100
AcDbLine
 62
7
  6
CONTINUOUS
 10
576.1490431691
 20
210.2370605687
 11
576.3929271758
 21
210.2370605687
  0
LINE
  5
39B
100
AcDbEntity
  8
BEZUGSACHSEN
100
AcDbLine
 62
7
  6
CONTINUOUS
 10
567.8022282915
 20
210.4134645172
 11
567.5277656896
 21
210.4134645172
  0
LINE
  5
39C
100
AcDbEntity
  8
BEZUGSACHSEN
100
AcDbLine
 62
7
  6
CONTINUOUS
 10
567.8658339981
 20
210.7566501996
 11
567.5897587452
 21
210.7566501996
  0
LINE
  5
39D
100
AcDbEntity
  8
0
100
AcDbLine
 62
7
  6
CONTINUOUS
 10
569.1318222541
 20
210.8354737498
 11
574.9850783882
 21
210.8354737498
  0
LINE
  5
39E
100
AcDbEntity
  8
BEZUGSACHSEN
100
AcDbLine
 62
7
  6
CONTINUOUS
 10
576.1285412877
 20
210.8718582097
 11
576.3846225734
 21
210.8718582097
  0
LINE
  5
39F
100
AcDbEntity
  8
BEZUGSACHSEN
100
AcDbLine
 62
7
  6
CONTINUOUS
 10
576.1323476144
 20
210.9417560095
 11
576.3908727815
 21
210.9417560095
  0
LINE
  5
3A0
100
AcDbEntity
  8
BEZUGSACHSEN
100
AcDbLine
 62
7
  6
CONTINUOUS
 10
567.9299650872
 20
211.1026705922
 11
567.6513092271
 21
211.1026705922
  0
LINE
  5
3A1
100
AcDbEntity
  8
BEZUGSACHSEN
100
AcDbLine
 62
7
  6
CONTINUOUS
 10
576.1323476129
 20
211.2213470752
 11
576.4001417679
 21
211.2213470752
  0
LINE
  5
3A2
100
AcDbEntity
  8
BEZUGSACHSEN
100
AcDbLine
 62
7
  6
CONTINUOUS
 10
567.9674536592
 20
211.2785155068
 11
567.6820705905
 21
211.2785155068
  0
LINE
  5
3A3
100
AcDbEntity
  8
BEZUGSACHSEN
100
AcDbLine
 62
7
  6
CONTINUOUS
 10
576.1285412877
 20
211.2912448417
 11
576.3985108299
 21
211.2912448417
  0
LINE
  5
3A4
100
AcDbEntity
  8
BEZUGSACHSEN
100
AcDbLine
 62
7
  6
CONTINUOUS
 10
567.9818439408
 20
211.3706900538
 11
567.6978688562
 21
211.3706900538
  0
LINE
  5
3A5
100
AcDbEntity
  8
BEZUGSACHSEN
100
AcDbLine
 62
7
  6
CONTINUOUS
 10
567.9899653006
 20
211.4047067063
 11
567.7133169743
 21
211.4047067063
  0
LINE
  5
3A6
100
AcDbEntity
  8
BEZUGSACHSEN
100
AcDbLine
 62
7
  6
CONTINUOUS
 10
576.1269353417
 20
211.4047067063
 11
576.403583668
 21
211.4047067063
  0
LINE
  5
3A7
100
AcDbEntity
  8
0
100
AcDbLine
 62
7
  6
CONTINUOUS
 10
569.1318222541
 20
217.4433110755
 11
574.9850783882
 21
217.4433110755
  0
LINE
  5
3A8
100
AcDbEntity
  8
0
100
AcDbLine
 62
7
  6
CONTINUOUS
 10
562.3715178331
 20
150.0057958546
 11
563.0775232494
 21
149.5057619005
  0
LINE
  5
3A9
100
AcDbEntity
  8
KONSTRUKTIONSELEMENTE
100
AcDbLine
 62
7
  6
CONTINUOUS
 10
456.1607995686
 20
133.904388145
 11
456.1342994089
 21
134.4558599344
  0
LINE
  5
3AA
100
AcDbEntity
  8
KONSTRUKTIONSELEMENTE
100
AcDbLine
 62
7
  6
CONTINUOUS
 10
577.1949252262
 20
189.5503698373
 11
579.0506246556
 21
188.190064689
  0
LINE
  5
3AB
100
AcDbEntity
  8
RUNDUNGEN
100
AcDbLine
 62
7
  6
CONTINUOUS
 10
579.0506246541
 20
188.1900646901
 11
579.0512526776
 21
188.1896037437
  0
LWPOLYLINE
  5
3AC
100
AcDbEntity
  8
KONSTRUKTIONSELEMENTE
100
AcDbPolyline
 62
7
  6
CONTINUOUS
 90
3
 70
0
 10
577.1948878192
 20
189.5504028939
 10
577.0231905172
 20
189.6796232386
 10
576.8102675898
 20
189.8503492203
  0
LWPOLYLINE
  5
3AD
100
AcDbEntity
  8
RUNDUNGEN
100
AcDbPolyline
 62
7
  6
CONTINUOUS
 90
7
 70
0
 10
561.5688008411
 20
150.8030657211
 10
561.6493181022
 20
150.6966597415
 10
561.8037438774
 20
150.51326652
 10
561.9656147777
 20
150.3448265381
 10
562.133401826
 20
150.1916353017
 10
562.3054567098
 20
150.053888224
 10
562.3717004339
 20
150.0056052283
  0
LWPOLYLINE
  5
3AE
100
AcDbEntity
  8
0
100
AcDbPolyline
 62
7
  6
CONTINUOUS
 90
7
 70
0
 10
561.5688008411
 20
150.8030657211
 10
561.6493181022
 20
150.6966597415
 10
561.8037438774
 20
150.51326652
 10
561.9656147777
 20
150.3448265381
 10
562.133401826
 20
150.1916353017
 10
562.3054567098
 20
150.053888224
 10
562.3717004339
 20
150.0056052283
  0
LINE
  5
3AF
100
AcDbEntity
  8
0
100
AcDbLine
 62
7
  6
CONTINUOUS
 10
561.5688635602
 20
150.8029968591
 11
561.3080721489
 21
151.1612714645
  0
LINE
  5
3B0
100
AcDbEntity
  8
KONSTRUKTIONSELEMENTE
100
AcDbLine
 62
7
  6
CONTINUOUS
 10
576.8102675898
 20
189.8503492203
 11
576.7844894546
 21
189.8719204539
  0
LINE
  5
3B1
100
AcDbEntity
  8
RUNDUNGEN
100
AcDbLine
 62
7
  6
CONTINUOUS
 10
576.7847806398
 20
189.8716755139
 11
576.786612078
 21
189.8701361886
  0
LWPOLYLINE
  5
3B2
100
AcDbEntity
  8
RUNDUNGEN
100
AcDbPolyline
 62
7
  6
CONTINUOUS
 90
5
 70
0
 10
576.7866837686
 20
189.8700709705
 10
576.7799594024
 20
189.8758525648
 10
576.7669452354
 20
189.8877693726
 10
576.7540493685
 20
189.9005257856
 10
576.7467859587
 20
189.9081732448
  0
LINE
  5
3B3
100
AcDbEntity
  8
RUNDUNGEN
100
AcDbLine
 62
7
  6
CONTINUOUS
 10
576.7467968175
 20
189.9081545801
 11
576.7277169309
 21
189.9293411589
  0
LINE
  5
3B4
100
AcDbEntity
  8
RUNDUNGEN
100
AcDbLine
 62
7
  6
CONTINUOUS
 10
576.7277169309
 20
189.9293411589
 11
576.6963664311
 21
189.9672373699
  0
LINE
  5
3B5
100
AcDbEntity
  8
RUNDUNGEN
100
AcDbLine
 62
7
  6
CONTINUOUS
 10
576.6963664311
 20
189.9672373699
 11
576.6828469962
 21
189.9855399726
  0
LINE
  5
3B6
100
AcDbEntity
  8
RUNDUNGEN
100
AcDbLine
 62
7
  6
CONTINUOUS
 10
582.8725514231
 20
179.4416813524
 11
577.9862223436
 21
186.7711749715
  0
LWPOLYLINE
  5
3B7
100
AcDbEntity
  8
RUNDUNGEN
100
AcDbPolyline
 62
7
  6
CONTINUOUS
 90
7
 70
0
 10
577.9862149705
 20
186.7711858823
 10
577.8777469932
 20
186.9368634389
 10
577.7192067418
 20
187.1905325536
 10
577.5693552762
 20
187.4445146044
 10
577.4281272043
 20
187.6985905783
 10
577.2954863264
 20
187.9525539055
 10
577.1880126998
 20
188.1712735181
  0
LINE
  5
3B8
100
AcDbEntity
  8
KONSTRUKTIONSELEMENTE
100
AcDbLine
 62
7
  6
CONTINUOUS
 10
429.7547013394
 20
76.9126685457
 11
431.4281842763
 21
80.8996090856
  0
LINE
  5
3B9
100
AcDbEntity
  8
RUNDUNGEN
100
AcDbLine
 62
7
  6
CONTINUOUS
 10
577.1894121408
 20
188.1683416777
 11
577.1880145658
 21
188.171270027
  0
LINE
  5
3BA
100
AcDbEntity
  8
0
100
AcDbLine
 62
7
  6
CONTINUOUS
 10
539.0584503212
 20
215.3329609266
 11
539.0584503212
 21
246.5098754629
  0
LINE
  5
3BB
100
AcDbEntity
  8
KONSTRUKTIONSELEMENTE
100
AcDbLine
 62
7
  6
CONTINUOUS
 10
454.0499038615
 20
95.2383048351
 11
453.3295571553
 21
93.5221358666
  0
LINE
  5
3BC
100
AcDbEntity
  8
KONSTRUKTIONSELEMENTE
100
AcDbLine
 62
7
  6
CONTINUOUS
 10
457.831467217
 20
95.0595866637
 11
456.1579842801
 21
91.0726461238
  0
LINE
  5
3BD
100
AcDbEntity
  8
0
100
AcDbLine
 62
7
  6
CONTINUOUS
 10
555.0584503212
 20
215.3329609266
 11
555.0584503212
 21
246.5098754629
  0
LINE
  5
3BE
100
AcDbEntity
  8
0
100
AcDbLine
 62
7
  6
CONTINUOUS
 10
560.8084503212
 20
162.7384389993
 11
560.8084503212
 21
156.1823980734
  0
LINE
  5
3BF
100
AcDbEntity
  8
0
100
AcDbLine
 62
7
  6
CONTINUOUS
 10
560.8084503212
 20
156.0124621033
 11
560.8084503212
 21
152.673434891
  0
LINE
  5
3C0
100
AcDbEntity
  8
0
100
AcDbLine
 62
7
  6
CONTINUOUS
 10
560.8084503212
 20
168.1644717086
 11
560.8084503212
 21
178.0209557524
  0
LINE
  5
3C1
100
AcDbEntity
  8
KONSTRUKTIONSELEMENTE
100
AcDbLine
 62
7
  6
CONTINUOUS
 10
470.8444388755
 20
119.5549065235
 11
460.7585048408
 21
95.5259675969
  0
LINE
  5
3C2
100
AcDbEntity
  8
KONSTRUKTIONSELEMENTE
100
AcDbLine
 62
7
  6
CONTINUOUS
 10
575.1189471013
 20
216.8650206367
 11
576.1308229294
 21
211.4054272281
  0
LINE
  5
3C3
100
AcDbEntity
  8
BEZUGSACHSEN
100
AcDbLine
 62
7
  6
CONTINUOUS
 10
577.1593388679
 20
207.3776767231
 11
577.0648463932
 21
207.887512493
  0
LINE
  5
3C4
100
AcDbEntity
  8
BEZUGSACHSEN
100
AcDbLine
 62
7
  6
CONTINUOUS
 10
576.5090046674
 20
210.8865660709
 11
576.4177619286
 21
211.3788678351
  0
LINE
  5
3C5
100
AcDbEntity
  8
RUNDUNGEN
100
AcDbLine
 62
7
  6
CONTINUOUS
 10
575.2099808099
 20
183.3652657454
 11
575.1132538684
 21
184.891175503
  0
LINE
  5
3C6
100
AcDbEntity
  8
0
100
AcDbLine
 62
7
  6
CONTINUOUS
 10
580.0584489999
 20
186.3375822186
 11
580.0515377207
 21
186.5056418224
  0
LWPOLYLINE
  5
3C7
100
AcDbEntity
  8
KONSTRUKTIONSELEMENTE
100
AcDbPolyline
 62
7
  6
CONTINUOUS
 90
11
 70
0
 10
580.0584490005
 20
186.3375811706
 10
580.0515342717
 20
186.5057256902
 10
580.0224432755
 20
186.7214845087
 10
579.9710880207
 20
186.93342549
 10
579.8974036662
 20
187.1415073384
 10
579.801004052
 20
187.3451221162
 10
579.6815027375
 20
187.5430617682
 10
579.5379540877
 20
187.7346449634
 10
579.3698224523
 20
187.9182788671
 10
579.175459774
 20
188.0933388978
 10
579.0512523881
 20
188.1896033493
  0
LINE
  5
3C8
100
AcDbEntity
  8
0
100
AcDbLine
 62
7
  6
CONTINUOUS
 10
568.9648521047
 20
199.9831648549
 11
569.0844090139
 21
196.7660381934
  0
LINE
  5
3C9
100
AcDbEntity
  8
0
100
AcDbLine
 62
7
  6
CONTINUOUS
 10
575.0324916284
 20
196.7660381934
 11
575.1132538684
 21
184.891175503
  0
LINE
  5
3CA
100
AcDbEntity
  8
0
100
AcDbLine
 62
7
  6
CONTINUOUS
 10
561.0584503212
 20
522.8540855921
 11
561.0584503212
 21
240.8540855921
  0
LINE
  5
3CB
100
AcDbEntity
  8
0
100
AcDbLine
 62
7
  6
CONTINUOUS
 10
562.9362895418
 20
164.1389904533
 11
562.9362895418
 21
161.7121807616
  0
LINE
  5
3CC
100
AcDbEntity
  8
0
100
AcDbLine
 62
7
  6
CONTINUOUS
 10
564.0584503212
 20
183.6628330053
 11
564.0584503212
 21
186.3368043391
  0
LINE
  5
3CD
100
AcDbEntity
  8
0
100
AcDbLine
 62
7
  6
CONTINUOUS
 10
567.0584503212
 20
206.0620543802
 11
567.0584503212
 21
189.653081757
  0
LINE
  5
3CE
100
AcDbEntity
  8
RUNDUNGEN
100
AcDbLine
 62
7
  6
CONTINUOUS
 10
577.0584503212
 20
196.3551422649
 11
577.0584503212
 21
189.653086514
  0
LINE
  5
3CF
100
AcDbEntity
  8
KONSTRUKTIONSELEMENTE
100
AcDbLine
 62
7
  6
CONTINUOUS
 10
577.0584503212
 20
196.3551422743
 11
577.0584503212
 21
189.653086514
  0
LINE
  5
3D0
100
AcDbEntity
  8
BEZUGSACHSEN
100
AcDbLine
 62
7
  6
CONTINUOUS
 10
577.0584503212
 20
205.8800455884
 11
577.0584503212
 21
196.3551422743
  0
LINE
  5
3D1
100
AcDbEntity
  8
0
100
AcDbLine
 62
7
  6
CONTINUOUS
 10
569.0844090139
 20
196.7660381934
 11
569.0036467739
 21
184.891175503
  0
LINE
  5
3D2
100
AcDbEntity
  8
KONSTRUKTIONSELEMENTE
100
AcDbLine
 62
7
  6
CONTINUOUS
 10
564.0653629216
 20
186.5056418224
 11
564.0584516418
 21
186.3375811706
  0
LINE
  5
3D3
100
AcDbEntity
  8
0
100
AcDbLine
 62
7
  6
CONTINUOUS
 10
568.9069198324
 20
183.3652657454
 11
569.0036467739
 21
184.891175503
  0
LINE
  5
3D4
100
AcDbEntity
  8
BEZUGSACHSEN
100
AcDbLine
 62
7
  6
CONTINUOUS
 10
577.1599137922
 20
207.3745510993
 11
577.1603484348
 21
207.3715658452
  0
LINE
  5
3D5
100
AcDbEntity
  8
BEZUGSACHSEN
100
AcDbLine
 62
7
  6
CONTINUOUS
 10
576.5130608579
 20
210.8646742848
 11
576.5136688817
 21
210.8601636199
  0
LINE
  5
3D6
100
AcDbEntity
  8
0
100
AcDbLine
 62
7
  6
CONTINUOUS
 10
580.0515377207
 20
186.5056418224
 11
580.0427666514
 21
186.5707406223
  0
LINE
  5
3D7
100
AcDbEntity
  8
RUNDUNGEN
100
AcDbLine
 62
7
  6
CONTINUOUS
 10
580.0584500913
 20
186.3375811711
 11
580.0584503212
 21
186.3368043391
  0
LINE
  5
3D8
100
AcDbEntity
  8
KONSTRUKTIONSELEMENTE
100
AcDbLine
 62
7
  6
CONTINUOUS
 10
580.0584503212
 20
183.6628330053
 11
580.0584503212
 21
186.3368043391
  0
LINE
  5
3D9
100
AcDbEntity
  8
KONSTRUKTIONSELEMENTE
100
AcDbLine
 62
7
  6
CONTINUOUS
 10
581.1806111005
 20
164.1389904533
 11
581.1806111005
 21
161.7121807616
  0
LINE
  5
3DA
100
AcDbEntity
  8
0
100
AcDbLine
 62
7
  6
CONTINUOUS
 10
583.0584503212
 20
522.8540855921
 11
583.0584503212
 21
240.8540855921
  0
LINE
  5
3DB
100
AcDbEntity
  8
KONSTRUKTIONSELEMENTE
100
AcDbLine
 62
7
  6
CONTINUOUS
 10
583.3084503212
 20
162.7384389993
 11
583.3084503212
 21
156.1823980734
  0
LINE
  5
3DC
100
AcDbEntity
  8
RUNDUNGEN
100
AcDbLine
 62
7
  6
CONTINUOUS
 10
583.3084503212
 20
156.0124621033
 11
583.3084503212
 21
152.673434891
  0
LINE
  5
3DD
100
AcDbEntity
  8
RUNDUNGEN
100
AcDbLine
 62
7
  6
CONTINUOUS
 10
583.3084503212
 20
168.1644717086
 11
583.3084503212
 21
178.0209557524
  0
LINE
  5
3DE
100
AcDbEntity
  8
0
100
AcDbLine
 62
7
  6
CONTINUOUS
 10
589.0584503212
 20
246.5098754629
 11
589.0584503212
 21
215.3329609266
  0
LINE
  5
3DF
100
AcDbEntity
  8
0
100
AcDbLine
 62
7
  6
CONTINUOUS
 10
575.1520485376
 20
199.9831648549
 11
575.0324916284
 21
196.7660381934
  0
LINE
  5
3E0
100
AcDbEntity
  8
BEZUGSACHSEN
100
AcDbLine
 62
7
  6
CONTINUOUS
 10
567.6985039091
 20
211.375426654
 11
567.6978688562
 21
211.3706900538
  0
LINE
  5
3E1
100
AcDbEntity
  8
KONSTRUKTIONSELEMENTE
100
AcDbLine
 62
7
  6
CONTINUOUS
 10
564.0748334488
 20
186.5759400478
 11
564.0653629216
 21
186.5056418224
  0
LINE
  5
3E2
100
AcDbEntity
  8
0
100
AcDbLine
 62
7
  6
CONTINUOUS
 10
567.1170581447
 20
206.7166172228
 11
568.997953541
 21
216.8650206367
  0
LINE
  5
3E3
100
AcDbEntity
  8
KONSTRUKTIONSELEMENTE
100
AcDbLine
 62
7
  6
CONTINUOUS
 10
457.1596696202
 20
135.681951195
 11
456.1342994089
 21
134.4558599344
  0
LINE
  5
3E4
100
AcDbEntity
  8
KONSTRUKTIONSELEMENTE
100
AcDbLine
 62
7
  6
CONTINUOUS
 10
449.238684738
 20
126.2103962065
 11
426.2597686136
 21
98.7332489974
  0
LINE
  5
3E5
100
AcDbEntity
  8
KONSTRUKTIONSELEMENTE
100
AcDbLine
 62
7
  6
CONTINUOUS
 10
449.5215274505
 20
125.9654472322
 11
449.7778700033
 21
126.2719700474
  0
LINE
  5
3E6
100
AcDbEntity
  8
KONSTRUKTIONSELEMENTE
100
AcDbLine
 62
7
  6
CONTINUOUS
 10
452.1496981981
 20
126.1604449244
 11
456.8580290402
 21
131.7904537098
  0
LINE
  5
3E7
100
AcDbEntity
  8
KONSTRUKTIONSELEMENTE
100
AcDbLine
 62
7
  6
CONTINUOUS
 10
451.7842691503
 20
124.005855438
 11
452.0406117031
 21
124.3123782532
  0
LINE
  5
3E8
100
AcDbEntity
  8
KONSTRUKTIONSELEMENTE
100
AcDbLine
 62
7
  6
CONTINUOUS
 10
459.988096745
 20
133.2324614523
 11
458.9627265337
 21
132.0063701916
  0
LINE
  5
3E9
100
AcDbEntity
  8
KONSTRUKTIONSELEMENTE
100
AcDbLine
 62
7
  6
CONTINUOUS
 10
452.0671118628
 20
123.7609064637
 11
429.0881957383
 21
96.2837592546
  0
LINE
  5
3EA
100
AcDbEntity
  8
KONSTRUKTIONSELEMENTE
100
AcDbLine
 62
7
  6
CONTINUOUS
 10
454.4658487366
 20
123.6815575206
 11
455.4912189479
 21
124.9076487812
  0
LINE
  5
3EB
100
AcDbEntity
  8
KONSTRUKTIONSELEMENTE
100
AcDbLine
 62
7
  6
CONTINUOUS
 10
459.7877091171
 20
129.4620376615
 11
454.7486914491
 21
123.4366085463
  0
LINE
  5
3EC
100
AcDbEntity
  8
0
100
AcDbLine
 62
7
  6
CONTINUOUS
 10
605.0584503212
 20
246.5098754629
 11
605.0584503212
 21
215.3329609266
  0
LINE
  5
3ED
100
AcDbEntity
  8
KONSTRUKTIONSELEMENTE
100
AcDbLine
 62
7
  6
CONTINUOUS
 10
466.5485034096
 20
134.3081386986
 11
467.1842260912
 21
134.8586906906
  0
LINE
  5
3EE
100
AcDbEntity
  8
KONSTRUKTIONSELEMENTE
100
AcDbLine
 62
7
  6
CONTINUOUS
 10
467.5377794817
 20
135.1648769084
 11
470.3662066065
 21
137.6143666512
  0
LINE
  5
3EF
100
AcDbEntity
  8
KONSTRUKTIONSELEMENTE
100
AcDbLine
 62
7
  6
CONTINUOUS
 10
521.6314482425
 20
182.0113682392
 11
524.4598753673
 21
184.4608579819
  0
LINE
  5
3F0
100
AcDbEntity
  8
KONSTRUKTIONSELEMENTE
100
AcDbLine
 62
7
  6
CONTINUOUS
 10
524.8134287579
 20
184.7670441998
 11
527.6418558826
 21
187.2165339426
  0
LINE
  5
3F1
100
AcDbEntity
  8
KONSTRUKTIONSELEMENTE
100
AcDbLine
 62
7
  6
CONTINUOUS
 10
490.8591899833
 20
155.031091941
 11
501.4657917011
 21
164.2166784764
  0
LINE
  5
3F2
100
AcDbEntity
  8
0
100
AcDbLine
 62
7
  6
CONTINUOUS
 10
566.9274885015
 20
188.1683416777
 11
566.9288830701
 21
188.1712637259
  0
LWPOLYLINE
  5
3F3
100
AcDbEntity
  8
0
100
AcDbPolyline
 62
7
  6
CONTINUOUS
 90
7
 70
0
 10
566.9288849329
 20
188.1712672102
 10
566.8227429253
 20
187.9551823444
 10
566.6899121037
 20
187.7007037459
 10
566.5484567031
 20
187.4461058943
 10
566.3983401055
 20
187.1915966626
 10
566.2394962803
 20
186.9373964812
 10
566.1306857064
 20
186.7711859341
  0
LWPOLYLINE
  5
3F4
100
AcDbEntity
  8
0
100
AcDbPolyline
 62
7
  6
CONTINUOUS
 90
7
 70
0
 10
567.4150236617
 20
189.9538901607
 10
567.4178531952
 20
189.9588112146
 10
567.4315221715
 20
189.9815932416
 10
567.4333591072
 20
189.9845417239
 10
567.4205381316
 20
189.9672424334
 10
567.3891867793
 20
189.929344672
 10
567.3701119282
 20
189.9081633448
  0
LINE
  5
3F5
100
AcDbEntity
  8
0
100
AcDbLine
 62
7
  6
CONTINUOUS
 10
566.1306782987
 20
186.7711749715
 11
561.2443492193
 21
179.4416813524
  0
LINE
  5
3F6
100
AcDbEntity
  8
KONSTRUKTIONSELEMENTE
100
AcDbLine
 62
7
  6
CONTINUOUS
 10
521.088004879
 20
177.0427305565
 11
510.4814031612
 21
167.857144021
  0
LINE
  5
3F7
100
AcDbEntity
  8
KONSTRUKTIONSELEMENTE
100
AcDbLine
 62
7
  6
CONTINUOUS
 10
489.9753065068
 20
150.0983433858
 11
479.368704789
 21
140.9127568504
  0
LINE
  5
3F8
100
AcDbEntity
  8
KONSTRUKTIONSELEMENTE
100
AcDbLine
 62
7
  6
CONTINUOUS
 10
422.6467874564
 20
90.5182570583
 11
414.4443487947
 21
83.4147368043
  0
LINE
  5
3F9
100
AcDbEntity
  8
KONSTRUKTIONSELEMENTE
100
AcDbLine
 62
7
  6
CONTINUOUS
 10
413.3129779448
 20
82.1248388557
 11
413.7024713974
 21
82.4621500802
  0
LINE
  5
3FA
100
AcDbEntity
  8
KONSTRUKTIONSELEMENTE
100
AcDbLine
 62
7
  6
CONTINUOUS
 10
494.593340535
 20
152.3120207304
 11
504.4117332193
 21
160.8149982193
  0
LINE
  5
3FB
100
AcDbEntity
  8
KONSTRUKTIONSELEMENTE
100
AcDbLine
 62
7
  6
CONTINUOUS
 10
470.8110478353
 20
131.3852321783
 11
473.63947496
 21
133.8347219211
  0
LINE
  5
3FC
100
AcDbEntity
  8
KONSTRUKTIONSELEMENTE
100
AcDbLine
 62
7
  6
CONTINUOUS
 10
526.0612448676
 20
179.2333063724
 11
527.7331437208
 21
180.6812132518
  0
LINE
  5
3FD
100
AcDbEntity
  8
KONSTRUKTIONSELEMENTE
100
AcDbLine
 62
7
  6
CONTINUOUS
 10
528.0866971114
 20
180.9873994697
 11
530.2449260068
 21
182.8564805203
  0
LINE
  5
3FE
100
AcDbEntity
  8
KONSTRUKTIONSELEMENTE
100
AcDbLine
 62
7
  6
CONTINUOUS
 10
424.9095291562
 20
88.5586652641
 11
416.7070904945
 21
81.45514501
  0
LINE
  5
3FF
100
AcDbEntity
  8
KONSTRUKTIONSELEMENTE
100
AcDbLine
 62
7
  6
CONTINUOUS
 10
524.0339463972
 20
173.6410502994
 11
513.4273446794
 21
164.4554637639
  0
LINE
  5
400
100
AcDbEntity
  8
KONSTRUKTIONSELEMENTE
100
AcDbLine
 62
7
  6
CONTINUOUS
 10
492.921248025
 20
146.6966631288
 11
482.3146463072
 21
137.5110765933
  0
LINE
  5
401
100
AcDbEntity
  8
KONSTRUKTIONSELEMENTE
100
AcDbLine
 62
7
  6
CONTINUOUS
 10
415.858562357
 20
79.9202980872
 11
424.9095291562
 21
87.7586652641
  0
LINE
  5
402
100
AcDbEntity
  8
KONSTRUKTIONSELEMENTE
100
AcDbLine
 62
7
  6
CONTINUOUS
 10
416.1414050695
 20
79.6753491129
 11
425.1923718687
 21
87.5137162898
  0
LINE
  5
403
100
AcDbEntity
  8
KONSTRUKTIONSELEMENTE
100
AcDbLine
 62
7
  6
CONTINUOUS
 10
535.7735838662
 20
180.1742509321
 11
529.7631762262
 21
174.9690852287
  0
LINE
  5
404
100
AcDbEntity
  8
KONSTRUKTIONSELEMENTE
100
AcDbLine
 62
7
  6
CONTINUOUS
 10
478.4979345901
 20
130.5720836407
 11
472.4875269501
 21
125.3669179373
  0
LINE
  5
405
100
AcDbEntity
  8
KONSTRUKTIONSELEMENTE
100
AcDbLine
 62
7
  6
CONTINUOUS
 10
509.5975196847
 20
157.1743954659
 11
498.9909179669
 21
147.9888089305
  0
LINE
  5
406
100
AcDbEntity
  8
KONSTRUKTIONSELEMENTE
100
AcDbLine
 62
7
  6
CONTINUOUS
 10
416.1414050695
 20
76.0353491129
 11
425.1923718687
 21
83.8737162898
  0
LINE
  5
407
100
AcDbEntity
  8
KONSTRUKTIONSELEMENTE
100
AcDbLine
 62
7
  6
CONTINUOUS
 10
416.7070904945
 20
76.21514501
 11
424.9095291562
 21
83.3186652641
  0
LINE
  5
408
100
AcDbEntity
  8
KONSTRUKTIONSELEMENTE
100
AcDbLine
 62
7
  6
CONTINUOUS
 10
484.1975171138
 20
133.3916905439
 11
492.921248025
 21
140.9466631288
  0
LINE
  5
409
100
AcDbEntity
  8
KONSTRUKTIONSELEMENTE
100
AcDbLine
 62
7
  6
CONTINUOUS
 10
514.9205433618
 20
159.9986117558
 11
524.0339463972
 21
167.8910502994
  0
LINE
  5
40A
100
AcDbEntity
  8
KONSTRUKTIONSELEMENTE
100
AcDbLine
 62
7
  6
CONTINUOUS
 10
512.5434612029
 20
153.7727152088
 11
501.9368594851
 21
144.5871286734
  0
LINE
  5
40B
100
AcDbEntity
  8
KONSTRUKTIONSELEMENTE
100
AcDbLine
 62
7
  6
CONTINUOUS
 10
539.0468522198
 20
176.394606202
 11
533.0364445797
 21
171.1894404986
  0
LINE
  5
40C
100
AcDbEntity
  8
KONSTRUKTIONSELEMENTE
100
AcDbLine
 62
7
  6
CONTINUOUS
 10
481.7712029437
 20
126.7924389106
 11
475.7607953036
 21
121.5872732072
  0
LWPOLYLINE
  5
40D
100
AcDbEntity
  8
0
100
AcDbPolyline
 62
7
  6
CONTINUOUS
 90
4
 70
0
 10
567.3701146837
 20
189.9081732448
 10
567.3628512738
 20
189.9005257856
 10
567.3499554069
 20
189.8877693726
 10
567.3369412399
 20
189.8758525648
  0
LINE
  5
40E
100
AcDbEntity
  8
0
100
AcDbLine
 62
7
  6
CONTINUOUS
 10
567.3369412399
 20
189.8758525648
 11
567.3332177894
 21
189.872616689
  0
LINE
  5
40F
100
AcDbEntity
  8
0
100
AcDbLine
 62
7
  6
CONTINUOUS
 10
567.3332177894
 20
189.872616689
 11
567.3313759426
 21
189.8710542248
  0
LINE
  5
410
100
AcDbEntity
  8
0
100
AcDbLine
 62
7
  6
CONTINUOUS
 10
567.3321203917
 20
189.8716758412
 11
567.3062190698
 21
189.8500045139
  0
LWPOLYLINE
  5
411
100
AcDbEntity
  8
0
100
AcDbPolyline
 62
7
  6
CONTINUOUS
 90
3
 70
0
 10
567.3062190698
 20
189.8500045139
 10
567.0934185139
 20
189.6793978004
 10
566.9220140543
 20
189.5504037963
  0
LWPOLYLINE
  5
412
100
AcDbEntity
  8
0
100
AcDbPolyline
 62
7
  6
CONTINUOUS
 90
11
 70
0
 10
565.0656487466
 20
188.1896037111
 10
564.941417047
 20
188.093319386
 10
564.7470267045
 20
187.9182277955
 10
564.5788629889
 20
187.7345441597
 10
564.4352904635
 20
187.5429023249
 10
564.3157788597
 20
187.3449027466
 10
564.2193879172
 20
187.1412428799
 10
564.1457307153
 20
186.9331500155
 10
564.0944118211
 20
186.721242503
 10
564.0653542045
 20
186.5055771241
 10
564.0584516424
 20
186.3375822186
  0
LINE
  5
413
100
AcDbEntity
  8
0
100
AcDbLine
 62
7
  6
CONTINUOUS
 10
565.0656484571
 20
188.1896041055
 11
566.9219754161
 21
189.5503698373
  0
LINE
  5
414
100
AcDbEntity
  8
RUNDUNGEN
100
AcDbLine
 62
7
  6
CONTINUOUS
 10
582.8088284934
 20
151.1612714645
 11
582.5480370821
 21
150.8029968591
  0
LINE
  5
415
100
AcDbEntity
  8
KONSTRUKTIONSELEMENTE
100
AcDbLine
 62
7
  6
CONTINUOUS
 10
435.1869547594
 20
85.1221788615
 11
456.4633866437
 21
96.5326462303
  0
LINE
  5
416
100
AcDbEntity
  8
KONSTRUKTIONSELEMENTE
100
AcDbLine
 62
7
  6
CONTINUOUS
 10
429.0881957383
 20
76.3345486097
 11
429.3788242911
 21
76.4904115681
  0
LINE
  5
417
100
AcDbEntity
  8
KONSTRUKTIONSELEMENTE
100
AcDbLine
 62
7
  6
CONTINUOUS
 10
456.2947923374
 20
90.9253401671
 11
456.9997343577
 21
91.3033978209
  0
LWPOLYLINE
  5
418
100
AcDbEntity
  8
0
100
AcDbPolyline
 62
7
  6
CONTINUOUS
 90
7
 70
0
 10
581.7452002084
 20
150.0056052283
 10
581.8114439325
 20
150.053888224
 10
581.9834988164
 20
150.1916353017
 10
582.1512858646
 20
150.3448265381
 10
582.3131567649
 20
150.51326652
 10
582.4675825401
 20
150.6966597415
 10
582.5480998012
 20
150.8030657211
  0
LWPOLYLINE
  5
419
100
AcDbEntity
  8
RUNDUNGEN
100
AcDbPolyline
 62
7
  6
CONTINUOUS
 90
7
 70
0
 10
581.7452002084
 20
150.0056052283
 10
581.8114439325
 20
150.053888224
 10
581.9834988164
 20
150.1916353017
 10
582.1512858646
 20
150.3448265381
 10
582.3131567649
 20
150.51326652
 10
582.4675825401
 20
150.6966597415
 10
582.5480998012
 20
150.8030657211
  0
LINE
  5
41A
100
AcDbEntity
  8
RUNDUNGEN
100
AcDbLine
 62
7
  6
CONTINUOUS
 10
581.745411526
 20
150.005755406
 11
581.0393773929
 21
149.5057619005
  0
ARC
  5
41B
100
AcDbEntity
  8
KONSTRUKTIONSELEMENTE
100
AcDbCircle
 62
7
  6
CONTINUOUS
 10
108.6175774447
 20
132.1607471726
 40
28.0
100
AcDbArc
 50
69.3520350576
 51
82.9267093509
  0
ARC
  5
41C
100
AcDbEntity
  8
KONSTRUKTIONSELEMENTE
100
AcDbCircle
 62
7
  6
CONTINUOUS
 10
108.6175774447
 20
132.1607471726
 40
28.0
100
AcDbArc
 50
37.0732906491
 51
50.6479649424
  0
ARC
  5
41D
100
AcDbEntity
  8
BEZUGSACHSEN
100
AcDbCircle
 62
7
  6
CONTINUOUS
 10
142.7620774447
 20
191.3007559716
 40
11.0
100
AcDbArc
 50
106.7212007008
 51
13.2787992992
  0
ARC
  5
41E
100
AcDbEntity
  8
0
100
AcDbCircle
 62
7
  6
CONTINUOUS
 10
144.1370774447
 20
193.682325832
 40
8.0
100
AcDbArc
 50
150.0
 51
330.0
  0
ARC
  5
41F
100
AcDbEntity
  8
KONSTRUKTIONSELEMENTE
100
AcDbCircle
 62
7
  6
CONTINUOUS
 10
132.2370774447
 20
173.0709212219
 40
4.55
100
AcDbArc
 50
330.0
 51
150.0
  0
ARC
  5
420
100
AcDbEntity
  8
KONSTRUKTIONSELEMENTE
100
AcDbCircle
 62
7
  6
CONTINUOUS
 10
88.3272824843
 20
80.5103185272
 40
3.7399682208
100
AcDbArc
 50
81.3149175254
 51
82.0930351416
  0
ARC
  5
421
100
AcDbEntity
  8
KONSTRUKTIONSELEMENTE
100
AcDbCircle
 62
7
  6
CONTINUOUS
 10
74.0321416013
 20
88.7636219635
 40
3.7399682214
100
AcDbArc
 50
37.9069648585
 51
38.6850824746
  0
ARC
  5
422
100
AcDbEntity
  8
KONSTRUKTIONSELEMENTE
100
AcDbCircle
 62
7
  6
CONTINUOUS
 10
111.5172046717
 20
137.1830488527
 40
2.5
100
AcDbArc
 50
330.0
 51
150.0
  0
ARC
  5
423
100
AcDbEntity
  8
KONSTRUKTIONSELEMENTE
100
AcDbCircle
 62
7
  6
CONTINUOUS
 10
102.7620008516
 20
122.0185910057
 40
2.5
100
AcDbArc
 50
150.0
 51
330.0
  0
ARC
  5
424
100
AcDbEntity
  8
KONSTRUKTIONSELEMENTE
100
AcDbCircle
 62
7
  6
CONTINUOUS
 10
140.1550293097
 20
186.785216144
 40
2.5
100
AcDbArc
 50
141.6386766468
 51
150.0
  0
ARC
  5
425
100
AcDbEntity
  8
KONSTRUKTIONSELEMENTE
100
AcDbCircle
 62
7
  6
CONTINUOUS
 10
140.1550293097
 20
186.785216144
 40
2.5
100
AcDbArc
 50
330.0
 51
338.3613233532
  0
ARC
  5
426
100
AcDbEntity
  8
KONSTRUKTIONSELEMENTE
100
AcDbCircle
 62
7
  6
CONTINUOUS
 10
131.3998254897
 20
171.6207582971
 40
2.5
100
AcDbArc
 50
150.0
 51
330.0
  0
ARC
  5
427
100
AcDbEntity
  8
KONSTRUKTIONSELEMENTE
100
AcDbCircle
 62
7
  6
CONTINUOUS
 10
115.9318646512
 20
144.8294642354
 40
2.25
100
AcDbArc
 50
150.0
 51
330.0
  0
ARC
  5
428
100
AcDbEntity
  8
RUNDUNGEN
100
AcDbCircle
 62
7
  6
CONTINUOUS
 10
149.2966871355
 20
158.6190319637
 40
2.0
100
AcDbArc
 50
120.0
 51
150.0
  0
ARC
  5
429
100
AcDbEntity
  8
0
100
AcDbCircle
 62
7
  6
CONTINUOUS
 10
110.3593272541
 20
163.243121997
 40
2.0
100
AcDbArc
 50
190.0000416102
 51
240.0000267465
  0
ARC
  5
42A
100
AcDbEntity
  8
RUNDUNGEN
100
AcDbCircle
 62
7
  6
CONTINUOUS
 10
109.2875904109
 20
169.3212436717
 40
2.0
100
AcDbArc
 50
150.0
 51
190.0
  0
ARC
  5
42B
100
AcDbEntity
  8
0
100
AcDbCircle
 62
7
  6
CONTINUOUS
 10
134.6648281534
 20
149.2103339504
 40
2.0
100
AcDbArc
 50
239.9999849045
 51
289.9999765155
  0
ARC
  5
42C
100
AcDbEntity
  8
RUNDUNGEN
100
AcDbCircle
 62
7
  6
CONTINUOUS
 10
140.4645049471
 20
151.3212436717
 40
2.0
100
AcDbArc
 50
290.0
 51
330.0
  0
ARC
  5
42D
100
AcDbEntity
  8
RUNDUNGEN
100
AcDbCircle
 62
7
  6
CONTINUOUS
 10
111.191569369
 20
180.6190319637
 40
2.0
100
AcDbArc
 50
330.0
 51
360.0
  0
CIRCLE
  5
42E
100
AcDbEntity
  8
BEZUGSACHSEN
100
AcDbCircle
 62
7
  6
CONTINUOUS
 10
139.8676508803
 20
156.8874621033
 40
1.75
  0
ARC
  5
42F
100
AcDbEntity
  8
KONSTRUKTIONSELEMENTE
100
AcDbCircle
 62
7
  6
CONTINUOUS
 10
77.2199254442
 20
88.3277142741
 40
1.6348551464
100
AcDbArc
 50
337.9702150978
 51
339.9065806722
  0
ARC
  5
430
100
AcDbEntity
  8
KONSTRUKTIONSELEMENTE
100
AcDbCircle
 62
7
  6
CONTINUOUS
 10
77.2434256532
 20
88.317904161
 40
1.6093910746
100
AcDbArc
 50
330.0208671421
 51
337.9801551546
  0
ARC
  5
431
100
AcDbEntity
  8
0
100
AcDbCircle
 62
7
  6
CONTINUOUS
 10
187.1370774447
 20
268.1605105575
 40
8.0
100
AcDbArc
 50
330.0
 51
150.0
  0
ARC
  5
432
100
AcDbEntity
  8
KONSTRUKTIONSELEMENTE
100
AcDbCircle
 62
7
  6
CONTINUOUS
 10
327.6565774447
 20
132.1607471726
 40
28.0
100
AcDbArc
 50
97.0732906491
 51
110.6479649424
  0
ARC
  5
433
100
AcDbEntity
  8
KONSTRUKTIONSELEMENTE
100
AcDbCircle
 62
7
  6
CONTINUOUS
 10
327.6565774447
 20
132.1607471726
 40
28.0
100
AcDbArc
 50
129.3520350576
 51
142.9267093509
  0
ARC
  5
434
100
AcDbEntity
  8
0
100
AcDbCircle
 62
7
  6
CONTINUOUS
 10
293.5120774447
 20
191.3007559716
 40
11.0
100
AcDbArc
 50
166.7212007008
 51
73.2787992992
  0
ARC
  5
435
100
AcDbEntity
  8
0
100
AcDbCircle
 62
7
  6
CONTINUOUS
 10
292.1370774447
 20
193.682325832
 40
8.0
100
AcDbArc
 50
210.0
 51
30.0
  0
ARC
  5
436
100
AcDbEntity
  8
0
100
AcDbCircle
 62
7
  6
CONTINUOUS
 10
304.0370774447
 20
173.0709212219
 40
4.55
100
AcDbArc
 50
30.0
 51
210.0
  0
ARC
  5
437
100
AcDbEntity
  8
0
100
AcDbCircle
 62
7
  6
CONTINUOUS
 10
286.9774677539
 20
158.6190319637
 40
2.0
100
AcDbArc
 50
30.0
 51
60.0
  0
ARC
  5
438
100
AcDbEntity
  8
0
100
AcDbCircle
 62
7
  6
CONTINUOUS
 10
325.0825855204
 20
180.6190319637
 40
2.0
100
AcDbArc
 50
180.0
 51
210.0
  0
ARC
  5
439
100
AcDbEntity
  8
0
100
AcDbCircle
 62
7
  6
CONTINUOUS
 10
295.8096499423
 20
151.3212436717
 40
2.0
100
AcDbArc
 50
210.0
 51
250.0
  0
ARC
  5
43A
100
AcDbEntity
  8
0
100
AcDbCircle
 62
7
  6
CONTINUOUS
 10
326.9865644786
 20
169.3212436717
 40
2.0
100
AcDbArc
 50
350.0
 51
30.0
  0
ARC
  5
43B
100
AcDbEntity
  8
0
100
AcDbCircle
 62
7
  6
CONTINUOUS
 10
325.9148276353
 20
163.243121997
 40
2.0
100
AcDbArc
 50
299.9999732535
 51
349.9999583898
  0
ARC
  5
43C
100
AcDbEntity
  8
0
100
AcDbCircle
 62
7
  6
CONTINUOUS
 10
301.609326736
 20
149.2103339504
 40
2.0
100
AcDbArc
 50
250.0000234845
 51
300.0000150955
  0
CIRCLE
  5
43D
100
AcDbEntity
  8
BEZUGSACHSEN
100
AcDbCircle
 62
7
  6
CONTINUOUS
 10
296.4065040091
 20
156.8874621033
 40
1.75
  0
ARC
  5
43E
100
AcDbEntity
  8
0
100
AcDbCircle
 62
7
  6
CONTINUOUS
 10
218.1370774447
 20
321.8540855921
 40
92.0
100
AcDbArc
 50
180.0
 51
235.0103511878
  0
ARC
  5
43F
100
AcDbEntity
  8
0
100
AcDbCircle
 62
7
  6
CONTINUOUS
 10
218.1370774447
 20
321.8540855921
 40
92.0
100
AcDbArc
 50
244.9893904147
 51
295.0106095853
  0
ARC
  5
440
100
AcDbEntity
  8
0
100
AcDbCircle
 62
7
  6
CONTINUOUS
 10
218.1370774447
 20
321.8540855921
 40
92.0
100
AcDbArc
 50
304.9896488122
 51
360.0
  0
ARC
  5
441
100
AcDbEntity
  8
0
100
AcDbCircle
 62
7
  6
CONTINUOUS
 10
218.1370774447
 20
441.8540855921
 40
92.0
100
AcDbArc
 50
0.0
 51
180.0
  0
ARC
  5
442
100
AcDbEntity
  8
0
100
AcDbCircle
 62
7
  6
CONTINUOUS
 10
218.1370774447
 20
441.8540855921
 40
70.0
100
AcDbArc
 50
0.0
 51
180.0
  0
ARC
  5
443
100
AcDbEntity
  8
0
100
AcDbCircle
 62
7
  6
CONTINUOUS
 10
218.1370774447
 20
321.8540855921
 40
70.0
100
AcDbArc
 50
180.0
 51
233.4361650851
  0
ARC
  5
444
100
AcDbEntity
  8
0
100
AcDbCircle
 62
7
  6
CONTINUOUS
 10
218.1370774447
 20
321.8540855921
 40
70.0
100
AcDbArc
 50
246.5630041924
 51
293.4369958076
  0
ARC
  5
445
100
AcDbEntity
  8
0
100
AcDbCircle
 62
7
  6
CONTINUOUS
 10
218.1370774447
 20
321.8540855921
 40
70.0
100
AcDbArc
 50
306.5638349149
 51
360.0
  0
ARC
  5
446
100
AcDbEntity
  8
0
100
AcDbCircle
 62
7
  6
CONTINUOUS
 10
249.1370774447
 20
268.1605105575
 40
8.0
100
AcDbArc
 50
30.0
 51
210.0
  0
ARC
  5
447
100
AcDbEntity
  8
BEZUGSACHSEN
100
AcDbCircle
 62
7
  6
CONTINUOUS
 10
444.2977111365
 20
176.3788059563
 40
136.330692041
100
AcDbArc
 50
13.0940398736
 51
13.2186660371
  0
ARC
  5
448
100
AcDbEntity
  8
BEZUGSACHSEN
100
AcDbCircle
 62
7
  6
CONTINUOUS
 10
490.9258580978
 20
197.8382210252
 40
86.4780821655
100
AcDbArc
 50
7.0196974911
 51
7.1900964322
  0
ARC
  5
449
100
AcDbEntity
  8
BEZUGSACHSEN
100
AcDbCircle
 62
7
  6
CONTINUOUS
 10
501.6243191452
 20
197.3030439573
 40
76.1060909492
100
AcDbArc
 50
10.0582956175
 51
10.1916892449
  0
ARC
  5
44A
100
AcDbEntity
  8
BEZUGSACHSEN
100
AcDbCircle
 62
7
  6
CONTINUOUS
 10
523.4854598826
 20
199.5084475396
 40
54.2042671457
100
AcDbArc
 50
8.2715542335
 51
8.5004983613
  0
ARC
  5
44B
100
AcDbEntity
  8
BEZUGSACHSEN
100
AcDbCircle
 62
7
  6
CONTINUOUS
 10
523.0972776173
 20
203.2889410793
 40
53.8602218131
100
AcDbArc
 50
5.6900458088
 51
5.8521592761
  0
ARC
  5
44C
100
AcDbEntity
  8
BEZUGSACHSEN
100
AcDbCircle
 62
7
  6
CONTINUOUS
 10
532.3591542231
 20
196.2673390826
 40
46.0958777452
100
AcDbArc
 50
14.3066042554
 51
14.4769256317
  0
ARC
  5
44D
100
AcDbEntity
  8
BEZUGSACHSEN
100
AcDbCircle
 62
7
  6
CONTINUOUS
 10
544.718593984
 20
199.7068154761
 40
33.3788772258
100
AcDbArc
 50
18.1316695878
 51
18.3895707138
  0
ARC
  5
44E
100
AcDbEntity
  8
BEZUGSACHSEN
100
AcDbCircle
 62
7
  6
CONTINUOUS
 10
556.8435314905
 20
201.2914662011
 40
21.1031642436
100
AcDbArc
 50
16.0993273625
 51
16.4417736314
  0
ARC
  5
44F
100
AcDbEntity
  8
BEZUGSACHSEN
100
AcDbCircle
 62
7
  6
CONTINUOUS
 10
562.4769605933
 20
205.7314220731
 40
14.7333362741
100
AcDbArc
 50
5.5816721689
 51
6.1371293398
  0
ARC
  5
450
100
AcDbEntity
  8
BEZUGSACHSEN
100
AcDbCircle
 62
7
  6
CONTINUOUS
 10
454.0221013681
 20
131.9267484641
 40
14.4517402496
100
AcDbArc
 50
313.451853395
 51
314.9958166966
  0
ARC
  5
451
100
AcDbEntity
  8
KONSTRUKTIONSELEMENTE
100
AcDbCircle
 62
7
  6
CONTINUOUS
 10
562.4880137094
 20
210.0766368439
 40
13.6473794337
100
AcDbArc
 50
358.0835248568
 51
0.5035178859
  0
ARC
  5
452
100
AcDbEntity
  8
BEZUGSACHSEN
100
AcDbCircle
 62
7
  6
CONTINUOUS
 10
563.048067044
 20
210.3339407296
 40
13.3291108839
100
AcDbArc
 50
356.9306295707
 51
359.4094913812
  0
ARC
  5
453
100
AcDbEntity
  8
BEZUGSACHSEN
100
AcDbCircle
 62
7
  6
CONTINUOUS
 10
563.4537531171
 20
209.9350948448
 40
13.0022839564
100
AcDbArc
 50
357.4933040219
 51
359.5046747401
  0
ARC
  5
454
100
AcDbEntity
  8
BEZUGSACHSEN
100
AcDbCircle
 62
7
  6
CONTINUOUS
 10
564.5508826312
 20
208.7415827718
 40
12.1417590967
100
AcDbArc
 50
357.31474131
 51
359.4687898801
  0
ARC
  5
455
100
AcDbEntity
  8
BEZUGSACHSEN
100
AcDbCircle
 62
7
  6
CONTINUOUS
 10
564.8039158634
 20
208.7638486235
 40
11.8959174641
100
AcDbArc
 50
9.8168715497
 51
10.1497427305
  0
ARC
  5
456
100
AcDbEntity
  8
BEZUGSACHSEN
100
AcDbCircle
 62
7
  6
CONTINUOUS
 10
564.9817073458
 20
208.264485967
 40
11.8055816221
100
AcDbArc
 50
357.2364001246
 51
359.2187388196
  0
ARC
  5
457
100
AcDbEntity
  8
0
100
AcDbCircle
 62
7
  6
CONTINUOUS
 10
565.9808204975
 20
215.3453129834
 40
10.9223771608
100
AcDbArc
 50
180.0647954986
 51
193.6840112434
  0
ARC
  5
458
100
AcDbEntity
  8
BEZUGSACHSEN
100
AcDbCircle
 62
7
  6
CONTINUOUS
 10
566.3543048779
 20
206.6018261206
 40
10.7644365665
100
AcDbArc
 50
356.3473589365
 51
356.9236208602
  0
ARC
  5
459
100
AcDbEntity
  8
BEZUGSACHSEN
100
AcDbCircle
 62
7
  6
CONTINUOUS
 10
566.6020091763
 20
206.5916168661
 40
10.5165096272
100
AcDbArc
 50
0.1790392394
 51
1.0949324511
  0
ARC
  5
45A
100
AcDbEntity
  8
0
100
AcDbCircle
 62
7
  6
CONTINUOUS
 10
560.4684632234
 20
186.9581846913
 40
9.8560449904
100
AcDbArc
 50
311.8722712678
 51
319.9710876468
  0
ARC
  5
45B
100
AcDbEntity
  8
KONSTRUKTIONSELEMENTE
100
AcDbCircle
 62
7
  6
CONTINUOUS
 10
525.9384055215
 20
176.6038285199
 40
6.8544496741
100
AcDbArc
 50
180.0468621101
 51
190.0347873196
  0
ARC
  5
45C
100
AcDbEntity
  8
KONSTRUKTIONSELEMENTE
100
AcDbCircle
 62
7
  6
CONTINUOUS
 10
494.9928820504
 20
149.8106698691
 40
6.5947824563
100
AcDbArc
 50
180.0290752758
 51
188.778086953
  0
ARC
  5
45D
100
AcDbEntity
  8
KONSTRUKTIONSELEMENTE
100
AcDbCircle
 62
7
  6
CONTINUOUS
 10
496.1521641153
 20
150.7619717874
 40
3.6351988048
100
AcDbArc
 50
238.8071952044
 51
240.6860889462
  0
ARC
  5
45E
100
AcDbEntity
  8
KONSTRUKTIONSELEMENTE
100
AcDbCircle
 62
7
  6
CONTINUOUS
 10
527.1166489957
 20
177.6093828255
 40
3.4480880973
100
AcDbArc
 50
240.3855846735
 51
242.1133696711
  0
ARC
  5
45F
100
AcDbEntity
  8
KONSTRUKTIONSELEMENTE
100
AcDbCircle
 62
7
  6
CONTINUOUS
 10
421.5426242663
 20
94.5616836396
 40
3.4287789507
100
AcDbArc
 50
339.0636471637
 51
341.3795103678
  0
ARC
  5
460
100
AcDbEntity
  8
KONSTRUKTIONSELEMENTE
100
AcDbCircle
 62
7
  6
CONTINUOUS
 10
506.5409552409
 20
158.3547080614
 40
3.2537077433
100
AcDbArc
 50
125.8262786327
 51
130.8740696877
  0
ARC
  5
461
100
AcDbEntity
  8
0
100
AcDbCircle
 62
7
  6
CONTINUOUS
 10
563.4883482309
 20
152.7483772746
 40
2.6967589151
100
AcDbArc
 50
213.3585546604
 51
216.0522962765
  0
ARC
  5
462
100
AcDbEntity
  8
KONSTRUKTIONSELEMENTE
100
AcDbCircle
 62
7
  6
CONTINUOUS
 10
508.1248966303
 20
158.8958823577
 40
2.3966654421
100
AcDbArc
 50
23.4830152976
 51
29.1758184914
  0
ARC
  5
463
100
AcDbEntity
  8
KONSTRUKTIONSELEMENTE
100
AcDbCircle
 62
7
  6
CONTINUOUS
 10
534.3913122939
 20
181.9479562243
 40
2.2319350364
100
AcDbArc
 50
329.648099119
 51
331.3181221812
  0
ARC
  5
464
100
AcDbEntity
  8
KONSTRUKTIONSELEMENTE
100
AcDbCircle
 62
7
  6
CONTINUOUS
 10
477.1867347402
 20
132.1037987596
 40
2.1487055737
100
AcDbArc
 50
21.3241761366
 51
27.3321484597
  0
ARC
  5
465
100
AcDbEntity
  8
KONSTRUKTIONSELEMENTE
100
AcDbCircle
 62
7
  6
CONTINUOUS
 10
477.2690377427
 20
132.1373222596
 40
2.0598469893
100
AcDbArc
 50
18.6815072045
 51
21.288032893
  0
ARC
  5
466
100
AcDbEntity
  8
BEZUGSACHSEN
100
AcDbCircle
 62
7
  6
CONTINUOUS
 10
714.3989624923
 20
179.2200756985
 40
150.1041586703
100
AcDbArc
 50
168.9659910709
 51
169.0961186966
  0
ARC
  5
467
100
AcDbEntity
  8
BEZUGSACHSEN
100
AcDbCircle
 62
7
  6
CONTINUOUS
 10
611.5446886681
 20
203.5148119925
 40
44.5444088173
100
AcDbArc
 50
169.962580429
 51
170.1921979653
  0
ARC
  5
468
100
AcDbEntity
  8
BEZUGSACHSEN
100
AcDbCircle
 62
7
  6
CONTINUOUS
 10
599.6910885725
 20
201.0698289767
 40
33.3349762491
100
AcDbArc
 50
168.6782932554
 51
168.9665119244
  0
ARC
  5
469
100
AcDbEntity
  8
BEZUGSACHSEN
100
AcDbCircle
 62
7
  6
CONTINUOUS
 10
581.639940049
 20
205.7314220731
 40
14.7333362741
100
AcDbArc
 50
173.8628706602
 51
174.4183278311
  0
ARC
  5
46A
100
AcDbEntity
  8
0
100
AcDbCircle
 62
7
  6
CONTINUOUS
 10
572.0584503212
 20
240.8540855921
 40
11.0
100
AcDbArc
 50
180.0
 51
360.0
  0
ARC
  5
46B
100
AcDbEntity
  8
BEZUGSACHSEN
100
AcDbCircle
 62
7
  6
CONTINUOUS
 10
577.7625957607
 20
206.6018261204
 40
10.7644365627
100
AcDbArc
 50
183.0763791397
 51
183.6526410637
  0
ARC
  5
46C
100
AcDbEntity
  8
BEZUGSACHSEN
100
AcDbCircle
 62
7
  6
CONTINUOUS
 10
577.514891466
 20
206.5916168661
 40
10.5165096272
100
AcDbArc
 50
178.9050675489
 51
179.8209607606
  0
ARC
  5
46D
100
AcDbEntity
  8
RUNDUNGEN
100
AcDbCircle
 62
7
  6
CONTINUOUS
 10
583.6484374189
 20
186.9581846914
 40
9.8560449905
100
AcDbArc
 50
220.0289123532
 51
228.1277287322
  0
ARC
  5
46E
100
AcDbEntity
  8
BEZUGSACHSEN
100
AcDbCircle
 62
7
  6
CONTINUOUS
 10
575.5997216908
 20
209.9689100514
 40
8.0252268127
100
AcDbArc
 50
169.9404464084
 51
170.6081225603
  0
ARC
  5
46F
100
AcDbEntity
  8
BEZUGSACHSEN
100
AcDbCircle
 62
7
  6
CONTINUOUS
 10
569.4669937123
 20
206.4267909691
 40
7.7368238949
100
AcDbArc
 50
10.8923160208
 51
11.2914559319
  0
ARC
  5
470
100
AcDbEntity
  8
BEZUGSACHSEN
100
AcDbCircle
 62
7
  6
CONTINUOUS
 10
571.52278672
 20
206.4906795336
 40
4.6504256061
100
AcDbArc
 50
168.1006292262
 51
169.0810281996
  0
ARC
  5
471
100
AcDbEntity
  8
0
100
AcDbCircle
 62
7
  6
CONTINUOUS
 10
570.5584503212
 20
206.0787928835
 40
3.5
100
AcDbArc
 50
169.5
 51
180.0
  0
ARC
  5
472
100
AcDbEntity
  8
BEZUGSACHSEN
100
AcDbCircle
 62
7
  6
CONTINUOUS
 10
573.5584503212
 20
206.0787928835
 40
3.5
100
AcDbArc
 50
3.5846535992
 51
8.9775342353
  0
ARC
  5
473
100
AcDbEntity
  8
0
100
AcDbCircle
 62
7
  6
CONTINUOUS
 10
573.1695471903
 20
173.7364865606
 40
3.3889418162
100
AcDbArc
 50
6.9204050838
 51
8.3824961394
  0
ARC
  5
474
100
AcDbEntity
  8
0
100
AcDbCircle
 62
7
  6
CONTINUOUS
 10
570.9473534502
 20
173.7364865609
 40
3.3889418144
100
AcDbArc
 50
171.6175038601
 51
173.0795949165
  0
ARC
  5
475
100
AcDbEntity
  8
0
100
AcDbCircle
 62
7
  6
CONTINUOUS
 10
573.1768739789
 20
173.7374240448
 40
3.3815554495
100
AcDbArc
 50
4.1120834444
 51
6.9195943906
  0
ARC
  5
476
100
AcDbEntity
  8
0
100
AcDbCircle
 62
7
  6
CONTINUOUS
 10
570.9400266634
 20
173.7374240448
 40
3.3815554495
100
AcDbArc
 50
173.0804056094
 51
175.8879165556
  0
ARC
  5
477
100
AcDbEntity
  8
KONSTRUKTIONSELEMENTE
100
AcDbCircle
 62
7
  6
CONTINUOUS
 10
572.90366475
 20
211.0805797146
 40
3.2317500645
100
AcDbArc
 50
2.4964579671
 51
3.7375375563
  0
ARC
  5
478
100
AcDbEntity
  8
KONSTRUKTIONSELEMENTE
100
AcDbCircle
 62
7
  6
CONTINUOUS
 10
572.9036647569
 20
211.0825233363
 40
3.2317500575
100
AcDbArc
 50
356.2624624427
 51
357.503542626
  0
ARC
  5
479
100
AcDbEntity
  8
BEZUGSACHSEN
100
AcDbCircle
 62
7
  6
CONTINUOUS
 10
573.2395098064
 20
211.1883201436
 40
3.1609939058
100
AcDbArc
 50
354.2542249652
 51
355.5262649407
  0
ARC
  5
47A
100
AcDbEntity
  8
BEZUGSACHSEN
100
AcDbCircle
 62
7
  6
CONTINUOUS
 10
573.3043887351
 20
211.1840811864
 40
3.0959773233
100
AcDbArc
 50
0.6896787305
 51
1.9836230245
  0
ARC
  5
47B
100
AcDbEntity
  8
RUNDUNGEN
100
AcDbCircle
 62
7
  6
CONTINUOUS
 10
580.6285524114
 20
152.7483772746
 40
2.6967589151
100
AcDbArc
 50
323.9477037235
 51
326.6414453396
  0
ARC
  5
47C
100
AcDbEntity
  8
RUNDUNGEN
100
AcDbCircle
 62
7
  6
CONTINUOUS
 10
580.6458849733
 20
152.7370183978
 40
2.6760359835
100
AcDbArc
 50
326.6405178838
 51
329.8387757757
  0
ARC
  5
47D
100
AcDbEntity
  8
BEZUGSACHSEN
100
AcDbCircle
 62
7
  6
CONTINUOUS
 10
574.5002344497
 20
207.7471512308
 40
2.5468516917
100
AcDbArc
 50
357.1582422843
 51
357.9816292775
  0
ARC
  5
47E
100
AcDbEntity
  8
BEZUGSACHSEN
100
AcDbCircle
 62
7
  6
CONTINUOUS
 10
569.4398565099
 20
207.2440955612
 40
2.4646826571
100
AcDbArc
 50
181.8517444802
 51
182.9359697314
  0
ARC
  5
47F
100
AcDbEntity
  8
BEZUGSACHSEN
100
AcDbCircle
 62
7
  6
CONTINUOUS
 10
574.6770441324
 20
207.2440955612
 40
2.4646826571
100
AcDbArc
 50
357.0640302686
 51
358.1482555198
  0
ARC
  5
480
100
AcDbEntity
  8
BEZUGSACHSEN
100
AcDbCircle
 62
7
  6
CONTINUOUS
 10
574.9320192404
 20
206.5959446002
 40
2.3475030232
100
AcDbArc
 50
25.8876845161
 51
26.9023950846
  0
ARC
  5
481
100
AcDbEntity
  8
BEZUGSACHSEN
100
AcDbCircle
 62
7
  6
CONTINUOUS
 10
574.6269681814
 20
210.9312178015
 40
1.8974892447
100
AcDbArc
 50
337.221549086
 51
338.5413695553
  0
ARC
  5
482
100
AcDbEntity
  8
BEZUGSACHSEN
100
AcDbCircle
 62
7
  6
CONTINUOUS
 10
575.66320859
 20
208.0991324714
 40
1.8969607267
100
AcDbArc
 50
64.7716682598
 51
65.3111307404
  0
ARC
  5
483
100
AcDbEntity
  8
KONSTRUKTIONSELEMENTE
100
AcDbCircle
 62
7
  6
CONTINUOUS
 10
574.4273631208
 20
210.8171333679
 40
1.8167736902
100
AcDbArc
 50
340.0271456951
 51
341.3801696097
  0
ARC
  5
484
100
AcDbEntity
  8
BEZUGSACHSEN
100
AcDbCircle
 62
7
  6
CONTINUOUS
 10
576.3546926183
 20
206.5434681907
 40
0.9717308265
100
AcDbArc
 50
36.2348461759
 51
38.1287683092
  0
ARC
  5
485
100
AcDbEntity
  8
0
100
AcDbCircle
 62
7
  6
CONTINUOUS
 10
572.0584503212
 20
522.8540855921
 40
11.0
100
AcDbArc
 50
0.0
 51
180.0
  0
SPLINE
  5
486
100
AcDbEntity
  8
KONSTRUKTIONSELEMENTE
100
AcDbSpline
 62
7
  6
CONTINUOUS
 70
0
 71
3
 72
10
 73
6
 74
0
 42
0.0000001
 43
0.0000001
 44
0.0000000001
 40
0.0
 40
0.0
 40
0.0
 40
0.0
 40
0.3116645009
 40
0.6060899939
 40
1.0
 40
1.0
 40
1.0
 40
1.0
 10
119.3630798303
 20
143.7725032573
 30
0.0
 10
119.4616572536
 20
143.9432443628
 30
0.0
 10
119.484915857
 20
144.3585865587
 30
0.0
 10
119.3058022967
 20
144.9629913113
 30
0.0
 10
119.0918021642
 20
145.3491348335
 30
0.0
 10
118.9509492491
 20
145.5546883747
 30
0.0
  0
SPLINE
  5
487
100
AcDbEntity
  8
KONSTRUKTIONSELEMENTE
100
AcDbSpline
 62
7
  6
CONTINUOUS
 70
0
 71
3
 72
10
 73
6
 74
0
 42
0.0000001
 43
0.0000001
 44
0.0000000001
 40
0.0
 40
0.0
 40
0.0
 40
0.0
 40
0.3939255147
 40
0.6883533687
 40
1.0
 40
1.0
 40
1.0
 40
1.0
 10
115.0506509879
 20
147.8066558691
 30
0.0
 10
114.80216668
 20
147.825884235
 30
0.0
 10
114.3606857377
 20
147.8181418557
 30
0.0
 10
113.747590891
 20
147.6711134666
 30
0.0
 10
113.3994876558
 20
147.4432586153
 30
0.0
 10
113.3009020038
 20
147.2725032573
 30
0.0
  0
SPLINE
  5
488
100
AcDbEntity
  8
KONSTRUKTIONSELEMENTE
100
AcDbSpline
 62
7
  6
CONTINUOUS
 70
0
 71
3
 72
13
 73
9
 74
0
 42
0.0000001
 43
0.0000001
 44
0.0000000001
 40
0.0
 40
0.0
 40
0.0
 40
0.0
 40
0.1194785188
 40
0.2392741704
 40
0.3602835725
 40
0.4830059608
 40
0.7355440041
 40
1.0
 40
1.0
 40
1.0
 40
1.0
 10
123.2601941474
 20
141.5225032573
 30
0.0
 10
123.439513953
 20
141.8330942714
 30
0.0
 10
123.733866646
 20
142.4951190573
 30
0.0
 10
123.9609969858
 20
143.5596728011
 30
0.0
 10
123.9759806624
 20
144.6575942208
 30
0.0
 10
123.7217818538
 20
146.1327001006
 30
0.0
 10
122.9176608704
 20
147.9125589873
 30
0.0
 10
121.8996600004
 20
149.1094366433
 30
0.0
 10
121.31699251
 20
149.6485546509
 30
0.0
  0
SPLINE
  5
489
100
AcDbEntity
  8
KONSTRUKTIONSELEMENTE
100
AcDbSpline
 62
7
  6
CONTINUOUS
 70
0
 71
3
 72
13
 73
9
 74
0
 42
0.0000001
 43
0.0000001
 44
0.0000000001
 40
0.0
 40
0.0
 40
0.0
 40
0.0
 40
0.2644681654
 40
0.5169944072
 40
0.6397129492
 40
0.760706397
 40
0.8805228501
 40
1.0
 40
1.0
 40
1.0
 40
1.0
 10
117.4146524755
 20
151.9020696414
 30
0.0
 10
116.656264666
 20
152.1372980765
 30
0.0
 10
115.1104616176
 20
152.4208703534
 30
0.0
 10
113.1665326213
 20
152.2275873797
 30
0.0
 10
111.761683294
 20
151.7102608865
 30
0.0
 10
110.8180084641
 20
151.1484016507
 30
0.0
 10
110.0094812165
 20
150.4192200517
 30
0.0
 10
109.583144822
 20
149.8331589281
 30
0.0
 10
109.4037876868
 20
149.5225032573
 30
0.0
  0
SPLINE
  5
48A
100
AcDbEntity
  8
KONSTRUKTIONSELEMENTE
100
AcDbSpline
 62
7
  6
CONTINUOUS
 70
0
 71
3
 72
13
 73
9
 74
0
 42
0.0000001
 43
0.0000001
 44
0.0000000001
 40
0.0
 40
0.0
 40
0.0
 40
0.0
 40
0.1197290731
 40
0.2397365246
 40
0.3609040964
 40
0.4836831257
 40
0.7359942557
 40
1.0
 40
1.0
 40
1.0
 40
1.0
 10
104.1004868279
 20
140.3369167219
 30
0.0
 10
103.9258799769
 20
140.0344887845
 30
0.0
 10
103.637653027
 20
139.3910578197
 30
0.0
 10
103.4081870885
 20
138.357040486
 30
0.0
 10
103.3800370665
 20
137.2895161344
 30
0.0
 10
103.6032922341
 20
135.8526043706
 30
0.0
 10
104.3475208714
 20
134.1098636517
 30
0.0
 10
105.3065041683
 20
132.9250977454
 30
0.0
 10
105.8577693157
 20
132.3874679458
 30
0.0
  0
SPLINE
  5
48B
100
AcDbEntity
  8
KONSTRUKTIONSELEMENTE
100
AcDbSpline
 62
7
  6
CONTINUOUS
 70
0
 71
3
 72
13
 73
9
 74
0
 42
0.0000001
 43
0.0000001
 44
0.0000000001
 40
0.0
 40
0.0
 40
0.0
 40
0.0
 40
0.2640112835
 40
0.5163080567
 40
0.6390830379
 40
0.7602378991
 40
0.8802701562
 40
1.0
 40
1.0
 40
1.0
 40
1.0
 10
110.1947334782
 20
129.883805949
 30
0.0
 10
110.9359268198
 20
129.6753108302
 30
0.0
 10
112.4412840749
 20
129.437313197
 30
0.0
 10
114.3223962453
 20
129.6643149165
 30
0.0
 10
115.6781643377
 20
130.1893935809
 30
0.0
 10
116.5885484545
 20
130.7474432941
 30
0.0
 10
117.3691569867
 20
131.4632234945
 30
0.0
 10
117.7823038897
 20
132.0345190128
 30
0.0
 10
117.9568932885
 20
132.3369167219
 30
0.0
  0
SPLINE
  5
48C
100
AcDbEntity
  8
KONSTRUKTIONSELEMENTE
100
AcDbSpline
 62
7
  6
CONTINUOUS
 70
0
 71
3
 72
10
 73
6
 74
0
 42
0.0000001
 43
0.0000001
 44
0.0000000001
 40
0.0
 40
0.0
 40
0.0
 40
0.0
 40
0.3192646009
 40
0.6086079864
 40
1.0
 40
1.0
 40
1.0
 40
1.0
 10
107.9976011449
 20
138.0869167219
 30
0.0
 10
107.9117312573
 20
137.9381857137
 30
0.0
 10
107.8742949288
 20
137.5893125174
 30
0.0
 10
107.9944160606
 20
137.0657563916
 30
0.0
 10
108.1505510718
 20
136.7296144983
 30
0.0
 10
108.2561748474
 20
136.547487642
 30
0.0
  0
SPLINE
  5
48D
100
AcDbEntity
  8
KONSTRUKTIONSELEMENTE
100
AcDbSpline
 62
7
  6
CONTINUOUS
 70
0
 71
3
 72
10
 73
6
 74
0
 42
0.0000001
 43
0.0000001
 44
0.0000000001
 40
0.0
 40
0.0
 40
0.0
 40
0.0
 40
0.3914026107
 40
0.6807340322
 40
1.0
 40
1.0
 40
1.0
 40
1.0
 10
112.5974129379
 20
134.0411332503
 30
0.0
 10
112.8079438723
 20
134.0407290384
 30
0.0
 10
113.1770865884
 20
134.0736238165
 30
0.0
 10
113.6905457922
 20
134.2313198357
 30
0.0
 10
113.9739140786
 20
134.4381943649
 30
0.0
 10
114.0597789714
 20
134.5869167219
 30
0.0
  0
SPLINE
  5
48E
100
AcDbEntity
  8
KONSTRUKTIONSELEMENTE
100
AcDbSpline
 62
7
  6
CONTINUOUS
 70
0
 71
3
 72
10
 73
6
 74
0
 42
0.0000001
 43
0.0000001
 44
0.0000000001
 40
0.0
 40
0.0
 40
0.0
 40
0.0
 40
0.3192646009
 40
0.6086079864
 40
1.0
 40
1.0
 40
1.0
 40
1.0
 10
134.9194290164
 20
170.7168904279
 30
0.0
 10
135.005298904
 20
170.8656214361
 30
0.0
 10
135.0427352326
 20
171.2144946323
 30
0.0
 10
134.9226141007
 20
171.7380507582
 30
0.0
 10
134.7664790896
 20
172.0741926515
 30
0.0
 10
134.660855314
 20
172.2563195078
 30
0.0
  0
SPLINE
  5
48F
100
AcDbEntity
  8
KONSTRUKTIONSELEMENTE
100
AcDbSpline
 62
7
  6
CONTINUOUS
 70
0
 71
3
 72
10
 73
6
 74
0
 42
0.0000001
 43
0.0000001
 44
0.0000000001
 40
0.0
 40
0.0
 40
0.0
 40
0.0
 40
0.3914026107
 40
0.6807340322
 40
1.0
 40
1.0
 40
1.0
 40
1.0
 10
130.3196172235
 20
174.7626738995
 30
0.0
 10
130.109086289
 20
174.7630781113
 30
0.0
 10
129.739943573
 20
174.7301833333
 30
0.0
 10
129.2264843692
 20
174.572487314
 30
0.0
 10
128.9431160828
 20
174.3656127849
 30
0.0
 10
128.8572511899
 20
174.2168904279
 30
0.0
  0
SPLINE
  5
490
100
AcDbEntity
  8
KONSTRUKTIONSELEMENTE
100
AcDbSpline
 62
7
  6
CONTINUOUS
 70
0
 71
3
 72
9
 73
5
 74
0
 42
0.0000001
 43
0.0000001
 44
0.0000000001
 40
0.0
 40
0.0
 40
0.0
 40
0.0
 40
0.2461884529
 40
1.0
 40
1.0
 40
1.0
 40
1.0
 10
120.0357119439
 20
161.0406414756
 30
0.0
 10
120.1415057637
 20
160.869272795
 30
0.0
 10
120.5966491388
 20
160.1890491176
 30
0.0
 10
121.1474104473
 20
159.5740496353
 30
0.0
 10
121.6000376514
 20
159.1552524988
 30
0.0
  0
SPLINE
  5
491
100
AcDbEntity
  8
KONSTRUKTIONSELEMENTE
100
AcDbSpline
 62
7
  6
CONTINUOUS
 70
0
 71
3
 72
9
 73
5
 74
0
 42
0.0000001
 43
0.0000001
 44
0.0000000001
 40
0.0
 40
0.0
 40
0.0
 40
0.0
 40
0.2541577505
 40
1.0
 40
1.0
 40
1.0
 40
1.0
 10
125.5023776859
 20
156.9017375083
 30
0.0
 10
125.7014234585
 20
156.8399996679
 30
0.0
 10
126.4919534785
 20
156.6219789042
 30
0.0
 10
127.3118667812
 20
156.5067288393
 30
0.0
 10
127.9231738083
 20
156.4889762646
 30
0.0
  0
SPLINE
  5
492
100
AcDbEntity
  8
KONSTRUKTIONSELEMENTE
100
AcDbSpline
 62
7
  6
CONTINUOUS
 70
0
 71
3
 72
9
 73
5
 74
0
 42
0.0000001
 43
0.0000001
 44
0.0000000001
 40
0.0
 40
0.0
 40
0.0
 40
0.0
 40
0.2427240457
 40
1.0
 40
1.0
 40
1.0
 40
1.0
 10
131.8447028609
 20
190.0588266546
 30
0.0
 10
132.1737478784
 20
189.647022601
 30
0.0
 10
133.5928896204
 20
188.0017309989
 30
0.0
 10
135.2470661791
 20
186.5627953723
 30
0.0
 10
136.5850634557
 20
185.6065879042
 30
0.0
  0
SPLINE
  5
493
100
AcDbEntity
  8
KONSTRUKTIONSELEMENTE
100
AcDbSpline
 62
7
  6
CONTINUOUS
 70
0
 71
3
 72
9
 73
5
 74
0
 42
0.0000001
 43
0.0000001
 44
0.0000000001
 40
0.0
 40
0.0
 40
0.0
 40
0.0
 40
0.2566178912
 40
1.0
 40
1.0
 40
1.0
 40
1.0
 10
140.9189757534
 20
183.1043565449
 30
0.0
 10
141.4269728242
 20
182.8733959914
 30
0.0
 10
143.4351285842
 20
182.0386067691
 30
0.0
 10
145.5554941938
 20
181.4655205651
 30
0.0
 10
147.1538567086
 20
181.2237625566
 30
0.0
  0
SPLINE
  5
494
100
AcDbEntity
  8
BEZUGSACHSEN
100
AcDbSpline
 62
7
  6
CONTINUOUS
 70
0
 71
3
 72
11
 73
7
 74
0
 42
0.0000001
 43
0.0000001
 44
0.0000000001
 40
0.0
 40
0.0
 40
0.0
 40
0.0
 40
0.2247459803
 40
0.4666479017
 40
0.7259253114
 40
1.0
 40
1.0
 40
1.0
 40
1.0
 10
107.5096989058
 20
119.9961335218
 30
0.0
 10
107.253052075
 20
119.8414578762
 30
0.0
 10
106.6747380452
 20
119.5923396127
 30
0.0
 10
105.7156674728
 20
119.4192599618
 30
0.0
 10
104.6764870429
 20
119.4366003864
 30
0.0
 10
103.974389719
 20
119.5709469562
 30
0.0
 10
103.6218200978
 20
119.6670136997
 30
0.0
  0
SPLINE
  5
495
100
AcDbEntity
  8
BEZUGSACHSEN
100
AcDbSpline
 62
7
  6
CONTINUOUS
 70
0
 71
3
 72
11
 73
7
 74
0
 42
0.0000001
 43
0.0000001
 44
0.0000000001
 40
0.0
 40
0.0
 40
0.0
 40
0.0
 40
0.2740746886
 40
0.5333520983
 40
0.7752540197
 40
1.0
 40
1.0
 40
1.0
 40
1.0
 10
100.2955655425
 20
121.5874276626
 30
0.0
 10
100.0360844917
 20
121.8447285394
 30
0.0
 10
99.5686882873
 20
122.3855893729
 30
0.0
 10
99.0340808242
 20
123.276875812
 30
0.0
 10
98.7044369125
 20
124.1939951171
 30
0.0
 10
98.6310226424
 20
124.81938889
 30
0.0
 10
98.6366522654
 20
125.1189893882
 30
0.0
  0
SPLINE
  5
496
100
AcDbEntity
  8
KONSTRUKTIONSELEMENTE
100
AcDbSpline
 62
7
  6
CONTINUOUS
 70
0
 71
3
 72
13
 73
9
 74
0
 42
0.0000001
 43
0.0000001
 44
0.0000000001
 40
0.0
 40
0.0
 40
0.0
 40
0.0
 40
0.1036865026
 40
0.2123166057
 40
0.3277694079
 40
0.450761267
 40
0.7166663069
 40
1.0
 40
1.0
 40
1.0
 40
1.0
 10
78.7552730341
 20
87.7660567915
 30
0.0
 10
78.8031597974
 20
87.8969518535
 30
0.0
 10
78.8667578504
 20
88.1787005646
 30
0.0
 10
78.8600300889
 20
88.6227140193
 30
0.0
 10
78.7552821702
 20
89.0805340855
 30
0.0
 10
78.4839694812
 20
89.705309561
 30
0.0
 10
77.9234399883
 20
90.4321430007
 30
0.0
 10
77.3274235432
 20
90.8828738325
 30
0.0
 10
76.9975817441
 20
91.073308084
 30
0.0
  0
SPLINE
  5
497
100
AcDbEntity
  8
KONSTRUKTIONSELEMENTE
100
AcDbSpline
 62
7
  6
CONTINUOUS
 70
0
 71
3
 72
9
 73
5
 74
0
 42
0.0000001
 43
0.0000001
 44
0.0000000001
 40
0.0
 40
0.0
 40
0.0
 40
0.0
 40
0.4892987036
 40
1.0
 40
1.0
 40
1.0
 40
1.0
 10
75.4478274234
 20
123.0696703003
 30
0.0
 10
75.4788385048
 20
123.1233489427
 30
0.0
 10
75.5250965963
 20
123.2437531165
 30
0.0
 10
75.5336977846
 20
123.3720183988
 30
0.0
 10
75.5298568041
 20
123.4366085463
 30
0.0
  0
SPLINE
  5
498
100
AcDbEntity
  8
KONSTRUKTIONSELEMENTE
100
AcDbSpline
 62
7
  6
CONTINUOUS
 70
0
 71
3
 72
11
 73
7
 74
0
 42
0.0000001
 43
0.0000001
 44
0.0000000001
 40
0.0
 40
0.0
 40
0.0
 40
0.0
 40
0.2200436456
 40
0.4557793627
 40
0.7157728079
 40
1.0
 40
1.0
 40
1.0
 40
1.0
 10
70.9415907645
 20
126.6389082934
 30
0.0
 10
70.981972639
 20
126.7088073135
 30
0.0
 10
71.097035586
 20
126.8371988878
 30
0.0
 10
71.3368249686
 20
126.9559603482
 30
0.0
 10
71.6232258852
 20
126.9998154188
 30
0.0
 10
71.8239555667
 20
126.9795495688
 30
0.0
 10
71.9260418561
 20
126.9583135498
 30
0.0
  0
SPLINE
  5
499
100
AcDbEntity
  8
KONSTRUKTIONSELEMENTE
100
AcDbSpline
 62
7
  6
CONTINUOUS
 70
0
 71
3
 72
11
 73
7
 74
0
 42
0.0000001
 43
0.0000001
 44
0.0000000001
 40
0.0
 40
0.0
 40
0.0
 40
0.0
 40
0.2200599668
 40
0.4557760239
 40
0.7157731965
 40
1.0
 40
1.0
 40
1.0
 40
1.0
 10
70.7290893094
 20
136.9045290734
 30
0.0
 10
70.8636896932
 20
137.1376055442
 30
0.0
 10
71.2471096213
 20
137.5658107643
 30
0.0
 10
72.0465257872
 20
137.9618619037
 30
0.0
 10
73.0013321046
 20
138.1080910763
 30
0.0
 10
73.6705553995
 20
138.0405616439
 30
0.0
 10
74.0109009289
 20
137.9697628699
 30
0.0
  0
SPLINE
  5
49A
100
AcDbEntity
  8
KONSTRUKTIONSELEMENTE
100
AcDbSpline
 62
7
  6
CONTINUOUS
 70
0
 71
3
 72
9
 73
5
 74
0
 42
0.0000001
 43
0.0000001
 44
0.0000000001
 40
0.0
 40
0.0
 40
0.0
 40
0.0
 40
0.4891681133
 40
1.0
 40
1.0
 40
1.0
 40
1.0
 10
69.3148285658
 20
134.4549572902
 30
0.0
 10
69.2115819414
 20
134.276153003
 30
0.0
 10
69.0575004961
 20
133.8750185716
 30
0.0
 10
69.0289530159
 20
133.4476976192
 30
0.0
 10
69.0417524592
 20
133.2324614523
 30
0.0
  0
SPLINE
  5
49B
100
AcDbEntity
  8
KONSTRUKTIONSELEMENTE
100
AcDbSpline
 62
7
  6
CONTINUOUS
 70
0
 71
3
 72
9
 73
5
 74
0
 42
0.0000001
 43
0.0000001
 44
0.0000000001
 40
0.0
 40
0.0
 40
0.0
 40
0.0
 40
0.4891681133
 40
1.0
 40
1.0
 40
1.0
 40
1.0
 10
101.8467479033
 20
84.2744400971
 30
0.0
 10
101.9499736462
 20
84.4532564403
 30
0.0
 10
102.2203255314
 20
84.7872621018
 30
0.0
 10
102.5761225917
 20
85.0256454211
 30
0.0
 10
102.7689223017
 20
85.1221788615
 30
0.0
  0
SPLINE
  5
49C
100
AcDbEntity
  8
KONSTRUKTIONSELEMENTE
100
AcDbSpline
 62
7
  6
CONTINUOUS
 70
0
 71
3
 72
9
 73
5
 74
0
 42
0.0000001
 43
0.0000001
 44
0.0000000001
 40
0.0
 40
0.0
 40
0.0
 40
0.0
 40
0.4753722117
 40
1.0
 40
1.0
 40
1.0
 40
1.0
 10
103.0152325907
 20
85.2479022075
 30
0.0
 10
103.0678473784
 20
84.9111301171
 30
0.0
 10
103.3094755141
 20
84.2213621104
 30
0.0
 10
103.7288067163
 20
83.629742342
 30
0.0
 10
103.9793002883
 20
83.3490988283
 30
0.0
  0
SPLINE
  5
49D
100
AcDbEntity
  8
KONSTRUKTIONSELEMENTE
100
AcDbSpline
 62
7
  6
CONTINUOUS
 70
0
 71
3
 72
11
 73
7
 74
0
 42
0.0000001
 43
0.0000001
 44
0.0000000001
 40
0.0
 40
0.0
 40
0.0
 40
0.0
 40
0.2094829334
 40
0.4446557434
 40
0.7120095299
 40
1.0
 40
1.0
 40
1.0
 40
1.0
 10
73.2920535656
 20
81.45514501
 30
0.0
 10
73.2358291307
 20
81.3577614321
 30
0.0
 10
73.1783174592
 20
81.1120884081
 30
0.0
 10
73.2821930533
 20
80.7327706607
 30
0.0
 10
73.5335578019
 20
80.3825878803
 30
0.0
 10
73.7731401377
 20
80.1975936511
 30
0.0
 10
73.9070199815
 20
80.1202980872
 30
0.0
  0
SPLINE
  5
49E
100
AcDbEntity
  8
BEZUGSACHSEN
100
AcDbSpline
 62
7
  6
CONTINUOUS
 70
0
 71
3
 72
9
 73
5
 74
0
 42
0.0000001
 43
0.0000001
 44
0.0000000001
 40
0.0
 40
0.0
 40
0.0
 40
0.0
 40
0.2459387646
 40
1.0
 40
1.0
 40
1.0
 40
1.0
 10
112.6423466762
 20
125.6080675946
 30
0.0
 10
112.4041652676
 20
125.8749170266
 30
0.0
 10
111.4061400515
 20
126.9332938569
 30
0.0
 10
110.2961043039
 20
127.8851392709
 30
0.0
 10
109.4132400347
 20
128.5357269053
 30
0.0
  0
SPLINE
  5
49F
100
AcDbEntity
  8
BEZUGSACHSEN
100
AcDbSpline
 62
7
  6
CONTINUOUS
 70
0
 71
3
 72
9
 73
5
 74
0
 42
0.0000001
 43
0.0000001
 44
0.0000000001
 40
0.0
 40
0.0
 40
0.0
 40
0.0
 40
0.2536983179
 40
1.0
 40
1.0
 40
1.0
 40
1.0
 10
105.080386509
 20
131.0373010547
 30
0.0
 10
104.7423158898
 20
131.1850938705
 30
0.0
 10
103.3955478927
 20
131.7343759027
 30
0.0
 10
101.9930356791
 20
132.1489112228
 30
0.0
 10
100.9304058516
 20
132.3699597825
 30
0.0
  0
SPLINE
  5
4A0
100
AcDbEntity
  8
KONSTRUKTIONSELEMENTE
100
AcDbSpline
 62
7
  6
CONTINUOUS
 70
0
 71
3
 72
10
 73
6
 74
0
 42
0.0000001
 43
0.0000001
 44
0.0000000001
 40
0.0
 40
0.0
 40
0.0
 40
0.0
 40
0.2210513433
 40
0.4578290806
 40
1.0
 40
1.0
 40
1.0
 40
1.0
 10
107.6097393404
 20
79.0246536847
 30
0.0
 10
107.623199506
 20
79.0479642159
 30
0.0
 10
107.6411134996
 20
79.1026135457
 30
0.0
 10
107.6332971854
 20
79.2262438066
 30
0.0
 10
107.5818808317
 20
79.3129039922
 30
0.0
 10
107.5379179963
 20
79.3621582885
 30
0.0
  0
SPLINE
  5
4A1
100
AcDbEntity
  8
BEZUGSACHSEN
100
AcDbSpline
 62
7
  6
CONTINUOUS
 70
0
 71
3
 72
11
 73
7
 74
0
 42
0.0000001
 43
0.0000001
 44
0.0000000001
 40
0.0
 40
0.0
 40
0.0
 40
0.0
 40
0.2211778223
 40
0.4572018266
 40
0.7166414314
 40
1.0
 40
1.0
 40
1.0
 40
1.0
 10
97.6034922678
 20
124.0837920473
 30
0.0
 10
97.7826106851
 20
124.3940342466
 30
0.0
 10
98.2871291556
 20
124.965319608
 30
0.0
 10
99.3367562624
 20
125.5084864974
 30
0.0
 10
100.5941434159
 20
125.7307790156
 30
0.0
 10
101.4798254644
 20
125.664931573
 30
0.0
 10
101.9316075228
 20
125.5841372547
 30
0.0
  0
SPLINE
  5
4A2
100
AcDbEntity
  8
BEZUGSACHSEN
100
AcDbSpline
 62
7
  6
CONTINUOUS
 70
0
 71
3
 72
11
 73
7
 74
0
 42
0.0000001
 43
0.0000001
 44
0.0000000001
 40
0.0
 40
0.0
 40
0.0
 40
0.0
 40
0.2833585686
 40
0.5427981734
 40
0.7788221777
 40
1.0
 40
1.0
 40
1.0
 40
1.0
 10
106.265051146
 20
123.0822224123
 30
0.0
 10
106.5609121074
 20
122.731364832
 30
0.0
 10
107.0607786896
 20
121.9972653996
 30
0.0
 10
107.4969612986
 20
120.7971899231
 30
0.0
 10
107.5513785273
 20
119.6166027394
 30
0.0
 10
107.3088901267
 20
118.8940342466
 30
0.0
 10
107.1297717095
 20
118.5837920473
 30
0.0
  0
SPLINE
  5
4A3
100
AcDbEntity
  8
KONSTRUKTIONSELEMENTE
100
AcDbSpline
 62
7
  6
CONTINUOUS
 70
0
 71
3
 72
9
 73
5
 74
0
 42
0.0000001
 43
0.0000001
 44
0.0000000001
 40
0.0
 40
0.0
 40
0.0
 40
0.0
 40
0.5108269807
 40
1.0
 40
1.0
 40
1.0
 40
1.0
 10
135.6882962079
 20
91.3033978209
 30
0.0
 10
135.8811008954
 20
91.3999337536
 30
0.0
 10
136.2369101187
 20
91.6383308499
 30
0.0
 10
136.5072590629
 20
91.9723527009
 30
0.0
 10
136.6105031248
 20
92.1511693042
 30
0.0
  0
SPLINE
  5
4A4
100
AcDbEntity
  8
KONSTRUKTIONSELEMENTE
100
AcDbSpline
 62
7
  6
CONTINUOUS
 70
0
 71
3
 72
9
 73
5
 74
0
 42
0.0000001
 43
0.0000001
 44
0.0000000001
 40
0.0
 40
0.0
 40
0.0
 40
0.0
 40
0.5322168521
 40
1.0
 40
1.0
 40
1.0
 40
1.0
 10
134.404469716
 20
91.0726461238
 30
0.0
 10
134.4723913454
 20
90.996549302
 30
0.0
 10
134.6419122957
 20
90.8891657046
 30
0.0
 10
134.8530627027
 20
90.8852023588
 30
0.0
 10
134.9332272319
 20
90.9253401671
 30
0.0
  0
SPLINE
  5
4A5
100
AcDbEntity
  8
KONSTRUKTIONSELEMENTE
100
AcDbSpline
 62
7
  6
CONTINUOUS
 70
0
 71
3
 72
9
 73
5
 74
0
 42
0.0000001
 43
0.0000001
 44
0.0000000001
 40
0.0
 40
0.0
 40
0.0
 40
0.0
 40
0.2605100871
 40
1.0
 40
1.0
 40
1.0
 40
1.0
 10
106.1033208763
 20
76.4904115681
 30
0.0
 10
106.1131227905
 20
76.4953193167
 30
0.0
 10
106.1495153555
 20
76.5164755341
 30
0.0
 10
106.1799658288
 20
76.5482169718
 30
0.0
 10
106.1955257781
 20
76.5751639419
 30
0.0
  0
SPLINE
  5
4A6
100
AcDbEntity
  8
KONSTRUKTIONSELEMENTE
100
AcDbSpline
 62
7
  6
CONTINUOUS
 70
0
 71
3
 72
11
 73
7
 74
0
 42
0.0000001
 43
0.0000001
 44
0.0000000001
 40
0.0
 40
0.0
 40
0.0
 40
0.0
 40
0.2729767978
 40
0.5353848362
 40
0.7789285996
 40
1.0
 40
1.0
 40
1.0
 40
1.0
 10
101.83594298
 20
76.7328735383
 30
0.0
 10
102.1607039879
 20
76.545372683
 30
0.0
 10
102.8359836531
 20
76.2395780939
 30
0.0
 10
103.8883057838
 20
76.004721695
 30
0.0
 10
104.8966277945
 20
76.0144276249
 30
0.0
 10
105.5204670494
 20
76.1985808118
 30
0.0
 10
105.7920263338
 20
76.3345486097
 30
0.0
  0
SPLINE
  5
4A7
100
AcDbEntity
  8
KONSTRUKTIONSELEMENTE
100
AcDbSpline
 62
7
  6
CONTINUOUS
 70
0
 71
3
 72
13
 73
9
 74
0
 42
0.0000001
 43
0.0000001
 44
0.0000000001
 40
0.0
 40
0.0
 40
0.0
 40
0.0
 40
0.2870489256
 40
0.5535682914
 40
0.6755020148
 40
0.789331082
 40
0.8965440086
 40
1.0
 40
1.0
 40
1.0
 40
1.0
 10
88.8448092679
 20
84.233308084
 30
0.0
 10
88.4878218466
 20
84.4394148678
 30
0.0
 10
87.7421992413
 20
84.7459606268
 30
0.0
 10
86.7579949574
 20
84.8436844471
 30
0.0
 10
86.0440600265
 20
84.7134318895
 30
0.0
 10
85.584939254
 20
84.523486306
 30
0.0
 10
85.2058152122
 20
84.2441554735
 30
0.0
 10
85.0164405659
 20
84.0023789821
 30
0.0
 10
84.9421571259
 20
83.8737162898
 30
0.0
  0
SPLINE
  5
4A8
100
AcDbEntity
  8
KONSTRUKTIONSELEMENTE
100
AcDbSpline
 62
7
  6
CONTINUOUS
 70
0
 71
3
 72
11
 73
7
 74
0
 42
0.0000001
 43
0.0000001
 44
0.0000000001
 40
0.0
 40
0.0
 40
0.0
 40
0.0
 40
0.220058334
 40
0.4557781708
 40
0.71578719
 40
1.0
 40
1.0
 40
1.0
 40
1.0
 10
138.0247166872
 20
94.600659047
 30
0.0
 10
138.1592971039
 20
94.8337495758
 30
0.0
 10
138.3384080788
 20
95.3799310479
 30
0.0
 10
138.2817024542
 20
96.2702956434
 30
0.0
 10
137.9309236525
 20
97.170314792
 30
0.0
 10
137.5378238513
 20
97.7161175869
 30
0.0
 10
137.306345346
 20
97.9754573397
 30
0.0
  0
SPLINE
  5
4A9
100
AcDbEntity
  8
KONSTRUKTIONSELEMENTE
100
AcDbSpline
 62
7
  6
CONTINUOUS
 70
0
 71
3
 72
11
 73
7
 74
0
 42
0.0000001
 43
0.0000001
 44
0.0000000001
 40
0.0
 40
0.0
 40
0.0
 40
0.0
 40
0.2879904701
 40
0.5553442566
 40
0.7905170666
 40
1.0
 40
1.0
 40
1.0
 40
1.0
 10
80.9045052441
 20
76.0802980872
 30
0.0
 10
81.0383850879
 20
76.0030025233
 30
0.0
 10
81.3183859578
 20
75.8880152489
 30
0.0
 10
81.7473355159
 20
75.8454183812
 30
0.0
 10
82.1277721183
 20
75.9451183515
 30
0.0
 10
82.3117753624
 20
76.1177614321
 30
0.0
 10
82.3679997973
 20
76.21514501
 30
0.0
  0
SPLINE
  5
4AA
100
AcDbEntity
  8
KONSTRUKTIONSELEMENTE
100
AcDbSpline
 62
7
  6
CONTINUOUS
 70
0
 71
3
 72
11
 73
7
 74
0
 42
0.0000001
 43
0.0000001
 44
0.0000000001
 40
0.0
 40
0.0
 40
0.0
 40
0.0
 40
0.2820767698
 40
0.5407553301
 40
0.7772666753
 40
1.0
 40
1.0
 40
1.0
 40
1.0
 10
88.8417710295
 20
84.2147299284
 30
0.0
 10
88.5920988997
 20
84.2494020329
 30
0.0
 10
88.1044753098
 20
84.2676415261
 30
0.0
 10
87.4167505238
 20
84.1232290682
 30
0.0
 10
86.8446871181
 20
83.8094839075
 30
0.0
 10
86.5687380749
 20
83.4910371361
 30
0.0
 10
86.4692191282
 20
83.3186652641
 30
0.0
  0
SPLINE
  5
4AB
100
AcDbEntity
  8
KONSTRUKTIONSELEMENTE
100
AcDbSpline
 62
7
  6
CONTINUOUS
 70
0
 71
3
 72
11
 73
7
 74
0
 42
0.0000001
 43
0.0000001
 44
0.0000000001
 40
0.0
 40
0.0
 40
0.0
 40
0.0
 40
0.2820767698
 40
0.5407553301
 40
0.7772666753
 40
1.0
 40
1.0
 40
1.0
 40
1.0
 10
76.9830117086
 20
91.0613878146
 30
0.0
 10
77.1378746968
 20
90.8625014598
 30
0.0
 10
77.3974823563
 20
90.4493267901
 30
0.0
 10
77.616279892
 20
89.7815334256
 30
0.0
 10
77.6306003154
 20
89.1292394033
 30
0.0
 10
77.4927918432
 20
88.7310371361
 30
0.0
 10
77.3932728965
 20
88.5586652641
 30
0.0
  0
SPLINE
  5
4AC
100
AcDbEntity
  8
KONSTRUKTIONSELEMENTE
100
AcDbSpline
 62
7
  6
CONTINUOUS
 70
0
 71
3
 72
9
 73
5
 74
0
 42
0.0000001
 43
0.0000001
 44
0.0000000001
 40
0.0
 40
0.0
 40
0.0
 40
0.0
 40
0.5107012964
 40
1.0
 40
1.0
 40
1.0
 40
1.0
 10
69.728190534
 20
124.3123782532
 30
0.0
 10
69.7243495534
 20
124.3769684006
 30
0.0
 10
69.7329507417
 20
124.505233683
 30
0.0
 10
69.7792088332
 20
124.6256378567
 30
0.0
 10
69.8102199146
 20
124.6793164992
 30
0.0
  0
SPLINE
  5
4AD
100
AcDbEntity
  8
KONSTRUKTIONSELEMENTE
100
AcDbSpline
 62
7
  6
CONTINUOUS
 70
0
 71
3
 72
11
 73
7
 74
0
 42
0.0000001
 43
0.0000001
 44
0.0000000001
 40
0.0
 40
0.0
 40
0.0
 40
0.0
 40
0.2210800583
 40
0.4646152767
 40
0.7270135498
 40
1.0
 40
1.0
 40
1.0
 40
1.0
 10
71.238979926
 20
96.2837592546
 30
0.0
 10
71.2570087031
 20
95.9805863115
 30
0.0
 10
71.4094549832
 20
95.3482502696
 30
0.0
 10
71.9052019242
 20
94.4701771745
 30
0.0
 10
72.6347464203
 20
93.6762771665
 30
0.0
 10
73.2372086911
 20
93.2443604785
 30
0.0
 10
73.56198111
 20
93.056853035
 30
0.0
  0
SPLINE
  5
4AE
100
AcDbEntity
  8
KONSTRUKTIONSELEMENTE
100
AcDbSpline
 62
7
  6
CONTINUOUS
 70
0
 71
3
 72
13
 73
9
 74
0
 42
0.0000001
 43
0.0000001
 44
0.0000000001
 40
0.0
 40
0.0
 40
0.0
 40
0.0
 40
0.2198121251
 40
0.3415455497
 40
0.4695397045
 40
0.6018885822
 40
0.736224413
 40
1.0
 40
1.0
 40
1.0
 40
1.0
 10
125.5582768494
 20
96.5326462303
 30
0.0
 10
125.9404220731
 20
96.7239836197
 30
0.0
 10
126.6127370955
 20
96.8723362383
 30
0.0
 10
127.5260953705
 20
96.8340862802
 30
0.0
 10
128.2576010529
 20
96.686285501
 30
0.0
 10
128.981931942
 20
96.4249228219
 30
0.0
 10
129.8959829024
 20
95.9430080228
 30
0.0
 10
130.5043500575
 20
95.4421925187
 30
0.0
 10
130.845852008
 20
95.0595866637
 30
0.0
  0
SPLINE
  5
4AF
100
AcDbEntity
  8
KONSTRUKTIONSELEMENTE
100
AcDbSpline
 62
7
  6
CONTINUOUS
 70
0
 71
3
 72
10
 73
6
 74
0
 42
0.0000001
 43
0.0000001
 44
0.0000000001
 40
0.0
 40
0.0
 40
0.0
 40
0.0
 40
0.2210513433
 40
0.4578290806
 40
1.0
 40
1.0
 40
1.0
 40
1.0
 10
106.1955257781
 20
76.5751639419
 30
0.0
 10
106.2089859437
 20
76.5984744731
 30
0.0
 10
106.2268999372
 20
76.6531238029
 30
0.0
 10
106.219083623
 20
76.7767540638
 30
0.0
 10
106.1676672694
 20
76.8634142494
 30
0.0
 10
106.1237044339
 20
76.9126685457
 30
0.0
  0
SPLINE
  5
4B0
100
AcDbEntity
  8
BEZUGSACHSEN
100
AcDbSpline
 62
7
  6
CONTINUOUS
 70
0
 71
3
 72
9
 73
5
 74
0
 42
0.0000001
 43
0.0000001
 44
0.0000000001
 40
0.0
 40
0.0
 40
0.0
 40
0.0
 40
0.2459387646
 40
1.0
 40
1.0
 40
1.0
 40
1.0
 10
111.2281331139
 20
123.1585778518
 30
0.0
 10
110.9899517052
 20
123.4254272838
 30
0.0
 10
109.9919264891
 20
124.4838041142
 30
0.0
 10
108.8818907415
 20
125.4356495281
 30
0.0
 10
107.9990264723
 20
126.0862371625
 30
0.0
  0
SPLINE
  5
4B1
100
AcDbEntity
  8
BEZUGSACHSEN
100
AcDbSpline
 62
7
  6
CONTINUOUS
 70
0
 71
3
 72
9
 73
5
 74
0
 42
0.0000001
 43
0.0000001
 44
0.0000000001
 40
0.0
 40
0.0
 40
0.0
 40
0.0
 40
0.2536983179
 40
1.0
 40
1.0
 40
1.0
 40
1.0
 10
103.6661729467
 20
128.5878113119
 30
0.0
 10
103.3281023274
 20
128.7356041277
 30
0.0
 10
101.9813343304
 20
129.2848861599
 30
0.0
 10
100.5788221167
 20
129.69942148
 30
0.0
 10
99.5161922892
 20
129.9204700397
 30
0.0
  0
SPLINE
  5
4B2
100
AcDbEntity
  8
BEZUGSACHSEN
100
AcDbSpline
 62
7
  6
CONTINUOUS
 70
0
 71
3
 72
19
 73
15
 74
0
 42
0.0000001
 43
0.0000001
 44
0.0000000001
 40
0.0
 40
0.0
 40
0.0
 40
0.0
 40
0.0517279957
 40
0.105334459
 40
0.1622489926
 40
0.2232158543
 40
0.3564755372
 40
0.5
 40
0.6435244628
 40
0.7767841457
 40
0.8377510074
 40
0.894665541
 40
0.9482720043
 40
1.0
 40
1.0
 40
1.0
 40
1.0
 10
107.1297717095
 20
118.5837920473
 30
0.0
 10
107.0020970469
 20
118.362653045
 30
0.0
 10
106.6766084357
 20
117.9471002419
 30
0.0
 10
106.0249934281
 20
117.4669978106
 30
0.0
 10
105.2358617968
 20
117.1405391178
 30
0.0
 10
104.0088869306
 20
116.9166093397
 30
0.0
 10
102.3164069347
 20
117.0850795791
 30
0.0
 10
100.3742574635
 20
117.8828981421
 30
0.0
 10
98.7122515848
 20
119.1659396405
 30
0.0
 10
97.7201120797
 20
120.5474351927
 30
0.0
 10
97.3005535231
 20
121.7219914857
 30
0.0
 10
97.1887092287
 20
122.5686288718
 30
0.0
 10
97.2786826268
 20
123.3729952375
 30
0.0
 10
97.4758176053
 20
123.862653045
 30
0.0
 10
97.6034922678
 20
124.0837920473
 30
0.0
  0
SPLINE
  5
4B3
100
AcDbEntity
  8
KONSTRUKTIONSELEMENTE
100
AcDbSpline
 62
7
  6
CONTINUOUS
 70
0
 71
3
 72
9
 73
5
 74
0
 42
0.0000001
 43
0.0000001
 44
0.0000000001
 40
0.0
 40
0.0
 40
0.0
 40
0.0
 40
0.5328609796
 40
1.0
 40
1.0
 40
1.0
 40
1.0
 10
74.6047976881
 20
122.9952140181
 30
0.0
 10
74.7436171661
 20
122.9663367507
 30
0.0
 10
75.0141247473
 20
122.947986417
 30
0.0
 10
75.2769978889
 20
123.0324026077
 30
0.0
 10
75.3815254689
 20
123.0996723114
 30
0.0
  0
SPLINE
  5
4B4
100
AcDbEntity
  8
KONSTRUKTIONSELEMENTE
100
AcDbSpline
 62
7
  6
CONTINUOUS
 70
0
 71
3
 72
8
 73
4
 74
0
 42
0.0000001
 43
0.0000001
 44
0.0000000001
 40
0.0
 40
0.0
 40
0.0
 40
0.0
 40
1.0
 40
1.0
 40
1.0
 40
1.0
 10
75.3815254689
 20
123.0996723114
 30
0.0
 10
75.4201592817
 20
123.1245354637
 30
0.0
 10
75.4565909284
 20
123.1533255103
 30
0.0
 10
75.4892972292
 20
123.1855907504
 30
0.0
  0
SPLINE
  5
4B5
100
AcDbEntity
  8
KONSTRUKTIONSELEMENTE
100
AcDbSpline
 62
7
  6
CONTINUOUS
 70
0
 71
3
 72
11
 73
7
 74
0
 42
0.0000001
 43
0.0000001
 44
0.0000000001
 40
0.0
 40
0.0
 40
0.0
 40
0.0
 40
0.2816064552
 40
0.5417085427
 40
0.7793419382
 40
1.0
 40
1.0
 40
1.0
 40
1.0
 10
74.5318857525
 20
124.2213052788
 30
0.0
 10
74.6253776205
 20
124.2018570738
 30
0.0
 10
74.809561383
 20
124.1816746085
 30
0.0
 10
75.0746186532
 20
124.2131580662
 30
0.0
 10
75.3032371685
 20
124.3069076894
 30
0.0
 10
75.4229396467
 20
124.4118291369
 30
0.0
 10
75.4690674684
 20
124.4707450641
 30
0.0
  0
SPLINE
  5
4B6
100
AcDbEntity
  8
KONSTRUKTIONSELEMENTE
100
AcDbSpline
 62
7
  6
CONTINUOUS
 70
0
 71
3
 72
11
 73
7
 74
0
 42
0.0000001
 43
0.0000001
 44
0.0000000001
 40
0.0
 40
0.0
 40
0.0
 40
0.0
 40
0.2200436456
 40
0.4557793627
 40
0.7157728079
 40
1.0
 40
1.0
 40
1.0
 40
1.0
 10
69.8102199146
 20
124.6793164992
 30
0.0
 10
69.8506017891
 20
124.7492155193
 30
0.0
 10
69.9656647361
 20
124.8776070936
 30
0.0
 10
70.2054541187
 20
124.996368554
 30
0.0
 10
70.4918550353
 20
125.0402236246
 30
0.0
 10
70.6925847168
 20
125.0199577746
 30
0.0
 10
70.7946710062
 20
124.9987217556
 30
0.0
  0
SPLINE
  5
4B7
100
AcDbEntity
  8
KONSTRUKTIONSELEMENTE
100
AcDbSpline
 62
7
  6
CONTINUOUS
 70
0
 71
3
 72
11
 73
7
 74
0
 42
0.0000001
 43
0.0000001
 44
0.0000000001
 40
0.0
 40
0.0
 40
0.0
 40
0.0
 40
0.220058334
 40
0.4557781708
 40
0.71578719
 40
1.0
 40
1.0
 40
1.0
 40
1.0
 10
136.6105031248
 20
92.1511693042
 30
0.0
 10
136.7450835416
 20
92.384259833
 30
0.0
 10
136.9241945164
 20
92.9304413051
 30
0.0
 10
136.8674888919
 20
93.8208059006
 30
0.0
 10
136.5167100901
 20
94.7208250492
 30
0.0
 10
136.1236102889
 20
95.2666278441
 30
0.0
 10
135.8921317836
 20
95.5259675969
 30
0.0
  0
SPLINE
  5
4B8
100
AcDbEntity
  8
KONSTRUKTIONSELEMENTE
100
AcDbSpline
 62
7
  6
CONTINUOUS
 70
0
 71
3
 72
11
 73
7
 74
0
 42
0.0000001
 43
0.0000001
 44
0.0000000001
 40
0.0
 40
0.0
 40
0.0
 40
0.0
 40
0.2842271921
 40
0.5442206373
 40
0.7799563544
 40
1.0
 40
1.0
 40
1.0
 40
1.0
 10
74.4633763319
 20
122.7502650438
 30
0.0
 10
74.5654626212
 20
122.7290290248
 30
0.0
 10
74.7661923028
 20
122.7087631748
 30
0.0
 10
75.0525932194
 20
122.7526182454
 30
0.0
 10
75.292382602
 20
122.8713797059
 30
0.0
 10
75.407445549
 20
122.9997712802
 30
0.0
 10
75.4478274234
 20
123.0696703003
 30
0.0
  0
SPLINE
  5
4B9
100
AcDbEntity
  8
KONSTRUKTIONSELEMENTE
100
AcDbSpline
 62
7
  6
CONTINUOUS
 70
0
 71
3
 72
11
 73
7
 74
0
 42
0.0000001
 43
0.0000001
 44
0.0000000001
 40
0.0
 40
0.0
 40
0.0
 40
0.0
 40
0.2842240174
 40
0.5442187073
 40
0.779940343
 40
1.0
 40
1.0
 40
1.0
 40
1.0
 10
72.5966873666
 20
135.5202731271
 30
0.0
 10
72.2563365279
 20
135.5910730055
 30
0.0
 10
71.5871024046
 20
135.6586016699
 30
0.0
 10
70.6322716318
 20
135.5123644146
 30
0.0
 10
69.8328382209
 20
135.1162836158
 30
0.0
 10
69.4494205743
 20
134.6880460549
 30
0.0
 10
69.3148285658
 20
134.4549572902
 30
0.0
  0
SPLINE
  5
4BA
100
AcDbEntity
  8
KONSTRUKTIONSELEMENTE
100
AcDbSpline
 62
7
  6
CONTINUOUS
 70
0
 71
3
 72
11
 73
7
 74
0
 42
0.0000001
 43
0.0000001
 44
0.0000000001
 40
0.0
 40
0.0
 40
0.0
 40
0.0
 40
0.2842240174
 40
0.5442187073
 40
0.779940343
 40
1.0
 40
1.0
 40
1.0
 40
1.0
 10
102.5650867259
 20
80.8996090856
 30
0.0
 10
102.3335968132
 20
81.1589616188
 30
0.0
 10
101.9404982128
 20
81.7047710385
 30
0.0
 10
101.5897280045
 20
82.6047973717
 30
0.0
 10
101.5330273327
 20
83.4951674136
 30
0.0
 10
101.712183116
 20
84.0413356163
 30
0.0
 10
101.8467479033
 20
84.2744400971
 30
0.0
  0
LINE
  5
4BB
100
AcDbEntity
  8
0
100
AcDbLine
 62
7
  6
CONTINUOUS
 10
305.3177247599
 20
149.0419969247
 11
302.4154506173
 21
153.4293152637
  0
LINE
  5
4BC
100
AcDbEntity
  8
0
100
AcDbLine
 62
7
  6
CONTINUOUS
 10
321.8580205893
 20
164.6544882708
 11
324.2064126542
 21
159.947385965
  0
SPLINE
  5
4BD
100
AcDbEntity
  8
0
100
AcDbSpline
 62
7
  6
CONTINUOUS
 70
0
 71
3
 72
10
 73
6
 74
0
 42
0.0000001
 43
0.0000001
 44
0.0000000001
 40
0.0
 40
0.0
 40
0.0
 40
0.0
 40
0.5169001708
 40
0.7640398444
 40
1.0
 40
1.0
 40
1.0
 40
1.0
 10
299.9519639533
 20
156.1823980734
 30
0.0
 10
299.9957834314
 20
155.9014914863
 30
0.0
 10
300.1418718652
 20
155.4891453945
 30
0.0
 10
300.497530286
 20
155.0639925846
 30
0.0
 10
300.7136859092
 20
154.9044760661
 30
0.0
 10
300.8262306513
 20
154.8398458451
 30
0.0
  0
SPLINE
  5
4BE
100
AcDbEntity
  8
0
100
AcDbSpline
 62
7
  6
CONTINUOUS
 70
0
 71
3
 72
10
 73
6
 74
0
 42
0.0000001
 43
0.0000001
 44
0.0000000001
 40
0.0
 40
0.0
 40
0.0
 40
0.0
 40
0.2359601556
 40
0.4830998292
 40
1.0
 40
1.0
 40
1.0
 40
1.0
 10
321.4310752561
 20
166.7360584243
 30
0.0
 10
321.4313762139
 20
166.8658401405
 30
0.0
 10
321.4013086682
 20
167.1327946606
 30
0.0
 10
321.2109447447
 20
167.653380293
 30
0.0
 10
320.9268867709
 20
167.9860696338
 30
0.0
 10
320.7055242695
 20
168.1644717086
 30
0.0
  0
SPLINE
  5
4BF
100
AcDbEntity
  8
0
100
AcDbSpline
 62
7
  6
CONTINUOUS
 70
0
 71
3
 72
11
 73
7
 74
0
 42
0.0000001
 43
0.0000001
 44
0.0000000001
 40
0.0
 40
0.0
 40
0.0
 40
0.0
 40
0.2449450505
 40
0.4925219357
 40
0.7442781348
 40
1.0
 40
1.0
 40
1.0
 40
1.0
 10
296.7043455376
 20
164.5027966629
 30
0.0
 10
296.6421796275
 20
164.366906158
 30
0.0
 10
296.5343037266
 20
164.0851832034
 30
0.0
 10
296.4455243557
 20
163.6369164857
 30
0.0
 10
296.4624857082
 20
163.1712370293
 30
0.0
 10
296.5703835672
 20
162.87354737
 30
0.0
 10
296.6483884214
 20
162.7384389993
 30
0.0
  0
SPLINE
  5
4C0
100
AcDbEntity
  8
0
100
AcDbSpline
 62
7
  6
CONTINUOUS
 70
0
 71
3
 72
11
 73
7
 74
0
 42
0.0000001
 43
0.0000001
 44
0.0000000001
 40
0.0
 40
0.0
 40
0.0
 40
0.0
 40
0.2557279993
 40
0.5074851301
 40
0.7550583766
 40
1.0
 40
1.0
 40
1.0
 40
1.0
 10
316.6796140454
 20
174.3034725055
 30
0.0
 10
316.6016073252
 20
174.4385841082
 30
0.0
 10
316.3977455142
 20
174.6808741163
 30
0.0
 10
316.0029321517
 20
174.9284005876
 30
0.0
 10
315.5703352996
 20
175.0756457755
 30
0.0
 10
315.2724224223
 20
175.1230832564
 30
0.0
 10
315.1236569292
 20
175.1371910532
 30
0.0
  0
SPLINE
  5
4C1
100
AcDbEntity
  8
0
100
AcDbSpline
 62
7
  6
CONTINUOUS
 70
0
 71
3
 72
9
 73
5
 74
0
 42
0.0000001
 43
0.0000001
 44
0.0000000001
 40
0.0
 40
0.0
 40
0.0
 40
0.0
 40
0.494688926
 40
1.0
 40
1.0
 40
1.0
 40
1.0
 10
321.8580205893
 20
164.6544882708
 30
0.0
 10
321.7000727528
 20
164.9699761759
 30
0.0
 10
321.4801703518
 20
165.659885054
 30
0.0
 10
321.430239523
 20
166.3756661361
 30
0.0
 10
321.4310752561
 20
166.7360584243
 30
0.0
  0
SPLINE
  5
4C2
100
AcDbEntity
  8
0
100
AcDbSpline
 62
7
  6
CONTINUOUS
 70
0
 71
3
 72
9
 73
5
 74
0
 42
0.0000001
 43
0.0000001
 44
0.0000000001
 40
0.0
 40
0.0
 40
0.0
 40
0.0
 40
0.505311074
 40
1.0
 40
1.0
 40
1.0
 40
1.0
 10
300.8262306513
 20
154.8398458451
 30
0.0
 10
301.1387573947
 20
154.6603734671
 30
0.0
 10
301.7336765809
 20
154.2592415599
 30
0.0
 10
302.2212039952
 20
153.7238460552
 30
0.0
 10
302.4154506173
 20
153.4293152637
 30
0.0
  0
SPLINE
  5
4C3
100
AcDbEntity
  8
0
100
AcDbSpline
 62
7
  6
CONTINUOUS
 70
0
 71
3
 72
9
 73
5
 74
0
 42
0.0000001
 43
0.0000001
 44
0.0000000001
 40
0.0
 40
0.0
 40
0.0
 40
0.0
 40
0.5001151744
 40
1.0
 40
1.0
 40
1.0
 40
1.0
 10
320.7055242695
 20
168.1644717086
 30
0.0
 10
320.4271369173
 20
168.3888316651
 30
0.0
 10
319.9010310529
 20
168.878119679
 30
0.0
 10
319.4758793539
 20
169.4601989197
 30
0.0
 10
319.2971902567
 20
169.7696975148
 30
0.0
  0
SPLINE
  5
4C4
100
AcDbEntity
  8
0
100
AcDbSpline
 62
7
  6
CONTINUOUS
 70
0
 71
3
 72
9
 73
5
 74
0
 42
0.0000001
 43
0.0000001
 44
0.0000000001
 40
0.0
 40
0.0
 40
0.0
 40
0.0
 40
0.4998848256
 40
1.0
 40
1.0
 40
1.0
 40
1.0
 10
299.2659646327
 20
158.2046640085
 30
0.0
 10
299.4446537299
 20
157.8951654135
 30
0.0
 10
299.7361732899
 20
157.2359336213
 30
0.0
 10
299.8968562075
 20
156.5356685707
 30
0.0
 10
299.9519639533
 20
156.1823980734
 30
0.0
  0
SPLINE
  5
4C5
100
AcDbEntity
  8
KONSTRUKTIONSELEMENTE
100
AcDbSpline
 62
7
  6
CONTINUOUS
 70
0
 71
3
 72
9
 73
5
 74
0
 42
0.0000001
 43
0.0000001
 44
0.0000000001
 40
0.0
 40
0.0
 40
0.0
 40
0.0
 40
0.5001151744
 40
1.0
 40
1.0
 40
1.0
 40
1.0
 10
115.56863062
 20
168.1644717086
 30
0.0
 10
115.8470179721
 20
168.3888316651
 30
0.0
 10
116.3731238365
 20
168.878119679
 30
0.0
 10
116.7982755355
 20
169.4601989197
 30
0.0
 10
116.9769646327
 20
169.7696975148
 30
0.0
  0
SPLINE
  5
4C6
100
AcDbEntity
  8
KONSTRUKTIONSELEMENTE
100
AcDbSpline
 62
7
  6
CONTINUOUS
 70
0
 71
3
 72
9
 73
5
 74
0
 42
0.0000001
 43
0.0000001
 44
0.0000000001
 40
0.0
 40
0.0
 40
0.0
 40
0.0
 40
0.4998848256
 40
1.0
 40
1.0
 40
1.0
 40
1.0
 10
137.0081902567
 20
158.2046640085
 30
0.0
 10
136.8295011596
 20
157.8951654135
 30
0.0
 10
136.5379815996
 20
157.2359336213
 30
0.0
 10
136.377298682
 20
156.5356685707
 30
0.0
 10
136.3221909361
 20
156.1823980734
 30
0.0
  0
SPLINE
  5
4C7
100
AcDbEntity
  8
KONSTRUKTIONSELEMENTE
100
AcDbSpline
 62
7
  6
CONTINUOUS
 70
0
 71
3
 72
9
 73
5
 74
0
 42
0.0000001
 43
0.0000001
 44
0.0000000001
 40
0.0
 40
0.0
 40
0.0
 40
0.0
 40
0.494688926
 40
1.0
 40
1.0
 40
1.0
 40
1.0
 10
114.4161343001
 20
164.6544882708
 30
0.0
 10
114.5740821366
 20
164.9699761759
 30
0.0
 10
114.7939845376
 20
165.659885054
 30
0.0
 10
114.8439153664
 20
166.3756661361
 30
0.0
 10
114.8430796333
 20
166.7360584243
 30
0.0
  0
SPLINE
  5
4C8
100
AcDbEntity
  8
KONSTRUKTIONSELEMENTE
100
AcDbSpline
 62
7
  6
CONTINUOUS
 70
0
 71
3
 72
11
 73
7
 74
0
 42
0.0000001
 43
0.0000001
 44
0.0000000001
 40
0.0
 40
0.0
 40
0.0
 40
0.0
 40
0.2557279993
 40
0.5074851301
 40
0.7550583766
 40
1.0
 40
1.0
 40
1.0
 40
1.0
 10
119.5945408441
 20
174.3034725055
 30
0.0
 10
119.6725475642
 20
174.4385841082
 30
0.0
 10
119.8764093752
 20
174.6808741163
 30
0.0
 10
120.2712227377
 20
174.9284005876
 30
0.0
 10
120.7038195899
 20
175.0756457755
 30
0.0
 10
121.0017324671
 20
175.1230832564
 30
0.0
 10
121.1504979603
 20
175.1371910532
 30
0.0
  0
SPLINE
  5
4C9
100
AcDbEntity
  8
KONSTRUKTIONSELEMENTE
100
AcDbSpline
 62
7
  6
CONTINUOUS
 70
0
 71
3
 72
11
 73
7
 74
0
 42
0.0000001
 43
0.0000001
 44
0.0000000001
 40
0.0
 40
0.0
 40
0.0
 40
0.0
 40
0.2449450505
 40
0.4925219357
 40
0.7442781348
 40
1.0
 40
1.0
 40
1.0
 40
1.0
 10
139.5698093519
 20
164.5027966629
 30
0.0
 10
139.6319752619
 20
164.366906158
 30
0.0
 10
139.7398511629
 20
164.0851832034
 30
0.0
 10
139.8286305338
 20
163.6369164857
 30
0.0
 10
139.8116691812
 20
163.1712370293
 30
0.0
 10
139.7037713223
 20
162.87354737
 30
0.0
 10
139.6257664681
 20
162.7384389993
 30
0.0
  0
LINE
  5
4CA
100
AcDbEntity
  8
0
100
AcDbLine
 62
7
  6
CONTINUOUS
 10
133.8587042721
 20
153.4293152637
 11
130.9564301295
 21
149.0419969247
  0
LINE
  5
4CB
100
AcDbEntity
  8
0
100
AcDbLine
 62
7
  6
CONTINUOUS
 10
112.0677422353
 20
159.947385965
 11
114.4161343001
 21
164.6544882708
  0
SPLINE
  5
4CC
100
AcDbEntity
  8
KONSTRUKTIONSELEMENTE
100
AcDbSpline
 62
7
  6
CONTINUOUS
 70
0
 71
3
 72
10
 73
6
 74
0
 42
0.0000001
 43
0.0000001
 44
0.0000000001
 40
0.0
 40
0.0
 40
0.0
 40
0.0
 40
0.2359601556
 40
0.4830998292
 40
1.0
 40
1.0
 40
1.0
 40
1.0
 10
114.8430796333
 20
166.7360584243
 30
0.0
 10
114.8427786755
 20
166.8658401405
 30
0.0
 10
114.8728462213
 20
167.1327946606
 30
0.0
 10
115.0632101448
 20
167.653380293
 30
0.0
 10
115.3472681185
 20
167.9860696338
 30
0.0
 10
115.56863062
 20
168.1644717086
 30
0.0
  0
SPLINE
  5
4CD
100
AcDbEntity
  8
KONSTRUKTIONSELEMENTE
100
AcDbSpline
 62
7
  6
CONTINUOUS
 70
0
 71
3
 72
10
 73
6
 74
0
 42
0.0000001
 43
0.0000001
 44
0.0000000001
 40
0.0
 40
0.0
 40
0.0
 40
0.0
 40
0.5169001708
 40
0.7640398444
 40
1.0
 40
1.0
 40
1.0
 40
1.0
 10
136.3221909361
 20
156.1823980734
 30
0.0
 10
136.2783714581
 20
155.9014914863
 30
0.0
 10
136.1322830242
 20
155.4891453945
 30
0.0
 10
135.7766246034
 20
155.0639925846
 30
0.0
 10
135.5604689803
 20
154.9044760661
 30
0.0
 10
135.4479242382
 20
154.8398458451
 30
0.0
  0
SPLINE
  5
4CE
100
AcDbEntity
  8
KONSTRUKTIONSELEMENTE
100
AcDbSpline
 62
7
  6
CONTINUOUS
 70
0
 71
3
 72
9
 73
5
 74
0
 42
0.0000001
 43
0.0000001
 44
0.0000000001
 40
0.0
 40
0.0
 40
0.0
 40
0.0
 40
0.505311074
 40
1.0
 40
1.0
 40
1.0
 40
1.0
 10
135.4479242382
 20
154.8398458451
 30
0.0
 10
135.1353974947
 20
154.6603734671
 30
0.0
 10
134.5404783085
 20
154.2592415599
 30
0.0
 10
134.0529508943
 20
153.7238460552
 30
0.0
 10
133.8587042721
 20
153.4293152637
 30
0.0
  0
SPLINE
  5
4CF
100
AcDbEntity
  8
KONSTRUKTIONSELEMENTE
100
AcDbSpline
 62
7
  6
CONTINUOUS
 70
0
 71
3
 72
9
 73
5
 74
0
 42
0.0000001
 43
0.0000001
 44
0.0000000001
 40
0.0
 40
0.0
 40
0.0
 40
0.0
 40
0.272606519
 40
1.0
 40
1.0
 40
1.0
 40
1.0
 10
524.6971190873
 20
184.5553924856
 30
0.0
 10
524.7019089197
 20
184.5771693741
 30
0.0
 10
524.7239755257
 20
184.655805813
 30
0.0
 10
524.7698792836
 20
184.7291412621
 30
0.0
 10
524.8148965854
 20
184.7680413884
 30
0.0
  0
SPLINE
  5
4D0
100
AcDbEntity
  8
KONSTRUKTIONSELEMENTE
100
AcDbSpline
 62
7
  6
CONTINUOUS
 70
0
 71
3
 72
9
 73
5
 74
0
 42
0.0000001
 43
0.0000001
 44
0.0000000001
 40
0.0
 40
0.0
 40
0.0
 40
0.0
 40
0.546991612
 40
1.0
 40
1.0
 40
1.0
 40
1.0
 10
527.864276497
 20
181.0401045277
 30
0.0
 10
527.864276497
 20
180.9685190891
 30
0.0
 10
527.8493712781
 20
180.8356303927
 30
0.0
 10
527.7765340846
 20
180.7189786998
 30
0.0
 10
527.7316758932
 20
180.6802160633
 30
0.0
  0
SPLINE
  5
4D1
100
AcDbEntity
  8
KONSTRUKTIONSELEMENTE
100
AcDbSpline
 62
7
  6
CONTINUOUS
 70
0
 71
3
 72
9
 73
5
 74
0
 42
0.0000001
 43
0.0000001
 44
0.0000000001
 40
0.0
 40
0.0
 40
0.0
 40
0.0
 40
0.4714729988
 40
1.0
 40
1.0
 40
1.0
 40
1.0
 10
528.0852292838
 20
180.9864022811
 30
0.0
 10
528.053858066
 20
180.9592939408
 30
0.0
 10
527.9746113055
 20
180.915638972
 30
0.0
 10
527.8861476917
 20
180.9026913331
 30
0.0
 10
527.8396946782
 20
180.9011583746
 30
0.0
  0
SPLINE
  5
4D2
100
AcDbEntity
  8
KONSTRUKTIONSELEMENTE
100
AcDbSpline
 62
7
  6
CONTINUOUS
 70
0
 71
3
 72
9
 73
5
 74
0
 42
0.0000001
 43
0.0000001
 44
0.0000000001
 40
0.0
 40
0.0
 40
0.0
 40
0.0
 40
0.4820003923
 40
1.0
 40
1.0
 40
1.0
 40
1.0
 10
536.5949088196
 20
181.8086651987
 30
0.0
 10
536.5947226533
 20
181.6525994699
 30
0.0
 10
536.5526354395
 20
181.3276337818
 30
0.0
 10
536.4298715295
 20
181.0238956706
 30
0.0
 10
536.3493844609
 20
180.8767478436
 30
0.0
  0
SPLINE
  5
4D3
100
AcDbEntity
  8
KONSTRUKTIONSELEMENTE
100
AcDbSpline
 62
7
  6
CONTINUOUS
 70
0
 71
3
 72
9
 73
5
 74
0
 42
0.0000001
 43
0.0000001
 44
0.0000000001
 40
0.0
 40
0.0
 40
0.0
 40
0.0
 40
0.2343643836
 40
1.0
 40
1.0
 40
1.0
 40
1.0
 10
536.3173342397
 20
180.8201382113
 30
0.0
 10
536.2839263042
 20
180.7630770243
 30
0.0
 10
536.1307885037
 20
180.5258894863
 30
0.0
 10
535.936872143
 20
180.3156627279
 30
0.0
 10
535.7735838662
 20
180.1742509321
 30
0.0
  0
SPLINE
  5
4D4
100
AcDbEntity
  8
KONSTRUKTIONSELEMENTE
100
AcDbSpline
 62
7
  6
CONTINUOUS
 70
0
 71
3
 72
9
 73
5
 74
0
 42
0.0000001
 43
0.0000001
 44
0.0000000001
 40
0.0
 40
0.0
 40
0.0
 40
0.0
 40
0.4959270657
 40
1.0
 40
1.0
 40
1.0
 40
1.0
 10
527.6418558826
 20
187.2165339426
 30
0.0
 10
528.2639763167
 20
187.7553060427
 30
0.0
 10
529.6952107779
 20
188.6498453333
 30
0.0
 10
531.3189290864
 20
189.0968017006
 30
0.0
 10
532.1482212128
 20
189.2064231027
 30
0.0
  0
SPLINE
  5
4D5
100
AcDbEntity
  8
KONSTRUKTIONSELEMENTE
100
AcDbSpline
 62
7
  6
CONTINUOUS
 70
0
 71
3
 72
11
 73
7
 74
0
 42
0.0000001
 43
0.0000001
 44
0.0000000001
 40
0.0
 40
0.0
 40
0.0
 40
0.0
 40
0.2544415708
 40
0.5052707429
 40
0.7533584052
 40
1.0
 40
1.0
 40
1.0
 40
1.0
 10
538.1720219568
 20
187.8754438581
 30
0.0
 10
538.6864889384
 20
187.5395185507
 30
0.0
 10
539.6375633751
 20
186.7549990652
 30
0.0
 10
540.7386229787
 20
185.2846531907
 30
0.0
 10
541.4349250632
 20
183.6037464922
 30
0.0
 10
541.5940709348
 20
182.4033448941
 30
0.0
 10
541.5943423223
 20
181.807752162
 30
0.0
  0
SPLINE
  5
4D6
100
AcDbEntity
  8
KONSTRUKTIONSELEMENTE
100
AcDbSpline
 62
7
  6
CONTINUOUS
 70
0
 71
3
 72
11
 73
7
 74
0
 42
0.0000001
 43
0.0000001
 44
0.0000000001
 40
0.0
 40
0.0
 40
0.0
 40
0.0
 40
0.2474803687
 40
0.4959793074
 40
0.7466457809
 40
1.0
 40
1.0
 40
1.0
 40
1.0
 10
541.5943423223
 20
181.807752162
 30
0.0
 10
541.5945738515
 20
181.2996331825
 30
0.0
 10
541.4794819805
 20
180.2777011262
 30
0.0
 10
540.9723273673
 20
178.8184172011
 30
0.0
 10
540.1576359165
 20
177.4922932198
 30
0.0
 10
539.4400706134
 20
176.7351433201
 30
0.0
 10
539.0468522198
 20
176.394606202
 30
0.0
  0
SPLINE
  5
4D7
100
AcDbEntity
  8
KONSTRUKTIONSELEMENTE
100
AcDbSpline
 62
7
  6
CONTINUOUS
 70
0
 71
3
 72
9
 73
5
 74
0
 42
0.0000001
 43
0.0000001
 44
0.0000000001
 40
0.0
 40
0.0
 40
0.0
 40
0.0
 40
0.5226045408
 40
1.0
 40
1.0
 40
1.0
 40
1.0
 10
536.298967901
 20
182.8216790157
 30
0.0
 10
536.3948291744
 20
182.6627847775
 30
0.0
 10
536.5426010415
 20
182.3347910629
 30
0.0
 10
536.5951110328
 20
181.9781832514
 30
0.0
 10
536.5949088196
 20
181.8086651987
 30
0.0
  0
SPLINE
  5
4D8
100
AcDbEntity
  8
KONSTRUKTIONSELEMENTE
100
AcDbSpline
 62
7
  6
CONTINUOUS
 70
0
 71
3
 72
9
 73
5
 74
0
 42
0.0000001
 43
0.0000001
 44
0.0000000001
 40
0.0
 40
0.0
 40
0.0
 40
0.0
 40
0.4872963705
 40
1.0
 40
1.0
 40
1.0
 40
1.0
 10
529.7631762262
 20
174.9690852287
 30
0.0
 10
529.2153580253
 20
174.49466075
 30
0.0
 10
527.7313051567
 20
173.9267061289
 30
0.0
 10
526.1778110472
 20
174.2050310041
 30
0.0
 10
525.5038968886
 20
174.5617046653
 30
0.0
  0
SPLINE
  5
4D9
100
AcDbEntity
  8
KONSTRUKTIONSELEMENTE
100
AcDbSpline
 62
7
  6
CONTINUOUS
 70
0
 71
3
 72
11
 73
7
 74
0
 42
0.0000001
 43
0.0000001
 44
0.0000000001
 40
0.0
 40
0.0
 40
0.0
 40
0.0
 40
0.2474803687
 40
0.4959793074
 40
0.7466457809
 40
1.0
 40
1.0
 40
1.0
 40
1.0
 10
519.08395814
 20
176.5982222791
 30
0.0
 10
519.0837266108
 20
177.1063412586
 30
0.0
 10
519.1988184818
 20
178.1282733149
 30
0.0
 10
519.705973095
 20
179.58755724
 30
0.0
 10
520.5206645458
 20
180.9136812213
 30
0.0
 10
521.2382298489
 20
181.6708311211
 30
0.0
 10
521.6314482425
 20
182.0113682392
 30
0.0
  0
SPLINE
  5
4DA
100
AcDbEntity
  8
KONSTRUKTIONSELEMENTE
100
AcDbSpline
 62
7
  6
CONTINUOUS
 70
0
 71
3
 72
15
 73
11
 74
0
 42
0.0000001
 43
0.0000001
 44
0.0000000001
 40
0.0
 40
0.0
 40
0.0
 40
0.0
 40
0.12323614
 40
0.2480335987
 40
0.373900227
 40
0.5003927364
 40
0.6268181839
 40
0.7525256837
 40
0.877011671
 40
1.0
 40
1.0
 40
1.0
 40
1.0
 10
533.0364445797
 20
171.1894404986
 30
0.0
 10
532.6434464762
 20
170.8490941573
 30
0.0
 10
531.7827287421
 20
170.2408496532
 30
0.0
 10
530.3402647344
 20
169.5821486024
 30
0.0
 10
528.7894421169
 20
169.1900054817
 30
0.0
 10
527.1874454998
 20
169.0750334864
 30
0.0
 10
525.5905414555
 20
169.2409235249
 30
0.0
 10
524.0554887984
 20
169.6828667077
 30
0.0
 10
522.6382834284
 20
170.3877300032
 30
0.0
 10
521.8012832551
 20
171.0245374469
 30
0.0
 10
521.4214452899
 20
171.3779781772
 30
0.0
  0
SPLINE
  5
4DB
100
AcDbEntity
  8
KONSTRUKTIONSELEMENTE
100
AcDbSpline
 62
7
  6
CONTINUOUS
 70
0
 71
3
 72
9
 73
5
 74
0
 42
0.0000001
 43
0.0000001
 44
0.0000000001
 40
0.0
 40
0.0
 40
0.0
 40
0.0
 40
0.4702695548
 40
1.0
 40
1.0
 40
1.0
 40
1.0
 10
524.4613431948
 20
184.4618551705
 30
0.0
 10
524.4935205576
 20
184.4896601127
 30
0.0
 10
524.5753747267
 20
184.5341385011
 30
0.0
 10
524.6665394197
 20
184.546322302
 30
0.0
 10
524.7144329027
 20
184.5473007007
 30
0.0
  0
SPLINE
  5
4DC
100
AcDbEntity
  8
KONSTRUKTIONSELEMENTE
100
AcDbSpline
 62
7
  6
CONTINUOUS
 70
0
 71
3
 72
15
 73
11
 74
0
 42
0.0000001
 43
0.0000001
 44
0.0000000001
 40
0.0
 40
0.0
 40
0.0
 40
0.0
 40
0.082699247
 40
0.1957940838
 40
0.333737466
 40
0.4862052534
 40
0.6408263759
 40
0.7848058501
 40
0.9071588123
 40
1.0
 40
1.0
 40
1.0
 40
1.0
 10
524.7144329027
 20
184.5473007007
 30
0.0
 10
524.8507570135
 20
184.5500856169
 30
0.0
 10
525.1710313539
 20
184.45898782
 30
0.0
 10
525.6495156228
 20
184.1864810661
 30
0.0
 10
526.1734881316
 20
183.7720143823
 30
0.0
 10
526.6925055747
 20
183.2516032308
 30
0.0
 10
527.16021754
 20
182.6717101796
 30
0.0
 10
527.5345800807
 20
182.0845445833
 30
0.0
 10
527.781353745
 20
181.5453751017
 30
0.0
 10
527.864276497
 20
181.1931788725
 30
0.0
 10
527.864276497
 20
181.0401045277
 30
0.0
  0
SPLINE
  5
4DD
100
AcDbEntity
  8
KONSTRUKTIONSELEMENTE
100
AcDbSpline
 62
7
  6
CONTINUOUS
 70
0
 71
3
 72
19
 73
15
 74
0
 42
0.0000001
 43
0.0000001
 44
0.0000000001
 40
0.0
 40
0.0
 40
0.0
 40
0.0
 40
0.0298938292
 40
0.0650835855
 40
0.108466288
 40
0.1609985436
 40
0.2222349321
 40
0.2911550146
 40
0.4456854225
 40
0.6095823449
 40
0.7660354067
 40
0.8997960834
 40
0.9545408033
 40
1.0
 40
1.0
 40
1.0
 40
1.0
 10
524.8148965854
 20
184.7680413884
 30
0.0
 10
524.8542562367
 20
184.802052654
 30
0.0
 10
524.9608927734
 20
184.8529241256
 30
0.0
 10
525.1527266376
 20
184.858621396
 30
0.0
 10
525.376658735
 20
184.8076686674
 30
0.0
 10
525.6296525762
 20
184.7013879866
 30
0.0
 10
525.9063946345
 20
184.5438006103
 30
0.0
 10
526.3120357829
 20
184.2584296668
 30
0.0
 10
526.8157569933
 20
183.8071052044
 30
0.0
 10
527.362303183
 20
183.1847860004
 30
0.0
 10
527.8105497873
 20
182.5321399556
 30
0.0
 10
528.0799984265
 20
181.9911309023
 30
0.0
 10
528.1948384429
 20
181.5996512281
 30
0.0
 10
528.2178298876
 20
181.4253950214
 30
0.0
 10
528.2178298876
 20
181.3462907455
 30
0.0
  0
SPLINE
  5
4DE
100
AcDbEntity
  8
KONSTRUKTIONSELEMENTE
100
AcDbSpline
 62
7
  6
CONTINUOUS
 70
0
 71
3
 72
9
 73
5
 74
0
 42
0.0000001
 43
0.0000001
 44
0.0000000001
 40
0.0
 40
0.0
 40
0.0
 40
0.0
 40
0.546991612
 40
1.0
 40
1.0
 40
1.0
 40
1.0
 10
528.2178298876
 20
181.3462907455
 30
0.0
 10
528.2178298876
 20
181.2747053069
 30
0.0
 10
528.2029246687
 20
181.1418166106
 30
0.0
 10
528.1300874752
 20
181.0251649177
 30
0.0
 10
528.0852292838
 20
180.9864022811
 30
0.0
  0
SPLINE
  5
4DF
100
AcDbEntity
  8
KONSTRUKTIONSELEMENTE
100
AcDbSpline
 62
7
  6
CONTINUOUS
 70
0
 71
3
 72
9
 73
5
 74
0
 42
0.0000001
 43
0.0000001
 44
0.0000000001
 40
0.0
 40
0.0
 40
0.0
 40
0.0
 40
0.272606519
 40
1.0
 40
1.0
 40
1.0
 40
1.0
 10
467.4214698112
 20
134.9532251943
 30
0.0
 10
467.4262596436
 20
134.9750020828
 30
0.0
 10
467.4483262496
 20
135.0536385216
 30
0.0
 10
467.4942300075
 20
135.1269739707
 30
0.0
 10
467.5392473093
 20
135.165874097
 30
0.0
  0
SPLINE
  5
4E0
100
AcDbEntity
  8
KONSTRUKTIONSELEMENTE
100
AcDbSpline
 62
7
  6
CONTINUOUS
 70
0
 71
3
 72
8
 73
4
 74
0
 42
0.0000001
 43
0.0000001
 44
0.0000000001
 40
0.0
 40
0.0
 40
0.0
 40
0.0
 40
1.0
 40
1.0
 40
1.0
 40
1.0
 10
470.8095800077
 20
131.3842349898
 30
0.0
 10
470.7897566782
 20
131.3671053531
 30
0.0
 10
470.7675666701
 20
131.3524309729
 30
0.0
 10
470.7441386605
 20
131.3407041996
 30
0.0
  0
SPLINE
  5
4E1
100
AcDbEntity
  8
KONSTRUKTIONSELEMENTE
100
AcDbSpline
 62
7
  6
CONTINUOUS
 70
0
 71
3
 72
10
 73
6
 74
0
 42
0.0000001
 43
0.0000001
 44
0.0000000001
 40
0.0
 40
0.0
 40
0.0
 40
0.0
 40
0.2209805831
 40
0.4552103493
 40
1.0
 40
1.0
 40
1.0
 40
1.0
 10
479.3192595435
 20
132.2064979074
 30
0.0
 10
479.3190945221
 20
132.0681582103
 30
0.0
 10
479.2861326319
 20
131.7821500881
 30
0.0
 10
479.0761202939
 20
131.1880232461
 30
0.0
 10
478.7557464183
 20
130.7953552333
 30
0.0
 10
478.4979345901
 20
130.5720836407
 30
0.0
  0
SPLINE
  5
4E2
100
AcDbEntity
  8
KONSTRUKTIONSELEMENTE
100
AcDbSpline
 62
7
  6
CONTINUOUS
 70
0
 71
3
 72
11
 73
7
 74
0
 42
0.0000001
 43
0.0000001
 44
0.0000000001
 40
0.0
 40
0.0
 40
0.0
 40
0.0
 40
0.2461844042
 40
0.4959427175
 40
0.7478763938
 40
1.0
 40
1.0
 40
1.0
 40
1.0
 10
470.3662066065
 20
137.6143666512
 30
0.0
 10
470.8646741539
 20
138.0460522102
 30
0.0
 10
471.9818850018
 20
138.7925946302
 30
0.0
 10
473.8764255429
 20
139.4934822846
 30
0.0
 10
475.8946055142
 20
139.7567315368
 30
0.0
 10
477.2521176307
 20
139.6313469389
 30
0.0
 10
477.9134102784
 20
139.4944250139
 30
0.0
  0
SPLINE
  5
4E3
100
AcDbEntity
  8
KONSTRUKTIONSELEMENTE
100
AcDbSpline
 62
7
  6
CONTINUOUS
 70
0
 71
3
 72
11
 73
7
 74
0
 42
0.0000001
 43
0.0000001
 44
0.0000000001
 40
0.0
 40
0.0
 40
0.0
 40
0.0
 40
0.2529889227
 40
0.5034781976
 40
0.7521869369
 40
1.0
 40
1.0
 40
1.0
 40
1.0
 10
482.0986155221
 20
137.3142845289
 30
0.0
 10
482.4444396557
 20
136.9788247848
 30
0.0
 10
483.0723927203
 20
136.2452293399
 30
0.0
 10
483.7799579226
 20
134.9891947614
 30
0.0
 10
484.2191214574
 20
133.6259721619
 30
0.0
 10
484.3184780026
 20
132.6775240237
 30
0.0
 10
484.3186930462
 20
132.2055848707
 30
0.0
  0
SPLINE
  5
4E4
100
AcDbEntity
  8
KONSTRUKTIONSELEMENTE
100
AcDbSpline
 62
7
  6
CONTINUOUS
 70
0
 71
3
 72
11
 73
7
 74
0
 42
0.0000001
 43
0.0000001
 44
0.0000000001
 40
0.0
 40
0.0
 40
0.0
 40
0.0
 40
0.2474803687
 40
0.4959793074
 40
0.7466457809
 40
1.0
 40
1.0
 40
1.0
 40
1.0
 10
484.3186930462
 20
132.2055848707
 30
0.0
 10
484.3189245754
 20
131.6974658911
 30
0.0
 10
484.2038327043
 20
130.6755338349
 30
0.0
 10
483.6966780912
 20
129.2162499098
 30
0.0
 10
482.8819866404
 20
127.8901259285
 30
0.0
 10
482.1644213373
 20
127.1329760287
 30
0.0
 10
481.7712029437
 20
126.7924389106
 30
0.0
  0
SPLINE
  5
4E5
100
AcDbEntity
  8
KONSTRUKTIONSELEMENTE
100
AcDbSpline
 62
7
  6
CONTINUOUS
 70
0
 71
3
 72
9
 73
5
 74
0
 42
0.0000001
 43
0.0000001
 44
0.0000000001
 40
0.0
 40
0.0
 40
0.0
 40
0.0
 40
0.2350561603
 40
1.0
 40
1.0
 40
1.0
 40
1.0
 10
473.63947496
 20
133.8347219211
 30
0.0
 10
473.7186978456
 20
133.9033309526
 30
0.0
 10
474.0714503661
 20
134.1768272821
 30
0.0
 10
474.4804068343
 20
134.3754601511
 30
0.0
 10
474.804281768
 20
134.4823490685
 30
0.0
  0
SPLINE
  5
4E6
100
AcDbEntity
  8
KONSTRUKTIONSELEMENTE
100
AcDbSpline
 62
7
  6
CONTINUOUS
 70
0
 71
3
 72
9
 73
5
 74
0
 42
0.0000001
 43
0.0000001
 44
0.0000000001
 40
0.0
 40
0.0
 40
0.0
 40
0.0
 40
0.2578415756
 40
1.0
 40
1.0
 40
1.0
 40
1.0
 10
479.2203590352
 20
132.7971061886
 30
0.0
 10
479.2368822966
 20
132.7482244256
 30
0.0
 10
479.2938332706
 20
132.5563200434
 30
0.0
 10
479.3194367082
 20
132.355017477
 30
0.0
 10
479.3192595435
 20
132.2064979074
 30
0.0
  0
SPLINE
  5
4E7
100
AcDbEntity
  8
KONSTRUKTIONSELEMENTE
100
AcDbSpline
 62
7
  6
CONTINUOUS
 70
0
 71
3
 72
12
 73
8
 74
0
 42
0.0000001
 43
0.0000001
 44
0.0000000001
 40
0.0
 40
0.0
 40
0.0
 40
0.0
 40
0.2345920439
 40
0.4937113228
 40
0.6262751955
 40
0.7567885353
 40
1.0
 40
1.0
 40
1.0
 40
1.0
 10
472.4875269501
 20
125.3669179373
 30
0.0
 10
472.1959277843
 20
125.1143856521
 30
0.0
 10
471.4749153114
 20
124.7016657819
 30
0.0
 10
470.4476409207
 20
124.4980205661
 30
0.0
 10
469.5861625171
 20
124.5285143876
 30
0.0
 10
468.7670635628
 20
124.6885499559
 30
0.0
 10
468.1940159453
 20
124.9498856781
 30
0.0
 10
467.8673935631
 20
125.1806582775
 30
0.0
  0
SPLINE
  5
4E8
100
AcDbEntity
  8
KONSTRUKTIONSELEMENTE
100
AcDbSpline
 62
7
  6
CONTINUOUS
 70
0
 71
3
 72
13
 73
9
 74
0
 42
0.0000001
 43
0.0000001
 44
0.0000000001
 40
0.0
 40
0.0
 40
0.0
 40
0.0
 40
0.1234647978
 40
0.2484904704
 40
0.5003324845
 40
0.7519822271
 40
0.8767365739
 40
1.0
 40
1.0
 40
1.0
 40
1.0
 10
475.7607953036
 20
121.5872732072
 30
0.0
 10
475.3692647297
 20
121.2481977838
 30
0.0
 10
474.5117748521
 20
120.6419041231
 30
0.0
 10
472.5949029936
 20
119.763725508
 30
0.0
 10
469.9344608329
 20
119.3324462854
 30
0.0
 10
467.2874046747
 20
119.8344967049
 30
0.0
 10
465.3979905872
 20
120.7643209298
 30
0.0
 10
464.5602534936
 20
121.3944949885
 30
0.0
 10
464.1796251545
 20
121.744517874
 30
0.0
  0
SPLINE
  5
4E9
100
AcDbEntity
  8
KONSTRUKTIONSELEMENTE
100
AcDbSpline
 62
7
  6
CONTINUOUS
 70
0
 71
3
 72
9
 73
5
 74
0
 42
0.0000001
 43
0.0000001
 44
0.0000000001
 40
0.0
 40
0.0
 40
0.0
 40
0.0
 40
0.4702695548
 40
1.0
 40
1.0
 40
1.0
 40
1.0
 10
467.1856939187
 20
134.8596878792
 30
0.0
 10
467.2178712815
 20
134.8874928214
 30
0.0
 10
467.2997254505
 20
134.9319712097
 30
0.0
 10
467.3908901436
 20
134.9441550106
 30
0.0
 10
467.4387836266
 20
134.9451334093
 30
0.0
  0
SPLINE
  5
4EA
100
AcDbEntity
  8
KONSTRUKTIONSELEMENTE
100
AcDbSpline
 62
7
  6
CONTINUOUS
 70
0
 71
3
 72
15
 73
11
 74
0
 42
0.0000001
 43
0.0000001
 44
0.0000000001
 40
0.0
 40
0.0
 40
0.0
 40
0.0
 40
0.0821107363
 40
0.1941187715
 40
0.3307519301
 40
0.4820994956
 40
0.636214369
 40
0.7806389992
 40
0.9045657765
 40
1.0
 40
1.0
 40
1.0
 40
1.0
 10
467.4387836266
 20
134.9451334093
 30
0.0
 10
467.5730538372
 20
134.9478763671
 30
0.0
 10
467.8881947766
 20
134.8594799236
 30
0.0
 10
468.3597512319
 20
134.5934476936
 30
0.0
 10
468.8767547378
 20
134.1881847927
 30
0.0
 10
469.3907631077
 20
133.6779278704
 30
0.0
 10
469.8569488216
 20
133.1069697926
 30
0.0
 10
470.2343092392
 20
132.5256771652
 30
0.0
 10
470.4894344123
 20
131.9871071008
 30
0.0
 10
470.5808712025
 20
131.6339475967
 30
0.0
 10
470.5877276179
 20
131.4780084763
 30
0.0
  0
SPLINE
  5
4EB
100
AcDbEntity
  8
KONSTRUKTIONSELEMENTE
100
AcDbSpline
 62
7
  6
CONTINUOUS
 70
0
 71
3
 72
19
 73
15
 74
0
 42
0.0000001
 43
0.0000001
 44
0.0000000001
 40
0.0
 40
0.0
 40
0.0
 40
0.0
 40
0.0298938292
 40
0.0650835855
 40
0.108466288
 40
0.1609985436
 40
0.2222349321
 40
0.2911550146
 40
0.4456854225
 40
0.6095823449
 40
0.7660354067
 40
0.8997960834
 40
0.9545408033
 40
1.0
 40
1.0
 40
1.0
 40
1.0
 10
467.5392473093
 20
135.165874097
 30
0.0
 10
467.5786069606
 20
135.1998853626
 30
0.0
 10
467.6852434973
 20
135.2507568342
 30
0.0
 10
467.8770773615
 20
135.2564541046
 30
0.0
 10
468.1010094588
 20
135.205501376
 30
0.0
 10
468.3540033001
 20
135.0992206953
 30
0.0
 10
468.6307453584
 20
134.941633319
 30
0.0
 10
469.0363865068
 20
134.6562623754
 30
0.0
 10
469.5401077171
 20
134.2049379131
 30
0.0
 10
470.0866539069
 20
133.5826187091
 30
0.0
 10
470.5349005111
 20
132.9299726642
 30
0.0
 10
470.8043491504
 20
132.3889636109
 30
0.0
 10
470.9191891668
 20
131.9974839367
 30
0.0
 10
470.9421806115
 20
131.82322773
 30
0.0
 10
470.9421806115
 20
131.7441234541
 30
0.0
  0
SPLINE
  5
4EC
100
AcDbEntity
  8
KONSTRUKTIONSELEMENTE
100
AcDbSpline
 62
7
  6
CONTINUOUS
 70
0
 71
3
 72
9
 73
5
 74
0
 42
0.0000001
 43
0.0000001
 44
0.0000000001
 40
0.0
 40
0.0
 40
0.0
 40
0.0
 40
0.546991612
 40
1.0
 40
1.0
 40
1.0
 40
1.0
 10
470.9421806115
 20
131.7441234541
 30
0.0
 10
470.9421806115
 20
131.6725380156
 30
0.0
 10
470.9272753925
 20
131.5396493192
 30
0.0
 10
470.8544381991
 20
131.4229976263
 30
0.0
 10
470.8095800077
 20
131.3842349898
 30
0.0
  0
SPLINE
  5
4ED
100
AcDbEntity
  8
KONSTRUKTIONSELEMENTE
100
AcDbSpline
 62
7
  6
CONTINUOUS
 70
0
 71
3
 72
9
 73
5
 74
0
 42
0.0000001
 43
0.0000001
 44
0.0000000001
 40
0.0
 40
0.0
 40
0.0
 40
0.0
 40
0.244567645
 40
1.0
 40
1.0
 40
1.0
 40
1.0
 10
524.0339463972
 20
167.8910502994
 30
0.0
 10
524.1600466235
 20
168.0002562988
 30
0.0
 10
524.6683699334
 20
168.4551449229
 30
0.0
 10
525.1489002883
 20
168.9409063579
 30
0.0
 10
525.4957432823
 20
169.3219561822
 30
0.0
  0
SPLINE
  5
4EE
100
AcDbEntity
  8
KONSTRUKTIONSELEMENTE
100
AcDbSpline
 62
7
  6
CONTINUOUS
 70
0
 71
3
 72
13
 73
9
 74
0
 42
0.0000001
 43
0.0000001
 44
0.0000000001
 40
0.0
 40
0.0
 40
0.0
 40
0.0
 40
0.2450798975
 40
0.4867641821
 40
0.6110076878
 40
0.7383847014
 40
0.8684495212
 40
1.0
 40
1.0
 40
1.0
 40
1.0
 10
528.5972130892
 20
174.3232047638
 30
0.0
 10
528.7077488096
 20
174.6756301103
 30
0.0
 10
528.8783781048
 20
175.3931955068
 30
0.0
 10
528.8943826841
 20
176.3248099024
 30
0.0
 10
528.7447450164
 20
177.0561339286
 30
0.0
 10
528.5334182111
 20
177.5944883246
 30
0.0
 10
528.221666914
 20
178.095049828
 30
0.0
 10
527.9484362183
 20
178.383691824
 30
0.0
 10
527.798616817
 20
178.5135364723
 30
0.0
  0
SPLINE
  5
4EF
100
AcDbEntity
  8
KONSTRUKTIONSELEMENTE
100
AcDbSpline
 62
7
  6
CONTINUOUS
 70
0
 71
3
 72
24
 73
20
 74
0
 42
0.0000001
 43
0.0000001
 44
0.0000000001
 40
0.0
 40
0.0
 40
0.0
 40
0.0
 40
0.0399684528
 40
0.0656722898
 40
0.0749868115
 40
0.0817678249
 40
0.0908545801
 40
0.1035924024
 40
0.1198773536
 40
0.1395387897
 40
0.1623831141
 40
0.1882178473
 40
0.2480971592
 40
0.3177404014
 40
0.3960771619
 40
0.4821888571
 40
0.5751564087
 40
0.7783595522
 40
1.0
 40
1.0
 40
1.0
 40
1.0
 10
525.6205615895
 20
174.7672639202
 30
0.0
 10
525.6506727459
 20
174.7644377757
 30
0.0
 10
525.7071131844
 20
174.7631441608
 30
0.0
 10
525.746340789
 20
174.7621071429
 30
0.0
 10
525.8005170076
 20
174.7689876124
 30
0.0
 10
525.7712347653
 20
174.7631223021
 30
0.0
 10
525.7539980327
 20
174.7581922305
 30
0.0
 10
525.724827908
 20
174.7496021365
 30
0.0
 10
525.6905950562
 20
174.7376943422
 30
0.0
 10
525.6487600507
 20
174.7219383586
 30
0.0
 10
525.6009338484
 20
174.7024430356
 30
0.0
 10
525.5255712649
 20
174.6696721371
 30
0.0
 10
525.4194494233
 20
174.6190341338
 30
0.0
 10
525.280611152
 20
174.5450175196
 30
0.0
 10
525.1276031716
 20
174.4557009237
 30
0.0
 10
524.9627626625
 20
174.3518663356
 30
0.0
 10
524.7229960484
 20
174.1899623476
 30
0.0
 10
524.4086219375
 20
173.955733701
 30
0.0
 10
524.160724602
 20
173.7508434454
 30
0.0
 10
524.0339463972
 20
173.6410502994
 30
0.0
  0
SPLINE
  5
4F0
100
AcDbEntity
  8
KONSTRUKTIONSELEMENTE
100
AcDbSpline
 62
7
  6
CONTINUOUS
 70
0
 71
3
 72
14
 73
10
 74
0
 42
0.0000001
 43
0.0000001
 44
0.0000000001
 40
0.0
 40
0.0
 40
0.0
 40
0.0
 40
0.1261639273
 40
0.2490859875
 40
0.3675996524
 40
0.4838289665
 40
0.6024561707
 40
0.7271761049
 40
1.0
 40
1.0
 40
1.0
 40
1.0
 10
527.798616817
 20
178.5135364723
 30
0.0
 10
527.5607426151
 20
178.719695967
 30
0.0
 10
527.0212774675
 20
179.0525896585
 30
0.0
 10
526.1201610873
 20
179.2804044019
 30
0.0
 10
525.2193809191
 20
179.2620614263
 30
0.0
 10
524.3560344357
 20
179.0614051746
 30
0.0
 10
523.5232219753
 20
178.720164013
 30
0.0
 10
522.3958948492
 20
178.0934334571
 30
0.0
 10
521.6025625435
 20
177.4883505656
 30
0.0
 10
521.088004879
 20
177.0427305565
 30
0.0
  0
SPLINE
  5
4F1
100
AcDbEntity
  8
KONSTRUKTIONSELEMENTE
100
AcDbSpline
 62
7
  6
CONTINUOUS
 70
0
 71
3
 72
11
 73
7
 74
0
 42
0.0000001
 43
0.0000001
 44
0.0000000001
 40
0.0
 40
0.0
 40
0.0
 40
0.0
 40
0.2560606671
 40
0.5094317095
 40
0.7578652676
 40
1.0
 40
1.0
 40
1.0
 40
1.0
 10
506.7167327414
 20
157.2346578481
 30
0.0
 10
506.8631737801
 20
157.1077411404
 30
0.0
 10
507.1799432391
 20
156.8827722978
 30
0.0
 10
507.7066076999
 20
156.6475362984
 30
0.0
 10
508.2558928291
 20
156.5118126861
 30
0.0
 10
508.6280384702
 20
156.4851425665
 30
0.0
 10
508.8112844159
 20
156.4855678963
 30
0.0
  0
SPLINE
  5
4F2
100
AcDbEntity
  8
KONSTRUKTIONSELEMENTE
100
AcDbSpline
 62
7
  6
CONTINUOUS
 70
0
 71
3
 72
14
 73
10
 74
0
 42
0.0000001
 43
0.0000001
 44
0.0000000001
 40
0.0
 40
0.0
 40
0.0
 40
0.0
 40
0.3076593044
 40
0.4655740208
 40
0.6174499256
 40
0.7563299601
 40
0.8741882754
 40
0.9604979356
 40
1.0
 40
1.0
 40
1.0
 40
1.0
 10
513.4273446794
 20
164.4554637639
 30
0.0
 10
512.9770832807
 20
164.0655259544
 30
0.0
 10
512.3403927749
 20
163.4221734793
 30
0.0
 10
511.5825300534
 20
162.4971943121
 30
0.0
 10
511.0774638191
 20
161.789438928
 30
0.0
 10
510.6659106685
 20
161.1131468922
 30
0.0
 10
510.3680717715
 20
160.5178771253
 30
0.0
 10
510.2043836016
 20
160.0752065323
 30
0.0
 10
510.1454379576
 20
159.8370758113
 30
0.0
 10
510.1391561547
 20
159.760856775
 30
0.0
  0
SPLINE
  5
4F3
100
AcDbEntity
  8
KONSTRUKTIONSELEMENTE
100
AcDbSpline
 62
7
  6
CONTINUOUS
 70
0
 71
3
 72
17
 73
13
 74
0
 42
0.0000001
 43
0.0000001
 44
0.0000000001
 40
0.0
 40
0.0
 40
0.0
 40
0.0
 40
0.1381799396
 40
0.2793498645
 40
0.4167408576
 40
0.5447967012
 40
0.6614058717
 40
0.770730898
 40
0.825836819
 40
0.8824126798
 40
0.9407184285
 40
1.0
 40
1.0
 40
1.0
 40
1.0
 10
510.4814031612
 20
167.857144021
 30
0.0
 10
510.0465769557
 20
167.4805734808
 30
0.0
 10
509.2086472115
 20
166.6708862079
 30
0.0
 10
508.0787198097
 20
165.3513861592
 30
0.0
 10
507.1031659389
 20
163.9647109914
 30
0.0
 10
506.3313412504
 20
162.569560939
 30
0.0
 10
505.7990025628
 20
161.1897653384
 30
0.0
 10
505.6035054709
 20
160.0214668167
 30
0.0
 10
505.6704634892
 20
159.0992913748
 30
0.0
 10
505.8564717901
 20
158.4111567395
 30
0.0
 10
506.1990295214
 20
157.7648449758
 30
0.0
 10
506.5302447303
 20
157.3962822438
 30
0.0
 10
506.7167327414
 20
157.2346578481
 30
0.0
  0
SPLINE
  5
4F4
100
AcDbEntity
  8
KONSTRUKTIONSELEMENTE
100
AcDbSpline
 62
7
  6
CONTINUOUS
 70
0
 71
3
 72
9
 73
5
 74
0
 42
0.0000001
 43
0.0000001
 44
0.0000000001
 40
0.0
 40
0.0
 40
0.0
 40
0.0
 40
0.2442277043
 40
1.0
 40
1.0
 40
1.0
 40
1.0
 10
492.921248025
 20
140.9466631288
 30
0.0
 10
493.0769970896
 20
141.0815457753
 30
0.0
 10
493.703593843
 20
141.646583197
 30
0.0
 10
494.2881568767
 20
142.2579109229
 30
0.0
 10
494.7047983852
 20
142.7405381268
 30
0.0
  0
SPLINE
  5
4F5
100
AcDbEntity
  8
KONSTRUKTIONSELEMENTE
100
AcDbSpline
 62
7
  6
CONTINUOUS
 70
0
 71
3
 72
13
 73
9
 74
0
 42
0.0000001
 43
0.0000001
 44
0.0000000001
 40
0.0
 40
0.0
 40
0.0
 40
0.0
 40
0.2465994456
 40
0.4878359344
 40
0.611665412
 40
0.738649883
 40
0.8685336703
 40
1.0
 40
1.0
 40
1.0
 40
1.0
 10
497.4276753264
 20
147.204942721
 30
0.0
 10
497.5521302465
 20
147.5709974649
 30
0.0
 10
497.7480732715
 20
148.3144796441
 30
0.0
 10
497.7902115095
 20
149.2840663495
 30
0.0
 10
497.651722564
 20
150.0463569562
 30
0.0
 10
497.4425396389
 20
150.6090393522
 30
0.0
 10
497.1245669471
 20
151.1328040228
 30
0.0
 10
496.8416809319
 20
151.4341539327
 30
0.0
 10
496.6859184448
 20
151.5691493017
 30
0.0
  0
SPLINE
  5
4F6
100
AcDbEntity
  8
KONSTRUKTIONSELEMENTE
100
AcDbSpline
 62
7
  6
CONTINUOUS
 70
0
 71
3
 72
24
 73
20
 74
0
 42
0.0000001
 43
0.0000001
 44
0.0000000001
 40
0.0
 40
0.0
 40
0.0
 40
0.0
 40
0.0399684528
 40
0.0656722898
 40
0.0749868115
 40
0.0817678249
 40
0.0908545801
 40
0.1035924024
 40
0.1198773536
 40
0.1395387897
 40
0.1623831141
 40
0.1882178473
 40
0.2480971592
 40
0.3177404014
 40
0.3960771619
 40
0.4821888571
 40
0.5751564087
 40
0.7783595522
 40
1.0
 40
1.0
 40
1.0
 40
1.0
 10
494.5078632173
 20
147.8228767496
 30
0.0
 10
494.5379743737
 20
147.8200506051
 30
0.0
 10
494.5944148122
 20
147.8187569902
 30
0.0
 10
494.6336424168
 20
147.8177199723
 30
0.0
 10
494.6878186354
 20
147.8246004418
 30
0.0
 10
494.6585363931
 20
147.8187351315
 30
0.0
 10
494.6412996605
 20
147.8138050599
 30
0.0
 10
494.6121295358
 20
147.8052149659
 30
0.0
 10
494.577896684
 20
147.7933071716
 30
0.0
 10
494.5360616785
 20
147.777551188
 30
0.0
 10
494.4882354762
 20
147.758055865
 30
0.0
 10
494.4128728927
 20
147.7252849665
 30
0.0
 10
494.3067510511
 20
147.6746469632
 30
0.0
 10
494.1679127797
 20
147.600630349
 30
0.0
 10
494.0149047994
 20
147.5113137531
 30
0.0
 10
493.8500642903
 20
147.407479165
 30
0.0
 10
493.6102976762
 20
147.245575177
 30
0.0
 10
493.2959235653
 20
147.0113465304
 30
0.0
 10
493.0480262298
 20
146.8064562748
 30
0.0
 10
492.921248025
 20
146.6966631288
 30
0.0
  0
SPLINE
  5
4F7
100
AcDbEntity
  8
KONSTRUKTIONSELEMENTE
100
AcDbSpline
 62
7
  6
CONTINUOUS
 70
0
 71
3
 72
14
 73
10
 74
0
 42
0.0000001
 43
0.0000001
 44
0.0000000001
 40
0.0
 40
0.0
 40
0.0
 40
0.0
 40
0.1261639273
 40
0.2490859875
 40
0.3675996524
 40
0.4838289665
 40
0.6024561707
 40
0.7271761049
 40
1.0
 40
1.0
 40
1.0
 40
1.0
 10
496.6859184448
 20
151.5691493017
 30
0.0
 10
496.4480442429
 20
151.7753087964
 30
0.0
 10
495.9085790953
 20
152.1082024878
 30
0.0
 10
495.0074627151
 20
152.3360172313
 30
0.0
 10
494.1066825468
 20
152.3176742557
 30
0.0
 10
493.2433360635
 20
152.117018004
 30
0.0
 10
492.4105236031
 20
151.7757768424
 30
0.0
 10
491.283196477
 20
151.1490462865
 30
0.0
 10
490.4898641713
 20
150.543963395
 30
0.0
 10
489.9753065068
 20
150.0983433858
 30
0.0
  0
SPLINE
  5
4F8
100
AcDbEntity
  8
KONSTRUKTIONSELEMENTE
100
AcDbSpline
 62
7
  6
CONTINUOUS
 70
0
 71
3
 72
9
 73
5
 74
0
 42
0.0000001
 43
0.0000001
 44
0.0000000001
 40
0.0
 40
0.0
 40
0.0
 40
0.0
 40
0.5068172679
 40
1.0
 40
1.0
 40
1.0
 40
1.0
 10
475.6040343692
 20
130.2902706775
 30
0.0
 10
475.8477899529
 20
130.0790139393
 30
0.0
 10
476.4017953176
 20
129.7401191999
 30
0.0
 10
477.0303083
 20
129.5885733288
 30
0.0
 10
477.3426929226
 20
129.5579271994
 30
0.0
  0
SPLINE
  5
4F9
100
AcDbEntity
  8
KONSTRUKTIONSELEMENTE
100
AcDbSpline
 62
7
  6
CONTINUOUS
 70
0
 71
3
 72
14
 73
10
 74
0
 42
0.0000001
 43
0.0000001
 44
0.0000000001
 40
0.0
 40
0.0
 40
0.0
 40
0.0
 40
0.3076593044
 40
0.4655740208
 40
0.6174499256
 40
0.7563299601
 40
0.8741882754
 40
0.9604979356
 40
1.0
 40
1.0
 40
1.0
 40
1.0
 10
482.3146463072
 20
137.5110765933
 30
0.0
 10
481.8643849085
 20
137.1211387837
 30
0.0
 10
481.2276944027
 20
136.4777863087
 30
0.0
 10
480.4698316812
 20
135.5528071415
 30
0.0
 10
479.9647654469
 20
134.8450517574
 30
0.0
 10
479.5532122963
 20
134.1687597216
 30
0.0
 10
479.2553733993
 20
133.5734899546
 30
0.0
 10
479.0916852294
 20
133.1308193617
 30
0.0
 10
479.0327395854
 20
132.8926886407
 30
0.0
 10
479.0264577825
 20
132.8164696044
 30
0.0
  0
SPLINE
  5
4FA
100
AcDbEntity
  8
KONSTRUKTIONSELEMENTE
100
AcDbSpline
 62
7
  6
CONTINUOUS
 70
0
 71
3
 72
17
 73
13
 74
0
 42
0.0000001
 43
0.0000001
 44
0.0000000001
 40
0.0
 40
0.0
 40
0.0
 40
0.0
 40
0.1381799396
 40
0.2793498645
 40
0.4167408576
 40
0.5447967012
 40
0.6614058717
 40
0.770730898
 40
0.825836819
 40
0.8824126798
 40
0.9407184285
 40
1.0
 40
1.0
 40
1.0
 40
1.0
 10
479.368704789
 20
140.9127568504
 30
0.0
 10
478.9338785834
 20
140.5361863102
 30
0.0
 10
478.0959488393
 20
139.7264990372
 30
0.0
 10
476.9660214375
 20
138.4069989886
 30
0.0
 10
475.9904675667
 20
137.0203238208
 30
0.0
 10
475.2186428782
 20
135.6251737684
 30
0.0
 10
474.6863041906
 20
134.2453781678
 30
0.0
 10
474.4908070987
 20
133.0770796461
 30
0.0
 10
474.557765117
 20
132.1549042042
 30
0.0
 10
474.7437734179
 20
131.4667695689
 30
0.0
 10
475.0863311491
 20
130.8204578052
 30
0.0
 10
475.4175463581
 20
130.4518950732
 30
0.0
 10
475.6040343692
 20
130.2902706775
 30
0.0
  0
SPLINE
  5
4FB
100
AcDbEntity
  8
KONSTRUKTIONSELEMENTE
100
AcDbSpline
 62
7
  6
CONTINUOUS
 70
0
 71
3
 72
11
 73
7
 74
0
 42
0.0000001
 43
0.0000001
 44
0.0000000001
 40
0.0
 40
0.0
 40
0.0
 40
0.0
 40
0.247258039
 40
0.4956520534
 40
0.7463451021
 40
1.0
 40
1.0
 40
1.0
 40
1.0
 10
488.3981004433
 20
149.8073232856
 30
0.0
 10
488.3979049764
 20
150.2973285649
 30
0.0
 10
488.5089807759
 20
151.2830788664
 30
0.0
 10
488.9988922856
 20
152.6908533336
 30
0.0
 10
489.7859320005
 20
153.9709422103
 30
0.0
 10
490.4791978537
 20
154.7020091035
 30
0.0
 10
490.8591899833
 20
155.031091941
 30
0.0
  0
SPLINE
  5
4FC
100
AcDbEntity
  8
KONSTRUKTIONSELEMENTE
100
AcDbSpline
 62
7
  6
CONTINUOUS
 70
0
 71
3
 72
11
 73
7
 74
0
 42
0.0000001
 43
0.0000001
 44
0.0000000001
 40
0.0
 40
0.0
 40
0.0
 40
0.0
 40
0.247258039
 40
0.4956520534
 40
0.7463451021
 40
1.0
 40
1.0
 40
1.0
 40
1.0
 10
515.0045507429
 20
158.9964838642
 30
0.0
 10
515.0047462098
 20
158.5064785848
 30
0.0
 10
514.8936704102
 20
157.5207282834
 30
0.0
 10
514.4037589006
 20
156.1129538162
 30
0.0
 10
513.6167191857
 20
154.8328649395
 30
0.0
 10
512.9234533324
 20
154.1017980462
 30
0.0
 10
512.5434612029
 20
153.7727152088
 30
0.0
  0
SPLINE
  5
4FD
100
AcDbEntity
  8
KONSTRUKTIONSELEMENTE
100
AcDbSpline
 62
7
  6
CONTINUOUS
 70
0
 71
3
 72
9
 73
5
 74
0
 42
0.0000001
 43
0.0000001
 44
0.0000000001
 40
0.0
 40
0.0
 40
0.0
 40
0.0
 40
0.2390508737
 40
1.0
 40
1.0
 40
1.0
 40
1.0
 10
504.636463767
 20
160.9927994746
 30
0.0
 10
504.7321082348
 20
161.0619810654
 30
0.0
 10
505.1469523118
 20
161.3307334589
 30
0.0
 10
505.6158020697
 20
161.5135015967
 30
0.0
 10
505.9808854752
 20
161.6024086423
 30
0.0
  0
SPLINE
  5
4FE
100
AcDbEntity
  8
KONSTRUKTIONSELEMENTE
100
AcDbSpline
 62
7
  6
CONTINUOUS
 70
0
 71
3
 72
9
 73
5
 74
0
 42
0.0000001
 43
0.0000001
 44
0.0000000001
 40
0.0
 40
0.0
 40
0.0
 40
0.0
 40
0.2598514407
 40
1.0
 40
1.0
 40
1.0
 40
1.0
 10
510.3230660196
 20
159.8508988902
 30
0.0
 10
510.3533473816
 20
159.7810631399
 30
0.0
 10
510.456651104
 20
159.5068193892
 30
0.0
 10
510.5051014316
 20
159.2115047438
 30
0.0
 10
510.5051136576
 20
158.9946930274
 30
0.0
  0
SPLINE
  5
4FF
100
AcDbEntity
  8
KONSTRUKTIONSELEMENTE
100
AcDbSpline
 62
7
  6
CONTINUOUS
 70
0
 71
3
 72
9
 73
5
 74
0
 42
0.0000001
 43
0.0000001
 44
0.0000000001
 40
0.0
 40
0.0
 40
0.0
 40
0.0
 40
0.4614411915
 40
1.0
 40
1.0
 40
1.0
 40
1.0
 10
510.5051136576
 20
158.9946930274
 30
0.0
 10
510.5051317184
 20
158.6744108452
 30
0.0
 10
510.3336378969
 20
157.9739506138
 30
0.0
 10
509.8800925976
 20
157.4191107869
 30
0.0
 10
509.5975196847
 20
157.1743954659
 30
0.0
  0
SPLINE
  5
500
100
AcDbEntity
  8
KONSTRUKTIONSELEMENTE
100
AcDbSpline
 62
7
  6
CONTINUOUS
 70
0
 71
3
 72
9
 73
5
 74
0
 42
0.0000001
 43
0.0000001
 44
0.0000000001
 40
0.0
 40
0.0
 40
0.0
 40
0.0
 40
0.4898470903
 40
1.0
 40
1.0
 40
1.0
 40
1.0
 10
498.9909179669
 20
147.9888089305
 30
0.0
 10
498.3932090377
 20
147.4711778137
 30
0.0
 10
496.7765893467
 20
146.8586341913
 30
0.0
 10
495.0904004855
 20
147.1890599461
 30
0.0
 10
494.3723919727
 20
147.5922586345
 30
0.0
  0
SPLINE
  5
501
100
AcDbEntity
  8
KONSTRUKTIONSELEMENTE
100
AcDbSpline
 62
7
  6
CONTINUOUS
 70
0
 71
3
 72
11
 73
7
 74
0
 42
0.0000001
 43
0.0000001
 44
0.0000000001
 40
0.0
 40
0.0
 40
0.0
 40
0.0
 40
0.245958326
 40
0.4956468363
 40
0.7476883331
 40
1.0
 40
1.0
 40
1.0
 40
1.0
 10
501.4657917011
 20
164.2166784764
 30
0.0
 10
501.9434856546
 20
164.6303735754
 30
0.0
 10
503.01323537
 20
165.3473145017
 30
0.0
 10
504.8269578154
 20
166.0265876363
 30
0.0
 10
506.7612071028
 20
166.2924174168
 30
0.0
 10
508.064892972
 20
166.1848610786
 30
0.0
 10
508.7011207918
 20
166.0605783934
 30
0.0
  0
SPLINE
  5
502
100
AcDbEntity
  8
KONSTRUKTIONSELEMENTE
100
AcDbSpline
 62
7
  6
CONTINUOUS
 70
0
 71
3
 72
11
 73
7
 74
0
 42
0.0000001
 43
0.0000001
 44
0.0000000001
 40
0.0
 40
0.0
 40
0.0
 40
0.0
 40
0.2532343944
 40
0.50377714
 40
0.752387739
 40
1.0
 40
1.0
 40
1.0
 40
1.0
 10
512.8601708267
 20
163.9263463267
 30
0.0
 10
513.1942944796
 20
163.6022845417
 30
0.0
 10
513.8008864491
 20
162.8939918844
 30
0.0
 10
514.484576162
 20
161.681722073
 30
0.0
 10
514.9085487558
 20
160.3664737834
 30
0.0
 10
515.004369189
 20
159.4516117369
 30
0.0
 10
515.0045507429
 20
158.9964838642
 30
0.0
  0
SPLINE
  5
503
100
AcDbEntity
  8
KONSTRUKTIONSELEMENTE
100
AcDbSpline
 62
7
  6
CONTINUOUS
 70
0
 71
3
 72
13
 73
9
 74
0
 42
0.0000001
 43
0.0000001
 44
0.0000000001
 40
0.0
 40
0.0
 40
0.0
 40
0.0
 40
0.1233769833
 40
0.2483733747
 40
0.5003778919
 40
0.7521575176
 40
0.8768774439
 40
1.0
 40
1.0
 40
1.0
 40
1.0
 10
501.9368594851
 20
144.5871286734
 30
0.0
 10
501.5563515609
 20
144.2575991446
 30
0.0
 10
500.7226392434
 20
143.6683936714
 30
0.0
 10
498.8575565933
 20
142.8156482733
 30
0.0
 10
496.2686882597
 20
142.3984137766
 30
0.0
 10
493.6935976216
 20
142.8894317717
 30
0.0
 10
491.857620097
 20
143.7965237166
 30
0.0
 10
491.0445515856
 20
144.4104829063
 30
0.0
 10
490.6756301888
 20
144.7514067257
 30
0.0
  0
LINE
  5
504
100
AcDbEntity
  8
BEZUGSACHSEN
100
AcDbLine
 62
7
  6
CONTINUOUS
 10
567.0726384255
 20
207.1178580229
 11
567.0681895166
 21
207.0978800325
  0
LINE
  5
505
100
AcDbEntity
  8
BEZUGSACHSEN
100
AcDbLine
 62
7
  6
CONTINUOUS
 10
567.0681895166
 20
207.0978800325
 11
567.0003020888
 21
206.7925769875
  0
LINE
  5
506
100
AcDbEntity
  8
BEZUGSACHSEN
100
AcDbLine
 62
7
  6
CONTINUOUS
 10
567.0223844162
 20
205.8800455884
 11
567.0200258828
 21
205.9160514259
  0
LINE
  5
507
100
AcDbEntity
  8
BEZUGSACHSEN
100
AcDbLine
 62
7
  6
CONTINUOUS
 10
567.0136720418
 20
206.0241294899
 11
567.0225455496
 21
206.0691345503
  0
LINE
  5
508
100
AcDbEntity
  8
BEZUGSACHSEN
100
AcDbLine
 62
7
  6
CONTINUOUS
 10
567.0225455496
 20
206.0691345503
 11
567.0257223811
 21
206.0852465934
  0
LINE
  5
509
100
AcDbEntity
  8
BEZUGSACHSEN
100
AcDbLine
 62
7
  6
CONTINUOUS
 10
567.0257223811
 20
206.0852465934
 11
567.0675786765
 21
206.297513352
  0
LINE
  5
50A
100
AcDbEntity
  8
BEZUGSACHSEN
100
AcDbLine
 62
7
  6
CONTINUOUS
 10
566.9910423943
 20
207.3065396138
 11
567.0005358177
 21
207.3715661533
  0
SPLINE
  5
50B
100
AcDbEntity
  8
BEZUGSACHSEN
100
AcDbSpline
 62
7
  6
CONTINUOUS
 70
0
 71
3
 72
9
 73
5
 74
0
 42
0.0000001
 43
0.0000001
 44
0.0000000001
 40
0.0
 40
0.0
 40
0.0
 40
0.0
 40
0.2766747133
 40
1.0
 40
1.0
 40
1.0
 40
1.0
 10
567.7133169743
 20
211.4047067063
 30
0.0
 10
567.7113797509
 20
211.402359242
 30
0.0
 10
567.704767793
 20
211.3935914183
 30
0.0
 10
567.6999520572
 20
211.383250235
 30
0.0
 10
567.6985009892
 20
211.3754266542
 30
0.0
  0
LINE
  5
50C
100
AcDbEntity
  8
BEZUGSACHSEN
100
AcDbLine
 62
7
  6
CONTINUOUS
 10
567.0696664566
 20
207.9487543963
 11
567.1338937632
 21
208.2862706853
  0
LINE
  5
50D
100
AcDbEntity
  8
BEZUGSACHSEN
100
AcDbLine
 62
7
  6
CONTINUOUS
 10
567.1338937632
 20
208.2862706853
 11
567.213316707
 21
208.7102920251
  0
LINE
  5
50E
100
AcDbEntity
  8
BEZUGSACHSEN
100
AcDbLine
 62
7
  6
CONTINUOUS
 10
567.449593713
 20
209.9866082289
 11
567.213316707
 21
208.7102920251
  0
LINE
  5
50F
100
AcDbEntity
  8
BEZUGSACHSEN
100
AcDbLine
 62
7
  6
CONTINUOUS
 10
567.5277656896
 20
210.4134645172
 11
567.449593713
 21
209.9866082289
  0
LINE
  5
510
100
AcDbEntity
  8
BEZUGSACHSEN
100
AcDbLine
 62
7
  6
CONTINUOUS
 10
567.5897587452
 20
210.7566501996
 11
567.5277656896
 21
210.4134645172
  0
LINE
  5
511
100
AcDbEntity
  8
BEZUGSACHSEN
100
AcDbLine
 62
7
  6
CONTINUOUS
 10
567.6513092271
 20
211.1026705922
 11
567.6049393869
 21
210.8424006182
  0
LINE
  5
512
100
AcDbEntity
  8
BEZUGSACHSEN
100
AcDbLine
 62
7
  6
CONTINUOUS
 10
567.6049393869
 20
210.8424006182
 11
567.5897587452
 21
210.7566501996
  0
SPLINE
  5
513
100
AcDbEntity
  8
KONSTRUKTIONSELEMENTE
100
AcDbSpline
 62
7
  6
CONTINUOUS
 70
0
 71
3
 72
9
 73
5
 74
0
 42
0.0000001
 43
0.0000001
 44
0.0000000001
 40
0.0
 40
0.0
 40
0.0
 40
0.0
 40
0.4930472412
 40
1.0
 40
1.0
 40
1.0
 40
1.0
 10
549.6272273823
 20
181.6883250571
 30
0.0
 10
550.9017368518
 20
182.792082635
 30
0.0
 10
553.3770572485
 20
185.1591339955
 30
0.0
 10
555.6411404102
 20
187.7278369327
 30
0.0
 10
556.7310006818
 20
189.0759707945
 30
0.0
  0
SPLINE
  5
514
100
AcDbEntity
  8
KONSTRUKTIONSELEMENTE
100
AcDbSpline
 62
7
  6
CONTINUOUS
 70
0
 71
3
 72
13
 73
9
 74
0
 42
0.0000001
 43
0.0000001
 44
0.0000000001
 40
0.0
 40
0.0
 40
0.0
 40
0.0
 40
0.2665751266
 40
0.3918281567
 40
0.5137342803
 40
0.7544185804
 40
0.8767044937
 40
1.0
 40
1.0
 40
1.0
 40
1.0
 10
564.6166823898
 20
203.0956447755
 30
0.0
 10
564.8380676684
 20
203.9104903048
 30
0.0
 10
565.0890829972
 20
205.1333403157
 30
0.0
 10
565.1812167781
 20
206.7611595507
 30
0.0
 10
565.0936651083
 20
208.3056675624
 30
0.0
 10
564.6822516146
 20
209.8194598954
 30
0.0
 10
563.8767159037
 20
211.1425707824
 30
0.0
 10
563.3411377952
 20
211.7162374585
 30
0.0
 10
563.0456577656
 20
211.9716089323
 30
0.0
  0
SPLINE
  5
515
100
AcDbEntity
  8
KONSTRUKTIONSELEMENTE
100
AcDbSpline
 62
7
  6
CONTINUOUS
 70
0
 71
3
 72
19
 73
15
 74
0
 42
0.0000001
 43
0.0000001
 44
0.0000000001
 40
0.0
 40
0.0
 40
0.0
 40
0.0
 40
0.1463712
 40
0.2968003233
 40
0.4441138256
 40
0.5815946947
 40
0.6450087779
 40
0.7043267543
 40
0.7594923199
 40
0.8108474075
 40
0.8592559102
 40
0.9060360039
 40
0.9526828682
 40
1.0
 40
1.0
 40
1.0
 40
1.0
 10
545.6993053581
 20
206.7238987332
 30
0.0
 10
544.3933259789
 20
205.5928874139
 30
0.0
 10
541.8600428585
 20
203.1645961475
 30
0.0
 10
538.4017307949
 20
199.2171169784
 30
0.0
 10
535.3598514201
 20
195.0695310122
 30
0.0
 10
533.2495948407
 20
191.5324641401
 30
0.0
 10
531.9207322599
 20
188.7613274361
 30
0.0
 10
531.1455256462
 20
186.8077329458
 30
0.0
 10
530.5763981572
 20
184.9320470464
 30
0.0
 10
530.2265724246
 20
183.1330603979
 30
0.0
 10
530.1219532058
 20
181.4002045227
 30
0.0
 10
530.3100541821
 20
179.725821363
 30
0.0
 10
530.8603323426
 20
178.1412788826
 30
0.0
 10
531.5058683802
 20
177.2160982202
 30
0.0
 10
531.8911211722
 20
176.8117527314
 30
0.0
  0
SPLINE
  5
516
100
AcDbEntity
  8
KONSTRUKTIONSELEMENTE
100
AcDbSpline
 62
7
  6
CONTINUOUS
 70
0
 71
3
 72
29
 73
25
 74
0
 42
0.0000001
 43
0.0000001
 44
0.0000000001
 40
0.0
 40
0.0
 40
0.0
 40
0.0
 40
0.0038425111
 40
0.006877826
 40
0.0083401759
 40
0.0090978557
 40
0.0122169244
 40
0.0179337516
 40
0.0265411311
 40
0.0382974786
 40
0.0531437932
 40
0.0709517797
 40
0.0916105212
 40
0.1150179064
 40
0.1410570151
 40
0.1696072658
 40
0.2337651466
 40
0.3066512757
 40
0.3874470915
 40
0.475421617
 40
0.5698903892
 40
0.6702089349
 40
0.7757710248
 40
1.0
 40
1.0
 40
1.0
 40
1.0
 10
559.128602228
 20
207.4341419436
 30
0.0
 10
559.139999857
 20
207.4254478468
 30
0.0
 10
559.1635132295
 20
207.4088647783
 30
0.0
 10
559.1800059894
 20
207.3951741543
 30
0.0
 10
559.2100090214
 20
207.3766619031
 30
0.0
 10
559.1830899512
 20
207.3828362201
 30
0.0
 10
559.1550418767
 20
207.3915176151
 30
0.0
 10
559.0866004299
 20
207.4030105768
 30
0.0
 10
558.9916786929
 20
207.4117523368
 30
0.0
 10
558.859355028
 20
207.4137161646
 30
0.0
 10
558.6940945989
 20
207.4061166995
 30
0.0
 10
558.4960112889
 20
207.3859245167
 30
0.0
 10
558.2679054
 20
207.350104827
 30
0.0
 10
558.0118482059
 20
207.296294045
 30
0.0
 10
557.7299264753
 20
207.2239390119
 30
0.0
 10
557.3055158874
 20
207.0965637279
 30
0.0
 10
556.7248209975
 20
206.8840933005
 30
0.0
 10
555.980363508
 20
206.5570701229
 30
0.0
 10
555.1759197617
 20
206.1491702311
 30
0.0
 10
554.322329289
 20
205.6628877467
 30
0.0
 10
553.4288751075
 20
205.1015168581
 30
0.0
 10
552.5039043687
 20
204.4686268373
 30
0.0
 10
551.2125371515
 20
203.515818512
 30
0.0
 10
550.2595757089
 20
202.7359547719
 30
0.0
 10
549.6272273823
 20
202.1883250571
 30
0.0
  0
SPLINE
  5
517
100
AcDbEntity
  8
KONSTRUKTIONSELEMENTE
100
AcDbSpline
 62
7
  6
CONTINUOUS
 70
0
 71
3
 72
9
 73
5
 74
0
 42
0.0000001
 43
0.0000001
 44
0.0000000001
 40
0.0
 40
0.0
 40
0.0
 40
0.0
 40
0.4908670988
 40
1.0
 40
1.0
 40
1.0
 40
1.0
 10
545.6993053581
 20
186.2238987332
 30
0.0
 10
546.723727653
 20
187.1110744648
 30
0.0
 10
548.7298854544
 20
189.0129289552
 30
0.0
 10
550.5824837968
 20
191.0638209485
 30
0.0
 10
551.4843427777
 20
192.1419646856
 30
0.0
  0
SPLINE
  5
518
100
AcDbEntity
  8
KONSTRUKTIONSELEMENTE
100
AcDbSpline
 62
7
  6
CONTINUOUS
 70
0
 71
3
 72
9
 73
5
 74
0
 42
0.0000001
 43
0.0000001
 44
0.0000000001
 40
0.0
 40
0.0
 40
0.0
 40
0.0
 40
0.3121972729
 40
1.0
 40
1.0
 40
1.0
 40
1.0
 10
559.1518892205
 20
206.5077524538
 30
0.0
 10
559.1560846822
 20
206.5870811684
 30
0.0
 10
559.164010559
 20
206.8412709478
 30
0.0
 10
559.1500239904
 20
207.0972278344
 30
0.0
 10
559.1192030294
 20
207.2695061514
 30
0.0
  0
SPLINE
  5
519
100
AcDbEntity
  8
KONSTRUKTIONSELEMENTE
100
AcDbSpline
 62
7
  6
CONTINUOUS
 70
0
 71
3
 72
9
 73
5
 74
0
 42
0.0000001
 43
0.0000001
 44
0.0000000001
 40
0.0
 40
0.0
 40
0.0
 40
0.0
 40
0.2922909709
 40
1.0
 40
1.0
 40
1.0
 40
1.0
 10
559.1192030294
 20
207.2695061514
 30
0.0
 10
559.1166990017
 20
207.2835027843
 30
0.0
 10
559.1076231712
 20
207.3312941534
 30
0.0
 10
559.0967053124
 20
207.3787503763
 30
0.0
 10
559.0876387526
 20
207.4119624558
 30
0.0
  0
SPLINE
  5
51A
100
AcDbEntity
  8
KONSTRUKTIONSELEMENTE
100
AcDbSpline
 62
7
  6
CONTINUOUS
 70
0
 71
3
 72
9
 73
5
 74
0
 42
0.0000001
 43
0.0000001
 44
0.0000000001
 40
0.0
 40
0.0
 40
0.0
 40
0.0
 40
0.2129668983
 40
1.0
 40
1.0
 40
1.0
 40
1.0
 10
536.2185020067
 20
181.013247468
 30
0.0
 10
536.2258035201
 20
181.012132018
 30
0.0
 10
536.2601535378
 20
181.0073243097
 30
0.0
 10
536.2947408511
 20
181.0042780545
 30
0.0
 10
536.3219886461
 20
181.0026518509
 30
0.0
  0
SPLINE
  5
51B
100
AcDbEntity
  8
KONSTRUKTIONSELEMENTE
100
AcDbSpline
 62
7
  6
CONTINUOUS
 70
0
 71
3
 72
9
 73
5
 74
0
 42
0.0000001
 43
0.0000001
 44
0.0000000001
 40
0.0
 40
0.0
 40
0.0
 40
0.0
 40
0.23512902
 40
1.0
 40
1.0
 40
1.0
 40
1.0
 10
536.3219886461
 20
181.0026518509
 30
0.0
 10
536.3272337734
 20
181.0023388111
 30
0.0
 10
536.3495485718
 20
181.0011318476
 30
0.0
 10
536.3718885045
 20
181.0004061731
 30
0.0
 10
536.3889779948
 20
181.0000761458
 30
0.0
  0
SPLINE
  5
51C
100
AcDbEntity
  8
KONSTRUKTIONSELEMENTE
100
AcDbSpline
 62
7
  6
CONTINUOUS
 70
0
 71
3
 72
9
 73
5
 74
0
 42
0.0000001
 43
0.0000001
 44
0.0000000001
 40
0.0
 40
0.0
 40
0.0
 40
0.0
 40
0.4751668021
 40
1.0
 40
1.0
 40
1.0
 40
1.0
 10
541.4632605658
 20
183.0398956768
 30
0.0
 10
542.1741589051
 20
183.4872315902
 30
0.0
 10
543.6255006782
 20
184.5003720276
 30
0.0
 10
544.9980110042
 20
185.6165600072
 30
0.0
 10
545.6993053581
 20
186.2238987332
 30
0.0
  0
SPLINE
  5
51D
100
AcDbEntity
  8
KONSTRUKTIONSELEMENTE
100
AcDbSpline
 62
7
  6
CONTINUOUS
 70
0
 71
3
 72
17
 73
13
 74
0
 42
0.0000001
 43
0.0000001
 44
0.0000000001
 40
0.0
 40
0.0
 40
0.0
 40
0.0
 40
0.054272456
 40
0.1081063965
 40
0.1614219537
 40
0.2144031746
 40
0.3216905582
 40
0.4354499083
 40
0.5594736346
 40
0.6952881283
 40
0.8426555219
 40
1.0
 40
1.0
 40
1.0
 40
1.0
 10
563.0456577656
 20
211.9716089323
 30
0.0
 10
562.7781319247
 20
212.2028207281
 30
0.0
 10
562.2003851507
 20
212.6144905842
 30
0.0
 10
561.2392241027
 20
213.0547169791
 30
0.0
 10
560.2261156037
 20
213.3229531657
 30
0.0
 10
558.8374065229
 20
213.4667773027
 30
0.0
 10
557.0430868767
 20
213.2934920095
 30
0.0
 10
554.8792860775
 20
212.6521708858
 30
0.0
 10
552.6568177883
 20
211.6454422702
 30
0.0
 10
550.364160457
 20
210.3030806605
 30
0.0
 10
548.0148313794
 20
208.6497410239
 30
0.0
 10
546.4742279696
 20
207.3950014007
 30
0.0
 10
545.6993053581
 20
206.7238987332
 30
0.0
  0
SPLINE
  5
51E
100
AcDbEntity
  8
KONSTRUKTIONSELEMENTE
100
AcDbSpline
 62
7
  6
CONTINUOUS
 70
0
 71
3
 72
22
 73
18
 74
0
 42
0.0000001
 43
0.0000001
 44
0.0000000001
 40
0.0
 40
0.0
 40
0.0
 40
0.0
 40
0.162321669
 40
0.3306247035
 40
0.4967012546
 40
0.6523451692
 40
0.7237421349
 40
0.7894880903
 40
0.848533679
 40
0.8997486967
 40
0.941866517
 40
0.9590746233
 40
0.9734537589
 40
0.9848015971
 40
0.9930216311
 40
0.9980486857
 40
1.0
 40
1.0
 40
1.0
 40
1.0
 10
549.6272273823
 20
202.1883250571
 30
0.0
 10
548.5730359102
 20
201.2753684617
 30
0.0
 10
546.5112030151
 20
199.3157097926
 30
0.0
 10
543.6581500983
 20
196.1368479547
 30
0.0
 10
541.0959928545
 20
192.7909431056
 30
0.0
 10
539.2691377919
 20
189.944037144
 30
0.0
 10
538.0746009819
 20
187.7290970559
 30
0.0
 10
537.3590022326
 20
186.2019035712
 30
0.0
 10
536.8073355298
 20
184.792538437
 30
0.0
 10
536.4265400146
 20
183.5385758646
 30
0.0
 10
536.237153585
 20
182.6055720689
 30
0.0
 10
536.1740834834
 20
181.9750636906
 30
0.0
 10
536.1630147954
 20
181.6059494351
 30
0.0
 10
536.1793885668
 20
181.3144330563
 30
0.0
 10
536.2113722367
 20
181.1049972501
 30
0.0
 10
536.244076989
 20
180.9787192127
 30
0.0
 10
536.2631537017
 20
180.9214832589
 30
0.0
 10
536.2709745478
 20
180.9066548718
 30
0.0
  0
SPLINE
  5
51F
100
AcDbEntity
  8
KONSTRUKTIONSELEMENTE
100
AcDbSpline
 62
7
  6
CONTINUOUS
 70
0
 71
3
 72
11
 73
7
 74
0
 42
0.0000001
 43
0.0000001
 44
0.0000000001
 40
0.0
 40
0.0
 40
0.0
 40
0.0
 40
0.2097914905
 40
0.4448755675
 40
0.7092742741
 40
1.0
 40
1.0
 40
1.0
 40
1.0
 10
537.5302490252
 20
175.0683659167
 30
0.0
 10
538.4989307176
 20
175.1873585065
 30
0.0
 10
540.5161127225
 20
175.7416055563
 30
0.0
 10
543.4954983057
 20
177.1809812264
 30
0.0
 10
546.584475397
 20
179.1883917218
 30
0.0
 10
548.6048532539
 20
180.8029230896
 30
0.0
 10
549.6272273823
 20
181.6883250571
 30
0.0
  0
SPLINE
  5
520
100
AcDbEntity
  8
0
100
AcDbSpline
 62
7
  6
CONTINUOUS
 70
0
 71
3
 72
13
 73
9
 74
0
 42
0.0000001
 43
0.0000001
 44
0.0000000001
 40
0.0
 40
0.0
 40
0.0
 40
0.0
 40
0.1163023557
 40
0.2340384021
 40
0.3543786332
 40
0.4780387852
 40
0.7344041874
 40
1.0
 40
1.0
 40
1.0
 40
1.0
 10
576.5584503212
 20
174.2374621033
 30
0.0
 10
576.5584503212
 20
173.9823986667
 30
0.0
 10
576.499562095
 20
173.4672739574
 30
0.0
 10
576.2390833563
 20
172.7286246035
 30
0.0
 10
575.8173209168
 20
172.0494935741
 30
0.0
 10
575.0558029124
 20
171.2501703016
 30
0.0
 10
573.7950152285
 20
170.5336354659
 30
0.0
 10
572.6409301882
 20
170.3403477863
 30
0.0
 10
572.0584503212
 20
170.3403477863
 30
0.0
  0
SPLINE
  5
521
100
AcDbEntity
  8
0
100
AcDbSpline
 62
7
  6
CONTINUOUS
 70
0
 71
3
 72
13
 73
9
 74
0
 42
0.0000001
 43
0.0000001
 44
0.0000000001
 40
0.0
 40
0.0
 40
0.0
 40
0.0
 40
0.2655958126
 40
0.5219612148
 40
0.6456213668
 40
0.7659615979
 40
0.8836976443
 40
1.0
 40
1.0
 40
1.0
 40
1.0
 10
572.0584503212
 20
170.3403477863
 30
0.0
 10
571.4759704541
 20
170.3403477863
 30
0.0
 10
570.3218854138
 20
170.5336354659
 30
0.0
 10
569.0610977299
 20
171.2501703016
 30
0.0
 10
568.2995797255
 20
172.0494935741
 30
0.0
 10
567.877817286
 20
172.7286246035
 30
0.0
 10
567.6173385473
 20
173.4672739574
 30
0.0
 10
567.5584503212
 20
173.9823986667
 30
0.0
 10
567.5584503212
 20
174.2374621033
 30
0.0
  0
SPLINE
  5
522
100
AcDbEntity
  8
KONSTRUKTIONSELEMENTE
100
AcDbSpline
 62
7
  6
CONTINUOUS
 70
0
 71
3
 72
9
 73
5
 74
0
 42
0.0000001
 43
0.0000001
 44
0.0000000001
 40
0.0
 40
0.0
 40
0.0
 40
0.0
 40
0.2417174596
 40
1.0
 40
1.0
 40
1.0
 40
1.0
 10
581.5753144962
 20
164.6544882708
 30
0.0
 10
581.6884454371
 20
164.8152466819
 30
0.0
 10
582.1428942673
 20
165.4898977158
 30
0.0
 10
582.5510932753
 20
166.1946297224
 30
0.0
 10
582.8462807678
 20
166.7360584243
 30
0.0
  0
SPLINE
  5
523
100
AcDbEntity
  8
KONSTRUKTIONSELEMENTE
100
AcDbSpline
 62
7
  6
CONTINUOUS
 70
0
 71
3
 72
10
 73
6
 74
0
 42
0.0000001
 43
0.0000001
 44
0.0000000001
 40
0.0
 40
0.0
 40
0.0
 40
0.0
 40
0.499171325
 40
0.7576142525
 40
1.0
 40
1.0
 40
1.0
 40
1.0
 10
582.9065265325
 20
164.5027966629
 30
0.0
 10
583.0109336214
 20
164.2190351848
 30
0.0
 10
583.1547712212
 20
163.7819133383
 30
0.0
 10
583.2798118382
 20
163.1886387257
 30
0.0
 10
583.3084503212
 20
162.8852577159
 30
0.0
 10
583.3084503212
 20
162.7384389993
 30
0.0
  0
SPLINE
  5
524
100
AcDbEntity
  8
KONSTRUKTIONSELEMENTE
100
AcDbSpline
 62
7
  6
CONTINUOUS
 70
0
 71
3
 72
10
 73
6
 74
0
 42
0.0000001
 43
0.0000001
 44
0.0000000001
 40
0.0
 40
0.0
 40
0.0
 40
0.0
 40
0.5565648577
 40
0.7985290681
 40
1.0
 40
1.0
 40
1.0
 40
1.0
 10
582.8462807678
 20
166.7360584243
 30
0.0
 10
582.9807133628
 20
166.9826327787
 30
0.0
 10
583.1531895039
 20
167.3503678206
 30
0.0
 10
583.2839076698
 20
167.83896525
 30
0.0
 10
583.3084503212
 20
168.0628104729
 30
0.0
 10
583.3084503212
 20
168.1644717086
 30
0.0
  0
SPLINE
  5
525
100
AcDbEntity
  8
0
100
AcDbSpline
 62
7
  6
CONTINUOUS
 70
0
 71
3
 72
9
 73
5
 74
0
 42
0.0000001
 43
0.0000001
 44
0.0000000001
 40
0.0
 40
0.0
 40
0.0
 40
0.0
 40
0.4983025356
 40
1.0
 40
1.0
 40
1.0
 40
1.0
 10
560.8084503212
 20
152.673434891
 30
0.0
 10
560.8084503212
 20
152.426407546
 30
0.0
 10
560.8830615397
 20
151.9279146128
 30
0.0
 10
561.0991367954
 20
151.4732301062
 30
0.0
 10
561.2358915676
 20
151.2654923748
 30
0.0
  0
SPLINE
  5
526
100
AcDbEntity
  8
0
100
AcDbSpline
 62
7
  6
CONTINUOUS
 70
0
 71
3
 72
9
 73
5
 74
0
 42
0.0000001
 43
0.0000001
 44
0.0000000001
 40
0.0
 40
0.0
 40
0.0
 40
0.0
 40
0.5017090063
 40
1.0
 40
1.0
 40
1.0
 40
1.0
 10
561.2443492192
 20
179.4416813524
 30
0.0
 10
561.104979082
 20
179.2326261466
 30
0.0
 10
560.8846308323
 20
178.7741218084
 30
0.0
 10
560.8084503212
 20
178.2704971187
 30
0.0
 10
560.8084503212
 20
178.0209557524
 30
0.0
  0
SPLINE
  5
527
100
AcDbEntity
  8
0
100
AcDbSpline
 62
7
  6
CONTINUOUS
 70
0
 71
3
 72
9
 73
5
 74
0
 42
0.0000001
 43
0.0000001
 44
0.0000000001
 40
0.0
 40
0.0
 40
0.0
 40
0.0
 40
0.2483050497
 40
1.0
 40
1.0
 40
1.0
 40
1.0
 10
568.9969693518
 20
216.8597090616
 30
0.0
 10
569.0060082012
 20
216.908463476
 30
0.0
 10
569.0446425954
 20
217.1043947164
 30
0.0
 10
569.0919568399
 20
217.2985919576
 30
0.0
 10
569.1318222541
 20
217.4433110755
 30
0.0
  0
SPLINE
  5
528
100
AcDbEntity
  8
RUNDUNGEN
100
AcDbSpline
 62
7
  6
CONTINUOUS
 70
0
 71
3
 72
9
 73
5
 74
0
 42
0.0000001
 43
0.0000001
 44
0.0000000001
 40
0.0
 40
0.0
 40
0.0
 40
0.0
 40
0.4986194922
 40
1.0
 40
1.0
 40
1.0
 40
1.0
 10
583.3084503212
 20
152.673434891
 30
0.0
 10
583.3084503212
 20
152.450846079
 30
0.0
 10
583.2480953897
 20
152.0024216745
 30
0.0
 10
583.0720714453
 20
151.5860096652
 30
0.0
 10
582.9596259062
 20
151.392484471
 30
0.0
  0
SPLINE
  5
529
100
AcDbEntity
  8
RUNDUNGEN
100
AcDbSpline
 62
7
  6
CONTINUOUS
 70
0
 71
3
 72
9
 73
5
 74
0
 42
0.0000001
 43
0.0000001
 44
0.0000000001
 40
0.0
 40
0.0
 40
0.0
 40
0.0
 40
0.5017090063
 40
1.0
 40
1.0
 40
1.0
 40
1.0
 10
582.8725514231
 20
179.4416813524
 30
0.0
 10
583.0119215603
 20
179.2326261466
 30
0.0
 10
583.23226981
 20
178.7741218084
 30
0.0
 10
583.3084503212
 20
178.2704971187
 30
0.0
 10
583.3084503212
 20
178.0209557524
 30
0.0
  0
SPLINE
  5
52A
100
AcDbEntity
  8
0
100
AcDbSpline
 62
7
  6
CONTINUOUS
 70
0
 71
3
 72
9
 73
5
 74
0
 42
0.0000001
 43
0.0000001
 44
0.0000000001
 40
0.0
 40
0.0
 40
0.0
 40
0.0
 40
0.2471615168
 40
1.0
 40
1.0
 40
1.0
 40
1.0
 10
562.5415861461
 20
164.6544882708
 30
0.0
 10
562.6903097519
 20
164.4431528894
 30
0.0
 10
563.3249579081
 20
163.6116015049
 30
0.0
 10
564.0872646027
 20
162.8787151849
 30
0.0
 10
564.7099302863
 20
162.3971893905
 30
0.0
  0
SPLINE
  5
52B
100
AcDbEntity
  8
0
100
AcDbSpline
 62
7
  6
CONTINUOUS
 70
0
 71
3
 72
17
 73
13
 74
0
 42
0.0000001
 43
0.0000001
 44
0.0000000001
 40
0.0
 40
0.0
 40
0.0
 40
0.0
 40
0.0585928805
 40
0.1183601573
 40
0.2414749644
 40
0.3693378469
 40
0.5
 40
0.6306621531
 40
0.7585250356
 40
0.8816398427
 40
0.9414071195
 40
1.0
 40
1.0
 40
1.0
 40
1.0
 10
563.5343866864
 20
163.4487246745
 30
0.0
 10
563.6990020858
 20
163.0747272334
 30
0.0
 10
564.0961216244
 20
162.3459305545
 30
0.0
 10
565.1322915886
 20
161.0110150436
 30
0.0
 10
566.8488517985
 20
159.6312605944
 30
0.0
 10
569.3362187637
 20
158.5976767226
 30
0.0
 10
572.0584503212
 20
158.2431232407
 30
0.0
 10
574.7806818786
 20
158.5976767226
 30
0.0
 10
577.2680488438
 20
159.6312605944
 30
0.0
 10
578.9846090537
 20
161.0110150436
 30
0.0
 10
580.0207790179
 20
162.3459305545
 30
0.0
 10
580.4178985565
 20
163.0747272334
 30
0.0
 10
580.5825139559
 20
163.4487246745
 30
0.0
  0
SPLINE
  5
52C
100
AcDbEntity
  8
0
100
AcDbSpline
 62
7
  6
CONTINUOUS
 70
0
 71
3
 72
9
 73
5
 74
0
 42
0.0000001
 43
0.0000001
 44
0.0000000001
 40
0.0
 40
0.0
 40
0.0
 40
0.0
 40
0.2534600419
 40
1.0
 40
1.0
 40
1.0
 40
1.0
 10
579.4060333059
 20
162.3964648225
 30
0.0
 10
579.6157574149
 20
162.5586146193
 30
0.0
 10
580.4198986891
 20
163.2278072194
 30
0.0
 10
581.1259469426
 20
164.0159395827
 30
0.0
 10
581.5753144962
 20
164.6544882708
 30
0.0
  0
SPLINE
  5
52D
100
AcDbEntity
  8
0
100
AcDbSpline
 62
7
  6
CONTINUOUS
 70
0
 71
3
 72
9
 73
5
 74
0
 42
0.0000001
 43
0.0000001
 44
0.0000000001
 40
0.0
 40
0.0
 40
0.0
 40
0.0
 40
0.2483050497
 40
1.0
 40
1.0
 40
1.0
 40
1.0
 10
575.1199312905
 20
216.8597090616
 30
0.0
 10
575.1108924411
 20
216.908463476
 30
0.0
 10
575.0722580469
 20
217.1043947164
 30
0.0
 10
575.0249438024
 20
217.2985919576
 30
0.0
 10
574.9850783882
 20
217.4433110755
 30
0.0
  0
SPLINE
  5
52E
100
AcDbEntity
  8
0
100
AcDbSpline
 62
7
  6
CONTINUOUS
 70
0
 71
3
 72
9
 73
5
 74
0
 42
0.0000001
 43
0.0000001
 44
0.0000000001
 40
0.0
 40
0.0
 40
0.0
 40
0.0
 40
0.2417174596
 40
1.0
 40
1.0
 40
1.0
 40
1.0
 10
562.5415861461
 20
164.6544882708
 30
0.0
 10
562.4284552052
 20
164.8152466819
 30
0.0
 10
561.974006375
 20
165.4898977158
 30
0.0
 10
561.5658073671
 20
166.1946297224
 30
0.0
 10
561.2706198745
 20
166.7360584243
 30
0.0
  0
SPLINE
  5
52F
100
AcDbEntity
  8
0
100
AcDbSpline
 62
7
  6
CONTINUOUS
 70
0
 71
3
 72
10
 73
6
 74
0
 42
0.0000001
 43
0.0000001
 44
0.0000000001
 40
0.0
 40
0.0
 40
0.0
 40
0.0
 40
0.499171325
 40
0.7576142525
 40
1.0
 40
1.0
 40
1.0
 40
1.0
 10
561.2103741098
 20
164.5027966629
 30
0.0
 10
561.1059670209
 20
164.2190351848
 30
0.0
 10
560.9621294211
 20
163.7819133383
 30
0.0
 10
560.8370888041
 20
163.1886387257
 30
0.0
 10
560.8084503212
 20
162.8852577159
 30
0.0
 10
560.8084503212
 20
162.7384389993
 30
0.0
  0
SPLINE
  5
530
100
AcDbEntity
  8
0
100
AcDbSpline
 62
7
  6
CONTINUOUS
 70
0
 71
3
 72
10
 73
6
 74
0
 42
0.0000001
 43
0.0000001
 44
0.0000000001
 40
0.0
 40
0.0
 40
0.0
 40
0.0
 40
0.5565648577
 40
0.7985290681
 40
1.0
 40
1.0
 40
1.0
 40
1.0
 10
561.2706198745
 20
166.7360584243
 30
0.0
 10
561.1361872795
 20
166.9826327787
 30
0.0
 10
560.9637111384
 20
167.3503678206
 30
0.0
 10
560.8329929726
 20
167.83896525
 30
0.0
 10
560.8084503212
 20
168.0628104729
 30
0.0
 10
560.8084503212
 20
168.1644717086
 30
0.0
  0
LINE
  5
531
100
AcDbEntity
  8
BEZUGSACHSEN
100
AcDbLine
 62
7
  6
CONTINUOUS
 10
576.7557175095
 20
208.406755852
 11
576.7899174019
 21
208.2546279984
  0
LINE
  5
532
100
AcDbEntity
  8
BEZUGSACHSEN
100
AcDbLine
 62
7
  6
CONTINUOUS
 10
576.7899174019
 20
208.2546279984
 11
576.8220466248
 21
208.1115664454
  0
LINE
  5
533
100
AcDbEntity
  8
BEZUGSACHSEN
100
AcDbLine
 62
7
  6
CONTINUOUS
 10
576.8220466248
 20
208.1115664454
 11
576.8492262548
 21
207.9904308864
  0
LINE
  5
534
100
AcDbEntity
  8
BEZUGSACHSEN
100
AcDbLine
 62
7
  6
CONTINUOUS
 10
576.8492262548
 20
207.9904308864
 11
576.9085832548
 21
207.7255100664
  0
SPLINE
  5
535
100
AcDbEntity
  8
BEZUGSACHSEN
100
AcDbSpline
 62
7
  6
CONTINUOUS
 70
0
 71
3
 72
8
 73
4
 74
0
 42
0.0000001
 43
0.0000001
 44
0.0000000001
 40
0.0
 40
0.0
 40
0.0
 40
0.0
 40
1.0
 40
1.0
 40
1.0
 40
1.0
 10
576.9085832548
 20
207.7255100664
 30
0.0
 10
576.9781770699
 20
207.4145894259
 30
0.0
 10
577.0475342546
 20
207.1036156771
 30
0.0
 10
577.1165985535
 20
206.7925769875
 30
0.0
  0
LINE
  5
536
100
AcDbEntity
  8
BEZUGSACHSEN
100
AcDbLine
 62
7
  6
CONTINUOUS
 10
576.7239069207
 20
208.6619686759
 11
576.6601269663
 21
209.0523244517
  0
LINE
  5
537
100
AcDbEntity
  8
BEZUGSACHSEN
100
AcDbLine
 62
7
  6
CONTINUOUS
 10
576.6601269663
 20
209.0523244517
 11
576.6124993952
 21
209.3150737811
  0
LINE
  5
538
100
AcDbEntity
  8
BEZUGSACHSEN
100
AcDbLine
 62
7
  6
CONTINUOUS
 10
576.5494284357
 20
209.633387829
 11
576.6124993952
 21
209.3150737811
  0
LINE
  5
539
100
AcDbEntity
  8
BEZUGSACHSEN
100
AcDbLine
 62
7
  6
CONTINUOUS
 10
576.5024349666
 20
209.8481092371
 11
576.5259922221
 21
209.7405030772
  0
LINE
  5
53A
100
AcDbEntity
  8
BEZUGSACHSEN
100
AcDbLine
 62
7
  6
CONTINUOUS
 10
576.5259922221
 20
209.7405030772
 11
576.5494284357
 21
209.633387829
  0
LINE
  5
53B
100
AcDbEntity
  8
BEZUGSACHSEN
100
AcDbLine
 62
7
  6
CONTINUOUS
 10
576.4400051289
 20
210.0943811113
 11
576.5024349666
 21
209.8481092371
  0
SPLINE
  5
53C
100
AcDbEntity
  8
BEZUGSACHSEN
100
AcDbSpline
 62
7
  6
CONTINUOUS
 70
0
 71
3
 72
8
 73
4
 74
0
 42
0.0000001
 43
0.0000001
 44
0.0000000001
 40
0.0
 40
0.0
 40
0.0
 40
0.0
 40
1.0
 40
1.0
 40
1.0
 40
1.0
 10
577.0544665316
 20
207.907604828
 30
0.0
 10
577.0589016267
 20
207.9019256324
 30
0.0
 10
577.0626508178
 20
207.8954298629
 30
0.0
 10
577.0645326632
 20
207.8884741466
 30
0.0
  0
LINE
  5
53D
100
AcDbEntity
  8
BEZUGSACHSEN
100
AcDbLine
 62
7
  6
CONTINUOUS
 10
577.0645326632
 20
207.8884741466
 11
577.0652566393
 21
207.8852988382
  0
LINE
  5
53E
100
AcDbEntity
  8
BEZUGSACHSEN
100
AcDbLine
 62
7
  6
CONTINUOUS
 10
577.1032286005
 20
206.0241294899
 11
577.0943550928
 21
206.0691345503
  0
LINE
  5
53F
100
AcDbEntity
  8
BEZUGSACHSEN
100
AcDbLine
 62
7
  6
CONTINUOUS
 10
577.0943550928
 20
206.0691345503
 11
576.9679048948
 21
206.7103175988
  0
LINE
  5
540
100
AcDbEntity
  8
BEZUGSACHSEN
100
AcDbLine
 62
7
  6
CONTINUOUS
 10
576.9679048948
 20
206.7103175988
 11
576.7735587239
 21
207.6952772941
  0
LINE
  5
541
100
AcDbEntity
  8
BEZUGSACHSEN
100
AcDbLine
 62
7
  6
CONTINUOUS
 10
577.0657133832
 20
207.8820923387
 11
577.06443148
 21
207.8887702261
  0
LINE
  5
542
100
AcDbEntity
  8
BEZUGSACHSEN
100
AcDbLine
 62
7
  6
CONTINUOUS
 10
577.0540626192
 20
207.9416603971
 11
577.0500726362
 21
207.961510641
  0
LINE
  5
543
100
AcDbEntity
  8
BEZUGSACHSEN
100
AcDbLine
 62
7
  6
CONTINUOUS
 10
576.6793096108
 20
208.1727480316
 11
576.4435954103
 21
209.3664250983
  0
LINE
  5
544
100
AcDbEntity
  8
BEZUGSACHSEN
100
AcDbLine
 62
7
  6
CONTINUOUS
 10
577.0500726362
 20
207.961510641
 11
577.0341695226
 21
208.0442600333
  0
LINE
  5
545
100
AcDbEntity
  8
BEZUGSACHSEN
100
AcDbLine
 62
7
  6
CONTINUOUS
 10
577.0341695226
 20
208.0442600333
 11
577.026143173
 21
208.0857939807
  0
LINE
  5
546
100
AcDbEntity
  8
BEZUGSACHSEN
100
AcDbLine
 62
7
  6
CONTINUOUS
 10
577.026143173
 20
208.0857939807
 11
577.0180669788
 21
208.1274340969
  0
LINE
  5
547
100
AcDbEntity
  8
BEZUGSACHSEN
100
AcDbLine
 62
7
  6
CONTINUOUS
 10
577.0180669788
 20
208.1274340969
 11
576.9822470805
 21
208.3163960873
  0
LINE
  5
548
100
AcDbEntity
  8
BEZUGSACHSEN
100
AcDbLine
 62
7
  6
CONTINUOUS
 10
576.9822470805
 20
208.3163960873
 11
576.9701921363
 21
208.3798625874
  0
LINE
  5
549
100
AcDbEntity
  8
BEZUGSACHSEN
100
AcDbLine
 62
7
  6
CONTINUOUS
 10
576.4112615538
 20
211.2234380631
 11
576.4617246319
 21
210.9550791439
  0
LINE
  5
54A
100
AcDbEntity
  8
BEZUGSACHSEN
100
AcDbLine
 62
7
  6
CONTINUOUS
 10
576.4617246319
 20
210.9550791439
 11
576.8871981237
 21
208.6922592004
  0
LINE
  5
54B
100
AcDbEntity
  8
BEZUGSACHSEN
100
AcDbLine
 62
7
  6
CONTINUOUS
 10
576.9701921363
 20
208.3798625874
 11
576.9543976813
 21
208.4642856849
  0
LINE
  5
54C
100
AcDbEntity
  8
BEZUGSACHSEN
100
AcDbLine
 62
7
  6
CONTINUOUS
 10
576.9543976813
 20
208.4642856849
 11
576.9385621234
 21
208.5489156486
  0
LINE
  5
54D
100
AcDbEntity
  8
BEZUGSACHSEN
100
AcDbLine
 62
7
  6
CONTINUOUS
 10
576.9385621234
 20
208.5489156486
 11
576.9109044486
 21
208.6966963353
  0
LINE
  5
54E
100
AcDbEntity
  8
BEZUGSACHSEN
100
AcDbLine
 62
7
  6
CONTINUOUS
 10
576.9109044486
 20
208.6966963353
 11
576.9067677751
 21
208.7187961882
  0
LINE
  5
54F
100
AcDbEntity
  8
BEZUGSACHSEN
100
AcDbLine
 62
7
  6
CONTINUOUS
 10
576.942277015
 20
208.019067011
 11
576.9914139041
 21
207.7908516055
  0
LINE
  5
550
100
AcDbEntity
  8
BEZUGSACHSEN
100
AcDbLine
 62
7
  6
CONTINUOUS
 10
576.8783601806
 20
208.3427703682
 11
576.942277015
 21
208.019067011
  0
LINE
  5
551
100
AcDbEntity
  8
BEZUGSACHSEN
100
AcDbLine
 62
7
  6
CONTINUOUS
 10
576.8783601806
 20
208.3427703682
 11
576.8626065465
 21
208.4267980085
  0
LINE
  5
552
100
AcDbEntity
  8
BEZUGSACHSEN
100
AcDbLine
 62
7
  6
CONTINUOUS
 10
576.8626065465
 20
208.4267980085
 11
576.815300267
 21
208.6791053088
  0
LINE
  5
553
100
AcDbEntity
  8
BEZUGSACHSEN
100
AcDbLine
 62
7
  6
CONTINUOUS
 10
576.815300267
 20
208.6791053088
 11
576.7588208995
 21
208.9803036224
  0
LINE
  5
554
100
AcDbEntity
  8
BEZUGSACHSEN
100
AcDbLine
 62
7
  6
CONTINUOUS
 10
576.7588208995
 20
208.9803036224
 11
576.7424205378
 21
209.0677583747
  0
LINE
  5
555
100
AcDbEntity
  8
BEZUGSACHSEN
100
AcDbLine
 62
7
  6
CONTINUOUS
 10
576.7424205378
 20
209.0677583747
 11
576.6932000509
 21
209.3302089495
  0
LINE
  5
556
100
AcDbEntity
  8
BEZUGSACHSEN
100
AcDbLine
 62
7
  6
CONTINUOUS
 10
576.6932000509
 20
209.3302089495
 11
576.6377252554
 21
209.6259787409
  0
LINE
  5
557
100
AcDbEntity
  8
BEZUGSACHSEN
100
AcDbLine
 62
7
  6
CONTINUOUS
 10
576.6377252554
 20
209.6259787409
 11
576.6333815274
 21
209.6491365121
  0
LINE
  5
558
100
AcDbEntity
  8
BEZUGSACHSEN
100
AcDbLine
 62
7
  6
CONTINUOUS
 10
576.6333815274
 20
209.6491365121
 11
576.5928760891
 21
209.8650749918
  0
LINE
  5
559
100
AcDbEntity
  8
BEZUGSACHSEN
100
AcDbLine
 62
7
  6
CONTINUOUS
 10
576.5928760891
 20
209.8650749918
 11
576.5461254756
 21
210.1142881228
  0
LINE
  5
55A
100
AcDbEntity
  8
BEZUGSACHSEN
100
AcDbLine
 62
7
  6
CONTINUOUS
 10
576.5461254756
 20
210.1142881228
 11
576.5186676561
 21
210.2606481156
  0
LINE
  5
55B
100
AcDbEntity
  8
BEZUGSACHSEN
100
AcDbLine
 62
7
  6
CONTINUOUS
 10
576.5186676561
 20
210.2606481156
 11
576.5150753123
 21
210.2797960994
  0
LINE
  5
55C
100
AcDbEntity
  8
BEZUGSACHSEN
100
AcDbLine
 62
7
  6
CONTINUOUS
 10
576.5150753123
 20
210.2797960994
 11
576.4033300721
 21
210.8753682903
  0
LINE
  5
55D
100
AcDbEntity
  8
BEZUGSACHSEN
100
AcDbLine
 62
7
  6
CONTINUOUS
 10
576.4033300721
 20
210.8753682903
 11
576.3908727815
 21
210.9417560095
  0
LINE
  5
55E
100
AcDbEntity
  8
BEZUGSACHSEN
100
AcDbLine
 62
7
  6
CONTINUOUS
 10
576.5256501537
 20
210.7920984949
 11
576.5295536815
 21
210.7694064443
  0
LINE
  5
55F
100
AcDbEntity
  8
BEZUGSACHSEN
100
AcDbLine
 62
7
  6
CONTINUOUS
 10
577.0942702617
 20
207.5208146393
 11
577.0625933713
 21
207.7105216572
  0
LINE
  5
560
100
AcDbEntity
  8
BEZUGSACHSEN
100
AcDbLine
 62
7
  6
CONTINUOUS
 10
577.0625933713
 20
207.7105216572
 11
577.0465184755
 21
207.8063267278
  0
LINE
  5
561
100
AcDbEntity
  8
BEZUGSACHSEN
100
AcDbLine
 62
7
  6
CONTINUOUS
 10
577.0465184755
 20
207.8063267278
 11
577.0302857104
 21
207.9027661423
  0
SPLINE
  5
562
100
AcDbEntity
  8
BEZUGSACHSEN
100
AcDbSpline
 62
7
  6
CONTINUOUS
 70
0
 71
3
 72
9
 73
5
 74
0
 42
0.0000001
 43
0.0000001
 44
0.0000000001
 40
0.0
 40
0.0
 40
0.0
 40
0.0
 40
0.2766747133
 40
1.0
 40
1.0
 40
1.0
 40
1.0
 10
576.403583668
 20
211.4047067063
 30
0.0
 10
576.4055208914
 20
211.402359242
 30
0.0
 10
576.4121328493
 20
211.3935914183
 30
0.0
 10
576.4169485851
 20
211.383250235
 30
0.0
 10
576.4183996531
 20
211.3754266542
 30
0.0
  0
LINE
  5
563
100
AcDbEntity
  8
BEZUGSACHSEN
100
AcDbLine
 62
7
  6
CONTINUOUS
 10
577.0302857104
 20
207.9027661423
 11
576.9985285196
 21
208.0813519747
  0
LINE
  5
564
100
AcDbEntity
  8
BEZUGSACHSEN
100
AcDbLine
 62
7
  6
CONTINUOUS
 10
576.9985285196
 20
208.0813519747
 11
576.9664629
 21
208.2614183748
  0
LINE
  5
565
100
AcDbEntity
  8
BEZUGSACHSEN
100
AcDbLine
 62
7
  6
CONTINUOUS
 10
576.9664629
 20
208.2614183748
 11
576.9467262946
 21
208.3687118157
  0
LINE
  5
566
100
AcDbEntity
  8
BEZUGSACHSEN
100
AcDbLine
 62
7
  6
CONTINUOUS
 10
576.9467262946
 20
208.3687118157
 11
576.9269366154
 21
208.4762830976
  0
LINE
  5
567
100
AcDbEntity
  8
BEZUGSACHSEN
100
AcDbLine
 62
7
  6
CONTINUOUS
 10
576.9269366154
 20
208.4762830976
 11
576.8871981237
 21
208.6922592004
  0
SPLINE
  5
568
100
AcDbEntity
  8
0
100
AcDbSpline
 62
7
  6
CONTINUOUS
 70
0
 71
3
 72
12
 73
8
 74
0
 42
0.0000001
 43
0.0000001
 44
0.0000000001
 40
0.0
 40
0.0
 40
0.0
 40
0.0
 40
0.2644958639
 40
0.5210805506
 40
0.7653379815
 40
0.8836492628
 40
1.0
 40
1.0
 40
1.0
 40
1.0
 10
572.0584503212
 20
177.6345764204
 30
0.0
 10
572.5948306292
 20
177.6345764204
 30
0.0
 10
573.6593930539
 20
177.4694087427
 30
0.0
 10
575.0651241437
 20
176.7507806112
 30
0.0
 10
575.9412001318
 20
175.8069835574
 30
0.0
 10
576.368807699
 20
174.9288954826
 30
0.0
 10
576.4878895974
 20
174.4639605172
 30
0.0
 10
576.5222846535
 20
174.2305292065
 30
0.0
  0
SPLINE
  5
569
100
AcDbEntity
  8
0
100
AcDbSpline
 62
7
  6
CONTINUOUS
 70
0
 71
3
 72
12
 73
8
 74
0
 42
0.0000001
 43
0.0000001
 44
0.0000000001
 40
0.0
 40
0.0
 40
0.0
 40
0.0
 40
0.2644958639
 40
0.5210805506
 40
0.7653379815
 40
0.8836492628
 40
1.0
 40
1.0
 40
1.0
 40
1.0
 10
572.0584503212
 20
177.6345764204
 30
0.0
 10
571.5220700132
 20
177.6345764204
 30
0.0
 10
570.4575075884
 20
177.4694087427
 30
0.0
 10
569.0517764986
 20
176.7507806112
 30
0.0
 10
568.1757005106
 20
175.8069835574
 30
0.0
 10
567.7480929433
 20
174.9288954826
 30
0.0
 10
567.6290110449
 20
174.4639605172
 30
0.0
 10
567.5946159888
 20
174.2305292065
 30
0.0
  0
SPLINE
  5
56A
100
AcDbEntity
  8
0
100
AcDbSpline
 62
7
  6
CONTINUOUS
 70
0
 71
3
 72
9
 73
5
 74
0
 42
0.0000001
 43
0.0000001
 44
0.0000000001
 40
0.0
 40
0.0
 40
0.0
 40
0.0
 40
0.5000522933
 40
1.0
 40
1.0
 40
1.0
 40
1.0
 10
574.9850783882
 20
210.8354737498
 30
0.0
 10
575.104501315
 20
209.0296762073
 30
0.0
 10
575.2595702796
 20
205.412155881
 30
0.0
 10
575.2192428768
 20
201.7912803524
 30
0.0
 10
575.1520485376
 20
199.9831648549
 30
0.0
  0
SPLINE
  5
56B
100
AcDbEntity
  8
0
100
AcDbSpline
 62
7
  6
CONTINUOUS
 70
0
 71
3
 72
11
 73
7
 74
0
 42
0.0000001
 43
0.0000001
 44
0.0000000001
 40
0.0
 40
0.0
 40
0.0
 40
0.0
 40
0.2884727134
 40
0.5560355973
 40
0.7934838727
 40
1.0
 40
1.0
 40
1.0
 40
1.0
 10
560.8084503212
 20
156.1823980734
 30
0.0
 10
560.8084503212
 20
156.0422159821
 30
0.0
 10
560.825162802
 20
155.7714656311
 30
0.0
 10
560.9118914541
 20
155.3934864287
 30
0.0
 10
561.0582065982
 20
155.0769892399
 30
0.0
 10
561.1965221936
 20
154.9075273593
 30
0.0
 10
561.2706198745
 20
154.8398458451
 30
0.0
  0
SPLINE
  5
56C
100
AcDbEntity
  8
0
100
AcDbSpline
 62
7
  6
CONTINUOUS
 70
0
 71
3
 72
9
 73
5
 74
0
 42
0.0000001
 43
0.0000001
 44
0.0000000001
 40
0.0
 40
0.0
 40
0.0
 40
0.0
 40
0.5000000001
 40
1.0
 40
1.0
 40
1.0
 40
1.0
 10
574.9850783882
 20
217.4433110755
 30
0.0
 10
575.1390387085
 20
216.3499268068
 30
0.0
 10
575.3080160424
 20
214.1393924125
 30
0.0
 10
575.1390387084
 20
211.9288580182
 30
0.0
 10
574.9850783882
 20
210.8354737498
 30
0.0
  0
SPLINE
  5
56D
100
AcDbEntity
  8
0
100
AcDbSpline
 62
7
  6
CONTINUOUS
 70
0
 71
3
 72
9
 73
5
 74
0
 42
0.0000001
 43
0.0000001
 44
0.0000000001
 40
0.0
 40
0.0
 40
0.0
 40
0.0
 40
0.5000000001
 40
1.0
 40
1.0
 40
1.0
 40
1.0
 10
569.1318222541
 20
217.4433110755
 30
0.0
 10
568.9778619338
 20
216.3499268068
 30
0.0
 10
568.8088845999
 20
214.1393924125
 30
0.0
 10
568.9778619339
 20
211.9288580182
 30
0.0
 10
569.1318222541
 20
210.8354737498
 30
0.0
  0
SPLINE
  5
56E
100
AcDbEntity
  8
0
100
AcDbSpline
 62
7
  6
CONTINUOUS
 70
0
 71
3
 72
9
 73
5
 74
0
 42
0.0000001
 43
0.0000001
 44
0.0000000001
 40
0.0
 40
0.0
 40
0.0
 40
0.0
 40
0.5000522933
 40
1.0
 40
1.0
 40
1.0
 40
1.0
 10
569.1318222541
 20
210.8354737498
 30
0.0
 10
569.0123993273
 20
209.0296762073
 30
0.0
 10
568.8573303628
 20
205.412155881
 30
0.0
 10
568.8976577655
 20
201.7912803524
 30
0.0
 10
568.9648521047
 20
199.9831648549
 30
0.0
  0
SPLINE
  5
56F
100
AcDbEntity
  8
0
100
AcDbSpline
 62
7
  6
CONTINUOUS
 70
0
 71
3
 72
13
 73
9
 74
0
 42
0.0000001
 43
0.0000001
 44
0.0000000001
 40
0.0
 40
0.0
 40
0.0
 40
0.0
 40
0.2655958126
 40
0.5219612148
 40
0.6456213668
 40
0.7659615979
 40
0.8836976443
 40
1.0
 40
1.0
 40
1.0
 40
1.0
 10
572.0584503212
 20
178.1345764204
 30
0.0
 10
572.6409301882
 20
178.1345764204
 30
0.0
 10
573.7950152285
 20
177.9412887408
 30
0.0
 10
575.0558029124
 20
177.2247539051
 30
0.0
 10
575.8173209168
 20
176.4254306325
 30
0.0
 10
576.2390833563
 20
175.7462996032
 30
0.0
 10
576.499562095
 20
175.0076502493
 30
0.0
 10
576.5584503212
 20
174.49252554
 30
0.0
 10
576.5584503212
 20
174.2374621033
 30
0.0
  0
SPLINE
  5
570
100
AcDbEntity
  8
0
100
AcDbSpline
 62
7
  6
CONTINUOUS
 70
0
 71
3
 72
9
 73
5
 74
0
 42
0.0000001
 43
0.0000001
 44
0.0000000001
 40
0.0
 40
0.0
 40
0.0
 40
0.0
 40
0.4922897873
 40
1.0
 40
1.0
 40
1.0
 40
1.0
 10
568.8628724685
 20
158.8606668387
 30
0.0
 10
569.3057596333
 20
158.5184917941
 30
0.0
 10
570.3369367832
 20
157.9834877331
 30
0.0
 10
571.4812471734
 20
157.8055401652
 30
0.0
 10
572.0584503212
 20
157.8055401652
 30
0.0
  0
SPLINE
  5
571
100
AcDbEntity
  8
0
100
AcDbSpline
 62
7
  6
CONTINUOUS
 70
0
 71
3
 72
21
 73
17
 74
0
 42
0.0000001
 43
0.0000001
 44
0.0000000001
 40
0.0
 40
0.0
 40
0.0
 40
0.0
 40
0.0580894532
 40
0.116890925
 40
0.1769961556
 40
0.2387585136
 40
0.3022670717
 40
0.367347063
 40
0.5
 40
0.632652937
 40
0.6977329283
 40
0.7612414864
 40
0.8230038444
 40
0.883109075
 40
0.9419105468
 40
1.0
 40
1.0
 40
1.0
 40
1.0
 10
581.1806111005
 20
161.7121807616
 30
0.0
 10
581.1806111005
 20
161.1951146984
 30
0.0
 10
581.0612653402
 20
160.150888246
 30
0.0
 10
580.5331242056
 20
158.6535287897
 30
0.0
 10
579.6784088102
 20
157.2769393477
 30
0.0
 10
578.5324380843
 20
156.0746107609
 30
0.0
 10
577.1403225186
 20
155.0906833679
 30
0.0
 10
575.0184101501
 20
154.1131073779
 30
0.0
 10
572.0584503212
 20
153.610259971
 30
0.0
 10
569.0984904922
 20
154.1131073779
 30
0.0
 10
566.9765781237
 20
155.0906833679
 30
0.0
 10
565.584462558
 20
156.0746107609
 30
0.0
 10
564.4384918321
 20
157.2769393477
 30
0.0
 10
563.5837764367
 20
158.6535287897
 30
0.0
 10
563.0556353021
 20
160.150888246
 30
0.0
 10
562.9362895418
 20
161.1951146984
 30
0.0
 10
562.9362895418
 20
161.7121807616
 30
0.0
  0
SPLINE
  5
572
100
AcDbEntity
  8
0
100
AcDbSpline
 62
7
  6
CONTINUOUS
 70
0
 71
3
 72
9
 73
5
 74
0
 42
0.0000001
 43
0.0000001
 44
0.0000000001
 40
0.0
 40
0.0
 40
0.0
 40
0.0
 40
0.5077102127
 40
1.0
 40
1.0
 40
1.0
 40
1.0
 10
572.0584503212
 20
157.8055401652
 30
0.0
 10
572.6356534689
 20
157.8055401652
 30
0.0
 10
573.7799638591
 20
157.9834877331
 30
0.0
 10
574.811141009
 20
158.5184917941
 30
0.0
 10
575.2540281738
 20
158.8606668387
 30
0.0
  0
SPLINE
  5
573
100
AcDbEntity
  8
0
100
AcDbSpline
 62
7
  6
CONTINUOUS
 70
0
 71
3
 72
15
 73
11
 74
0
 42
0.0000001
 43
0.0000001
 44
0.0000000001
 40
0.0
 40
0.0
 40
0.0
 40
0.0
 40
0.1182244008
 40
0.2417576632
 40
0.3696586017
 40
0.5
 40
0.6303413983
 40
0.7582423368
 40
0.8817755992
 40
1.0
 40
1.0
 40
1.0
 40
1.0
 10
581.5753144962
 20
153.4293152637
 30
0.0
 10
581.0615506248
 20
152.7477556365
 30
0.0
 10
579.8141890481
 20
151.494334912
 30
0.0
 10
577.5086886176
 20
150.1050271345
 30
0.0
 10
574.869051502
 20
149.2376417875
 30
0.0
 10
572.0584503212
 20
148.9432500448
 30
0.0
 10
569.2478491403
 20
149.2376417875
 30
0.0
 10
566.6082120247
 20
150.1050271345
 30
0.0
 10
564.3027115942
 20
151.494334912
 30
0.0
 10
563.0553500175
 20
152.7477556365
 30
0.0
 10
562.5415861461
 20
153.4293152637
 30
0.0
  0
SPLINE
  5
574
100
AcDbEntity
  8
0
100
AcDbSpline
 62
7
  6
CONTINUOUS
 70
0
 71
3
 72
13
 73
9
 74
0
 42
0.0000001
 43
0.0000001
 44
0.0000000001
 40
0.0
 40
0.0
 40
0.0
 40
0.0
 40
0.1227466349
 40
0.2475184093
 40
0.4999982717
 40
0.7524791036
 40
0.8772519825
 40
1.0
 40
1.0
 40
1.0
 40
1.0
 10
564.7099302863
 20
162.3971893905
 30
0.0
 10
565.2190038203
 20
162.0035077659
 30
0.0
 10
566.3176179793
 20
161.2983766625
 30
0.0
 10
568.7377997676
 20
160.2662820069
 30
0.0
 10
572.0578259158
 20
159.7340702351
 30
0.0
 10
575.3779089201
 20
160.265956877
 30
0.0
 10
577.7982124793
 20
161.2978112625
 30
0.0
 10
578.8969116772
 20
162.0028335464
 30
0.0
 10
579.4060333059
 20
162.3964648225
 30
0.0
  0
LINE
  5
575
100
AcDbEntity
  8
BEZUGSACHSEN
100
AcDbLine
 62
7
  6
CONTINUOUS
 10
576.7861914847
 20
208.1035150036
 11
576.8717918591
 21
207.7237692102
  0
LINE
  5
576
100
AcDbEntity
  8
BEZUGSACHSEN
100
AcDbLine
 62
7
  6
CONTINUOUS
 10
576.8717918591
 20
207.7237692102
 11
576.873162959
 21
207.7176800284
  0
SPLINE
  5
577
100
AcDbEntity
  8
BEZUGSACHSEN
100
AcDbSpline
 62
7
  6
CONTINUOUS
 70
0
 71
3
 72
8
 73
4
 74
0
 42
0.0000001
 43
0.0000001
 44
0.0000000001
 40
0.0
 40
0.0
 40
0.0
 40
0.0
 40
1.0
 40
1.0
 40
1.0
 40
1.0
 10
576.873162959
 20
207.7176800284
 30
0.0
 10
576.9431589043
 20
207.4068160537
 30
0.0
 10
577.0129757558
 20
207.0959116715
 30
0.0
 10
577.0825712182
 20
206.7849577928
 30
0.0
  0
LINE
  5
578
100
AcDbEntity
  8
BEZUGSACHSEN
100
AcDbLine
 62
7
  6
CONTINUOUS
 10
577.0825712182
 20
206.7849577928
 11
577.1184674593
 21
206.6244790566
  0
SPLINE
  5
579
100
AcDbEntity
  8
0
100
AcDbSpline
 62
7
  6
CONTINUOUS
 70
0
 71
3
 72
13
 73
9
 74
0
 42
0.0000001
 43
0.0000001
 44
0.0000000001
 40
0.0
 40
0.0
 40
0.0
 40
0.0
 40
0.1163023557
 40
0.2340384021
 40
0.3543786332
 40
0.4780387852
 40
0.7344041874
 40
1.0
 40
1.0
 40
1.0
 40
1.0
 10
567.5584503212
 20
174.2374621033
 30
0.0
 10
567.5584503212
 20
174.49252554
 30
0.0
 10
567.6173385473
 20
175.0076502493
 30
0.0
 10
567.877817286
 20
175.7462996032
 30
0.0
 10
568.2995797255
 20
176.4254306325
 30
0.0
 10
569.0610977299
 20
177.2247539051
 30
0.0
 10
570.3218854138
 20
177.9412887408
 30
0.0
 10
571.4759704541
 20
178.1345764204
 30
0.0
 10
572.0584503212
 20
178.1345764204
 30
0.0
  0
LINE
  5
57A
100
AcDbEntity
  8
BEZUGSACHSEN
100
AcDbLine
 62
7
  6
CONTINUOUS
 10
577.0945162261
 20
205.8800455884
 11
577.0675698887
 21
206.0171174299
  0
LINE
  5
57B
100
AcDbEntity
  8
BEZUGSACHSEN
100
AcDbLine
 62
7
  6
CONTINUOUS
 10
577.0675698887
 20
206.0171174299
 11
577.0587244836
 21
206.0621080805
  0
LINE
  5
57C
100
AcDbEntity
  8
BEZUGSACHSEN
100
AcDbLine
 62
7
  6
CONTINUOUS
 10
577.0587244836
 20
206.0621080805
 11
576.7387174872
 21
207.6884183111
  0
LINE
  5
57D
100
AcDbEntity
  8
BEZUGSACHSEN
100
AcDbLine
 62
7
  6
CONTINUOUS
 10
576.7387174872
 20
207.6884183111
 11
576.7351517563
 21
207.706526474
  0
LINE
  5
57E
100
AcDbEntity
  8
BEZUGSACHSEN
100
AcDbLine
 62
7
  6
CONTINUOUS
 10
576.7351517563
 20
207.706526474
 11
576.6617930844
 21
208.0790130348
  0
LINE
  5
57F
100
AcDbEntity
  8
BEZUGSACHSEN
100
AcDbLine
 62
7
  6
CONTINUOUS
 10
576.6617930844
 20
208.0790130348
 11
576.6446732061
 21
208.1659258277
  0
LINE
  5
580
100
AcDbEntity
  8
BEZUGSACHSEN
100
AcDbLine
 62
7
  6
CONTINUOUS
 10
576.6446732061
 20
208.1659258277
 11
576.4094244296
 21
209.3596886574
  0
LINE
  5
581
100
AcDbEntity
  8
BEZUGSACHSEN
100
AcDbLine
 62
7
  6
CONTINUOUS
 10
576.4094244296
 20
209.3596886574
 11
576.3580564848
 21
209.620233478
  0
SPLINE
  5
582
100
AcDbEntity
  8
KONSTRUKTIONSELEMENTE
100
AcDbSpline
 62
7
  6
CONTINUOUS
 70
0
 71
3
 72
8
 73
4
 74
0
 42
0.0000001
 43
0.0000001
 44
0.0000000001
 40
0.0
 40
0.0
 40
0.0
 40
0.0
 40
1.0
 40
1.0
 40
1.0
 40
1.0
 10
576.1277593586
 20
209.620233478
 30
0.0
 10
576.3743673582
 20
208.3735280373
 30
0.0
 10
576.6208845714
 20
207.126804626
 30
0.0
 10
576.8672214614
 20
205.8800455884
 30
0.0
  0
SPLINE
  5
583
100
AcDbEntity
  8
KONSTRUKTIONSELEMENTE
100
AcDbSpline
 62
7
  6
CONTINUOUS
 70
0
 71
3
 72
11
 73
7
 74
0
 42
0.0000001
 43
0.0000001
 44
0.0000000001
 40
0.0
 40
0.0
 40
0.0
 40
0.0
 40
0.2884727134
 40
0.5560355973
 40
0.7934838727
 40
1.0
 40
1.0
 40
1.0
 40
1.0
 10
583.3084503212
 20
156.1823980734
 30
0.0
 10
583.3084503212
 20
156.0422159821
 30
0.0
 10
583.2917378403
 20
155.7714656311
 30
0.0
 10
583.2050091882
 20
155.3934864287
 30
0.0
 10
583.0586940441
 20
155.0769892399
 30
0.0
 10
582.9203784487
 20
154.9075273593
 30
0.0
 10
582.8462807678
 20
154.8398458451
 30
0.0
  0
LINE
  5
584
100
AcDbEntity
  8
BEZUGSACHSEN
100
AcDbLine
 62
7
  6
CONTINUOUS
 10
576.4717438253
 20
209.815154258
 11
576.4796960669
 21
209.7872507861
  0
LINE
  5
585
100
AcDbEntity
  8
BEZUGSACHSEN
100
AcDbLine
 62
7
  6
CONTINUOUS
 10
576.4796960669
 20
209.7872507861
 11
576.4954979878
 21
209.7316863233
  0
LINE
  5
586
100
AcDbEntity
  8
BEZUGSACHSEN
100
AcDbLine
 62
7
  6
CONTINUOUS
 10
576.4954979878
 20
209.7316863233
 11
576.50334771
 21
209.7040253356
  0
LINE
  5
587
100
AcDbEntity
  8
BEZUGSACHSEN
100
AcDbLine
 62
7
  6
CONTINUOUS
 10
576.50334771
 20
209.7040253356
 11
576.5506286026
 21
209.4893039275
  0
LINE
  5
588
100
AcDbEntity
  8
BEZUGSACHSEN
100
AcDbLine
 62
7
  6
CONTINUOUS
 10
576.5506286026
 20
209.4893039275
 11
576.5979486522
 21
209.2505683358
  0
LINE
  5
589
100
AcDbEntity
  8
BEZUGSACHSEN
100
AcDbLine
 62
7
  6
CONTINUOUS
 10
576.6453094307
 20
208.9878190064
 11
576.5979486522
 21
209.2505683358
  0
LINE
  5
58A
100
AcDbEntity
  8
BEZUGSACHSEN
100
AcDbLine
 62
7
  6
CONTINUOUS
 10
576.676796106
 20
208.7806341038
 11
576.6453094307
 21
208.9878190064
  0
LINE
  5
58B
100
AcDbEntity
  8
BEZUGSACHSEN
100
AcDbLine
 62
7
  6
CONTINUOUS
 10
576.4001417679
 20
211.2213470752
 11
576.450626531
 21
210.9529975052
  0
LINE
  5
58C
100
AcDbEntity
  8
BEZUGSACHSEN
100
AcDbLine
 62
7
  6
CONTINUOUS
 10
576.450626531
 20
210.9529975052
 11
576.6937752829
 21
209.6605435715
  0
LINE
  5
58D
100
AcDbEntity
  8
BEZUGSACHSEN
100
AcDbLine
 62
7
  6
CONTINUOUS
 10
576.6937752829
 20
209.6605435715
 11
576.7537681114
 21
209.3416504398
  0
LINE
  5
58E
100
AcDbEntity
  8
BEZUGSACHSEN
100
AcDbLine
 62
7
  6
CONTINUOUS
 10
576.7537681114
 20
209.3416504398
 11
576.8031369717
 21
209.0792285528
  0
LINE
  5
58F
100
AcDbEntity
  8
BEZUGSACHSEN
100
AcDbLine
 62
7
  6
CONTINUOUS
 10
576.8031369717
 20
209.0792285528
 11
576.8762434482
 21
208.6906273518
  0
LINE
  5
590
100
AcDbEntity
  8
BEZUGSACHSEN
100
AcDbLine
 62
7
  6
CONTINUOUS
 10
576.8762434482
 20
208.6906273518
 11
576.889086099
 21
208.622361434
  0
LINE
  5
591
100
AcDbEntity
  8
KONSTRUKTIONSELEMENTE
100
AcDbLine
 62
7
  6
CONTINUOUS
 10
576.184906887
 20
210.9417561394
 11
576.1831129681
 21
210.9512990643
  0
LINE
  5
592
100
AcDbEntity
  8
KONSTRUKTIONSELEMENTE
100
AcDbLine
 62
7
  6
CONTINUOUS
 10
576.1831129681
 20
210.9512990643
 11
576.1323476129
 21
211.2213470752
  0
LINE
  5
593
100
AcDbEntity
  8
BEZUGSACHSEN
100
AcDbLine
 62
7
  6
CONTINUOUS
 10
576.9523145546
 20
208.2753588435
 11
576.9365728594
 21
208.3617741074
  0
LINE
  5
594
100
AcDbEntity
  8
BEZUGSACHSEN
100
AcDbLine
 62
7
  6
CONTINUOUS
 10
576.9365728594
 20
208.3617741074
 11
576.9207875373
 21
208.4484129578
  0
LINE
  5
595
100
AcDbEntity
  8
BEZUGSACHSEN
100
AcDbLine
 62
7
  6
CONTINUOUS
 10
576.9207875373
 20
208.4484129578
 11
576.889086099
 21
208.622361434
  0
LINE
  5
596
100
AcDbEntity
  8
BEZUGSACHSEN
100
AcDbLine
 62
7
  6
CONTINUOUS
 10
576.999758887
 20
208.0005449049
 11
576.9879854847
 21
208.0688520053
  0
LINE
  5
597
100
AcDbEntity
  8
BEZUGSACHSEN
100
AcDbLine
 62
7
  6
CONTINUOUS
 10
576.9879854847
 20
208.0688520053
 11
576.9761536263
 21
208.1374233615
  0
LINE
  5
598
100
AcDbEntity
  8
BEZUGSACHSEN
100
AcDbLine
 62
7
  6
CONTINUOUS
 10
576.9761536263
 20
208.1374233615
 11
576.9642633152
 21
208.2062589741
  0
LINE
  5
599
100
AcDbEntity
  8
BEZUGSACHSEN
100
AcDbLine
 62
7
  6
CONTINUOUS
 10
576.9642633152
 20
208.2062589741
 11
576.9523145546
 21
208.2753588435
  0
LINE
  5
59A
100
AcDbEntity
  8
BEZUGSACHSEN
100
AcDbLine
 62
7
  6
CONTINUOUS
 10
577.0310969856
 20
207.7979194927
 11
577.0233353844
 21
207.8483961802
  0
LINE
  5
59B
100
AcDbEntity
  8
BEZUGSACHSEN
100
AcDbLine
 62
7
  6
CONTINUOUS
 10
577.0233353844
 20
207.8483961802
 11
577.0155251516
 21
207.8989926433
  0
LINE
  5
59C
100
AcDbEntity
  8
BEZUGSACHSEN
100
AcDbLine
 62
7
  6
CONTINUOUS
 10
577.0155251516
 20
207.8989926433
 11
576.999758887
 21
208.0005449049
  0
LINE
  5
59D
100
AcDbEntity
  8
BEZUGSACHSEN
100
AcDbLine
 62
7
  6
CONTINUOUS
 10
577.0458396953
 20
207.6674827244
 11
577.0385751451
 21
207.7327129168
  0
LINE
  5
59E
100
AcDbEntity
  8
BEZUGSACHSEN
100
AcDbLine
 62
7
  6
CONTINUOUS
 10
577.0385751451
 20
207.7327129168
 11
577.0348626505
 21
207.765319154
  0
LINE
  5
59F
100
AcDbEntity
  8
BEZUGSACHSEN
100
AcDbLine
 62
7
  6
CONTINUOUS
 10
577.0348626505
 20
207.765319154
 11
577.0310969856
 21
207.7979194927
  0
LINE
  5
5A0
100
AcDbEntity
  8
BEZUGSACHSEN
100
AcDbLine
 62
7
  6
CONTINUOUS
 10
577.0455060385
 20
207.6574512946
 11
577.0458396953
 21
207.6674827244
  0
SPLINE
  5
5A1
100
AcDbEntity
  8
0
100
AcDbSpline
 62
7
  6
CONTINUOUS
 70
0
 71
3
 72
9
 73
5
 74
0
 42
0.0000001
 43
0.0000001
 44
0.0000000001
 40
0.0
 40
0.0
 40
0.0
 40
0.0
 40
0.2208952364
 40
1.0
 40
1.0
 40
1.0
 40
1.0
 10
561.2706198745
 20
154.8398458451
 30
0.0
 10
561.3739247144
 20
154.7454862389
 30
0.0
 10
561.831972374
 20
154.3078133425
 30
0.0
 10
562.2445406198
 20
153.8233761339
 30
0.0
 10
562.5415861461
 20
153.4293152637
 30
0.0
  0
SPLINE
  5
5A2
100
AcDbEntity
  8
KONSTRUKTIONSELEMENTE
100
AcDbSpline
 62
7
  6
CONTINUOUS
 70
0
 71
3
 72
9
 73
5
 74
0
 42
0.0000001
 43
0.0000001
 44
0.0000000001
 40
0.0
 40
0.0
 40
0.0
 40
0.0
 40
0.2208952364
 40
1.0
 40
1.0
 40
1.0
 40
1.0
 10
582.8462807678
 20
154.8398458451
 30
0.0
 10
582.7429759279
 20
154.7454862389
 30
0.0
 10
582.2849282683
 20
154.3078133425
 30
0.0
 10
581.8723600225
 20
153.8233761339
 30
0.0
 10
581.5753144962
 20
153.4293152637
 30
0.0
  0
LINE
  5
5A3
100
AcDbEntity
  8
BEZUGSACHSEN
100
AcDbLine
 62
7
  6
CONTINUOUS
 10
576.8711328158
 20
208.2728725685
 11
576.8587449861
 21
208.3391006135
  0
LINE
  5
5A4
100
AcDbEntity
  8
BEZUGSACHSEN
100
AcDbLine
 62
7
  6
CONTINUOUS
 10
576.8587449861
 20
208.3391006135
 11
576.8430338229
 21
208.4230915415
  0
LINE
  5
5A5
100
AcDbEntity
  8
BEZUGSACHSEN
100
AcDbLine
 62
7
  6
CONTINUOUS
 10
576.8430338229
 20
208.4230915415
 11
576.7958276446
 21
208.6754240464
  0
LINE
  5
5A6
100
AcDbEntity
  8
BEZUGSACHSEN
100
AcDbLine
 62
7
  6
CONTINUOUS
 10
576.7958276446
 20
208.6754240464
 11
576.7521482899
 21
208.9088671281
  0
LINE
  5
5A7
100
AcDbEntity
  8
BEZUGSACHSEN
100
AcDbLine
 62
7
  6
CONTINUOUS
 10
576.7521482899
 20
208.9088671281
 11
576.7230973608
 21
209.0641098113
  0
LINE
  5
5A8
100
AcDbEntity
  8
BEZUGSACHSEN
100
AcDbLine
 62
7
  6
CONTINUOUS
 10
576.7230973608
 20
209.0641098113
 11
576.6739745475
 21
209.3265792931
  0
LINE
  5
5A9
100
AcDbEntity
  8
BEZUGSACHSEN
100
AcDbLine
 62
7
  6
CONTINUOUS
 10
576.6739745475
 20
209.3265792931
 11
576.6313997248
 21
209.5540292221
  0
LINE
  5
5AA
100
AcDbEntity
  8
BEZUGSACHSEN
100
AcDbLine
 62
7
  6
CONTINUOUS
 10
576.6313997248
 20
209.5540292221
 11
576.6142711164
 21
209.6455280909
  0
LINE
  5
5AB
100
AcDbEntity
  8
BEZUGSACHSEN
100
AcDbLine
 62
7
  6
CONTINUOUS
 10
576.6142711164
 20
209.6455280909
 11
576.5738417322
 21
209.8614784582
  0
LINE
  5
5AC
100
AcDbEntity
  8
BEZUGSACHSEN
100
AcDbLine
 62
7
  6
CONTINUOUS
 10
576.5738417322
 20
209.8614784582
 11
576.5271772453
 21
210.1107020427
  0
LINE
  5
5AD
100
AcDbEntity
  8
BEZUGSACHSEN
100
AcDbLine
 62
7
  6
CONTINUOUS
 10
576.5271772453
 20
210.1107020427
 11
576.5088902788
 21
210.2083594238
  0
LINE
  5
5AE
100
AcDbEntity
  8
BEZUGSACHSEN
100
AcDbLine
 62
7
  6
CONTINUOUS
 10
576.5088902788
 20
210.2083594238
 11
576.4997683398
 21
210.2570712433
  0
LINE
  5
5AF
100
AcDbEntity
  8
BEZUGSACHSEN
100
AcDbLine
 62
7
  6
CONTINUOUS
 10
576.4997683398
 20
210.2570712433
 11
576.3846225734
 21
210.8718582097
  0
LINE
  5
5B0
100
AcDbEntity
  8
KONSTRUKTIONSELEMENTE
100
AcDbLine
 62
7
  6
CONTINUOUS
 10
576.1285412877
 20
210.8718582097
 11
576.244385016
 21
210.2549644023
  0
LINE
  5
5B1
100
AcDbEntity
  8
KONSTRUKTIONSELEMENTE
100
AcDbLine
 62
7
  6
CONTINUOUS
 10
576.244385016
 20
210.2549644023
 11
576.2477468954
 21
210.2370605146
  0
LINE
  5
5B2
100
AcDbEntity
  8
BEZUGSACHSEN
100
AcDbLine
 62
7
  6
CONTINUOUS
 10
576.8711328158
 20
208.2728725685
 11
576.9508920932
 21
207.8653310428
  0
LINE
  5
5B3
100
AcDbEntity
  8
BEZUGSACHSEN
100
AcDbLine
 62
7
  6
CONTINUOUS
 10
576.9508920932
 20
207.8653310428
 11
577.0162476271
 21
207.5532773101
  0
SPLINE
  5
5B4
100
AcDbEntity
  8
BEZUGSACHSEN
100
AcDbSpline
 62
7
  6
CONTINUOUS
 70
0
 71
3
 72
9
 73
5
 74
0
 42
0.0000001
 43
0.0000001
 44
0.0000000001
 40
0.0
 40
0.0
 40
0.0
 40
0.0
 40
0.2890565778
 40
1.0
 40
1.0
 40
1.0
 40
1.0
 10
577.1408776551
 20
207.4055824977
 30
0.0
 10
577.1434255931
 20
207.4031297629
 30
0.0
 10
577.1518082515
 20
207.3942950926
 30
0.0
 10
577.1583313152
 20
207.383103642
 30
0.0
 10
577.1599181045
 20
207.3745510997
 30
0.0
  0
LINE
  5
5B5
100
AcDbEntity
  8
KONSTRUKTIONSELEMENTE
100
AcDbLine
 62
7
  6
CONTINUOUS
 10
576.1269353417
 20
211.4047067063
 11
576.147279903
 21
211.2947104643
  0
LINE
  5
5B6
100
AcDbEntity
  8
BEZUGSACHSEN
100
AcDbLine
 62
7
  6
CONTINUOUS
 10
577.1408776551
 20
207.4055824977
 11
577.1188295817
 21
207.5253373503
  0
LINE
  5
5B7
100
AcDbEntity
  8
BEZUGSACHSEN
100
AcDbLine
 62
7
  6
CONTINUOUS
 10
577.1188295817
 20
207.5253373503
 11
577.099358066
 21
207.6310870668
  0
LINE
  5
5B8
100
AcDbEntity
  8
BEZUGSACHSEN
100
AcDbLine
 62
7
  6
CONTINUOUS
 10
577.099358066
 20
207.6310870668
 11
577.0921194752
 21
207.6703973542
  0
LINE
  5
5B9
100
AcDbEntity
  8
BEZUGSACHSEN
100
AcDbLine
 62
7
  6
CONTINUOUS
 10
577.0921194752
 20
207.6703973542
 11
577.0673618065
 21
207.8048377603
  0
LINE
  5
5BA
100
AcDbEntity
  8
BEZUGSACHSEN
100
AcDbLine
 62
7
  6
CONTINUOUS
 10
577.0673618065
 20
207.8048377603
 11
577.0487015792
 21
207.9061575088
  0
LINE
  5
5BB
100
AcDbEntity
  8
BEZUGSACHSEN
100
AcDbLine
 62
7
  6
CONTINUOUS
 10
577.0487015792
 20
207.9061575088
 11
577.0250957426
 21
208.0343184603
  0
LINE
  5
5BC
100
AcDbEntity
  8
BEZUGSACHSEN
100
AcDbLine
 62
7
  6
CONTINUOUS
 10
577.0250957426
 20
208.0343184603
 11
577.022754029
 21
208.0470313827
  0
LINE
  5
5BD
100
AcDbEntity
  8
BEZUGSACHSEN
100
AcDbLine
 62
7
  6
CONTINUOUS
 10
577.022754029
 20
208.0470313827
 11
576.9827090645
 21
208.2644116196
  0
LINE
  5
5BE
100
AcDbEntity
  8
BEZUGSACHSEN
100
AcDbLine
 62
7
  6
CONTINUOUS
 10
576.9827090645
 20
208.2644116196
 11
576.9653205299
 21
208.3587922217
  0
LINE
  5
5BF
100
AcDbEntity
  8
BEZUGSACHSEN
100
AcDbLine
 62
7
  6
CONTINUOUS
 10
576.9653205299
 20
208.3587922217
 11
576.9033257432
 21
208.6952306048
  0
LINE
  5
5C0
100
AcDbEntity
  8
BEZUGSACHSEN
100
AcDbLine
 62
7
  6
CONTINUOUS
 10
576.9033257432
 20
208.6952306048
 11
576.4857904627
 21
210.9592726623
  0
LINE
  5
5C1
100
AcDbEntity
  8
BEZUGSACHSEN
100
AcDbLine
 62
7
  6
CONTINUOUS
 10
576.4857904627
 20
210.9592726623
 11
576.4236682844
 21
211.2958875424
  0
LINE
  5
5C2
100
AcDbEntity
  8
BEZUGSACHSEN
100
AcDbLine
 62
7
  6
CONTINUOUS
 10
576.4236682844
 20
211.2958875424
 11
576.403583668
 21
211.4047067063
  0
SPLINE
  5
5C3
100
AcDbEntity
  8
KONSTRUKTIONSELEMENTE
100
AcDbSpline
 62
7
  6
CONTINUOUS
 70
0
 71
3
 72
15
 73
11
 74
0
 42
0.0000001
 43
0.0000001
 44
0.0000000001
 40
0.0
 40
0.0
 40
0.0
 40
0.0
 40
0.0715051056
 40
0.1527101127
 40
0.249801528
 40
0.3654136809
 40
0.4998429995
 40
0.6519018592
 40
0.8195872462
 40
1.0
 40
1.0
 40
1.0
 40
1.0
 10
427.2872381496
 20
84.6927117613
 30
0.0
 10
427.2443104492
 20
84.729875279
 30
0.0
 10
427.1339263804
 20
84.7889746906
 30
0.0
 10
426.9339015802
 20
84.8125629926
 30
0.0
 10
426.7010522974
 20
84.7804345444
 30
0.0
 10
426.4379204109
 20
84.6950233901
 30
0.0
 10
426.148676034
 20
84.5582932761
 30
0.0
 10
425.8388201417
 20
84.3728710182
 30
0.0
 10
425.5149027694
 20
84.1424940477
 30
0.0
 10
425.3006655002
 20
83.9675013258
 30
0.0
 10
425.1923718687
 20
83.8737162898
 30
0.0
  0
SPLINE
  5
5C4
100
AcDbEntity
  8
KONSTRUKTIONSELEMENTE
100
AcDbSpline
 62
7
  6
CONTINUOUS
 70
0
 71
3
 72
9
 73
5
 74
0
 42
0.0000001
 43
0.0000001
 44
0.0000000001
 40
0.0
 40
0.0
 40
0.0
 40
0.0
 40
0.5565087562
 40
1.0
 40
1.0
 40
1.0
 40
1.0
 10
424.3908531881
 20
92.6073666828
 30
0.0
 10
424.4613466714
 20
92.7688566329
 30
0.0
 10
424.5715249086
 20
93.0665151057
 30
0.0
 10
424.6266864438
 20
93.3823767799
 30
0.0
 10
424.6266864438
 20
93.5227978268
 30
0.0
  0
SPLINE
  5
5C5
100
AcDbEntity
  8
KONSTRUKTIONSELEMENTE
100
AcDbSpline
 62
7
  6
CONTINUOUS
 70
0
 71
3
 72
9
 73
5
 74
0
 42
0.0000001
 43
0.0000001
 44
0.0000000001
 40
0.0
 40
0.0
 40
0.0
 40
0.0
 40
0.5487156268
 40
1.0
 40
1.0
 40
1.0
 40
1.0
 10
424.6266864438
 20
79.1823632811
 30
0.0
 10
424.6266864438
 20
79.0678735434
 30
0.0
 10
424.6493178029
 20
78.8558655525
 30
0.0
 10
424.7653664405
 20
78.6697395518
 30
0.0
 10
424.8365477216
 20
78.6080998206
 30
0.0
  0
SPLINE
  5
5C6
100
AcDbEntity
  8
KONSTRUKTIONSELEMENTE
100
AcDbSpline
 62
7
  6
CONTINUOUS
 70
0
 71
3
 72
15
 73
11
 74
0
 42
0.0000001
 43
0.0000001
 44
0.0000000001
 40
0.0
 40
0.0
 40
0.0
 40
0.0
 40
0.0715051056
 40
0.1527101127
 40
0.249801528
 40
0.3654136809
 40
0.4998429995
 40
0.6519018592
 40
0.8195872462
 40
1.0
 40
1.0
 40
1.0
 40
1.0
 10
427.0043954371
 20
84.1376607356
 30
0.0
 10
426.9614677367
 20
84.1748242533
 30
0.0
 10
426.8510836679
 20
84.2339236648
 30
0.0
 10
426.6510588677
 20
84.2575119669
 30
0.0
 10
426.4182095849
 20
84.2253835187
 30
0.0
 10
426.1550776985
 20
84.1399723643
 30
0.0
 10
425.8658333215
 20
84.0032422503
 30
0.0
 10
425.5559774292
 20
83.8178199925
 30
0.0
 10
425.232060057
 20
83.587443022
 30
0.0
 10
425.0178227878
 20
83.4124503001
 30
0.0
 10
424.9095291562
 20
83.3186652641
 30
0.0
  0
SPLINE
  5
5C7
100
AcDbEntity
  8
KONSTRUKTIONSELEMENTE
100
AcDbSpline
 62
7
  6
CONTINUOUS
 70
0
 71
3
 72
10
 73
6
 74
0
 42
0.0000001
 43
0.0000001
 44
0.0000000001
 40
0.0
 40
0.0
 40
0.0
 40
0.0
 40
0.3401098209
 40
0.6176924174
 40
1.0
 40
1.0
 40
1.0
 40
1.0
 10
453.3295571553
 20
93.5221358666
 30
0.0
 10
453.3220083342
 20
93.5041513981
 30
0.0
 10
453.3101829754
 20
93.4703118347
 30
0.0
 10
453.2992805087
 20
93.4150804685
 30
0.0
 10
453.3074549783
 20
93.3716074102
 30
0.0
 10
453.3240256727
 20
93.3572514486
 30
0.0
  0
SPLINE
  5
5C8
100
AcDbEntity
  8
KONSTRUKTIONSELEMENTE
100
AcDbSpline
 62
7
  6
CONTINUOUS
 70
0
 71
3
 72
10
 73
6
 74
0
 42
0.0000001
 43
0.0000001
 44
0.0000000001
 40
0.0
 40
0.0
 40
0.0
 40
0.0
 40
0.1889346049
 40
0.5351285558
 40
1.0
 40
1.0
 40
1.0
 40
1.0
 10
415.9214973313
 20
75.908039147
 30
0.0
 10
415.9395168388
 20
75.8924341181
 30
0.0
 10
416.0023859833
 20
75.8612427479
 30
0.0
 10
416.1330555174
 20
75.8680669608
 30
0.0
 10
416.2294954472
 20
75.9036970775
 30
0.0
 10
416.2828264258
 20
75.9281063063
 30
0.0
  0
SPLINE
  5
5C9
100
AcDbEntity
  8
KONSTRUKTIONSELEMENTE
100
AcDbSpline
 62
7
  6
CONTINUOUS
 70
0
 71
3
 72
9
 73
5
 74
0
 42
0.0000001
 43
0.0000001
 44
0.0000000001
 40
0.0
 40
0.0
 40
0.0
 40
0.0
 40
0.4593994969
 40
1.0
 40
1.0
 40
1.0
 40
1.0
 10
416.2828264258
 20
75.9281063063
 30
0.0
 10
416.3543197831
 20
75.9608283334
 30
0.0
 10
416.5022247612
 20
76.0487664361
 30
0.0
 10
416.6371493875
 20
76.1545742346
 30
0.0
 10
416.7070904945
 20
76.21514501
 30
0.0
  0
SPLINE
  5
5CA
100
AcDbEntity
  8
KONSTRUKTIONSELEMENTE
100
AcDbSpline
 62
7
  6
CONTINUOUS
 70
0
 71
3
 72
11
 73
7
 74
0
 42
0.0000001
 43
0.0000001
 44
0.0000000001
 40
0.0
 40
0.0
 40
0.0
 40
0.0
 40
0.1801343243
 40
0.3968155518
 40
0.6687400903
 40
1.0
 40
1.0
 40
1.0
 40
1.0
 10
427.6649748463
 20
76.1586100778
 30
0.0
 10
427.7334054874
 20
76.0993522749
 30
0.0
 10
427.9239169191
 20
76.0130588774
 30
0.0
 10
428.2660065175
 20
76.017464968
 30
0.0
 10
428.6658138564
 20
76.1269364057
 30
0.0
 10
428.9414944328
 20
76.2558732722
 30
0.0
 10
429.0881957383
 20
76.3345486097
 30
0.0
  0
SPLINE
  5
5CB
100
AcDbEntity
  8
BEZUGSACHSEN
100
AcDbSpline
 62
7
  6
CONTINUOUS
 70
0
 71
3
 72
16
 73
12
 74
0
 42
0.0000001
 43
0.0000001
 44
0.0000000001
 40
0.0
 40
0.0
 40
0.0
 40
0.0
 40
0.180402773
 40
0.3480789013
 40
0.5001293487
 40
0.5696674528
 40
0.6346058587
 40
0.7502117022
 40
0.8472976962
 40
0.9284979532
 40
1.0
 40
1.0
 40
1.0
 40
1.0
 10
466.3459865338
 20
124.0837920473
 30
0.0
 10
466.5321161257
 20
124.2449850023
 30
0.0
 10
466.9003416916
 20
124.5457639113
 30
0.0
 10
467.4570521916
 20
124.9416818824
 30
0.0
 10
467.9135897969
 20
125.2149595107
 30
0.0
 10
468.2636112584
 20
125.3898277208
 30
0.0
 10
468.5772353509
 20
125.5248147165
 30
0.0
 10
468.9390480034
 20
125.6422127615
 30
0.0
 10
469.3392361586
 20
125.6974289621
 30
0.0
 10
469.6830323121
 20
125.6568986501
 30
0.0
 10
469.8727626416
 20
125.5553248172
 30
0.0
 10
469.9465371284
 20
125.4914395604
 30
0.0
  0
SPLINE
  5
5CC
100
AcDbEntity
  8
BEZUGSACHSEN
100
AcDbSpline
 62
7
  6
CONTINUOUS
 70
0
 71
3
 72
11
 73
7
 74
0
 42
0.0000001
 43
0.0000001
 44
0.0000000001
 40
0.0
 40
0.0
 40
0.0
 40
0.0
 40
0.311390343
 40
0.575379809
 40
0.799563173
 40
1.0
 40
1.0
 40
1.0
 40
1.0
 10
473.2698673147
 20
126.0437973618
 30
0.0
 10
473.3468739979
 20
126.4447507106
 30
0.0
 10
473.4449832099
 20
127.1960612045
 30
0.0
 10
473.3943921831
 20
128.2506119411
 30
0.0
 10
473.1249937675
 20
129.1259423422
 30
0.0
 10
472.7775423178
 20
129.5809832269
 30
0.0
 10
472.5790728825
 20
129.7532498567
 30
0.0
  0
SPLINE
  5
5CD
100
AcDbEntity
  8
KONSTRUKTIONSELEMENTE
100
AcDbSpline
 62
7
  6
CONTINUOUS
 70
0
 71
3
 72
13
 73
9
 74
0
 42
0.0000001
 43
0.0000001
 44
0.0000000001
 40
0.0
 40
0.0
 40
0.0
 40
0.0
 40
0.1071822666
 40
0.2276802357
 40
0.4932739715
 40
0.7624373184
 40
0.8872035516
 40
1.0
 40
1.0
 40
1.0
 40
1.0
 10
456.9997343577
 20
91.3033978209
 30
0.0
 10
457.1803162684
 20
91.4002431948
 30
0.0
 10
457.5499101675
 20
91.6323145687
 30
0.0
 10
458.2970885192
 20
92.2092734613
 30
0.0
 10
459.1919886528
 20
93.0925977232
 30
0.0
 10
459.9694426621
 20
94.0907584998
 30
0.0
 10
460.4738615687
 20
94.9188700674
 30
0.0
 10
460.675043829
 20
95.3271283474
 30
0.0
 10
460.7585048408
 20
95.5259675969
 30
0.0
  0
SPLINE
  5
5CE
100
AcDbEntity
  8
KONSTRUKTIONSELEMENTE
100
AcDbSpline
 62
7
  6
CONTINUOUS
 70
0
 71
3
 72
11
 73
7
 74
0
 42
0.0000001
 43
0.0000001
 44
0.0000000001
 40
0.0
 40
0.0
 40
0.0
 40
0.0
 40
0.2275180559
 40
0.493253217
 40
0.7625598897
 40
1.0
 40
1.0
 40
1.0
 40
1.0
 10
429.3788242911
 20
76.4904115681
 30
0.0
 10
429.4171363747
 20
76.510958189
 30
0.0
 10
429.494011936
 20
76.5668033399
 30
0.0
 10
429.5980784056
 20
76.6692873791
 30
0.0
 10
429.688899756
 20
76.7861255042
 30
0.0
 10
429.7371418896
 20
76.8708345476
 30
0.0
 10
429.7547013394
 20
76.9126685457
 30
0.0
  0
SPLINE
  5
5CF
100
AcDbEntity
  8
KONSTRUKTIONSELEMENTE
100
AcDbSpline
 62
7
  6
CONTINUOUS
 70
0
 71
3
 72
10
 73
6
 74
0
 42
0.0000001
 43
0.0000001
 44
0.0000000001
 40
0.0
 40
0.0
 40
0.0
 40
0.0
 40
0.1805529782
 40
0.5248657058
 40
1.0
 40
1.0
 40
1.0
 40
1.0
 10
456.1524527974
 20
90.9077617058
 30
0.0
 10
456.1592954775
 20
90.9018335745
 30
0.0
 10
456.1844701914
 20
90.8905386369
 30
0.0
 10
456.2361833646
 20
90.897357889
 30
0.0
 10
456.2737964994
 20
90.9140801812
 30
0.0
 10
456.2947923374
 20
90.9253401671
 30
0.0
  0
SPLINE
  5
5D0
100
AcDbEntity
  8
BEZUGSACHSEN
100
AcDbSpline
 62
7
  6
CONTINUOUS
 70
0
 71
3
 72
17
 73
13
 74
0
 42
0.0000001
 43
0.0000001
 44
0.0000000001
 40
0.0
 40
0.0
 40
0.0
 40
0.0
 40
0.0291588352
 40
0.0611240919
 40
0.0979308632
 40
0.1407025491
 40
0.2452467409
 40
0.3737066793
 40
0.5209764399
 40
0.6799432227
 40
0.8424277474
 40
1.0
 40
1.0
 40
1.0
 40
1.0
 10
462.7454359392
 20
117.1761445342
 30
0.0
 10
462.6847174775
 20
117.2287238837
 30
0.0
 10
462.576876057
 20
117.3630209446
 30
0.0
 10
462.4820456168
 20
117.6191779964
 30
0.0
 10
462.4474103361
 20
117.9267060235
 30
0.0
 10
462.481628053
 20
118.4346553583
 30
0.0
 10
462.6876922613
 20
119.172578672
 30
0.0
 10
463.1226053918
 20
120.1277792658
 30
0.0
 10
463.7412452466
 20
121.1557467129
 30
0.0
 10
464.5084126078
 20
122.1962484692
 30
0.0
 10
465.3801891449
 20
123.1887393012
 30
0.0
 10
466.0178800404
 20
123.7996434889
 30
0.0
 10
466.3459865338
 20
124.0837920473
 30
0.0
  0
SPLINE
  5
5D1
100
AcDbEntity
  8
KONSTRUKTIONSELEMENTE
100
AcDbSpline
 62
7
  6
CONTINUOUS
 70
0
 71
3
 72
9
 73
5
 74
0
 42
0.0000001
 43
0.0000001
 44
0.0000000001
 40
0.0
 40
0.0
 40
0.0
 40
0.0
 40
0.5484587228
 40
1.0
 40
1.0
 40
1.0
 40
1.0
 10
413.5958206573
 20
78.0398898814
 30
0.0
 10
413.5958206573
 20
78.0055662602
 30
0.0
 10
413.6026454904
 20
77.941994664
 30
0.0
 10
413.6373941469
 20
77.8861301473
 30
0.0
 10
413.6587556315
 20
77.8676309412
 30
0.0
  0
SPLINE
  5
5D2
100
AcDbEntity
  8
KONSTRUKTIONSELEMENTE
100
AcDbSpline
 62
7
  6
CONTINUOUS
 70
0
 71
3
 72
13
 73
9
 74
0
 42
0.0000001
 43
0.0000001
 44
0.0000000001
 40
0.0
 40
0.0
 40
0.0
 40
0.0
 40
0.1127916838
 40
0.2375629883
 40
0.5067261525
 40
0.7723197091
 40
0.8928223742
 40
1.0
 40
1.0
 40
1.0
 40
1.0
 10
431.4281842763
 20
80.8996090856
 30
0.0
 10
431.5116417702
 20
81.0984399542
 30
0.0
 10
431.7128238323
 20
81.5066988994
 30
0.0
 10
432.2172391345
 20
82.3348132003
 30
0.0
 10
432.9947005424
 20
83.332979857
 30
0.0
 10
433.8896052158
 20
84.2163116157
 30
0.0
 10
434.6367864313
 20
84.7932667895
 30
0.0
 10
435.0063806509
 20
85.025337672
 30
0.0
 10
435.1869547594
 20
85.1221788615
 30
0.0
  0
SPLINE
  5
5D3
100
AcDbEntity
  8
KONSTRUKTIONSELEMENTE
100
AcDbSpline
 62
7
  6
CONTINUOUS
 70
0
 71
3
 72
12
 73
8
 74
0
 42
0.0000001
 43
0.0000001
 44
0.0000000001
 40
0.0
 40
0.0
 40
0.0
 40
0.0
 40
0.285581653
 40
0.5706156379
 40
0.817816411
 40
0.9180971044
 40
1.0
 40
1.0
 40
1.0
 40
1.0
 10
414.4443487947
 20
83.4147368043
 30
0.0
 10
414.3282403934
 20
83.3141839792
 30
0.0
 10
414.1120066337
 20
83.0945285063
 30
0.0
 10
413.8467811072
 20
82.7425579047
 30
0.0
 10
413.6824127789
 20
82.4417885893
 30
0.0
 10
413.6103555148
 20
82.2218269744
 30
0.0
 10
413.5958206573
 20
82.1239404605
 30
0.0
 10
413.5958206573
 20
82.0798898814
 30
0.0
  0
SPLINE
  5
5D4
100
AcDbEntity
  8
KONSTRUKTIONSELEMENTE
100
AcDbSpline
 62
7
  6
CONTINUOUS
 70
0
 71
3
 72
11
 73
7
 74
0
 42
0.0000001
 43
0.0000001
 44
0.0000000001
 40
0.0
 40
0.0
 40
0.0
 40
0.0
 40
0.3312528237
 40
0.6032079657
 40
0.8198699068
 40
1.0
 40
1.0
 40
1.0
 40
1.0
 10
456.4633866437
 20
96.5326462303
 30
0.0
 10
456.6100993257
 20
96.611327669
 30
0.0
 10
456.885821717
 20
96.7402738173
 30
0.0
 10
457.2856689659
 20
96.8497602494
 30
0.0
 10
457.627810527
 20
96.8541159891
 30
0.0
 10
457.8182917208
 20
96.7677497424
 30
0.0
 10
457.8867231885
 20
96.708482461
 30
0.0
  0
SPLINE
  5
5D5
100
AcDbEntity
  8
KONSTRUKTIONSELEMENTE
100
AcDbSpline
 62
7
  6
CONTINUOUS
 70
0
 71
3
 72
12
 73
8
 74
0
 42
0.0000001
 43
0.0000001
 44
0.0000000001
 40
0.0
 40
0.0
 40
0.0
 40
0.0
 40
0.0840630007
 40
0.1822661866
 40
0.418227079
 40
0.696783093
 40
1.0
 40
1.0
 40
1.0
 40
1.0
 10
424.6266864438
 20
95.5063427778
 30
0.0
 10
424.6266864438
 20
95.60918112
 30
0.0
 10
424.6503671955
 20
95.8322013497
 30
0.0
 10
424.7753758433
 20
96.329367353
 30
0.0
 10
425.0751256444
 20
97.0211692036
 30
0.0
 10
425.59119934
 20
97.8800324038
 30
0.0
 10
426.0218021772
 20
98.44869951
 30
0.0
 10
426.2597686136
 20
98.7332489974
 30
0.0
  0
SPLINE
  5
5D6
100
AcDbEntity
  8
KONSTRUKTIONSELEMENTE
100
AcDbSpline
 62
7
  6
CONTINUOUS
 70
0
 71
3
 72
15
 73
11
 74
0
 42
0.0000001
 43
0.0000001
 44
0.0000000001
 40
0.0
 40
0.0
 40
0.0
 40
0.0
 40
0.1696224697
 40
0.33497449
 40
0.4905840196
 40
0.6315529168
 40
0.7539177085
 40
0.8552312826
 40
0.9356200061
 40
1.0
 40
1.0
 40
1.0
 40
1.0
 10
457.1596696202
 20
135.681951195
 30
0.0
 10
457.3271700758
 20
135.8822406539
 30
0.0
 10
457.6717018535
 20
136.2665150412
 30
0.0
 10
458.2142093153
 20
136.7927046975
 30
0.0
 10
458.7611869669
 20
137.2482558484
 30
0.0
 10
459.291984554
 20
137.6162182874
 30
0.0
 10
459.7870509099
 20
137.8840104068
 30
0.0
 10
460.2302633633
 20
138.041976444
 30
0.0
 10
460.6111743656
 20
138.0874516889
 30
0.0
 10
460.8353648148
 20
138.0237925438
 30
0.0
 10
460.9184401034
 20
137.9697628699
 30
0.0
  0
SPLINE
  5
5D7
100
AcDbEntity
  8
KONSTRUKTIONSELEMENTE
100
AcDbSpline
 62
7
  6
CONTINUOUS
 70
0
 71
3
 72
9
 73
5
 74
0
 42
0.0000001
 43
0.0000001
 44
0.0000000001
 40
0.0
 40
0.0
 40
0.0
 40
0.0
 40
0.4567436759
 40
1.0
 40
1.0
 40
1.0
 40
1.0
 10
424.9095291562
 20
94.0778488525
 30
0.0
 10
424.9095291562
 20
93.9828262863
 30
0.0
 10
424.8841810019
 20
93.7748334918
 30
0.0
 10
424.8279555217
 20
93.5740033294
 30
0.0
 10
424.7919213342
 20
93.4668806176
 30
0.0
  0
SPLINE
  5
5D8
100
AcDbEntity
  8
KONSTRUKTIONSELEMENTE
100
AcDbSpline
 62
7
  6
CONTINUOUS
 70
0
 71
3
 72
11
 73
7
 74
0
 42
0.0000001
 43
0.0000001
 44
0.0000000001
 40
0.0
 40
0.0
 40
0.0
 40
0.0
 40
0.2200619614
 40
0.4727409047
 40
0.7394872782
 40
1.0
 40
1.0
 40
1.0
 40
1.0
 10
424.7450281823
 20
93.3364757995
 30
0.0
 10
424.6523062506
 20
93.0937644078
 30
0.0
 10
424.4011118559
 20
92.5922957437
 30
0.0
 10
423.915415998
 20
91.8649867873
 30
0.0
 10
423.3253148881
 20
91.1559905814
 30
0.0
 10
422.8792948069
 20
90.7196143304
 30
0.0
 10
422.6467874564
 20
90.5182570583
 30
0.0
  0
SPLINE
  5
5D9
100
AcDbEntity
  8
KONSTRUKTIONSELEMENTE
100
AcDbSpline
 62
7
  6
CONTINUOUS
 70
0
 71
3
 72
12
 73
8
 74
0
 42
0.0000001
 43
0.0000001
 44
0.0000000001
 40
0.0
 40
0.0
 40
0.0
 40
0.0
 40
0.3358890466
 40
0.6331184293
 40
0.7558878341
 40
0.8575228726
 40
1.0
 40
1.0
 40
1.0
 40
1.0
 10
449.7778700033
 20
126.2719700474
 30
0.0
 10
449.8770488453
 20
126.390563615
 30
0.0
 10
450.0794058759
 20
126.6016872446
 30
0.0
 10
450.3537652421
 20
126.8179632053
 30
0.0
 10
450.5669044804
 20
126.9325282525
 30
0.0
 10
450.7229775078
 20
126.9898059419
 30
0.0
 10
450.8505272342
 20
126.9940669333
 30
0.0
 10
450.9055011482
 20
126.9583135498
 30
0.0
  0
SPLINE
  5
5DA
100
AcDbEntity
  8
KONSTRUKTIONSELEMENTE
100
AcDbSpline
 62
7
  6
CONTINUOUS
 70
0
 71
3
 72
12
 73
8
 74
0
 42
0.0000001
 43
0.0000001
 44
0.0000000001
 40
0.0
 40
0.0
 40
0.0
 40
0.0
 40
0.1424771274
 40
0.2441121659
 40
0.3668815707
 40
0.6641109534
 40
1.0
 40
1.0
 40
1.0
 40
1.0
 10
452.1008461032
 20
126.180897073
 30
0.0
 10
452.1558200172
 20
126.1451436895
 30
0.0
 10
452.2833697436
 20
126.1494046809
 30
0.0
 10
452.439442771
 20
126.2066823703
 30
0.0
 10
452.6525820093
 20
126.3212474175
 30
0.0
 10
452.9269413755
 20
126.5375233782
 30
0.0
 10
453.1292984061
 20
126.7486470078
 30
0.0
 10
453.2284772481
 20
126.8672405754
 30
0.0
  0
SPLINE
  5
5DB
100
AcDbEntity
  8
BEZUGSACHSEN
100
AcDbSpline
 62
7
  6
CONTINUOUS
 70
0
 71
3
 72
16
 73
12
 74
0
 42
0.0000001
 43
0.0000001
 44
0.0000000001
 40
0.0
 40
0.0
 40
0.0
 40
0.0
 40
0.180402773
 40
0.3480789013
 40
0.5001293487
 40
0.5696674528
 40
0.6346058587
 40
0.7502117022
 40
0.8472976962
 40
0.9284979532
 40
1.0
 40
1.0
 40
1.0
 40
1.0
 10
466.3459865338
 20
118.5837920473
 30
0.0
 10
466.1598569419
 20
118.4225990923
 30
0.0
 10
465.791631376
 20
118.1218201833
 30
0.0
 10
465.2349208759
 20
117.7259022123
 30
0.0
 10
464.7783832706
 20
117.4526245839
 30
0.0
 10
464.4283618091
 20
117.2777563738
 30
0.0
 10
464.1147377166
 20
117.1427693781
 30
0.0
 10
463.7529250641
 20
117.0253713331
 30
0.0
 10
463.3527369089
 20
116.9701551325
 30
0.0
 10
463.0089407554
 20
117.0106854445
 30
0.0
 10
462.8192104259
 20
117.1122592774
 30
0.0
 10
462.7454359392
 20
117.1761445342
 30
0.0
  0
SPLINE
  5
5DC
100
AcDbEntity
  8
KONSTRUKTIONSELEMENTE
100
AcDbSpline
 62
7
  6
CONTINUOUS
 70
0
 71
3
 72
9
 73
5
 74
0
 42
0.0000001
 43
0.0000001
 44
0.0000000001
 40
0.0
 40
0.0
 40
0.0
 40
0.0
 40
0.5487156268
 40
1.0
 40
1.0
 40
1.0
 40
1.0
 10
427.4551135685
 20
76.7328735383
 30
0.0
 10
427.4551135685
 20
76.6183838007
 30
0.0
 10
427.4777449277
 20
76.4063758097
 30
0.0
 10
427.5937935653
 20
76.2202498091
 30
0.0
 10
427.6649748463
 20
76.1586100778
 30
0.0
  0
SPLINE
  5
5DD
100
AcDbEntity
  8
KONSTRUKTIONSELEMENTE
100
AcDbSpline
 62
7
  6
CONTINUOUS
 70
0
 71
3
 72
9
 73
5
 74
0
 42
0.0000001
 43
0.0000001
 44
0.0000000001
 40
0.0
 40
0.0
 40
0.0
 40
0.0
 40
0.5486959742
 40
1.0
 40
1.0
 40
1.0
 40
1.0
 10
427.4551135685
 20
84.233308084
 30
0.0
 10
427.4551135685
 20
84.3248940261
 30
0.0
 10
427.4370014273
 20
84.49448721
 30
0.0
 10
427.3441905609
 20
84.6434067222
 30
0.0
 10
427.2872381496
 20
84.6927117613
 30
0.0
  0
SPLINE
  5
5DE
100
AcDbEntity
  8
KONSTRUKTIONSELEMENTE
100
AcDbSpline
 62
7
  6
CONTINUOUS
 70
0
 71
3
 72
13
 73
9
 74
0
 42
0.0000001
 43
0.0000001
 44
0.0000000001
 40
0.0
 40
0.0
 40
0.0
 40
0.0
 40
0.0843625955
 40
0.1746175943
 40
0.2754204456
 40
0.3897531286
 40
0.6639913559
 40
1.0
 40
1.0
 40
1.0
 40
1.0
 10
457.8867231885
 20
96.708482461
 30
0.0
 10
457.9237424176
 20
96.6764207628
 30
0.0
 10
457.9906442987
 20
96.5980554106
 30
0.0
 10
458.0579016185
 20
96.4512438694
 30
0.0
 10
458.0941366047
 20
96.2764965898
 30
0.0
 10
458.1024278786
 20
95.9914485962
 30
0.0
 10
458.0265132201
 20
95.5738651474
 30
0.0
 10
457.9069596264
 20
95.2394413493
 30
0.0
 10
457.831467217
 20
95.0595866637
 30
0.0
  0
SPLINE
  5
5DF
100
AcDbEntity
  8
BEZUGSACHSEN
100
AcDbSpline
 62
7
  6
CONTINUOUS
 70
0
 71
3
 72
11
 73
7
 74
0
 42
0.0000001
 43
0.0000001
 44
0.0000000001
 40
0.0
 40
0.0
 40
0.0
 40
0.0
 40
0.2121565924
 40
0.4416319996
 40
0.7016094034
 40
1.0
 40
1.0
 40
1.0
 40
1.0
 10
469.9465371284
 20
125.4914395604
 30
0.0
 10
470.0019864528
 20
125.4434230375
 30
0.0
 10
470.1014127906
 20
125.3236762669
 30
0.0
 10
470.1957097225
 20
125.097214456
 30
0.0
 10
470.2394459673
 20
124.8264878156
 30
0.0
 10
470.2361688406
 20
124.6326035182
 30
0.0
 10
470.227976924
 20
124.52976523
 30
0.0
  0
SPLINE
  5
5E0
100
AcDbEntity
  8
BEZUGSACHSEN
100
AcDbSpline
 62
7
  6
CONTINUOUS
 70
0
 71
3
 72
9
 73
5
 74
0
 42
0.0000001
 43
0.0000001
 44
0.0000000001
 40
0.0
 40
0.0
 40
0.0
 40
0.0
 40
0.2553937655
 40
1.0
 40
1.0
 40
1.0
 40
1.0
 10
467.6286873193
 20
119.8485231852
 30
0.0
 10
467.5261633662
 20
119.7344082149
 30
0.0
 10
467.1181177229
 20
119.293606906
 30
0.0
 10
466.6840821773
 20
118.8765914635
 30
0.0
 10
466.3459865338
 20
118.5837920473
 30
0.0
  0
SPLINE
  5
5E1
100
AcDbEntity
  8
KONSTRUKTIONSELEMENTE
100
AcDbSpline
 62
7
  6
CONTINUOUS
 70
0
 71
3
 72
13
 73
9
 74
0
 42
0.0000001
 43
0.0000001
 44
0.0000000001
 40
0.0
 40
0.0
 40
0.0
 40
0.0
 40
0.2854781235
 40
0.5704521399
 40
0.700966491
 40
0.8178838308
 40
0.9181009276
 40
1.0
 40
1.0
 40
1.0
 40
1.0
 10
425.1923718687
 20
87.5137162898
 30
0.0
 10
425.5019707556
 20
87.7818367908
 30
0.0
 10
426.0780971086
 20
88.3674216886
 30
0.0
 10
426.6863332226
 20
89.1727151537
 30
0.0
 10
427.0720717879
 20
89.8329072942
 30
0.0
 10
427.2827925805
 20
90.2861015946
 30
0.0
 10
427.4163445435
 20
90.6948143421
 30
0.0
 10
427.4551135685
 20
90.955811683
 30
0.0
 10
427.4551135685
 20
91.073308084
 30
0.0
  0
SPLINE
  5
5E2
100
AcDbEntity
  8
KONSTRUKTIONSELEMENTE
100
AcDbSpline
 62
7
  6
CONTINUOUS
 70
0
 71
3
 72
12
 73
8
 74
0
 42
0.0000001
 43
0.0000001
 44
0.0000000001
 40
0.0
 40
0.0
 40
0.0
 40
0.0
 40
0.1424771274
 40
0.2441121659
 40
0.3668815707
 40
0.6641109534
 40
1.0
 40
1.0
 40
1.0
 40
1.0
 10
453.6210603041
 20
122.7502650438
 30
0.0
 10
453.6760342182
 20
122.7145116604
 30
0.0
 10
453.8035839446
 20
122.7187726518
 30
0.0
 10
453.959656972
 20
122.7760503412
 30
0.0
 10
454.1727962103
 20
122.8906153884
 30
0.0
 10
454.4471555765
 20
123.106891349
 30
0.0
 10
454.6495126071
 20
123.3180149787
 30
0.0
 10
454.7486914491
 20
123.4366085463
 30
0.0
  0
SPLINE
  5
5E3
100
AcDbEntity
  8
KONSTRUKTIONSELEMENTE
100
AcDbSpline
 62
7
  6
CONTINUOUS
 70
0
 71
3
 72
10
 73
6
 74
0
 42
0.0000001
 43
0.0000001
 44
0.0000000001
 40
0.0
 40
0.0
 40
0.0
 40
0.0
 40
0.3401098209
 40
0.6176924174
 40
1.0
 40
1.0
 40
1.0
 40
1.0
 10
456.1579842801
 20
91.0726461238
 30
0.0
 10
456.1504354589
 20
91.0546616554
 30
0.0
 10
456.1386101002
 20
91.020822092
 30
0.0
 10
456.1277076335
 20
90.9655907258
 30
0.0
 10
456.1358821031
 20
90.9221176674
 30
0.0
 10
456.1524527974
 20
90.9077617058
 30
0.0
  0
SPLINE
  5
5E4
100
AcDbEntity
  8
KONSTRUKTIONSELEMENTE
100
AcDbSpline
 62
7
  6
CONTINUOUS
 70
0
 71
3
 72
12
 73
8
 74
0
 42
0.0000001
 43
0.0000001
 44
0.0000000001
 40
0.0
 40
0.0
 40
0.0
 40
0.0
 40
0.303216907
 40
0.581772921
 40
0.8177338134
 40
0.9159369993
 40
1.0
 40
1.0
 40
1.0
 40
1.0
 10
429.0881957383
 20
96.2837592546
 30
0.0
 10
428.8502293019
 20
95.9992097672
 30
0.0
 10
428.4196264648
 20
95.430542661
 30
0.0
 10
427.9035527691
 20
94.5716794608
 30
0.0
 10
427.603802968
 20
93.8798776103
 30
0.0
 10
427.4787943202
 20
93.3827116069
 30
0.0
 10
427.4551135685
 20
93.1596913772
 30
0.0
 10
427.4551135685
 20
93.056853035
 30
0.0
  0
SPLINE
  5
5E5
100
AcDbEntity
  8
KONSTRUKTIONSELEMENTE
100
AcDbSpline
 62
7
  6
CONTINUOUS
 70
0
 71
3
 72
15
 73
11
 74
0
 42
0.0000001
 43
0.0000001
 44
0.0000000001
 40
0.0
 40
0.0
 40
0.0
 40
0.0
 40
0.0643794215
 40
0.1447670279
 40
0.2460796662
 40
0.3684482679
 40
0.5094197477
 40
0.6650286244
 40
0.8303788796
 40
1.0
 40
1.0
 40
1.0
 40
1.0
 10
463.7468672281
 20
135.5202731271
 30
0.0
 10
463.6637926765
 20
135.5743023217
 30
0.0
 10
463.4396051993
 20
135.6379615924
 30
0.0
 10
463.0586980748
 20
135.5924880836
 30
0.0
 10
462.6154823012
 20
135.4345233237
 30
0.0
 10
462.120408418
 20
135.1667270204
 30
0.0
 10
461.5896041397
 20
134.798758706
 30
0.0
 10
461.0426272399
 20
134.3432062456
 30
0.0
 10
460.5001242391
 20
133.8170203351
 30
0.0
 10
460.1555958716
 20
133.432749322
 30
0.0
 10
459.988096745
 20
133.2324614523
 30
0.0
  0
SPLINE
  5
5E6
100
AcDbEntity
  8
KONSTRUKTIONSELEMENTE
100
AcDbSpline
 62
7
  6
CONTINUOUS
 70
0
 71
3
 72
11
 73
7
 74
0
 42
0.0000001
 43
0.0000001
 44
0.0000000001
 40
0.0
 40
0.0
 40
0.0
 40
0.0
 40
0.3179594006
 40
0.6021603801
 40
0.8341697945
 40
1.0
 40
1.0
 40
1.0
 40
1.0
 10
457.0323524544
 20
130.3909215299
 30
0.0
 10
457.1330771017
 20
130.4462221162
 30
0.0
 10
457.3197676624
 20
130.5583557768
 30
0.0
 10
457.5634697518
 20
130.737673639
 30
0.0
 10
457.7413779705
 20
130.9075048362
 30
0.0
 10
457.8251492438
 20
131.0299274874
 30
0.0
 10
457.8421191333
 20
131.0874038212
 30
0.0
  0
SPLINE
  5
5E7
100
AcDbEntity
  8
KONSTRUKTIONSELEMENTE
100
AcDbSpline
 62
7
  6
CONTINUOUS
 70
0
 71
3
 72
13
 73
9
 74
0
 42
0.0000001
 43
0.0000001
 44
0.0000000001
 40
0.0
 40
0.0
 40
0.0
 40
0.0
 40
0.3168637478
 40
0.6100579332
 40
0.7371323552
 40
0.8456364708
 40
0.9329740508
 40
1.0
 40
1.0
 40
1.0
 40
1.0
 10
458.3009816045
 20
129.292256458
 30
0.0
 10
458.3518328937
 20
129.4413132741
 30
0.0
 10
458.4333074356
 20
129.7340619443
 30
0.0
 10
458.4896337346
 20
130.097549845
 30
0.0
 10
458.4952327009
 20
130.3606897146
 30
0.0
 10
458.4794986981
 20
130.5210367608
 30
0.0
 10
458.4448350426
 20
130.6476650279
 30
0.0
 10
458.4021654841
 20
130.7146136539
 30
0.0
 10
458.3770350018
 20
130.7364836095
 30
0.0
  0
SPLINE
  5
5E8
100
AcDbEntity
  8
KONSTRUKTIONSELEMENTE
100
AcDbSpline
 62
7
  6
CONTINUOUS
 70
0
 71
3
 72
12
 73
8
 74
0
 42
0.0000001
 43
0.0000001
 44
0.0000000001
 40
0.0
 40
0.0
 40
0.0
 40
0.0
 40
0.3358890466
 40
0.6331184293
 40
0.7558878341
 40
0.8575228726
 40
1.0
 40
1.0
 40
1.0
 40
1.0
 10
452.0406117031
 20
124.3123782532
 30
0.0
 10
452.1397905451
 20
124.4309718208
 30
0.0
 10
452.3421475757
 20
124.6420954504
 30
0.0
 10
452.6165069419
 20
124.8583714111
 30
0.0
 10
452.8296461802
 20
124.9729364583
 30
0.0
 10
452.9857192076
 20
125.0302141477
 30
0.0
 10
453.113268934
 20
125.0344751391
 30
0.0
 10
453.168242848
 20
124.9987217556
 30
0.0
  0
SPLINE
  5
5E9
100
AcDbEntity
  8
KONSTRUKTIONSELEMENTE
100
AcDbSpline
 62
7
  6
CONTINUOUS
 70
0
 71
3
 72
12
 73
8
 74
0
 42
0.0000001
 43
0.0000001
 44
0.0000000001
 40
0.0
 40
0.0
 40
0.0
 40
0.0
 40
0.1424771274
 40
0.2441121659
 40
0.3668815707
 40
0.6641109534
 40
1.0
 40
1.0
 40
1.0
 40
1.0
 10
454.363587803
 20
124.2213052788
 30
0.0
 10
454.418561717
 20
124.1855518953
 30
0.0
 10
454.5461114434
 20
124.1898128867
 30
0.0
 10
454.7021844708
 20
124.2470905761
 30
0.0
 10
454.9153237091
 20
124.3616556233
 30
0.0
 10
455.1896830753
 20
124.577931584
 30
0.0
 10
455.3920401059
 20
124.7890552136
 30
0.0
 10
455.4912189479
 20
124.9076487812
 30
0.0
  0
SPLINE
  5
5EA
100
AcDbEntity
  8
KONSTRUKTIONSELEMENTE
100
AcDbSpline
 62
7
  6
CONTINUOUS
 70
0
 71
3
 72
13
 73
9
 74
0
 42
0.0000001
 43
0.0000001
 44
0.0000000001
 40
0.0
 40
0.0
 40
0.0
 40
0.0
 40
0.1424374923
 40
0.2440429614
 40
0.3667933689
 40
0.5081503164
 40
0.6641988276
 40
1.0
 40
1.0
 40
1.0
 40
1.0
 10
453.3382175917
 20
122.9952140181
 30
0.0
 10
453.3931930842
 20
122.9594596081
 30
0.0
 10
453.5207536346
 20
122.9637119075
 30
0.0
 10
453.6768064651
 20
123.0210030856
 30
0.0
 10
453.8264206375
 20
123.1012989082
 30
0.0
 10
453.9853193052
 20
123.2116550405
 30
0.0
 10
454.2096255679
 20
123.398433926
 30
0.0
 10
454.366665403
 20
123.5629585822
 30
0.0
 10
454.4658487366
 20
123.6815575206
 30
0.0
  0
SPLINE
  5
5EB
100
AcDbEntity
  8
KONSTRUKTIONSELEMENTE
100
AcDbSpline
 62
7
  6
CONTINUOUS
 70
0
 71
3
 72
12
 73
8
 74
0
 42
0.0000001
 43
0.0000001
 44
0.0000000001
 40
0.0
 40
0.0
 40
0.0
 40
0.0
 40
0.285581653
 40
0.5706156379
 40
0.817816411
 40
0.9180971044
 40
1.0
 40
1.0
 40
1.0
 40
1.0
 10
416.7070904945
 20
81.45514501
 30
0.0
 10
416.5909820932
 20
81.3545921849
 30
0.0
 10
416.3747483335
 20
81.1349367121
 30
0.0
 10
416.109522807
 20
80.7829661105
 30
0.0
 10
415.9451544787
 20
80.4821967951
 30
0.0
 10
415.8730972146
 20
80.2622351802
 30
0.0
 10
415.858562357
 20
80.1643486663
 30
0.0
 10
415.858562357
 20
80.1202980872
 30
0.0
  0
SPLINE
  5
5EC
100
AcDbEntity
  8
KONSTRUKTIONSELEMENTE
100
AcDbSpline
 62
7
  6
CONTINUOUS
 70
0
 71
3
 72
13
 73
9
 74
0
 42
0.0000001
 43
0.0000001
 44
0.0000000001
 40
0.0
 40
0.0
 40
0.0
 40
0.0
 40
0.0818990724
 40
0.1821161692
 40
0.299033509
 40
0.4295478601
 40
0.7145218765
 40
1.0
 40
1.0
 40
1.0
 40
1.0
 10
427.172270856
 20
92.1182570583
 30
0.0
 10
427.172270856
 20
92.0007606573
 30
0.0
 10
427.133501831
 20
91.7397633163
 30
0.0
 10
426.999949868
 20
91.3310505689
 30
0.0
 10
426.7892290754
 20
90.8778562685
 30
0.0
 10
426.4034905101
 20
90.2176641279
 30
0.0
 10
425.7952543961
 20
89.4123706628
 30
0.0
 10
425.2191280431
 20
88.8267857651
 30
0.0
 10
424.9095291562
 20
88.5586652641
 30
0.0
  0
SPLINE
  5
5ED
100
AcDbEntity
  8
KONSTRUKTIONSELEMENTE
100
AcDbSpline
 62
7
  6
CONTINUOUS
 70
0
 71
3
 72
13
 73
9
 74
0
 42
0.0000001
 43
0.0000001
 44
0.0000000001
 40
0.0
 40
0.0
 40
0.0
 40
0.0
 40
0.2854859153
 40
0.5704513138
 40
0.7009656111
 40
0.8178785543
 40
0.9181069222
 40
1.0
 40
1.0
 40
1.0
 40
1.0
 10
424.9095291562
 20
87.7586652641
 30
0.0
 10
425.2191362652
 20
88.0267928856
 30
0.0
 10
425.7952598356
 20
88.6123772823
 30
0.0
 10
426.403496754
 20
89.4176702315
 30
0.0
 10
426.7892059544
 20
90.0778551077
 30
0.0
 10
426.9999595178
 20
90.5310458445
 30
0.0
 10
427.1334859716
 20
90.9397675215
 30
0.0
 10
427.172270856
 20
91.200769344
 30
0.0
 10
427.172270856
 20
91.3182570583
 30
0.0
  0
SPLINE
  5
5EE
100
AcDbEntity
  8
KONSTRUKTIONSELEMENTE
100
AcDbSpline
 62
7
  6
CONTINUOUS
 70
0
 71
3
 72
9
 73
5
 74
0
 42
0.0000001
 43
0.0000001
 44
0.0000000001
 40
0.0
 40
0.0
 40
0.0
 40
0.0
 40
0.2756955256
 40
1.0
 40
1.0
 40
1.0
 40
1.0
 10
427.172270856
 20
84.4782570583
 30
0.0
 10
427.172270856
 20
84.5064221538
 30
0.0
 10
427.1684615104
 20
84.6083814278
 30
0.0
 10
427.1476500214
 20
84.7109014054
 30
0.0
 10
427.1183197441
 20
84.7788352153
 30
0.0
  0
SPLINE
  5
5EF
100
AcDbEntity
  8
KONSTRUKTIONSELEMENTE
100
AcDbSpline
 62
7
  6
CONTINUOUS
 70
0
 71
3
 72
9
 73
5
 74
0
 42
0.0000001
 43
0.0000001
 44
0.0000000001
 40
0.0
 40
0.0
 40
0.0
 40
0.0
 40
0.5486959742
 40
1.0
 40
1.0
 40
1.0
 40
1.0
 10
427.172270856
 20
83.6782570583
 30
0.0
 10
427.172270856
 20
83.7698430003
 30
0.0
 10
427.1541587148
 20
83.9394361843
 30
0.0
 10
427.0613478484
 20
84.0883556964
 30
0.0
 10
427.0043954371
 20
84.1376607356
 30
0.0
  0
SPLINE
  5
5F0
100
AcDbEntity
  8
KONSTRUKTIONSELEMENTE
100
AcDbSpline
 62
7
  6
CONTINUOUS
 70
0
 71
3
 72
9
 73
5
 74
0
 42
0.0000001
 43
0.0000001
 44
0.0000000001
 40
0.0
 40
0.0
 40
0.0
 40
0.0
 40
0.5484587228
 40
1.0
 40
1.0
 40
1.0
 40
1.0
 10
415.858562357
 20
76.0802980872
 30
0.0
 10
415.858562357
 20
76.045974466
 30
0.0
 10
415.8653871902
 20
75.9824028698
 30
0.0
 10
415.9001358467
 20
75.926538353
 30
0.0
 10
415.9214973313
 20
75.908039147
 30
0.0
  0
SPLINE
  5
5F1
100
AcDbEntity
  8
0
100
AcDbSpline
 62
7
  6
CONTINUOUS
 70
0
 71
3
 72
11
 73
7
 74
0
 42
0.0000001
 43
0.0000001
 44
0.0000000001
 40
0.0
 40
0.0
 40
0.0
 40
0.0
 40
0.2271632741
 40
0.4653196398
 40
0.722117124
 40
1.0
 40
1.0
 40
1.0
 40
1.0
 10
555.0584503212
 20
246.5098754629
 30
0.0
 10
555.0584503212
 20
247.4511036491
 30
0.0
 10
555.3163029287
 20
249.387979073
 30
0.0
 10
556.4734281689
 20
252.1805445025
 30
0.0
 10
558.3973863618
 20
254.776849878
 30
0.0
 10
560.1016281132
 20
256.2250763526
 30
0.0
 10
561.0505699199
 20
256.8771383067
 30
0.0
  0
SPLINE
  5
5F2
100
AcDbEntity
  8
0
100
AcDbSpline
 62
7
  6
CONTINUOUS
 70
0
 71
3
 72
11
 73
7
 74
0
 42
0.0000001
 43
0.0000001
 44
0.0000000001
 40
0.0
 40
0.0
 40
0.0
 40
0.0
 40
0.2778854083
 40
0.5346836177
 40
0.7728387085
 40
1.0
 40
1.0
 40
1.0
 40
1.0
 10
583.0660851676
 20
256.8773035724
 30
0.0
 10
584.0150706774
 20
256.2252385913
 30
0.0
 10
585.7193897647
 20
254.7769976657
 30
0.0
 10
587.6434203324
 20
252.1806393316
 30
0.0
 10
588.800592007
 20
249.3880263493
 30
0.0
 10
589.0584503212
 20
247.4511177029
 30
0.0
 10
589.0584503212
 20
246.5098754629
 30
0.0
  0
SPLINE
  5
5F3
100
AcDbEntity
  8
0
100
AcDbSpline
 62
7
  6
CONTINUOUS
 70
0
 71
3
 72
15
 73
11
 74
0
 42
0.0000001
 43
0.0000001
 44
0.0000000001
 40
0.0
 40
0.0
 40
0.0
 40
0.0
 40
0.1216443396
 40
0.2436829815
 40
0.3664942102
 40
0.490401278
 40
0.6156465481
 40
0.7423612383
 40
0.870532311
 40
1.0
 40
1.0
 40
1.0
 40
1.0
 10
539.0584503212
 20
246.5098754629
 30
0.0
 10
539.0584503212
 20
248.052168044
 30
0.0
 10
539.3273483749
 20
251.1483553312
 30
0.0
 10
540.5234357523
 20
255.6608126771
 30
0.0
 10
542.4741096016
 20
259.934064713
 30
0.0
 10
545.1205227062
 20
263.8623865898
 30
0.0
 10
548.3882442036
 20
267.3576175825
 30
0.0
 10
552.1924342789
 20
270.3464977195
 30
0.0
 10
556.4390846595
 20
272.769808227
 30
0.0
 10
559.4893605796
 20
273.9736287082
 30
0.0
 10
561.0542055136
 20
274.4693354475
 30
0.0
  0
SPLINE
  5
5F4
100
AcDbEntity
  8
0
100
AcDbSpline
 62
7
  6
CONTINUOUS
 70
0
 71
3
 72
15
 73
11
 74
0
 42
0.0000001
 43
0.0000001
 44
0.0000000001
 40
0.0
 40
0.0
 40
0.0
 40
0.0
 40
0.1294682683
 40
0.257639392
 40
0.3843536869
 40
0.5095984777
 40
0.6335049419
 40
0.7563158278
 40
0.8783545891
 40
1.0
 40
1.0
 40
1.0
 40
1.0
 10
583.0592617522
 20
274.4704214652
 30
0.0
 10
584.6243080253
 20
273.9748128367
 30
0.0
 10
587.6750002655
 20
272.7711798723
 30
0.0
 10
591.9222616427
 20
270.3479962966
 30
0.0
 10
595.7270355306
 20
267.3591340314
 30
0.0
 10
598.9952849594
 20
263.8637995222
 30
0.0
 10
601.6421491264
 20
259.9352603955
 30
0.0
 10
603.5931762103
 20
255.6616897977
 30
0.0
 10
604.7894982526
 20
251.1488234537
 30
0.0
 10
605.0584503212
 20
248.0523272354
 30
0.0
 10
605.0584503212
 20
246.5098754629
 30
0.0
  0
SPLINE
  5
5F5
100
AcDbEntity
  8
0
100
AcDbSpline
 62
7
  6
CONTINUOUS
 70
0
 71
3
 72
15
 73
11
 74
0
 42
0.0000001
 43
0.0000001
 44
0.0000000001
 40
0.0
 40
0.0
 40
0.0
 40
0.0
 40
0.1212740553
 40
0.2430054443
 40
0.3656277137
 40
0.4894991939
 40
0.614868772
 40
0.7418320422
 40
0.8702986694
 40
1.0
 40
1.0
 40
1.0
 40
1.0
 10
605.0584503212
 20
215.3329609266
 30
0.0
 10
605.0584503212
 20
213.6693836477
 30
0.0
 10
604.745177343
 20
210.3276833183
 30
0.0
 10
603.3544726838
 20
205.4806936851
 30
0.0
 10
601.0944224977
 20
200.932716053
 30
0.0
 10
598.0434867111
 20
196.8129907666
 30
0.0
 10
594.2997028707
 20
193.2267685669
 30
0.0
 10
589.9736682229
 20
190.2592741759
 30
0.0
 10
585.1868680658
 20
187.9771957862
 30
0.0
 10
581.7818669749
 20
186.948477308
 30
0.0
 10
580.0454667992
 20
186.5606752799
 30
0.0
  0
SPLINE
  5
5F6
100
AcDbEntity
  8
0
100
AcDbSpline
 62
7
  6
CONTINUOUS
 70
0
 71
3
 72
11
 73
7
 74
0
 42
0.0000001
 43
0.0000001
 44
0.0000000001
 40
0.0
 40
0.0
 40
0.0
 40
0.0
 40
0.2543946817
 40
0.5061619811
 40
0.7547411569
 40
1.0
 40
1.0
 40
1.0
 40
1.0
 10
564.07078341
 20
186.5608263808
 30
0.0
 10
562.2217254894
 20
186.973817901
 30
0.0
 10
558.600446236
 20
188.0867615566
 30
0.0
 10
553.541385569
 20
190.5924176091
 30
0.0
 10
549.0240579991
 20
193.8661401794
 30
0.0
 10
546.4506991859
 20
196.5262119211
 30
0.0
 10
545.3062683863
 20
197.949822283
 30
0.0
  0
SPLINE
  5
5F7
100
AcDbEntity
  8
0
100
AcDbSpline
 62
7
  6
CONTINUOUS
 70
0
 71
3
 72
9
 73
5
 74
0
 42
0.0000001
 43
0.0000001
 44
0.0000000001
 40
0.0
 40
0.0
 40
0.0
 40
0.0
 40
0.5014863472
 40
1.0
 40
1.0
 40
1.0
 40
1.0
 10
541.9572259141
 20
203.1606685274
 30
0.0
 10
541.0160720281
 20
205.0444678573
 30
0.0
 10
539.5562791427
 20
209.0259165149
 30
0.0
 10
539.0584503212
 20
213.2396254654
 30
0.0
 10
539.0584503212
 20
215.3329609266
 30
0.0
  0
SPLINE
  5
5F8
100
AcDbEntity
  8
0
100
AcDbSpline
 62
7
  6
CONTINUOUS
 70
0
 71
3
 72
14
 73
10
 74
0
 42
0.0000001
 43
0.0000001
 44
0.0000000001
 40
0.0
 40
0.0
 40
0.0
 40
0.0
 40
0.1063900054
 40
0.2156017555
 40
0.3299155885
 40
0.4508360261
 40
0.5789278828
 40
0.7139370388
 40
1.0
 40
1.0
 40
1.0
 40
1.0
 10
589.0584503212
 20
215.3329609266
 30
0.0
 10
589.0584503212
 20
214.6579465459
 30
0.0
 10
588.9282805061
 20
213.2866514389
 30
0.0
 10
588.3422239733
 20
211.2652971198
 30
0.0
 10
587.3582892087
 20
209.3007124709
 30
0.0
 10
585.9773535375
 20
207.4412170499
 30
0.0
 10
584.2132137929
 20
205.744387358
 30
0.0
 10
581.3463654977
 20
203.7458873291
 30
0.0
 10
578.8193466787
 20
202.7353784474
 30
0.0
 10
577.0587026466
 20
202.2945666541
 30
0.0
  0
SPLINE
  5
5F9
100
AcDbEntity
  8
0
100
AcDbSpline
 62
7
  6
CONTINUOUS
 70
0
 71
3
 72
9
 73
5
 74
0
 42
0.0000001
 43
0.0000001
 44
0.0000000001
 40
0.0
 40
0.0
 40
0.0
 40
0.0
 40
0.5209612268
 40
1.0
 40
1.0
 40
1.0
 40
1.0
 10
567.0569517094
 20
202.2948785582
 30
0.0
 10
565.3360645857
 20
202.7258390889
 30
0.0
 10
562.1233746545
 20
203.9957984806
 30
0.0
 10
559.4009078076
 20
206.1422991654
 30
0.0
 10
558.3070419796
 20
207.3524650431
 30
0.0
  0
ELLIPSE
  5
5FA
100
AcDbEntity
  8
KONSTRUKTIONSELEMENTE
100
AcDbEllipse
 62
7
  6
CONTINUOUS
 10
70.3954781588
 20
131.7115714077
 30
0.0
 11
1.2190545427
 21
-0.2881363524
 31
0.0
 40
0.0607989098
 41
-2.7235007144
 42
-1.1527043876
  0
ELLIPSE
  5
5FB
100
AcDbEntity
  8
KONSTRUKTIONSELEMENTE
100
AcDbEllipse
 62
7
  6
CONTINUOUS
 10
74.0503783512
 20
129.6952626046
 30
0.0
 11
-0.6571930639
 21
1.2278016269
 31
0.0
 40
0.7424978488
 41
4.1566475332
 42
5.72744386
  0
ELLIPSE
  5
5FC
100
AcDbEntity
  8
0
100
AcDbEllipse
 62
7
  6
CONTINUOUS
 10
328.3457252412
 20
130.9671081751
 30
0.0
 11
-24.248711306
 21
42.0
 31
0.0
 40
0.5773502692
 41
-0.3895798701
 42
-0.1632238035
  0
ELLIPSE
  5
5FD
100
AcDbEntity
  8
0
100
AcDbEllipse
 62
7
  6
CONTINUOUS
 10
328.3457252412
 20
130.9671081751
 30
0.0
 11
-24.248711306
 21
42.0
 31
0.0
 40
0.5773502692
 41
0.1632238035
 42
0.3895798701
  0
ELLIPSE
  5
5FE
100
AcDbEntity
  8
KONSTRUKTIONSELEMENTE
100
AcDbEllipse
 62
7
  6
CONTINUOUS
 10
107.9284296482
 20
130.9671081751
 30
0.0
 11
24.248711306
 21
42.0
 31
0.0
 40
0.5773502692
 41
-0.3895798701
 42
-0.1632238035
  0
ELLIPSE
  5
5FF
100
AcDbEntity
  8
KONSTRUKTIONSELEMENTE
100
AcDbEllipse
 62
7
  6
CONTINUOUS
 10
107.9284296482
 20
130.9671081751
 30
0.0
 11
24.248711306
 21
42.0
 31
0.0
 40
0.5773502692
 41
0.1632238035
 42
0.3895798701
  0
ELLIPSE
  5
600
100
AcDbEntity
  8
KONSTRUKTIONSELEMENTE
100
AcDbEllipse
 62
7
  6
CONTINUOUS
 10
608.8084503212
 20
130.9671081751
 30
0.0
 11
-27.2509717051
 21
44.0929984453
 31
0.0
 40
0.1458980338
 41
0.5699258004
 42
0.6214036746
  0
ELLIPSE
  5
601
100
AcDbEntity
  8
0
100
AcDbEllipse
 62
7
  6
CONTINUOUS
 10
535.3084503212
 20
130.9671081751
 30
0.0
 11
27.2509717051
 21
44.0929984453
 31
0.0
 40
0.1458980338
 41
-0.6214036746
 42
-0.5699258004
  0
ELLIPSE
  5
602
100
AcDbEntity
  8
0
100
AcDbEllipse
 62
7
  6
CONTINUOUS
 10
566.9183647179
 20
184.0831335789
 30
0.0
 11
0.1486249178
 21
-3.9993103621
 31
0.0
 40
0.4997412519
 41
0.5050292078
 42
1.3717821734
  0
ELLIPSE
  5
603
100
AcDbEntity
  8
RUNDUNGEN
100
AcDbEllipse
 62
7
  6
CONTINUOUS
 10
577.1985359244
 20
184.0831335789
 30
0.0
 11
0.1486249178
 21
3.9993103621
 31
0.0
 40
0.4997412519
 41
-4.513374827
 42
-3.6466218614
  0
ELLIPSE
  5
604
100
AcDbEntity
  8
KONSTRUKTIONSELEMENTE
100
AcDbEllipse
 62
7
  6
CONTINUOUS
 10
456.5194030551
 20
133.6711632019
 30
0.0
 11
-0.1344257292
 21
1.6705470633
 31
0.0
 40
0.2046205075
 41
1.414284035
 42
2.9366755487
  0
ELLIPSE
  5
605
100
AcDbEntity
  8
KONSTRUKTIONSELEMENTE
100
AcDbEllipse
 62
7
  6
CONTINUOUS
 10
458.7821447549
 20
131.7115714077
 30
0.0
 11
1.6566910203
 21
0.13331076
 31
0.0
 40
0.1605475814
 41
1.7760442449
 42
3.2984357586
  0
ELLIPSE
  5
606
100
AcDbEntity
  8
KONSTRUKTIONSELEMENTE
100
AcDbEllipse
 62
7
  6
CONTINUOUS
 10
459.4291056306
 20
129.6952626046
 30
0.0
 11
1.0985426996
 21
1.2922902194
 31
0.0
 40
0.2502772103
 41
-1.538620793
 42
0.0321755338
  0
ENDSEC
  0
SECTION
  2
OBJECTS
  0
DICTIONARY
  5
C
100
AcDbDictionary
280
0
281
1
  3
ACAD_GROUP
350
D
  3
ACAD_MLINESTYLE
350
17
  3
ACAD_LAYOUT
350
1A
  3
ACAD_PLOTSETTINGS
350
19
  3
ACAD_PLOTSTYLENAME
350
E
  0
DICTIONARY
  5
D
102
{ACAD_REACTORS
330
C
102
}
100
AcDbDictionary
280
0
281
1
  0
ACDBDICTIONARYWDFLT
  5
E
102
{ACAD_REACTORS
330
C
102
}
100
AcDbDictionary
281
1
  3
Normal
350
F
100
AcDbDictionaryWithDefault
340
F
  0
DICTIONARY
  5
17
102
{ACAD_REACTORS
330
C
102
}
100
AcDbDictionary
280
0
281
1
  3
Standard
350
18
  0
DICTIONARY
  5
19
102
{ACAD_REACTORS
330
C
102
}
100
AcDbDictionary
281
1
  0
DICTIONARY
  5
1A
102
{ACAD_REACTORS
330
C
102
}
100
AcDbDictionary
281
1
  3
Model
350
607
  3
Layout1
350
608
  0
ACDBPLACEHOLDER
  5
F
102
{ACAD_REACTORS
330
E
102
}
  0
MLINESTYLE
  5
18
102
{ACAD_REACTORS
330
17
102
}
100
AcDbMlineStyle
  2
STANDARD
 70
0
  3

 62
256
 51
90.0
 52
90.0
 71
2
 49
0.5
 62
256
  6
BYLAYER
 49
-0.5
 62
256
  6
BYLAYER
  0
LAYOUT
  5
607
102
{ACAD_REACTORS
330
1A
102
}
100
AcDbPlotSettings
  1

  2
none_device
  4
ISO_A1_(594.00_x_841.00_MM)
  6

 40
0.0
 41
0.0
 42
0.0
 43
0.0
 44
841.0
 45
594.0
 46
0.0
 47
0.0
 48
0.0
 49
0.0
140
0.0
141
0.0
142
1.0
143
1.0
 70
1024
 72
1
 73
0
 74
0
  7

 75
0
147
1.0
148
0.0
149
0.0
100
AcDbLayout
  1
Model
 70
0
 71
0
 10
0.0
 20
0.0
 11
841.0
 21
594.0
 12
0.0
 22
0.0
 32
0.0
 14
0.0
 24
0.0
 34
0.0
 15
0.0
 25
0.0
 35
0.0
146
0.0
 13
0.0
 23
0.0
 33
0.0
 16
1.0
 26
0.0
 36
0.0
 17
0.0
 27
1.0
 37
0.0
 76
0
330
20C
345
0
346
0
  0
LAYOUT
  5
608
102
{ACAD_REACTORS
330
1A
102
}
100
AcDbPlotSettings
  1

  2
none_device
  4
ISO_A1_(594.00_x_841.00_MM)
  6

 40
0.0
 41
0.0
 42
0.0
 43
0.0
 44
841.0
 45
594.0
 46
0.0
 47
0.0
 48
0.0
 49
0.0
140
0.0
141
0.0
142
1.0
143
1.0
 70
0
 72
1
 73
0
 74
0
  7

 75
0
147
1.0
148
0.0
149
0.0
100
AcDbLayout
  1
Layout1
 70
0
 71
1
 10
0.0
 20
0.0
 11
841.0
 21
594.0
 12
0.0
 22
0.0
 32
0.0
 14
0.0
 24
0.0
 34
0.0
 15
0.0
 25
0.0
 35
0.0
146
0.0
 13
0.0
 23
0.0
 33
0.0
 16
1.0
 26
0.0
 36
0.0
 17
0.0
 27
1.0
 37
0.0
 76
0
330
20D
345
0
346
0
  0
ENDSEC
  0
EOF
