999
DXF file: VSAK-2-6_140_7994070_M32393-P-1.dxf
999
Pro/ENGINEER 2010140 by Parametric Technology Corporation
  0
SECTION
  2
HEADER
  9
$ACADVER
  1
AC1015
  9
$DWGCODEPAGE
  3
ANSI_1252
  9
$EXTMAX
 10
841.0
 20
594.0
 30
0.0
  9
$EXTMIN
 10
0.0
 20
0.0
 30
0.0
  9
$LIMMIN
 10
0.0
 20
0.0
  9
$LIMMAX
 10
841.0
 20
594.0
  9
$VIEWCTR
 10
420.5
 20
297.0
  9
$VIEWSIZE
 40
594.0
  9
$CLAYER
  8
0
  9
$LTSCALE
 40
46.255
  9
$CELTYPE
  6
BYLAYER
  9
$DIMSCALE
 40
1.0
  9
$DIMASZ
 40
3.5
  9
$DIMEXO
 40
5.25625
  9
$DIMDLI
 40
31.958
  9
$DIMEXE
 40
15.138
  9
$DIMCEN
 40
7.569
  9
$DIMLFAC
 40
1.0
  9
$DIMBLK
  1
_FILLED
  9
$DIMTXT
 40
3.5
  9
$DIMTOL
 70
1
  9
$DIMLIM
 70
0
  9
$DIMTFAC
 40
1.0
  9
$DIMTP
 40
0.005
  9
$DIMTM
 40
0.005
  9
$PDMODE
 70
3
  9
$PDSIZE
 40
0.3125
  9
$HANDSEED
  5
5FF
  9
$TILEMODE
 70
1
  9
$MEASUREMENT
 70
1
  9
$INSUNITS
 70
4
  0
ENDSEC
  0
SECTION
  2
CLASSES
  0
CLASS
  1
ACDBDICTIONARYWDFLT
  2
AcDbDictionaryWithDefault
  3
AutoCAD 2000
 90
0
280
0
281
0
  0
CLASS
  1
ACDBPLACEHOLDER
  2
AcDbPlaceHolder
  3
AutoCAD 2000
 90
0
280
0
281
0
  0
CLASS
  1
LAYOUT
  2
AcDbLayout
  3
AutoCAD 2000
 90
0
280
0
281
0
  0
ENDSEC
  0
SECTION
  2
TABLES
  0
TABLE
  2
VPORT
  5
8
100
AcDbSymbolTable
 70
2
  0
VPORT
  5
1F4
100
AcDbSymbolTableRecord
100
AcDbViewportTableRecord
  2
*ACTIVE
 70
0
 10
0.0
 20
0.0
 11
1.0
 21
1.0
 12
420.5
 22
297.0
 13
0.0
 23
0.0
 14
1.0
 24
1.0
 15
0.0
 25
0.0
 16
0.0
 26
0.0
 36
1.0
 17
0.0
 27
0.0
 37
0.0
 40
594.0
 41
1.4158249158
 42
50.0
 43
0.0
 44
0.0
 50
0.0
 51
0.0
 71
0
 72
100
 73
1
 74
1
 75
0
 76
0
 77
0
 78
0
  0
ENDTAB
  0
TABLE
  2
LTYPE
  5
5
100
AcDbSymbolTable
 70
6
  0
LTYPE
  5
14
100
AcDbSymbolTableRecord
100
AcDbLinetypeTableRecord
  2
BYBLOCK
 70
0
  3

 72
65
 73
0
 40
0.0
  0
LTYPE
  5
15
100
AcDbSymbolTableRecord
100
AcDbLinetypeTableRecord
  2
BYLAYER
 70
0
  3

 72
65
 73
0
 40
0.0
  0
LTYPE
  5
16
100
AcDbSymbolTableRecord
100
AcDbLinetypeTableRecord
  2
CONTINUOUS
 70
64
  3
Solid line
 72
65
 73
0
 40
0.0
  0
LTYPE
  5
1F5
100
AcDbSymbolTableRecord
100
AcDbLinetypeTableRecord
  2
CENTER
 70
64
  3
____ _ ____ _ ____ _ ____ _ ____ _ ____ _ ____
 72
65
 73
4
 40
0.6
 49
0.375
 74
0
 49
-0.075
 74
0
 49
0.075
 74
0
 49
-0.075
 74
0
  0
LTYPE
  5
1F6
100
AcDbSymbolTableRecord
100
AcDbLinetypeTableRecord
  2
HIDDEN
 70
64
  3
- - - - - - - - - - - - - - - - - - - -
 72
65
 73
2
 40
0.2
 49
0.1
 74
0
 49
-0.1
 74
0
  0
LTYPE
  5
1F7
100
AcDbSymbolTableRecord
100
AcDbLinetypeTableRecord
  2
PHANTOM
 70
64
  3
_____ _ _ _____ _ _ _____ _ _ _____
 72
65
 73
6
 40
0.8
 49
0.45
 74
0
 49
-0.05
 74
0
 49
0.1
 74
0
 49
-0.05
 74
0
 49
0.1
 74
0
 49
-0.05
 74
0
  0
LTYPE
  5
1F8
100
AcDbSymbolTableRecord
100
AcDbLinetypeTableRecord
  2
DOT
 70
64
  3
. . . . . . . . . . . . . . . . . . . .
 72
65
 73
2
 40
0.2
 49
0.1
 74
0
 49
-0.1
 74
0
  0
LTYPE
  5
1F9
100
AcDbSymbolTableRecord
100
AcDbLinetypeTableRecord
  2
DASHED
 70
64
  3
- - - - - - - - - - - - - - - - - - - -
 72
65
 73
2
 40
0.2
 49
0.1
 74
0
 49
-0.1
 74
0
  0
ENDTAB
  0
TABLE
  2
LAYER
  5
2
100
AcDbSymbolTable
 70
36
  0
LAYER
  5
10
100
AcDbSymbolTableRecord
100
AcDbLayerTableRecord
  2
0
 70
0
 62
7
  6
CONTINUOUS
370
-3
390
F
  0
LAYER
  5
1FA
100
AcDbSymbolTableRecord
100
AcDbLayerTableRecord
  2
DEFAULT_1
 70
0
 62
7
  6
CENTER
370
-3
390
F
  0
LAYER
  5
1FB
100
AcDbSymbolTableRecord
100
AcDbLayerTableRecord
  2
DEFAULT_2
 70
0
 62
8
  6
HIDDEN
370
-3
390
F
  0
LAYER
  5
1FC
100
AcDbSymbolTableRecord
100
AcDbLayerTableRecord
  2
DEFAULT_3
 70
0
 62
7
  6
PHANTOM
370
-3
390
F
  0
LAYER
  5
1FD
100
AcDbSymbolTableRecord
100
AcDbLayerTableRecord
  2
AUSFORMSCHRAEGEN
 70
0
 62
7
  6
CONTINUOUS
370
-3
390
F
  0
LAYER
  5
1FE
100
AcDbSymbolTableRecord
100
AcDbLayerTableRecord
  2
BEZUGSACHSEN
 70
0
 62
7
  6
CONTINUOUS
370
-3
390
F
  0
LAYER
  5
1FF
100
AcDbSymbolTableRecord
100
AcDbLayerTableRecord
  2
BEZUGSEBENEN
 70
0
 62
7
  6
CONTINUOUS
370
-3
390
F
  0
LAYER
  5
200
100
AcDbSymbolTableRecord
100
AcDbLayerTableRecord
  2
BG_STARTBEZUEGE
 70
0
 62
7
  6
CONTINUOUS
370
-3
390
F
  0
LAYER
  5
201
100
AcDbSymbolTableRecord
100
AcDbLayerTableRecord
  2
FASEN
 70
0
 62
7
  6
CONTINUOUS
370
-3
390
F
  0
LAYER
  5
202
100
AcDbSymbolTableRecord
100
AcDbLayerTableRecord
  2
FLAECHEN
 70
0
 62
7
  6
CONTINUOUS
370
-3
390
F
  0
LAYER
  5
203
100
AcDbSymbolTableRecord
100
AcDbLayerTableRecord
  2
HILFEN
 70
0
 62
7
  6
CONTINUOUS
370
-3
390
F
  0
LAYER
  5
204
100
AcDbSymbolTableRecord
100
AcDbLayerTableRecord
  2
KONSTRUKTIONSELEMENTE
 70
0
 62
7
  6
CONTINUOUS
370
-3
390
F
  0
LAYER
  5
205
100
AcDbSymbolTableRecord
100
AcDbLayerTableRecord
  2
NORM
 70
0
 62
7
  6
CONTINUOUS
370
-3
390
F
  0
LAYER
  5
206
100
AcDbSymbolTableRecord
100
AcDbLayerTableRecord
  2
PLATZIERUNG
 70
0
 62
7
  6
CONTINUOUS
370
-3
390
F
  0
LAYER
  5
207
100
AcDbSymbolTableRecord
100
AcDbLayerTableRecord
  2
PLAZIERUNG
 70
0
 62
7
  6
CONTINUOUS
370
-3
390
F
  0
LAYER
  5
208
100
AcDbSymbolTableRecord
100
AcDbLayerTableRecord
  2
RUNDUNGEN
 70
0
 62
7
  6
CONTINUOUS
370
-3
390
F
  0
LAYER
  5
209
100
AcDbSymbolTableRecord
100
AcDbLayerTableRecord
  2
TEIL_STARTBEZUEGE
 70
0
 62
7
  6
CONTINUOUS
370
-3
390
F
  0
LAYER
  5
20A
100
AcDbSymbolTableRecord
100
AcDbLayerTableRecord
  2
T_STARTBEZUEGE
 70
0
 62
7
  6
CONTINUOUS
370
-3
390
F
  0
ENDTAB
  0
TABLE
  2
STYLE
  5
3
100
AcDbSymbolTable
 70
1
  0
STYLE
  5
11
100
AcDbSymbolTableRecord
100
AcDbTextStyleTableRecord
  2
STANDARD
 70
0
 40
0.0
 41
0.7
 50
0.0
 71
0
 42
0.2
  3
txt
  4

  0
STYLE
  5
20B
100
AcDbSymbolTableRecord
100
AcDbTextStyleTableRecord
  2
TEXTSTYLE_1
 70
0
 40
0.0
 41
0.8
 50
0.0
 71
0
 42
0.2
  3
gdt
  4

  0
ENDTAB
  0
TABLE
  2
VIEW
  5
6
100
AcDbSymbolTable
 70
0
  0
ENDTAB
  0
TABLE
  2
UCS
  5
7
100
AcDbSymbolTable
 70
0
  0
ENDTAB
  0
TABLE
  2
APPID
  5
9
100
AcDbSymbolTable
 70
1
  0
APPID
  5
20C
100
AcDbSymbolTableRecord
100
AcDbRegAppTableRecord
  2
ACAD
 70
0
  0
ENDTAB
  0
TABLE
  2
BLOCK_RECORD
  5
1
100
AcDbSymbolTable
 70
0
  0
BLOCK_RECORD
  5
20D
100
AcDbSymbolTableRecord
100
AcDbBlockTableRecord
  2
*Model_Space
  0
BLOCK_RECORD
  5
20E
100
AcDbSymbolTableRecord
100
AcDbBlockTableRecord
  2
*Paper_Space
  0
ENDTAB
  0
TABLE
  2
DIMSTYLE
  5
A
100
AcDbSymbolTable
 70
1
100
AcDbDimStyleTable
 71
0
  0
DIMSTYLE
105
20F
100
AcDbSymbolTableRecord
100
AcDbDimStyleTableRecord
  2
STANDARD
 70
0
  3

  4

 40
1.0
 41
3.5
 42
0.0625
 43
0.38
 44
0.18
 45
0.0
 46
0.0
 47
0.005
 48
0.005
140
3.5
141
0.09
142
0.0
143
25.4
144
1.0
145
0.0
146
1.0
147
0.09
 71
1.0
 72
0.0
 73
0
 74
0
 75
0
 76
0
 77
1
 78
8
170
0
171
2
172
0
173
0
174
0
175
0
176
0
177
0
178
5
270
2
271
3
272
3
273
2
274
2
275
0
280
0
281
0
282
0
283
1
284
8
285
0
286
0
287
3
288
0
340
11
  0
ENDTAB
  0
ENDSEC
  0
SECTION
  2
BLOCKS
  0
BLOCK
  5
20
100
AcDbEntity
  8
0
100
AcDbBlockBegin
  2
*Model_Space
 70
0
 10
0.0
 20
0.0
 30
0.0
  3
*Model_Space
  1

  0
ENDBLK
  5
21
100
AcDbEntity
  8
0
100
AcDbBlockEnd
  0
BLOCK
  5
1C
100
AcDbEntity
  8
0
100
AcDbBlockBegin
  2
*Paper_Space
 70
0
 10
0.0
 20
0.0
 30
0.0
  3
*Paper_Space
  1

  0
ENDBLK
  5
1D
100
AcDbEntity
  8
0
100
AcDbBlockEnd
  0
ENDSEC
  0
SECTION
  2
ENTITIES
  0
MTEXT
  5
210
100
AcDbEntity
  8
0
100
AcDbMText
 62
5
  6
CONTINUOUS
  7
STANDARD
 71
1
 72
1
 10
136.2884475819
 20
355.3777075094
 30
0.0
 11
0.0
 21
1.0
 31
0.0
 44
0.9
  1
RUD
 40
8.0
 41
21.3333333333
  0
MTEXT
  5
211
100
AcDbEntity
  8
0
100
AcDbMText
 62
5
  6
CONTINUOUS
  7
STANDARD
 71
1
 72
1
 10
293.8752695689
 20
333.0869598499
 30
0.0
 11
0.0
 21
1.0
 31
0.0
 44
0.9
  1
VSAK 2-6/140
 40
8.0
 41
75.4285714286
  0
MTEXT
  5
212
100
AcDbEntity
  8
0
100
AcDbMText
 62
5
  6
CONTINUOUS
  7
STANDARD
 71
1
 72
1
 10
562.6562793722
 20
325.7877603671
 30
0.0
 11
0.0
 21
1.0
 31
0.0
 44
0.9
  1
RUD VSAK 2-6/140
 40
8.0
 41
101.5238095238
  0
LINE
  5
213
100
AcDbEntity
  8
0
100
AcDbLine
 62
7
  6
CONTINUOUS
 10
0.0
 20
0.0
 11
0.0
 21
594.0
  0
LINE
  5
214
100
AcDbEntity
  8
0
100
AcDbLine
 62
7
  6
CONTINUOUS
 10
0.0
 20
0.0
 11
841.0
 21
0.0
  0
LINE
  5
215
100
AcDbEntity
  8
0
100
AcDbLine
 62
7
  6
CONTINUOUS
 10
0.0
 20
594.0
 11
841.0
 21
594.0
  0
LINE
  5
216
100
AcDbEntity
  8
0
100
AcDbLine
 62
7
  6
CONTINUOUS
 10
841.0
 20
0.0
 11
841.0
 21
594.0
  0
LINE
  5
217
100
AcDbEntity
  8
KONSTRUKTIONSELEMENTE
100
AcDbLine
 62
7
  6
CONTINUOUS
 10
90.4409272754
 20
93.6616903719
 11
95.1694259801
 21
90.9316903719
  0
LINE
  5
218
100
AcDbEntity
  8
KONSTRUKTIONSELEMENTE
100
AcDbLine
 62
7
  6
CONTINUOUS
 10
90.2871856714
 20
93.9954021026
 11
90.5469932926
 21
93.8454021026
  0
LINE
  5
219
100
AcDbEntity
  8
KONSTRUKTIONSELEMENTE
100
AcDbLine
 62
7
  6
CONTINUOUS
 10
95.2754919972
 20
91.1154021026
 11
95.5352996184
 21
90.9654021026
  0
LINE
  5
21A
100
AcDbEntity
  8
KONSTRUKTIONSELEMENTE
100
AcDbLine
 62
7
  6
CONTINUOUS
 10
89.5937387568
 20
103.9487738622
 11
92.6051069934
 21
102.2101596002
  0
LINE
  5
21B
100
AcDbEntity
  8
KONSTRUKTIONSELEMENTE
100
AcDbLine
 62
7
  6
CONTINUOUS
 10
101.4905276363
 20
97.0801596002
 11
111.9335987189
 21
91.0508496995
  0
LINE
  5
21C
100
AcDbEntity
  8
KONSTRUKTIONSELEMENTE
100
AcDbLine
 62
7
  6
CONTINUOUS
 10
86.6666422564
 20
126.2933848136
 11
90.3104266341
 21
125.5354037487
  0
LINE
  5
21D
100
AcDbEntity
  8
KONSTRUKTIONSELEMENTE
100
AcDbLine
 62
7
  6
CONTINUOUS
 10
86.7727082736
 20
126.4770965444
 11
90.4164926513
 21
125.7191154794
  0
LINE
  5
21E
100
AcDbEntity
  8
KONSTRUKTIONSELEMENTE
100
AcDbLine
 62
7
  6
CONTINUOUS
 10
87.5588976398
 20
127.2217462826
 11
90.3618086996
 21
126.6386839249
  0
LINE
  5
21F
100
AcDbEntity
  8
KONSTRUKTIONSELEMENTE
100
AcDbLine
 62
7
  6
CONTINUOUS
 10
88.4074257773
 20
128.6914401282
 11
90.9851048951
 21
128.1552305834
  0
LINE
  5
220
100
AcDbEntity
  8
KONSTRUKTIONSELEMENTE
100
AcDbLine
 62
7
  6
CONTINUOUS
 10
87.6187140196
 20
132.1178423796
 11
90.2920733718
 21
131.5617294051
  0
LINE
  5
221
100
AcDbEntity
  8
KONSTRUKTIONSELEMENTE
100
AcDbLine
 62
7
  6
CONTINUOUS
 10
89.942677059
 20
131.7195015447
 11
86.2988926813
 21
132.4774826096
  0
LINE
  5
222
100
AcDbEntity
  8
KONSTRUKTIONSELEMENTE
100
AcDbLine
 62
7
  6
CONTINUOUS
 10
86.2988926813
 20
132.4774826096
 11
86.4186296864
 21
132.4313022289
  0
LINE
  5
223
100
AcDbEntity
  8
KONSTRUKTIONSELEMENTE
100
AcDbLine
 62
7
  6
CONTINUOUS
 10
114.1088912646
 20
91.4655131837
 11
111.7576617075
 21
94.0997417547
  0
LINE
  5
224
100
AcDbEntity
  8
KONSTRUKTIONSELEMENTE
100
AcDbLine
 62
7
  6
CONTINUOUS
 10
115.1695514364
 20
93.3026304908
 11
112.8183218793
 21
95.9368590617
  0
LINE
  5
225
100
AcDbEntity
  8
KONSTRUKTIONSELEMENTE
100
AcDbLine
 62
7
  6
CONTINUOUS
 10
109.2288998593
 20
130.8862517402
 11
88.9104099101
 21
135.1129098112
  0
LINE
  5
226
100
AcDbEntity
  8
KONSTRUKTIONSELEMENTE
100
AcDbLine
 62
7
  6
CONTINUOUS
 10
110.2895600311
 20
132.7233690472
 11
89.9710700819
 21
136.9500271182
  0
LINE
  5
227
100
AcDbEntity
  8
KONSTRUKTIONSELEMENTE
100
AcDbLine
 62
7
  6
CONTINUOUS
 10
132.9682356691
 20
104.7197249382
 11
135.4465587157
 21
101.9431056337
  0
LINE
  5
228
100
AcDbEntity
  8
KONSTRUKTIONSELEMENTE
100
AcDbLine
 62
7
  6
CONTINUOUS
 10
118.0128554778
 20
125.8148325993
 11
136.4078593395
 21
105.2057667639
  0
LINE
  5
229
100
AcDbEntity
  8
KONSTRUKTIONSELEMENTE
100
AcDbLine
 62
7
  6
CONTINUOUS
 10
137.4685195113
 20
107.042884071
 11
119.0735156496
 21
127.6519499064
  0
LINE
  5
22A
100
AcDbEntity
  8
KONSTRUKTIONSELEMENTE
100
AcDbLine
 62
7
  6
CONTINUOUS
 10
145.9517233659
 20
163.7663368824
 11
144.0474196928
 21
164.8657871207
  0
LINE
  5
22B
100
AcDbEntity
  8
KONSTRUKTIONSELEMENTE
100
AcDbLine
 62
7
  6
CONTINUOUS
 10
130.0307364094
 20
172.9583229875
 11
128.1264327363
 21
174.0577732258
  0
LINE
  5
22C
100
AcDbEntity
  8
0
100
AcDbLine
 62
7
  6
CONTINUOUS
 10
142.5201669643
 20
171.4055795327
 11
136.4579891378
 21
174.9055795327
  0
LINE
  5
22D
100
AcDbEntity
  8
RUNDUNGEN
100
AcDbLine
 62
7
  6
CONTINUOUS
 10
151.1988870176
 20
167.6650887659
 11
148.1376182927
 21
169.4325130883
  0
LINE
  5
22E
100
AcDbEntity
  8
RUNDUNGEN
100
AcDbLine
 62
7
  6
CONTINUOUS
 10
131.9405378095
 20
178.7839018654
 11
128.8792690845
 21
180.5513261878
  0
LINE
  5
22F
100
AcDbEntity
  8
0
100
AcDbLine
 62
7
  6
CONTINUOUS
 10
146.1201669643
 20
177.6409624399
 11
140.0579891378
 21
181.1409624399
  0
LINE
  5
230
100
AcDbEntity
  8
KONSTRUKTIONSELEMENTE
100
AcDbLine
 62
7
  6
CONTINUOUS
 10
86.2442087296
 20
133.3970510551
 11
86.2988926813
 21
132.4774826096
  0
LINE
  5
231
100
AcDbEntity
  8
KONSTRUKTIONSELEMENTE
100
AcDbLine
 62
7
  6
CONTINUOUS
 10
86.6666422564
 20
126.2933848136
 11
87.8514878688
 21
106.368953527
  0
LINE
  5
232
100
AcDbEntity
  8
KONSTRUKTIONSELEMENTE
100
AcDbLine
 62
7
  6
CONTINUOUS
 10
86.7727082736
 20
126.4770965444
 11
86.7590372857
 21
126.7069886557
  0
LINE
  5
233
100
AcDbEntity
  8
KONSTRUKTIONSELEMENTE
100
AcDbLine
 62
7
  6
CONTINUOUS
 10
90.8415514665
 20
130.569233212
 11
91.1102869883
 21
126.0501613756
  0
LINE
  5
234
100
AcDbEntity
  8
KONSTRUKTIONSELEMENTE
100
AcDbLine
 62
7
  6
CONTINUOUS
 10
166.4335729671
 20
194.6881488937
 11
166.7514471755
 21
194.65965216
  0
LINE
  5
235
100
AcDbEntity
  8
KONSTRUKTIONSELEMENTE
100
AcDbLine
 62
7
  6
CONTINUOUS
 10
166.7105527802
 20
194.9183472294
 11
166.5198283085
 21
194.9354452648
  0
LINE
  5
236
100
AcDbEntity
  8
KONSTRUKTIONSELEMENTE
100
AcDbLine
 62
7
  6
CONTINUOUS
 10
166.6332304811
 20
196.2004192138
 11
166.8239549527
 21
196.1833211783
  0
LINE
  5
237
100
AcDbEntity
  8
KONSTRUKTIONSELEMENTE
100
AcDbLine
 62
7
  6
CONTINUOUS
 10
167.3370896533
 20
196.1883246259
 11
167.4642393011
 21
196.1769259355
  0
LINE
  5
238
100
AcDbEntity
  8
KONSTRUKTIONSELEMENTE
100
AcDbLine
 62
7
  6
CONTINUOUS
 10
167.4869198187
 20
196.4299216518
 11
167.0418960515
 21
196.4698170679
  0
LINE
  5
239
100
AcDbEntity
  8
KONSTRUKTIONSELEMENTE
100
AcDbLine
 62
7
  6
CONTINUOUS
 10
167.9274075654
 20
196.339428019
 11
167.4869198187
 21
196.4299216518
  0
LINE
  5
23A
100
AcDbEntity
  8
KONSTRUKTIONSELEMENTE
100
AcDbLine
 62
7
  6
CONTINUOUS
 10
167.4642393011
 20
196.1769259355
 11
167.8411522239
 21
196.0921316478
  0
LINE
  5
23B
100
AcDbEntity
  8
KONSTRUKTIONSELEMENTE
100
AcDbLine
 62
7
  6
CONTINUOUS
 10
166.5198283085
 20
194.9354452648
 11
166.3336398573
 21
195.0031415171
  0
LINE
  5
23C
100
AcDbEntity
  8
KONSTRUKTIONSELEMENTE
100
AcDbLine
 62
7
  6
CONTINUOUS
 10
166.8239549527
 20
196.1833211783
 11
167.010143493
 21
196.1156249181
  0
LINE
  5
23D
100
AcDbEntity
  8
KONSTRUKTIONSELEMENTE
100
AcDbLine
 62
7
  6
CONTINUOUS
 10
167.8411522239
 20
196.0921316478
 11
168.0273408532
 21
196.0244353796
  0
LINE
  5
23E
100
AcDbEntity
  8
KONSTRUKTIONSELEMENTE
100
AcDbLine
 62
7
  6
CONTINUOUS
 10
166.1247710517
 20
194.8178443733
 11
166.4335729671
 21
194.6881488937
  0
LINE
  5
23F
100
AcDbEntity
  8
KONSTRUKTIONSELEMENTE
100
AcDbLine
 62
7
  6
CONTINUOUS
 10
168.2362096143
 20
196.2097325275
 11
167.9274075654
 21
196.339428019
  0
LINE
  5
240
100
AcDbEntity
  8
KONSTRUKTIONSELEMENTE
100
AcDbLine
 62
7
  6
CONTINUOUS
 10
166.7514471755
 20
194.65965216
 11
167.0783935435
 21
194.7323541839
  0
LINE
  5
241
100
AcDbEntity
  8
KONSTRUKTIONSELEMENTE
100
AcDbLine
 62
7
  6
CONTINUOUS
 10
166.5923361748
 20
196.4591142752
 11
166.2653897623
 21
196.3864122553
  0
LINE
  5
242
100
AcDbEntity
  8
0
100
AcDbLine
 62
7
  6
CONTINUOUS
 10
281.9982066142
 20
215.0650168839
 11
287.072371065
 21
216.1435638329
  0
LINE
  5
243
100
AcDbEntity
  8
KONSTRUKTIONSELEMENTE
100
AcDbLine
 62
7
  6
CONTINUOUS
 10
167.9048664321
 20
194.6582626809
 11
168.1001269242
 21
194.6917628622
  0
LINE
  5
244
100
AcDbEntity
  8
KONSTRUKTIONSELEMENTE
100
AcDbLine
 62
7
  6
CONTINUOUS
 10
166.9058133613
 20
194.9518474027
 11
166.7105527802
 21
194.9183472294
  0
LINE
  5
245
100
AcDbEntity
  8
KONSTRUKTIONSELEMENTE
100
AcDbLine
 62
7
  6
CONTINUOUS
 10
166.437969989
 20
196.1669190325
 11
166.6332304811
 21
196.2004192138
  0
LINE
  5
246
100
AcDbEntity
  8
KONSTRUKTIONSELEMENTE
100
AcDbLine
 62
7
  6
CONTINUOUS
 10
167.1586058942
 20
201.9247414936
 11
166.8381535147
 21
201.8829396149
  0
LINE
  5
247
100
AcDbEntity
  8
KONSTRUKTIONSELEMENTE
100
AcDbLine
 62
7
  6
CONTINUOUS
 10
165.9166800131
 20
199.5972500797
 11
166.1759230026
 21
199.6209503432
  0
LINE
  5
248
100
AcDbEntity
  8
KONSTRUKTIONSELEMENTE
100
AcDbLine
 62
7
  6
CONTINUOUS
 10
166.9246060701
 20
201.590645291
 11
167.1838496763
 21
201.6143433119
  0
LINE
  5
249
100
AcDbEntity
  8
KONSTRUKTIONSELEMENTE
100
AcDbLine
 62
7
  6
CONTINUOUS
 10
166.150679049
 20
199.9313484742
 11
165.9526447042
 21
199.9257520304
  0
LINE
  5
24A
100
AcDbEntity
  8
KONSTRUKTIONSELEMENTE
100
AcDbLine
 62
7
  6
CONTINUOUS
 10
167.0418960515
 20
196.4698170679
 11
166.5923361748
 21
196.4591142752
  0
LINE
  5
24B
100
AcDbEntity
  8
KONSTRUKTIONSELEMENTE
100
AcDbLine
 62
7
  6
CONTINUOUS
 10
149.6994351653
 20
208.9910178405
 11
149.9613416449
 21
208.9911987706
  0
LINE
  5
24C
100
AcDbEntity
  8
KONSTRUKTIONSELEMENTE
100
AcDbLine
 62
7
  6
CONTINUOUS
 10
149.8677485388
 20
209.36256521
 11
149.6551036991
 21
209.3747993699
  0
LINE
  5
24D
100
AcDbEntity
  8
KONSTRUKTIONSELEMENTE
100
AcDbLine
 62
7
  6
CONTINUOUS
 10
166.0881888618
 20
202.6585797576
 11
166.3849443568
 21
202.6398305575
  0
LINE
  5
24E
100
AcDbEntity
  8
KONSTRUKTIONSELEMENTE
100
AcDbLine
 62
7
  6
CONTINUOUS
 10
167.4322573803
 20
201.8997267671
 11
167.1586058942
 21
201.9247414936
  0
LINE
  5
24F
100
AcDbEntity
  8
KONSTRUKTIONSELEMENTE
100
AcDbLine
 62
7
  6
CONTINUOUS
 10
152.6418786009
 20
212.3330151423
 11
152.3844301132
 21
212.3811343685
  0
LINE
  5
250
100
AcDbEntity
  8
KONSTRUKTIONSELEMENTE
100
AcDbLine
 62
7
  6
CONTINUOUS
 10
166.3022886744
 20
202.9400842753
 11
166.1422924571
 21
202.9720477883
  0
LINE
  5
251
100
AcDbEntity
  8
KONSTRUKTIONSELEMENTE
100
AcDbLine
 62
7
  6
CONTINUOUS
 10
167.1838496763
 20
201.6143433119
 11
167.396292732
 21
201.5712248291
  0
LINE
  5
252
100
AcDbEntity
  8
0
100
AcDbLine
 62
7
  6
CONTINUOUS
 10
156.1799494879
 20
215.0650168839
 11
151.1057850371
 21
216.1435638329
  0
LINE
  5
253
100
AcDbEntity
  8
KONSTRUKTIONSELEMENTE
100
AcDbLine
 62
7
  6
CONTINUOUS
 10
152.4079359832
 20
211.9988777247
 11
152.6146779542
 21
211.9476404343
  0
LINE
  5
254
100
AcDbEntity
  8
KONSTRUKTIONSELEMENTE
100
AcDbLine
 62
7
  6
CONTINUOUS
 10
149.4711911905
 20
209.065146345
 11
149.6994351653
 21
208.9910178405
  0
LINE
  5
255
100
AcDbEntity
  8
KONSTRUKTIONSELEMENTE
100
AcDbLine
 62
7
  6
CONTINUOUS
 10
147.4127805846
 20
211.0520055683
 11
147.1483962203
 21
211.1417964123
  0
LINE
  5
256
100
AcDbEntity
  8
0
100
AcDbLine
 62
7
  6
CONTINUOUS
 10
286.5831826584
 20
165.0600369636
 11
290.5423924496
 21
163.6190024484
  0
LINE
  5
257
100
AcDbEntity
  8
KONSTRUKTIONSELEMENTE
100
AcDbLine
 62
7
  6
CONTINUOUS
 10
165.6142107672
 20
199.7196969844
 11
165.9166800131
 21
199.5972500797
  0
LINE
  5
258
100
AcDbEntity
  8
KONSTRUKTIONSELEMENTE
100
AcDbLine
 62
7
  6
CONTINUOUS
 10
167.7347272642
 20
201.777277626
 11
167.4322573803
 21
201.8997267671
  0
LINE
  5
259
100
AcDbEntity
  8
KONSTRUKTIONSELEMENTE
100
AcDbLine
 62
7
  6
CONTINUOUS
 10
149.6551036991
 20
209.3747993699
 11
149.476121356
 21
209.4613429969
  0
LINE
  5
25A
100
AcDbEntity
  8
KONSTRUKTIONSELEMENTE
100
AcDbLine
 62
7
  6
CONTINUOUS
 10
147.2347390181
 20
210.8303774275
 11
147.3801868305
 21
210.7564501531
  0
LINE
  5
25B
100
AcDbEntity
  8
KONSTRUKTIONSELEMENTE
100
AcDbLine
 62
7
  6
CONTINUOUS
 10
152.8525382169
 20
212.2180684112
 11
152.6418786009
 21
212.3330151423
  0
LINE
  5
25C
100
AcDbEntity
  8
KONSTRUKTIONSELEMENTE
100
AcDbLine
 62
7
  6
CONTINUOUS
 10
165.8817208925
 20
202.7808947861
 11
166.0881888618
 21
202.6585797576
  0
LINE
  5
25D
100
AcDbEntity
  8
KONSTRUKTIONSELEMENTE
100
AcDbLine
 62
7
  6
CONTINUOUS
 10
166.3336398573
 20
195.0031415171
 11
166.1519875897
 21
195.1214383063
  0
LINE
  5
25E
100
AcDbEntity
  8
KONSTRUKTIONSELEMENTE
100
AcDbLine
 62
7
  6
CONTINUOUS
 10
168.0273408532
 20
196.0244353796
 11
168.2089930763
 21
195.9061385944
  0
LINE
  5
25F
100
AcDbEntity
  8
KONSTRUKTIONSELEMENTE
100
AcDbLine
 62
7
  6
CONTINUOUS
 10
165.9526447042
 20
199.9257520304
 11
165.7870011799
 21
200.0356915656
  0
LINE
  5
260
100
AcDbEntity
  8
KONSTRUKTIONSELEMENTE
100
AcDbLine
 62
7
  6
CONTINUOUS
 10
167.396292732
 20
201.5712248291
 11
167.5619362134
 21
201.4612852813
  0
LINE
  5
261
100
AcDbEntity
  8
KONSTRUKTIONSELEMENTE
100
AcDbLine
 62
7
  6
CONTINUOUS
 10
147.6574633654
 20
210.8830508612
 11
147.4127805846
 21
211.0520055683
  0
LINE
  5
262
100
AcDbEntity
  8
KONSTRUKTIONSELEMENTE
100
AcDbLine
 62
7
  6
CONTINUOUS
 10
165.8840800029
 20
194.9924387224
 11
166.1247710517
 21
194.8178443733
  0
LINE
  5
263
100
AcDbEntity
  8
KONSTRUKTIONSELEMENTE
100
AcDbLine
 62
7
  6
CONTINUOUS
 10
168.4769006408
 20
196.0351381803
 11
168.2362096143
 21
196.2097325275
  0
LINE
  5
264
100
AcDbEntity
  8
KONSTRUKTIONSELEMENTE
100
AcDbLine
 62
7
  6
CONTINUOUS
 10
152.6146779542
 20
211.9476404343
 11
152.7746316338
 21
211.8295756745
  0
LINE
  5
265
100
AcDbEntity
  8
KONSTRUKTIONSELEMENTE
100
AcDbLine
 62
7
  6
CONTINUOUS
 10
149.2117497977
 20
209.2630637246
 11
149.4711911905
 21
209.065146345
  0
LINE
  5
266
100
AcDbEntity
  8
KONSTRUKTIONSELEMENTE
100
AcDbLine
 62
7
  6
CONTINUOUS
 10
166.1422924571
 20
202.9720477883
 11
166.0158220646
 21
203.0783820942
  0
LINE
  5
267
100
AcDbEntity
  8
KONSTRUKTIONSELEMENTE
100
AcDbLine
 62
7
  6
CONTINUOUS
 10
165.4341580708
 20
199.8783537349
 11
165.6142107672
 21
199.7196969844
  0
LINE
  5
268
100
AcDbEntity
  8
KONSTRUKTIONSELEMENTE
100
AcDbLine
 62
7
  6
CONTINUOUS
 10
167.9147792849
 20
201.6186231009
 11
167.7347272642
 21
201.777277626
  0
LINE
  5
269
100
AcDbEntity
  8
KONSTRUKTIONSELEMENTE
100
AcDbLine
 62
7
  6
CONTINUOUS
 10
167.010143493
 20
196.1156249181
 11
167.1282208922
 21
196.003027478
  0
LINE
  5
26A
100
AcDbEntity
  8
KONSTRUKTIONSELEMENTE
100
AcDbLine
 62
7
  6
CONTINUOUS
 10
149.476121356
 20
209.4613429969
 11
149.3308015313
 21
209.6221960042
  0
LINE
  5
26B
100
AcDbEntity
  8
KONSTRUKTIONSELEMENTE
100
AcDbLine
 62
7
  6
CONTINUOUS
 10
153.0710331229
 20
211.9757027988
 11
152.8525382169
 21
212.2180684112
  0
LINE
  5
26C
100
AcDbEntity
  8
KONSTRUKTIONSELEMENTE
100
AcDbLine
 62
7
  6
CONTINUOUS
 10
148.783823075
 20
208.6607639453
 11
147.7581522465
 21
209.8063296477
  0
LINE
  5
26D
100
AcDbEntity
  8
KONSTRUKTIONSELEMENTE
100
AcDbLine
 62
7
  6
CONTINUOUS
 10
147.5338979021
 20
209.5636013788
 11
148.4603336961
 21
208.5130630789
  0
LINE
  5
26E
100
AcDbEntity
  8
KONSTRUKTIONSELEMENTE
100
AcDbLine
 62
7
  6
CONTINUOUS
 10
147.3801868305
 20
210.7564501531
 11
147.5059329273
 21
210.6033589551
  0
LINE
  5
26F
100
AcDbEntity
  8
KONSTRUKTIONSELEMENTE
100
AcDbLine
 62
7
  6
CONTINUOUS
 10
147.7832094622
 20
210.7299596632
 11
147.6574633654
 21
210.8830508612
  0
LINE
  5
270
100
AcDbEntity
  8
KONSTRUKTIONSELEMENTE
100
AcDbLine
 62
7
  6
CONTINUOUS
 10
149.0508312538
 20
209.4858112101
 11
149.2117497977
 21
209.2630637246
  0
LINE
  5
271
100
AcDbEntity
  8
KONSTRUKTIONSELEMENTE
100
AcDbLine
 62
7
  6
CONTINUOUS
 10
149.9613416449
 20
208.9911987706
 11
150.1583879172
 21
209.0408590811
  0
LINE
  5
272
100
AcDbEntity
  8
KONSTRUKTIONSELEMENTE
100
AcDbLine
 62
7
  6
CONTINUOUS
 10
150.0647948111
 20
209.4122255205
 11
149.8677485388
 21
209.36256521
  0
LINE
  5
273
100
AcDbEntity
  8
KONSTRUKTIONSELEMENTE
100
AcDbLine
 62
7
  6
CONTINUOUS
 10
166.3849443568
 20
202.6398305575
 11
166.5784653353
 21
202.6822399056
  0
LINE
  5
274
100
AcDbEntity
  8
KONSTRUKTIONSELEMENTE
100
AcDbLine
 62
7
  6
CONTINUOUS
 10
166.4958096529
 20
202.9824936234
 11
166.3022886744
 21
202.9400842753
  0
LINE
  5
275
100
AcDbEntity
  8
KONSTRUKTIONSELEMENTE
100
AcDbLine
 62
7
  6
CONTINUOUS
 10
147.1483962203
 20
211.1417964123
 11
146.8908212688
 21
211.0943595673
  0
LINE
  5
276
100
AcDbEntity
  8
KONSTRUKTIONSELEMENTE
100
AcDbLine
 62
7
  6
CONTINUOUS
 10
151.351612334
 20
209.3119573301
 11
152.5685594505
 21
209.3867903022
  0
LINE
  5
277
100
AcDbEntity
  8
KONSTRUKTIONSELEMENTE
100
AcDbLine
 62
7
  6
CONTINUOUS
 10
152.5450535777
 20
209.7690469906
 11
151.6323432404
 21
209.7129222615
  0
LINE
  5
278
100
AcDbEntity
  8
KONSTRUKTIONSELEMENTE
100
AcDbLine
 62
7
  6
CONTINUOUS
 10
151.4952256459
 20
211.9427529956
 11
152.4079359832
 21
211.9988777247
  0
LINE
  5
279
100
AcDbEntity
  8
KONSTRUKTIONSELEMENTE
100
AcDbLine
 62
7
  6
CONTINUOUS
 10
152.3844301132
 20
212.3811343685
 11
151.1674829967
 21
212.3063013963
  0
LINE
  5
27A
100
AcDbEntity
  8
KONSTRUKTIONSELEMENTE
100
AcDbLine
 62
7
  6
CONTINUOUS
 10
147.0695896223
 20
210.8251408387
 11
147.2347390181
 21
210.8303774275
  0
LINE
  5
27B
100
AcDbEntity
  8
0
100
AcDbLine
 62
7
  6
CONTINUOUS
 10
170.9094110195
 20
204.709935041
 11
167.4382797371
 21
208.5650168839
  0
LINE
  5
27C
100
AcDbEntity
  8
KONSTRUKTIONSELEMENTE
100
AcDbLine
 62
7
  6
CONTINUOUS
 10
166.1519875897
 20
195.1214383063
 11
166.038446211
 21
195.2846339631
  0
LINE
  5
27D
100
AcDbEntity
  8
KONSTRUKTIONSELEMENTE
100
AcDbLine
 62
7
  6
CONTINUOUS
 10
167.1282208922
 20
196.003027478
 11
167.2417622709
 21
195.8398318212
  0
LINE
  5
27E
100
AcDbEntity
  8
KONSTRUKTIONSELEMENTE
100
AcDbLine
 62
7
  6
CONTINUOUS
 10
167.5641724108
 20
195.8619333122
 11
167.3370896533
 21
196.1883246259
  0
LINE
  5
27F
100
AcDbEntity
  8
KONSTRUKTIONSELEMENTE
100
AcDbLine
 62
7
  6
CONTINUOUS
 10
168.2089930763
 20
195.9061385944
 11
168.3225344551
 21
195.7429429376
  0
LINE
  5
280
100
AcDbEntity
  8
KONSTRUKTIONSELEMENTE
100
AcDbLine
 62
7
  6
CONTINUOUS
 10
165.7870011799
 20
200.0356915656
 11
165.668157761
 21
200.2124498978
  0
LINE
  5
281
100
AcDbEntity
  8
KONSTRUKTIONSELEMENTE
100
AcDbLine
 62
7
  6
CONTINUOUS
 10
167.5619362134
 20
201.4612852813
 11
167.6807802919
 21
201.284524719
  0
LINE
  5
282
100
AcDbEntity
  8
KONSTRUKTIONSELEMENTE
100
AcDbLine
 62
7
  6
CONTINUOUS
 10
165.7160358245
 20
195.2625301594
 11
165.8840800029
 21
194.9924387224
  0
LINE
  5
283
100
AcDbEntity
  8
KONSTRUKTIONSELEMENTE
100
AcDbLine
 62
7
  6
CONTINUOUS
 10
168.6449445949
 20
195.7650444285
 11
168.4769006408
 21
196.0351381803
  0
LINE
  5
284
100
AcDbEntity
  8
KONSTRUKTIONSELEMENTE
100
AcDbLine
 62
7
  6
CONTINUOUS
 10
152.7746316338
 20
211.8295756745
 11
152.8877970329
 21
211.6446832671
  0
LINE
  5
285
100
AcDbEntity
  8
KONSTRUKTIONSELEMENTE
100
AcDbLine
 62
7
  6
CONTINUOUS
 10
165.3009061072
 20
200.1038270428
 11
165.4341580708
 21
199.8783537349
  0
LINE
  5
286
100
AcDbEntity
  8
KONSTRUKTIONSELEMENTE
100
AcDbLine
 62
7
  6
CONTINUOUS
 10
168.0480319028
 20
201.3931475613
 11
167.9147792849
 21
201.6186231009
  0
LINE
  5
287
100
AcDbEntity
  8
KONSTRUKTIONSELEMENTE
100
AcDbLine
 62
7
  6
CONTINUOUS
 10
149.3308015313
 20
209.6221960042
 11
149.2191447778
 21
209.8573585772
  0
LINE
  5
288
100
AcDbEntity
  8
KONSTRUKTIONSELEMENTE
100
AcDbLine
 62
7
  6
CONTINUOUS
 10
153.1881161561
 20
211.7271011292
 11
153.0710331229
 21
211.9757027988
  0
LINE
  5
289
100
AcDbEntity
  8
KONSTRUKTIONSELEMENTE
100
AcDbLine
 62
7
  6
CONTINUOUS
 10
145.7817151291
 20
210.5879567348
 11
147.0277383097
 21
207.8589594403
  0
LINE
  5
28A
100
AcDbEntity
  8
KONSTRUKTIONSELEMENTE
100
AcDbLine
 62
7
  6
CONTINUOUS
 10
147.3050148447
 20
207.9855601484
 11
146.7482810752
 21
209.2048993824
  0
LINE
  5
28B
100
AcDbEntity
  8
KONSTRUKTIONSELEMENTE
100
AcDbLine
 62
7
  6
CONTINUOUS
 10
146.5892143051
 20
209.5532819742
 11
146.1915473057
 21
210.4242386164
  0
LINE
  5
28C
100
AcDbEntity
  8
KONSTRUKTIONSELEMENTE
100
AcDbLine
 62
7
  6
CONTINUOUS
 10
147.5059329273
 20
210.6033589551
 11
147.5854663866
 21
210.4291674965
  0
LINE
  5
28D
100
AcDbEntity
  8
KONSTRUKTIONSELEMENTE
100
AcDbLine
 62
7
  6
CONTINUOUS
 10
147.8892540498
 20
210.4977044393
 11
147.7832094622
 21
210.7299596632
  0
LINE
  5
28E
100
AcDbEntity
  8
KONSTRUKTIONSELEMENTE
100
AcDbLine
 62
7
  6
CONTINUOUS
 10
148.9235753693
 20
209.7828681115
 11
149.0508312538
 21
209.4858112101
  0
LINE
  5
28F
100
AcDbEntity
  8
0
100
AcDbLine
 62
7
  6
CONTINUOUS
 10
126.4251848325
 20
179.5918211938
 11
126.4513531999
 21
179.443413008
  0
LINE
  5
290
100
AcDbEntity
  8
RUNDUNGEN
100
AcDbLine
 62
7
  6
CONTINUOUS
 10
126.481103935
 20
179.2746882046
 11
126.4513531999
 21
179.443413008
  0
LINE
  5
291
100
AcDbEntity
  8
0
100
AcDbLine
 62
7
  6
CONTINUOUS
 10
127.1568172303
 20
175.442527678
 11
126.481103935
 21
179.2746882046
  0
LINE
  5
292
100
AcDbEntity
  8
0
100
AcDbLine
 62
7
  6
CONTINUOUS
 10
131.0890780511
 20
431.0268238151
 11
131.0890780511
 21
311.0268238151
  0
LINE
  5
293
100
AcDbEntity
  8
KONSTRUKTIONSELEMENTE
100
AcDbLine
 62
7
  6
CONTINUOUS
 10
150.2134267248
 20
212.148537368
 11
149.9178574573
 21
212.0740469378
  0
LINE
  5
294
100
AcDbEntity
  8
KONSTRUKTIONSELEMENTE
100
AcDbLine
 62
7
  6
CONTINUOUS
 10
148.735580387
 20
211.7760852171
 11
148.4400109784
 21
211.7015947514
  0
LINE
  5
295
100
AcDbEntity
  8
KONSTRUKTIONSELEMENTE
100
AcDbLine
 62
7
  6
CONTINUOUS
 10
164.6226733663
 20
202.0190573772
 11
164.7853276892
 21
201.702820869
  0
LINE
  5
296
100
AcDbEntity
  8
KONSTRUKTIONSELEMENTE
100
AcDbLine
 62
7
  6
CONTINUOUS
 10
165.2337638338
 20
203.7615636878
 11
165.6287801076
 21
202.993563398
  0
LINE
  5
297
100
AcDbEntity
  8
KONSTRUKTIONSELEMENTE
100
AcDbLine
 62
7
  6
CONTINUOUS
 10
166.0158220646
 20
203.0783820942
 11
165.5743340388
 21
203.9367338995
  0
LINE
  5
298
100
AcDbEntity
  8
KONSTRUKTIONSELEMENTE
100
AcDbLine
 62
7
  6
CONTINUOUS
 10
166.4257597103
 20
204.3746595106
 11
166.8672477361
 21
203.5163077053
  0
LINE
  5
299
100
AcDbEntity
  8
KONSTRUKTIONSELEMENTE
100
AcDbLine
 62
7
  6
CONTINUOUS
 10
167.1278203643
 20
203.7074586395
 11
166.5701508312
 21
204.7916933695
  0
LINE
  5
29A
100
AcDbEntity
  8
KONSTRUKTIONSELEMENTE
100
AcDbLine
 62
7
  6
CONTINUOUS
 10
166.038446211
 20
195.2846339631
 11
165.9884796561
 21
195.4421302748
  0
LINE
  5
29B
100
AcDbEntity
  8
KONSTRUKTIONSELEMENTE
100
AcDbLine
 62
7
  6
CONTINUOUS
 10
167.2417622709
 20
195.8398318212
 11
167.2917288258
 21
195.6823355095
  0
LINE
  5
29C
100
AcDbEntity
  8
KONSTRUKTIONSELEMENTE
100
AcDbLine
 62
7
  6
CONTINUOUS
 10
152.8877970329
 20
211.6446832671
 11
152.9541735494
 21
211.3929635332
  0
LINE
  5
29D
100
AcDbEntity
  8
KONSTRUKTIONSELEMENTE
100
AcDbLine
 62
7
  6
CONTINUOUS
 10
148.4400109784
 20
211.7015947514
 11
148.9235753693
 21
209.7828681115
  0
LINE
  5
29E
100
AcDbEntity
  8
KONSTRUKTIONSELEMENTE
100
AcDbLine
 62
7
  6
CONTINUOUS
 10
149.2191447778
 20
209.8573585772
 11
148.735580387
 21
211.7760852171
  0
LINE
  5
29F
100
AcDbEntity
  8
KONSTRUKTIONSELEMENTE
100
AcDbLine
 62
7
  6
CONTINUOUS
 10
149.9178574573
 20
212.0740469378
 11
150.4014218481
 21
210.155320298
  0
LINE
  5
2A0
100
AcDbEntity
  8
KONSTRUKTIONSELEMENTE
100
AcDbLine
 62
7
  6
CONTINUOUS
 10
150.6969911157
 20
210.2298107282
 11
150.2134267248
 21
212.148537368
  0
LINE
  5
2A1
100
AcDbEntity
  8
KONSTRUKTIONSELEMENTE
100
AcDbLine
 62
7
  6
CONTINUOUS
 10
153.2584103285
 20
211.4116717762
 11
153.1881161561
 21
211.7271011292
  0
LINE
  5
2A2
100
AcDbEntity
  8
KONSTRUKTIONSELEMENTE
100
AcDbLine
 62
7
  6
CONTINUOUS
 10
147.5854663866
 20
210.4291674965
 11
147.6187870598
 21
210.2338761027
  0
LINE
  5
2A3
100
AcDbEntity
  8
KONSTRUKTIONSELEMENTE
100
AcDbLine
 62
7
  6
CONTINUOUS
 10
147.9225747231
 20
210.3024130455
 11
147.8892540498
 21
210.4977044393
  0
LINE
  5
2A4
100
AcDbEntity
  8
KONSTRUKTIONSELEMENTE
100
AcDbLine
 62
7
  6
CONTINUOUS
 10
150.7257237231
 20
209.907923636
 11
150.6969911157
 21
210.2298107282
  0
LINE
  5
2A5
100
AcDbEntity
  8
KONSTRUKTIONSELEMENTE
100
AcDbLine
 62
7
  6
CONTINUOUS
 10
151.1674829967
 20
212.3063013963
 11
151.351612334
 21
209.3119573301
  0
LINE
  5
2A6
100
AcDbEntity
  8
KONSTRUKTIONSELEMENTE
100
AcDbLine
 62
7
  6
CONTINUOUS
 10
151.6323432404
 20
209.7129222615
 11
151.4952256459
 21
211.9427529956
  0
LINE
  5
2A7
100
AcDbEntity
  8
KONSTRUKTIONSELEMENTE
100
AcDbLine
 62
7
  6
CONTINUOUS
 10
152.9541735494
 20
211.3929635332
 11
153.01293823
 21
210.4373218346
  0
LINE
  5
2A8
100
AcDbEntity
  8
KONSTRUKTIONSELEMENTE
100
AcDbLine
 62
7
  6
CONTINUOUS
 10
153.3171750091
 20
210.4560300776
 11
153.2584103285
 21
211.4116717762
  0
LINE
  5
2A9
100
AcDbEntity
  8
KONSTRUKTIONSELEMENTE
100
AcDbLine
 62
7
  6
CONTINUOUS
 10
150.4014218481
 20
210.155320298
 11
150.4145556063
 21
209.8953276052
  0
LINE
  5
2AA
100
AcDbEntity
  8
0
100
AcDbLine
 62
7
  6
CONTINUOUS
 10
149.0890780511
 20
431.0268238151
 11
149.0890780511
 21
311.0268238151
  0
LINE
  5
2AB
100
AcDbEntity
  8
KONSTRUKTIONSELEMENTE
100
AcDbLine
 62
7
  6
CONTINUOUS
 10
168.3225344551
 20
195.7429429376
 11
168.3725010099
 21
195.5854466259
  0
LINE
  5
2AC
100
AcDbEntity
  8
KONSTRUKTIONSELEMENTE
100
AcDbLine
 62
7
  6
CONTINUOUS
 10
165.1712272741
 20
200.5422685287
 11
165.3009061072
 21
200.1038270428
  0
LINE
  5
2AD
100
AcDbEntity
  8
KONSTRUKTIONSELEMENTE
100
AcDbLine
 62
7
  6
CONTINUOUS
 10
165.668157761
 20
200.2124498978
 11
165.5384789279
 21
200.6508913836
  0
LINE
  5
2AE
100
AcDbEntity
  8
KONSTRUKTIONSELEMENTE
100
AcDbLine
 62
7
  6
CONTINUOUS
 10
166.5106691162
 20
200.5146204418
 11
166.6403479493
 21
200.0761789559
  0
LINE
  5
2AF
100
AcDbEntity
  8
KONSTRUKTIONSELEMENTE
100
AcDbLine
 62
7
  6
CONTINUOUS
 10
167.0940521157
 20
199.8925074743
 11
166.8779207272
 21
200.6232432841
  0
LINE
  5
2B0
100
AcDbEntity
  8
KONSTRUKTIONSELEMENTE
100
AcDbLine
 62
7
  6
CONTINUOUS
 10
167.5584769767
 20
200.3477360616
 11
167.6449295321
 21
200.0554417377
  0
LINE
  5
2B1
100
AcDbEntity
  8
KONSTRUKTIONSELEMENTE
100
AcDbLine
 62
7
  6
CONTINUOUS
 10
167.6807802919
 20
201.284524719
 11
167.810459125
 21
200.8460832332
  0
LINE
  5
2B2
100
AcDbEntity
  8
KONSTRUKTIONSELEMENTE
100
AcDbLine
 62
7
  6
CONTINUOUS
 10
168.1777107359
 20
200.9547060754
 11
168.0480319028
 21
201.3931475613
  0
LINE
  5
2B3
100
AcDbEntity
  8
KONSTRUKTIONSELEMENTE
100
AcDbLine
 62
7
  6
CONTINUOUS
 10
167.1872401708
 20
203.4523806794
 11
167.1278203643
 21
203.7074586395
  0
LINE
  5
2B4
100
AcDbEntity
  8
KONSTRUKTIONSELEMENTE
100
AcDbLine
 62
7
  6
CONTINUOUS
 10
165.6751415126
 20
195.5212252214
 11
165.7160358245
 21
195.2625301594
  0
LINE
  5
2B5
100
AcDbEntity
  8
KONSTRUKTIONSELEMENTE
100
AcDbLine
 62
7
  6
CONTINUOUS
 10
167.6050669248
 20
195.603240567
 11
167.5641724108
 21
195.8619333122
  0
LINE
  5
2B6
100
AcDbEntity
  8
KONSTRUKTIONSELEMENTE
100
AcDbLine
 62
7
  6
CONTINUOUS
 10
168.6858391089
 20
195.5063516833
 11
168.6449445949
 21
195.7650444285
  0
LINE
  5
2B7
100
AcDbEntity
  8
0
100
AcDbLine
 62
7
  6
CONTINUOUS
 10
172.1660552113
 20
192.7537642118
 11
170.9094110195
 21
204.709935041
  0
LINE
  5
2B8
100
AcDbEntity
  8
KONSTRUKTIONSELEMENTE
100
AcDbLine
 62
7
  6
CONTINUOUS
 10
166.8672477361
 20
203.5163077053
 11
166.8801947269
 21
203.3515833288
  0
LINE
  5
2B9
100
AcDbEntity
  8
KONSTRUKTIONSELEMENTE
100
AcDbLine
 62
7
  6
CONTINUOUS
 10
165.1603918652
 20
200.8039516839
 11
165.1712272741
 21
200.5422685287
  0
LINE
  5
2BA
100
AcDbEntity
  8
KONSTRUKTIONSELEMENTE
100
AcDbLine
 62
7
  6
CONTINUOUS
 10
168.1885454906
 20
200.6930251518
 11
168.1777107359
 21
200.9547060754
  0
LINE
  5
2BB
100
AcDbEntity
  8
KONSTRUKTIONSELEMENTE
100
AcDbLine
 62
7
  6
CONTINUOUS
 10
165.5384789279
 20
200.6508913836
 11
165.5420520531
 21
200.86385956
  0
LINE
  5
2BC
100
AcDbEntity
  8
KONSTRUKTIONSELEMENTE
100
AcDbLine
 62
7
  6
CONTINUOUS
 10
153.2860572977
 20
210.1343648459
 11
153.3171750091
 21
210.4560300776
  0
LINE
  5
2BD
100
AcDbEntity
  8
KONSTRUKTIONSELEMENTE
100
AcDbLine
 62
7
  6
CONTINUOUS
 10
147.889980969
 20
210.0068576302
 11
147.9225747231
 21
210.3024130455
  0
LINE
  5
2BE
100
AcDbEntity
  8
KONSTRUKTIONSELEMENTE
100
AcDbLine
 62
7
  6
CONTINUOUS
 10
150.6895961356
 20
209.6355158756
 11
150.7257237231
 21
209.907923636
  0
LINE
  5
2BF
100
AcDbEntity
  8
KONSTRUKTIONSELEMENTE
100
AcDbLine
 62
7
  6
CONTINUOUS
 10
153.01293823
 20
210.4373218346
 11
152.9779028736
 21
210.1793660435
  0
LINE
  5
2C0
100
AcDbEntity
  8
RUNDUNGEN
100
AcDbLine
 62
7
  6
CONTINUOUS
 10
130.6688627999
 20
189.5800575741
 11
134.1121008909
 21
200.8423819001
  0
LINE
  5
2C1
100
AcDbEntity
  8
0
100
AcDbLine
 62
7
  6
CONTINUOUS
 10
287.072371065
 20
216.1435638329
 11
298.0550408309
 21
211.2537642118
  0
LINE
  5
2C2
100
AcDbEntity
  8
0
100
AcDbLine
 62
7
  6
CONTINUOUS
 10
272.0231152712
 20
182.3423819001
 11
280.0549551977
 21
173.729288079
  0
LINE
  5
2C3
100
AcDbEntity
  8
KONSTRUKTIONSELEMENTE
100
AcDbLine
 62
7
  6
CONTINUOUS
 10
167.810459125
 20
200.8460832332
 11
167.8068853402
 21
200.6331172869
  0
LINE
  5
2C4
100
AcDbEntity
  8
KONSTRUKTIONSELEMENTE
100
AcDbLine
 62
7
  6
CONTINUOUS
 10
165.6978220302
 20
195.7742209376
 11
165.6751415126
 21
195.5212252214
  0
LINE
  5
2C5
100
AcDbEntity
  8
KONSTRUKTIONSELEMENTE
100
AcDbLine
 62
7
  6
CONTINUOUS
 10
165.9884796561
 20
195.4421302748
 11
166.0202322146
 21
195.7963224246
  0
LINE
  5
2C6
100
AcDbEntity
  8
KONSTRUKTIONSELEMENTE
100
AcDbLine
 62
7
  6
CONTINUOUS
 10
167.2917288258
 20
195.6823355095
 11
167.2599762673
 21
195.3281433597
  0
LINE
  5
2C7
100
AcDbEntity
  8
KONSTRUKTIONSELEMENTE
100
AcDbLine
 62
7
  6
CONTINUOUS
 10
167.5823864072
 20
195.3502448507
 11
167.6050669248
 21
195.603240567
  0
LINE
  5
2C8
100
AcDbEntity
  8
KONSTRUKTIONSELEMENTE
100
AcDbLine
 62
7
  6
CONTINUOUS
 10
167.927546742
 20
194.911256081
 11
167.9048664321
 21
194.6582626809
  0
LINE
  5
2C9
100
AcDbEntity
  8
KONSTRUKTIONSELEMENTE
100
AcDbLine
 62
7
  6
CONTINUOUS
 10
168.3725010099
 20
195.5854466259
 11
168.3452844719
 21
195.2818526928
  0
LINE
  5
2CA
100
AcDbEntity
  8
KONSTRUKTIONSELEMENTE
100
AcDbLine
 62
7
  6
CONTINUOUS
 10
168.6676946118
 20
195.3039541838
 11
168.6858391089
 21
195.5063516833
  0
LINE
  5
2CB
100
AcDbEntity
  8
KONSTRUKTIONSELEMENTE
100
AcDbLine
 62
7
  6
CONTINUOUS
 10
150.4145556063
 20
209.8953276052
 11
150.3628291587
 21
209.6848142874
  0
LINE
  5
2CC
100
AcDbEntity
  8
KONSTRUKTIONSELEMENTE
100
AcDbLine
 62
7
  6
CONTINUOUS
 10
147.6187870598
 20
210.2338761027
 11
147.5793837608
 21
210.0755483159
  0
LINE
  5
2CD
100
AcDbEntity
  8
KONSTRUKTIONSELEMENTE
100
AcDbLine
 62
7
  6
CONTINUOUS
 10
165.2251742679
 20
201.035021442
 11
165.1603918652
 21
200.8039516839
  0
LINE
  5
2CE
100
AcDbEntity
  8
KONSTRUKTIONSELEMENTE
100
AcDbLine
 62
7
  6
CONTINUOUS
 10
168.1237637636
 20
200.4619531684
 11
168.1885454906
 21
200.6930251518
  0
LINE
  5
2CF
100
AcDbEntity
  8
KONSTRUKTIONSELEMENTE
100
AcDbLine
 62
7
  6
CONTINUOUS
 10
167.1098996359
 20
203.1840904746
 11
167.1872401708
 21
203.4523806794
  0
LINE
  5
2D0
100
AcDbEntity
  8
KONSTRUKTIONSELEMENTE
100
AcDbLine
 62
7
  6
CONTINUOUS
 10
153.2238130036
 20
209.9448382989
 11
153.2860572977
 21
210.1343648459
  0
LINE
  5
2D1
100
AcDbEntity
  8
KONSTRUKTIONSELEMENTE
100
AcDbLine
 62
7
  6
CONTINUOUS
 10
150.5549452655
 20
209.3382779461
 11
150.6895961356
 21
209.6355158756
  0
LINE
  5
2D2
100
AcDbEntity
  8
KONSTRUKTIONSELEMENTE
100
AcDbLine
 62
7
  6
CONTINUOUS
 10
152.9779028736
 20
210.1793660435
 11
152.8882433555
 21
209.9820016287
  0
LINE
  5
2D3
100
AcDbEntity
  8
KONSTRUKTIONSELEMENTE
100
AcDbLine
 62
7
  6
CONTINUOUS
 10
86.449043578
 20
134.3139886974
 11
87.5097037498
 21
136.1511060045
  0
LINE
  5
2D4
100
AcDbEntity
  8
KONSTRUKTIONSELEMENTE
100
AcDbLine
 62
7
  6
CONTINUOUS
 10
86.8204877402
 20
126.9820699484
 11
87.6690158776
 21
128.4517637941
  0
LINE
  5
2D5
100
AcDbEntity
  8
KONSTRUKTIONSELEMENTE
100
AcDbLine
 62
7
  6
CONTINUOUS
 10
86.6666422564
 20
126.2933848136
 11
86.7727082736
 21
126.4770965444
  0
LINE
  5
2D6
100
AcDbEntity
  8
0
100
AcDbLine
 62
7
  6
CONTINUOUS
 10
140.1231152712
 20
211.2537642118
 11
134.1121008909
 21
200.8423819001
  0
LINE
  5
2D7
100
AcDbEntity
  8
0
100
AcDbLine
 62
7
  6
CONTINUOUS
 10
126.6628487384
 20
180.9398986936
 11
127.0486969943
 21
181.6082074768
  0
LINE
  5
2D8
100
AcDbEntity
  8
0
100
AcDbLine
 62
7
  6
CONTINUOUS
 10
129.5486969943
 20
185.9383344957
 11
130.0101038492
 21
186.7375146114
  0
LINE
  5
2D9
100
AcDbEntity
  8
0
100
AcDbLine
 62
7
  6
CONTINUOUS
 10
272.0231152712
 20
182.3423819001
 11
266.0121008909
 21
192.7537642118
  0
LINE
  5
2DA
100
AcDbEntity
  8
KONSTRUKTIONSELEMENTE
100
AcDbLine
 62
7
  6
CONTINUOUS
 10
165.7840771696
 20
196.021514992
 11
165.6978220302
 21
195.7742209376
  0
LINE
  5
2DB
100
AcDbEntity
  8
KONSTRUKTIONSELEMENTE
100
AcDbLine
 62
7
  6
CONTINUOUS
 10
167.4961310657
 20
195.1029484796
 11
167.5823864072
 21
195.3502448507
  0
LINE
  5
2DC
100
AcDbEntity
  8
KONSTRUKTIONSELEMENTE
100
AcDbLine
 62
7
  6
CONTINUOUS
 10
168.581439478
 20
195.0566601289
 11
168.6676946118
 21
195.3039541838
  0
LINE
  5
2DD
100
AcDbEntity
  8
KONSTRUKTIONSELEMENTE
100
AcDbLine
 62
7
  6
CONTINUOUS
 10
165.5420520531
 20
200.86385956
 11
165.6212430219
 21
201.0462143487
  0
LINE
  5
2DE
100
AcDbEntity
  8
KONSTRUKTIONSELEMENTE
100
AcDbLine
 62
7
  6
CONTINUOUS
 10
167.8068853402
 20
200.6331172869
 11
167.7276944143
 21
200.4507625108
  0
LINE
  5
2DF
100
AcDbEntity
  8
KONSTRUKTIONSELEMENTE
100
AcDbLine
 62
7
  6
CONTINUOUS
 10
166.8801947269
 20
203.3515833288
 11
166.8131441409
 21
203.2028396747
  0
LINE
  5
2E0
100
AcDbEntity
  8
KONSTRUKTIONSELEMENTE
100
AcDbLine
 62
7
  6
CONTINUOUS
 10
133.589954658
 20
180.4031287028
 11
135.4253955045
 21
183.5822055033
  0
LINE
  5
2E1
100
AcDbEntity
  8
KONSTRUKTIONSELEMENTE
100
AcDbLine
 62
7
  6
CONTINUOUS
 10
112.3934776919
 20
142.224623049
 11
117.6967785508
 21
151.4102095845
  0
LINE
  5
2E2
100
AcDbEntity
  8
KONSTRUKTIONSELEMENTE
100
AcDbLine
 62
7
  6
CONTINUOUS
 10
127.949826878
 20
169.1690102197
 11
130.1284161063
 21
172.9424374517
  0
LINE
  5
2E3
100
AcDbEntity
  8
0
100
AcDbLine
 62
7
  6
CONTINUOUS
 10
181.6833489997
 20
259.238200604
 11
148.2364768533
 21
201.3065186921
  0
LINE
  5
2E4
100
AcDbEntity
  8
KONSTRUKTIONSELEMENTE
100
AcDbLine
 62
7
  6
CONTINUOUS
 10
92.9018753577
 20
100.3241774852
 11
89.8259608596
 21
94.9965372947
  0
LINE
  5
2E5
100
AcDbEntity
  8
0
100
AcDbLine
 62
7
  6
CONTINUOUS
 10
138.1214891378
 20
177.786846051
 11
134.654808058
 21
171.7823782872
  0
LINE
  5
2E6
100
AcDbEntity
  8
KONSTRUKTIONSELEMENTE
100
AcDbLine
 62
7
  6
CONTINUOUS
 10
116.290592009
 20
139.974623049
 11
121.5938928679
 21
149.1602095845
  0
LINE
  5
2E7
100
AcDbEntity
  8
KONSTRUKTIONSELEMENTE
100
AcDbLine
 62
7
  6
CONTINUOUS
 10
131.8469411951
 20
166.9190102197
 11
134.6547474429
 21
171.7822732987
  0
LINE
  5
2E8
100
AcDbEntity
  8
KONSTRUKTIONSELEMENTE
100
AcDbLine
 62
7
  6
CONTINUOUS
 10
138.1214891378
 20
177.786846051
 11
142.1079891378
 21
184.6916665954
  0
LINE
  5
2E9
100
AcDbEntity
  8
KONSTRUKTIONSELEMENTE
100
AcDbLine
 62
7
  6
CONTINUOUS
 10
90.4409272754
 20
93.6616903719
 11
93.8350398251
 21
99.5404657545
  0
LINE
  5
2EA
100
AcDbEntity
  8
KONSTRUKTIONSELEMENTE
100
AcDbLine
 62
7
  6
CONTINUOUS
 10
144.1975802785
 20
186.3109446181
 11
140.9240145416
 21
180.6409624399
  0
LINE
  5
2EB
100
AcDbEntity
  8
KONSTRUKTIONSELEMENTE
100
AcDbLine
 62
7
  6
CONTINUOUS
 10
117.6451320263
 20
140.3207551799
 11
108.8899282062
 21
125.1562973329
  0
LINE
  5
2EC
100
AcDbEntity
  8
KONSTRUKTIONSELEMENTE
100
AcDbLine
 62
7
  6
CONTINUOUS
 10
122.3008943803
 20
147.884772125
 11
133.3050031921
 21
166.9444476791
  0
LINE
  5
2ED
100
AcDbEntity
  8
KONSTRUKTIONSELEMENTE
100
AcDbLine
 62
7
  6
CONTINUOUS
 10
126.1980086973
 20
145.634772125
 11
137.2021175091
 21
164.6944476791
  0
LINE
  5
2EE
100
AcDbEntity
  8
KONSTRUKTIONSELEMENTE
100
AcDbLine
 62
7
  6
CONTINUOUS
 10
148.5277072975
 20
183.8109446181
 11
145.2541415605
 21
178.1409624399
  0
LINE
  5
2EF
100
AcDbEntity
  8
KONSTRUKTIONSELEMENTE
100
AcDbLine
 62
7
  6
CONTINUOUS
 10
121.9752590452
 20
137.8207551799
 11
113.2200552251
 21
122.6562973329
  0
LINE
  5
2F0
100
AcDbEntity
  8
KONSTRUKTIONSELEMENTE
100
AcDbLine
 62
7
  6
CONTINUOUS
 10
95.1694259801
 20
90.9316903719
 11
98.5635385298
 21
96.8104657545
  0
LINE
  5
2F1
100
AcDbEntity
  8
KONSTRUKTIONSELEMENTE
100
AcDbLine
 62
7
  6
CONTINUOUS
 10
140.7169858845
 20
168.2823782872
 11
137.9091190216
 21
163.4190102197
  0
LINE
  5
2F2
100
AcDbEntity
  8
KONSTRUKTIONSELEMENTE
100
AcDbLine
 62
7
  6
CONTINUOUS
 10
127.6560706944
 20
145.6602095845
 11
122.3527698355
 21
136.474623049
  0
LINE
  5
2F3
100
AcDbEntity
  8
0
100
AcDbLine
 62
7
  6
CONTINUOUS
 10
140.7169858845
 20
168.2823782872
 11
144.1836669643
 21
174.286846051
  0
LINE
  5
2F4
100
AcDbEntity
  8
KONSTRUKTIONSELEMENTE
100
AcDbLine
 62
7
  6
CONTINUOUS
 10
144.1836669643
 20
174.286846051
 11
148.1701669643
 21
181.1916665954
  0
LINE
  5
2F5
100
AcDbEntity
  8
KONSTRUKTIONSELEMENTE
100
AcDbLine
 62
7
  6
CONTINUOUS
 10
96.6329205333
 20
91.0665372947
 11
99.7088350315
 21
96.3941774852
  0
LINE
  5
2F6
100
AcDbEntity
  8
KONSTRUKTIONSELEMENTE
100
AcDbLine
 62
7
  6
CONTINUOUS
 10
147.7581522465
 20
209.8063296477
 11
147.889980969
 21
210.0068576302
  0
LINE
  5
2F7
100
AcDbEntity
  8
KONSTRUKTIONSELEMENTE
100
AcDbLine
 62
7
  6
CONTINUOUS
 10
153.0131616828
 20
209.605981011
 11
153.0987604613
 21
209.7282409421
  0
LINE
  5
2F8
100
AcDbEntity
  8
KONSTRUKTIONSELEMENTE
100
AcDbLine
 62
7
  6
CONTINUOUS
 10
150.3628291587
 20
209.6848142874
 11
150.2462422342
 21
209.5237802303
  0
LINE
  5
2F9
100
AcDbEntity
  8
0
100
AcDbLine
 62
7
  6
CONTINUOUS
 10
289.462954658
 20
171.6705633993
 11
287.6275138115
 21
174.8496401997
  0
LINE
  5
2FA
100
AcDbEntity
  8
0
100
AcDbLine
 62
7
  6
CONTINUOUS
 10
278.7099129265
 20
194.7605086213
 11
245.2099129265
 21
252.7842106748
  0
LINE
  5
2FB
100
AcDbEntity
  8
0
100
AcDbLine
 62
7
  6
CONTINUOUS
 10
297.4611702176
 20
168.2823782872
 11
290.0079891378
 21
181.1916665954
  0
LINE
  5
2FC
100
AcDbEntity
  8
KONSTRUKTIONSELEMENTE
100
AcDbLine
 62
7
  6
CONTINUOUS
 10
166.0202322146
 20
195.7963224246
 11
166.0974153075
 21
195.942420046
  0
LINE
  5
2FD
100
AcDbEntity
  8
KONSTRUKTIONSELEMENTE
100
AcDbLine
 62
7
  6
CONTINUOUS
 10
167.2599762673
 20
195.3281433597
 11
167.1827931744
 21
195.1820457383
  0
LINE
  5
2FE
100
AcDbEntity
  8
KONSTRUKTIONSELEMENTE
100
AcDbLine
 62
7
  6
CONTINUOUS
 10
168.3452844719
 20
195.2818526928
 11
168.268101379
 21
195.1357550715
  0
LINE
  5
2FF
100
AcDbEntity
  8
0
100
AcDbLine
 62
7
  6
CONTINUOUS
 10
192.9416792489
 20
252.738200604
 11
159.4948071025
 21
194.8065186921
  0
LINE
  5
300
100
AcDbEntity
  8
KONSTRUKTIONSELEMENTE
100
AcDbLine
 62
7
  6
CONTINUOUS
 10
143.9848225668
 20
164.9424374517
 11
141.8062333386
 21
161.1690102197
  0
LINE
  5
301
100
AcDbEntity
  8
KONSTRUKTIONSELEMENTE
100
AcDbLine
 62
7
  6
CONTINUOUS
 10
131.5531850114
 20
143.4102095845
 11
126.2498841525
 21
134.224623049
  0
LINE
  5
302
100
AcDbEntity
  8
KONSTRUKTIONSELEMENTE
100
AcDbLine
 62
7
  6
CONTINUOUS
 10
148.7152014442
 20
171.6705633993
 11
150.5506422907
 21
174.8496401997
  0
LINE
  5
303
100
AcDbEntity
  8
0
100
AcDbLine
 62
7
  6
CONTINUOUS
 10
166.1550408309
 20
182.3423819001
 11
172.1660552113
 21
192.7537642118
  0
LINE
  5
304
100
AcDbEntity
  8
KONSTRUKTIONSELEMENTE
100
AcDbLine
 62
7
  6
CONTINUOUS
 10
115.2593509673
 20
92.8807861027
 11
114.1986907956
 21
91.0436687956
  0
LINE
  5
305
100
AcDbEntity
  8
KONSTRUKTIONSELEMENTE
100
AcDbLine
 62
7
  6
CONTINUOUS
 10
166.9525615242
 20
202.9317809922
 11
167.1098996359
 21
203.1840904746
  0
LINE
  5
306
100
AcDbEntity
  8
KONSTRUKTIONSELEMENTE
100
AcDbLine
 62
7
  6
CONTINUOUS
 10
165.41237322
 20
201.3023010458
 11
165.2251742679
 21
201.035021442
  0
LINE
  5
307
100
AcDbEntity
  8
KONSTRUKTIONSELEMENTE
100
AcDbLine
 62
7
  6
CONTINUOUS
 10
147.5793837608
 20
210.0755483159
 11
147.4672566217
 21
209.9541841965
  0
LINE
  5
308
100
AcDbEntity
  8
KONSTRUKTIONSELEMENTE
100
AcDbLine
 62
7
  6
CONTINUOUS
 10
150.3890966957
 20
209.1648288206
 11
150.5549452655
 21
209.3382779461
  0
LINE
  5
309
100
AcDbEntity
  8
0
100
AcDbLine
 62
7
  6
CONTINUOUS
 10
303.5233480441
 20
171.7823782872
 11
296.0701669643
 21
184.6916665954
  0
LINE
  5
30A
100
AcDbEntity
  8
0
100
AcDbLine
 62
7
  6
CONTINUOUS
 10
289.9682431757
 20
201.2605086213
 11
256.4682431757
 21
259.2842106748
  0
LINE
  5
30B
100
AcDbEntity
  8
0
100
AcDbLine
 62
7
  6
CONTINUOUS
 10
304.5882014442
 20
180.4031287028
 11
302.7527605976
 21
183.5822055033
  0
LINE
  5
30C
100
AcDbEntity
  8
KONSTRUKTIONSELEMENTE
100
AcDbLine
 62
7
  6
CONTINUOUS
 10
138.0073166973
 20
104.5118177425
 11
136.9466565255
 21
102.6747004354
  0
LINE
  5
30D
100
AcDbEntity
  8
KONSTRUKTIONSELEMENTE
100
AcDbLine
 62
7
  6
CONTINUOUS
 10
167.9365641734
 20
200.194675801
 11
168.1237637636
 21
200.4619531684
  0
LINE
  5
30E
100
AcDbEntity
  8
KONSTRUKTIONSELEMENTE
100
AcDbLine
 62
7
  6
CONTINUOUS
 10
165.9974821755
 20
196.2574126714
 11
165.7840771696
 21
196.021514992
  0
LINE
  5
30F
100
AcDbEntity
  8
KONSTRUKTIONSELEMENTE
100
AcDbLine
 62
7
  6
CONTINUOUS
 10
167.2827262842
 20
194.867053115
 11
167.4961310657
 21
195.1029484796
  0
LINE
  5
310
100
AcDbEntity
  8
KONSTRUKTIONSELEMENTE
100
AcDbLine
 62
7
  6
CONTINUOUS
 10
164.7853276892
 20
201.702820869
 11
165.8817208925
 21
202.7808947861
  0
LINE
  5
311
100
AcDbEntity
  8
KONSTRUKTIONSELEMENTE
100
AcDbLine
 62
7
  6
CONTINUOUS
 10
165.6287801076
 20
202.993563398
 11
164.6226733663
 21
202.0190573772
  0
LINE
  5
312
100
AcDbEntity
  8
KONSTRUKTIONSELEMENTE
100
AcDbLine
 62
7
  6
CONTINUOUS
 10
152.8882433555
 20
209.9820016287
 11
152.7439602587
 21
209.8452285813
  0
LINE
  5
313
100
AcDbEntity
  8
KONSTRUKTIONSELEMENTE
100
AcDbLine
 62
7
  6
CONTINUOUS
 10
152.8181726479
 20
209.4660899629
 11
153.0131616828
 21
209.605981011
  0
LINE
  5
314
100
AcDbEntity
  8
0
100
AcDbLine
 62
7
  6
CONTINUOUS
 10
311.5153073637
 20
180.9398986936
 11
311.1294591079
 21
181.6082074768
  0
LINE
  5
315
100
AcDbEntity
  8
0
100
AcDbLine
 62
7
  6
CONTINUOUS
 10
308.6294591079
 20
185.9383344957
 11
308.1680522529
 21
186.7375146114
  0
LINE
  5
316
100
AcDbEntity
  8
0
100
AcDbLine
 62
7
  6
CONTINUOUS
 10
298.0550408309
 20
211.2537642118
 11
304.0660552113
 21
200.8423819001
  0
LINE
  5
317
100
AcDbEntity
  8
KONSTRUKTIONSELEMENTE
100
AcDbLine
 62
7
  6
CONTINUOUS
 10
168.3680344887
 20
194.8207624481
 11
168.581439478
 21
195.0566601289
  0
LINE
  5
318
100
AcDbEntity
  8
RUNDUNGEN
100
AcDbLine
 62
7
  6
CONTINUOUS
 10
158.1232009045
 20
173.729288079
 11
166.1550408309
 21
182.3423819001
  0
LINE
  5
319
100
AcDbEntity
  8
KONSTRUKTIONSELEMENTE
100
AcDbLine
 62
7
  6
CONTINUOUS
 10
166.0974153075
 20
195.942420046
 11
166.2381732243
 21
196.0828183222
  0
LINE
  5
31A
100
AcDbEntity
  8
KONSTRUKTIONSELEMENTE
100
AcDbLine
 62
7
  6
CONTINUOUS
 10
167.1827931744
 20
195.1820457383
 11
167.0420352576
 21
195.0416474621
  0
LINE
  5
31B
100
AcDbEntity
  8
KONSTRUKTIONSELEMENTE
100
AcDbLine
 62
7
  6
CONTINUOUS
 10
168.268101379
 20
195.1357550715
 11
168.1273434622
 21
194.9953567953
  0
LINE
  5
31C
100
AcDbEntity
  8
KONSTRUKTIONSELEMENTE
100
AcDbLine
 62
7
  6
CONTINUOUS
 10
165.6212430219
 20
201.0462143487
 11
165.7760517486
 21
201.1979557245
  0
LINE
  5
31D
100
AcDbEntity
  8
KONSTRUKTIONSELEMENTE
100
AcDbLine
 62
7
  6
CONTINUOUS
 10
166.8131441409
 20
203.2028396747
 11
166.6660949144
 21
203.0700788111
  0
LINE
  5
31E
100
AcDbEntity
  8
KONSTRUKTIONSELEMENTE
100
AcDbLine
 62
7
  6
CONTINUOUS
 10
166.8055122977
 20
202.7990201286
 11
166.9525615242
 21
202.9317809922
  0
LINE
  5
31F
100
AcDbEntity
  8
KONSTRUKTIONSELEMENTE
100
AcDbLine
 62
7
  6
CONTINUOUS
 10
165.6283905914
 20
201.4721462413
 11
165.41237322
 21
201.3023010458
  0
LINE
  5
320
100
AcDbEntity
  8
KONSTRUKTIONSELEMENTE
100
AcDbLine
 62
7
  6
CONTINUOUS
 10
150.2462422342
 20
209.5237802303
 11
150.0647948111
 21
209.4122255205
  0
LINE
  5
321
100
AcDbEntity
  8
KONSTRUKTIONSELEMENTE
100
AcDbLine
 62
7
  6
CONTINUOUS
 10
150.1583879172
 20
209.0408590811
 11
150.3890966957
 21
209.1648288206
  0
LINE
  5
322
100
AcDbEntity
  8
KONSTRUKTIONSELEMENTE
100
AcDbLine
 62
7
  6
CONTINUOUS
 10
146.8908212688
 20
211.0943595673
 11
145.7817151291
 21
210.5879567348
  0
LINE
  5
323
100
AcDbEntity
  8
KONSTRUKTIONSELEMENTE
100
AcDbLine
 62
7
  6
CONTINUOUS
 10
146.1915473057
 20
210.4242386164
 11
147.0695896223
 21
210.8251408387
  0
LINE
  5
324
100
AcDbEntity
  8
KONSTRUKTIONSELEMENTE
100
AcDbLine
 62
7
  6
CONTINUOUS
 10
147.4672566217
 20
209.9541841965
 11
146.5892143051
 21
209.5532819742
  0
LINE
  5
325
100
AcDbEntity
  8
KONSTRUKTIONSELEMENTE
100
AcDbLine
 62
7
  6
CONTINUOUS
 10
146.7482810752
 20
209.2048993824
 11
147.5338979021
 21
209.5636013788
  0
LINE
  5
326
100
AcDbEntity
  8
KONSTRUKTIONSELEMENTE
100
AcDbLine
 62
7
  6
CONTINUOUS
 10
147.0277383097
 20
207.8589594403
 11
147.3050148447
 21
207.9855601484
  0
LINE
  5
327
100
AcDbEntity
  8
KONSTRUKTIONSELEMENTE
100
AcDbLine
 62
7
  6
CONTINUOUS
 10
148.4603336961
 20
208.5130630789
 11
148.783823075
 21
208.6607639453
  0
LINE
  5
328
100
AcDbEntity
  8
0
100
AcDbLine
 62
7
  6
CONTINUOUS
 10
151.1057850371
 20
216.1435638329
 11
140.1231152712
 21
211.2537642118
  0
LINE
  5
329
100
AcDbEntity
  8
0
100
AcDbLine
 62
7
  6
CONTINUOUS
 10
266.0121008909
 20
192.7537642118
 11
267.2687450826
 21
204.709935041
  0
LINE
  5
32A
100
AcDbEntity
  8
KONSTRUKTIONSELEMENTE
100
AcDbLine
 62
7
  6
CONTINUOUS
 10
167.0420352576
 20
195.0416474621
 11
166.9058133613
 21
194.9518474027
  0
LINE
  5
32B
100
AcDbEntity
  8
KONSTRUKTIONSELEMENTE
100
AcDbLine
 62
7
  6
CONTINUOUS
 10
167.0783935435
 20
194.7323541839
 11
167.2827262842
 21
194.867053115
  0
LINE
  5
32C
100
AcDbEntity
  8
KONSTRUKTIONSELEMENTE
100
AcDbLine
 62
7
  6
CONTINUOUS
 10
167.7276944143
 20
200.4507625108
 11
167.5584769767
 21
200.3477360616
  0
LINE
  5
32D
100
AcDbEntity
  8
KONSTRUKTIONSELEMENTE
100
AcDbLine
 62
7
  6
CONTINUOUS
 10
165.7760517486
 20
201.1979557245
 11
166.006476957
 21
201.31908816
  0
LINE
  5
32E
100
AcDbEntity
  8
KONSTRUKTIONSELEMENTE
100
AcDbLine
 62
7
  6
CONTINUOUS
 10
166.5701508312
 20
204.7916933695
 11
164.7062539026
 21
203.8330093308
  0
LINE
  5
32F
100
AcDbEntity
  8
KONSTRUKTIONSELEMENTE
100
AcDbLine
 62
7
  6
CONTINUOUS
 10
164.424768131
 20
203.3454616729
 11
165.2337638338
 21
203.7615636878
  0
LINE
  5
330
100
AcDbEntity
  8
KONSTRUKTIONSELEMENTE
100
AcDbLine
 62
7
  6
CONTINUOUS
 10
165.5743340388
 20
203.9367338995
 11
166.4257597103
 21
204.3746595106
  0
LINE
  5
331
100
AcDbEntity
  8
KONSTRUKTIONSELEMENTE
100
AcDbLine
 62
7
  6
CONTINUOUS
 10
166.6660949144
 20
203.0700788111
 11
166.4958096529
 21
202.9824936234
  0
LINE
  5
332
100
AcDbEntity
  8
KONSTRUKTIONSELEMENTE
100
AcDbLine
 62
7
  6
CONTINUOUS
 10
166.5784653353
 20
202.6822399056
 11
166.8055122977
 21
202.7990201286
  0
LINE
  5
333
100
AcDbEntity
  8
KONSTRUKTIONSELEMENTE
100
AcDbLine
 62
7
  6
CONTINUOUS
 10
165.9200244015
 20
201.6113824839
 11
165.6283905914
 21
201.4721462413
  0
LINE
  5
334
100
AcDbEntity
  8
KONSTRUKTIONSELEMENTE
100
AcDbLine
 62
7
  6
CONTINUOUS
 10
167.6449295321
 20
200.0554417377
 11
167.9365641734
 21
200.194675801
  0
LINE
  5
335
100
AcDbEntity
  8
KONSTRUKTIONSELEMENTE
100
AcDbLine
 62
7
  6
CONTINUOUS
 10
152.7439602587
 20
209.8452285813
 11
152.5450535777
 21
209.7690469906
  0
LINE
  5
336
100
AcDbEntity
  8
KONSTRUKTIONSELEMENTE
100
AcDbLine
 62
7
  6
CONTINUOUS
 10
152.5685594505
 20
209.3867903022
 11
152.8181726479
 21
209.4660899629
  0
LINE
  5
337
100
AcDbEntity
  8
0
100
AcDbLine
 62
7
  6
CONTINUOUS
 10
307.5092933022
 20
189.5800575741
 11
304.0660552113
 21
200.8423819001
  0
LINE
  5
338
100
AcDbEntity
  8
0
100
AcDbLine
 62
7
  6
CONTINUOUS
 10
289.0890780511
 20
311.0268238151
 11
289.0890780511
 21
431.0268238151
  0
LINE
  5
339
100
AcDbEntity
  8
KONSTRUKTIONSELEMENTE
100
AcDbLine
 62
7
  6
CONTINUOUS
 10
166.2653897623
 20
196.3864122553
 11
165.9974821755
 21
196.2574126714
  0
LINE
  5
33A
100
AcDbEntity
  8
KONSTRUKTIONSELEMENTE
100
AcDbLine
 62
7
  6
CONTINUOUS
 10
168.1001269242
 20
194.6917628622
 11
168.3680344887
 21
194.8207624481
  0
LINE
  5
33B
100
AcDbEntity
  8
KONSTRUKTIONSELEMENTE
100
AcDbLine
 62
7
  6
CONTINUOUS
 10
166.2381732243
 20
196.0828183222
 11
166.437969989
 21
196.1669190325
  0
LINE
  5
33C
100
AcDbEntity
  8
KONSTRUKTIONSELEMENTE
100
AcDbLine
 62
7
  6
CONTINUOUS
 10
168.1273434622
 20
194.9953567953
 11
167.927546742
 21
194.911256081
  0
LINE
  5
33D
100
AcDbEntity
  8
KONSTRUKTIONSELEMENTE
100
AcDbLine
 62
7
  6
CONTINUOUS
 10
166.8381535147
 20
201.8829396149
 11
165.9200244015
 21
201.6113824839
  0
LINE
  5
33E
100
AcDbEntity
  8
KONSTRUKTIONSELEMENTE
100
AcDbLine
 62
7
  6
CONTINUOUS
 10
166.006476957
 20
201.31908816
 11
166.9246060701
 21
201.590645291
  0
LINE
  5
33F
100
AcDbEntity
  8
KONSTRUKTIONSELEMENTE
100
AcDbLine
 62
7
  6
CONTINUOUS
 10
166.8779207272
 20
200.6232432841
 11
166.5106691162
 21
200.5146204418
  0
LINE
  5
340
100
AcDbEntity
  8
KONSTRUKTIONSELEMENTE
100
AcDbLine
 62
7
  6
CONTINUOUS
 10
166.6403479493
 20
200.0761789559
 11
166.150679049
 21
199.9313484742
  0
LINE
  5
341
100
AcDbEntity
  8
KONSTRUKTIONSELEMENTE
100
AcDbLine
 62
7
  6
CONTINUOUS
 10
166.1759230026
 20
199.6209503432
 11
167.0940521157
 21
199.8925074743
  0
LINE
  5
342
100
AcDbEntity
  8
0
100
AcDbLine
 62
7
  6
CONTINUOUS
 10
307.0890780511
 20
311.0268238151
 11
307.0890780511
 21
431.0268238151
  0
LINE
  5
343
100
AcDbEntity
  8
0
100
AcDbLine
 62
7
  6
CONTINUOUS
 10
267.2687450826
 20
204.709935041
 11
270.739876365
 21
208.5650168839
  0
LINE
  5
344
100
AcDbEntity
  8
RUNDUNGEN
100
AcDbLine
 62
7
  6
CONTINUOUS
 10
151.4533640011
 20
165.0084953416
 11
151.2923686675
 21
164.9498978323
  0
LINE
  5
345
100
AcDbEntity
  8
0
100
AcDbLine
 62
7
  6
CONTINUOUS
 10
151.2923686675
 20
164.9498978323
 11
147.6357636525
 21
163.6190024484
  0
LINE
  5
346
100
AcDbEntity
  8
0
100
AcDbLine
 62
7
  6
CONTINUOUS
 10
151.4533640011
 20
165.0084953416
 11
151.5949734438
 21
165.0600369636
  0
LINE
  5
347
100
AcDbEntity
  8
0
100
AcDbLine
 62
7
  6
CONTINUOUS
 10
311.0213388719
 20
175.442527678
 11
311.7529712696
 21
179.5918211938
  0
LINE
  5
348
100
AcDbEntity
  8
KONSTRUKTIONSELEMENTE
100
AcDbLine
 62
7
  6
CONTINUOUS
 10
111.9105383893
 20
97.2666690867
 11
129.0025543001
 21
105.8245196132
  0
LINE
  5
349
100
AcDbEntity
  8
0
100
AcDbLine
 62
7
  6
CONTINUOUS
 10
298.1201669643
 20
181.1409624399
 11
292.0579891378
 21
177.6409624399
  0
LINE
  5
34A
100
AcDbEntity
  8
0
100
AcDbLine
 62
7
  6
CONTINUOUS
 10
286.9792690845
 20
167.6650887659
 11
290.0405378095
 21
169.4325130883
  0
LINE
  5
34B
100
AcDbEntity
  8
0
100
AcDbLine
 62
7
  6
CONTINUOUS
 10
306.2376182927
 20
178.7839018654
 11
309.2988870176
 21
180.5513261878
  0
LINE
  5
34C
100
AcDbEntity
  8
KONSTRUKTIONSELEMENTE
100
AcDbLine
 62
7
  6
CONTINUOUS
 10
113.9116403958
 20
90.8516872352
 11
114.0834118176
 21
90.9376919617
  0
LINE
  5
34D
100
AcDbEntity
  8
KONSTRUKTIONSELEMENTE
100
AcDbLine
 62
7
  6
CONTINUOUS
 10
135.8431268526
 20
101.8326261662
 11
136.2549826577
 21
102.0388394319
  0
LINE
  5
34E
100
AcDbEntity
  8
0
100
AcDbLine
 62
7
  6
CONTINUOUS
 10
301.7201669643
 20
174.9055795327
 11
295.6579891378
 21
171.4055795327
  0
LINE
  5
34F
100
AcDbEntity
  8
KONSTRUKTIONSELEMENTE
100
AcDbLine
 62
7
  6
CONTINUOUS
 10
292.2264327363
 20
163.7663368824
 11
294.1307364094
 21
164.8657871207
  0
LINE
  5
350
100
AcDbEntity
  8
KONSTRUKTIONSELEMENTE
100
AcDbLine
 62
7
  6
CONTINUOUS
 10
308.1474196928
 20
172.9583229875
 11
310.0517233659
 21
174.0577732258
  0
LINE
  5
351
100
AcDbEntity
  8
KONSTRUKTIONSELEMENTE
100
AcDbLine
 62
7
  6
CONTINUOUS
 10
426.1611525434
 20
92.3058950889
 11
427.8582088182
 21
90.8362012433
  0
LINE
  5
352
100
AcDbEntity
  8
KONSTRUKTIONSELEMENTE
100
AcDbLine
 62
7
  6
CONTINUOUS
 10
428.0231330532
 20
90.9316903719
 11
427.8110010188
 21
91.1154021026
  0
LINE
  5
353
100
AcDbEntity
  8
KONSTRUKTIONSELEMENTE
100
AcDbLine
 62
7
  6
CONTINUOUS
 10
425.9018127096
 20
92.7688076789
 11
426.113944744
 21
92.5850959482
  0
LINE
  5
354
100
AcDbEntity
  8
KONSTRUKTIONSELEMENTE
100
AcDbLine
 62
7
  6
CONTINUOUS
 10
428.0231330532
 20
93.6616903719
 11
427.8110010188
 21
93.8454021026
  0
LINE
  5
355
100
AcDbEntity
  8
KONSTRUKTIONSELEMENTE
100
AcDbLine
 62
7
  6
CONTINUOUS
 10
425.9018127096
 20
95.4988076789
 11
426.113944744
 21
95.3150959482
  0
LINE
  5
356
100
AcDbEntity
  8
KONSTRUKTIONSELEMENTE
100
AcDbLine
 62
7
  6
CONTINUOUS
 10
434.4920003048
 20
92.6008539859
 11
436.6133206484
 21
90.7637366789
  0
LINE
  5
357
100
AcDbEntity
  8
KONSTRUKTIONSELEMENTE
100
AcDbLine
 62
7
  6
CONTINUOUS
 10
455.5724052392
 20
103.6565508898
 11
457.6937255828
 21
101.8194335827
  0
LINE
  5
358
100
AcDbEntity
  8
KONSTRUKTIONSELEMENTE
100
AcDbLine
 62
7
  6
CONTINUOUS
 10
454.3958668988
 20
126.2933848136
 11
455.5613282298
 21
125.5354037487
  0
LINE
  5
359
100
AcDbEntity
  8
KONSTRUKTIONSELEMENTE
100
AcDbLine
 62
7
  6
CONTINUOUS
 10
454.1837348644
 20
126.4770965444
 11
455.3491961955
 21
125.7191154794
  0
LINE
  5
35A
100
AcDbEntity
  8
KONSTRUKTIONSELEMENTE
100
AcDbLine
 62
7
  6
CONTINUOUS
 10
452.2745465552
 20
128.1305021207
 11
452.5075873358
 21
127.9789393925
  0
LINE
  5
35B
100
AcDbEntity
  8
KONSTRUKTIONSELEMENTE
100
AcDbLine
 62
7
  6
CONTINUOUS
 10
455.2217151378
 20
127.2217462826
 11
456.118223854
 21
126.6386839249
  0
LINE
  5
35C
100
AcDbEntity
  8
KONSTRUKTIONSELEMENTE
100
AcDbLine
 62
7
  6
CONTINUOUS
 10
453.5246588629
 20
128.6914401282
 11
454.4211675791
 21
128.1083777706
  0
LINE
  5
35D
100
AcDbEntity
  8
KONSTRUKTIONSELEMENTE
100
AcDbLine
 62
7
  6
CONTINUOUS
 10
458.218974721
 20
132.1178423796
 11
459.1154834371
 21
131.534780022
  0
LINE
  5
35E
100
AcDbEntity
  8
KONSTRUKTIONSELEMENTE
100
AcDbLine
 62
7
  6
CONTINUOUS
 10
460.733039233
 20
131.7195015447
 11
459.567577902
 21
132.4774826096
  0
LINE
  5
35F
100
AcDbEntity
  8
KONSTRUKTIONSELEMENTE
100
AcDbLine
 62
7
  6
CONTINUOUS
 10
469.6545351348
 20
130.8862517402
 11
463.1556834228
 21
135.1129098112
  0
LINE
  5
360
100
AcDbEntity
  8
KONSTRUKTIONSELEMENTE
100
AcDbLine
 62
7
  6
CONTINUOUS
 10
467.5332147912
 20
132.7233690472
 11
461.0343630793
 21
136.9500271182
  0
LINE
  5
361
100
AcDbEntity
  8
KONSTRUKTIONSELEMENTE
100
AcDbLine
 62
7
  6
CONTINUOUS
 10
458.2071290267
 20
132.1264492814
 11
458.218974721
 21
132.1178423796
  0
LINE
  5
362
100
AcDbEntity
  8
KONSTRUKTIONSELEMENTE
100
AcDbLine
 62
7
  6
CONTINUOUS
 10
459.1281777238
 20
131.5250668975
 11
459.1154834371
 21
131.534780022
  0
LINE
  5
363
100
AcDbEntity
  8
KONSTRUKTIONSELEMENTE
100
AcDbLine
 62
7
  6
CONTINUOUS
 10
454.3958668988
 20
126.2933848136
 11
454.1837348644
 21
126.4770965444
  0
LINE
  5
364
100
AcDbEntity
  8
KONSTRUKTIONSELEMENTE
100
AcDbLine
 62
7
  6
CONTINUOUS
 10
452.2745465552
 20
128.1305021207
 11
452.4866785896
 21
127.94679039
  0
LINE
  5
365
100
AcDbEntity
  8
KONSTRUKTIONSELEMENTE
100
AcDbLine
 62
7
  6
CONTINUOUS
 10
459.567577902
 20
132.4774826096
 11
459.163188953
 21
132.4313022289
  0
LINE
  5
366
100
AcDbEntity
  8
BEZUGSACHSEN
100
AcDbLine
 62
7
  6
CONTINUOUS
 10
469.8208539709
 20
130.7606058938
 11
469.6545351348
 21
130.8862517402
  0
LINE
  5
367
100
AcDbEntity
  8
BEZUGSACHSEN
100
AcDbLine
 62
7
  6
CONTINUOUS
 10
467.6995336273
 20
132.5977232009
 11
467.5332147912
 21
132.7233690472
  0
LINE
  5
368
100
AcDbEntity
  8
KONSTRUKTIONSELEMENTE
100
AcDbLine
 62
7
  6
CONTINUOUS
 10
457.7793112318
 20
132.4971884908
 11
458.2095390218
 21
132.1246002952
  0
LINE
  5
369
100
AcDbEntity
  8
BEZUGSACHSEN
100
AcDbLine
 62
7
  6
CONTINUOUS
 10
467.6987822551
 20
132.5988319446
 11
469.6638627366
 21
130.897022327
  0
LWPOLYLINE
  5
36A
100
AcDbEntity
  8
0
100
AcDbPolyline
 62
7
  6
CONTINUOUS
 90
13
 70
0
 10
566.9696155563
 20
163.4983893914
 10
567.3985902301
 20
163.5039493717
 10
567.9022816638
 20
163.5247495803
 10
568.3942862528
 20
163.5601983443
 10
568.8825632016
 20
163.6106047505
 10
569.3718494357
 20
163.6769871257
 10
569.8635017481
 20
163.7606170913
 10
570.3613586534
 20
163.8638769544
 10
570.8589749571
 20
163.9875060289
 10
571.3530223373
 20
164.1327639957
 10
571.8386576732
 20
164.3004541705
 10
572.3118354769
 20
164.4915418159
 10
572.7694314183
 20
164.707468979
  0
LWPOLYLINE
  5
36B
100
AcDbEntity
  8
RUNDUNGEN
100
AcDbPolyline
 62
7
  6
CONTINUOUS
 90
15
 70
0
 10
566.9696155564
 20
163.4983893921
 10
567.371561305
 20
163.5032700792
 10
567.8617815452
 20
163.5225022178
 10
568.3566773312
 20
163.5569517528
 10
568.8549239416
 20
163.6073361532
 10
569.3544671446
 20
163.6743471945
 10
569.85318381
 20
163.7586798498
 10
570.3489102904
 20
163.8610543321
 10
570.839583866
 20
163.9822797231
 10
571.32246647
 20
164.1230753587
 10
571.7976583377
 20
164.2852497263
 10
572.2616450779
 20
164.4698294952
 10
572.7206054978
 20
164.6827758629
 10
573.1793086412
 20
164.9327576453
 10
573.5746769974
 20
165.186058601
  0
LWPOLYLINE
  5
36C
100
AcDbEntity
  8
RUNDUNGEN
100
AcDbPolyline
 62
7
  6
CONTINUOUS
 90
3
 70
0
 10
566.0774495674
 20
163.5225022178
 10
566.5676698077
 20
163.5032700792
 10
566.9696155563
 20
163.4983893921
  0
LINE
  5
36D
100
AcDbEntity
  8
0
100
AcDbLine
 62
7
  6
CONTINUOUS
 10
565.3267808885
 20
189.5800575741
 11
568.6124502241
 21
189.5800575741
  0
LINE
  5
36E
100
AcDbEntity
  8
KONSTRUKTIONSELEMENTE
100
AcDbLine
 62
7
  6
CONTINUOUS
 10
571.1176945129
 20
208.9910178405
 11
571.1358975774
 21
208.9911987706
  0
LINE
  5
36F
100
AcDbEntity
  8
0
100
AcDbLine
 62
7
  6
CONTINUOUS
 10
568.5046771213
 20
200.8423819001
 11
565.4345539914
 21
200.8423819001
  0
LINE
  5
370
100
AcDbEntity
  8
KONSTRUKTIONSELEMENTE
100
AcDbLine
 62
7
  6
CONTINUOUS
 10
563.2442799124
 20
207.8589594403
 11
563.2088730576
 21
207.8589594403
  0
LINE
  5
371
100
AcDbEntity
  8
KONSTRUKTIONSELEMENTE
100
AcDbLine
 62
7
  6
CONTINUOUS
 10
570.2983485595
 20
207.8589594403
 11
571.1261836199
 21
207.8589594403
  0
LINE
  5
372
100
AcDbEntity
  8
KONSTRUKTIONSELEMENTE
100
AcDbLine
 62
7
  6
CONTINUOUS
 10
563.2652878635
 20
207.9855601484
 11
563.2192691741
 21
207.9855601484
  0
LINE
  5
373
100
AcDbEntity
  8
KONSTRUKTIONSELEMENTE
100
AcDbLine
 62
7
  6
CONTINUOUS
 10
563.3955766488
 20
208.5130630789
 11
563.2428403158
 21
208.5130630789
  0
LINE
  5
374
100
AcDbEntity
  8
KONSTRUKTIONSELEMENTE
100
AcDbLine
 62
7
  6
CONTINUOUS
 10
570.9773104899
 20
208.5130630789
 11
571.132084833
 21
208.5130630789
  0
LINE
  5
375
100
AcDbEntity
  8
KONSTRUKTIONSELEMENTE
100
AcDbLine
 62
7
  6
CONTINUOUS
 10
563.4348768106
 20
208.6607639453
 11
563.239492268
 21
208.6607639453
  0
LINE
  5
376
100
AcDbEntity
  8
KONSTRUKTIONSELEMENTE
100
AcDbLine
 62
7
  6
CONTINUOUS
 10
571.0162903074
 20
208.9910178405
 11
571.1176945129
 21
208.9910178405
  0
LINE
  5
377
100
AcDbEntity
  8
KONSTRUKTIONSELEMENTE
100
AcDbLine
 62
7
  6
CONTINUOUS
 10
563.5227987195
 20
208.9911987706
 11
563.2320020506
 21
208.9911987706
  0
LINE
  5
378
100
AcDbEntity
  8
KONSTRUKTIONSELEMENTE
100
AcDbLine
 62
7
  6
CONTINUOUS
 10
563.5360123064
 20
209.0408590811
 11
563.2308763626
 21
209.0408590811
  0
LINE
  5
379
100
AcDbEntity
  8
KONSTRUKTIONSELEMENTE
100
AcDbLine
 62
7
  6
CONTINUOUS
 10
570.991557133
 20
209.065146345
 11
571.0818088224
 21
209.065146345
  0
LINE
  5
37A
100
AcDbEntity
  8
KONSTRUKTIONSELEMENTE
100
AcDbLine
 62
7
  6
CONTINUOUS
 10
563.5689981037
 20
209.1648288206
 11
563.2280662462
 21
209.1648288206
  0
LINE
  5
37B
100
AcDbEntity
  8
KONSTRUKTIONSELEMENTE
100
AcDbLine
 62
7
  6
CONTINUOUS
 10
570.9253908849
 20
209.2630637246
 11
571.0112037354
 21
209.2630637246
  0
LINE
  5
37C
100
AcDbEntity
  8
KONSTRUKTIONSELEMENTE
100
AcDbLine
 62
7
  6
CONTINUOUS
 10
563.6081459731
 20
209.3119573301
 11
563.2247311724
 21
209.3119573301
  0
LINE
  5
37D
100
AcDbEntity
  8
KONSTRUKTIONSELEMENTE
100
AcDbLine
 62
7
  6
CONTINUOUS
 10
571.081808824
 20
209.3119573301
 11
571.1251241336
 21
209.3119573301
  0
LINE
  5
37E
100
AcDbEntity
  8
KONSTRUKTIONSELEMENTE
100
AcDbLine
 62
7
  6
CONTINUOUS
 10
563.6314955724
 20
209.3867903022
 11
563.2230348766
 21
209.3867903022
  0
LINE
  5
37F
100
AcDbEntity
  8
KONSTRUKTIONSELEMENTE
100
AcDbLine
 62
7
  6
CONTINUOUS
 10
571.001033871
 20
209.4122255205
 11
571.033998034
 21
209.4122255205
  0
LINE
  5
380
100
AcDbEntity
  8
KONSTRUKTIONSELEMENTE
100
AcDbLine
 62
7
  6
CONTINUOUS
 10
563.6502388227
 20
209.4660899629
 11
563.2143904344
 21
209.4660899629
  0
LINE
  5
381
100
AcDbEntity
  8
KONSTRUKTIONSELEMENTE
100
AcDbLine
 62
7
  6
CONTINUOUS
 10
570.8507179311
 20
209.4858112101
 11
570.9417330518
 21
209.4858112101
  0
LINE
  5
382
100
AcDbEntity
  8
KONSTRUKTIONSELEMENTE
100
AcDbLine
 62
7
  6
CONTINUOUS
 10
570.9608983506
 20
209.5237802303
 11
571.0161727423
 21
209.5237802303
  0
LINE
  5
383
100
AcDbEntity
  8
KONSTRUKTIONSELEMENTE
100
AcDbLine
 62
7
  6
CONTINUOUS
 10
563.6865443117
 20
209.605981011
 11
563.1949159315
 21
209.605981011
  0
LINE
  5
384
100
AcDbEntity
  8
KONSTRUKTIONSELEMENTE
100
AcDbLine
 62
7
  6
CONTINUOUS
 10
570.9108687483
 20
209.6848142874
 11
570.9810420428
 21
209.6848142874
  0
LINE
  5
385
100
AcDbEntity
  8
KONSTRUKTIONSELEMENTE
100
AcDbLine
 62
7
  6
CONTINUOUS
 10
571.0139841148
 20
209.7690469906
 11
571.0336807008
 21
209.7690469906
  0
LINE
  5
386
100
AcDbEntity
  8
KONSTRUKTIONSELEMENTE
100
AcDbLine
 62
7
  6
CONTINUOUS
 10
570.750835771
 20
209.7828681115
 11
570.856107962
 21
209.7828681115
  0
LINE
  5
387
100
AcDbEntity
  8
KONSTRUKTIONSELEMENTE
100
AcDbLine
 62
7
  6
CONTINUOUS
 10
570.9937050024
 20
209.8452285813
 11
571.0154361455
 21
209.8452285813
  0
LINE
  5
388
100
AcDbEntity
  8
KONSTRUKTIONSELEMENTE
100
AcDbLine
 62
7
  6
CONTINUOUS
 10
563.7575434558
 20
209.8732909459
 11
563.1577031993
 21
209.8732909459
  0
LINE
  5
389
100
AcDbEntity
  8
KONSTRUKTIONSELEMENTE
100
AcDbLine
 62
7
  6
CONTINUOUS
 10
570.8502293666
 20
209.8953276052
 11
570.9290940901
 21
209.8953276052
  0
LINE
  5
38A
100
AcDbEntity
  8
KONSTRUKTIONSELEMENTE
100
AcDbLine
 62
7
  6
CONTINUOUS
 10
570.5562509329
 20
209.9541841965
 11
570.6765812922
 21
209.9541841965
  0
LINE
  5
38B
100
AcDbEntity
  8
KONSTRUKTIONSELEMENTE
100
AcDbLine
 62
7
  6
CONTINUOUS
 10
570.9572967838
 20
209.9820016287
 11
570.9800003453
 21
209.9820016287
  0
LINE
  5
38C
100
AcDbEntity
  8
KONSTRUKTIONSELEMENTE
100
AcDbLine
 62
7
  6
CONTINUOUS
 10
570.5207867548
 20
210.0755483159
 11
570.6585277886
 21
210.0755483159
  0
LINE
  5
38D
100
AcDbEntity
  8
KONSTRUKTIONSELEMENTE
100
AcDbLine
 62
7
  6
CONTINUOUS
 10
563.8271871923
 20
210.1343648459
 11
563.1213585975
 21
210.1343648459
  0
LINE
  5
38E
100
AcDbEntity
  8
KONSTRUKTIONSELEMENTE
100
AcDbLine
 62
7
  6
CONTINUOUS
 10
570.7789571097
 20
210.155320298
 11
570.8606378817
 21
210.155320298
  0
LINE
  5
38F
100
AcDbEntity
  8
KONSTRUKTIONSELEMENTE
100
AcDbLine
 62
7
  6
CONTINUOUS
 10
570.9047574949
 20
210.1793660435
 11
570.9278623228
 21
210.1793660435
  0
LINE
  5
390
100
AcDbEntity
  8
KONSTRUKTIONSELEMENTE
100
AcDbLine
 62
7
  6
CONTINUOUS
 10
570.4745204333
 20
210.2338761027
 11
570.6236315696
 21
210.2338761027
  0
LINE
  5
391
100
AcDbEntity
  8
KONSTRUKTIONSELEMENTE
100
AcDbLine
 62
7
  6
CONTINUOUS
 10
570.4188916752
 20
210.4291674965
 11
570.5721808628
 21
210.4291674965
  0
LINE
  5
392
100
AcDbEntity
  8
KONSTRUKTIONSELEMENTE
100
AcDbLine
 62
7
  6
CONTINUOUS
 10
570.8360860626
 20
210.4373218346
 11
570.8593286598
 21
210.4373218346
  0
LINE
  5
393
100
AcDbEntity
  8
KONSTRUKTIONSELEMENTE
100
AcDbLine
 62
7
  6
CONTINUOUS
 10
563.9128691452
 20
210.4560300776
 11
563.0850340848
 21
210.4560300776
  0
LINE
  5
394
100
AcDbEntity
  8
KONSTRUKTIONSELEMENTE
100
AcDbLine
 62
7
  6
CONTINUOUS
 10
569.5019952768
 20
210.5879567348
 11
570.3298303372
 21
210.5879567348
  0
LINE
  5
395
100
AcDbEntity
  8
KONSTRUKTIONSELEMENTE
100
AcDbLine
 62
7
  6
CONTINUOUS
 10
570.4221810661
 20
210.6033589551
 11
570.5212726002
 21
210.6033589551
  0
LINE
  5
396
100
AcDbEntity
  8
KONSTRUKTIONSELEMENTE
100
AcDbLine
 62
7
  6
CONTINUOUS
 10
570.4225118868
 20
210.7564501531
 11
570.4708862553
 21
210.7564501531
  0
LINE
  5
397
100
AcDbEntity
  8
KONSTRUKTIONSELEMENTE
100
AcDbLine
 62
7
  6
CONTINUOUS
 10
569.5093830273
 20
211.0943595673
 11
570.3372180877
 21
211.0943595673
  0
LINE
  5
398
100
AcDbEntity
  8
KONSTRUKTIONSELEMENTE
100
AcDbLine
 62
7
  6
CONTINUOUS
 10
569.524707592
 20
211.1417964123
 11
570.3525426524
 21
211.1417964123
  0
LINE
  5
399
100
AcDbEntity
  8
0
100
AcDbLine
 62
7
  6
CONTINUOUS
 10
568.4849816753
 20
211.2537642118
 11
565.4542494373
 21
211.2537642118
  0
LINE
  5
39A
100
AcDbEntity
  8
KONSTRUKTIONSELEMENTE
100
AcDbLine
 62
7
  6
CONTINUOUS
 10
570.5816484697
 20
211.3929635332
 11
570.604895619
 21
211.3929635332
  0
LINE
  5
39B
100
AcDbEntity
  8
KONSTRUKTIONSELEMENTE
100
AcDbLine
 62
7
  6
CONTINUOUS
 10
564.1669664273
 20
211.4116717762
 11
563.3391313669
 21
211.4116717762
  0
LINE
  5
39C
100
AcDbEntity
  8
KONSTRUKTIONSELEMENTE
100
AcDbLine
 62
7
  6
CONTINUOUS
 10
570.5146222636
 20
211.6446832671
 11
570.537664047
 21
211.6446832671
  0
LINE
  5
39D
100
AcDbEntity
  8
KONSTRUKTIONSELEMENTE
100
AcDbLine
 62
7
  6
CONTINUOUS
 10
569.5028081649
 20
211.7015947514
 11
570.3306432253
 21
211.7015947514
  0
LINE
  5
39E
100
AcDbEntity
  8
KONSTRUKTIONSELEMENTE
100
AcDbLine
 62
7
  6
CONTINUOUS
 10
564.2507874802
 20
211.7271011292
 11
563.4229524198
 21
211.7271011292
  0
LINE
  5
39F
100
AcDbEntity
  8
KONSTRUKTIONSELEMENTE
100
AcDbLine
 62
7
  6
CONTINUOUS
 10
569.5067650305
 20
211.7760852171
 11
570.3346000909
 21
211.7760852171
  0
LINE
  5
3A0
100
AcDbEntity
  8
KONSTRUKTIONSELEMENTE
100
AcDbLine
 62
7
  6
CONTINUOUS
 10
570.4653883084
 20
211.8295756745
 11
570.487858363
 21
211.8295756745
  0
LINE
  5
3A1
100
AcDbEntity
  8
KONSTRUKTIONSELEMENTE
100
AcDbLine
 62
7
  6
CONTINUOUS
 10
570.4352509586
 20
211.9476404343
 11
570.4552049322
 21
211.9476404343
  0
LINE
  5
3A2
100
AcDbEntity
  8
KONSTRUKTIONSELEMENTE
100
AcDbLine
 62
7
  6
CONTINUOUS
 10
564.3169544254
 20
211.9757027988
 11
563.489119365
 21
211.9757027988
  0
LINE
  5
3A3
100
AcDbEntity
  8
KONSTRUKTIONSELEMENTE
100
AcDbLine
 62
7
  6
CONTINUOUS
 10
569.506765029
 20
212.0740469378
 11
570.3346000894
 21
212.0740469378
  0
LINE
  5
3A4
100
AcDbEntity
  8
KONSTRUKTIONSELEMENTE
100
AcDbLine
 62
7
  6
CONTINUOUS
 10
569.5028081649
 20
212.148537368
 11
570.3306432253
 21
212.148537368
  0
LINE
  5
3A5
100
AcDbEntity
  8
KONSTRUKTIONSELEMENTE
100
AcDbLine
 62
7
  6
CONTINUOUS
 10
564.3821106636
 20
212.2180684112
 11
563.5542756032
 21
212.2180684112
  0
LINE
  5
3A6
100
AcDbEntity
  8
KONSTRUKTIONSELEMENTE
100
AcDbLine
 62
7
  6
CONTINUOUS
 10
569.501138622
 20
212.3063013963
 11
570.3289736824
 21
212.3063013963
  0
LINE
  5
3A7
100
AcDbEntity
  8
KONSTRUKTIONSELEMENTE
100
AcDbLine
 62
7
  6
CONTINUOUS
 10
564.4141038208
 20
212.3330151423
 11
563.5862687604
 21
212.3330151423
  0
LINE
  5
3A8
100
AcDbEntity
  8
KONSTRUKTIONSELEMENTE
100
AcDbLine
 62
7
  6
CONTINUOUS
 10
564.4296500189
 20
212.3811343685
 11
563.6018149585
 21
212.3811343685
  0
LINE
  5
3A9
100
AcDbEntity
  8
KONSTRUKTIONSELEMENTE
100
AcDbLine
 62
7
  6
CONTINUOUS
 10
569.5095810938
 20
212.3811343685
 11
570.3374161542
 21
212.3811343685
  0
LWPOLYLINE
  5
3AA
100
AcDbEntity
  8
RUNDUNGEN
100
AcDbPolyline
 62
7
  6
CONTINUOUS
 90
13
 70
0
 10
560.745596305
 20
164.9419360016
 10
560.7599224714
 20
164.9327576453
 10
561.2186256148
 20
164.6827758629
 10
561.6775860348
 20
164.4698294952
 10
562.141572775
 20
164.2852497263
 10
562.6167646426
 20
164.1230753587
 10
563.0996472466
 20
163.9822797231
 10
563.5903208223
 20
163.8610543321
 10
564.0860473026
 20
163.7586798498
 10
564.5847639681
 20
163.6743471945
 10
565.0843071711
 20
163.6073361532
 10
565.5825537815
 20
163.5569517528
 10
566.0774495674
 20
163.5225022178
  0
LINE
  5
3AB
100
AcDbEntity
  8
KONSTRUKTIONSELEMENTE
100
AcDbLine
 62
7
  6
CONTINUOUS
 10
425.9018127096
 20
95.4988076789
 11
425.9018127096
 21
92.7688076789
  0
LINE
  5
3AC
100
AcDbEntity
  8
KONSTRUKTIONSELEMENTE
100
AcDbLine
 62
7
  6
CONTINUOUS
 10
426.113944744
 20
95.4650959482
 11
426.113944744
 21
95.3150959482
  0
LINE
  5
3AD
100
AcDbEntity
  8
KONSTRUKTIONSELEMENTE
100
AcDbLine
 62
7
  6
CONTINUOUS
 10
426.113944744
 20
92.5850959482
 11
426.113944744
 21
92.4350959482
  0
LINE
  5
3AE
100
AcDbEntity
  8
KONSTRUKTIONSELEMENTE
100
AcDbLine
 62
7
  6
CONTINUOUS
 10
427.8110010188
 20
93.9954021026
 11
427.8110010188
 21
93.8454021026
  0
LINE
  5
3AF
100
AcDbEntity
  8
KONSTRUKTIONSELEMENTE
100
AcDbLine
 62
7
  6
CONTINUOUS
 10
427.8110010188
 20
91.1154021026
 11
427.8110010188
 21
90.9654021026
  0
LINE
  5
3B0
100
AcDbEntity
  8
KONSTRUKTIONSELEMENTE
100
AcDbLine
 62
7
  6
CONTINUOUS
 10
428.0231330532
 20
93.6616903719
 11
428.0231330532
 21
90.9316903719
  0
LINE
  5
3B1
100
AcDbEntity
  8
KONSTRUKTIONSELEMENTE
100
AcDbLine
 62
7
  6
CONTINUOUS
 10
434.3870940838
 20
92.8879670066
 11
434.3870940838
 21
96.2104657545
  0
LINE
  5
3B2
100
AcDbEntity
  8
KONSTRUKTIONSELEMENTE
100
AcDbLine
 62
7
  6
CONTINUOUS
 10
434.3870940838
 20
104.0472769073
 11
434.3870940838
 21
105.7858911693
  0
LINE
  5
3B3
100
AcDbEntity
  8
0
100
AcDbLine
 62
7
  6
CONTINUOUS
 10
568.4849816753
 20
216.1435638329
 11
565.4542494373
 21
216.1435638329
  0
LWPOLYLINE
  5
3B4
100
AcDbEntity
  8
0
100
AcDbPolyline
 62
7
  6
CONTINUOUS
 90
15
 70
0
 10
560.3647207506
 20
165.185942973
 10
560.7305263796
 20
164.9502654978
 10
561.1697996944
 20
164.707468979
 10
561.6273956357
 20
164.4915418159
 10
562.1005734395
 20
164.3004541705
 10
562.5862087754
 20
164.1327639957
 10
563.0802561555
 20
163.9875060289
 10
563.5778724592
 20
163.8638769544
 10
564.0757293645
 20
163.7606170913
 10
564.5673816769
 20
163.6769871257
 10
565.056667911
 20
163.6106047505
 10
565.5449448598
 20
163.5601983443
 10
566.0369494488
 20
163.5247495803
 10
566.5406408826
 20
163.5039493717
 10
566.9696155564
 20
163.4983893914
  0
LINE
  5
3B5
100
AcDbEntity
  8
0
100
AcDbLine
 62
7
  6
CONTINUOUS
 10
560.3650693079
 20
165.185701082
 11
560.2805557319
 21
165.2442985974
  0
LINE
  5
3B6
100
AcDbEntity
  8
KONSTRUKTIONSELEMENTE
100
AcDbLine
 62
7
  6
CONTINUOUS
 10
457.4661326782
 20
133.9009960746
 11
457.4462575584
 21
134.3145999166
  0
LINE
  5
3B7
100
AcDbEntity
  8
KONSTRUKTIONSELEMENTE
100
AcDbLine
 62
7
  6
CONTINUOUS
 10
436.2962823931
 20
96.6638713309
 11
436.2962823931
 21
97.2638713309
  0
LINE
  5
3B8
100
AcDbEntity
  8
KONSTRUKTIONSELEMENTE
100
AcDbLine
 62
7
  6
CONTINUOUS
 10
436.2962823931
 20
102.3938713309
 11
436.2962823931
 21
102.9938713309
  0
LINE
  5
3B9
100
AcDbEntity
  8
KONSTRUKTIONSELEMENTE
100
AcDbLine
 62
7
  6
CONTINUOUS
 10
436.5084144274
 20
103.9487738622
 11
436.5084144274
 21
102.2101596002
  0
LINE
  5
3BA
100
AcDbEntity
  8
KONSTRUKTIONSELEMENTE
100
AcDbLine
 62
7
  6
CONTINUOUS
 10
436.5084144274
 20
97.0801596002
 11
436.5084144274
 21
91.0508496995
  0
LINE
  5
3BB
100
AcDbEntity
  8
RUNDUNGEN
100
AcDbLine
 62
7
  6
CONTINUOUS
 10
570.5238621851
 20
197.2331656351
 11
574.5174896692
 21
194.7765853354
  0
LWPOLYLINE
  5
3BC
100
AcDbEntity
  8
RUNDUNGEN
100
AcDbPolyline
 62
7
  6
CONTINUOUS
 90
10
 70
0
 10
570.5231259779
 20
197.2336174187
 10
570.4813855386
 20
197.2601731994
 10
570.3867688689
 20
197.3274597243
 10
570.3074777585
 20
197.392744518
 10
570.2422469093
 20
197.454086074
 10
570.1899851274
 20
197.5096700111
 10
570.1499776975
 20
197.5574364669
 10
570.121465841
 20
197.5954126862
 10
570.1035363621
 20
197.6219102183
 10
570.0965099523
 20
197.633263205
  0
LINE
  5
3BD
100
AcDbEntity
  8
0
100
AcDbLine
 62
7
  6
CONTINUOUS
 10
558.5599556019
 20
167.3935875518
 11
559.8114990878
 21
165.6994807153
  0
LINE
  5
3BE
100
AcDbEntity
  8
KONSTRUKTIONSELEMENTE
100
AcDbLine
 62
7
  6
CONTINUOUS
 10
437.9551698116
 20
91.4655131837
 11
439.0608638949
 21
94.0997417547
  0
LINE
  5
3BF
100
AcDbEntity
  8
0
100
AcDbLine
 62
7
  6
CONTINUOUS
 10
541.4696155563
 20
214.4649912932
 11
541.4696155563
 21
239.5797280029
  0
LINE
  5
3C0
100
AcDbEntity
  8
KONSTRUKTIONSELEMENTE
100
AcDbLine
 62
7
  6
CONTINUOUS
 10
456.0271535838
 20
104.8537635668
 11
455.5765444258
 21
103.7802229408
  0
LINE
  5
3C1
100
AcDbEntity
  8
KONSTRUKTIONSELEMENTE
100
AcDbLine
 62
7
  6
CONTINUOUS
 10
458.8633261004
 20
104.7197249382
 11
457.6978647694
 21
101.9431056337
  0
LINE
  5
3C2
100
AcDbEntity
  8
0
100
AcDbLine
 62
7
  6
CONTINUOUS
 10
554.4696155563
 20
214.9564822459
 11
554.4696155563
 21
239.5797280029
  0
LINE
  5
3C3
100
AcDbEntity
  8
KONSTRUKTIONSELEMENTE
100
AcDbLine
 62
7
  6
CONTINUOUS
 10
467.8085578533
 20
121.4169379467
 11
461.004062504
 21
105.2057667639
  0
LINE
  5
3C4
100
AcDbEntity
  8
KONSTRUKTIONSELEMENTE
100
AcDbLine
 62
7
  6
CONTINUOUS
 10
568.6272241607
 20
215.7155376446
 11
569.5141189971
 21
212.3823418112
  0
LINE
  5
3C5
100
AcDbEntity
  8
0
100
AcDbLine
 62
7
  6
CONTINUOUS
 10
565.3304093791
 20
202.3492252648
 11
565.4345539914
 21
200.8423819001
  0
LINE
  5
3C6
100
AcDbEntity
  8
0
100
AcDbLine
 62
7
  6
CONTINUOUS
 10
557.9696155563
 20
509.9627546707
 11
557.9696155563
 21
232.0908929596
  0
LINE
  5
3C7
100
AcDbEntity
  8
0
100
AcDbLine
 62
7
  6
CONTINUOUS
 10
558.4696155563
 20
167.6650887659
 11
558.4696155563
 21
193.0730713661
  0
LINE
  5
3C8
100
AcDbEntity
  8
0
100
AcDbLine
 62
7
  6
CONTINUOUS
 10
560.0361321664
 20
174.286846051
 11
560.0361321664
 21
176.2122680113
  0
LINE
  5
3C9
100
AcDbEntity
  8
0
100
AcDbLine
 62
7
  6
CONTINUOUS
 10
563.2196155563
 20
207.4931221976
 11
563.2196155563
 21
197.1127528332
  0
LINE
  5
3CA
100
AcDbEntity
  8
0
100
AcDbLine
 62
7
  6
CONTINUOUS
 10
565.4345539914
 20
192.0794011802
 11
565.4345539914
 21
200.8423819001
  0
LINE
  5
3CB
100
AcDbEntity
  8
0
100
AcDbLine
 62
7
  6
CONTINUOUS
 10
566.9696155563
 20
180.9398986936
 11
566.9696155563
 21
181.6082074768
  0
LINE
  5
3CC
100
AcDbEntity
  8
0
100
AcDbLine
 62
7
  6
CONTINUOUS
 10
566.9696155563
 20
185.9383344957
 11
566.9696155563
 21
186.7375146114
  0
LINE
  5
3CD
100
AcDbEntity
  8
RUNDUNGEN
100
AcDbLine
 62
7
  6
CONTINUOUS
 10
568.5046771213
 20
192.0794011802
 11
568.5046771213
 21
200.8423819001
  0
LINE
  5
3CE
100
AcDbEntity
  8
BEZUGSACHSEN
100
AcDbLine
 62
7
  6
CONTINUOUS
 10
570.7196155563
 20
207.4931221976
 11
570.7196155563
 21
199.9342763848
  0
LINE
  5
3CF
100
AcDbEntity
  8
RUNDUNGEN
100
AcDbLine
 62
7
  6
CONTINUOUS
 10
570.7196155563
 20
199.9342763794
 11
570.7196155563
 21
197.1127528332
  0
LINE
  5
3D0
100
AcDbEntity
  8
KONSTRUKTIONSELEMENTE
100
AcDbLine
 62
7
  6
CONTINUOUS
 10
570.7196155563
 20
199.9342763848
 11
570.7196155563
 21
197.1127528332
  0
LINE
  5
3D1
100
AcDbEntity
  8
KONSTRUKTIONSELEMENTE
100
AcDbLine
 62
7
  6
CONTINUOUS
 10
573.9030989462
 20
174.286846051
 11
573.9030989462
 21
176.2122680113
  0
LINE
  5
3D2
100
AcDbEntity
  8
RUNDUNGEN
100
AcDbLine
 62
7
  6
CONTINUOUS
 10
575.4696155563
 20
167.6650887659
 11
575.4696155563
 21
169.4325130883
  0
LINE
  5
3D3
100
AcDbEntity
  8
KONSTRUKTIONSELEMENTE
100
AcDbLine
 62
7
  6
CONTINUOUS
 10
575.4696155563
 20
169.4325130883
 11
575.4696155563
 21
178.7839018654
  0
LINE
  5
3D4
100
AcDbEntity
  8
RUNDUNGEN
100
AcDbLine
 62
7
  6
CONTINUOUS
 10
575.4696155563
 20
178.7839018654
 11
575.4696155563
 21
193.0730713661
  0
LINE
  5
3D5
100
AcDbEntity
  8
0
100
AcDbLine
 62
7
  6
CONTINUOUS
 10
575.9696155563
 20
509.9627546707
 11
575.9696155563
 21
232.0908929596
  0
LINE
  5
3D6
100
AcDbEntity
  8
0
100
AcDbLine
 62
7
  6
CONTINUOUS
 10
579.4696155563
 20
239.5797280029
 11
579.4696155563
 21
214.4649912932
  0
LINE
  5
3D7
100
AcDbEntity
  8
0
100
AcDbLine
 62
7
  6
CONTINUOUS
 10
568.6088217336
 20
202.3492252648
 11
568.5046771213
 21
200.8423819001
  0
LINE
  5
3D8
100
AcDbEntity
  8
0
100
AcDbLine
 62
7
  6
CONTINUOUS
 10
563.303675358
 20
208.1676726371
 11
565.312006952
 21
215.7155376446
  0
LINE
  5
3D9
100
AcDbEntity
  8
KONSTRUKTIONSELEMENTE
100
AcDbLine
 62
7
  6
CONTINUOUS
 10
458.2152852169
 20
135.2341683621
 11
457.4462575584
 21
134.3145999166
  0
LINE
  5
3DA
100
AcDbEntity
  8
KONSTRUKTIONSELEMENTE
100
AcDbLine
 62
7
  6
CONTINUOUS
 10
452.2745465552
 20
128.1305021207
 11
435.6119057112
 21
108.206070834
  0
LINE
  5
3DB
100
AcDbEntity
  8
KONSTRUKTIONSELEMENTE
100
AcDbLine
 62
7
  6
CONTINUOUS
 10
452.4866785896
 20
127.94679039
 11
452.6789355042
 21
128.1766825014
  0
LINE
  5
3DC
100
AcDbEntity
  8
KONSTRUKTIONSELEMENTE
100
AcDbLine
 62
7
  6
CONTINUOUS
 10
454.4578066503
 20
128.0930386592
 11
457.9890547819
 21
132.3155452482
  0
LINE
  5
3DD
100
AcDbEntity
  8
KONSTRUKTIONSELEMENTE
100
AcDbLine
 62
7
  6
CONTINUOUS
 10
454.1837348644
 20
126.4770965444
 11
454.3759917791
 21
126.7069886557
  0
LINE
  5
3DE
100
AcDbEntity
  8
KONSTRUKTIONSELEMENTE
100
AcDbLine
 62
7
  6
CONTINUOUS
 10
460.3366055605
 20
133.3970510551
 11
459.567577902
 21
132.4774826096
  0
LINE
  5
3DF
100
AcDbEntity
  8
KONSTRUKTIONSELEMENTE
100
AcDbLine
 62
7
  6
CONTINUOUS
 10
454.3958668988
 20
126.2933848136
 11
437.7332260548
 21
106.368953527
  0
LINE
  5
3E0
100
AcDbEntity
  8
KONSTRUKTIONSELEMENTE
100
AcDbLine
 62
7
  6
CONTINUOUS
 10
456.1949195542
 20
126.2338731063
 11
456.9639472127
 21
127.1534415518
  0
LINE
  5
3E1
100
AcDbEntity
  8
KONSTRUKTIONSELEMENTE
100
AcDbLine
 62
7
  6
CONTINUOUS
 10
460.1863148396
 20
130.569233212
 11
456.4070515886
 21
126.0501613756
  0
LINE
  5
3E2
100
AcDbEntity
  8
0
100
AcDbLine
 62
7
  6
CONTINUOUS
 10
592.4696155563
 20
239.5797280029
 11
592.4696155563
 21
214.4649912932
  0
LWPOLYLINE
  5
3E3
100
AcDbEntity
  8
0
100
AcDbPolyline
 62
7
  6
CONTINUOUS
 90
12
 70
0
 10
563.8400734072
 20
197.6277609328
 10
563.8433484066
 20
197.6341509205
 10
563.8439528563
 20
197.6353634394
 10
563.8359085901
 20
197.6222446894
 10
563.8182519561
 20
197.5960992772
 10
563.7901276389
 20
197.5585443819
 10
563.750631663
 20
197.5112391302
 10
563.6990069473
 20
197.4561194126
 10
563.634535866
 20
197.395207373
 10
563.5561271316
 20
197.3302838572
 10
563.462511413
 20
197.2632538656
 10
563.4161010171
 20
197.2336148878
  0
LINE
  5
3E4
100
AcDbEntity
  8
KONSTRUKTIONSELEMENTE
100
AcDbLine
 62
7
  6
CONTINUOUS
 10
463.5918645815
 20
135.2867049122
 11
465.2773718417
 21
136.7463970178
  0
LINE
  5
3E5
100
AcDbEntity
  8
KONSTRUKTIONSELEMENTE
100
AcDbLine
 62
7
  6
CONTINUOUS
 10
465.6309252323
 20
137.0525832356
 11
468.459352357
 21
139.5020729784
  0
LINE
  5
3E6
100
AcDbEntity
  8
KONSTRUKTIONSELEMENTE
100
AcDbLine
 62
7
  6
CONTINUOUS
 10
519.724593993
 20
183.8990745663
 11
522.5530211178
 21
186.3485643091
  0
LINE
  5
3E7
100
AcDbEntity
  8
KONSTRUKTIONSELEMENTE
100
AcDbLine
 62
7
  6
CONTINUOUS
 10
522.9065745084
 20
186.654750527
 11
525.7350016331
 21
189.1042402698
  0
LINE
  5
3E8
100
AcDbEntity
  8
KONSTRUKTIONSELEMENTE
100
AcDbLine
 62
7
  6
CONTINUOUS
 10
499.5589374516
 20
166.1043848036
 11
488.9523357338
 21
156.9187982681
  0
LINE
  5
3E9
100
AcDbEntity
  8
KONSTRUKTIONSELEMENTE
100
AcDbLine
 62
7
  6
CONTINUOUS
 10
477.4618505395
 20
142.8004631776
 11
488.0684522573
 21
151.986049713
  0
LINE
  5
3EA
100
AcDbEntity
  8
KONSTRUKTIONSELEMENTE
100
AcDbLine
 62
7
  6
CONTINUOUS
 10
508.5745489117
 20
169.7448503482
 11
519.1811506295
 21
178.9304368836
  0
LINE
  5
3EB
100
AcDbEntity
  8
KONSTRUKTIONSELEMENTE
100
AcDbLine
 62
7
  6
CONTINUOUS
 10
502.5048789698
 20
162.7027045465
 11
492.6848925757
 21
154.1983468644
  0
LINE
  5
3EC
100
AcDbEntity
  8
KONSTRUKTIONSELEMENTE
100
AcDbLine
 62
7
  6
CONTINUOUS
 10
467.912292316
 20
132.4139268078
 11
468.5506401952
 21
132.9667522877
  0
LINE
  5
3ED
100
AcDbEntity
  8
KONSTRUKTIONSELEMENTE
100
AcDbLine
 62
7
  6
CONTINUOUS
 10
468.9041935858
 20
133.2729385055
 11
471.7326207105
 21
135.7224282483
  0
LINE
  5
3EE
100
AcDbEntity
  8
KONSTRUKTIONSELEMENTE
100
AcDbLine
 62
7
  6
CONTINUOUS
 10
524.1644562782
 20
181.1297298169
 11
525.8262894713
 21
182.568919579
  0
LINE
  5
3EF
100
AcDbEntity
  8
KONSTRUKTIONSELEMENTE
100
AcDbLine
 62
7
  6
CONTINUOUS
 10
526.1798428619
 20
182.8751057969
 11
528.3380717573
 21
184.7441868475
  0
LINE
  5
3F0
100
AcDbEntity
  8
KONSTRUKTIONSELEMENTE
100
AcDbLine
 62
7
  6
CONTINUOUS
 10
432.9021698434
 20
101.7938713309
 11
426.750340847
 21
96.4662311404
  0
LINE
  5
3F1
100
AcDbEntity
  8
KONSTRUKTIONSELEMENTE
100
AcDbLine
 62
7
  6
CONTINUOUS
 10
425.9018127096
 20
95.4988076789
 11
426.193932799
 21
95.7517910974
  0
LINE
  5
3F2
100
AcDbEntity
  8
KONSTRUKTIONSELEMENTE
100
AcDbLine
 62
7
  6
CONTINUOUS
 10
434.5992261182
 20
100.3241774852
 11
428.4473971219
 21
94.9965372947
  0
LINE
  5
3F3
100
AcDbEntity
  8
KONSTRUKTIONSELEMENTE
100
AcDbLine
 62
7
  6
CONTINUOUS
 10
480.4077920577
 20
139.3987829205
 11
491.0143937755
 21
148.5843694559
  0
LINE
  5
3F4
100
AcDbEntity
  8
KONSTRUKTIONSELEMENTE
100
AcDbLine
 62
7
  6
CONTINUOUS
 10
511.5204904299
 20
166.3431700911
 11
522.1270921477
 21
175.5287566266
  0
LINE
  5
3F5
100
AcDbEntity
  8
KONSTRUKTIONSELEMENTE
100
AcDbLine
 62
7
  6
CONTINUOUS
 10
427.8110010188
 20
93.8454021026
 11
434.5992261182
 21
99.7241774852
  0
LINE
  5
3F6
100
AcDbEntity
  8
KONSTRUKTIONSELEMENTE
100
AcDbLine
 62
7
  6
CONTINUOUS
 10
428.0231330532
 20
93.6616903719
 11
434.8113581526
 21
99.5404657545
  0
LINE
  5
3F7
100
AcDbEntity
  8
KONSTRUKTIONSELEMENTE
100
AcDbLine
 62
7
  6
CONTINUOUS
 10
428.0231330532
 20
90.9316903719
 11
434.8113581526
 21
96.8104657545
  0
LINE
  5
3F8
100
AcDbEntity
  8
KONSTRUKTIONSELEMENTE
100
AcDbLine
 62
7
  6
CONTINUOUS
 10
428.4473971219
 20
91.0665372947
 11
434.5992261182
 21
96.3941774852
  0
LINE
  5
3F9
100
AcDbEntity
  8
KONSTRUKTIONSELEMENTE
100
AcDbLine
 62
7
  6
CONTINUOUS
 10
533.8667296168
 20
182.0619572593
 11
527.8563219767
 21
176.8567915558
  0
LINE
  5
3FA
100
AcDbEntity
  8
KONSTRUKTIONSELEMENTE
100
AcDbLine
 62
7
  6
CONTINUOUS
 10
476.5910803406
 20
132.4597899679
 11
470.5806727006
 21
127.2546242645
  0
LINE
  5
3FB
100
AcDbEntity
  8
KONSTRUKTIONSELEMENTE
100
AcDbLine
 62
7
  6
CONTINUOUS
 10
497.0840637174
 20
149.8765152576
 11
507.6906654352
 21
159.0621017931
  0
LINE
  5
3FC
100
AcDbEntity
  8
KONSTRUKTIONSELEMENTE
100
AcDbLine
 62
7
  6
CONTINUOUS
 10
522.1270921477
 20
169.7787566266
 11
513.0163770347
 21
161.8886458921
  0
LINE
  5
3FD
100
AcDbEntity
  8
KONSTRUKTIONSELEMENTE
100
AcDbLine
 62
7
  6
CONTINUOUS
 10
491.0143937755
 20
142.8343694559
 11
482.2906628643
 21
135.279396871
  0
LINE
  5
3FE
100
AcDbEntity
  8
KONSTRUKTIONSELEMENTE
100
AcDbLine
 62
7
  6
CONTINUOUS
 10
500.0300052356
 20
146.4748350006
 11
510.6366069534
 21
155.660421536
  0
LINE
  5
3FF
100
AcDbEntity
  8
KONSTRUKTIONSELEMENTE
100
AcDbLine
 62
7
  6
CONTINUOUS
 10
537.1399979703
 20
178.2823125292
 11
531.1295903302
 21
173.0771468257
  0
LINE
  5
400
100
AcDbEntity
  8
KONSTRUKTIONSELEMENTE
100
AcDbLine
 62
7
  6
CONTINUOUS
 10
479.8643486942
 20
128.6801452378
 11
473.8539410541
 21
123.4749795344
  0
LINE
  5
401
100
AcDbEntity
  8
0
100
AcDbLine
 62
7
  6
CONTINUOUS
 10
559.4217414434
 20
194.7765853354
 11
563.4153689275
 21
197.2331656351
  0
LINE
  5
402
100
AcDbEntity
  8
RUNDUNGEN
100
AcDbLine
 62
7
  6
CONTINUOUS
 10
574.1277320249
 20
165.6994807153
 11
575.3792755108
 21
167.3935875518
  0
LINE
  5
403
100
AcDbEntity
  8
RUNDUNGEN
100
AcDbLine
 62
7
  6
CONTINUOUS
 10
573.6586753807
 20
165.2442985974
 11
573.5741618048
 21
165.185701082
  0
LWPOLYLINE
  5
404
100
AcDbEntity
  8
0
100
AcDbPolyline
 62
7
  6
CONTINUOUS
 90
3
 70
0
 10
572.7694314183
 20
164.707468979
 10
573.208704733
 20
164.9502654978
 10
573.5745103621
 20
165.185942973
  0
LINE
  5
405
100
AcDbEntity
  8
KONSTRUKTIONSELEMENTE
100
AcDbLine
 62
7
  6
CONTINUOUS
 10
441.8799417573
 20
97.2666690867
 11
457.8372656704
 21
105.8245196132
  0
LINE
  5
406
100
AcDbEntity
  8
KONSTRUKTIONSELEMENTE
100
AcDbLine
 62
7
  6
CONTINUOUS
 10
437.3249555123
 20
90.8516872352
 11
437.4853235012
 21
90.9376919617
  0
LINE
  5
407
100
AcDbEntity
  8
KONSTRUKTIONSELEMENTE
100
AcDbLine
 62
7
  6
CONTINUOUS
 10
457.8004708124
 20
101.8326261662
 11
458.1849846416
 21
102.0388394319
  0
ARC
  5
408
100
AcDbEntity
  8
0
100
AcDbCircle
 62
7
  6
CONTINUOUS
 10
127.0792346383
 20
151.6611002278
 40
21.5
100
AcDbArc
 50
37.8893166331
 51
50.6310844215
  0
ARC
  5
409
100
AcDbEntity
  8
0
100
AcDbCircle
 62
7
  6
CONTINUOUS
 10
127.0792346383
 20
151.6611002278
 40
21.5
100
AcDbArc
 50
69.3689155785
 51
82.1106833669
  0
ARC
  5
40A
100
AcDbEntity
  8
KONSTRUKTIONSELEMENTE
100
AcDbCircle
 62
7
  6
CONTINUOUS
 10
138.7191342388
 20
171.4995945877
 40
9.5025512476
100
AcDbArc
 50
41.7386063969
 51
45.7248539241
  0
ARC
  5
40B
100
AcDbEntity
  8
KONSTRUKTIONSELEMENTE
100
AcDbCircle
 62
7
  6
CONTINUOUS
 10
138.4403729479
 20
171.6614887467
 40
9.5017799657
100
AcDbArc
 50
74.2709674534
 51
78.145396986
  0
ARC
  5
40C
100
AcDbEntity
  8
KONSTRUKTIONSELEMENTE
100
AcDbCircle
 62
7
  6
CONTINUOUS
 10
101.1023825484
 20
94.2879174318
 40
2.8049761664
100
AcDbArc
 50
81.3149175255
 51
82.0930351415
  0
ARC
  5
40D
100
AcDbEntity
  8
KONSTRUKTIONSELEMENTE
100
AcDbCircle
 62
7
  6
CONTINUOUS
 10
90.3810268862
 20
100.4778950098
 40
2.8049761661
100
AcDbArc
 50
37.9069648584
 51
38.6850824746
  0
ARC
  5
40E
100
AcDbEntity
  8
KONSTRUKTIONSELEMENTE
100
AcDbCircle
 62
7
  6
CONTINUOUS
 10
119.8101955357
 20
139.0707551799
 40
2.5
100
AcDbArc
 50
330.0
 51
150.0
  0
ARC
  5
40F
100
AcDbEntity
  8
KONSTRUKTIONSELEMENTE
100
AcDbCircle
 62
7
  6
CONTINUOUS
 10
111.0549917157
 20
123.9062973329
 40
2.5
100
AcDbArc
 50
150.0
 51
330.0
  0
ARC
  5
410
100
AcDbEntity
  8
KONSTRUKTIONSELEMENTE
100
AcDbCircle
 62
7
  6
CONTINUOUS
 10
124.2248555153
 20
146.7171705626
 40
2.25
100
AcDbArc
 50
150.0
 51
330.0
  0
ARC
  5
411
100
AcDbEntity
  8
KONSTRUKTIONSELEMENTE
100
AcDbCircle
 62
7
  6
CONTINUOUS
 10
135.2781563742
 20
165.8620492415
 40
2.25
100
AcDbArc
 50
330.0
 51
150.0
  0
ARC
  5
412
100
AcDbEntity
  8
KONSTRUKTIONSELEMENTE
100
AcDbCircle
 62
7
  6
CONTINUOUS
 10
92.7718647684
 20
100.1509642428
 40
1.2261413598
100
AcDbArc
 50
337.9702150979
 51
339.9065806722
  0
ARC
  5
413
100
AcDbEntity
  8
KONSTRUKTIONSELEMENTE
100
AcDbCircle
 62
7
  6
CONTINUOUS
 10
92.7894899252
 20
100.1436066579
 40
1.2070433059
100
AcDbArc
 50
330.0208671421
 51
337.9801551546
  0
ARC
  5
414
100
AcDbEntity
  8
RUNDUNGEN
100
AcDbCircle
 62
7
  6
CONTINUOUS
 10
125.5182899079
 20
189.1803584216
 40
5.16605851
100
AcDbArc
 50
330.5677272864
 51
4.4374225461
  0
ARC
  5
415
100
AcDbEntity
  8
0
100
AcDbCircle
 62
7
  6
CONTINUOUS
 10
125.6531721095
 20
189.2487368272
 40
5.028826263
100
AcDbArc
 50
330.0419694028
 51
346.3190499548
  0
ARC
  5
416
100
AcDbEntity
  8
0
100
AcDbCircle
 62
7
  6
CONTINUOUS
 10
125.6754295277
 20
189.2395530642
 40
5.0050295752
100
AcDbArc
 50
346.360936691
 51
3.6185418233
  0
ARC
  5
417
100
AcDbEntity
  8
0
100
AcDbCircle
 62
7
  6
CONTINUOUS
 10
128.3957215997
 20
179.9394073483
 40
2.0009575921
100
AcDbArc
 50
149.99958507
 51
190.0035913308
  0
ARC
  5
418
100
AcDbEntity
  8
0
100
AcDbCircle
 62
7
  6
CONTINUOUS
 10
129.1264324628
 20
175.7898255846
 40
2.0
100
AcDbArc
 50
190.0000451247
 51
240.0000290055
  0
ARC
  5
419
100
AcDbEntity
  8
0
100
AcDbCircle
 62
7
  6
CONTINUOUS
 10
163.5277752042
 20
166.8418707539
 40
9.0068044367
100
AcDbArc
 50
147.1985984794
 51
147.492948371
  0
ARC
  5
41A
100
AcDbEntity
  8
RUNDUNGEN
100
AcDbCircle
 62
7
  6
CONTINUOUS
 10
160.3523009687
 20
169.0689459901
 40
5.1660115643
100
AcDbArc
 50
115.5623745369
 51
148.8879274832
  0
ARC
  5
41B
100
AcDbEntity
  8
RUNDUNGEN
100
AcDbCircle
 62
7
  6
CONTINUOUS
 10
160.3417897364
 20
169.0754945145
 40
5.1536285767
100
AcDbArc
 50
148.8898761128
 51
149.4356511551
  0
ARC
  5
41C
100
AcDbEntity
  8
0
100
AcDbCircle
 62
7
  6
CONTINUOUS
 10
160.3398370739
 20
169.2227479902
 40
5.023809703
100
AcDbArc
 50
133.3953851238
 51
147.940393421
  0
ARC
  5
41D
100
AcDbEntity
  8
0
100
AcDbCircle
 62
7
  6
CONTINUOUS
 10
160.3249749498
 20
169.2346755634
 40
5.0049327381
100
AcDbArc
 50
116.3812791962
 51
133.3655671415
  0
ARC
  5
41E
100
AcDbEntity
  8
KONSTRUKTIONSELEMENTE
100
AcDbCircle
 62
7
  6
CONTINUOUS
 10
139.6928163537
 20
173.5084646243
 40
2.5
100
AcDbArc
 50
159.3862569885
 51
320.6137430115
  0
ARC
  5
41F
100
AcDbEntity
  8
0
100
AcDbCircle
 62
7
  6
CONTINUOUS
 10
150.9105918767
 20
166.9405307321
 40
2.0011584002
100
AcDbArc
 50
289.9983267928
 51
320.5556831093
  0
ARC
  5
420
100
AcDbEntity
  8
0
100
AcDbCircle
 62
7
  6
CONTINUOUS
 10
146.9517266713
 20
165.4983888931
 40
2.0
100
AcDbArc
 50
239.9999352266
 51
289.9998992299
  0
CIRCLE
  5
421
100
AcDbEntity
  8
BEZUGSACHSEN
100
AcDbCircle
 62
7
  6
CONTINUOUS
 10
150.8153574927
 20
170.7732709863
 40
1.0
  0
ARC
  5
422
100
AcDbEntity
  8
KONSTRUKTIONSELEMENTE
100
AcDbCircle
 62
7
  6
CONTINUOUS
 10
159.7781154552
 20
208.3406176012
 40
31.6238284394
100
AcDbArc
 50
233.6832057483
 51
235.5015993497
  0
ARC
  5
423
100
AcDbEntity
  8
KONSTRUKTIONSELEMENTE
100
AcDbCircle
 62
7
  6
CONTINUOUS
 10
159.809115679
 20
208.3047628168
 40
31.6082244042
100
AcDbArc
 50
244.496892177
 51
246.3197647754
  0
ARC
  5
424
100
AcDbEntity
  8
BEZUGSACHSEN
100
AcDbCircle
 62
7
  6
CONTINUOUS
 10
153.1390780511
 20
196.798073056
 40
8.0
100
AcDbArc
 50
114.3537330883
 51
5.6462669117
  0
ARC
  5
425
100
AcDbEntity
  8
0
100
AcDbCircle
 62
7
  6
CONTINUOUS
 10
187.3390780511
 20
256.0342106748
 40
6.5
100
AcDbArc
 50
330.0
 51
150.0
  0
ARC
  5
426
100
AcDbEntity
  8
0
100
AcDbCircle
 62
7
  6
CONTINUOUS
 10
153.8390780511
 20
198.0105086213
 40
6.5
100
AcDbArc
 50
150.0
 51
330.0
  0
ARC
  5
427
100
AcDbEntity
  8
KONSTRUKTIONSELEMENTE
100
AcDbCircle
 62
7
  6
CONTINUOUS
 10
145.1390780511
 20
182.9416665954
 40
3.5
100
AcDbArc
 50
330.0
 51
150.0
  0
ARC
  5
428
100
AcDbEntity
  8
KONSTRUKTIONSELEMENTE
100
AcDbCircle
 62
7
  6
CONTINUOUS
 10
148.4480201738
 20
188.6729224712
 40
2.5
100
AcDbArc
 50
10.3209775452
 51
109.6790224548
  0
ARC
  5
429
100
AcDbEntity
  8
0
100
AcDbCircle
 62
7
  6
CONTINUOUS
 10
311.0989214638
 20
151.6611002278
 40
21.5
100
AcDbArc
 50
129.3689155785
 51
142.1106833669
  0
ARC
  5
42A
100
AcDbEntity
  8
0
100
AcDbCircle
 62
7
  6
CONTINUOUS
 10
311.0989214638
 20
151.6611002278
 40
21.5
100
AcDbArc
 50
97.8893166331
 51
110.6310844215
  0
ARC
  5
42B
100
AcDbEntity
  8
0
100
AcDbCircle
 62
7
  6
CONTINUOUS
 10
274.6503808989
 20
166.8418707545
 40
9.0068044356
100
AcDbArc
 50
32.5070516278
 51
32.8014015206
  0
ARC
  5
42C
100
AcDbEntity
  8
0
100
AcDbCircle
 62
7
  6
CONTINUOUS
 10
285.0390780511
 20
196.798073056
 40
8.0
100
AcDbArc
 50
174.3537330883
 51
65.6462669117
  0
ARC
  5
42D
100
AcDbEntity
  8
0
100
AcDbCircle
 62
7
  6
CONTINUOUS
 10
250.8390780511
 20
256.0342106748
 40
6.5
100
AcDbArc
 50
30.0
 51
210.0
  0
ARC
  5
42E
100
AcDbEntity
  8
0
100
AcDbCircle
 62
7
  6
CONTINUOUS
 10
284.3390780511
 20
198.0105086213
 40
6.5
100
AcDbArc
 50
210.0
 51
30.0
  0
ARC
  5
42F
100
AcDbEntity
  8
0
100
AcDbCircle
 62
7
  6
CONTINUOUS
 10
312.6598661943
 20
189.1803584216
 40
5.16605851
100
AcDbArc
 50
175.5625774539
 51
209.4322727136
  0
ARC
  5
430
100
AcDbEntity
  8
0
100
AcDbCircle
 62
7
  6
CONTINUOUS
 10
277.8258551335
 20
169.0689459901
 40
5.1660115643
100
AcDbArc
 50
31.1120725168
 51
64.4376254631
  0
ARC
  5
431
100
AcDbEntity
  8
0
100
AcDbCircle
 62
7
  6
CONTINUOUS
 10
277.8363663644
 20
169.0754945137
 40
5.1536285783
100
AcDbArc
 50
30.5643488449
 51
31.110123887
  0
ARC
  5
432
100
AcDbEntity
  8
0
100
AcDbCircle
 62
7
  6
CONTINUOUS
 10
312.5249839927
 20
189.2487368272
 40
5.028826263
100
AcDbArc
 50
193.6809500452
 51
209.9580305972
  0
ARC
  5
433
100
AcDbEntity
  8
0
100
AcDbCircle
 62
7
  6
CONTINUOUS
 10
277.8383190282
 20
169.2227479902
 40
5.023809703
100
AcDbArc
 50
32.059606579
 51
46.6046148762
  0
ARC
  5
434
100
AcDbEntity
  8
0
100
AcDbCircle
 62
7
  6
CONTINUOUS
 10
312.5027265744
 20
189.2395530642
 40
5.0050295752
100
AcDbArc
 50
176.3814581767
 51
193.639063309
  0
ARC
  5
435
100
AcDbEntity
  8
0
100
AcDbCircle
 62
7
  6
CONTINUOUS
 10
277.8531811523
 20
169.2346755634
 40
5.004932738
100
AcDbArc
 50
46.6344328585
 51
63.6187208038
  0
ARC
  5
436
100
AcDbEntity
  8
0
100
AcDbCircle
 62
7
  6
CONTINUOUS
 10
293.0390780511
 20
182.9416665954
 40
3.5
100
AcDbArc
 50
30.0
 51
210.0
  0
ARC
  5
437
100
AcDbEntity
  8
0
100
AcDbCircle
 62
7
  6
CONTINUOUS
 10
287.2675642255
 20
166.9405307321
 40
2.0011584002
100
AcDbArc
 50
219.4443168907
 51
250.0016732072
  0
ARC
  5
438
100
AcDbEntity
  8
0
100
AcDbCircle
 62
7
  6
CONTINUOUS
 10
309.7824345025
 20
179.9394073483
 40
2.0009575921
100
AcDbArc
 50
349.9964086692
 51
30.00041493
  0
ARC
  5
439
100
AcDbEntity
  8
0
100
AcDbCircle
 62
7
  6
CONTINUOUS
 10
291.2264294309
 20
165.4983888931
 40
2.0
100
AcDbArc
 50
250.0001007701
 51
300.0000647734
  0
ARC
  5
43A
100
AcDbEntity
  8
0
100
AcDbCircle
 62
7
  6
CONTINUOUS
 10
309.0517236394
 20
175.7898255846
 40
2.0
100
AcDbArc
 50
299.9999709945
 51
349.9999548753
  0
CIRCLE
  5
43B
100
AcDbEntity
  8
0
100
AcDbCircle
 62
7
  6
CONTINUOUS
 10
287.3627986095
 20
170.7732709863
 40
1.0
  0
ARC
  5
43C
100
AcDbEntity
  8
0
100
AcDbCircle
 62
7
  6
CONTINUOUS
 10
219.0890780511
 20
311.0268238151
 40
88.0
100
AcDbArc
 50
180.0
 51
235.7637596392
  0
ARC
  5
43D
100
AcDbEntity
  8
0
100
AcDbCircle
 62
7
  6
CONTINUOUS
 10
219.0890780511
 20
311.0268238151
 40
88.0
100
AcDbArc
 50
244.2368888787
 51
295.7631111213
  0
ARC
  5
43E
100
AcDbEntity
  8
0
100
AcDbCircle
 62
7
  6
CONTINUOUS
 10
219.0890780511
 20
311.0268238151
 40
88.0
100
AcDbArc
 50
304.2362403608
 51
360.0
  0
ARC
  5
43F
100
AcDbEntity
  8
0
100
AcDbCircle
 62
7
  6
CONTINUOUS
 10
219.0890780511
 20
431.0268238151
 40
88.0
100
AcDbArc
 50
0.0
 51
180.0
  0
ARC
  5
440
100
AcDbEntity
  8
0
100
AcDbCircle
 62
7
  6
CONTINUOUS
 10
219.0890780511
 20
431.0268238151
 40
70.0
100
AcDbArc
 50
0.0
 51
180.0
  0
ARC
  5
441
100
AcDbEntity
  8
0
100
AcDbCircle
 62
7
  6
CONTINUOUS
 10
219.0890780511
 20
311.0268238151
 40
70.0
100
AcDbArc
 50
180.0
 51
234.6708096971
  0
ARC
  5
442
100
AcDbEntity
  8
0
100
AcDbCircle
 62
7
  6
CONTINUOUS
 10
219.0890780511
 20
311.0268238151
 40
70.0
100
AcDbArc
 50
245.3285231824
 51
294.6714768176
  0
ARC
  5
443
100
AcDbEntity
  8
0
100
AcDbCircle
 62
7
  6
CONTINUOUS
 10
219.0890780511
 20
311.0268238151
 40
70.0
100
AcDbArc
 50
305.3291903029
 51
360.0
  0
ARC
  5
444
100
AcDbEntity
  8
KONSTRUKTIONSELEMENTE
100
AcDbCircle
 62
7
  6
CONTINUOUS
 10
326.5599570632
 20
127.4709126525
 40
257.6905724412
100
AcDbArc
 50
18.3648716193
 51
18.5797454268
  0
ARC
  5
445
100
AcDbEntity
  8
KONSTRUKTIONSELEMENTE
100
AcDbCircle
 62
7
  6
CONTINUOUS
 10
432.0740474506
 20
104.8264412669
 40
2.5715842132
100
AcDbArc
 50
339.0636471638
 51
341.3795103678
  0
ARC
  5
446
100
AcDbEntity
  8
KONSTRUKTIONSELEMENTE
100
AcDbCircle
 62
7
  6
CONTINUOUS
 10
475.2665341195
 20
133.9848080579
 40
2.1636368658
100
AcDbArc
 50
23.7961661936
 51
27.3237521855
  0
ARC
  5
447
100
AcDbEntity
  8
KONSTRUKTIONSELEMENTE
100
AcDbCircle
 62
7
  6
CONTINUOUS
 10
491.9039685058
 20
190.989245808
 40
81.3014651171
100
AcDbArc
 50
15.017732696
 51
15.1360796618
  0
ARC
  5
448
100
AcDbEntity
  8
KONSTRUKTIONSELEMENTE
100
AcDbCircle
 62
7
  6
CONTINUOUS
 10
501.6366850848
 20
184.195355483
 40
73.8231310888
100
AcDbArc
 50
21.1928720964
 51
21.3335804873
  0
ARC
  5
449
100
AcDbEntity
  8
KONSTRUKTIONSELEMENTE
100
AcDbCircle
 62
7
  6
CONTINUOUS
 10
511.5333166922
 20
187.9333574646
 40
63.1868294525
100
AcDbArc
 50
19.5380895527
 51
19.728632526
  0
ARC
  5
44A
100
AcDbEntity
  8
KONSTRUKTIONSELEMENTE
100
AcDbCircle
 62
7
  6
CONTINUOUS
 10
505.6597416531
 20
161.4074160087
 40
7.6024426132
100
AcDbArc
 50
310.8923810943
 51
313.2372299123
  0
ARC
  5
44B
100
AcDbEntity
  8
KONSTRUKTIONSELEMENTE
100
AcDbCircle
 62
7
  6
CONTINUOUS
 10
524.031551272
 20
178.4915348471
 40
6.8544496741
100
AcDbArc
 50
180.0468621101
 51
190.0347873196
  0
ARC
  5
44C
100
AcDbEntity
  8
KONSTRUKTIONSELEMENTE
100
AcDbCircle
 62
7
  6
CONTINUOUS
 10
493.0833587897
 20
151.6980944005
 40
6.5921067098
100
AcDbArc
 50
180.0225591518
 51
188.7960227901
  0
ARC
  5
44D
100
AcDbEntity
  8
KONSTRUKTIONSELEMENTE
100
AcDbCircle
 62
7
  6
CONTINUOUS
 10
506.2038682917
 20
160.7758966246
 40
2.4127910088
100
AcDbArc
 50
25.6696256139
 51
29.1661305623
  0
ARC
  5
44E
100
AcDbEntity
  8
KONSTRUKTIONSELEMENTE
100
AcDbCircle
 62
7
  6
CONTINUOUS
 10
532.4844580442
 20
183.8356625516
 40
2.2319350365
100
AcDbArc
 50
329.6480991191
 51
331.3181221811
  0
ARC
  5
44F
100
AcDbEntity
  8
0
100
AcDbCircle
 62
7
  6
CONTINUOUS
 10
561.4300531523
 20
166.8981260335
 40
2.0140696683
100
AcDbArc
 50
216.5226458233
 51
235.219624292
  0
ARC
  5
450
100
AcDbEntity
  8
RUNDUNGEN
100
AcDbCircle
 62
7
  6
CONTINUOUS
 10
561.418718033
 20
166.8865613578
 40
1.9980670406
100
AcDbArc
 50
225.019520092
 51
228.8614091596
  0
ARC
  5
451
100
AcDbEntity
  8
KONSTRUKTIONSELEMENTE
100
AcDbCircle
 62
7
  6
CONTINUOUS
 10
514.139825169
 20
199.6732194987
 40
57.5029779244
100
AcDbArc
 50
10.1495969716
 51
10.352643694
  0
ARC
  5
452
100
AcDbEntity
  8
KONSTRUKTIONSELEMENTE
100
AcDbCircle
 62
7
  6
CONTINUOUS
 10
532.9880628567
 20
201.3664502089
 40
38.9189352282
100
AcDbArc
 50
11.5588843026
 51
11.8196411991
  0
ARC
  5
453
100
AcDbEntity
  8
KONSTRUKTIONSELEMENTE
100
AcDbCircle
 62
7
  6
CONTINUOUS
 10
534.8699547061
 20
204.6897990066
 40
36.191549551
100
AcDbArc
 50
8.3638574932
 51
8.5581064148
  0
ARC
  5
454
100
AcDbEntity
  8
KONSTRUKTIONSELEMENTE
100
AcDbCircle
 62
7
  6
CONTINUOUS
 10
545.4372223711
 20
202.8761985431
 40
26.5116725389
100
AcDbArc
 50
14.3926516436
 51
14.7049935456
  0
ARC
  5
455
100
AcDbEntity
  8
KONSTRUKTIONSELEMENTE
100
AcDbCircle
 62
7
  6
CONTINUOUS
 10
551.5333327915
 20
201.5165222532
 40
21.007940685
100
AcDbArc
 50
21.9663647139
 51
22.2211043208
  0
ARC
  5
456
100
AcDbEntity
  8
0
100
AcDbCircle
 62
7
  6
CONTINUOUS
 10
562.3949151281
 20
214.4776568661
 40
20.9253034049
100
AcDbArc
 50
180.0346797322
 51
199.2410302841
  0
ARC
  5
457
100
AcDbEntity
  8
KONSTRUKTIONSELEMENTE
100
AcDbCircle
 62
7
  6
CONTINUOUS
 10
551.1637525426
 20
206.9301510767
 40
19.9353132212
100
AcDbArc
 50
15.3820334258
 51
15.7249582956
  0
ARC
  5
458
100
AcDbEntity
  8
KONSTRUKTIONSELEMENTE
100
AcDbCircle
 62
7
  6
CONTINUOUS
 10
556.7061939046
 20
203.6704890291
 40
15.5577398153
100
AcDbArc
 50
28.3241601348
 51
28.7004834978
  0
ARC
  5
459
100
AcDbEntity
  8
KONSTRUKTIONSELEMENTE
100
AcDbCircle
 62
7
  6
CONTINUOUS
 10
555.7768664705
 20
207.0314196721
 40
15.4417713927
100
AcDbArc
 50
8.9390485597
 51
9.1486128022
  0
ARC
  5
45A
100
AcDbEntity
  8
KONSTRUKTIONSELEMENTE
100
AcDbCircle
 62
7
  6
CONTINUOUS
 10
551.2959086512
 20
208.7102149059
 40
11.957586569
100
AcDbArc
 50
354.3391157984
 51
357.4350719651
  0
ARC
  5
45B
100
AcDbEntity
  8
KONSTRUKTIONSELEMENTE
100
AcDbCircle
 62
7
  6
CONTINUOUS
 10
559.4629325212
 20
207.3901836548
 40
11.7890984631
100
AcDbArc
 50
8.0488359863
 51
8.6578002447
  0
ARC
  5
45C
100
AcDbEntity
  8
KONSTRUKTIONSELEMENTE
100
AcDbCircle
 62
7
  6
CONTINUOUS
 10
552.0807259434
 20
208.6676848552
 40
11.1716546909
100
AcDbArc
 50
357.4728482445
 51
358.2402565161
  0
ARC
  5
45D
100
AcDbEntity
  8
KONSTRUKTIONSELEMENTE
100
AcDbCircle
 62
7
  6
CONTINUOUS
 10
560.2002060201
 20
210.9889899201
 40
10.1375596877
100
AcDbArc
 50
357.7328364114
 51
0.5955422187
  0
ARC
  5
45E
100
AcDbEntity
  8
KONSTRUKTIONSELEMENTE
100
AcDbCircle
 62
7
  6
CONTINUOUS
 10
559.3723709595
 20
210.9889899201
 40
10.1375596878
100
AcDbArc
 50
357.7328364115
 51
0.5955422187
  0
ARC
  5
45F
100
AcDbEntity
  8
KONSTRUKTIONSELEMENTE
100
AcDbCircle
 62
7
  6
CONTINUOUS
 10
560.504786785
 20
210.6985617777
 40
9.9178994234
100
AcDbArc
 50
358.4150308968
 51
0.73126804
  0
ARC
  5
460
100
AcDbEntity
  8
KONSTRUKTIONSELEMENTE
100
AcDbCircle
 62
7
  6
CONTINUOUS
 10
561.3795668222
 20
209.8276081152
 40
9.2978760778
100
AcDbArc
 50
358.3092900765
 51
0.7800167706
  0
ARC
  5
461
100
AcDbEntity
  8
KONSTRUKTIONSELEMENTE
100
AcDbCircle
 62
7
  6
CONTINUOUS
 10
562.8600271319
 20
205.0392223783
 40
9.1545484843
100
AcDbArc
 50
25.5739467637
 51
26.0894035345
  0
ARC
  5
462
100
AcDbEntity
  8
KONSTRUKTIONSELEMENTE
100
AcDbCircle
 62
7
  6
CONTINUOUS
 10
561.7291658534
 20
209.4792461905
 40
9.0501801405
100
AcDbArc
 50
358.2628718521
 51
0.5340519393
  0
ARC
  5
463
100
AcDbEntity
  8
KONSTRUKTIONSELEMENTE
100
AcDbCircle
 62
7
  6
CONTINUOUS
 10
562.8940620858
 20
208.2618475766
 40
8.2419745087
100
AcDbArc
 50
357.1981237255
 51
358.0789712674
  0
ARC
  5
464
100
AcDbEntity
  8
KONSTRUKTIONSELEMENTE
100
AcDbCircle
 62
7
  6
CONTINUOUS
 10
562.8981527328
 20
208.2580543991
 40
8.237880022
100
AcDbArc
 50
1.773909737
 51
2.8020263971
  0
ARC
  5
465
100
AcDbEntity
  8
KONSTRUKTIONSELEMENTE
100
AcDbCircle
 62
7
  6
CONTINUOUS
 10
563.6698407409
 20
208.0457042467
 40
7.5628069635
100
AcDbArc
 50
13.171748176
 51
13.5672333191
  0
ARC
  5
466
100
AcDbEntity
  8
KONSTRUKTIONSELEMENTE
100
AcDbCircle
 62
7
  6
CONTINUOUS
 10
566.1938220815
 20
208.2605380599
 40
5.0684635285
100
AcDbArc
 50
12.8387421863
 51
13.4525168022
  0
ARC
  5
467
100
AcDbEntity
  8
KONSTRUKTIONSELEMENTE
100
AcDbCircle
 62
7
  6
CONTINUOUS
 10
566.5170717594
 20
210.7540322127
 40
4.1150447718
100
AcDbArc
 50
16.8615239448
 51
17.6084705589
  0
ARC
  5
468
100
AcDbEntity
  8
KONSTRUKTIONSELEMENTE
100
AcDbCircle
 62
7
  6
CONTINUOUS
 10
565.9805895236
 20
211.9240900007
 40
3.5293626589
100
AcDbArc
 50
2.4351384789
 51
3.6461457768
  0
ARC
  5
469
100
AcDbEntity
  8
KONSTRUKTIONSELEMENTE
100
AcDbCircle
 62
7
  6
CONTINUOUS
 10
565.9805895286
 20
211.9260421184
 40
3.5293626539
100
AcDbArc
 50
356.3538542226
 51
357.5648620994
  0
ARC
  5
46A
100
AcDbEntity
  8
0
100
AcDbCircle
 62
7
  6
CONTINUOUS
 10
565.7196155563
 20
207.5248406542
 40
2.5
100
AcDbArc
 50
165.1
 51
180.0
  0
ARC
  5
46B
100
AcDbEntity
  8
KONSTRUKTIONSELEMENTE
100
AcDbCircle
 62
7
  6
CONTINUOUS
 10
565.8900164093
 20
211.6152990057
 40
2.4129586989
100
AcDbArc
 50
161.4951841437
 51
162.6959499208
  0
ARC
  5
46C
100
AcDbEntity
  8
0
100
AcDbCircle
 62
7
  6
CONTINUOUS
 10
560.4697112879
 20
193.0730145129
 40
2.000101763
100
AcDbArc
 50
121.5977294453
 51
179.9983713524
  0
ARC
  5
46D
100
AcDbEntity
  8
KONSTRUKTIONSELEMENTE
100
AcDbCircle
 62
7
  6
CONTINUOUS
 10
641.3770573641
 20
191.1666788623
 40
80.6197640963
100
AcDbArc
 50
164.863502488
 51
165.0418654869
  0
ARC
  5
46E
100
AcDbEntity
  8
RUNDUNGEN
100
AcDbCircle
 62
7
  6
CONTINUOUS
 10
572.5093413115
 20
166.8979426212
 40
2.0138270506
100
AcDbArc
 50
304.7878812641
 51
323.4785374397
  0
ARC
  5
46F
100
AcDbEntity
  8
KONSTRUKTIONSELEMENTE
100
AcDbCircle
 62
7
  6
CONTINUOUS
 10
582.77547857
 20
206.9301510767
 40
19.9353132212
100
AcDbArc
 50
164.2750417044
 51
164.6179665742
  0
ARC
  5
470
100
AcDbEntity
  8
0
100
AcDbCircle
 62
7
  6
CONTINUOUS
 10
566.9696155563
 20
232.0268238151
 40
9.0
100
AcDbArc
 50
180.0
 51
360.0
  0
ARC
  5
471
100
AcDbEntity
  8
KONSTRUKTIONSELEMENTE
100
AcDbCircle
 62
7
  6
CONTINUOUS
 10
566.808424584
 20
211.9240900007
 40
3.5293626589
100
AcDbArc
 50
2.4351384789
 51
3.6461457768
  0
ARC
  5
472
100
AcDbEntity
  8
KONSTRUKTIONSELEMENTE
100
AcDbCircle
 62
7
  6
CONTINUOUS
 10
566.808424589
 20
211.9260421184
 40
3.5293626539
100
AcDbArc
 50
356.3538542226
 51
357.5648620994
  0
ARC
  5
473
100
AcDbEntity
  8
KONSTRUKTIONSELEMENTE
100
AcDbCircle
 62
7
  6
CONTINUOUS
 10
568.1198353468
 20
209.3873953171
 40
2.9142684686
100
AcDbArc
 50
359.6745509322
 51
0.4881784538
  0
ARC
  5
474
100
AcDbEntity
  8
KONSTRUKTIONSELEMENTE
100
AcDbCircle
 62
7
  6
CONTINUOUS
 10
568.307693436
 20
209.0160290136
 40
2.828313138
100
AcDbArc
 50
359.4969841257
 51
0.3353391387
  0
ARC
  5
475
100
AcDbEntity
  8
BEZUGSACHSEN
100
AcDbCircle
 62
7
  6
CONTINUOUS
 10
568.2196155563
 20
207.5248406542
 40
2.5
100
AcDbArc
 50
0.0
 51
7.6862251413
  0
ARC
  5
476
100
AcDbEntity
  8
KONSTRUKTIONSELEMENTE
100
AcDbCircle
 62
7
  6
CONTINUOUS
 10
568.1167283675
 20
211.8378868146
 40
2.3416676461
100
AcDbArc
 50
341.4869647259
 51
342.7067326558
  0
ARC
  5
477
100
AcDbEntity
  8
KONSTRUKTIONSELEMENTE
100
AcDbCircle
 62
7
  6
CONTINUOUS
 10
567.2888933078
 20
211.8378868144
 40
2.3416676453
100
AcDbArc
 50
341.4869647256
 51
342.7067326559
  0
ARC
  5
478
100
AcDbEntity
  8
KONSTRUKTIONSELEMENTE
100
AcDbCircle
 62
7
  6
CONTINUOUS
 10
569.7471329315
 20
212.90926715
 40
2.1906309526
100
AcDbArc
 50
287.9395992648
 51
288.3790610789
  0
ARC
  5
479
100
AcDbEntity
  8
RUNDUNGEN
100
AcDbCircle
 62
7
  6
CONTINUOUS
 10
573.4695237012
 20
193.0730139083
 40
2.0000981581
100
AcDbArc
 50
0.0016459705
 51
58.4032737912
  0
ARC
  5
47A
100
AcDbEntity
  8
KONSTRUKTIONSELEMENTE
100
AcDbCircle
 62
7
  6
CONTINUOUS
 10
570.4658984624
 20
208.5539414725
 40
0.9882355346
100
AcDbArc
 50
54.9099949358
 51
56.1634894965
  0
ARC
  5
47B
100
AcDbEntity
  8
KONSTRUKTIONSELEMENTE
100
AcDbCircle
 62
7
  6
CONTINUOUS
 10
570.9571066904
 20
209.3743086894
 40
0.1788998544
100
AcDbArc
 50
0.0014373972
 51
4.00070305
  0
ARC
  5
47C
100
AcDbEntity
  8
0
100
AcDbCircle
 62
7
  6
CONTINUOUS
 10
566.9696155563
 20
510.0268238151
 40
9.0
100
AcDbArc
 50
0.0
 51
180.0
  0
SPLINE
  5
47D
100
AcDbEntity
  8
KONSTRUKTIONSELEMENTE
100
AcDbSpline
 62
7
  6
CONTINUOUS
 70
0
 71
3
 72
13
 73
9
 74
0
 42
0.0000001
 43
0.0000001
 44
0.0000000001
 40
0.0
 40
0.0
 40
0.0
 40
0.0
 40
0.1194785188
 40
0.2392741704
 40
0.3602835725
 40
0.4830059608
 40
0.7355440041
 40
1.0
 40
1.0
 40
1.0
 40
1.0
 10
117.6967785508
 20
151.4102095845
 30
0.0
 10
117.8760983565
 20
151.7208005986
 30
0.0
 10
118.3022522925
 20
152.3067299013
 30
0.0
 10
119.1106177084
 20
153.0357074175
 30
0.0
 10
120.0539537109
 20
153.5976443719
 30
0.0
 10
121.4585322804
 20
154.115054686
 30
0.0
 10
123.4019957831
 20
154.30859493
 30
0.0
 10
124.9475226734
 20
154.0254191435
 30
0.0
 10
125.7057463089
 20
153.7903732986
 30
0.0
  0
SPLINE
  5
47E
100
AcDbEntity
  8
KONSTRUKTIONSELEMENTE
100
AcDbSpline
 62
7
  6
CONTINUOUS
 70
0
 71
3
 72
13
 73
9
 74
0
 42
0.0000001
 43
0.0000001
 44
0.0000000001
 40
0.0
 40
0.0
 40
0.0
 40
0.0
 40
0.2644681654
 40
0.5169944072
 40
0.6397129492
 40
0.760706397
 40
0.8805228501
 40
1.0
 40
1.0
 40
1.0
 40
1.0
 10
129.6085175557
 20
151.5376051898
 30
0.0
 10
130.191425261
 20
150.9984362984
 30
0.0
 10
131.2099075807
 20
149.8015177277
 30
0.0
 10
132.0144841135
 20
148.0213843469
 30
0.0
 10
132.268890892
 20
146.5460858944
 30
0.0
 10
132.2541439354
 20
145.4479099008
 30
0.0
 10
132.0269177705
 20
144.3831139653
 30
0.0
 10
131.7325421466
 20
143.7208652553
 30
0.0
 10
131.5531850114
 20
143.4102095845
 30
0.0
  0
SPLINE
  5
47F
100
AcDbEntity
  8
KONSTRUKTIONSELEMENTE
100
AcDbSpline
 62
7
  6
CONTINUOUS
 70
0
 71
3
 72
10
 73
6
 74
0
 42
0.0000001
 43
0.0000001
 44
0.0000000001
 40
0.0
 40
0.0
 40
0.0
 40
0.0
 40
0.3116645009
 40
0.6060899939
 40
1.0
 40
1.0
 40
1.0
 40
1.0
 10
121.5938928679
 20
149.1602095845
 30
0.0
 10
121.6924702911
 20
149.33095069
 30
0.0
 10
122.0405378823
 20
149.5587643294
 30
0.0
 10
122.6535245324
 20
149.7058498123
 30
0.0
 10
123.0949346983
 20
149.7135920222
 30
0.0
 10
123.3433757444
 20
149.6943865902
 30
0.0
  0
SPLINE
  5
480
100
AcDbEntity
  8
KONSTRUKTIONSELEMENTE
100
AcDbSpline
 62
7
  6
CONTINUOUS
 70
0
 71
3
 72
10
 73
6
 74
0
 42
0.0000001
 43
0.0000001
 44
0.0000000001
 40
0.0
 40
0.0
 40
0.0
 40
0.0
 40
0.3939255147
 40
0.6883533687
 40
1.0
 40
1.0
 40
1.0
 40
1.0
 10
127.2437859337
 20
147.4426129608
 30
0.0
 10
127.3846803409
 20
147.2370334207
 30
0.0
 10
127.5987157149
 20
146.8508285198
 30
0.0
 10
127.7779328183
 20
146.246358613
 30
0.0
 10
127.7546563463
 20
145.8309649425
 30
0.0
 10
127.6560706944
 20
145.6602095845
 30
0.0
  0
SPLINE
  5
481
100
AcDbEntity
  8
KONSTRUKTIONSELEMENTE
100
AcDbSpline
 62
7
  6
CONTINUOUS
 70
0
 71
3
 72
10
 73
6
 74
0
 42
0.0000001
 43
0.0000001
 44
0.0000000001
 40
0.0
 40
0.0
 40
0.0
 40
0.0
 40
0.3192646009
 40
0.6086079864
 40
1.0
 40
1.0
 40
1.0
 40
1.0
 10
122.3527698355
 20
136.474623049
 30
0.0
 10
122.2668999479
 20
136.3258920409
 30
0.0
 10
121.9834850615
 20
136.1190346312
 30
0.0
 10
121.4700115903
 20
135.96128452
 30
0.0
 10
121.1008366658
 20
135.9284304594
 30
0.0
 10
120.8902982938
 20
135.9288399042
 30
0.0
  0
SPLINE
  5
482
100
AcDbEntity
  8
KONSTRUKTIONSELEMENTE
100
AcDbSpline
 62
7
  6
CONTINUOUS
 70
0
 71
3
 72
10
 73
6
 74
0
 42
0.0000001
 43
0.0000001
 44
0.0000000001
 40
0.0
 40
0.0
 40
0.0
 40
0.0
 40
0.3914026107
 40
0.6807340322
 40
1.0
 40
1.0
 40
1.0
 40
1.0
 10
116.5491126744
 20
138.4352851786
 30
0.0
 10
116.4434971495
 20
138.6174082102
 30
0.0
 10
116.2874135048
 20
138.9535425689
 30
0.0
 10
116.1672526617
 20
139.4770592928
 30
0.0
 10
116.2047271162
 20
139.8259006921
 30
0.0
 10
116.290592009
 20
139.974623049
 30
0.0
  0
SPLINE
  5
483
100
AcDbEntity
  8
KONSTRUKTIONSELEMENTE
100
AcDbSpline
 62
7
  6
CONTINUOUS
 70
0
 71
3
 72
13
 73
9
 74
0
 42
0.0000001
 43
0.0000001
 44
0.0000000001
 40
0.0
 40
0.0
 40
0.0
 40
0.0
 40
0.1197290731
 40
0.2397365246
 40
0.3609040964
 40
0.4836831257
 40
0.7359942557
 40
1.0
 40
1.0
 40
1.0
 40
1.0
 10
126.2498841525
 20
134.224623049
 30
0.0
 10
126.0752773014
 20
133.9221951117
 30
0.0
 10
125.6621632152
 20
133.3508677687
 30
0.0
 10
124.8814109056
 20
132.6351357698
 30
0.0
 10
123.970982709
 20
132.0769949598
 30
0.0
 10
122.6149530347
 20
131.5518837245
 30
0.0
 10
120.7335809813
 20
131.3250342713
 30
0.0
 10
119.2280519604
 20
131.563155215
 30
0.0
 10
118.4868183225
 20
131.7717499371
 30
0.0
  0
SPLINE
  5
484
100
AcDbEntity
  8
KONSTRUKTIONSELEMENTE
100
AcDbSpline
 62
7
  6
CONTINUOUS
 70
0
 71
3
 72
13
 73
9
 74
0
 42
0.0000001
 43
0.0000001
 44
0.0000000001
 40
0.0
 40
0.0
 40
0.0
 40
0.0
 40
0.2640112835
 40
0.5163080567
 40
0.6390830379
 40
0.7602378991
 40
0.8802701562
 40
1.0
 40
1.0
 40
1.0
 40
1.0
 10
114.1501013495
 20
134.2758400787
 30
0.0
 10
113.5989426093
 20
134.8134847822
 30
0.0
 10
112.6401519853
 20
135.9981635904
 30
0.0
 10
111.8961851559
 20
137.740755377
 30
0.0
 10
111.6730325721
 20
139.1774243189
 30
0.0
 10
111.7011257418
 20
140.2448649478
 30
0.0
 10
111.9307053128
 20
141.2787818673
 30
0.0
 10
112.2188882932
 20
141.92222534
 30
0.0
 10
112.3934776919
 20
142.224623049
 30
0.0
  0
SPLINE
  5
485
100
AcDbEntity
  8
KONSTRUKTIONSELEMENTE
100
AcDbSpline
 62
7
  6
CONTINUOUS
 70
0
 71
3
 72
10
 73
6
 74
0
 42
0.0000001
 43
0.0000001
 44
0.0000000001
 40
0.0
 40
0.0
 40
0.0
 40
0.0
 40
0.3116645009
 40
0.6060899939
 40
1.0
 40
1.0
 40
1.0
 40
1.0
 10
137.9091190216
 20
163.4190102197
 30
0.0
 10
137.8105415984
 20
163.2482691142
 30
0.0
 10
137.4624740071
 20
163.0204554747
 30
0.0
 10
136.8494873571
 20
162.8733699918
 30
0.0
 10
136.4080771911
 20
162.8656277819
 30
0.0
 10
136.159636145
 20
162.8848332139
 30
0.0
  0
SPLINE
  5
486
100
AcDbEntity
  8
KONSTRUKTIONSELEMENTE
100
AcDbSpline
 62
7
  6
CONTINUOUS
 70
0
 71
3
 72
10
 73
6
 74
0
 42
0.0000001
 43
0.0000001
 44
0.0000000001
 40
0.0
 40
0.0
 40
0.0
 40
0.0
 40
0.3939255147
 40
0.6883533687
 40
1.0
 40
1.0
 40
1.0
 40
1.0
 10
132.2592259557
 20
165.1366068433
 30
0.0
 10
132.1183315485
 20
165.3421863834
 30
0.0
 10
131.9042961745
 20
165.7283912844
 30
0.0
 10
131.7250790712
 20
166.3328611911
 30
0.0
 10
131.7483555431
 20
166.7482548616
 30
0.0
 10
131.8469411951
 20
166.9190102197
 30
0.0
  0
SPLINE
  5
487
100
AcDbEntity
  8
KONSTRUKTIONSELEMENTE
100
AcDbSpline
 62
7
  6
CONTINUOUS
 70
0
 71
3
 72
13
 73
9
 74
0
 42
0.0000001
 43
0.0000001
 44
0.0000000001
 40
0.0
 40
0.0
 40
0.0
 40
0.0
 40
0.1194785188
 40
0.2392741704
 40
0.3602835725
 40
0.4830059608
 40
0.7355440041
 40
1.0
 40
1.0
 40
1.0
 40
1.0
 10
141.8062333386
 20
161.1690102197
 30
0.0
 10
141.626913533
 20
160.8584192055
 30
0.0
 10
141.200759597
 20
160.2724899028
 30
0.0
 10
140.3923941811
 20
159.5435123867
 30
0.0
 10
139.4490581785
 20
158.9815754322
 30
0.0
 10
138.0444796091
 20
158.4641651181
 30
0.0
 10
136.1010161064
 20
158.2706248742
 30
0.0
 10
134.5554892161
 20
158.5538006606
 30
0.0
 10
133.7972655805
 20
158.7888465055
 30
0.0
  0
SPLINE
  5
488
100
AcDbEntity
  8
KONSTRUKTIONSELEMENTE
100
AcDbSpline
 62
7
  6
CONTINUOUS
 70
0
 71
3
 72
13
 73
9
 74
0
 42
0.0000001
 43
0.0000001
 44
0.0000000001
 40
0.0
 40
0.0
 40
0.0
 40
0.0
 40
0.2644681654
 40
0.5169944072
 40
0.6397129492
 40
0.760706397
 40
0.8805228501
 40
1.0
 40
1.0
 40
1.0
 40
1.0
 10
129.8944943337
 20
161.0416146143
 30
0.0
 10
129.3115866285
 20
161.5807835057
 30
0.0
 10
128.2931043087
 20
162.7777020765
 30
0.0
 10
127.4885277759
 20
164.5578354572
 30
0.0
 10
127.2341209974
 20
166.0331339098
 30
0.0
 10
127.248867954
 20
167.1313099033
 30
0.0
 10
127.4760941189
 20
168.1961058389
 30
0.0
 10
127.7704697429
 20
168.8583545489
 30
0.0
 10
127.949826878
 20
169.1690102197
 30
0.0
  0
SPLINE
  5
489
100
AcDbEntity
  8
BEZUGSACHSEN
100
AcDbSpline
 62
7
  6
CONTINUOUS
 70
0
 71
3
 72
9
 73
5
 74
0
 42
0.0000001
 43
0.0000001
 44
0.0000000001
 40
0.0
 40
0.0
 40
0.0
 40
0.0
 40
0.4777750451
 40
1.0
 40
1.0
 40
1.0
 40
1.0
 10
114.9303061541
 20
123.2038156382
 30
0.0
 10
114.6996616693
 20
123.0696160656
 30
0.0
 10
114.168952434
 20
122.8679710735
 30
0.0
 10
113.6073508394
 20
122.8128229287
 30
0.0
 10
113.3156878309
 20
122.8150210612
 30
0.0
  0
SPLINE
  5
48A
100
AcDbEntity
  8
BEZUGSACHSEN
100
AcDbSpline
 62
7
  6
CONTINUOUS
 70
0
 71
3
 72
9
 73
5
 74
0
 42
0.0000001
 43
0.0000001
 44
0.0000000001
 40
0.0
 40
0.0
 40
0.0
 40
0.0
 40
0.5222249549
 40
1.0
 40
1.0
 40
1.0
 40
1.0
 10
108.9795706842
 20
125.3184794631
 30
0.0
 10
108.8318355414
 20
125.5699679716
 30
0.0
 10
108.5987944384
 20
126.0839032916
 30
0.0
 10
108.5080695065
 20
126.6443334675
 30
0.0
 10
108.5089675031
 20
126.9111772369
 30
0.0
  0
SPLINE
  5
48B
100
AcDbEntity
  8
KONSTRUKTIONSELEMENTE
100
AcDbSpline
 62
7
  6
CONTINUOUS
 70
0
 71
3
 72
13
 73
9
 74
0
 42
0.0000001
 43
0.0000001
 44
0.0000000001
 40
0.0
 40
0.0
 40
0.0
 40
0.0
 40
0.1036865026
 40
0.2123166057
 40
0.3277694079
 40
0.450761267
 40
0.7166663069
 40
1.0
 40
1.0
 40
1.0
 40
1.0
 10
93.9233754609
 20
99.7297211308
 30
0.0
 10
93.9592905334
 20
99.8278924273
 30
0.0
 10
94.0069890731
 20
100.0392039607
 30
0.0
 10
94.001943252
 20
100.3722140517
 30
0.0
 10
93.923382313
 20
100.7155791013
 30
0.0
 10
93.7198977962
 20
101.1841607079
 30
0.0
 10
93.2995006766
 20
101.7292857877
 30
0.0
 10
92.8524883428
 20
102.0673339116
 30
0.0
 10
92.6051069934
 20
102.2101596002
 30
0.0
  0
SPLINE
  5
48C
100
AcDbEntity
  8
KONSTRUKTIONSELEMENTE
100
AcDbSpline
 62
7
  6
CONTINUOUS
 70
0
 71
3
 72
9
 73
5
 74
0
 42
0.0000001
 43
0.0000001
 44
0.0000000001
 40
0.0
 40
0.0
 40
0.0
 40
0.0
 40
0.4892987036
 40
1.0
 40
1.0
 40
1.0
 40
1.0
 10
91.0487649528
 20
125.774957691
 30
0.0
 10
91.0720232638
 20
125.8152166729
 30
0.0
 10
91.1067168325
 20
125.9055198032
 30
0.0
 10
91.1131677237
 20
126.001718765
 30
0.0
 10
91.1102869883
 20
126.0501613756
 30
0.0
  0
SPLINE
  5
48D
100
AcDbEntity
  8
KONSTRUKTIONSELEMENTE
100
AcDbSpline
 62
7
  6
CONTINUOUS
 70
0
 71
3
 72
11
 73
7
 74
0
 42
0.0000001
 43
0.0000001
 44
0.0000000001
 40
0.0
 40
0.0
 40
0.0
 40
0.0
 40
0.2200436456
 40
0.4557793627
 40
0.7157728079
 40
1.0
 40
1.0
 40
1.0
 40
1.0
 10
87.6690874586
 20
128.4518861859
 30
0.0
 10
87.6993738644
 20
128.504310451
 30
0.0
 10
87.7856710747
 20
128.6006041317
 30
0.0
 10
87.9655131116
 20
128.689675227
 30
0.0
 10
88.1803137991
 20
128.72256653
 30
0.0
 10
88.3308610603
 20
128.7073671425
 30
0.0
 10
88.4074257773
 20
128.6914401282
 30
0.0
  0
SPLINE
  5
48E
100
AcDbEntity
  8
KONSTRUKTIONSELEMENTE
100
AcDbSpline
 62
7
  6
CONTINUOUS
 70
0
 71
3
 72
11
 73
7
 74
0
 42
0.0000001
 43
0.0000001
 44
0.0000000001
 40
0.0
 40
0.0
 40
0.0
 40
0.0
 40
0.2200599668
 40
0.4557760239
 40
0.7157731965
 40
1.0
 40
1.0
 40
1.0
 40
1.0
 10
87.5097113672
 20
136.1511017709
 30
0.0
 10
87.6106616551
 20
136.325909124
 30
0.0
 10
87.8982266012
 20
136.6470630391
 30
0.0
 10
88.4977887256
 20
136.9441013936
 30
0.0
 10
89.2138934636
 20
137.053773273
 30
0.0
 10
89.7158109348
 20
137.0031261988
 30
0.0
 10
89.9710700819
 20
136.9500271182
 30
0.0
  0
SPLINE
  5
48F
100
AcDbEntity
  8
KONSTRUKTIONSELEMENTE
100
AcDbSpline
 62
7
  6
CONTINUOUS
 70
0
 71
3
 72
9
 73
5
 74
0
 42
0.0000001
 43
0.0000001
 44
0.0000000001
 40
0.0
 40
0.0
 40
0.0
 40
0.0
 40
0.4891681133
 40
1.0
 40
1.0
 40
1.0
 40
1.0
 10
86.4490158096
 20
134.3139229335
 30
0.0
 10
86.3715808413
 20
134.1798197181
 30
0.0
 10
86.2560197573
 20
133.8789688946
 30
0.0
 10
86.2346091472
 20
133.5584781802
 30
0.0
 10
86.2442087296
 20
133.3970510551
 30
0.0
  0
SPLINE
  5
490
100
AcDbEntity
  8
KONSTRUKTIONSELEMENTE
100
AcDbSpline
 62
7
  6
CONTINUOUS
 70
0
 71
3
 72
9
 73
5
 74
0
 42
0.0000001
 43
0.0000001
 44
0.0000000001
 40
0.0
 40
0.0
 40
0.0
 40
0.0
 40
0.4891681133
 40
1.0
 40
1.0
 40
1.0
 40
1.0
 10
111.2189075906
 20
96.6308650133
 30
0.0
 10
111.2963268977
 20
96.7649772707
 30
0.0
 10
111.4990908116
 20
97.0154815168
 30
0.0
 10
111.7659386068
 20
97.1942690063
 30
0.0
 10
111.9105383893
 20
97.2666690867
 30
0.0
  0
SPLINE
  5
491
100
AcDbEntity
  8
KONSTRUKTIONSELEMENTE
100
AcDbSpline
 62
7
  6
CONTINUOUS
 70
0
 71
3
 72
9
 73
5
 74
0
 42
0.0000001
 43
0.0000001
 44
0.0000000001
 40
0.0
 40
0.0
 40
0.0
 40
0.0
 40
0.4753722117
 40
1.0
 40
1.0
 40
1.0
 40
1.0
 10
112.0952711061
 20
97.3609615961
 30
0.0
 10
112.1347321969
 20
97.1083825283
 30
0.0
 10
112.3159532987
 20
96.5910565233
 30
0.0
 10
112.6304517003
 20
96.147341697
 30
0.0
 10
112.8183218793
 20
95.9368590617
 30
0.0
  0
SPLINE
  5
492
100
AcDbEntity
  8
KONSTRUKTIONSELEMENTE
100
AcDbSpline
 62
7
  6
CONTINUOUS
 70
0
 71
3
 72
11
 73
7
 74
0
 42
0.0000001
 43
0.0000001
 44
0.0000000001
 40
0.0
 40
0.0
 40
0.0
 40
0.0
 40
0.2094829334
 40
0.4446557434
 40
0.7120095299
 40
1.0
 40
1.0
 40
1.0
 40
1.0
 10
89.8259608596
 20
94.9965372947
 30
0.0
 10
89.7837925334
 20
94.9234996112
 30
0.0
 10
89.7406587797
 20
94.7392448432
 30
0.0
 10
89.8185654753
 20
94.4547565327
 30
0.0
 10
90.0070890368
 20
94.1921194474
 30
0.0
 10
90.1867757886
 20
94.0533737755
 30
0.0
 10
90.2871856714
 20
93.9954021026
 30
0.0
  0
SPLINE
  5
493
100
AcDbEntity
  8
BEZUGSACHSEN
100
AcDbSpline
 62
7
  6
CONTINUOUS
 70
0
 71
3
 72
9
 73
5
 74
0
 42
0.0000001
 43
0.0000001
 44
0.0000000001
 40
0.0
 40
0.0
 40
0.0
 40
0.0
 40
0.2464269631
 40
1.0
 40
1.0
 40
1.0
 40
1.0
 10
119.0735156496
 20
127.6519499064
 30
0.0
 10
118.9303546345
 20
127.8123420871
 30
0.0
 10
118.3351644467
 20
128.4503958973
 30
0.0
 10
117.6855201861
 20
129.0373487693
 30
0.0
 10
117.1721433959
 20
129.4480438082
 30
0.0
  0
LINE
  5
494
100
AcDbEntity
  8
BEZUGSACHSEN
100
AcDbLine
 62
7
  6
CONTINUOUS
 10
117.1721433959
 20
129.4480438082
 11
117.1528594409
 21
129.4634469619
  0
LINE
  5
495
100
AcDbEntity
  8
BEZUGSACHSEN
100
AcDbLine
 62
7
  6
CONTINUOUS
 10
112.8186906044
 20
131.9657805064
 11
112.7957091045
 21
131.9747793244
  0
SPLINE
  5
496
100
AcDbEntity
  8
BEZUGSACHSEN
100
AcDbSpline
 62
7
  6
CONTINUOUS
 70
0
 71
3
 72
9
 73
5
 74
0
 42
0.0000001
 43
0.0000001
 44
0.0000000001
 40
0.0
 40
0.0
 40
0.0
 40
0.0
 40
0.2533122656
 40
1.0
 40
1.0
 40
1.0
 40
1.0
 10
112.7957091045
 20
131.9747793244
 30
0.0
 10
112.5898672543
 20
132.0552018982
 30
0.0
 10
111.7709564578
 20
132.3562035003
 30
0.0
 10
110.9273325329
 20
132.5906994296
 30
0.0
 10
110.2895600311
 20
132.7233690472
 30
0.0
  0
SPLINE
  5
497
100
AcDbEntity
  8
KONSTRUKTIONSELEMENTE
100
AcDbSpline
 62
7
  6
CONTINUOUS
 70
0
 71
3
 72
11
 73
7
 74
0
 42
0.0000001
 43
0.0000001
 44
0.0000000001
 40
0.0
 40
0.0
 40
0.0
 40
0.0
 40
0.2200606194
 40
0.4557771489
 40
0.7157721538
 40
1.0
 40
1.0
 40
1.0
 40
1.0
 10
115.2593281165
 20
92.8807497361
 30
0.0
 10
115.2761533235
 20
92.9098879001
 30
0.0
 10
115.2985572728
 20
92.9781606151
 30
0.0
 10
115.2914758737
 20
93.0894646726
 30
0.0
 10
115.2476308563
 20
93.2019772196
 30
0.0
 10
115.1984899979
 20
93.2702088221
 30
0.0
 10
115.1695514364
 20
93.3026304908
 30
0.0
  0
SPLINE
  5
498
100
AcDbEntity
  8
BEZUGSACHSEN
100
AcDbSpline
 62
7
  6
CONTINUOUS
 70
0
 71
3
 72
11
 73
7
 74
0
 42
0.0000001
 43
0.0000001
 44
0.0000000001
 40
0.0
 40
0.0
 40
0.0
 40
0.0
 40
0.2279319373
 40
0.4664024631
 40
0.722818209
 40
1.0
 40
1.0
 40
1.0
 40
1.0
 10
107.7258513234
 20
126.140057028
 30
0.0
 10
107.8317117578
 20
126.3234126789
 30
0.0
 10
108.1110685497
 20
126.6655653581
 30
0.0
 10
108.6803691529
 20
127.0379865839
 30
0.0
 10
109.3694150329
 20
127.2610692798
 30
0.0
 10
109.8674175755
 20
127.3041506666
 30
0.0
 10
110.124878218
 20
127.3022103019
 30
0.0
  0
SPLINE
  5
499
100
AcDbEntity
  8
BEZUGSACHSEN
100
AcDbSpline
 62
7
  6
CONTINUOUS
 70
0
 71
3
 72
11
 73
7
 74
0
 42
0.0000001
 43
0.0000001
 44
0.0000000001
 40
0.0
 40
0.0
 40
0.0
 40
0.0
 40
0.277181791
 40
0.5335975369
 40
0.7720680627
 40
1.0
 40
1.0
 40
1.0
 40
1.0
 10
114.4609953647
 20
124.7987519001
 30
0.0
 10
114.5914060911
 20
124.5767546255
 30
0.0
 10
114.8030977869
 20
124.123931079
 30
0.0
 10
114.9544254451
 20
123.4156584947
 30
0.0
 10
114.9165495043
 20
122.736419097
 30
0.0
 10
114.7599149881
 20
122.3234126789
 30
0.0
 10
114.6540545537
 20
122.140057028
 30
0.0
  0
SPLINE
  5
49A
100
AcDbEntity
  8
KONSTRUKTIONSELEMENTE
100
AcDbSpline
 62
7
  6
CONTINUOUS
 70
0
 71
3
 72
9
 73
5
 74
0
 42
0.0000001
 43
0.0000001
 44
0.0000000001
 40
0.0
 40
0.0
 40
0.0
 40
0.0
 40
0.5108269807
 40
1.0
 40
1.0
 40
1.0
 40
1.0
 10
136.2549826577
 20
102.0388394319
 30
0.0
 10
136.3995861734
 20
102.1112413814
 30
0.0
 10
136.6664430908
 20
102.2900392036
 30
0.0
 10
136.869204799
 20
102.5405555919
 30
0.0
 10
136.9466378455
 20
102.6746680444
 30
0.0
  0
SPLINE
  5
49B
100
AcDbEntity
  8
KONSTRUKTIONSELEMENTE
100
AcDbSpline
 62
7
  6
CONTINUOUS
 70
0
 71
3
 72
9
 73
5
 74
0
 42
0.0000001
 43
0.0000001
 44
0.0000000001
 40
0.0
 40
0.0
 40
0.0
 40
0.0
 40
0.5322168521
 40
1.0
 40
1.0
 40
1.0
 40
1.0
 10
135.4465587157
 20
101.9431056337
 30
0.0
 10
135.4974999377
 20
101.8860330173
 30
0.0
 10
135.6246406505
 20
101.8054953193
 30
0.0
 10
135.7830034557
 20
101.80252281
 30
0.0
 10
135.8431268526
 20
101.8326261662
 30
0.0
  0
SPLINE
  5
49C
100
AcDbEntity
  8
KONSTRUKTIONSELEMENTE
100
AcDbSpline
 62
7
  6
CONTINUOUS
 70
0
 71
3
 72
9
 73
5
 74
0
 42
0.0000001
 43
0.0000001
 44
0.0000000001
 40
0.0
 40
0.0
 40
0.0
 40
0.0
 40
0.2605100871
 40
1.0
 40
1.0
 40
1.0
 40
1.0
 10
114.0834118176
 20
90.9376919617
 30
0.0
 10
114.0956642103
 20
90.9438266474
 30
0.0
 10
114.1411549165
 20
90.9702719192
 30
0.0
 10
114.1792180082
 20
91.0099487162
 30
0.0
 10
114.1986679447
 20
91.043632429
 30
0.0
  0
SPLINE
  5
49D
100
AcDbEntity
  8
KONSTRUKTIONSELEMENTE
100
AcDbSpline
 62
7
  6
CONTINUOUS
 70
0
 71
3
 72
10
 73
6
 74
0
 42
0.0000001
 43
0.0000001
 44
0.0000000001
 40
0.0
 40
0.0
 40
0.0
 40
0.0
 40
0.274222842
 40
0.5378286819
 40
1.0
 40
1.0
 40
1.0
 40
1.0
 10
111.9335987189
 20
91.0508496995
 30
0.0
 10
112.0959792228
 20
90.9570992719
 30
0.0
 10
112.4345842896
 20
90.8043530167
 30
0.0
 10
113.1017631348
 20
90.6534612389
 30
0.0
 10
113.6290696518
 20
90.710206078
 30
0.0
 10
113.9116403958
 20
90.8516872352
 30
0.0
  0
SPLINE
  5
49E
100
AcDbEntity
  8
KONSTRUKTIONSELEMENTE
100
AcDbSpline
 62
7
  6
CONTINUOUS
 70
0
 71
3
 72
13
 73
9
 74
0
 42
0.0000001
 43
0.0000001
 44
0.0000000001
 40
0.0
 40
0.0
 40
0.0
 40
0.0
 40
0.2870489256
 40
0.5535682914
 40
0.6755020148
 40
0.789331082
 40
0.8965440086
 40
1.0
 40
1.0
 40
1.0
 40
1.0
 10
101.4905276363
 20
97.0801596002
 30
0.0
 10
101.2227870703
 20
97.234739688
 30
0.0
 10
100.6635701163
 20
97.4646490073
 30
0.0
 10
99.9254169033
 20
97.5379418725
 30
0.0
 10
99.3899657052
 20
97.4402524543
 30
0.0
 10
99.0456251258
 20
97.2977932667
 30
0.0
 10
98.7612820944
 20
97.0882951423
 30
0.0
 10
98.6192511098
 20
96.9069627737
 30
0.0
 10
98.5635385298
 20
96.8104657545
 30
0.0
  0
SPLINE
  5
49F
100
AcDbEntity
  8
KONSTRUKTIONSELEMENTE
100
AcDbSpline
 62
7
  6
CONTINUOUS
 70
0
 71
3
 72
11
 73
7
 74
0
 42
0.0000001
 43
0.0000001
 44
0.0000000001
 40
0.0
 40
0.0
 40
0.0
 40
0.0
 40
0.220058334
 40
0.4557781708
 40
0.71578719
 40
1.0
 40
1.0
 40
1.0
 40
1.0
 10
138.0072980172
 20
104.5117853515
 30
0.0
 10
138.1082333298
 20
104.6866032481
 30
0.0
 10
138.2425665609
 20
105.0962393521
 30
0.0
 10
138.2000373425
 20
105.7640127988
 30
0.0
 10
137.9369532412
 20
106.4390271602
 30
0.0
 10
137.6421283903
 20
106.8483792564
 30
0.0
 10
137.4685195113
 20
107.042884071
 30
0.0
  0
SPLINE
  5
4A0
100
AcDbEntity
  8
KONSTRUKTIONSELEMENTE
100
AcDbSpline
 62
7
  6
CONTINUOUS
 70
0
 71
3
 72
11
 73
7
 74
0
 42
0.0000001
 43
0.0000001
 44
0.0000000001
 40
0.0
 40
0.0
 40
0.0
 40
0.0
 40
0.2879904701
 40
0.5553442566
 40
0.7905170666
 40
1.0
 40
1.0
 40
1.0
 40
1.0
 10
95.5352996184
 20
90.9654021026
 30
0.0
 10
95.6357095012
 20
90.9074304297
 30
0.0
 10
95.8457101537
 20
90.8211899739
 30
0.0
 10
96.1674223223
 20
90.7892423231
 30
0.0
 10
96.4527497741
 20
90.8640173008
 30
0.0
 10
96.5907522071
 20
90.9934996112
 30
0.0
 10
96.6329205333
 20
91.0665372947
 30
0.0
  0
SPLINE
  5
4A1
100
AcDbEntity
  8
KONSTRUKTIONSELEMENTE
100
AcDbSpline
 62
7
  6
CONTINUOUS
 70
0
 71
3
 72
11
 73
7
 74
0
 42
0.0000001
 43
0.0000001
 44
0.0000000001
 40
0.0
 40
0.0
 40
0.0
 40
0.0
 40
0.2820767698
 40
0.5407553301
 40
0.7772666753
 40
1.0
 40
1.0
 40
1.0
 40
1.0
 10
101.4882489575
 20
97.0662259835
 30
0.0
 10
101.3009948601
 20
97.0922300619
 30
0.0
 10
100.9352771677
 20
97.1059096818
 30
0.0
 10
100.4194835782
 20
96.9976003383
 30
0.0
 10
99.9904360239
 20
96.7622914678
 30
0.0
 10
99.7834742415
 20
96.5234563893
 30
0.0
 10
99.7088350315
 20
96.3941774852
 30
0.0
  0
SPLINE
  5
4A2
100
AcDbEntity
  8
KONSTRUKTIONSELEMENTE
100
AcDbSpline
 62
7
  6
CONTINUOUS
 70
0
 71
3
 72
11
 73
7
 74
0
 42
0.0000001
 43
0.0000001
 44
0.0000000001
 40
0.0
 40
0.0
 40
0.0
 40
0.0
 40
0.2820767698
 40
0.5407553301
 40
0.7772666753
 40
1.0
 40
1.0
 40
1.0
 40
1.0
 10
92.5941794668
 20
102.2012193982
 30
0.0
 10
92.710326708
 20
102.052054632
 30
0.0
 10
92.9050324525
 20
101.7421736297
 30
0.0
 10
93.0691306043
 20
101.2413286064
 30
0.0
 10
93.0798709219
 20
100.7521080897
 30
0.0
 10
92.9765145678
 20
100.4534563893
 30
0.0
 10
92.9018753577
 20
100.3241774852
 30
0.0
  0
SPLINE
  5
4A3
100
AcDbEntity
  8
KONSTRUKTIONSELEMENTE
100
AcDbSpline
 62
7
  6
CONTINUOUS
 70
0
 71
3
 72
9
 73
5
 74
0
 42
0.0000001
 43
0.0000001
 44
0.0000000001
 40
0.0
 40
0.0
 40
0.0
 40
0.0
 40
0.5107012964
 40
1.0
 40
1.0
 40
1.0
 40
1.0
 10
86.7590372857
 20
126.7069886557
 30
0.0
 10
86.7561565503
 20
126.7554312663
 30
0.0
 10
86.7626074415
 20
126.8516302281
 30
0.0
 10
86.7973010101
 20
126.9419333584
 30
0.0
 10
86.8205593212
 20
126.9821923402
 30
0.0
  0
SPLINE
  5
4A4
100
AcDbEntity
  8
KONSTRUKTIONSELEMENTE
100
AcDbSpline
 62
7
  6
CONTINUOUS
 70
0
 71
3
 72
11
 73
7
 74
0
 42
0.0000001
 43
0.0000001
 44
0.0000000001
 40
0.0
 40
0.0
 40
0.0
 40
0.0
 40
0.2210800583
 40
0.4646152767
 40
0.7270135498
 40
1.0
 40
1.0
 40
1.0
 40
1.0
 10
87.8514878688
 20
106.368953527
 30
0.0
 10
87.8650094517
 20
106.1415738196
 30
0.0
 10
87.9793441618
 20
105.6673217882
 30
0.0
 10
88.3511543675
 20
105.0087669669
 30
0.0
 10
88.8983127396
 20
104.4133419609
 30
0.0
 10
89.3501594427
 20
104.0894044448
 30
0.0
 10
89.5937387568
 20
103.9487738622
 30
0.0
  0
SPLINE
  5
4A5
100
AcDbEntity
  8
KONSTRUKTIONSELEMENTE
100
AcDbSpline
 62
7
  6
CONTINUOUS
 70
0
 71
3
 72
13
 73
9
 74
0
 42
0.0000001
 43
0.0000001
 44
0.0000000001
 40
0.0
 40
0.0
 40
0.0
 40
0.0
 40
0.2198121251
 40
0.3415455497
 40
0.4695397045
 40
0.6018885822
 40
0.736224413
 40
1.0
 40
1.0
 40
1.0
 40
1.0
 10
129.0025543001
 20
105.8245196132
 30
0.0
 10
129.2891632179
 20
105.9680226553
 30
0.0
 10
129.7933994847
 20
106.0792871192
 30
0.0
 10
130.4784181909
 20
106.0505996506
 30
0.0
 10
131.0270474528
 20
105.9397490663
 30
0.0
 10
131.5702956195
 20
105.7437270569
 30
0.0
 10
132.2558338398
 20
105.3822909576
 30
0.0
 10
132.7121092062
 20
105.0066793295
 30
0.0
 10
132.9682356691
 20
104.7197249382
 30
0.0
  0
SPLINE
  5
4A6
100
AcDbEntity
  8
KONSTRUKTIONSELEMENTE
100
AcDbSpline
 62
7
  6
CONTINUOUS
 70
0
 71
3
 72
11
 73
7
 74
0
 42
0.0000001
 43
0.0000001
 44
0.0000000001
 40
0.0
 40
0.0
 40
0.0
 40
0.0
 40
0.2200606194
 40
0.4557771489
 40
0.7157721538
 40
1.0
 40
1.0
 40
1.0
 40
1.0
 10
114.1986679447
 20
91.043632429
 30
0.0
 10
114.2154931518
 20
91.072770593
 30
0.0
 10
114.237897101
 20
91.141043308
 30
0.0
 10
114.230815702
 20
91.2523473655
 30
0.0
 10
114.1869706845
 20
91.3648599125
 30
0.0
 10
114.1378298261
 20
91.433091515
 30
0.0
 10
114.1088912646
 20
91.4655131837
 30
0.0
  0
SPLINE
  5
4A7
100
AcDbEntity
  8
BEZUGSACHSEN
100
AcDbSpline
 62
7
  6
CONTINUOUS
 70
0
 71
3
 72
9
 73
5
 74
0
 42
0.0000001
 43
0.0000001
 44
0.0000000001
 40
0.0
 40
0.0
 40
0.0
 40
0.0
 40
0.2464061737
 40
1.0
 40
1.0
 40
1.0
 40
1.0
 10
118.0128554778
 20
125.8148325993
 30
0.0
 10
117.8683586632
 20
125.9767213593
 30
0.0
 10
117.2674311777
 20
126.620662539
 30
0.0
 10
116.6110471767
 20
127.2125359671
 30
0.0
 10
116.0921992691
 20
127.6263296549
 30
0.0
  0
SPLINE
  5
4A8
100
AcDbEntity
  8
BEZUGSACHSEN
100
AcDbSpline
 62
7
  6
CONTINUOUS
 70
0
 71
3
 72
9
 73
5
 74
0
 42
0.0000001
 43
0.0000001
 44
0.0000000001
 40
0.0
 40
0.0
 40
0.0
 40
0.0
 40
0.2533289355
 40
1.0
 40
1.0
 40
1.0
 40
1.0
 10
111.7580304326
 20
130.1286631993
 30
0.0
 10
111.5503591038
 20
130.2101607676
 30
0.0
 10
110.7241416069
 20
130.5150954607
 30
0.0
 10
109.8726630435
 20
130.7523359391
 30
0.0
 10
109.2288998593
 20
130.8862517402
 30
0.0
  0
SPLINE
  5
4A9
100
AcDbEntity
  8
BEZUGSACHSEN
100
AcDbSpline
 62
7
  6
CONTINUOUS
 70
0
 71
3
 72
13
 73
9
 74
0
 42
0.0000001
 43
0.0000001
 44
0.0000000001
 40
0.0
 40
0.0
 40
0.0
 40
0.0
 40
0.1034580044
 40
0.2106797569
 40
0.3245065378
 40
0.4464380011
 40
0.7129482935
 40
1.0
 40
1.0
 40
1.0
 40
1.0
 10
114.6540545537
 20
122.140057028
 30
0.0
 10
114.5612353371
 20
121.9792894289
 30
0.0
 10
114.3246081309
 20
121.6771733314
 30
0.0
 10
113.8509435999
 20
121.3280558478
 30
0.0
 10
113.2773010956
 20
121.0906274155
 30
0.0
 10
112.3853067227
 20
120.927654323
 30
0.0
 10
111.1555263234
 20
121.0494298425
 30
0.0
 10
110.2237611548
 20
121.4321436442
 30
0.0
 10
109.7776024944
 20
121.6895085874
 30
0.0
  0
SPLINE
  5
4AA
100
AcDbEntity
  8
BEZUGSACHSEN
100
AcDbSpline
 62
7
  6
CONTINUOUS
 70
0
 71
3
 72
13
 73
9
 74
0
 42
0.0000001
 43
0.0000001
 44
0.0000000001
 40
0.0
 40
0.0
 40
0.0
 40
0.0
 40
0.2870443501
 40
0.5535721934
 40
0.6755101614
 40
0.7893373578
 40
0.896552716
 40
1.0
 40
1.0
 40
1.0
 40
1.0
 10
109.7776024944
 20
121.6895085874
 30
0.0
 10
109.3311024942
 20
121.9470704311
 30
0.0
 10
108.5327177637
 20
122.5626271865
 30
0.0
 10
107.8112088042
 20
123.567186742
 30
0.0
 10
107.5056834711
 20
124.4217369879
 30
0.0
 10
107.4241716365
 20
125.0377002226
 30
0.0
 10
107.4895722632
 20
125.622921877
 30
0.0
 10
107.6329683393
 20
125.9791789803
 30
0.0
 10
107.7258513234
 20
126.140057028
 30
0.0
  0
SPLINE
  5
4AB
100
AcDbEntity
  8
KONSTRUKTIONSELEMENTE
100
AcDbSpline
 62
7
  6
CONTINUOUS
 70
0
 71
3
 72
9
 73
5
 74
0
 42
0.0000001
 43
0.0000001
 44
0.0000000001
 40
0.0
 40
0.0
 40
0.0
 40
0.0
 40
0.5328609796
 40
1.0
 40
1.0
 40
1.0
 40
1.0
 10
90.4164926513
 20
125.7191154794
 30
0.0
 10
90.5206072598
 20
125.6974575289
 30
0.0
 10
90.7234879457
 20
125.6836947786
 30
0.0
 10
90.9206428019
 20
125.7470069216
 30
0.0
 10
90.9990384869
 20
125.7974591994
 30
0.0
  0
SPLINE
  5
4AC
100
AcDbEntity
  8
KONSTRUKTIONSELEMENTE
100
AcDbSpline
 62
7
  6
CONTINUOUS
 70
0
 71
3
 72
8
 73
4
 74
0
 42
0.0000001
 43
0.0000001
 44
0.0000000001
 40
0.0
 40
0.0
 40
0.0
 40
0.0
 40
1.0
 40
1.0
 40
1.0
 40
1.0
 10
90.9990384869
 20
125.7974591994
 30
0.0
 10
91.0280138465
 20
125.8161065636
 30
0.0
 10
91.0553375815
 20
125.8376990986
 30
0.0
 10
91.0798673071
 20
125.8618980287
 30
0.0
  0
SPLINE
  5
4AD
100
AcDbEntity
  8
KONSTRUKTIONSELEMENTE
100
AcDbSpline
 62
7
  6
CONTINUOUS
 70
0
 71
3
 72
11
 73
7
 74
0
 42
0.0000001
 43
0.0000001
 44
0.0000000001
 40
0.0
 40
0.0
 40
0.0
 40
0.0
 40
0.2816064552
 40
0.5417085427
 40
0.7793419382
 40
1.0
 40
1.0
 40
1.0
 40
1.0
 10
90.3618086996
 20
126.6386839249
 30
0.0
 10
90.4319276006
 20
126.6240977712
 30
0.0
 10
90.5700654225
 20
126.6089609222
 30
0.0
 10
90.7688583751
 20
126.6325735155
 30
0.0
 10
90.9403222616
 20
126.7028857329
 30
0.0
 10
91.0300991202
 20
126.7815768185
 30
0.0
 10
91.0646949865
 20
126.8257637639
 30
0.0
  0
SPLINE
  5
4AE
100
AcDbEntity
  8
KONSTRUKTIONSELEMENTE
100
AcDbSpline
 62
7
  6
CONTINUOUS
 70
0
 71
3
 72
11
 73
7
 74
0
 42
0.0000001
 43
0.0000001
 44
0.0000000001
 40
0.0
 40
0.0
 40
0.0
 40
0.0
 40
0.2200436456
 40
0.4557793627
 40
0.7157728079
 40
1.0
 40
1.0
 40
1.0
 40
1.0
 10
86.8205593212
 20
126.9821923402
 30
0.0
 10
86.850845727
 20
127.0346166053
 30
0.0
 10
86.9371429373
 20
127.130910286
 30
0.0
 10
87.1169849742
 20
127.2199813814
 30
0.0
 10
87.3317856617
 20
127.2528726843
 30
0.0
 10
87.4823329228
 20
127.2376732968
 30
0.0
 10
87.5588976398
 20
127.2217462826
 30
0.0
  0
SPLINE
  5
4AF
100
AcDbEntity
  8
KONSTRUKTIONSELEMENTE
100
AcDbSpline
 62
7
  6
CONTINUOUS
 70
0
 71
3
 72
11
 73
7
 74
0
 42
0.0000001
 43
0.0000001
 44
0.0000000001
 40
0.0
 40
0.0
 40
0.0
 40
0.0
 40
0.220058334
 40
0.4557781708
 40
0.71578719
 40
1.0
 40
1.0
 40
1.0
 40
1.0
 10
136.9466378455
 20
102.6746680444
 30
0.0
 10
137.047573158
 20
102.849485941
 30
0.0
 10
137.1819063891
 20
103.259122045
 30
0.0
 10
137.1393771707
 20
103.9268954917
 30
0.0
 10
136.8762930694
 20
104.6019098531
 30
0.0
 10
136.5814682185
 20
105.0112619493
 30
0.0
 10
136.4078593395
 20
105.2057667639
 30
0.0
  0
SPLINE
  5
4B0
100
AcDbEntity
  8
KONSTRUKTIONSELEMENTE
100
AcDbSpline
 62
7
  6
CONTINUOUS
 70
0
 71
3
 72
11
 73
7
 74
0
 42
0.0000001
 43
0.0000001
 44
0.0000000001
 40
0.0
 40
0.0
 40
0.0
 40
0.0
 40
0.2842271921
 40
0.5442206373
 40
0.7799563544
 40
1.0
 40
1.0
 40
1.0
 40
1.0
 10
90.3104266341
 20
125.5354037487
 30
0.0
 10
90.3869913511
 20
125.5194767345
 30
0.0
 10
90.5375386123
 20
125.504277347
 30
0.0
 10
90.7523392998
 20
125.5371686499
 30
0.0
 10
90.9321813367
 20
125.6262397453
 30
0.0
 10
91.0184785469
 20
125.722533426
 30
0.0
 10
91.0487649528
 20
125.774957691
 30
0.0
  0
SPLINE
  5
4B1
100
AcDbEntity
  8
KONSTRUKTIONSELEMENTE
100
AcDbSpline
 62
7
  6
CONTINUOUS
 70
0
 71
3
 72
11
 73
7
 74
0
 42
0.0000001
 43
0.0000001
 44
0.0000000001
 40
0.0
 40
0.0
 40
0.0
 40
0.0
 40
0.2842240174
 40
0.5442187073
 40
0.779940343
 40
1.0
 40
1.0
 40
1.0
 40
1.0
 10
88.9104099101
 20
135.1129098112
 30
0.0
 10
88.6551467811
 20
135.16600972
 30
0.0
 10
88.1532211887
 20
135.2166562183
 30
0.0
 10
87.4370981091
 20
135.1069782768
 30
0.0
 10
86.8375230509
 20
134.8099176777
 30
0.0
 10
86.5499598159
 20
134.488739507
 30
0.0
 10
86.4490158096
 20
134.3139229335
 30
0.0
  0
SPLINE
  5
4B2
100
AcDbEntity
  8
KONSTRUKTIONSELEMENTE
100
AcDbSpline
 62
7
  6
CONTINUOUS
 70
0
 71
3
 72
11
 73
7
 74
0
 42
0.0000001
 43
0.0000001
 44
0.0000000001
 40
0.0
 40
0.0
 40
0.0
 40
0.0
 40
0.2842240174
 40
0.5442187073
 40
0.779940343
 40
1.0
 40
1.0
 40
1.0
 40
1.0
 10
111.7576617075
 20
94.0997417547
 30
0.0
 10
111.584044273
 20
94.2942561546
 30
0.0
 10
111.2892203227
 20
94.7036132193
 30
0.0
 10
111.0261426664
 20
95.3786329692
 30
0.0
 10
110.9836171626
 20
96.0464105007
 30
0.0
 10
111.1179840001
 20
96.4560366527
 30
0.0
 10
111.2189075906
 20
96.6308650133
 30
0.0
  0
SPLINE
  5
4B3
100
AcDbEntity
  8
KONSTRUKTIONSELEMENTE
100
AcDbSpline
 62
7
  6
CONTINUOUS
 70
0
 71
3
 72
11
 73
7
 74
0
 42
0.0000001
 43
0.0000001
 44
0.0000000001
 40
0.0
 40
0.0
 40
0.0
 40
0.0
 40
0.2403317958
 40
0.484747779
 40
0.7369983011
 40
1.0
 40
1.0
 40
1.0
 40
1.0
 10
132.3808793444
 20
207.8438182223
 30
0.0
 10
131.8059053884
 20
206.8479341175
 30
0.0
 10
130.9071872878
 20
204.6762428165
 30
0.0
 10
130.4200589981
 20
201.1493236909
 30
0.0
 10
130.7714851309
 20
197.50235221
 30
0.0
 10
131.5143945874
 20
195.1326032675
 30
0.0
 10
131.996323415
 20
193.9701211721
 30
0.0
  0
SPLINE
  5
4B4
100
AcDbEntity
  8
KONSTRUKTIONSELEMENTE
100
AcDbSpline
 62
7
  6
CONTINUOUS
 70
0
 71
3
 72
11
 73
7
 74
0
 42
0.0000001
 43
0.0000001
 44
0.0000000001
 40
0.0
 40
0.0
 40
0.0
 40
0.0
 40
0.2629961061
 40
0.5152443491
 40
0.7596610092
 40
1.0
 40
1.0
 40
1.0
 40
1.0
 10
161.2634037317
 20
177.0741976924
 30
0.0
 10
162.5108878271
 20
177.238172999
 30
0.0
 10
164.9341743559
 20
177.7797990466
 30
0.0
 10
168.2676361601
 20
179.2989546605
 30
0.0
 10
171.0779979205
 20
181.4841007348
 30
0.0
 10
172.5091635289
 20
183.3480452504
 30
0.0
 10
173.0840733222
 20
184.3438182223
 30
0.0
  0
SPLINE
  5
4B5
100
AcDbEntity
  8
KONSTRUKTIONSELEMENTE
100
AcDbSpline
 62
7
  6
CONTINUOUS
 70
0
 71
3
 72
13
 73
9
 74
0
 42
0.0000001
 43
0.0000001
 44
0.0000000001
 40
0.0
 40
0.0
 40
0.0
 40
0.0
 40
0.1172644026
 40
0.2353409334
 40
0.3551121901
 40
0.4773207979
 40
0.7310116639
 40
1.0
 40
1.0
 40
1.0
 40
1.0
 10
173.0840733222
 20
184.3438182223
 30
0.0
 10
173.4592311585
 20
184.9936106556
 30
0.0
 10
174.1020897675
 20
186.364801535
 30
0.0
 10
174.7104978421
 20
188.5642364014
 30
0.0
 10
174.9601701527
 20
190.8643685878
 30
0.0
 10
174.8182266251
 20
194.0433845216
 30
0.0
 10
173.7444002836
 20
198.0809679649
 30
0.0
 10
172.1219917537
 20
201.0404213984
 30
0.0
 10
171.1477482375
 20
202.4592608045
 30
0.0
  0
SPLINE
  5
4B6
100
AcDbEntity
  8
KONSTRUKTIONSELEMENTE
100
AcDbSpline
 62
7
  6
CONTINUOUS
 70
0
 71
3
 72
13
 73
9
 74
0
 42
0.0000001
 43
0.0000001
 44
0.0000000001
 40
0.0
 40
0.0
 40
0.0
 40
0.0
 40
0.2689704331
 40
0.5226532774
 40
0.6448632644
 40
0.7646389104
 40
0.8827253186
 40
1.0
 40
1.0
 40
1.0
 40
1.0
 10
149.022817548
 20
215.2257735908
 30
0.0
 10
147.3082920294
 20
215.3589890533
 30
0.0
 10
143.9369253945
 20
215.2825086651
 30
0.0
 10
139.9071387267
 20
214.192703887
 30
0.0
 10
137.0857624486
 20
212.726242504
 30
0.0
 10
135.220334299
 20
211.3604562915
 30
0.0
 10
133.6211813667
 20
209.7346933066
 30
0.0
 10
132.7557838453
 20
208.4931718659
 30
0.0
 10
132.3808793444
 20
207.8438182223
 30
0.0
  0
SPLINE
  5
4B7
100
AcDbEntity
  8
0
100
AcDbSpline
 62
7
  6
CONTINUOUS
 70
0
 71
3
 72
14
 73
10
 74
0
 42
0.0000001
 43
0.0000001
 44
0.0000000001
 40
0.0
 40
0.0
 40
0.0
 40
0.0
 40
0.4333952943
 40
0.6051923784
 40
0.7464364245
 40
0.8566985548
 40
0.9356332969
 40
0.9830620793
 40
1.0
 40
1.0
 40
1.0
 40
1.0
 10
285.5711677425
 20
165.9265691965
 30
0.0
 10
285.5912407011
 20
165.8883367632
 30
0.0
 10
285.6209823958
 20
165.8357598752
 30
0.0
 10
285.659895838
 20
165.7725413808
 30
0.0
 10
285.6827896777
 20
165.7367770392
 30
0.0
 10
285.7001558381
 20
165.7096859786
 30
0.0
 10
285.7138933337
 20
165.6884822248
 30
0.0
 10
285.7190535774
 20
165.6783881791
 30
0.0
 10
285.7236463904
 20
165.6699825488
 30
0.0
 10
285.7221848719
 20
165.6691387405
 30
0.0
  0
SPLINE
  5
4B8
100
AcDbEntity
  8
0
100
AcDbSpline
 62
7
  6
CONTINUOUS
 70
0
 71
3
 72
9
 73
5
 74
0
 42
0.0000001
 43
0.0000001
 44
0.0000000001
 40
0.0
 40
0.0
 40
0.0
 40
0.0
 40
0.3587236411
 40
1.0
 40
1.0
 40
1.0
 40
1.0
 10
282.0959789287
 20
171.889393164
 30
0.0
 10
282.0963969076
 20
171.889634484
 30
0.0
 10
282.0979149556
 20
171.8893450011
 30
0.0
 10
282.0989710826
 20
171.8885793964
 30
0.0
 10
282.0996673366
 20
171.8880698381
 30
0.0
  0
SPLINE
  5
4B9
100
AcDbEntity
  8
0
100
AcDbSpline
 62
7
  6
CONTINUOUS
 70
0
 71
3
 72
11
 73
7
 74
0
 42
0.0000001
 43
0.0000001
 44
0.0000000001
 40
0.0
 40
0.0
 40
0.0
 40
0.0
 40
0.1056602613
 40
0.3080881833
 40
0.6067424179
 40
1.0
 40
1.0
 40
1.0
 40
1.0
 10
282.0996673366
 20
171.8880698381
 30
0.0
 10
282.1055430227
 20
171.8837696771
 30
0.0
 10
282.1191041205
 20
171.8670273582
 30
0.0
 10
282.1447179546
 20
171.8342517293
 30
0.0
 10
282.180042214
 20
171.7835877045
 30
0.0
 10
282.2063982007
 20
171.7438934794
 30
0.0
 10
282.2210817877
 20
171.7211165587
 30
0.0
  0
SPLINE
  5
4BA
100
AcDbEntity
  8
0
100
AcDbSpline
 62
7
  6
CONTINUOUS
 70
0
 71
3
 72
11
 73
7
 74
0
 42
0.0000001
 43
0.0000001
 44
0.0000000001
 40
0.0
 40
0.0
 40
0.0
 40
0.0
 40
0.1609018245
 40
0.3957766395
 40
0.6839398382
 40
1.0
 40
1.0
 40
1.0
 40
1.0
 10
282.2460470574
 20
171.6821581168
 30
0.0
 10
282.3425045813
 20
171.5308334476
 30
0.0
 10
282.572706975
 20
171.1541541439
 30
0.0
 10
282.9641714167
 20
170.4994856661
 30
0.0
 10
283.4384371976
 20
169.6927060566
 30
0.0
 10
283.7768668069
 20
169.1099635282
 30
0.0
 10
283.9531165011
 20
168.8046901031
 30
0.0
  0
SPLINE
  5
4BB
100
AcDbEntity
  8
0
100
AcDbSpline
 62
7
  6
CONTINUOUS
 70
0
 71
3
 72
17
 73
13
 74
0
 42
0.0000001
 43
0.0000001
 44
0.0000000001
 40
0.0
 40
0.0
 40
0.0
 40
0.0
 40
0.2500270185
 40
0.3750740826
 40
0.5001166152
 40
0.6251481648
 40
0.68767894
 40
0.750209361
 40
0.8127375002
 40
0.8752574138
 40
0.9377177047
 40
1.0
 40
1.0
 40
1.0
 40
1.0
 10
290.6825625371
 20
180.0232711945
 30
0.0
 10
290.288340849
 20
179.6773065753
 30
0.0
 10
289.7202333551
 20
179.1304777898
 30
0.0
 10
289.0243000698
 20
178.3447989908
 30
0.0
 10
288.5387576226
 20
177.7248596014
 30
0.0
 10
288.1726187365
 20
177.1797248366
 30
0.0
 10
287.9135827532
 20
176.7231955162
 30
0.0
 10
287.7414573202
 20
176.368938849
 30
0.0
 10
287.5998048653
 20
176.0011193967
 30
0.0
 10
287.5044573651
 20
175.6180341565
 30
0.0
 10
287.4843008808
 20
175.2218221353
 30
0.0
 10
287.5621865055
 20
174.9627904127
 30
0.0
 10
287.6275138115
 20
174.8496401997
 30
0.0
  0
SPLINE
  5
4BC
100
AcDbEntity
  8
0
100
AcDbSpline
 62
7
  6
CONTINUOUS
 70
0
 71
3
 72
17
 73
13
 74
0
 42
0.0000001
 43
0.0000001
 44
0.0000000001
 40
0.0
 40
0.0
 40
0.0
 40
0.0
 40
0.0622821369
 40
0.1247423667
 40
0.1872623249
 40
0.2497904868
 40
0.3123209288
 40
0.3748517182
 40
0.4998832918
 40
0.6249258464
 40
0.7499729332
 40
1.0
 40
1.0
 40
1.0
 40
1.0
 10
302.7527605976
 20
183.5822055033
 30
0.0
 10
302.6874334586
 20
183.6953554272
 30
0.0
 10
302.5020484961
 20
183.892321773
 30
0.0
 10
302.1488411565
 20
184.0729719937
 30
0.0
 10
301.7694058934
 20
184.1819415
 30
0.0
 10
301.3800385186
 20
184.2431767512
 30
0.0
 10
300.9871804161
 20
184.2712401802
 30
0.0
 10
300.4622963172
 20
184.2751731329
 30
0.0
 10
299.8071261981
 20
184.230654976
 30
0.0
 10
299.0274715761
 20
184.1201325898
 30
0.0
 10
297.9990869499
 20
183.9102760754
 30
0.0
 10
297.2414654467
 20
183.691694912
 30
0.0
 10
296.7447403635
 20
183.5232711945
 30
0.0
  0
SPLINE
  5
4BD
100
AcDbEntity
  8
0
100
AcDbSpline
 62
7
  6
CONTINUOUS
 70
0
 71
3
 72
15
 73
11
 74
0
 42
0.0000001
 43
0.0000001
 44
0.0000000001
 40
0.0
 40
0.0
 40
0.0
 40
0.0
 40
0.1240344084
 40
0.1688753321
 40
0.2198525669
 40
0.3399257028
 40
0.4824645796
 40
0.6436586638
 40
0.8183390547
 40
1.0
 40
1.0
 40
1.0
 40
1.0
 10
310.7365563784
 20
182.060600591
 30
0.0
 10
310.7767256538
 20
181.9804004439
 30
0.0
 10
310.7389853294
 20
181.839400717
 30
0.0
 10
310.6636592375
 20
181.7028974567
 30
0.0
 10
310.5758690434
 20
181.572561426
 30
0.0
 10
310.427670257
 20
181.4006464207
 30
0.0
 10
310.2053859198
 20
181.1889281985
 30
0.0
 10
309.9365706732
 20
180.9707045149
 30
0.0
 10
309.6310930761
 20
180.7541219538
 30
0.0
 10
309.4126576483
 20
180.617011692
 30
0.0
 10
309.2988870176
 20
180.5513261878
 30
0.0
  0
LINE
  5
4BE
100
AcDbEntity
  8
0
100
AcDbLine
 62
7
  6
CONTINUOUS
 10
294.1324979116
 20
164.8668189345
 11
291.9157801406
 21
168.0881071882
  0
SPLINE
  5
4BF
100
AcDbEntity
  8
0
100
AcDbSpline
 62
7
  6
CONTINUOUS
 70
0
 71
3
 72
15
 73
11
 74
0
 42
0.0000001
 43
0.0000001
 44
0.0000000001
 40
0.0
 40
0.0
 40
0.0
 40
0.0
 40
0.1239934795
 40
0.1688462495
 40
0.2198416452
 40
0.3399640357
 40
0.4825524953
 40
0.6437730352
 40
0.8184322725
 40
1.0
 40
1.0
 40
1.0
 40
1.0
 10
284.9533644296
 20
167.1746677788
 30
0.0
 10
285.0028444587
 20
167.0996142982
 30
0.0
 10
285.1442533394
 20
167.0618573083
 30
0.0
 10
285.3005115364
 20
167.0589658599
 30
0.0
 10
285.4577312994
 20
167.0699869743
 30
0.0
 10
285.6813308633
 20
167.1126602012
 30
0.0
 10
285.976598691
 20
167.1997725113
 30
0.0
 10
286.3007732618
 20
167.3239937142
 30
0.0
 10
286.6417900076
 20
167.4808506105
 30
0.0
 10
286.8700816494
 20
167.6020493708
 30
0.0
 10
286.984083266
 20
167.6678682348
 30
0.0
  0
LINE
  5
4C0
100
AcDbEntity
  8
0
100
AcDbLine
 62
7
  6
CONTINUOUS
 10
306.4642867896
 20
176.4876914183
 11
308.1456453647
 21
172.9573133887
  0
SPLINE
  5
4C1
100
AcDbEntity
  8
0
100
AcDbSpline
 62
7
  6
CONTINUOUS
 70
0
 71
3
 72
10
 73
6
 74
0
 42
0.0000001
 43
0.0000001
 44
0.0000000001
 40
0.0
 40
0.0
 40
0.0
 40
0.0
 40
0.2501131752
 40
0.5002546905
 40
1.0
 40
1.0
 40
1.0
 40
1.0
 10
289.462954658
 20
171.6705633993
 30
0.0
 10
289.5601567922
 20
171.5022043642
 30
0.0
 10
289.7285203166
 20
171.1496750662
 30
0.0
 10
289.9579562671
 20
170.4048806916
 30
0.0
 10
290.024853733
 20
169.8206309564
 30
0.0
 10
290.0405378095
 20
169.4325130883
 30
0.0
  0
SPLINE
  5
4C2
100
AcDbEntity
  8
0
100
AcDbSpline
 62
7
  6
CONTINUOUS
 70
0
 71
3
 72
10
 73
6
 74
0
 42
0.0000001
 43
0.0000001
 44
0.0000000001
 40
0.0
 40
0.0
 40
0.0
 40
0.0
 40
0.4997453095
 40
0.7498868248
 40
1.0
 40
1.0
 40
1.0
 40
1.0
 10
306.2376182927
 20
178.7839018654
 30
0.0
 10
305.9093403975
 20
178.991543608
 30
0.0
 10
305.4368140176
 20
179.3416033806
 30
0.0
 10
304.9065211439
 20
179.9126979296
 30
0.0
 10
304.6854035784
 20
180.2347696678
 30
0.0
 10
304.5882014442
 20
180.4031287028
 30
0.0
  0
SPLINE
  5
4C3
100
AcDbEntity
  8
0
100
AcDbSpline
 62
7
  6
CONTINUOUS
 70
0
 71
3
 72
11
 73
7
 74
0
 42
0.0000001
 43
0.0000001
 44
0.0000000001
 40
0.0
 40
0.0
 40
0.0
 40
0.0
 40
0.2558252066
 40
0.507988463
 40
0.755860403
 40
1.0
 40
1.0
 40
1.0
 40
1.0
 10
290.0405378095
 20
169.4325130883
 30
0.0
 10
290.224587716
 20
169.3559466185
 30
0.0
 10
290.5852541112
 20
169.191727774
 30
0.0
 10
291.0961889508
 20
168.8960998732
 30
0.0
 10
291.554728423
 20
168.5372008997
 30
0.0
 10
291.8082970578
 20
168.2450686078
 30
0.0
 10
291.9157801406
 20
168.0881071882
 30
0.0
  0
SPLINE
  5
4C4
100
AcDbEntity
  8
0
100
AcDbSpline
 62
7
  6
CONTINUOUS
 70
0
 71
3
 72
11
 73
7
 74
0
 42
0.0000001
 43
0.0000001
 44
0.0000000001
 40
0.0
 40
0.0
 40
0.0
 40
0.0
 40
0.2441398041
 40
0.4920116447
 40
0.744174815
 40
1.0
 40
1.0
 40
1.0
 40
1.0
 10
306.4642867896
 20
176.4876914183
 30
0.0
 10
306.3820956842
 20
176.6592553545
 30
0.0
 10
306.2558859084
 20
177.0249184444
 30
0.0
 10
306.1743402279
 20
177.6014748164
 30
0.0
 10
306.1737863531
 20
178.1917711482
 30
0.0
 10
306.2119018495
 20
178.5862267518
 30
0.0
 10
306.2376182927
 20
178.7839018654
 30
0.0
  0
SPLINE
  5
4C5
100
AcDbEntity
  8
0
100
AcDbSpline
 62
7
  6
CONTINUOUS
 70
0
 71
3
 72
14
 73
10
 74
0
 42
0.0000001
 43
0.0000001
 44
0.0000000001
 40
0.0
 40
0.0
 40
0.0
 40
0.0
 40
0.0169379324
 40
0.0643667009
 40
0.1433012366
 40
0.2535629928
 40
0.3948064114
 40
0.5666036338
 40
1.0
 40
1.0
 40
1.0
 40
1.0
 10
152.45597123
 20
165.6691387403
 30
0.0
 10
152.4545097104
 20
165.669982549
 30
0.0
 10
152.4591025856
 20
165.6783881689
 30
0.0
 10
152.4642627333
 20
165.6884822239
 30
0.0
 10
152.4780001128
 20
165.7096859902
 30
0.0
 10
152.4953663793
 20
165.736776836
 30
0.0
 10
152.5182600477
 20
165.7725411848
 30
0.0
 10
152.5571736159
 20
165.8357596643
 30
0.0
 10
152.5869153519
 20
165.8883366696
 30
0.0
 10
152.6069883597
 20
165.9265691965
 30
0.0
  0
SPLINE
  5
4C6
100
AcDbEntity
  8
0
100
AcDbSpline
 62
7
  6
CONTINUOUS
 70
0
 71
3
 72
11
 73
7
 74
0
 42
0.0000001
 43
0.0000001
 44
0.0000000001
 40
0.0
 40
0.0
 40
0.0
 40
0.0
 40
0.3160601619
 40
0.6042233606
 40
0.8390981755
 40
1.0
 40
1.0
 40
1.0
 40
1.0
 10
154.2250396011
 20
168.8046901031
 30
0.0
 10
154.4012892953
 20
169.1099635283
 30
0.0
 10
154.7397189046
 20
169.6927060568
 30
0.0
 10
155.2139846857
 20
170.4994856664
 30
0.0
 10
155.6054491274
 20
171.1541541441
 30
0.0
 10
155.835651521
 20
171.5308334477
 30
0.0
 10
155.9321090449
 20
171.682158117
 30
0.0
  0
SPLINE
  5
4C7
100
AcDbEntity
  8
0
100
AcDbSpline
 62
7
  6
CONTINUOUS
 70
0
 71
3
 72
11
 73
7
 74
0
 42
0.0000001
 43
0.0000001
 44
0.0000000001
 40
0.0
 40
0.0
 40
0.0
 40
0.0
 40
0.3932532929
 40
0.6919061664
 40
0.8943356919
 40
1.0
 40
1.0
 40
1.0
 40
1.0
 10
155.9570743145
 20
171.7211165587
 30
0.0
 10
155.971757689
 20
171.7438931498
 30
0.0
 10
155.9981133496
 20
171.7835869376
 30
0.0
 10
156.0334373356
 20
171.8342504894
 30
0.0
 10
156.0590511088
 20
171.8670264504
 30
0.0
 10
156.0726124445
 20
171.8837688535
 30
0.0
 10
156.0784881647
 20
171.8880693963
 30
0.0
  0
SPLINE
  5
4C8
100
AcDbEntity
  8
0
100
AcDbSpline
 62
7
  6
CONTINUOUS
 70
0
 71
3
 72
9
 73
5
 74
0
 42
0.0000001
 43
0.0000001
 44
0.0000000001
 40
0.0
 40
0.0
 40
0.0
 40
0.0
 40
0.6412891437
 40
1.0
 40
1.0
 40
1.0
 40
1.0
 10
156.0784881647
 20
171.8880693963
 30
0.0
 10
156.0791845389
 20
171.8885790848
 30
0.0
 10
156.0802408035
 20
171.8893448678
 30
0.0
 10
156.0817591334
 20
171.8896345195
 30
0.0
 10
156.0821771731
 20
171.8893931642
 30
0.0
  0
LINE
  5
4C9
100
AcDbEntity
  8
0
100
AcDbLine
 62
7
  6
CONTINUOUS
 10
146.2623759616
 20
168.0881071882
 11
144.0456581905
 21
164.8668189345
  0
SPLINE
  5
4CA
100
AcDbEntity
  8
KONSTRUKTIONSELEMENTE
100
AcDbSpline
 62
7
  6
CONTINUOUS
 70
0
 71
3
 72
10
 73
6
 74
0
 42
0.0000001
 43
0.0000001
 44
0.0000000001
 40
0.0
 40
0.0
 40
0.0
 40
0.0
 40
0.2501131752
 40
0.5002546905
 40
1.0
 40
1.0
 40
1.0
 40
1.0
 10
148.7152014442
 20
171.6705633993
 30
0.0
 10
148.61799931
 20
171.5022043642
 30
0.0
 10
148.4496357856
 20
171.1496750662
 30
0.0
 10
148.2201998351
 20
170.4048806916
 30
0.0
 10
148.1533023691
 20
169.8206309564
 30
0.0
 10
148.1376182927
 20
169.4325130883
 30
0.0
  0
SPLINE
  5
4CB
100
AcDbEntity
  8
KONSTRUKTIONSELEMENTE
100
AcDbSpline
 62
7
  6
CONTINUOUS
 70
0
 71
3
 72
11
 73
7
 74
0
 42
0.0000001
 43
0.0000001
 44
0.0000000001
 40
0.0
 40
0.0
 40
0.0
 40
0.0
 40
0.2558252066
 40
0.507988463
 40
0.755860403
 40
1.0
 40
1.0
 40
1.0
 40
1.0
 10
148.1376182927
 20
169.4325130883
 30
0.0
 10
147.9535683862
 20
169.3559466185
 30
0.0
 10
147.592901991
 20
169.191727774
 30
0.0
 10
147.0819671514
 20
168.8960998732
 30
0.0
 10
146.6234276791
 20
168.5372008997
 30
0.0
 10
146.3698590444
 20
168.2450686078
 30
0.0
 10
146.2623759616
 20
168.0881071882
 30
0.0
  0
SPLINE
  5
4CC
100
AcDbEntity
  8
KONSTRUKTIONSELEMENTE
100
AcDbSpline
 62
7
  6
CONTINUOUS
 70
0
 71
3
 72
10
 73
6
 74
0
 42
0.0000001
 43
0.0000001
 44
0.0000000001
 40
0.0
 40
0.0
 40
0.0
 40
0.0
 40
0.4997453095
 40
0.7498868248
 40
1.0
 40
1.0
 40
1.0
 40
1.0
 10
131.9405378095
 20
178.7839018654
 30
0.0
 10
132.2688157047
 20
178.991543608
 30
0.0
 10
132.7413420846
 20
179.3416033806
 30
0.0
 10
133.2716349583
 20
179.9126979296
 30
0.0
 10
133.4927525238
 20
180.2347696678
 30
0.0
 10
133.589954658
 20
180.4031287028
 30
0.0
  0
LINE
  5
4CD
100
AcDbEntity
  8
0
100
AcDbLine
 62
7
  6
CONTINUOUS
 10
130.0325107375
 20
172.9573133887
 11
131.7138693126
 21
176.4876914183
  0
SPLINE
  5
4CE
100
AcDbEntity
  8
KONSTRUKTIONSELEMENTE
100
AcDbSpline
 62
7
  6
CONTINUOUS
 70
0
 71
3
 72
17
 73
13
 74
0
 42
0.0000001
 43
0.0000001
 44
0.0000000001
 40
0.0
 40
0.0
 40
0.0
 40
0.0
 40
0.0622821369
 40
0.1247423667
 40
0.1872623249
 40
0.2497904868
 40
0.3123209288
 40
0.3748517182
 40
0.4998832918
 40
0.6249258464
 40
0.7499729332
 40
1.0
 40
1.0
 40
1.0
 40
1.0
 10
135.4253955045
 20
183.5822055033
 30
0.0
 10
135.4907226436
 20
183.6953554272
 30
0.0
 10
135.6761076061
 20
183.892321773
 30
0.0
 10
136.0293149456
 20
184.0729719937
 30
0.0
 10
136.4087502088
 20
184.1819415
 30
0.0
 10
136.7981175835
 20
184.2431767512
 30
0.0
 10
137.190975686
 20
184.2712401802
 30
0.0
 10
137.715859785
 20
184.2751731329
 30
0.0
 10
138.371029904
 20
184.230654976
 30
0.0
 10
139.150684526
 20
184.1201325898
 30
0.0
 10
140.1790691523
 20
183.9102760754
 30
0.0
 10
140.9366906554
 20
183.691694912
 30
0.0
 10
141.4334157386
 20
183.5232711945
 30
0.0
  0
SPLINE
  5
4CF
100
AcDbEntity
  8
KONSTRUKTIONSELEMENTE
100
AcDbSpline
 62
7
  6
CONTINUOUS
 70
0
 71
3
 72
17
 73
13
 74
0
 42
0.0000001
 43
0.0000001
 44
0.0000000001
 40
0.0
 40
0.0
 40
0.0
 40
0.0
 40
0.2500270185
 40
0.3750740826
 40
0.5001166152
 40
0.6251481648
 40
0.68767894
 40
0.750209361
 40
0.8127375002
 40
0.8752574138
 40
0.9377177047
 40
1.0
 40
1.0
 40
1.0
 40
1.0
 10
147.4955935651
 20
180.0232711945
 30
0.0
 10
147.8898152532
 20
179.6773065753
 30
0.0
 10
148.457922747
 20
179.1304777898
 30
0.0
 10
149.1538560324
 20
178.3447989908
 30
0.0
 10
149.6393984796
 20
177.7248596014
 30
0.0
 10
150.0055373657
 20
177.1797248366
 30
0.0
 10
150.264573349
 20
176.7231955162
 30
0.0
 10
150.436698782
 20
176.368938849
 30
0.0
 10
150.5783512369
 20
176.0011193967
 30
0.0
 10
150.673698737
 20
175.6180341565
 30
0.0
 10
150.6938552214
 20
175.2218221353
 30
0.0
 10
150.6159695966
 20
174.9627904127
 30
0.0
 10
150.5506422907
 20
174.8496401997
 30
0.0
  0
SPLINE
  5
4D0
100
AcDbEntity
  8
KONSTRUKTIONSELEMENTE
100
AcDbSpline
 62
7
  6
CONTINUOUS
 70
0
 71
3
 72
11
 73
7
 74
0
 42
0.0000001
 43
0.0000001
 44
0.0000000001
 40
0.0
 40
0.0
 40
0.0
 40
0.0
 40
0.2441398041
 40
0.4920116447
 40
0.744174815
 40
1.0
 40
1.0
 40
1.0
 40
1.0
 10
131.7138693126
 20
176.4876914183
 30
0.0
 10
131.7960604179
 20
176.6592553545
 30
0.0
 10
131.9222701937
 20
177.0249184444
 30
0.0
 10
132.0038158743
 20
177.6014748164
 30
0.0
 10
132.0043697491
 20
178.1917711482
 30
0.0
 10
131.9662542527
 20
178.5862267518
 30
0.0
 10
131.9405378095
 20
178.7839018654
 30
0.0
  0
SPLINE
  5
4D1
100
AcDbEntity
  8
RUNDUNGEN
100
AcDbSpline
 62
7
  6
CONTINUOUS
 70
0
 71
3
 72
15
 73
11
 74
0
 42
0.0000001
 43
0.0000001
 44
0.0000000001
 40
0.0
 40
0.0
 40
0.0
 40
0.0
 40
0.1239934795
 40
0.1688462495
 40
0.2198416452
 40
0.3399640357
 40
0.4825524953
 40
0.6437730352
 40
0.8184322725
 40
1.0
 40
1.0
 40
1.0
 40
1.0
 10
153.2247916725
 20
167.1746677788
 30
0.0
 10
153.1753116434
 20
167.0996142982
 30
0.0
 10
153.0339027628
 20
167.0618573083
 30
0.0
 10
152.8776445658
 20
167.0589658599
 30
0.0
 10
152.7204248028
 20
167.0699869743
 30
0.0
 10
152.4968252388
 20
167.1126602012
 30
0.0
 10
152.2015574112
 20
167.1997725113
 30
0.0
 10
151.8773828403
 20
167.3239937142
 30
0.0
 10
151.5363660946
 20
167.4808506105
 30
0.0
 10
151.3080744528
 20
167.6020493708
 30
0.0
 10
151.1940728362
 20
167.6678682348
 30
0.0
  0
SPLINE
  5
4D2
100
AcDbEntity
  8
RUNDUNGEN
100
AcDbSpline
 62
7
  6
CONTINUOUS
 70
0
 71
3
 72
15
 73
11
 74
0
 42
0.0000001
 43
0.0000001
 44
0.0000000001
 40
0.0
 40
0.0
 40
0.0
 40
0.0
 40
0.1240344084
 40
0.1688753321
 40
0.2198525669
 40
0.3399257028
 40
0.4824645796
 40
0.6436586638
 40
0.8183390547
 40
1.0
 40
1.0
 40
1.0
 40
1.0
 10
127.4415997238
 20
182.060600591
 30
0.0
 10
127.4014304484
 20
181.9804004439
 30
0.0
 10
127.4391707728
 20
181.839400717
 30
0.0
 10
127.5144968646
 20
181.7028974567
 30
0.0
 10
127.6022870588
 20
181.572561426
 30
0.0
 10
127.7504858451
 20
181.4006464207
 30
0.0
 10
127.9727701824
 20
181.1889281985
 30
0.0
 10
128.2415854289
 20
180.9707045149
 30
0.0
 10
128.547063026
 20
180.7541219538
 30
0.0
 10
128.7654984539
 20
180.617011692
 30
0.0
 10
128.8792690845
 20
180.5513261878
 30
0.0
  0
SPLINE
  5
4D3
100
AcDbEntity
  8
KONSTRUKTIONSELEMENTE
100
AcDbSpline
 62
7
  6
CONTINUOUS
 70
0
 71
3
 72
9
 73
5
 74
0
 42
0.0000001
 43
0.0000001
 44
0.0000000001
 40
0.0
 40
0.0
 40
0.0
 40
0.0
 40
0.272606519
 40
1.0
 40
1.0
 40
1.0
 40
1.0
 10
522.7902648379
 20
186.4430988128
 30
0.0
 10
522.7950546702
 20
186.4648757013
 30
0.0
 10
522.8171212762
 20
186.5435121401
 30
0.0
 10
522.8630250341
 20
186.6168475893
 30
0.0
 10
522.9080423359
 20
186.6557477156
 30
0.0
  0
SPLINE
  5
4D4
100
AcDbEntity
  8
KONSTRUKTIONSELEMENTE
100
AcDbSpline
 62
7
  6
CONTINUOUS
 70
0
 71
3
 72
9
 73
5
 74
0
 42
0.0000001
 43
0.0000001
 44
0.0000000001
 40
0.0
 40
0.0
 40
0.0
 40
0.0
 40
0.546991612
 40
1.0
 40
1.0
 40
1.0
 40
1.0
 10
525.9574222475
 20
182.9278108548
 30
0.0
 10
525.9574222475
 20
182.8562254163
 30
0.0
 10
525.9425170286
 20
182.7233367199
 30
0.0
 10
525.8696798351
 20
182.606685027
 30
0.0
 10
525.8248216437
 20
182.5679223905
 30
0.0
  0
SPLINE
  5
4D5
100
AcDbEntity
  8
KONSTRUKTIONSELEMENTE
100
AcDbSpline
 62
7
  6
CONTINUOUS
 70
0
 71
3
 72
9
 73
5
 74
0
 42
0.0000001
 43
0.0000001
 44
0.0000000001
 40
0.0
 40
0.0
 40
0.0
 40
0.0
 40
0.4714729988
 40
1.0
 40
1.0
 40
1.0
 40
1.0
 10
526.1783750343
 20
182.8741086083
 30
0.0
 10
526.1470038165
 20
182.847000268
 30
0.0
 10
526.067757056
 20
182.8033452992
 30
0.0
 10
525.9792934422
 20
182.7903976603
 30
0.0
 10
525.9328404287
 20
182.7888647018
 30
0.0
  0
SPLINE
  5
4D6
100
AcDbEntity
  8
KONSTRUKTIONSELEMENTE
100
AcDbSpline
 62
7
  6
CONTINUOUS
 70
0
 71
3
 72
9
 73
5
 74
0
 42
0.0000001
 43
0.0000001
 44
0.0000000001
 40
0.0
 40
0.0
 40
0.0
 40
0.0
 40
0.4820003923
 40
1.0
 40
1.0
 40
1.0
 40
1.0
 10
534.6880545701
 20
183.6963715259
 30
0.0
 10
534.6878684038
 20
183.5403057971
 30
0.0
 10
534.64578119
 20
183.215340109
 30
0.0
 10
534.52301728
 20
182.9116019978
 30
0.0
 10
534.4425302114
 20
182.7644541707
 30
0.0
  0
SPLINE
  5
4D7
100
AcDbEntity
  8
KONSTRUKTIONSELEMENTE
100
AcDbSpline
 62
7
  6
CONTINUOUS
 70
0
 71
3
 72
9
 73
5
 74
0
 42
0.0000001
 43
0.0000001
 44
0.0000000001
 40
0.0
 40
0.0
 40
0.0
 40
0.0
 40
0.2343643836
 40
1.0
 40
1.0
 40
1.0
 40
1.0
 10
534.4104799902
 20
182.7078445385
 30
0.0
 10
534.3770720547
 20
182.6507833515
 30
0.0
 10
534.2239342542
 20
182.4135958134
 30
0.0
 10
534.0300178935
 20
182.2033690551
 30
0.0
 10
533.8667296168
 20
182.0619572593
 30
0.0
  0
SPLINE
  5
4D8
100
AcDbEntity
  8
KONSTRUKTIONSELEMENTE
100
AcDbSpline
 62
7
  6
CONTINUOUS
 70
0
 71
3
 72
9
 73
5
 74
0
 42
0.0000001
 43
0.0000001
 44
0.0000000001
 40
0.0
 40
0.0
 40
0.0
 40
0.0
 40
0.4959270657
 40
1.0
 40
1.0
 40
1.0
 40
1.0
 10
525.7350016331
 20
189.1042402698
 30
0.0
 10
526.3571220672
 20
189.6430123699
 30
0.0
 10
527.7883565285
 20
190.5375516605
 30
0.0
 10
529.4120748369
 20
190.9845080278
 30
0.0
 10
530.2413669633
 20
191.0941294299
 30
0.0
  0
SPLINE
  5
4D9
100
AcDbEntity
  8
KONSTRUKTIONSELEMENTE
100
AcDbSpline
 62
7
  6
CONTINUOUS
 70
0
 71
3
 72
11
 73
7
 74
0
 42
0.0000001
 43
0.0000001
 44
0.0000000001
 40
0.0
 40
0.0
 40
0.0
 40
0.0
 40
0.2544415708
 40
0.5052707429
 40
0.7533584052
 40
1.0
 40
1.0
 40
1.0
 40
1.0
 10
536.2651677073
 20
189.7631501853
 30
0.0
 10
536.7796346889
 20
189.4272248779
 30
0.0
 10
537.7307091256
 20
188.6427053924
 30
0.0
 10
538.8317687292
 20
187.1723595178
 30
0.0
 10
539.5280708137
 20
185.4914528194
 30
0.0
 10
539.6872166853
 20
184.2910512213
 30
0.0
 10
539.6874880728
 20
183.6954584892
 30
0.0
  0
SPLINE
  5
4DA
100
AcDbEntity
  8
KONSTRUKTIONSELEMENTE
100
AcDbSpline
 62
7
  6
CONTINUOUS
 70
0
 71
3
 72
11
 73
7
 74
0
 42
0.0000001
 43
0.0000001
 44
0.0000000001
 40
0.0
 40
0.0
 40
0.0
 40
0.0
 40
0.2474803687
 40
0.4959793074
 40
0.7466457809
 40
1.0
 40
1.0
 40
1.0
 40
1.0
 10
539.6874880728
 20
183.6954584892
 30
0.0
 10
539.687719602
 20
183.1873395097
 30
0.0
 10
539.572627731
 20
182.1654074534
 30
0.0
 10
539.0654731178
 20
180.7061235283
 30
0.0
 10
538.2507816671
 20
179.379999547
 30
0.0
 10
537.5332163639
 20
178.6228496473
 30
0.0
 10
537.1399979703
 20
178.2823125292
 30
0.0
  0
SPLINE
  5
4DB
100
AcDbEntity
  8
KONSTRUKTIONSELEMENTE
100
AcDbSpline
 62
7
  6
CONTINUOUS
 70
0
 71
3
 72
9
 73
5
 74
0
 42
0.0000001
 43
0.0000001
 44
0.0000000001
 40
0.0
 40
0.0
 40
0.0
 40
0.0
 40
0.5226045408
 40
1.0
 40
1.0
 40
1.0
 40
1.0
 10
534.3921136515
 20
184.7093853428
 30
0.0
 10
534.4879749249
 20
184.5504911047
 30
0.0
 10
534.635746792
 20
184.2224973901
 30
0.0
 10
534.6882567833
 20
183.8658895785
 30
0.0
 10
534.6880545701
 20
183.6963715259
 30
0.0
  0
SPLINE
  5
4DC
100
AcDbEntity
  8
KONSTRUKTIONSELEMENTE
100
AcDbSpline
 62
7
  6
CONTINUOUS
 70
0
 71
3
 72
9
 73
5
 74
0
 42
0.0000001
 43
0.0000001
 44
0.0000000001
 40
0.0
 40
0.0
 40
0.0
 40
0.0
 40
0.488764655
 40
1.0
 40
1.0
 40
1.0
 40
1.0
 10
527.8563219767
 20
176.8567915558
 30
0.0
 10
527.2947120204
 20
176.3704230667
 30
0.0
 10
525.7692735326
 20
175.8000451877
 30
0.0
 10
524.1819480178
 20
176.1152158863
 30
0.0
 10
523.5063308899
 20
176.4991694326
 30
0.0
  0
SPLINE
  5
4DD
100
AcDbEntity
  8
KONSTRUKTIONSELEMENTE
100
AcDbSpline
 62
7
  6
CONTINUOUS
 70
0
 71
3
 72
11
 73
7
 74
0
 42
0.0000001
 43
0.0000001
 44
0.0000000001
 40
0.0
 40
0.0
 40
0.0
 40
0.0
 40
0.2474803687
 40
0.4959793074
 40
0.7466457809
 40
1.0
 40
1.0
 40
1.0
 40
1.0
 10
517.1771038905
 20
178.4859286063
 30
0.0
 10
517.1768723613
 20
178.9940475858
 30
0.0
 10
517.2919642324
 20
180.0159796421
 30
0.0
 10
517.7991188455
 20
181.4752635672
 30
0.0
 10
518.6138102963
 20
182.8013875485
 30
0.0
 10
519.3313755994
 20
183.5585374483
 30
0.0
 10
519.724593993
 20
183.8990745663
 30
0.0
  0
SPLINE
  5
4DE
100
AcDbEntity
  8
KONSTRUKTIONSELEMENTE
100
AcDbSpline
 62
7
  6
CONTINUOUS
 70
0
 71
3
 72
15
 73
11
 74
0
 42
0.0000001
 43
0.0000001
 44
0.0000000001
 40
0.0
 40
0.0
 40
0.0
 40
0.0
 40
0.12323614
 40
0.2480335987
 40
0.373900227
 40
0.5003927364
 40
0.6268181839
 40
0.7525256837
 40
0.877011671
 40
1.0
 40
1.0
 40
1.0
 40
1.0
 10
531.1295903302
 20
173.0771468257
 30
0.0
 10
530.7365922267
 20
172.7368004844
 30
0.0
 10
529.8758744926
 20
172.1285559804
 30
0.0
 10
528.4334104849
 20
171.4698549296
 30
0.0
 10
526.8825878674
 20
171.0777118088
 30
0.0
 10
525.2805912503
 20
170.9627398136
 30
0.0
 10
523.683687206
 20
171.1286298521
 30
0.0
 10
522.1486345489
 20
171.5705730349
 30
0.0
 10
520.7314291789
 20
172.2754363304
 30
0.0
 10
519.8944290056
 20
172.912243774
 30
0.0
 10
519.5145910405
 20
173.2656845044
 30
0.0
  0
SPLINE
  5
4DF
100
AcDbEntity
  8
KONSTRUKTIONSELEMENTE
100
AcDbSpline
 62
7
  6
CONTINUOUS
 70
0
 71
3
 72
9
 73
5
 74
0
 42
0.0000001
 43
0.0000001
 44
0.0000000001
 40
0.0
 40
0.0
 40
0.0
 40
0.0
 40
0.4702695548
 40
1.0
 40
1.0
 40
1.0
 40
1.0
 10
522.5544889453
 20
186.3495614977
 30
0.0
 10
522.5866663081
 20
186.3773664399
 30
0.0
 10
522.6685204772
 20
186.4218448282
 30
0.0
 10
522.7596851702
 20
186.4340286292
 30
0.0
 10
522.8075786532
 20
186.4350070279
 30
0.0
  0
SPLINE
  5
4E0
100
AcDbEntity
  8
KONSTRUKTIONSELEMENTE
100
AcDbSpline
 62
7
  6
CONTINUOUS
 70
0
 71
3
 72
15
 73
11
 74
0
 42
0.0000001
 43
0.0000001
 44
0.0000000001
 40
0.0
 40
0.0
 40
0.0
 40
0.0
 40
0.082699247
 40
0.1957940838
 40
0.333737466
 40
0.4862052534
 40
0.6408263759
 40
0.7848058501
 40
0.9071588123
 40
1.0
 40
1.0
 40
1.0
 40
1.0
 10
522.8075786532
 20
186.4350070279
 30
0.0
 10
522.943902764
 20
186.4377919441
 30
0.0
 10
523.2641771044
 20
186.3466941472
 30
0.0
 10
523.7426613733
 20
186.0741873933
 30
0.0
 10
524.2666338821
 20
185.6597207095
 30
0.0
 10
524.7856513252
 20
185.1393095579
 30
0.0
 10
525.2533632905
 20
184.5594165068
 30
0.0
 10
525.6277258312
 20
183.9722509105
 30
0.0
 10
525.8744994955
 20
183.4330814289
 30
0.0
 10
525.9574222475
 20
183.0808851997
 30
0.0
 10
525.9574222475
 20
182.9278108548
 30
0.0
  0
SPLINE
  5
4E1
100
AcDbEntity
  8
KONSTRUKTIONSELEMENTE
100
AcDbSpline
 62
7
  6
CONTINUOUS
 70
0
 71
3
 72
19
 73
15
 74
0
 42
0.0000001
 43
0.0000001
 44
0.0000000001
 40
0.0
 40
0.0
 40
0.0
 40
0.0
 40
0.0298938292
 40
0.0650835855
 40
0.108466288
 40
0.1609985436
 40
0.2222349321
 40
0.2911550146
 40
0.4456854225
 40
0.6095823449
 40
0.7660354067
 40
0.8997960834
 40
0.9545408033
 40
1.0
 40
1.0
 40
1.0
 40
1.0
 10
522.9080423359
 20
186.6557477156
 30
0.0
 10
522.9474019873
 20
186.6897589811
 30
0.0
 10
523.0540385239
 20
186.7406304528
 30
0.0
 10
523.2458723881
 20
186.7463277231
 30
0.0
 10
523.4698044855
 20
186.6953749946
 30
0.0
 10
523.7227983267
 20
186.5890943138
 30
0.0
 10
523.999540385
 20
186.4315069375
 30
0.0
 10
524.4051815334
 20
186.146135994
 30
0.0
 10
524.9089027438
 20
185.6948115316
 30
0.0
 10
525.4554489335
 20
185.0724923276
 30
0.0
 10
525.9036955378
 20
184.4198462828
 30
0.0
 10
526.173144177
 20
183.8788372294
 30
0.0
 10
526.2879841934
 20
183.4873575553
 30
0.0
 10
526.3109756381
 20
183.3131013486
 30
0.0
 10
526.3109756381
 20
183.2339970727
 30
0.0
  0
SPLINE
  5
4E2
100
AcDbEntity
  8
KONSTRUKTIONSELEMENTE
100
AcDbSpline
 62
7
  6
CONTINUOUS
 70
0
 71
3
 72
9
 73
5
 74
0
 42
0.0000001
 43
0.0000001
 44
0.0000000001
 40
0.0
 40
0.0
 40
0.0
 40
0.0
 40
0.546991612
 40
1.0
 40
1.0
 40
1.0
 40
1.0
 10
526.3109756381
 20
183.2339970727
 30
0.0
 10
526.3109756381
 20
183.1624116341
 30
0.0
 10
526.2960704192
 20
183.0295229378
 30
0.0
 10
526.2232332257
 20
182.9128712449
 30
0.0
 10
526.1783750343
 20
182.8741086083
 30
0.0
  0
LINE
  5
4E3
100
AcDbEntity
  8
KONSTRUKTIONSELEMENTE
100
AcDbLine
 62
7
  6
CONTINUOUS
 10
563.4506481839
 20
211.8312700013
 11
563.489119365
 21
211.9757027988
  0
LINE
  5
4E4
100
AcDbEntity
  8
KONSTRUKTIONSELEMENTE
100
AcDbLine
 62
7
  6
CONTINUOUS
 10
563.4229524198
 20
211.7271011292
 11
563.4506481839
 21
211.8312700013
  0
LINE
  5
4E5
100
AcDbEntity
  8
KONSTRUKTIONSELEMENTE
100
AcDbLine
 62
7
  6
CONTINUOUS
 10
563.3391313669
 20
211.4116717762
 11
563.4229524198
 21
211.7271011292
  0
LINE
  5
4E6
100
AcDbEntity
  8
KONSTRUKTIONSELEMENTE
100
AcDbLine
 62
7
  6
CONTINUOUS
 10
563.0850340848
 20
210.4560300776
 11
563.3391313669
 21
211.4116717762
  0
LINE
  5
4E7
100
AcDbEntity
  8
KONSTRUKTIONSELEMENTE
100
AcDbLine
 62
7
  6
CONTINUOUS
 10
563.0768715434
 20
210.4253887953
 11
563.0850340848
 21
210.4560300776
  0
SPLINE
  5
4E8
100
AcDbEntity
  8
KONSTRUKTIONSELEMENTE
100
AcDbSpline
 62
7
  6
CONTINUOUS
 70
0
 71
3
 72
9
 73
5
 74
0
 42
0.0000001
 43
0.0000001
 44
0.0000000001
 40
0.0
 40
0.0
 40
0.0
 40
0.0
 40
0.272606519
 40
1.0
 40
1.0
 40
1.0
 40
1.0
 10
465.5146155617
 20
136.8409315214
 30
0.0
 10
465.5194053941
 20
136.86270841
 30
0.0
 10
465.5414720001
 20
136.9413448488
 30
0.0
 10
465.587375758
 20
137.0146802979
 30
0.0
 10
465.6323930598
 20
137.0535804242
 30
0.0
  0
SPLINE
  5
4E9
100
AcDbEntity
  8
KONSTRUKTIONSELEMENTE
100
AcDbSpline
 62
7
  6
CONTINUOUS
 70
0
 71
3
 72
9
 73
5
 74
0
 42
0.0000001
 43
0.0000001
 44
0.0000000001
 40
0.0
 40
0.0
 40
0.0
 40
0.0
 40
0.546991612
 40
1.0
 40
1.0
 40
1.0
 40
1.0
 10
468.6817729714
 20
133.3256435635
 30
0.0
 10
468.6817729714
 20
133.2540581249
 30
0.0
 10
468.6668677525
 20
133.1211694286
 30
0.0
 10
468.594030559
 20
133.0045177357
 30
0.0
 10
468.5491723676
 20
132.9657550991
 30
0.0
  0
SPLINE
  5
4EA
100
AcDbEntity
  8
KONSTRUKTIONSELEMENTE
100
AcDbSpline
 62
7
  6
CONTINUOUS
 70
0
 71
3
 72
9
 73
5
 74
0
 42
0.0000001
 43
0.0000001
 44
0.0000000001
 40
0.0
 40
0.0
 40
0.0
 40
0.0
 40
0.4714729988
 40
1.0
 40
1.0
 40
1.0
 40
1.0
 10
468.9027257582
 20
133.2719413169
 30
0.0
 10
468.8713545404
 20
133.2448329766
 30
0.0
 10
468.7921077799
 20
133.2011780078
 30
0.0
 10
468.7036441661
 20
133.188230369
 30
0.0
 10
468.6571911526
 20
133.1866974104
 30
0.0
  0
SPLINE
  5
4EB
100
AcDbEntity
  8
KONSTRUKTIONSELEMENTE
100
AcDbSpline
 62
7
  6
CONTINUOUS
 70
0
 71
3
 72
10
 73
6
 74
0
 42
0.0000001
 43
0.0000001
 44
0.0000000001
 40
0.0
 40
0.0
 40
0.0
 40
0.0
 40
0.2209805831
 40
0.4552103493
 40
1.0
 40
1.0
 40
1.0
 40
1.0
 10
477.412405294
 20
134.0942042346
 30
0.0
 10
477.4122402726
 20
133.9558645375
 30
0.0
 10
477.3792783824
 20
133.6698564153
 30
0.0
 10
477.1692660444
 20
133.0757295732
 30
0.0
 10
476.8488921688
 20
132.6830615605
 30
0.0
 10
476.5910803406
 20
132.4597899679
 30
0.0
  0
SPLINE
  5
4EC
100
AcDbEntity
  8
KONSTRUKTIONSELEMENTE
100
AcDbSpline
 62
7
  6
CONTINUOUS
 70
0
 71
3
 72
11
 73
7
 74
0
 42
0.0000001
 43
0.0000001
 44
0.0000000001
 40
0.0
 40
0.0
 40
0.0
 40
0.0
 40
0.2461843966
 40
0.4959426729
 40
0.7478763254
 40
1.0
 40
1.0
 40
1.0
 40
1.0
 10
468.459352357
 20
139.5020729784
 30
0.0
 10
468.9578128202
 20
139.9337524023
 30
0.0
 10
470.0750060602
 20
140.6802858954
 30
0.0
 10
471.9695156847
 20
141.381172746
 30
0.0
 10
473.9876645574
 20
141.6444340686
 30
0.0
 10
475.3451585325
 20
141.5190661989
 30
0.0
 10
476.0064437243
 20
141.3821545933
 30
0.0
  0
SPLINE
  5
4ED
100
AcDbEntity
  8
KONSTRUKTIONSELEMENTE
100
AcDbSpline
 62
7
  6
CONTINUOUS
 70
0
 71
3
 72
11
 73
7
 74
0
 42
0.0000001
 43
0.0000001
 44
0.0000000001
 40
0.0
 40
0.0
 40
0.0
 40
0.0
 40
0.2529889221
 40
0.5034781969
 40
0.7521869364
 40
1.0
 40
1.0
 40
1.0
 40
1.0
 10
480.1917617134
 20
139.2019904285
 30
0.0
 10
480.5375857827
 20
138.8665306938
 30
0.0
 10
481.1655387269
 20
138.1329352851
 30
0.0
 10
481.8731037859
 20
136.8769008058
 30
0.0
 10
482.312267229
 20
135.5136783386
 30
0.0
 10
482.4116237532
 20
134.5652303012
 30
0.0
 10
482.4118387967
 20
134.0932911979
 30
0.0
  0
SPLINE
  5
4EE
100
AcDbEntity
  8
KONSTRUKTIONSELEMENTE
100
AcDbSpline
 62
7
  6
CONTINUOUS
 70
0
 71
3
 72
11
 73
7
 74
0
 42
0.0000001
 43
0.0000001
 44
0.0000000001
 40
0.0
 40
0.0
 40
0.0
 40
0.0
 40
0.2474803687
 40
0.4959793074
 40
0.7466457809
 40
1.0
 40
1.0
 40
1.0
 40
1.0
 10
482.4118387967
 20
134.0932911979
 30
0.0
 10
482.4120703259
 20
133.5851722183
 30
0.0
 10
482.2969784549
 20
132.563240162
 30
0.0
 10
481.7898238417
 20
131.103956237
 30
0.0
 10
480.9751323909
 20
129.7778322556
 30
0.0
 10
480.2575670878
 20
129.0206823559
 30
0.0
 10
479.8643486942
 20
128.6801452378
 30
0.0
  0
SPLINE
  5
4EF
100
AcDbEntity
  8
KONSTRUKTIONSELEMENTE
100
AcDbSpline
 62
7
  6
CONTINUOUS
 70
0
 71
3
 72
9
 73
5
 74
0
 42
0.0000001
 43
0.0000001
 44
0.0000000001
 40
0.0
 40
0.0
 40
0.0
 40
0.0
 40
0.2350116989
 40
1.0
 40
1.0
 40
1.0
 40
1.0
 10
471.7326207105
 20
135.7224282483
 30
0.0
 10
471.8122234739
 20
135.7913662636
 30
0.0
 10
472.1668080164
 20
136.0661401233
 30
0.0
 10
472.5781160219
 20
136.265295748
 30
0.0
 10
472.9038112511
 20
136.3721560577
 30
0.0
  0
SPLINE
  5
4F0
100
AcDbEntity
  8
KONSTRUKTIONSELEMENTE
100
AcDbSpline
 62
7
  6
CONTINUOUS
 70
0
 71
3
 72
9
 73
5
 74
0
 42
0.0000001
 43
0.0000001
 44
0.0000000001
 40
0.0
 40
0.0
 40
0.0
 40
0.0
 40
0.2628117797
 40
1.0
 40
1.0
 40
1.0
 40
1.0
 10
477.2462330062
 20
134.8578010734
 30
0.0
 10
477.2739577214
 20
134.794899648
 30
0.0
 10
477.3680966583
 20
134.5507843405
 30
0.0
 10
477.4126353
 20
134.2870213612
 30
0.0
 10
477.412405294
 20
134.0942042346
 30
0.0
  0
SPLINE
  5
4F1
100
AcDbEntity
  8
KONSTRUKTIONSELEMENTE
100
AcDbSpline
 62
7
  6
CONTINUOUS
 70
0
 71
3
 72
9
 73
5
 74
0
 42
0.0000001
 43
0.0000001
 44
0.0000000001
 40
0.0
 40
0.0
 40
0.0
 40
0.0
 40
0.4922775071
 40
1.0
 40
1.0
 40
1.0
 40
1.0
 10
470.5806727006
 20
127.2546242645
 30
0.0
 10
469.9889386659
 20
126.7421675582
 30
0.0
 10
468.3738804326
 20
126.1686351927
 30
0.0
 10
466.7150740446
 20
126.5676937218
 30
0.0
 10
466.0416057352
 20
127.0129519208
 30
0.0
  0
SPLINE
  5
4F2
100
AcDbEntity
  8
KONSTRUKTIONSELEMENTE
100
AcDbSpline
 62
7
  6
CONTINUOUS
 70
0
 71
3
 72
12
 73
8
 74
0
 42
0.0000001
 43
0.0000001
 44
0.0000000001
 40
0.0
 40
0.0
 40
0.0
 40
0.0
 40
0.2474665087
 40
0.499339993
 40
0.7513208213
 40
0.8763674904
 40
1.0
 40
1.0
 40
1.0
 40
1.0
 10
473.8539410541
 20
123.4749795344
 30
0.0
 10
473.0917255721
 20
122.8148815638
 30
0.0
 10
471.2829042717
 20
121.7716003873
 30
0.0
 10
468.2140225098
 20
121.2314028126
 30
0.0
 10
465.6304197123
 20
121.6535623435
 30
0.0
 10
463.7629230116
 20
122.4955299051
 30
0.0
 10
462.9232568693
 20
123.0752489864
 30
0.0
 10
462.537630333
 20
123.3993691522
 30
0.0
  0
SPLINE
  5
4F3
100
AcDbEntity
  8
KONSTRUKTIONSELEMENTE
100
AcDbSpline
 62
7
  6
CONTINUOUS
 70
0
 71
3
 72
9
 73
5
 74
0
 42
0.0000001
 43
0.0000001
 44
0.0000000001
 40
0.0
 40
0.0
 40
0.0
 40
0.0
 40
0.4702695548
 40
1.0
 40
1.0
 40
1.0
 40
1.0
 10
465.2788396692
 20
136.7473942063
 30
0.0
 10
465.311017032
 20
136.7751991486
 30
0.0
 10
465.3928712011
 20
136.8196775369
 30
0.0
 10
465.4840358941
 20
136.8318613378
 30
0.0
 10
465.5319293771
 20
136.8328397365
 30
0.0
  0
SPLINE
  5
4F4
100
AcDbEntity
  8
KONSTRUKTIONSELEMENTE
100
AcDbSpline
 62
7
  6
CONTINUOUS
 70
0
 71
3
 72
15
 73
11
 74
0
 42
0.0000001
 43
0.0000001
 44
0.0000000001
 40
0.0
 40
0.0
 40
0.0
 40
0.0
 40
0.082699247
 40
0.1957940838
 40
0.333737466
 40
0.4862052534
 40
0.6408263759
 40
0.7848058501
 40
0.9071588123
 40
1.0
 40
1.0
 40
1.0
 40
1.0
 10
465.5319293771
 20
136.8328397365
 30
0.0
 10
465.6682534879
 20
136.8356246527
 30
0.0
 10
465.9885278283
 20
136.7445268558
 30
0.0
 10
466.4670120972
 20
136.4720201019
 30
0.0
 10
466.990984606
 20
136.0575534181
 30
0.0
 10
467.5100020491
 20
135.5371422666
 30
0.0
 10
467.9777140144
 20
134.9572492154
 30
0.0
 10
468.3520765551
 20
134.3700836191
 30
0.0
 10
468.5988502194
 20
133.8309141375
 30
0.0
 10
468.6817729714
 20
133.4787179083
 30
0.0
 10
468.6817729714
 20
133.3256435635
 30
0.0
  0
SPLINE
  5
4F5
100
AcDbEntity
  8
KONSTRUKTIONSELEMENTE
100
AcDbSpline
 62
7
  6
CONTINUOUS
 70
0
 71
3
 72
19
 73
15
 74
0
 42
0.0000001
 43
0.0000001
 44
0.0000000001
 40
0.0
 40
0.0
 40
0.0
 40
0.0
 40
0.0298938292
 40
0.0650835855
 40
0.108466288
 40
0.1609985436
 40
0.2222349321
 40
0.2911550146
 40
0.4456854225
 40
0.6095823449
 40
0.7660354067
 40
0.8997960834
 40
0.9545408033
 40
1.0
 40
1.0
 40
1.0
 40
1.0
 10
465.6323930598
 20
137.0535804242
 30
0.0
 10
465.6717527111
 20
137.0875916898
 30
0.0
 10
465.7783892478
 20
137.1384631614
 30
0.0
 10
465.970223112
 20
137.1441604318
 30
0.0
 10
466.1941552094
 20
137.0932077032
 30
0.0
 10
466.4471490506
 20
136.9869270224
 30
0.0
 10
466.7238911089
 20
136.8293396462
 30
0.0
 10
467.1295322573
 20
136.5439687026
 30
0.0
 10
467.6332534677
 20
136.0926442402
 30
0.0
 10
468.1797996574
 20
135.4703250363
 30
0.0
 10
468.6280462616
 20
134.8176789914
 30
0.0
 10
468.8974949009
 20
134.2766699381
 30
0.0
 10
469.0123349173
 20
133.8851902639
 30
0.0
 10
469.035326362
 20
133.7109340572
 30
0.0
 10
469.035326362
 20
133.6318297813
 30
0.0
  0
SPLINE
  5
4F6
100
AcDbEntity
  8
KONSTRUKTIONSELEMENTE
100
AcDbSpline
 62
7
  6
CONTINUOUS
 70
0
 71
3
 72
9
 73
5
 74
0
 42
0.0000001
 43
0.0000001
 44
0.0000000001
 40
0.0
 40
0.0
 40
0.0
 40
0.0
 40
0.546991612
 40
1.0
 40
1.0
 40
1.0
 40
1.0
 10
469.035326362
 20
133.6318297813
 30
0.0
 10
469.035326362
 20
133.5602443427
 30
0.0
 10
469.0204211431
 20
133.4273556464
 30
0.0
 10
468.9475839496
 20
133.3107039535
 30
0.0
 10
468.9027257582
 20
133.2719413169
 30
0.0
  0
SPLINE
  5
4F7
100
AcDbEntity
  8
KONSTRUKTIONSELEMENTE
100
AcDbSpline
 62
7
  6
CONTINUOUS
 70
0
 71
3
 72
14
 73
10
 74
0
 42
0.0000001
 43
0.0000001
 44
0.0000000001
 40
0.0
 40
0.0
 40
0.0
 40
0.0
 40
0.2728589459
 40
0.3975964918
 40
0.5162031563
 40
0.6324908632
 40
0.7508392564
 40
0.8737805946
 40
1.0
 40
1.0
 40
1.0
 40
1.0
 10
519.1811506295
 20
178.9304368836
 30
0.0
 10
519.6955426118
 20
179.3759134078
 30
0.0
 10
520.4886087714
 20
179.9808004199
 30
0.0
 10
521.6154672106
 20
180.6073843054
 30
0.0
 10
522.448001789
 20
180.9484800639
 30
0.0
 10
523.3105595114
 20
181.1496483167
 30
0.0
 10
524.2105567464
 20
181.1677984875
 30
0.0
 10
525.1117256621
 20
180.9424798903
 30
0.0
 10
525.6509037888
 20
180.6093008975
 30
0.0
 10
525.88924614
 20
180.4036880528
 30
0.0
  0
SPLINE
  5
4F8
100
AcDbEntity
  8
KONSTRUKTIONSELEMENTE
100
AcDbSpline
 62
7
  6
CONTINUOUS
 70
0
 71
3
 72
17
 73
13
 74
0
 42
0.0000001
 43
0.0000001
 44
0.0000000001
 40
0.0
 40
0.0
 40
0.0
 40
0.0
 40
0.3767916297
 40
0.5438198263
 40
0.6919289745
 40
0.8170370723
 40
0.8695480002
 40
0.9143218489
 40
0.9505138543
 40
0.9772840031
 40
0.9939781014
 40
1.0
 40
1.0
 40
1.0
 40
1.0
 10
522.1270921477
 20
175.5287566266
 30
0.0
 10
522.3264615783
 20
175.7014156182
 30
0.0
 10
522.6231615585
 20
175.9408188395
 30
0.0
 10
523.0203430887
 20
176.2182522435
 30
0.0
 10
523.2816774025
 20
176.3818087429
 30
0.0
 10
523.4816517204
 20
176.4916865891
 30
0.0
 10
523.6220774486
 20
176.5589601253
 30
0.0
 10
523.7078169651
 20
176.5960980778
 30
0.0
 10
523.7778860813
 20
176.6240759355
 30
0.0
 10
523.8311726412
 20
176.6407249149
 30
0.0
 10
523.8638328553
 20
176.6519938474
 30
0.0
 10
523.8801414553
 20
176.6533406746
 30
0.0
 10
523.883895829
 20
176.6552568953
 30
0.0
  0
SPLINE
  5
4F9
100
AcDbEntity
  8
KONSTRUKTIONSELEMENTE
100
AcDbSpline
 62
7
  6
CONTINUOUS
 70
0
 71
3
 72
11
 73
7
 74
0
 42
0.0000001
 43
0.0000001
 44
0.0000000001
 40
0.0
 40
0.0
 40
0.0
 40
0.0
 40
0.2609480878
 40
0.5122979346
 40
0.7543809345
 40
1.0
 40
1.0
 40
1.0
 40
1.0
 10
525.88924614
 20
180.4036880528
 30
0.0
 10
526.1867395919
 20
180.1470468197
 30
0.0
 10
526.6724206987
 20
179.5165900895
 30
0.0
 10
526.9919091602
 20
178.4046903599
 30
0.0
 10
526.9709171574
 20
177.2804039245
 30
0.0
 10
526.8007144101
 20
176.5617301467
 30
0.0
 10
526.6898539178
 20
176.2089220227
 30
0.0
  0
SPLINE
  5
4FA
100
AcDbEntity
  8
KONSTRUKTIONSELEMENTE
100
AcDbSpline
 62
7
  6
CONTINUOUS
 70
0
 71
3
 72
9
 73
5
 74
0
 42
0.0000001
 43
0.0000001
 44
0.0000000001
 40
0.0
 40
0.0
 40
0.0
 40
0.0
 40
0.254281568
 40
1.0
 40
1.0
 40
1.0
 40
1.0
 10
523.5889357946
 20
171.2097147754
 30
0.0
 10
523.4721846874
 20
171.0814482857
 30
0.0
 10
523.0058832109
 20
170.5836172079
 30
0.0
 10
522.5115974767
 20
170.1117480093
 30
0.0
 10
522.1270921477
 20
169.7787566266
 30
0.0
  0
SPLINE
  5
4FB
100
AcDbEntity
  8
KONSTRUKTIONSELEMENTE
100
AcDbSpline
 62
7
  6
CONTINUOUS
 70
0
 71
3
 72
17
 73
13
 74
0
 42
0.0000001
 43
0.0000001
 44
0.0000000001
 40
0.0
 40
0.0
 40
0.0
 40
0.0
 40
0.0593008471
 40
0.1176099996
 40
0.2288590056
 40
0.283298399
 40
0.3384796619
 40
0.4551078382
 40
0.5831857258
 40
0.7206007674
 40
0.8617975184
 40
1.0
 40
1.0
 40
1.0
 40
1.0
 10
504.8123949194
 20
159.1199189219
 30
0.0
 10
504.6254779398
 20
159.2811681993
 30
0.0
 10
504.2948407594
 20
159.65051875
 30
0.0
 10
503.8422479637
 20
160.4975003748
 30
0.0
 10
503.6915428467
 20
161.4459825862
 30
0.0
 10
503.7731785209
 20
162.3630157742
 30
0.0
 10
503.9722837678
 20
163.2859429374
 30
0.0
 10
504.4243399342
 20
164.4567155543
 30
0.0
 10
505.195721811
 20
165.8515246322
 30
0.0
 10
506.1715250656
 20
167.2386744848
 30
0.0
 10
507.3015783609
 20
168.5583729273
 30
0.0
 10
508.1396537229
 20
169.3682200667
 30
0.0
 10
508.5745489117
 20
169.7448503482
 30
0.0
  0
SPLINE
  5
4FC
100
AcDbEntity
  8
KONSTRUKTIONSELEMENTE
100
AcDbSpline
 62
7
  6
CONTINUOUS
 70
0
 71
3
 72
27
 73
23
 74
0
 42
0.0000001
 43
0.0000001
 44
0.0000000001
 40
0.0
 40
0.0
 40
0.0
 40
0.0
 40
0.0105575894
 40
0.0163373607
 40
0.0172869081
 40
0.0175974557
 40
0.0218129937
 40
0.0305704344
 40
0.0435864047
 40
0.0604776054
 40
0.0808323269
 40
0.1042502867
 40
0.1304025093
 40
0.1898852126
 40
0.2572976367
 40
0.3310324465
 40
0.4097170651
 40
0.4920689982
 40
0.5769312669
 40
0.663165852
 40
0.8354658229
 40
1.0
 40
1.0
 40
1.0
 40
1.0
 10
508.2216420532
 20
161.7456250458
 30
0.0
 10
508.2250785249
 20
161.7250868701
 30
0.0
 10
508.2290090141
 20
161.6862784053
 30
0.0
 10
508.2318558651
 20
161.6673575465
 30
0.0
 10
508.2317758437
 20
161.6418750957
 30
0.0
 10
508.2334548725
 20
161.6554090909
 30
0.0
 10
508.2347097145
 20
161.6776481431
 30
0.0
 10
508.2435289434
 20
161.7311743789
 30
0.0
 10
508.2594343249
 20
161.8043225041
 30
0.0
 10
508.2850550506
 20
161.9007105449
 30
0.0
 10
508.3202590397
 20
162.0148867731
 30
0.0
 10
508.3660498233
 20
162.1450908515
 30
0.0
 10
508.444852444
 20
162.3452422563
 30
0.0
 10
508.5689497519
 20
162.6206538758
 30
0.0
 10
508.7511075037
 20
162.9721380422
 30
0.0
 10
508.9690869967
 20
163.3471349936
 30
0.0
 10
509.2190134044
 20
163.737119236
 30
0.0
 10
509.497249574
 20
164.1345338522
 30
0.0
 10
509.7993295775
 20
164.532991118
 30
0.0
 10
510.2284258081
 20
165.0572125561
 30
0.0
 10
510.7916909457
 20
165.6738877998
 30
0.0
 10
511.2751721068
 20
166.1307181913
 30
0.0
 10
511.5204904299
 20
166.3431700911
 30
0.0
  0
SPLINE
  5
4FD
100
AcDbEntity
  8
KONSTRUKTIONSELEMENTE
100
AcDbSpline
 62
7
  6
CONTINUOUS
 70
0
 71
3
 72
9
 73
5
 74
0
 42
0.0000001
 43
0.0000001
 44
0.0000000001
 40
0.0
 40
0.0
 40
0.0
 40
0.0
 40
0.4909093935
 40
1.0
 40
1.0
 40
1.0
 40
1.0
 10
506.9057263703
 20
158.3730469415
 30
0.0
 10
506.536058652
 20
158.3722366374
 30
0.0
 10
505.7761032896
 20
158.4861628134
 30
0.0
 10
505.1026677467
 20
158.8695067671
 30
0.0
 10
504.8123949194
 20
159.1199189219
 30
0.0
  0
SPLINE
  5
4FE
100
AcDbEntity
  8
KONSTRUKTIONSELEMENTE
100
AcDbSpline
 62
7
  6
CONTINUOUS
 70
0
 71
3
 72
14
 73
10
 74
0
 42
0.0000001
 43
0.0000001
 44
0.0000000001
 40
0.0
 40
0.0
 40
0.0
 40
0.0
 40
0.2728589459
 40
0.3975964918
 40
0.5162031563
 40
0.6324908632
 40
0.7508392564
 40
0.8737805946
 40
1.0
 40
1.0
 40
1.0
 40
1.0
 10
488.0684522573
 20
151.986049713
 30
0.0
 10
488.5828442396
 20
152.4315262372
 30
0.0
 10
489.3759103992
 20
153.0364132493
 30
0.0
 10
490.5027688384
 20
153.6629971348
 30
0.0
 10
491.3353034168
 20
154.0040928933
 30
0.0
 10
492.1978611392
 20
154.205261146
 30
0.0
 10
493.0978583742
 20
154.2234113169
 30
0.0
 10
493.9990272899
 20
153.9980927196
 30
0.0
 10
494.5382054166
 20
153.6649137269
 30
0.0
 10
494.7765477678
 20
153.4593008822
 30
0.0
  0
SPLINE
  5
4FF
100
AcDbEntity
  8
KONSTRUKTIONSELEMENTE
100
AcDbSpline
 62
7
  6
CONTINUOUS
 70
0
 71
3
 72
17
 73
13
 74
0
 42
0.0000001
 43
0.0000001
 44
0.0000000001
 40
0.0
 40
0.0
 40
0.0
 40
0.0
 40
0.3767916297
 40
0.5438198263
 40
0.6919289745
 40
0.8170370723
 40
0.8695480002
 40
0.9143218489
 40
0.9505138543
 40
0.9772840031
 40
0.9939781014
 40
1.0
 40
1.0
 40
1.0
 40
1.0
 10
491.0143937755
 20
148.5843694559
 30
0.0
 10
491.2137632061
 20
148.7570284476
 30
0.0
 10
491.5104631863
 20
148.9964316689
 30
0.0
 10
491.9076447165
 20
149.2738650729
 30
0.0
 10
492.1689790303
 20
149.4374215723
 30
0.0
 10
492.3689533482
 20
149.5472994185
 30
0.0
 10
492.5093790763
 20
149.6145729547
 30
0.0
 10
492.5951185928
 20
149.6517109072
 30
0.0
 10
492.6651877091
 20
149.6796887649
 30
0.0
 10
492.718474269
 20
149.6963377443
 30
0.0
 10
492.7511344831
 20
149.7076066768
 30
0.0
 10
492.7674430831
 20
149.708953504
 30
0.0
 10
492.7711974568
 20
149.7108697247
 30
0.0
  0
SPLINE
  5
500
100
AcDbEntity
  8
KONSTRUKTIONSELEMENTE
100
AcDbSpline
 62
7
  6
CONTINUOUS
 70
0
 71
3
 72
11
 73
7
 74
0
 42
0.0000001
 43
0.0000001
 44
0.0000000001
 40
0.0
 40
0.0
 40
0.0
 40
0.0
 40
0.2606174869
 40
0.5111685589
 40
0.7528761416
 40
1.0
 40
1.0
 40
1.0
 40
1.0
 10
494.7765477678
 20
153.4593008822
 30
0.0
 10
495.0854853116
 20
153.192787076
 30
0.0
 10
495.5853521593
 20
152.5331368834
 30
0.0
 10
495.893193352
 20
151.3715230599
 30
0.0
 10
495.8406596388
 20
150.2029129764
 30
0.0
 10
495.6454188219
 20
149.4585038123
 30
0.0
 10
495.5207521112
 20
149.0922551116
 30
0.0
  0
SPLINE
  5
501
100
AcDbEntity
  8
KONSTRUKTIONSELEMENTE
100
AcDbSpline
 62
7
  6
CONTINUOUS
 70
0
 71
3
 72
9
 73
5
 74
0
 42
0.0000001
 43
0.0000001
 44
0.0000000001
 40
0.0
 40
0.0
 40
0.0
 40
0.0
 40
0.2540582129
 40
1.0
 40
1.0
 40
1.0
 40
1.0
 10
492.7996875337
 20
144.6302658592
 30
0.0
 10
492.659508598
 20
144.4678382748
 30
0.0
 10
492.0966413063
 20
143.8382373818
 30
0.0
 10
491.4905907429
 20
143.2467681269
 30
0.0
 10
491.0143937755
 20
142.8343694559
 30
0.0
  0
SPLINE
  5
502
100
AcDbEntity
  8
KONSTRUKTIONSELEMENTE
100
AcDbSpline
 62
7
  6
CONTINUOUS
 70
0
 71
3
 72
17
 73
13
 74
0
 42
0.0000001
 43
0.0000001
 44
0.0000000001
 40
0.0
 40
0.0
 40
0.0
 40
0.0
 40
0.0593008471
 40
0.1176099996
 40
0.2288590056
 40
0.283298399
 40
0.3384796619
 40
0.4551078382
 40
0.5831857258
 40
0.7206007674
 40
0.8617975184
 40
1.0
 40
1.0
 40
1.0
 40
1.0
 10
473.6996965472
 20
132.1755317513
 30
0.0
 10
473.5127795676
 20
132.3367810287
 30
0.0
 10
473.1821423872
 20
132.7061315794
 30
0.0
 10
472.7295495915
 20
133.5531132042
 30
0.0
 10
472.5788444745
 20
134.5015954156
 30
0.0
 10
472.6604801487
 20
135.4186286036
 30
0.0
 10
472.8595853956
 20
136.3415557668
 30
0.0
 10
473.311641562
 20
137.5123283837
 30
0.0
 10
474.0830234388
 20
138.9071374615
 30
0.0
 10
475.0588266934
 20
140.2942873142
 30
0.0
 10
476.1888799887
 20
141.6139857567
 30
0.0
 10
477.0269553507
 20
142.4238328961
 30
0.0
 10
477.4618505395
 20
142.8004631776
 30
0.0
  0
SPLINE
  5
503
100
AcDbEntity
  8
KONSTRUKTIONSELEMENTE
100
AcDbSpline
 62
7
  6
CONTINUOUS
 70
0
 71
3
 72
27
 73
23
 74
0
 42
0.0000001
 43
0.0000001
 44
0.0000000001
 40
0.0
 40
0.0
 40
0.0
 40
0.0
 40
0.0105575894
 40
0.0163373607
 40
0.0172869081
 40
0.0175974557
 40
0.0218129937
 40
0.0305704344
 40
0.0435864047
 40
0.0604776054
 40
0.0808323269
 40
0.1042502867
 40
0.1304025093
 40
0.1898852126
 40
0.2572976367
 40
0.3310324465
 40
0.4097170651
 40
0.4920689982
 40
0.5769312669
 40
0.663165852
 40
0.8354658229
 40
1.0
 40
1.0
 40
1.0
 40
1.0
 10
477.108943681
 20
134.8012378752
 30
0.0
 10
477.1123801527
 20
134.7806996995
 30
0.0
 10
477.1163106419
 20
134.7418912346
 30
0.0
 10
477.1191574929
 20
134.7229703759
 30
0.0
 10
477.1190774714
 20
134.6974879251
 30
0.0
 10
477.1207565003
 20
134.7110219203
 30
0.0
 10
477.1220113422
 20
134.7332609725
 30
0.0
 10
477.1308305712
 20
134.7867872083
 30
0.0
 10
477.1467359527
 20
134.8599353334
 30
0.0
 10
477.1723566784
 20
134.9563233743
 30
0.0
 10
477.2075606675
 20
135.0704996025
 30
0.0
 10
477.2533514511
 20
135.2007036809
 30
0.0
 10
477.3321540718
 20
135.4008550856
 30
0.0
 10
477.4562513797
 20
135.6762667052
 30
0.0
 10
477.6384091315
 20
136.0277508716
 30
0.0
 10
477.8563886245
 20
136.402747823
 30
0.0
 10
478.1063150321
 20
136.7927320653
 30
0.0
 10
478.3845512018
 20
137.1901466816
 30
0.0
 10
478.6866312053
 20
137.5886039474
 30
0.0
 10
479.1157274359
 20
138.1128253855
 30
0.0
 10
479.6789925735
 20
138.7295006291
 30
0.0
 10
480.1624737346
 20
139.1863310207
 30
0.0
 10
480.4077920577
 20
139.3987829205
 30
0.0
  0
SPLINE
  5
504
100
AcDbEntity
  8
KONSTRUKTIONSELEMENTE
100
AcDbSpline
 62
7
  6
CONTINUOUS
 70
0
 71
3
 72
9
 73
5
 74
0
 42
0.0000001
 43
0.0000001
 44
0.0000000001
 40
0.0
 40
0.0
 40
0.0
 40
0.0
 40
0.4932339181
 40
1.0
 40
1.0
 40
1.0
 40
1.0
 10
475.4247226718
 20
131.446864398
 30
0.0
 10
475.1147934619
 20
131.4786636409
 30
0.0
 10
474.4910588007
 20
131.6289245888
 30
0.0
 10
473.9420734142
 20
131.9664384162
 30
0.0
 10
473.6996965472
 20
132.1755317513
 30
0.0
  0
SPLINE
  5
505
100
AcDbEntity
  8
KONSTRUKTIONSELEMENTE
100
AcDbSpline
 62
7
  6
CONTINUOUS
 70
0
 71
3
 72
13
 73
9
 74
0
 42
0.0000001
 43
0.0000001
 44
0.0000000001
 40
0.0
 40
0.0
 40
0.0
 40
0.0
 40
0.1231308782
 40
0.2478576061
 40
0.4996416833
 40
0.7516368543
 40
0.87662615
 40
1.0
 40
1.0
 40
1.0
 40
1.0
 10
488.768796723
 20
146.6390986606
 30
0.0
 10
489.1377424376
 20
146.2981526039
 30
0.0
 10
489.9508661857
 20
145.6841654249
 30
0.0
 10
491.7869269437
 20
144.7770671875
 30
0.0
 10
494.3620384873
 20
144.2861304365
 30
0.0
 10
496.9508377584
 20
144.7034016536
 30
0.0
 10
498.8158358509
 20
145.5561289913
 30
0.0
 10
499.6495077332
 20
146.1453144974
 30
0.0
 10
500.0300052356
 20
146.4748350006
 30
0.0
  0
SPLINE
  5
506
100
AcDbEntity
  8
KONSTRUKTIONSELEMENTE
100
AcDbSpline
 62
7
  6
CONTINUOUS
 70
0
 71
3
 72
11
 73
7
 74
0
 42
0.0000001
 43
0.0000001
 44
0.0000000001
 40
0.0
 40
0.0
 40
0.0
 40
0.0
 40
0.2476009727
 40
0.4962112161
 40
0.746758873
 40
1.0
 40
1.0
 40
1.0
 40
1.0
 10
513.0976900963
 20
160.8837209235
 30
0.0
 10
513.0975513273
 20
161.3388693358
 30
0.0
 10
513.0017614425
 20
162.2537979385
 30
0.0
 10
512.5778511205
 20
163.5691846575
 30
0.0
 10
511.8941117219
 20
164.7816009171
 30
0.0
 10
511.2874522603
 20
165.4899760027
 30
0.0
 10
510.9532882895
 20
165.8140746252
 30
0.0
  0
SPLINE
  5
507
100
AcDbEntity
  8
KONSTRUKTIONSELEMENTE
100
AcDbSpline
 62
7
  6
CONTINUOUS
 70
0
 71
3
 72
11
 73
7
 74
0
 42
0.0000001
 43
0.0000001
 44
0.0000000001
 40
0.0
 40
0.0
 40
0.0
 40
0.0
 40
0.2523195221
 40
0.504359735
 40
0.754041455
 40
1.0
 40
1.0
 40
1.0
 40
1.0
 10
506.7932430887
 20
167.9484836574
 30
0.0
 10
506.1570687449
 20
168.0726907557
 30
0.0
 10
504.8535285737
 20
168.1800811522
 30
0.0
 10
502.9195680838
 20
167.9141325785
 30
0.0
 10
501.1061424466
 20
167.234878752
 30
0.0
 10
500.0365676089
 20
166.5180246534
 30
0.0
 10
499.5589374516
 20
166.1043848036
 30
0.0
  0
SPLINE
  5
508
100
AcDbEntity
  8
KONSTRUKTIONSELEMENTE
100
AcDbSpline
 62
7
  6
CONTINUOUS
 70
0
 71
3
 72
9
 73
5
 74
0
 42
0.0000001
 43
0.0000001
 44
0.0000000001
 40
0.0
 40
0.0
 40
0.0
 40
0.0
 40
0.5385592305
 40
1.0
 40
1.0
 40
1.0
 40
1.0
 10
507.6906654352
 20
159.0621017931
 30
0.0
 10
507.9732411365
 20
159.3068195289
 30
0.0
 10
508.4267929066
 20
159.8616647921
 30
0.0
 10
508.5982785283
 20
160.5621330035
 30
0.0
 10
508.5982615466
 20
160.8824178024
 30
0.0
  0
SPLINE
  5
509
100
AcDbEntity
  8
KONSTRUKTIONSELEMENTE
100
AcDbSpline
 62
7
  6
CONTINUOUS
 70
0
 71
3
 72
9
 73
5
 74
0
 42
0.0000001
 43
0.0000001
 44
0.0000000001
 40
0.0
 40
0.0
 40
0.0
 40
0.0
 40
0.2425841405
 40
1.0
 40
1.0
 40
1.0
 40
1.0
 10
508.5982615466
 20
160.8824178024
 30
0.0
 10
508.5982573939
 20
160.9607404757
 30
0.0
 10
508.5795174989
 20
161.2834727487
 30
0.0
 10
508.4844217486
 20
161.6006410964
 30
0.0
 10
508.3785332149
 20
161.8210726499
 30
0.0
  0
SPLINE
  5
50A
100
AcDbEntity
  8
KONSTRUKTIONSELEMENTE
100
AcDbSpline
 62
7
  6
CONTINUOUS
 70
0
 71
3
 72
9
 73
5
 74
0
 42
0.0000001
 43
0.0000001
 44
0.0000000001
 40
0.0
 40
0.0
 40
0.0
 40
0.0
 40
0.26426607
 40
1.0
 40
1.0
 40
1.0
 40
1.0
 10
504.0767943779
 20
163.4907859588
 30
0.0
 10
503.9254888426
 20
163.4540459466
 30
0.0
 10
503.3613787252
 20
163.2837816897
 30
0.0
 10
502.832562994
 20
162.9864872359
 30
0.0
 10
502.5048789698
 20
162.7027045465
 30
0.0
  0
SPLINE
  5
50B
100
AcDbEntity
  8
KONSTRUKTIONSELEMENTE
100
AcDbSpline
 62
7
  6
CONTINUOUS
 70
0
 71
3
 72
11
 73
7
 74
0
 42
0.0000001
 43
0.0000001
 44
0.0000000001
 40
0.0
 40
0.0
 40
0.0
 40
0.0
 40
0.253410507
 40
0.5039843285
 40
0.7525035791
 40
1.0
 40
1.0
 40
1.0
 40
1.0
 10
510.8675717115
 20
155.86885665
 30
0.0
 10
511.2143515456
 20
156.1949432459
 30
0.0
 10
511.8449017045
 20
156.9103759604
 30
0.0
 10
512.5565421403
 20
158.1425983024
 30
0.0
 10
512.9979523505
 20
159.4841036033
 30
0.0
 10
513.0978318398
 20
160.4188167667
 30
0.0
 10
513.0976900963
 20
160.8837209235
 30
0.0
  0
SPLINE
  5
50C
100
AcDbEntity
  8
KONSTRUKTIONSELEMENTE
100
AcDbSpline
 62
7
  6
CONTINUOUS
 70
0
 71
3
 72
9
 73
5
 74
0
 42
0.0000001
 43
0.0000001
 44
0.0000000001
 40
0.0
 40
0.0
 40
0.0
 40
0.0
 40
0.508658237
 40
1.0
 40
1.0
 40
1.0
 40
1.0
 10
492.3623838898
 20
149.5401311766
 30
0.0
 10
493.0811571941
 20
149.1048475684
 30
0.0
 10
494.8058587714
 20
148.7298875562
 30
0.0
 10
496.4704800427
 20
149.3451362079
 30
0.0
 10
497.0840637174
 20
149.8765152576
 30
0.0
  0
SPLINE
  5
50D
100
AcDbEntity
  8
KONSTRUKTIONSELEMENTE
100
AcDbSpline
 62
7
  6
CONTINUOUS
 70
0
 71
3
 72
11
 73
7
 74
0
 42
0.0000001
 43
0.0000001
 44
0.0000000001
 40
0.0
 40
0.0
 40
0.0
 40
0.0
 40
0.2536593348
 40
0.5043459262
 40
0.7527390477
 40
1.0
 40
1.0
 40
1.0
 40
1.0
 10
488.9523357338
 20
156.9187982681
 30
0.0
 10
488.5723666108
 20
156.589735355
 30
0.0
 10
487.8791481826
 20
155.8587375474
 30
0.0
 10
487.0921518248
 20
154.5787716622
 30
0.0
 10
486.6021959943
 20
153.1711434999
 30
0.0
 10
486.4911032043
 20
152.1854717117
 30
0.0
 10
486.4912525909
 20
151.6954988806
 30
0.0
  0
SPLINE
  5
50E
100
AcDbEntity
  8
KONSTRUKTIONSELEMENTE
100
AcDbSpline
 62
7
  6
CONTINUOUS
 70
0
 71
3
 72
9
 73
5
 74
0
 42
0.0000001
 43
0.0000001
 44
0.0000000001
 40
0.0
 40
0.0
 40
0.0
 40
0.0
 40
0.4941510942
 40
1.0
 40
1.0
 40
1.0
 40
1.0
 10
574.1161123716
 20
176.4876914183
 30
0.0
 10
574.3708914703
 20
176.845570538
 30
0.0
 10
574.8426652454
 20
177.6009217946
 30
0.0
 10
575.263470993
 20
178.3842275704
 30
0.0
 10
575.4696155563
 20
178.7839018654
 30
0.0
  0
SPLINE
  5
50F
100
AcDbEntity
  8
0
100
AcDbSpline
 62
7
  6
CONTINUOUS
 70
0
 71
3
 72
9
 73
5
 74
0
 42
0.0000001
 43
0.0000001
 44
0.0000000001
 40
0.0
 40
0.0
 40
0.0
 40
0.0
 40
0.4985745312
 40
1.0
 40
1.0
 40
1.0
 40
1.0
 10
558.558401059
 20
167.3956885096
 30
0.0
 10
558.5297219895
 20
167.4344524181
 30
0.0
 10
558.4836494633
 20
167.5217647044
 30
0.0
 10
558.4696155563
 20
167.6193729086
 30
0.0
 10
558.4696155563
 20
167.6678682348
 30
0.0
  0
SPLINE
  5
510
100
AcDbEntity
  8
0
100
AcDbSpline
 62
7
  6
CONTINUOUS
 70
0
 71
3
 72
9
 73
5
 74
0
 42
0.0000001
 43
0.0000001
 44
0.0000000001
 40
0.0
 40
0.0
 40
0.0
 40
0.0
 40
0.2527646302
 40
1.0
 40
1.0
 40
1.0
 40
1.0
 10
572.7157703939
 20
174.9839363458
 30
0.0
 10
572.8491512621
 20
175.0947359991
 30
0.0
 10
573.3629577121
 20
175.5494821251
 30
0.0
 10
573.8188206168
 20
176.0700962857
 30
0.0
 10
574.1161123716
 20
176.4876914183
 30
0.0
  0
SPLINE
  5
511
100
AcDbEntity
  8
0
100
AcDbSpline
 62
7
  6
CONTINUOUS
 70
0
 71
3
 72
17
 73
13
 74
0
 42
0.0000001
 43
0.0000001
 44
0.0000000001
 40
0.0
 40
0.0
 40
0.0
 40
0.0
 40
0.0585679969
 40
0.1183091855
 40
0.2413924061
 40
0.36927728
 40
0.5
 40
0.63072272
 40
0.7586075939
 40
0.8816908145
 40
0.9414320031
 40
1.0
 40
1.0
 40
1.0
 40
1.0
 10
573.469590081
 20
175.6969735131
 30
0.0
 10
573.3464456832
 20
175.4097626593
 30
0.0
 10
573.0476473549
 20
174.8496989247
 30
0.0
 10
572.2626260717
 20
173.8228684404
 30
0.0
 10
570.9546062303
 20
172.76024402
 30
0.0
 10
569.0532050074
 20
171.9638127002
 30
0.0
 10
566.9696155563
 20
171.6905252456
 30
0.0
 10
564.8860261052
 20
171.9638127002
 30
0.0
 10
562.9846248824
 20
172.76024402
 30
0.0
 10
561.6766050409
 20
173.8228684404
 30
0.0
 10
560.8915837577
 20
174.8496989247
 30
0.0
 10
560.5927854294
 20
175.4097626593
 30
0.0
 10
560.4696410317
 20
175.6969735131
 30
0.0
  0
SPLINE
  5
512
100
AcDbEntity
  8
0
100
AcDbSpline
 62
7
  6
CONTINUOUS
 70
0
 71
3
 72
9
 73
5
 74
0
 42
0.0000001
 43
0.0000001
 44
0.0000000001
 40
0.0
 40
0.0
 40
0.0
 40
0.0
 40
0.2466854379
 40
1.0
 40
1.0
 40
1.0
 40
1.0
 10
565.310981615
 20
215.7116831335
 30
0.0
 10
565.3206081672
 20
215.747852074
 30
0.0
 10
565.3619488061
 20
215.8938506352
 30
0.0
 10
565.4122162965
 20
216.0372775808
 30
0.0
 10
565.4542494373
 20
216.1435638329
 30
0.0
  0
SPLINE
  5
513
100
AcDbEntity
  8
RUNDUNGEN
100
AcDbSpline
 62
7
  6
CONTINUOUS
 70
0
 71
3
 72
9
 73
5
 74
0
 42
0.0000001
 43
0.0000001
 44
0.0000000001
 40
0.0
 40
0.0
 40
0.0
 40
0.0
 40
0.4985745312
 40
1.0
 40
1.0
 40
1.0
 40
1.0
 10
575.3808300537
 20
167.3956885096
 30
0.0
 10
575.4095091232
 20
167.4344524181
 30
0.0
 10
575.4555816494
 20
167.5217647044
 30
0.0
 10
575.4696155563
 20
167.6193729086
 30
0.0
 10
575.4696155563
 20
167.6678682348
 30
0.0
  0
SPLINE
  5
514
100
AcDbEntity
  8
0
100
AcDbSpline
 62
7
  6
CONTINUOUS
 70
0
 71
3
 72
9
 73
5
 74
0
 42
0.0000001
 43
0.0000001
 44
0.0000000001
 40
0.0
 40
0.0
 40
0.0
 40
0.0
 40
0.2466854379
 40
1.0
 40
1.0
 40
1.0
 40
1.0
 10
568.6282494976
 20
215.7116831335
 30
0.0
 10
568.6186229454
 20
215.747852074
 30
0.0
 10
568.5772823065
 20
215.8938506352
 30
0.0
 10
568.5270148162
 20
216.0372775808
 30
0.0
 10
568.4849816753
 20
216.1435638329
 30
0.0
  0
SPLINE
  5
515
100
AcDbEntity
  8
0
100
AcDbSpline
 62
7
  6
CONTINUOUS
 70
0
 71
3
 72
9
 73
5
 74
0
 42
0.0000001
 43
0.0000001
 44
0.0000000001
 40
0.0
 40
0.0
 40
0.0
 40
0.0
 40
0.4941510942
 40
1.0
 40
1.0
 40
1.0
 40
1.0
 10
559.823118741
 20
176.4876914183
 30
0.0
 10
559.5683396423
 20
176.845570538
 30
0.0
 10
559.0965658672
 20
177.6009217946
 30
0.0
 10
558.6757601196
 20
178.3842275704
 30
0.0
 10
558.4696155563
 20
178.7839018654
 30
0.0
  0
SPLINE
  5
516
100
AcDbEntity
  8
0
100
AcDbSpline
 62
7
  6
CONTINUOUS
 70
0
 71
3
 72
9
 73
5
 74
0
 42
0.0000001
 43
0.0000001
 44
0.0000000001
 40
0.0
 40
0.0
 40
0.0
 40
0.0
 40
0.2476649916
 40
1.0
 40
1.0
 40
1.0
 40
1.0
 10
559.823118741
 20
176.4876914183
 30
0.0
 10
559.9217305074
 20
176.3491749846
 30
0.0
 10
560.3384283968
 20
175.8032551311
 30
0.0
 10
560.8273020674
 20
175.3128980996
 30
0.0
 10
561.2246728213
 20
174.9829296459
 30
0.0
  0
LINE
  5
517
100
AcDbEntity
  8
KONSTRUKTIONSELEMENTE
100
AcDbLine
 62
7
  6
CONTINUOUS
 10
571.1314044399
 20
207.9855601484
 11
570.7751867689
 21
209.2048993824
  0
LINE
  5
518
100
AcDbEntity
  8
KONSTRUKTIONSELEMENTE
100
AcDbLine
 62
7
  6
CONTINUOUS
 10
570.5171297469
 20
210.7299596632
 11
570.4754485038
 21
210.8574371089
  0
LINE
  5
519
100
AcDbEntity
  8
KONSTRUKTIONSELEMENTE
100
AcDbLine
 62
7
  6
CONTINUOUS
 10
570.4754485038
 20
210.8574371089
 11
570.4670679048
 21
210.8830508612
  0
LINE
  5
51A
100
AcDbEntity
  8
KONSTRUKTIONSELEMENTE
100
AcDbLine
 62
7
  6
CONTINUOUS
 10
570.584935127
 20
210.4977044393
 11
570.5171297469
 21
210.7299596632
  0
LINE
  5
51B
100
AcDbEntity
  8
KONSTRUKTIONSELEMENTE
100
AcDbLine
 62
7
  6
CONTINUOUS
 10
570.6366161438
 20
210.3024130455
 11
570.584935127
 21
210.4977044393
  0
LINE
  5
51C
100
AcDbEntity
  8
KONSTRUKTIONSELEMENTE
100
AcDbLine
 62
7
  6
CONTINUOUS
 10
570.7066740572
 20
210.0068576302
 11
570.6366161438
 21
210.3024130455
  0
LINE
  5
51D
100
AcDbEntity
  8
KONSTRUKTIONSELEMENTE
100
AcDbLine
 62
7
  6
CONTINUOUS
 10
570.8199818153
 20
209.5773766685
 11
570.809508392
 21
209.6085370515
  0
LINE
  5
51E
100
AcDbEntity
  8
KONSTRUKTIONSELEMENTE
100
AcDbLine
 62
7
  6
CONTINUOUS
 10
570.809508392
 20
209.6085370515
 11
570.7615611228
 21
209.7510449989
  0
LINE
  5
51F
100
AcDbEntity
  8
KONSTRUKTIONSELEMENTE
100
AcDbLine
 62
7
  6
CONTINUOUS
 10
570.7615611228
 20
209.7510449989
 11
570.7429394727
 21
209.8063296477
  0
LINE
  5
520
100
AcDbEntity
  8
KONSTRUKTIONSELEMENTE
100
AcDbLine
 62
7
  6
CONTINUOUS
 10
570.6733951361
 20
209.5532819742
 11
570.4188916752
 21
210.4242386164
  0
LINE
  5
521
100
AcDbEntity
  8
KONSTRUKTIONSELEMENTE
100
AcDbLine
 62
7
  6
CONTINUOUS
 10
570.856107962
 20
210.2298107282
 11
570.425820799
 21
211.8010702933
  0
LINE
  5
522
100
AcDbEntity
  8
KONSTRUKTIONSELEMENTE
100
AcDbLine
 62
7
  6
CONTINUOUS
 10
570.425820799
 20
211.8010702933
 11
570.419769946
 21
211.8231611404
  0
LINE
  5
523
100
AcDbEntity
  8
KONSTRUKTIONSELEMENTE
100
AcDbLine
 62
7
  6
CONTINUOUS
 10
570.419769946
 20
211.8231611404
 11
570.3499001499
 21
212.0782379141
  0
LINE
  5
524
100
AcDbEntity
  8
KONSTRUKTIONSELEMENTE
100
AcDbLine
 62
7
  6
CONTINUOUS
 10
570.3499001499
 20
212.0782379141
 11
570.3306432253
 21
212.148537368
  0
LINE
  5
525
100
AcDbEntity
  8
KONSTRUKTIONSELEMENTE
100
AcDbLine
 62
7
  6
CONTINUOUS
 10
570.9417330518
 20
209.907923636
 11
570.9275133088
 21
209.9613839202
  0
LINE
  5
526
100
AcDbEntity
  8
KONSTRUKTIONSELEMENTE
100
AcDbLine
 62
7
  6
CONTINUOUS
 10
570.9275133088
 20
209.9613839202
 11
570.856107962
 21
210.2298107282
  0
LINE
  5
527
100
AcDbEntity
  8
KONSTRUKTIONSELEMENTE
100
AcDbLine
 62
7
  6
CONTINUOUS
 10
571.0112037331
 20
209.6355158756
 11
571.0093852635
 21
209.6426539167
  0
LINE
  5
528
100
AcDbEntity
  8
KONSTRUKTIONSELEMENTE
100
AcDbLine
 62
7
  6
CONTINUOUS
 10
571.0093852635
 20
209.6426539167
 11
570.9881724703
 21
209.7258903944
  0
LINE
  5
529
100
AcDbEntity
  8
KONSTRUKTIONSELEMENTE
100
AcDbLine
 62
7
  6
CONTINUOUS
 10
570.9881724703
 20
209.7258903944
 11
570.9417330518
 21
209.907923636
  0
LINE
  5
52A
100
AcDbEntity
  8
KONSTRUKTIONSELEMENTE
100
AcDbLine
 62
7
  6
CONTINUOUS
 10
571.081808824
 20
209.3382779461
 11
571.0702124324
 21
209.3873138039
  0
LINE
  5
52B
100
AcDbEntity
  8
KONSTRUKTIONSELEMENTE
100
AcDbLine
 62
7
  6
CONTINUOUS
 10
571.0702124324
 20
209.3873138039
 11
571.0468147759
 21
209.4859885932
  0
LINE
  5
52C
100
AcDbEntity
  8
KONSTRUKTIONSELEMENTE
100
AcDbLine
 62
7
  6
CONTINUOUS
 10
571.0468147759
 20
209.4859885932
 11
571.0350132618
 21
209.5356282262
  0
LINE
  5
52D
100
AcDbEntity
  8
KONSTRUKTIONSELEMENTE
100
AcDbLine
 62
7
  6
CONTINUOUS
 10
571.0350132618
 20
209.5356282262
 11
571.0112037331
 21
209.6355158756
  0
LINE
  5
52E
100
AcDbEntity
  8
KONSTRUKTIONSELEMENTE
100
AcDbLine
 62
7
  6
CONTINUOUS
 10
571.1359581323
 20
209.0325823913
 11
571.1358975777
 21
209.0408590811
  0
LINE
  5
52F
100
AcDbEntity
  8
KONSTRUKTIONSELEMENTE
100
AcDbLine
 62
7
  6
CONTINUOUS
 10
570.8606378835
 20
209.8573585772
 11
570.7315022022
 21
210.3284254233
  0
LINE
  5
530
100
AcDbEntity
  8
KONSTRUKTIONSELEMENTE
100
AcDbLine
 62
7
  6
CONTINUOUS
 10
570.7315022022
 20
210.3284254233
 11
570.6873259201
 21
210.4895665101
  0
LINE
  5
531
100
AcDbEntity
  8
KONSTRUKTIONSELEMENTE
100
AcDbLine
 62
7
  6
CONTINUOUS
 10
570.6873259201
 20
210.4895665101
 11
570.6780931775
 21
210.523244196
  0
LINE
  5
532
100
AcDbEntity
  8
KONSTRUKTIONSELEMENTE
100
AcDbLine
 62
7
  6
CONTINUOUS
 10
570.6780931775
 20
210.523244196
 11
570.6141304617
 21
210.756552905
  0
LINE
  5
533
100
AcDbEntity
  8
KONSTRUKTIONSELEMENTE
100
AcDbLine
 62
7
  6
CONTINUOUS
 10
570.6141304617
 20
210.756552905
 11
570.5999018397
 21
210.8084519177
  0
LINE
  5
534
100
AcDbEntity
  8
KONSTRUKTIONSELEMENTE
100
AcDbLine
 62
7
  6
CONTINUOUS
 10
570.5999018397
 20
210.8084519177
 11
570.5715928923
 21
210.9117080489
  0
LINE
  5
535
100
AcDbEntity
  8
KONSTRUKTIONSELEMENTE
100
AcDbLine
 62
7
  6
CONTINUOUS
 10
570.5715928923
 20
210.9117080489
 11
570.523912984
 21
211.0856163584
  0
LINE
  5
536
100
AcDbEntity
  8
KONSTRUKTIONSELEMENTE
100
AcDbLine
 62
7
  6
CONTINUOUS
 10
570.523912984
 20
211.0856163584
 11
570.3533197806
 21
211.7078123388
  0
LINE
  5
537
100
AcDbEntity
  8
KONSTRUKTIONSELEMENTE
100
AcDbLine
 62
7
  6
CONTINUOUS
 10
570.3533197806
 20
211.7078123388
 11
570.3346000909
 21
211.7760852171
  0
LINE
  5
538
100
AcDbEntity
  8
KONSTRUKTIONSELEMENTE
100
AcDbLine
 62
7
  6
CONTINUOUS
 10
570.9290940885
 20
209.6221960042
 11
570.8606378835
 21
209.8573585772
  0
LINE
  5
539
100
AcDbEntity
  8
KONSTRUKTIONSELEMENTE
100
AcDbLine
 62
7
  6
CONTINUOUS
 10
570.9810420442
 20
209.4613429969
 11
570.9290940885
 21
209.6221960042
  0
LINE
  5
53A
100
AcDbEntity
  8
KONSTRUKTIONSELEMENTE
100
AcDbLine
 62
7
  6
CONTINUOUS
 10
570.4501117477
 20
211.9757027988
 11
570.4394047253
 21
212.0157389619
  0
LINE
  5
53B
100
AcDbEntity
  8
KONSTRUKTIONSELEMENTE
100
AcDbLine
 62
7
  6
CONTINUOUS
 10
570.4394047253
 20
212.0157389619
 11
570.4286371315
 21
212.0559172919
  0
LINE
  5
53C
100
AcDbEntity
  8
KONSTRUKTIONSELEMENTE
100
AcDbLine
 62
7
  6
CONTINUOUS
 10
571.0805218614
 20
209.605981011
 11
571.0686835495
 21
209.6507436286
  0
LINE
  5
53D
100
AcDbEntity
  8
KONSTRUKTIONSELEMENTE
100
AcDbLine
 62
7
  6
CONTINUOUS
 10
571.0686835495
 20
209.6507436286
 11
571.0453288017
 21
209.7388233458
  0
LINE
  5
53E
100
AcDbEntity
  8
KONSTRUKTIONSELEMENTE
100
AcDbLine
 62
7
  6
CONTINUOUS
 10
571.0453288017
 20
209.7388233458
 11
571.0328316973
 21
209.7858327597
  0
LINE
  5
53F
100
AcDbEntity
  8
KONSTRUKTIONSELEMENTE
100
AcDbLine
 62
7
  6
CONTINUOUS
 10
571.1232224374
 20
209.4396625958
 11
571.1168273503
 21
209.4660899629
  0
SPLINE
  5
540
100
AcDbEntity
  8
KONSTRUKTIONSELEMENTE
100
AcDbSpline
 62
7
  6
CONTINUOUS
 70
0
 71
3
 72
8
 73
4
 74
0
 42
0.0000001
 43
0.0000001
 44
0.0000000001
 40
0.0
 40
0.0
 40
0.0
 40
0.0
 40
1.0
 40
1.0
 40
1.0
 40
1.0
 10
571.1251241336
 20
209.3119573301
 30
0.0
 10
571.13206684
 20
209.331881821
 30
0.0
 10
571.1360059575
 20
209.3532137342
 30
0.0
 10
571.1360065448
 20
209.3743131775
 30
0.0
  0
SPLINE
  5
541
100
AcDbEntity
  8
KONSTRUKTIONSELEMENTE
100
AcDbSpline
 62
7
  6
CONTINUOUS
 70
0
 71
3
 72
8
 73
4
 74
0
 42
0.0000001
 43
0.0000001
 44
0.0000000001
 40
0.0
 40
0.0
 40
0.0
 40
0.0
 40
1.0
 40
1.0
 40
1.0
 40
1.0
 10
570.4352509586
 20
211.9427529956
 30
0.0
 10
570.4389719746
 20
211.9611373118
 30
0.0
 10
570.4403940182
 20
211.9801519663
 30
0.0
 10
570.4393100393
 20
211.9988777247
 30
0.0
  0
LINE
  5
542
100
AcDbEntity
  8
KONSTRUKTIONSELEMENTE
100
AcDbLine
 62
7
  6
CONTINUOUS
 10
571.0289242031
 20
209.7129222615
 11
570.9818856031
 21
209.8896340396
  0
LINE
  5
543
100
AcDbEntity
  8
KONSTRUKTIONSELEMENTE
100
AcDbLine
 62
7
  6
CONTINUOUS
 10
570.9818856031
 20
209.8896340396
 11
570.9746822544
 21
209.9166945281
  0
LINE
  5
544
100
AcDbEntity
  8
KONSTRUKTIONSELEMENTE
100
AcDbLine
 62
7
  6
CONTINUOUS
 10
570.9746822544
 20
209.9166945281
 11
570.888998494
 21
210.2385666459
  0
LINE
  5
545
100
AcDbEntity
  8
KONSTRUKTIONSELEMENTE
100
AcDbLine
 62
7
  6
CONTINUOUS
 10
570.888998494
 20
210.2385666459
 11
570.4352509586
 21
211.9427529956
  0
SPLINE
  5
546
100
AcDbEntity
  8
0
100
AcDbSpline
 62
7
  6
CONTINUOUS
 70
0
 71
3
 72
11
 73
7
 74
0
 42
0.0000001
 43
0.0000001
 44
0.0000000001
 40
0.0
 40
0.0
 40
0.0
 40
0.0
 40
0.2510831748
 40
0.5000000002
 40
0.7489168258
 40
1.0
 40
1.0
 40
1.0
 40
1.0
 10
565.4542494373
 20
216.1435638329
 30
0.0
 10
565.3726217849
 20
215.7397725434
 30
0.0
 10
565.2451299519
 20
214.9279160142
 30
0.0
 10
565.1789231012
 20
213.698664021
 30
0.0
 10
565.24512995
 20
212.4694120285
 30
0.0
 10
565.3726217851
 20
211.6575555004
 30
0.0
 10
565.4542494373
 20
211.2537642118
 30
0.0
  0
SPLINE
  5
547
100
AcDbEntity
  8
0
100
AcDbSpline
 62
7
  6
CONTINUOUS
 70
0
 71
3
 72
9
 73
5
 74
0
 42
0.0000001
 43
0.0000001
 44
0.0000000001
 40
0.0
 40
0.0
 40
0.0
 40
0.0
 40
0.5000760418
 40
1.0
 40
1.0
 40
1.0
 40
1.0
 10
565.4542494373
 20
211.2537642118
 30
0.0
 10
565.3138191003
 20
209.7746629436
 30
0.0
 10
565.1419091566
 20
206.8048809853
 30
0.0
 10
565.2279979698
 20
203.8309913323
 30
0.0
 10
565.3304093791
 20
202.3492252648
 30
0.0
  0
SPLINE
  5
548
100
AcDbEntity
  8
0
100
AcDbSpline
 62
7
  6
CONTINUOUS
 70
0
 71
3
 72
9
 73
5
 74
0
 42
0.0000001
 43
0.0000001
 44
0.0000000001
 40
0.0
 40
0.0
 40
0.0
 40
0.0
 40
0.5070090543
 40
1.0
 40
1.0
 40
1.0
 40
1.0
 10
566.9696155563
 20
171.4055795327
 30
0.0
 10
567.3810447673
 20
171.4055795327
 30
0.0
 10
568.1972754748
 20
171.5262979742
 30
0.0
 10
568.9407666474
 20
171.8889830738
 30
0.0
 10
569.2658503515
 20
172.1221430872
 30
0.0
  0
SPLINE
  5
549
100
AcDbEntity
  8
0
100
AcDbSpline
 62
7
  6
CONTINUOUS
 70
0
 71
3
 72
9
 73
5
 74
0
 42
0.0000001
 43
0.0000001
 44
0.0000000001
 40
0.0
 40
0.0
 40
0.0
 40
0.0
 40
0.5070090543
 40
1.0
 40
1.0
 40
1.0
 40
1.0
 10
566.9696155563
 20
171.4055795327
 30
0.0
 10
566.5581863454
 20
171.4055795327
 30
0.0
 10
565.7419556379
 20
171.5262979742
 30
0.0
 10
564.9984644653
 20
171.8889830738
 30
0.0
 10
564.6733807612
 20
172.1221430872
 30
0.0
  0
SPLINE
  5
54A
100
AcDbEntity
  8
0
100
AcDbSpline
 62
7
  6
CONTINUOUS
 70
0
 71
3
 72
21
 73
17
 74
0
 42
0.0000001
 43
0.0000001
 44
0.0000000001
 40
0.0
 40
0.0
 40
0.0
 40
0.0
 40
0.0580896412
 40
0.1168909263
 40
0.1769960452
 40
0.2387584397
 40
0.3022669845
 40
0.367347046
 40
0.5
 40
0.632652954
 40
0.6977330155
 40
0.7612415603
 40
0.8230039548
 40
0.8831090737
 40
0.9419103588
 40
1.0
 40
1.0
 40
1.0
 40
1.0
 10
560.0361321664
 20
174.286846051
 30
0.0
 10
560.0361321664
 20
173.8938381028
 30
0.0
 10
560.126844329
 20
173.1001522586
 30
0.0
 10
560.5282712007
 20
171.9620552486
 30
0.0
 10
561.1779119287
 20
170.9157510079
 30
0.0
 10
562.0489223208
 20
170.0018896571
 30
0.0
 10
563.107026674
 20
169.2540309089
 30
0.0
 10
564.7198353974
 20
168.5110121851
 30
0.0
 10
566.9696155563
 20
168.128839127
 30
0.0
 10
569.2193957152
 20
168.5110121851
 30
0.0
 10
570.8322044387
 20
169.2540309089
 30
0.0
 10
571.8903087918
 20
170.0018896571
 30
0.0
 10
572.761319184
 20
170.9157510079
 30
0.0
 10
573.4109599119
 20
171.9620552486
 30
0.0
 10
573.8123867837
 20
173.1001522586
 30
0.0
 10
573.9030989462
 20
173.8938381028
 30
0.0
 10
573.9030989462
 20
174.286846051
 30
0.0
  0
SPLINE
  5
54B
100
AcDbEntity
  8
0
100
AcDbSpline
 62
7
  6
CONTINUOUS
 70
0
 71
3
 72
15
 73
11
 74
0
 42
0.0000001
 43
0.0000001
 44
0.0000000001
 40
0.0
 40
0.0
 40
0.0
 40
0.0
 40
0.1179178145
 40
0.2413894971
 40
0.3694212554
 40
0.5
 40
0.6305787446
 40
0.7586105029
 40
0.8820821855
 40
1.0
 40
1.0
 40
1.0
 40
1.0
 10
574.1161123716
 20
168.0881071882
 30
0.0
 10
573.7254874488
 20
167.5861117177
 30
0.0
 10
572.7820824633
 20
166.6645229212
 30
0.0
 10
571.0502088797
 20
165.6456503601
 30
0.0
 10
569.072758047
 20
165.0100977269
 30
0.0
 10
566.9696155563
 20
164.7944739809
 30
0.0
 10
564.8664730657
 20
165.0100977269
 30
0.0
 10
562.8890222329
 20
165.6456503601
 30
0.0
 10
561.1571486494
 20
166.6645229212
 30
0.0
 10
560.2137436638
 20
167.5861117177
 30
0.0
 10
559.823118741
 20
168.0881071882
 30
0.0
  0
SPLINE
  5
54C
100
AcDbEntity
  8
0
100
AcDbSpline
 62
7
  6
CONTINUOUS
 70
0
 71
3
 72
10
 73
6
 74
0
 42
0.0000001
 43
0.0000001
 44
0.0000000001
 40
0.0
 40
0.0
 40
0.0
 40
0.0
 40
0.4874826639
 40
0.7425753948
 40
1.0
 40
1.0
 40
1.0
 40
1.0
 10
563.8554468856
 20
186.6417861994
 30
0.0
 10
564.1464897847
 20
187.091002744
 30
0.0
 10
564.5627470759
 20
187.7941570246
 30
0.0
 10
565.0376069279
 20
188.7848289981
 30
0.0
 10
565.2402727357
 20
189.3109677766
 30
0.0
 10
565.3267808885
 20
189.5800575741
 30
0.0
  0
SPLINE
  5
54D
100
AcDbEntity
  8
0
100
AcDbSpline
 62
7
  6
CONTINUOUS
 70
0
 71
3
 72
12
 73
8
 74
0
 42
0.0000001
 43
0.0000001
 44
0.0000000001
 40
0.0
 40
0.0
 40
0.0
 40
0.0
 40
0.3032739606
 40
0.587585613
 40
0.7135724197
 40
0.8247753364
 40
1.0
 40
1.0
 40
1.0
 40
1.0
 10
560.4347107435
 20
182.060600591
 30
0.0
 10
560.1805982586
 20
181.9936388226
 30
0.0
 10
559.698942623
 20
181.8201085241
 30
0.0
 10
559.1588569071
 20
181.5103142362
 30
0.0
 10
558.8134181631
 20
181.2152294941
 30
0.0
 10
558.5803825939
 20
180.9466689534
 30
0.0
 10
558.4696155563
 20
180.7031584527
 30
0.0
 10
558.4696155563
 20
180.5513261878
 30
0.0
  0
LINE
  5
54E
100
AcDbEntity
  8
KONSTRUKTIONSELEMENTE
100
AcDbLine
 62
7
  6
CONTINUOUS
 10
570.3298303372
 20
210.5879567348
 11
570.3808664399
 21
210.4131379507
  0
LINE
  5
54F
100
AcDbEntity
  8
KONSTRUKTIONSELEMENTE
100
AcDbLine
 62
7
  6
CONTINUOUS
 10
570.3808664399
 20
210.4131379507
 11
570.6012938466
 21
209.657984847
  0
LINE
  5
550
100
AcDbEntity
  8
KONSTRUKTIONSELEMENTE
100
AcDbLine
 62
7
  6
CONTINUOUS
 10
570.6012938466
 20
209.657984847
 11
570.6351129391
 21
209.5421095782
  0
LINE
  5
551
100
AcDbEntity
  8
KONSTRUKTIONSELEMENTE
100
AcDbLine
 62
7
  6
CONTINUOUS
 10
570.6351129391
 20
209.5421095782
 11
570.7347870688
 21
209.2005665592
  0
LINE
  5
552
100
AcDbEntity
  8
KONSTRUKTIONSELEMENTE
100
AcDbLine
 62
7
  6
CONTINUOUS
 10
570.7347870688
 20
209.2005665592
 11
570.7367919852
 21
209.1936960924
  0
LINE
  5
553
100
AcDbEntity
  8
KONSTRUKTIONSELEMENTE
100
AcDbLine
 62
7
  6
CONTINUOUS
 10
570.7367919852
 20
209.1936960924
 11
571.0925639524
 21
207.9742309564
  0
LINE
  5
554
100
AcDbEntity
  8
KONSTRUKTIONSELEMENTE
100
AcDbLine
 62
7
  6
CONTINUOUS
 10
571.0925639524
 20
207.9742309564
 11
571.1261836199
 21
207.8589594403
  0
LINE
  5
555
100
AcDbEntity
  8
0
100
AcDbLine
 62
7
  6
CONTINUOUS
 10
566.969610955
 20
188.0593434404
 11
566.9696155563
 21
186.7375144929
  0
LINE
  5
556
100
AcDbEntity
  8
KONSTRUKTIONSELEMENTE
100
AcDbLine
 62
7
  6
CONTINUOUS
 10
570.7789528552
 20
209.5636013788
 11
570.8872493321
 21
209.2426724551
  0
SPLINE
  5
557
100
AcDbEntity
  8
KONSTRUKTIONSELEMENTE
100
AcDbSpline
 62
7
  6
CONTINUOUS
 70
0
 71
3
 72
8
 73
4
 74
0
 42
0.0000001
 43
0.0000001
 44
0.0000000001
 40
0.0
 40
0.0
 40
0.0
 40
0.0
 40
1.0
 40
1.0
 40
1.0
 40
1.0
 10
570.8872493321
 20
209.2426724551
 30
0.0
 10
570.9501010797
 20
209.05612044
 30
0.0
 10
571.0127926621
 20
208.8695143578
 30
0.0
 10
571.0752954463
 20
208.6828451357
 30
0.0
  0
LINE
  5
558
100
AcDbEntity
  8
KONSTRUKTIONSELEMENTE
100
AcDbLine
 62
7
  6
CONTINUOUS
 10
571.0752954463
 20
208.6828451357
 11
571.0870677801
 21
208.6476787176
  0
LINE
  5
559
100
AcDbEntity
  8
KONSTRUKTIONSELEMENTE
100
AcDbLine
 62
7
  6
CONTINUOUS
 10
571.0870677801
 20
208.6476787176
 11
571.132084833
 21
208.5130630789
  0
LINE
  5
55A
100
AcDbEntity
  8
KONSTRUKTIONSELEMENTE
100
AcDbLine
 62
7
  6
CONTINUOUS
 10
570.6236315696
 20
210.2338761027
 11
570.6585277886
 21
210.0755483159
  0
LINE
  5
55B
100
AcDbEntity
  8
KONSTRUKTIONSELEMENTE
100
AcDbLine
 62
7
  6
CONTINUOUS
 10
570.5721808628
 20
210.4291674965
 11
570.6236315696
 21
210.2338761027
  0
LINE
  5
55C
100
AcDbEntity
  8
KONSTRUKTIONSELEMENTE
100
AcDbLine
 62
7
  6
CONTINUOUS
 10
570.5212726002
 20
210.6033589551
 11
570.5721808628
 21
210.4291674965
  0
LINE
  5
55D
100
AcDbEntity
  8
KONSTRUKTIONSELEMENTE
100
AcDbLine
 62
7
  6
CONTINUOUS
 10
570.4708862553
 20
210.7564501531
 11
570.5212726002
 21
210.6033589551
  0
LINE
  5
55E
100
AcDbEntity
  8
KONSTRUKTIONSELEMENTE
100
AcDbLine
 62
7
  6
CONTINUOUS
 10
570.4378437914
 20
210.8303774275
 11
570.4654186963
 21
210.7687134538
  0
LINE
  5
55F
100
AcDbEntity
  8
KONSTRUKTIONSELEMENTE
100
AcDbLine
 62
7
  6
CONTINUOUS
 10
570.4654186963
 20
210.7687134538
 11
570.4708862553
 21
210.7564501531
  0
SPLINE
  5
560
100
AcDbEntity
  8
0
100
AcDbSpline
 62
7
  6
CONTINUOUS
 70
0
 71
3
 72
13
 73
9
 74
0
 42
0.0000001
 43
0.0000001
 44
0.0000000001
 40
0.0
 40
0.0
 40
0.0
 40
0.0
 40
0.1227762064
 40
0.2475673146
 40
0.500002907
 40
0.7524368531
 40
0.8772261006
 40
1.0
 40
1.0
 40
1.0
 40
1.0
 10
561.2246728213
 20
174.9829296459
 30
0.0
 10
561.6148386969
 20
174.658943974
 30
0.0
 10
562.4638763046
 20
174.0769596517
 30
0.0
 10
564.3534112321
 20
173.222437191
 30
0.0
 10
566.9704475059
 20
172.7797429596
 30
0.0
 10
569.5874003777
 20
173.2228931677
 30
0.0
 10
571.4767587378
 20
174.0777489289
 30
0.0
 10
572.3256735796
 20
174.6598824366
 30
0.0
 10
572.7157703939
 20
174.9839363458
 30
0.0
  0
SPLINE
  5
561
100
AcDbEntity
  8
KONSTRUKTIONSELEMENTE
100
AcDbSpline
 62
7
  6
CONTINUOUS
 70
0
 71
3
 72
9
 73
5
 74
0
 42
0.0000001
 43
0.0000001
 44
0.0000000001
 40
0.0
 40
0.0
 40
0.0
 40
0.0
 40
0.4431642081
 40
1.0
 40
1.0
 40
1.0
 40
1.0
 10
575.4696155563
 20
169.4325130883
 30
0.0
 10
575.2437500806
 20
169.262895542
 30
0.0
 10
574.7566689404
 20
168.8488345174
 30
0.0
 10
574.3340728788
 20
168.3682101232
 30
0.0
 10
574.1161123716
 20
168.0881071882
 30
0.0
  0
SPLINE
  5
562
100
AcDbEntity
  8
0
100
AcDbSpline
 62
7
  6
CONTINUOUS
 70
0
 71
3
 72
11
 73
7
 74
0
 42
0.0000001
 43
0.0000001
 44
0.0000000001
 40
0.0
 40
0.0
 40
0.0
 40
0.0
 40
0.2345681985
 40
0.4799686294
 40
0.7365268714
 40
1.0
 40
1.0
 40
1.0
 40
1.0
 10
564.5343429634
 20
183.262745518
 30
0.0
 10
564.5982920193
 20
183.5013537023
 30
0.0
 10
564.8269908259
 20
183.9674975657
 30
0.0
 10
565.4004967004
 20
184.5105232157
 30
0.0
 10
566.1410375688
 20
184.858896546
 30
0.0
 10
566.6921460833
 20
184.9383344957
 30
0.0
 10
566.9696155563
 20
184.9383344957
 30
0.0
  0
LINE
  5
563
100
AcDbEntity
  8
KONSTRUKTIONSELEMENTE
100
AcDbLine
 62
7
  6
CONTINUOUS
 10
570.9417330518
 20
209.4858112101
 11
571.0112037354
 21
209.2630637246
  0
LINE
  5
564
100
AcDbEntity
  8
KONSTRUKTIONSELEMENTE
100
AcDbLine
 62
7
  6
CONTINUOUS
 10
570.856107962
 20
209.7828681115
 11
570.9417330518
 21
209.4858112101
  0
LINE
  5
565
100
AcDbEntity
  8
KONSTRUKTIONSELEMENTE
100
AcDbLine
 62
7
  6
CONTINUOUS
 10
570.3306432253
 20
211.7015947514
 11
570.5010868603
 21
211.079331378
  0
LINE
  5
566
100
AcDbEntity
  8
KONSTRUKTIONSELEMENTE
100
AcDbLine
 62
7
  6
CONTINUOUS
 10
570.5010868603
 20
211.079331378
 11
570.5082249012
 21
211.0532694102
  0
LINE
  5
567
100
AcDbEntity
  8
KONSTRUKTIONSELEMENTE
100
AcDbLine
 62
7
  6
CONTINUOUS
 10
570.5082249012
 20
211.0532694102
 11
570.5487198993
 21
210.9054132685
  0
LINE
  5
568
100
AcDbEntity
  8
KONSTRUKTIONSELEMENTE
100
AcDbLine
 62
7
  6
CONTINUOUS
 10
570.5487198993
 20
210.9054132685
 11
570.5912145693
 21
210.7502496242
  0
LINE
  5
569
100
AcDbEntity
  8
KONSTRUKTIONSELEMENTE
100
AcDbLine
 62
7
  6
CONTINUOUS
 10
570.5912145693
 20
210.7502496242
 11
570.5961107989
 21
210.7323712702
  0
LINE
  5
56A
100
AcDbEntity
  8
KONSTRUKTIONSELEMENTE
100
AcDbLine
 62
7
  6
CONTINUOUS
 10
570.5961107989
 20
210.7323712702
 11
570.6551124328
 21
210.5169225187
  0
LINE
  5
56B
100
AcDbEntity
  8
KONSTRUKTIONSELEMENTE
100
AcDbLine
 62
7
  6
CONTINUOUS
 10
570.6551124328
 20
210.5169225187
 11
570.6833888859
 21
210.4136642805
  0
LINE
  5
56C
100
AcDbEntity
  8
KONSTRUKTIONSELEMENTE
100
AcDbLine
 62
7
  6
CONTINUOUS
 10
570.6833888859
 20
210.4136642805
 11
570.7084658222
 21
210.3220872145
  0
LINE
  5
56D
100
AcDbEntity
  8
KONSTRUKTIONSELEMENTE
100
AcDbLine
 62
7
  6
CONTINUOUS
 10
570.7084658222
 20
210.3220872145
 11
570.7700542256
 21
210.0971651243
  0
LINE
  5
56E
100
AcDbEntity
  8
KONSTRUKTIONSELEMENTE
100
AcDbLine
 62
7
  6
CONTINUOUS
 10
570.7700542256
 20
210.0971651243
 11
570.7886365994
 21
210.0292988081
  0
LINE
  5
56F
100
AcDbEntity
  8
KONSTRUKTIONSELEMENTE
100
AcDbLine
 62
7
  6
CONTINUOUS
 10
570.7886365994
 20
210.0292988081
 11
570.8374515864
 21
209.8510101999
  0
LINE
  5
570
100
AcDbEntity
  8
KONSTRUKTIONSELEMENTE
100
AcDbLine
 62
7
  6
CONTINUOUS
 10
570.8374515864
 20
209.8510101999
 11
570.8422407166
 21
209.8335181339
  0
LINE
  5
571
100
AcDbEntity
  8
KONSTRUKTIONSELEMENTE
100
AcDbLine
 62
7
  6
CONTINUOUS
 10
570.8422407166
 20
209.8335181339
 11
570.856107962
 21
209.7828681115
  0
SPLINE
  5
572
100
AcDbEntity
  8
RUNDUNGEN
100
AcDbSpline
 62
7
  6
CONTINUOUS
 70
0
 71
3
 72
10
 73
6
 74
0
 42
0.0000001
 43
0.0000001
 44
0.0000000001
 40
0.0
 40
0.0
 40
0.0
 40
0.0
 40
0.4874826639
 40
0.7425753948
 40
1.0
 40
1.0
 40
1.0
 40
1.0
 10
570.083784227
 20
186.6417861994
 30
0.0
 10
569.7927413279
 20
187.091002744
 30
0.0
 10
569.3764840367
 20
187.7941570246
 30
0.0
 10
568.9016241847
 20
188.7848289981
 30
0.0
 10
568.6989583769
 20
189.3109677766
 30
0.0
 10
568.6124502241
 20
189.5800575741
 30
0.0
  0
SPLINE
  5
573
100
AcDbEntity
  8
0
100
AcDbSpline
 62
7
  6
CONTINUOUS
 70
0
 71
3
 72
9
 73
5
 74
0
 42
0.0000001
 43
0.0000001
 44
0.0000000001
 40
0.0
 40
0.0
 40
0.0
 40
0.0
 40
0.5000760418
 40
1.0
 40
1.0
 40
1.0
 40
1.0
 10
568.4849816753
 20
211.2537642118
 30
0.0
 10
568.6254120123
 20
209.7746629436
 30
0.0
 10
568.797321956
 20
206.8048809853
 30
0.0
 10
568.7112331429
 20
203.8309913323
 30
0.0
 10
568.6088217336
 20
202.3492252648
 30
0.0
  0
LINE
  5
574
100
AcDbEntity
  8
KONSTRUKTIONSELEMENTE
100
AcDbLine
 62
7
  6
CONTINUOUS
 10
571.0340568022
 20
209.3708419014
 11
571.0339980337
 21
209.36256521
  0
LINE
  5
575
100
AcDbEntity
  8
KONSTRUKTIONSELEMENTE
100
AcDbLine
 62
7
  6
CONTINUOUS
 10
571.0161727423
 20
209.5237802303
 11
571.022207129
 21
209.4865962347
  0
LINE
  5
576
100
AcDbEntity
  8
KONSTRUKTIONSELEMENTE
100
AcDbLine
 62
7
  6
CONTINUOUS
 10
571.031085153
 20
209.4308187915
 11
571.033998034
 21
209.4122255205
  0
LINE
  5
577
100
AcDbEntity
  8
KONSTRUKTIONSELEMENTE
100
AcDbLine
 62
7
  6
CONTINUOUS
 10
570.9810420428
 20
209.6848142874
 11
570.9869540184
 21
209.65785733
  0
LINE
  5
578
100
AcDbEntity
  8
KONSTRUKTIONSELEMENTE
100
AcDbLine
 62
7
  6
CONTINUOUS
 10
570.9869540184
 20
209.65785733
 11
571.0103741916
 21
209.5505025952
  0
LINE
  5
579
100
AcDbEntity
  8
KONSTRUKTIONSELEMENTE
100
AcDbLine
 62
7
  6
CONTINUOUS
 10
571.0103741916
 20
209.5505025952
 11
571.0161727423
 21
209.5237802303
  0
LINE
  5
57A
100
AcDbEntity
  8
KONSTRUKTIONSELEMENTE
100
AcDbLine
 62
7
  6
CONTINUOUS
 10
570.9290940901
 20
209.8953276052
 11
570.9810420428
 21
209.6848142874
  0
LINE
  5
57B
100
AcDbEntity
  8
KONSTRUKTIONSELEMENTE
100
AcDbLine
 62
7
  6
CONTINUOUS
 10
570.8606378817
 20
210.155320298
 11
570.9177278556
 21
209.938504125
  0
LINE
  5
57C
100
AcDbEntity
  8
KONSTRUKTIONSELEMENTE
100
AcDbLine
 62
7
  6
CONTINUOUS
 10
570.9177278556
 20
209.938504125
 11
570.9290940901
 21
209.8953276052
  0
LINE
  5
57D
100
AcDbEntity
  8
KONSTRUKTIONSELEMENTE
100
AcDbLine
 62
7
  6
CONTINUOUS
 10
570.3346000894
 20
212.0740469378
 11
570.4105847381
 21
211.7969191317
  0
LINE
  5
57E
100
AcDbEntity
  8
KONSTRUKTIONSELEMENTE
100
AcDbLine
 62
7
  6
CONTINUOUS
 10
570.4105847381
 20
211.7969191317
 11
570.4235095045
 21
211.7497797004
  0
LINE
  5
57F
100
AcDbEntity
  8
KONSTRUKTIONSELEMENTE
100
AcDbLine
 62
7
  6
CONTINUOUS
 10
570.4235095045
 20
211.7497797004
 11
570.8413286946
 21
210.2257592557
  0
LINE
  5
580
100
AcDbEntity
  8
KONSTRUKTIONSELEMENTE
100
AcDbLine
 62
7
  6
CONTINUOUS
 10
570.8413286946
 20
210.2257592557
 11
570.8606378817
 21
210.155320298
  0
SPLINE
  5
581
100
AcDbEntity
  8
KONSTRUKTIONSELEMENTE
100
AcDbSpline
 62
7
  6
CONTINUOUS
 70
0
 71
3
 72
8
 73
4
 74
0
 42
0.0000001
 43
0.0000001
 44
0.0000000001
 40
0.0
 40
0.0
 40
0.0
 40
0.0
 40
1.0
 40
1.0
 40
1.0
 40
1.0
 10
570.3374161542
 20
212.3811343685
 30
0.0
 10
570.3388313456
 20
212.3560717266
 30
0.0
 10
570.3357814572
 20
212.3304632048
 30
0.0
 10
570.3289736824
 20
212.3063013963
 30
0.0
  0
SPLINE
  5
582
100
AcDbEntity
  8
0
100
AcDbSpline
 62
7
  6
CONTINUOUS
 70
0
 71
3
 72
11
 73
7
 74
0
 42
0.0000001
 43
0.0000001
 44
0.0000000001
 40
0.0
 40
0.0
 40
0.0
 40
0.0
 40
0.2510831748
 40
0.5000000002
 40
0.7489168258
 40
1.0
 40
1.0
 40
1.0
 40
1.0
 10
568.4849816753
 20
216.1435638329
 30
0.0
 10
568.5666093277
 20
215.7397725434
 30
0.0
 10
568.6941011608
 20
214.9279160142
 30
0.0
 10
568.7603080114
 20
213.698664021
 30
0.0
 10
568.6941011626
 20
212.4694120285
 30
0.0
 10
568.5666093276
 20
211.6575555004
 30
0.0
 10
568.4849816753
 20
211.2537642118
 30
0.0
  0
SPLINE
  5
583
100
AcDbEntity
  8
0
100
AcDbSpline
 62
7
  6
CONTINUOUS
 70
0
 71
3
 72
11
 73
7
 74
0
 42
0.0000001
 43
0.0000001
 44
0.0000000001
 40
0.0
 40
0.0
 40
0.0
 40
0.0
 40
0.2345681985
 40
0.4799686294
 40
0.7365268714
 40
1.0
 40
1.0
 40
1.0
 40
1.0
 10
569.4048881493
 20
183.262745518
 30
0.0
 10
569.3409390934
 20
183.5013537023
 30
0.0
 10
569.1122402868
 20
183.9674975657
 30
0.0
 10
568.5387344123
 20
184.5105232157
 30
0.0
 10
567.7981935439
 20
184.858896546
 30
0.0
 10
567.2470850294
 20
184.9383344957
 30
0.0
 10
566.9696155563
 20
184.9383344957
 30
0.0
  0
SPLINE
  5
584
100
AcDbEntity
  8
RUNDUNGEN
100
AcDbSpline
 62
7
  6
CONTINUOUS
 70
0
 71
3
 72
12
 73
8
 74
0
 42
0.0000001
 43
0.0000001
 44
0.0000000001
 40
0.0
 40
0.0
 40
0.0
 40
0.0
 40
0.3032739606
 40
0.587585613
 40
0.7135724197
 40
0.8247753364
 40
1.0
 40
1.0
 40
1.0
 40
1.0
 10
573.5045203692
 20
182.060600591
 30
0.0
 10
573.7586328541
 20
181.9936388226
 30
0.0
 10
574.2402884896
 20
181.8201085241
 30
0.0
 10
574.7803742056
 20
181.5103142362
 30
0.0
 10
575.1258129496
 20
181.2152294941
 30
0.0
 10
575.3588485187
 20
180.9466689534
 30
0.0
 10
575.4696155563
 20
180.7031584527
 30
0.0
 10
575.4696155563
 20
180.5513261878
 30
0.0
  0
LINE
  5
585
100
AcDbEntity
  8
KONSTRUKTIONSELEMENTE
100
AcDbLine
 62
7
  6
CONTINUOUS
 10
570.3289736824
 20
212.3063013963
 11
570.368277949
 21
212.1585482304
  0
LINE
  5
586
100
AcDbEntity
  8
KONSTRUKTIONSELEMENTE
100
AcDbLine
 62
7
  6
CONTINUOUS
 10
570.368277949
 20
212.1585482304
 11
570.4610630975
 21
211.8097244698
  0
LINE
  5
587
100
AcDbEntity
  8
KONSTRUKTIONSELEMENTE
100
AcDbLine
 62
7
  6
CONTINUOUS
 10
570.4610630975
 20
211.8097244698
 11
570.8659368415
 21
210.287147447
  0
LINE
  5
588
100
AcDbEntity
  8
KONSTRUKTIONSELEMENTE
100
AcDbLine
 62
7
  6
CONTINUOUS
 10
570.8659368415
 20
210.287147447
 11
570.8795243613
 21
210.2360350123
  0
LINE
  5
589
100
AcDbEntity
  8
KONSTRUKTIONSELEMENTE
100
AcDbLine
 62
7
  6
CONTINUOUS
 10
570.8795243613
 20
210.2360350123
 11
570.9650908839
 21
209.9141323506
  0
LINE
  5
58A
100
AcDbEntity
  8
KONSTRUKTIONSELEMENTE
100
AcDbLine
 62
7
  6
CONTINUOUS
 10
570.9650908839
 20
209.9141323506
 11
570.9722925815
 21
209.8870373775
  0
LINE
  5
58B
100
AcDbEntity
  8
KONSTRUKTIONSELEMENTE
100
AcDbLine
 62
7
  6
CONTINUOUS
 10
570.9722925815
 20
209.8870373775
 11
570.9963094899
 21
209.796676072
  0
LINE
  5
58C
100
AcDbEntity
  8
KONSTRUKTIONSELEMENTE
100
AcDbLine
 62
7
  6
CONTINUOUS
 10
570.9963094899
 20
209.796676072
 11
571.0351881489
 21
209.6503908629
  0
LINE
  5
58D
100
AcDbEntity
  8
KONSTRUKTIONSELEMENTE
100
AcDbLine
 62
7
  6
CONTINUOUS
 10
571.0351881489
 20
209.6503908629
 11
571.0372983763
 21
209.6424506133
  0
LINE
  5
58E
100
AcDbEntity
  8
KONSTRUKTIONSELEMENTE
100
AcDbLine
 62
7
  6
CONTINUOUS
 10
571.0372983763
 20
209.6424506133
 11
571.0785423217
 21
209.4872540281
  0
LINE
  5
58F
100
AcDbEntity
  8
KONSTRUKTIONSELEMENTE
100
AcDbLine
 62
7
  6
CONTINUOUS
 10
571.0785423217
 20
209.4872540281
 11
571.1023404732
 21
209.397698739
  0
LINE
  5
590
100
AcDbEntity
  8
KONSTRUKTIONSELEMENTE
100
AcDbLine
 62
7
  6
CONTINUOUS
 10
571.1023404732
 20
209.397698739
 11
571.11573446
 21
209.3472937997
  0
LINE
  5
591
100
AcDbEntity
  8
KONSTRUKTIONSELEMENTE
100
AcDbLine
 62
7
  6
CONTINUOUS
 10
571.11573446
 20
209.3472937997
 11
571.1251241336
 21
209.3119573301
  0
LINE
  5
592
100
AcDbEntity
  8
0
100
AcDbLine
 62
7
  6
CONTINUOUS
 10
566.9696155563
 20
180.9398986936
 11
566.9696155563
 21
179.5918211938
  0
SPLINE
  5
593
100
AcDbEntity
  8
KONSTRUKTIONSELEMENTE
100
AcDbSpline
 62
7
  6
CONTINUOUS
 70
0
 71
3
 72
8
 73
4
 74
0
 42
0.0000001
 43
0.0000001
 44
0.0000000001
 40
0.0
 40
0.0
 40
0.0
 40
0.0
 40
1.0
 40
1.0
 40
1.0
 40
1.0
 10
571.0336807008
 20
209.7690469906
 30
0.0
 10
571.0349516027
 20
209.7503147464
 30
0.0
 10
571.0332563171
 20
209.7311909493
 30
0.0
 10
571.0289242031
 20
209.7129222615
 30
0.0
  0
LINE
  5
594
100
AcDbEntity
  8
KONSTRUKTIONSELEMENTE
100
AcDbLine
 62
7
  6
CONTINUOUS
 10
571.0154361455
 20
209.8452285813
 11
571.0216099676
 21
209.8198345701
  0
LINE
  5
595
100
AcDbEntity
  8
KONSTRUKTIONSELEMENTE
100
AcDbLine
 62
7
  6
CONTINUOUS
 10
570.9800003453
 20
209.9820016287
 11
570.9978212346
 21
209.9134307911
  0
LINE
  5
596
100
AcDbEntity
  8
KONSTRUKTIONSELEMENTE
100
AcDbLine
 62
7
  6
CONTINUOUS
 10
570.9978212346
 20
209.9134307911
 11
571.0095872438
 21
209.8679222532
  0
LINE
  5
597
100
AcDbEntity
  8
KONSTRUKTIONSELEMENTE
100
AcDbLine
 62
7
  6
CONTINUOUS
 10
571.0095872438
 20
209.8679222532
 11
571.0154361455
 21
209.8452285813
  0
LINE
  5
598
100
AcDbEntity
  8
KONSTRUKTIONSELEMENTE
100
AcDbLine
 62
7
  6
CONTINUOUS
 10
570.9278623228
 20
210.1793660435
 11
570.9800003453
 21
209.9820016287
  0
LINE
  5
599
100
AcDbEntity
  8
KONSTRUKTIONSELEMENTE
100
AcDbLine
 62
7
  6
CONTINUOUS
 10
570.8593286598
 20
210.4373218346
 11
570.8936710539
 21
210.3080727508
  0
LINE
  5
59A
100
AcDbEntity
  8
KONSTRUKTIONSELEMENTE
100
AcDbLine
 62
7
  6
CONTINUOUS
 10
570.8936710539
 20
210.3080727508
 11
570.9164820355
 21
210.2222080014
  0
LINE
  5
59B
100
AcDbEntity
  8
KONSTRUKTIONSELEMENTE
100
AcDbLine
 62
7
  6
CONTINUOUS
 10
570.9164820355
 20
210.2222080014
 11
570.9278623228
 21
210.1793660435
  0
LINE
  5
59C
100
AcDbEntity
  8
KONSTRUKTIONSELEMENTE
100
AcDbLine
 62
7
  6
CONTINUOUS
 10
570.604895619
 20
211.3929635332
 11
570.8593286598
 21
210.4373218346
  0
LINE
  5
59D
100
AcDbEntity
  8
KONSTRUKTIONSELEMENTE
100
AcDbLine
 62
7
  6
CONTINUOUS
 10
570.537664047
 20
211.6446832671
 11
570.604895619
 21
211.3929635332
  0
LINE
  5
59E
100
AcDbEntity
  8
KONSTRUKTIONSELEMENTE
100
AcDbLine
 62
7
  6
CONTINUOUS
 10
570.487858363
 20
211.8295756745
 11
570.537664047
 21
211.6446832671
  0
LINE
  5
59F
100
AcDbEntity
  8
KONSTRUKTIONSELEMENTE
100
AcDbLine
 62
7
  6
CONTINUOUS
 10
570.4552049322
 20
211.9476404343
 11
570.4606934251
 21
211.9279039606
  0
LINE
  5
5A0
100
AcDbEntity
  8
KONSTRUKTIONSELEMENTE
100
AcDbLine
 62
7
  6
CONTINUOUS
 10
570.4606934251
 20
211.9279039606
 11
570.4716147613
 21
211.8885024123
  0
LINE
  5
5A1
100
AcDbEntity
  8
KONSTRUKTIONSELEMENTE
100
AcDbLine
 62
7
  6
CONTINUOUS
 10
570.4716147613
 20
211.8885024123
 11
570.4824622192
 21
211.8491947681
  0
LINE
  5
5A2
100
AcDbEntity
  8
KONSTRUKTIONSELEMENTE
100
AcDbLine
 62
7
  6
CONTINUOUS
 10
570.4824622192
 20
211.8491947681
 11
570.487858363
 21
211.8295756745
  0
LINE
  5
5A3
100
AcDbEntity
  8
KONSTRUKTIONSELEMENTE
100
AcDbLine
 62
7
  6
CONTINUOUS
 10
569.501138622
 20
212.3063013963
 11
569.5404428891
 21
212.1585482285
  0
LINE
  5
5A4
100
AcDbEntity
  8
KONSTRUKTIONSELEMENTE
100
AcDbLine
 62
7
  6
CONTINUOUS
 10
569.5404428891
 20
212.1585482285
 11
569.5431057259
 21
212.1485378359
  0
SPLINE
  5
5A5
100
AcDbEntity
  8
KONSTRUKTIONSELEMENTE
100
AcDbSpline
 62
7
  6
CONTINUOUS
 70
0
 71
3
 72
8
 73
4
 74
0
 42
0.0000001
 43
0.0000001
 44
0.0000000001
 40
0.0
 40
0.0
 40
0.0
 40
0.0
 40
1.0
 40
1.0
 40
1.0
 40
1.0
 10
569.5095810938
 20
212.3811343685
 30
0.0
 10
569.5109962852
 20
212.3560717266
 30
0.0
 10
569.5079463968
 20
212.3304632048
 30
0.0
 10
569.501138622
 20
212.3063013963
 30
0.0
  0
SPLINE
  5
5A6
100
AcDbEntity
  8
0
100
AcDbSpline
 62
7
  6
CONTINUOUS
 70
0
 71
3
 72
9
 73
5
 74
0
 42
0.0000001
 43
0.0000001
 44
0.0000000001
 40
0.0
 40
0.0
 40
0.0
 40
0.0
 40
0.4431642081
 40
1.0
 40
1.0
 40
1.0
 40
1.0
 10
558.4696155563
 20
169.4325130883
 30
0.0
 10
558.695481032
 20
169.262895542
 30
0.0
 10
559.1825621722
 20
168.8488345174
 30
0.0
 10
559.6051582339
 20
168.3682101232
 30
0.0
 10
559.823118741
 20
168.0881071882
 30
0.0
  0
LINE
  5
5A7
100
AcDbEntity
  8
KONSTRUKTIONSELEMENTE
100
AcDbLine
 62
7
  6
CONTINUOUS
 10
569.5028081649
 20
211.7015947514
 11
569.6469717377
 21
211.1752820257
  0
LINE
  5
5A8
100
AcDbEntity
  8
KONSTRUKTIONSELEMENTE
100
AcDbLine
 62
7
  6
CONTINUOUS
 10
569.6469717377
 20
211.1752820257
 11
569.6561431992
 21
211.1417965467
  0
LINE
  5
5A9
100
AcDbEntity
  8
KONSTRUKTIONSELEMENTE
100
AcDbLine
 62
7
  6
CONTINUOUS
 10
569.5884619218
 20
211.7760853724
 11
569.5827497206
 21
211.7969189811
  0
LINE
  5
5AA
100
AcDbEntity
  8
KONSTRUKTIONSELEMENTE
100
AcDbLine
 62
7
  6
CONTINUOUS
 10
569.5827497206
 20
211.7969189811
 11
569.506765029
 21
212.0740469378
  0
LINE
  5
5AB
100
AcDbEntity
  8
KONSTRUKTIONSELEMENTE
100
AcDbLine
 62
7
  6
CONTINUOUS
 10
569.5019952768
 20
210.5879567348
 11
570.2983485595
 21
207.8589594403
  0
SPLINE
  5
5AC
100
AcDbEntity
  8
KONSTRUKTIONSELEMENTE
100
AcDbSpline
 62
7
  6
CONTINUOUS
 70
0
 71
3
 72
9
 73
5
 74
0
 42
0.0000001
 43
0.0000001
 44
0.0000000001
 40
0.0
 40
0.0
 40
0.0
 40
0.0
 40
0.4954958458
 40
1.0
 40
1.0
 40
1.0
 40
1.0
 10
547.7203731329
 20
183.5760313842
 30
0.0
 10
549.3923269371
 20
185.0239858527
 30
0.0
 10
552.5806128709
 20
188.1642873385
 30
0.0
 10
555.4104184787
 20
191.6294985042
 30
0.0
 10
556.7306356945
 20
193.4539222808
 30
0.0
  0
SPLINE
  5
5AD
100
AcDbEntity
  8
KONSTRUKTIONSELEMENTE
100
AcDbSpline
 62
7
  6
CONTINUOUS
 70
0
 71
3
 72
9
 73
5
 74
0
 42
0.0000001
 43
0.0000001
 44
0.0000000001
 40
0.0
 40
0.0
 40
0.0
 40
0.0
 40
0.2587829631
 40
1.0
 40
1.0
 40
1.0
 40
1.0
 10
562.7459286304
 20
205.11814684
 30
0.0
 10
562.7992783543
 20
205.3202874615
 30
0.0
 10
562.9925263124
 20
206.1046402944
 30
0.0
 10
563.1315577857
 20
206.9032547036
 30
0.0
 10
563.1920029089
 20
207.4990010162
 30
0.0
  0
LINE
  5
5AE
100
AcDbEntity
  8
KONSTRUKTIONSELEMENTE
100
AcDbLine
 62
7
  6
CONTINUOUS
 10
563.1920029089
 20
207.4990010162
 11
563.1951797877
 21
207.530713751
  0
SPLINE
  5
5AF
100
AcDbEntity
  8
KONSTRUKTIONSELEMENTE
100
AcDbSpline
 62
7
  6
CONTINUOUS
 70
0
 71
3
 72
11
 73
7
 74
0
 42
0.0000001
 43
0.0000001
 44
0.0000000001
 40
0.0
 40
0.0
 40
0.0
 40
0.0
 40
0.2508976877
 40
0.4982637551
 40
0.7475264446
 40
1.0
 40
1.0
 40
1.0
 40
1.0
 10
563.2471118934
 20
208.3246202164
 30
0.0
 10
563.2628061215
 20
208.8358499788
 30
0.0
 10
563.2228077361
 20
209.8558257919
 30
0.0
 10
562.883078399
 20
211.3522900213
 30
0.0
 10
562.2104659403
 20
212.7399381558
 30
0.0
 10
561.5282074427
 20
213.5227691492
 30
0.0
 10
561.1388035161
 20
213.8593152595
 30
0.0
  0
SPLINE
  5
5B0
100
AcDbEntity
  8
KONSTRUKTIONSELEMENTE
100
AcDbSpline
 62
7
  6
CONTINUOUS
 70
0
 71
3
 72
19
 73
15
 74
0
 42
0.0000001
 43
0.0000001
 44
0.0000000001
 40
0.0
 40
0.0
 40
0.0
 40
0.0
 40
0.1463712
 40
0.2968003233
 40
0.4441138256
 40
0.5815946947
 40
0.6450087779
 40
0.7043267543
 40
0.7594923199
 40
0.8108474075
 40
0.8592559102
 40
0.9060360039
 40
0.9526828682
 40
1.0
 40
1.0
 40
1.0
 40
1.0
 10
543.7924511086
 20
208.6116050604
 30
0.0
 10
542.4864717294
 20
207.4805937411
 30
0.0
 10
539.953188609
 20
205.0523024747
 30
0.0
 10
536.4948765454
 20
201.1048233055
 30
0.0
 10
533.4529971706
 20
196.9572373394
 30
0.0
 10
531.3427405912
 20
193.4201704673
 30
0.0
 10
530.0138780104
 20
190.6490337633
 30
0.0
 10
529.2386713968
 20
188.695439273
 30
0.0
 10
528.6695439077
 20
186.8197533736
 30
0.0
 10
528.3197181751
 20
185.0207667251
 30
0.0
 10
528.2150989563
 20
183.2879108499
 30
0.0
 10
528.4031999326
 20
181.6135276902
 30
0.0
 10
528.9534780931
 20
180.0289852097
 30
0.0
 10
529.5990141307
 20
179.1038045474
 30
0.0
 10
529.9842669227
 20
178.6994590586
 30
0.0
  0
SPLINE
  5
5B1
100
AcDbEntity
  8
KONSTRUKTIONSELEMENTE
100
AcDbSpline
 62
7
  6
CONTINUOUS
 70
0
 71
3
 72
29
 73
25
 74
0
 42
0.0000001
 43
0.0000001
 44
0.0000000001
 40
0.0
 40
0.0
 40
0.0
 40
0.0
 40
0.0038425111
 40
0.006877826
 40
0.0083401759
 40
0.0090978557
 40
0.0122169244
 40
0.0179337516
 40
0.0265411311
 40
0.0382974786
 40
0.0531437932
 40
0.0709517797
 40
0.0916105212
 40
0.1150179064
 40
0.1410570151
 40
0.1696072658
 40
0.2337651466
 40
0.3066512757
 40
0.3874470915
 40
0.475421617
 40
0.5698903892
 40
0.6702089349
 40
0.7757710248
 40
1.0
 40
1.0
 40
1.0
 40
1.0
 10
557.2217479785
 20
209.3218482708
 30
0.0
 10
557.2331456075
 20
209.313154174
 30
0.0
 10
557.25665898
 20
209.2965711054
 30
0.0
 10
557.2731517399
 20
209.2828804815
 30
0.0
 10
557.3031547719
 20
209.2643682303
 30
0.0
 10
557.2762357017
 20
209.2705425473
 30
0.0
 10
557.2481876273
 20
209.2792239423
 30
0.0
 10
557.1797461804
 20
209.290716904
 30
0.0
 10
557.0848244434
 20
209.299458664
 30
0.0
 10
556.9525007785
 20
209.3014224918
 30
0.0
 10
556.7872403494
 20
209.2938230267
 30
0.0
 10
556.5891570394
 20
209.2736308439
 30
0.0
 10
556.3610511505
 20
209.2378111541
 30
0.0
 10
556.1049939564
 20
209.1840003722
 30
0.0
 10
555.8230722258
 20
209.111645339
 30
0.0
 10
555.3986616379
 20
208.9842700551
 30
0.0
 10
554.8179667481
 20
208.7717996277
 30
0.0
 10
554.0735092585
 20
208.4447764501
 30
0.0
 10
553.2690655122
 20
208.0368765583
 30
0.0
 10
552.4154750395
 20
207.5505940739
 30
0.0
 10
551.5220208581
 20
206.9892231853
 30
0.0
 10
550.5970501192
 20
206.3563331645
 30
0.0
 10
549.305682902
 20
205.4035248392
 30
0.0
 10
548.3527214594
 20
204.6236610991
 30
0.0
 10
547.7203731329
 20
204.0760313842
 30
0.0
  0
SPLINE
  5
5B2
100
AcDbEntity
  8
KONSTRUKTIONSELEMENTE
100
AcDbSpline
 62
7
  6
CONTINUOUS
 70
0
 71
3
 72
9
 73
5
 74
0
 42
0.0000001
 43
0.0000001
 44
0.0000000001
 40
0.0
 40
0.0
 40
0.0
 40
0.0
 40
0.4931834846
 40
1.0
 40
1.0
 40
1.0
 40
1.0
 10
543.7924511086
 20
188.1116050604
 30
0.0
 10
545.1820706679
 20
189.3150509003
 30
0.0
 10
547.8532763078
 20
191.9266142537
 30
0.0
 10
550.2474905497
 20
194.7927531999
 30
0.0
 10
551.3794618305
 20
196.3051607019
 30
0.0
  0
SPLINE
  5
5B3
100
AcDbEntity
  8
KONSTRUKTIONSELEMENTE
100
AcDbSpline
 62
7
  6
CONTINUOUS
 70
0
 71
3
 72
9
 73
5
 74
0
 42
0.0000001
 43
0.0000001
 44
0.0000000001
 40
0.0
 40
0.0
 40
0.0
 40
0.0
 40
0.3159271867
 40
1.0
 40
1.0
 40
1.0
 40
1.0
 10
557.2381463328
 20
208.2855973475
 30
0.0
 10
557.2447743574
 20
208.3773123618
 30
0.0
 10
557.2589307339
 20
208.6678054105
 30
0.0
 10
557.2474127706
 20
208.9612171205
 30
0.0
 10
557.2123487799
 20
209.1572124786
 30
0.0
  0
SPLINE
  5
5B4
100
AcDbEntity
  8
KONSTRUKTIONSELEMENTE
100
AcDbSpline
 62
7
  6
CONTINUOUS
 70
0
 71
3
 72
9
 73
5
 74
0
 42
0.0000001
 43
0.0000001
 44
0.0000000001
 40
0.0
 40
0.0
 40
0.0
 40
0.0
 40
0.2922909709
 40
1.0
 40
1.0
 40
1.0
 40
1.0
 10
557.2123487799
 20
209.1572124786
 30
0.0
 10
557.2098447522
 20
209.1712091115
 30
0.0
 10
557.2007689217
 20
209.2190004806
 30
0.0
 10
557.1898510629
 20
209.2664567035
 30
0.0
 10
557.1807845031
 20
209.2996687829
 30
0.0
  0
SPLINE
  5
5B5
100
AcDbEntity
  8
KONSTRUKTIONSELEMENTE
100
AcDbSpline
 62
7
  6
CONTINUOUS
 70
0
 71
3
 72
9
 73
5
 74
0
 42
0.0000001
 43
0.0000001
 44
0.0000000001
 40
0.0
 40
0.0
 40
0.0
 40
0.0
 40
0.2129668983
 40
1.0
 40
1.0
 40
1.0
 40
1.0
 10
534.3116477572
 20
182.9009537952
 30
0.0
 10
534.3189492706
 20
182.8998383452
 30
0.0
 10
534.3532992884
 20
182.8950306369
 30
0.0
 10
534.3878866016
 20
182.8919843817
 30
0.0
 10
534.4151343966
 20
182.8903581781
 30
0.0
  0
SPLINE
  5
5B6
100
AcDbEntity
  8
KONSTRUKTIONSELEMENTE
100
AcDbSpline
 62
7
  6
CONTINUOUS
 70
0
 71
3
 72
9
 73
5
 74
0
 42
0.0000001
 43
0.0000001
 44
0.0000000001
 40
0.0
 40
0.0
 40
0.0
 40
0.0
 40
0.23512902
 40
1.0
 40
1.0
 40
1.0
 40
1.0
 10
534.4151343966
 20
182.8903581781
 30
0.0
 10
534.4203795239
 20
182.8900451383
 30
0.0
 10
534.4426943223
 20
182.8888381748
 30
0.0
 10
534.4650342551
 20
182.8881125003
 30
0.0
 10
534.4821237453
 20
182.887782473
 30
0.0
  0
SPLINE
  5
5B7
100
AcDbEntity
  8
KONSTRUKTIONSELEMENTE
100
AcDbSpline
 62
7
  6
CONTINUOUS
 70
0
 71
3
 72
9
 73
5
 74
0
 42
0.0000001
 43
0.0000001
 44
0.0000000001
 40
0.0
 40
0.0
 40
0.0
 40
0.0
 40
0.4751668021
 40
1.0
 40
1.0
 40
1.0
 40
1.0
 10
539.5564063164
 20
184.927602004
 30
0.0
 10
540.2673046556
 20
185.3749379174
 30
0.0
 10
541.7186464288
 20
186.3880783548
 30
0.0
 10
543.0911567547
 20
187.5042663344
 30
0.0
 10
543.7924511086
 20
188.1116050604
 30
0.0
  0
SPLINE
  5
5B8
100
AcDbEntity
  8
KONSTRUKTIONSELEMENTE
100
AcDbSpline
 62
7
  6
CONTINUOUS
 70
0
 71
3
 72
17
 73
13
 74
0
 42
0.0000001
 43
0.0000001
 44
0.0000000001
 40
0.0
 40
0.0
 40
0.0
 40
0.0
 40
0.054272456
 40
0.1081063965
 40
0.1614219537
 40
0.2144031746
 40
0.3216905582
 40
0.4354499083
 40
0.5594736346
 40
0.6952881283
 40
0.8426555219
 40
1.0
 40
1.0
 40
1.0
 40
1.0
 10
561.1388035161
 20
213.8593152595
 30
0.0
 10
560.8712776752
 20
214.0905270552
 30
0.0
 10
560.2935309013
 20
214.5021969114
 30
0.0
 10
559.3323698532
 20
214.9424233063
 30
0.0
 10
558.3192613542
 20
215.2106594929
 30
0.0
 10
556.9305522734
 20
215.3544836299
 30
0.0
 10
555.1362326272
 20
215.1811983367
 30
0.0
 10
552.972431828
 20
214.539877213
 30
0.0
 10
550.7499635388
 20
213.5331485974
 30
0.0
 10
548.4573062076
 20
212.1907869877
 30
0.0
 10
546.1079771299
 20
210.5374473511
 30
0.0
 10
544.5673737201
 20
209.2827077279
 30
0.0
 10
543.7924511086
 20
208.6116050604
 30
0.0
  0
SPLINE
  5
5B9
100
AcDbEntity
  8
KONSTRUKTIONSELEMENTE
100
AcDbSpline
 62
7
  6
CONTINUOUS
 70
0
 71
3
 72
22
 73
18
 74
0
 42
0.0000001
 43
0.0000001
 44
0.0000000001
 40
0.0
 40
0.0
 40
0.0
 40
0.0
 40
0.162321669
 40
0.3306247035
 40
0.4967012546
 40
0.6523451692
 40
0.7237421349
 40
0.7894880903
 40
0.848533679
 40
0.8997486967
 40
0.941866517
 40
0.9590746233
 40
0.9734537589
 40
0.9848015971
 40
0.9930216311
 40
0.9980486857
 40
1.0
 40
1.0
 40
1.0
 40
1.0
 10
547.7203731329
 20
204.0760313842
 30
0.0
 10
546.6661816607
 20
203.1630747889
 30
0.0
 10
544.6043487656
 20
201.2034161198
 30
0.0
 10
541.7512958489
 20
198.0245542819
 30
0.0
 10
539.189138605
 20
194.6786494328
 30
0.0
 10
537.3622835424
 20
191.8317434711
 30
0.0
 10
536.1677467324
 20
189.616803383
 30
0.0
 10
535.4521479831
 20
188.0896098984
 30
0.0
 10
534.9004812803
 20
186.6802447642
 30
0.0
 10
534.5196857651
 20
185.4262821918
 30
0.0
 10
534.3302993355
 20
184.4932783961
 30
0.0
 10
534.2672292339
 20
183.8627700178
 30
0.0
 10
534.2561605459
 20
183.4936557622
 30
0.0
 10
534.2725343173
 20
183.2021393835
 30
0.0
 10
534.3045179872
 20
182.9927035773
 30
0.0
 10
534.3372227395
 20
182.8664255399
 30
0.0
 10
534.3562994522
 20
182.8091895861
 30
0.0
 10
534.3641202983
 20
182.794361199
 30
0.0
  0
SPLINE
  5
5BA
100
AcDbEntity
  8
KONSTRUKTIONSELEMENTE
100
AcDbSpline
 62
7
  6
CONTINUOUS
 70
0
 71
3
 72
11
 73
7
 74
0
 42
0.0000001
 43
0.0000001
 44
0.0000000001
 40
0.0
 40
0.0
 40
0.0
 40
0.0
 40
0.2097914905
 40
0.4448755675
 40
0.7092742741
 40
1.0
 40
1.0
 40
1.0
 40
1.0
 10
535.6233947757
 20
176.9560722439
 30
0.0
 10
536.5920764681
 20
177.0750648337
 30
0.0
 10
538.609258473
 20
177.6293118835
 30
0.0
 10
541.5886440562
 20
179.0686875536
 30
0.0
 10
544.6776211476
 20
181.076098049
 30
0.0
 10
546.6979990044
 20
182.6906294168
 30
0.0
 10
547.7203731329
 20
183.5760313842
 30
0.0
  0
SPLINE
  5
5BB
100
AcDbEntity
  8
KONSTRUKTIONSELEMENTE
100
AcDbSpline
 62
7
  6
CONTINUOUS
 70
0
 71
3
 72
15
 73
11
 74
0
 42
0.0000001
 43
0.0000001
 44
0.0000000001
 40
0.0
 40
0.0
 40
0.0
 40
0.0
 40
0.0715051056
 40
0.1527101127
 40
0.249801528
 40
0.3654136809
 40
0.4998429995
 40
0.6519018592
 40
0.8195872462
 40
1.0
 40
1.0
 40
1.0
 40
1.0
 10
436.3825078632
 20
97.4247123581
 30
0.0
 10
436.3503120879
 20
97.4525849965
 30
0.0
 10
436.2675240363
 20
97.4969095551
 30
0.0
 10
436.1175054362
 20
97.5146007816
 30
0.0
 10
435.9428684741
 20
97.4905044455
 30
0.0
 10
435.7455195592
 20
97.4264460797
 30
0.0
 10
435.5285862765
 20
97.3238984942
 30
0.0
 10
435.2961943573
 20
97.1848318009
 30
0.0
 10
435.0532563281
 20
97.012049073
 30
0.0
 10
434.8925783762
 20
96.8808045315
 30
0.0
 10
434.8113581526
 20
96.8104657545
 30
0.0
  0
SPLINE
  5
5BC
100
AcDbEntity
  8
KONSTRUKTIONSELEMENTE
100
AcDbSpline
 62
7
  6
CONTINUOUS
 70
0
 71
3
 72
9
 73
5
 74
0
 42
0.0000001
 43
0.0000001
 44
0.0000000001
 40
0.0
 40
0.0
 40
0.0
 40
0.0
 40
0.5565087562
 40
1.0
 40
1.0
 40
1.0
 40
1.0
 10
434.2102191421
 20
103.3607035493
 30
0.0
 10
434.2630892546
 20
103.4818210119
 30
0.0
 10
434.3457229325
 20
103.7050648664
 30
0.0
 10
434.3870940838
 20
103.9419611221
 30
0.0
 10
434.3870940838
 20
104.0472769073
 30
0.0
  0
SPLINE
  5
5BD
100
AcDbEntity
  8
KONSTRUKTIONSELEMENTE
100
AcDbSpline
 62
7
  6
CONTINUOUS
 70
0
 71
3
 72
9
 73
5
 74
0
 42
0.0000001
 43
0.0000001
 44
0.0000000001
 40
0.0
 40
0.0
 40
0.0
 40
0.0
 40
0.5487156268
 40
1.0
 40
1.0
 40
1.0
 40
1.0
 10
434.3870940838
 20
92.8879670066
 30
0.0
 10
434.3870940838
 20
92.8307221378
 30
0.0
 10
434.3984097634
 20
92.7247181423
 30
0.0
 10
434.4564340822
 20
92.631655142
 30
0.0
 10
434.4920247227
 20
92.6008352764
 30
0.0
  0
SPLINE
  5
5BE
100
AcDbEntity
  8
KONSTRUKTIONSELEMENTE
100
AcDbSpline
 62
7
  6
CONTINUOUS
 70
0
 71
3
 72
15
 73
11
 74
0
 42
0.0000001
 43
0.0000001
 44
0.0000000001
 40
0.0
 40
0.0
 40
0.0
 40
0.0
 40
0.0715051056
 40
0.1527101127
 40
0.249801528
 40
0.3654136809
 40
0.4998429995
 40
0.6519018592
 40
0.8195872462
 40
1.0
 40
1.0
 40
1.0
 40
1.0
 10
436.1703758289
 20
97.0084240888
 30
0.0
 10
436.1381800536
 20
97.0362967272
 30
0.0
 10
436.055392002
 20
97.0806212858
 30
0.0
 10
435.9053734018
 20
97.0983125123
 30
0.0
 10
435.7307364397
 20
97.0742161762
 30
0.0
 10
435.5333875249
 20
97.0101578104
 30
0.0
 10
435.3164542421
 20
96.9076102249
 30
0.0
 10
435.0840623229
 20
96.7685435316
 30
0.0
 10
434.8411242937
 20
96.5957608037
 30
0.0
 10
434.6804463418
 20
96.4645162622
 30
0.0
 10
434.5992261182
 20
96.3941774852
 30
0.0
  0
SPLINE
  5
5BF
100
AcDbEntity
  8
KONSTRUKTIONSELEMENTE
100
AcDbSpline
 62
7
  6
CONTINUOUS
 70
0
 71
3
 72
10
 73
6
 74
0
 42
0.0000001
 43
0.0000001
 44
0.0000000001
 40
0.0
 40
0.0
 40
0.0
 40
0.0
 40
0.3401098209
 40
0.6176924174
 40
1.0
 40
1.0
 40
1.0
 40
1.0
 10
455.5765444258
 20
103.7802229408
 30
0.0
 10
455.5708828099
 20
103.7667345894
 30
0.0
 10
455.5620137909
 20
103.7413549169
 30
0.0
 10
455.5538369409
 20
103.6999313922
 30
0.0
 10
455.5599677931
 20
103.6673265985
 30
0.0
 10
455.5723958138
 20
103.6565596273
 30
0.0
  0
SPLINE
  5
5C0
100
AcDbEntity
  8
KONSTRUKTIONSELEMENTE
100
AcDbSpline
 62
7
  6
CONTINUOUS
 70
0
 71
3
 72
10
 73
6
 74
0
 42
0.0000001
 43
0.0000001
 44
0.0000000001
 40
0.0
 40
0.0
 40
0.0
 40
0.0
 40
0.1889346049
 40
0.5351285558
 40
1.0
 40
1.0
 40
1.0
 40
1.0
 10
427.8582022495
 20
90.8362078974
 30
0.0
 10
427.8717168801
 20
90.8245041258
 30
0.0
 10
427.9188687385
 20
90.8011105981
 30
0.0
 10
428.0168708891
 20
90.8062287578
 30
0.0
 10
428.0892008364
 20
90.8329513453
 30
0.0
 10
428.1291990703
 20
90.8512582669
 30
0.0
  0
SPLINE
  5
5C1
100
AcDbEntity
  8
KONSTRUKTIONSELEMENTE
100
AcDbSpline
 62
7
  6
CONTINUOUS
 70
0
 71
3
 72
9
 73
5
 74
0
 42
0.0000001
 43
0.0000001
 44
0.0000000001
 40
0.0
 40
0.0
 40
0.0
 40
0.0
 40
0.4593994969
 40
1.0
 40
1.0
 40
1.0
 40
1.0
 10
428.1291990703
 20
90.8512582669
 30
0.0
 10
428.1828190883
 20
90.8757997872
 30
0.0
 10
428.2937478219
 20
90.9417533642
 30
0.0
 10
428.3949412916
 20
91.0211092131
 30
0.0
 10
428.4473971219
 20
91.0665372947
 30
0.0
  0
SPLINE
  5
5C2
100
AcDbEntity
  8
KONSTRUKTIONSELEMENTE
100
AcDbSpline
 62
7
  6
CONTINUOUS
 70
0
 71
3
 72
11
 73
7
 74
0
 42
0.0000001
 43
0.0000001
 44
0.0000000001
 40
0.0
 40
0.0
 40
0.0
 40
0.0
 40
0.1801343243
 40
0.3968155518
 40
0.6687400903
 40
1.0
 40
1.0
 40
1.0
 40
1.0
 10
436.6133450663
 20
90.7637179693
 30
0.0
 10
436.6475603868
 20
90.7340890678
 30
0.0
 10
436.7428161027
 20
90.6909423691
 30
0.0
 10
436.9138609019
 20
90.6931454144
 30
0.0
 10
437.1137645714
 20
90.7478811332
 30
0.0
 10
437.2516048595
 20
90.8123495665
 30
0.0
 10
437.3249555123
 20
90.8516872352
 30
0.0
  0
SPLINE
  5
5C3
100
AcDbEntity
  8
BEZUGSACHSEN
100
AcDbSpline
 62
7
  6
CONTINUOUS
 70
0
 71
3
 72
16
 73
12
 74
0
 42
0.0000001
 43
0.0000001
 44
0.0000000001
 40
0.0
 40
0.0
 40
0.0
 40
0.0
 40
0.1803955532
 40
0.3480975835
 40
0.500149103
 40
0.5696814865
 40
0.6346196316
 40
0.7502224301
 40
0.8473048523
 40
0.9285003668
 40
1.0
 40
1.0
 40
1.0
 40
1.0
 10
464.7926856749
 20
126.140057028
 30
0.0
 10
464.9280557193
 20
126.2572909255
 30
0.0
 10
465.195892679
 20
126.4760582045
 30
0.0
 10
465.6008123272
 20
126.7640297908
 30
0.0
 10
465.9328783807
 20
126.9628032579
 30
0.0
 10
466.1874644427
 20
127.0899592022
 30
0.0
 10
466.4155637477
 20
127.1881263656
 30
0.0
 10
466.678719996
 20
127.2734866964
 30
0.0
 10
466.9697714632
 20
127.3136180215
 30
0.0
 10
467.2198228503
 20
127.2841093059
 30
0.0
 10
467.3577543493
 20
127.2101370162
 30
0.0
 10
467.4114012692
 20
127.1636635013
 30
0.0
  0
SPLINE
  5
5C4
100
AcDbEntity
  8
BEZUGSACHSEN
100
AcDbSpline
 62
7
  6
CONTINUOUS
 70
0
 71
3
 72
13
 73
9
 74
0
 42
0.0000001
 43
0.0000001
 44
0.0000000001
 40
0.0
 40
0.0
 40
0.0
 40
0.0
 40
0.3259554814
 40
0.5951661965
 40
0.7100876148
 40
0.8138297995
 40
0.9092012891
 40
1.0
 40
1.0
 40
1.0
 40
1.0
 10
470.0579757149
 20
126.8983789707
 30
0.0
 10
470.1932533846
 20
127.3193194861
 30
0.0
 10
470.3973137359
 20
128.102953394
 30
0.0
 10
470.478003242
 20
129.0716757529
 30
0.0
 10
470.395856627
 20
129.7307666177
 30
0.0
 10
470.2728080882
 20
130.1411528118
 30
0.0
 10
470.0846995948
 20
130.4899537584
 30
0.0
 10
469.9140674389
 20
130.6801030561
 30
0.0
 10
469.821053827
 20
130.760836603
 30
0.0
  0
SPLINE
  5
5C5
100
AcDbEntity
  8
KONSTRUKTIONSELEMENTE
100
AcDbSpline
 62
7
  6
CONTINUOUS
 70
0
 71
3
 72
13
 73
9
 74
0
 42
0.0000001
 43
0.0000001
 44
0.0000000001
 40
0.0
 40
0.0
 40
0.0
 40
0.0
 40
0.1071822666
 40
0.2276802357
 40
0.4932739715
 40
0.7624373184
 40
0.8872035516
 40
1.0
 40
1.0
 40
1.0
 40
1.0
 10
458.1849846416
 20
102.0388394319
 30
0.0
 10
458.3204210747
 20
102.1114734623
 30
0.0
 10
458.597616499
 20
102.2855269927
 30
0.0
 10
459.1580002627
 20
102.7182461622
 30
0.0
 10
459.829175363
 20
103.3807393586
 30
0.0
 10
460.4122658699
 20
104.1293599411
 30
0.0
 10
460.7905800499
 20
104.7504436167
 30
0.0
 10
460.9414667451
 20
105.0566373267
 30
0.0
 10
461.004062504
 20
105.2057667639
 30
0.0
  0
SPLINE
  5
5C6
100
AcDbEntity
  8
KONSTRUKTIONSELEMENTE
100
AcDbSpline
 62
7
  6
CONTINUOUS
 70
0
 71
3
 72
11
 73
7
 74
0
 42
0.0000001
 43
0.0000001
 44
0.0000000001
 40
0.0
 40
0.0
 40
0.0
 40
0.0
 40
0.2275180559
 40
0.493253217
 40
0.7625598897
 40
1.0
 40
1.0
 40
1.0
 40
1.0
 10
437.4853235012
 20
90.9376919617
 30
0.0
 10
437.5332136058
 20
90.9633752378
 30
0.0
 10
437.6293080574
 20
91.0331816764
 30
0.0
 10
437.7593911444
 20
91.1612867254
 30
0.0
 10
437.8729178324
 20
91.3073343818
 30
0.0
 10
437.9332204994
 20
91.413220686
 30
0.0
 10
437.9551698116
 20
91.4655131837
 30
0.0
  0
SPLINE
  5
5C7
100
AcDbEntity
  8
KONSTRUKTIONSELEMENTE
100
AcDbSpline
 62
7
  6
CONTINUOUS
 70
0
 71
3
 72
10
 73
6
 74
0
 42
0.0000001
 43
0.0000001
 44
0.0000000001
 40
0.0
 40
0.0
 40
0.0
 40
0.0
 40
0.1805529782
 40
0.5248657058
 40
1.0
 40
1.0
 40
1.0
 40
1.0
 10
457.6937161574
 20
101.8194423202
 30
0.0
 10
457.6988481674
 20
101.8149962217
 30
0.0
 10
457.7177292029
 20
101.8065250185
 30
0.0
 10
457.7565140827
 20
101.8116394576
 30
0.0
 10
457.7847239339
 20
101.8241811767
 30
0.0
 10
457.8004708124
 20
101.8326261662
 30
0.0
  0
SPLINE
  5
5C8
100
AcDbEntity
  8
BEZUGSACHSEN
100
AcDbSpline
 62
7
  6
CONTINUOUS
 70
0
 71
3
 72
17
 73
13
 74
0
 42
0.0000001
 43
0.0000001
 44
0.0000000001
 40
0.0
 40
0.0
 40
0.0
 40
0.0
 40
0.0291586255
 40
0.0611269651
 40
0.097938968
 40
0.1407112146
 40
0.2452625479
 40
0.3737261892
 40
0.5209933191
 40
0.6799560791
 40
0.8424340545
 40
1.0
 40
1.0
 40
1.0
 40
1.0
 10
462.1739700805
 20
121.1164505548
 30
0.0
 10
462.1298201681
 20
121.1546969558
 30
0.0
 10
462.0514167864
 20
121.2523926253
 30
0.0
 10
461.9824960361
 20
121.4387173389
 30
0.0
 10
461.9573792948
 20
121.6623906014
 30
0.0
 10
461.9822535035
 20
122.0318199998
 30
0.0
 10
462.1322021399
 20
122.5684813219
 30
0.0
 10
462.4485197831
 20
123.2631485551
 30
0.0
 10
462.8984385607
 20
124.0107247081
 30
0.0
 10
463.4563540311
 20
124.7674001622
 30
0.0
 10
464.0903356474
 20
125.4891592019
 30
0.0
 10
464.5540799146
 20
125.9334183781
 30
0.0
 10
464.7926856749
 20
126.140057028
 30
0.0
  0
SPLINE
  5
5C9
100
AcDbEntity
  8
KONSTRUKTIONSELEMENTE
100
AcDbSpline
 62
7
  6
CONTINUOUS
 70
0
 71
3
 72
9
 73
5
 74
0
 42
0.0000001
 43
0.0000001
 44
0.0000000001
 40
0.0
 40
0.0
 40
0.0
 40
0.0
 40
0.5484587228
 40
1.0
 40
1.0
 40
1.0
 40
1.0
 10
426.113944744
 20
92.4350959482
 30
0.0
 10
426.113944744
 20
92.4093532323
 30
0.0
 10
426.1190633688
 20
92.3616745352
 30
0.0
 10
426.1451248612
 20
92.3197761476
 30
0.0
 10
426.1611459746
 20
92.3059017431
 30
0.0
  0
SPLINE
  5
5CA
100
AcDbEntity
  8
KONSTRUKTIONSELEMENTE
100
AcDbSpline
 62
7
  6
CONTINUOUS
 70
0
 71
3
 72
13
 73
9
 74
0
 42
0.0000001
 43
0.0000001
 44
0.0000000001
 40
0.0
 40
0.0
 40
0.0
 40
0.0
 40
0.1127916838
 40
0.2375629883
 40
0.5067261525
 40
0.7723197091
 40
0.8928223742
 40
1.0
 40
1.0
 40
1.0
 40
1.0
 10
439.0608638949
 20
94.0997417547
 30
0.0
 10
439.1234570153
 20
94.2488649061
 30
0.0
 10
439.2743435619
 20
94.5550591151
 30
0.0
 10
439.6526550386
 20
95.1761448407
 30
0.0
 10
440.2357510945
 20
95.9247698332
 30
0.0
 10
440.9069295996
 20
96.5872686523
 30
0.0
 10
441.4673155111
 20
97.0199850326
 30
0.0
 10
441.7445111759
 20
97.1940381945
 30
0.0
 10
441.8799417573
 20
97.2666690867
 30
0.0
  0
SPLINE
  5
5CB
100
AcDbEntity
  8
KONSTRUKTIONSELEMENTE
100
AcDbSpline
 62
7
  6
CONTINUOUS
 70
0
 71
3
 72
12
 73
8
 74
0
 42
0.0000001
 43
0.0000001
 44
0.0000000001
 40
0.0
 40
0.0
 40
0.0
 40
0.0
 40
0.285581653
 40
0.5706156379
 40
0.817816411
 40
0.9180971044
 40
1.0
 40
1.0
 40
1.0
 40
1.0
 10
426.750340847
 20
96.4662311404
 30
0.0
 10
426.6632595461
 20
96.3908165215
 30
0.0
 10
426.5010842263
 20
96.2260749169
 30
0.0
 10
426.3021650814
 20
95.9620969657
 30
0.0
 10
426.1788888352
 20
95.7365199792
 30
0.0
 10
426.1248458871
 20
95.571548768
 30
0.0
 10
426.113944744
 20
95.4981338826
 30
0.0
 10
426.113944744
 20
95.4650959482
 30
0.0
  0
SPLINE
  5
5CC
100
AcDbEntity
  8
KONSTRUKTIONSELEMENTE
100
AcDbSpline
 62
7
  6
CONTINUOUS
 70
0
 71
3
 72
11
 73
7
 74
0
 42
0.0000001
 43
0.0000001
 44
0.0000000001
 40
0.0
 40
0.0
 40
0.0
 40
0.0
 40
0.3312528237
 40
0.6032079657
 40
0.8198699068
 40
1.0
 40
1.0
 40
1.0
 40
1.0
 10
457.8372656704
 20
105.8245196132
 30
0.0
 10
457.947300182
 20
105.8835306922
 30
0.0
 10
458.1540919755
 20
105.9802403035
 30
0.0
 10
458.4539774121
 20
106.0623551276
 30
0.0
 10
458.710583583
 20
106.0656219323
 30
0.0
 10
458.8534444783
 20
106.0008472473
 30
0.0
 10
458.9047680791
 20
105.9563967863
 30
0.0
  0
SPLINE
  5
5CD
100
AcDbEntity
  8
KONSTRUKTIONSELEMENTE
100
AcDbSpline
 62
7
  6
CONTINUOUS
 70
0
 71
3
 72
12
 73
8
 74
0
 42
0.0000001
 43
0.0000001
 44
0.0000000001
 40
0.0
 40
0.0
 40
0.0
 40
0.0
 40
0.0840630007
 40
0.1822661866
 40
0.418227079
 40
0.696783093
 40
1.0
 40
1.0
 40
1.0
 40
1.0
 10
434.3870940838
 20
105.7858911693
 30
0.0
 10
434.3870940838
 20
105.863019926
 30
0.0
 10
434.4048546476
 20
106.0302850983
 30
0.0
 10
434.4986111335
 20
106.4031596008
 30
0.0
 10
434.7234234843
 20
106.9220109887
 30
0.0
 10
435.1104787561
 20
107.5661583889
 30
0.0
 10
435.4334308839
 20
107.9926587185
 30
0.0
 10
435.6119057112
 20
108.206070834
 30
0.0
  0
SPLINE
  5
5CE
100
AcDbEntity
  8
KONSTRUKTIONSELEMENTE
100
AcDbSpline
 62
7
  6
CONTINUOUS
 70
0
 71
3
 72
15
 73
11
 74
0
 42
0.0000001
 43
0.0000001
 44
0.0000000001
 40
0.0
 40
0.0
 40
0.0
 40
0.0
 40
0.1696224697
 40
0.33497449
 40
0.4905840196
 40
0.6315529168
 40
0.7539177085
 40
0.8552312826
 40
0.9356200061
 40
1.0
 40
1.0
 40
1.0
 40
1.0
 10
458.2152852169
 20
135.2341683621
 30
0.0
 10
458.3409105586
 20
135.3843854563
 30
0.0
 10
458.5993093919
 20
135.6725912467
 30
0.0
 10
459.0061899882
 20
136.0672334889
 30
0.0
 10
459.4164232269
 20
136.4088968521
 30
0.0
 10
459.8145214172
 20
136.6848686814
 30
0.0
 10
460.1858211842
 20
136.885712771
 30
0.0
 10
460.5182305242
 20
137.0041872989
 30
0.0
 10
460.8039137759
 20
137.0382937325
 30
0.0
 10
460.9720566128
 20
136.9905493737
 30
0.0
 10
461.0343630793
 20
136.9500271182
 30
0.0
  0
SPLINE
  5
5CF
100
AcDbEntity
  8
KONSTRUKTIONSELEMENTE
100
AcDbSpline
 62
7
  6
CONTINUOUS
 70
0
 71
3
 72
9
 73
5
 74
0
 42
0.0000001
 43
0.0000001
 44
0.0000000001
 40
0.0
 40
0.0
 40
0.0
 40
0.0
 40
0.4567436759
 40
1.0
 40
1.0
 40
1.0
 40
1.0
 10
434.5992261182
 20
104.4635651766
 30
0.0
 10
434.5992261182
 20
104.3922982519
 30
0.0
 10
434.5802150024
 20
104.2363036561
 30
0.0
 10
434.5380458923
 20
104.0856810342
 30
0.0
 10
434.5110202517
 20
104.0053390004
 30
0.0
  0
SPLINE
  5
5D0
100
AcDbEntity
  8
KONSTRUKTIONSELEMENTE
100
AcDbSpline
 62
7
  6
CONTINUOUS
 70
0
 71
3
 72
11
 73
7
 74
0
 42
0.0000001
 43
0.0000001
 44
0.0000000001
 40
0.0
 40
0.0
 40
0.0
 40
0.0
 40
0.2200619614
 40
0.4727409047
 40
0.7394872782
 40
1.0
 40
1.0
 40
1.0
 40
1.0
 10
434.4758503877
 20
103.9075353868
 30
0.0
 10
434.406308939
 20
103.725501843
 30
0.0
 10
434.2179131429
 20
103.3494003449
 30
0.0
 10
433.8536412495
 20
102.8039186277
 30
0.0
 10
433.4110654171
 20
102.2721714732
 30
0.0
 10
433.0765503562
 20
101.944889285
 30
0.0
 10
432.9021698434
 20
101.7938713309
 30
0.0
  0
SPLINE
  5
5D1
100
AcDbEntity
  8
KONSTRUKTIONSELEMENTE
100
AcDbSpline
 62
7
  6
CONTINUOUS
 70
0
 71
3
 72
12
 73
8
 74
0
 42
0.0000001
 43
0.0000001
 44
0.0000000001
 40
0.0
 40
0.0
 40
0.0
 40
0.0
 40
0.3358890466
 40
0.6331184293
 40
0.7558878341
 40
0.8575228726
 40
1.0
 40
1.0
 40
1.0
 40
1.0
 10
452.6789355042
 20
128.1766825014
 30
0.0
 10
452.7533196357
 20
128.2656276771
 30
0.0
 10
452.9050874087
 20
128.4239703993
 30
0.0
 10
453.1108569333
 20
128.5861773698
 30
0.0
 10
453.270711362
 20
128.6721011552
 30
0.0
 10
453.3877661326
 20
128.7150594223
 30
0.0
 10
453.4834284274
 20
128.7182551658
 30
0.0
 10
453.5246588629
 20
128.6914401282
 30
0.0
  0
SPLINE
  5
5D2
100
AcDbEntity
  8
KONSTRUKTIONSELEMENTE
100
AcDbSpline
 62
7
  6
CONTINUOUS
 70
0
 71
3
 72
12
 73
8
 74
0
 42
0.0000001
 43
0.0000001
 44
0.0000000001
 40
0.0
 40
0.0
 40
0.0
 40
0.0
 40
0.1424771274
 40
0.2441121659
 40
0.3668815707
 40
0.6641109534
 40
1.0
 40
1.0
 40
1.0
 40
1.0
 10
454.4211675791
 20
128.1083777706
 30
0.0
 10
454.4623980146
 20
128.081562733
 30
0.0
 10
454.5580603094
 20
128.0847584766
 30
0.0
 10
454.67511508
 20
128.1277167436
 30
0.0
 10
454.8349695087
 20
128.213640529
 30
0.0
 10
455.0407390334
 20
128.3758474995
 30
0.0
 10
455.1925068063
 20
128.5341902217
 30
0.0
 10
455.2668909378
 20
128.6231353974
 30
0.0
  0
SPLINE
  5
5D3
100
AcDbEntity
  8
BEZUGSACHSEN
100
AcDbSpline
 62
7
  6
CONTINUOUS
 70
0
 71
3
 72
14
 73
10
 74
0
 42
0.0000001
 43
0.0000001
 44
0.0000000001
 40
0.0
 40
0.0
 40
0.0
 40
0.0
 40
0.3477982413
 40
0.4994840676
 40
0.6335561821
 40
0.7489707044
 40
0.8461472808
 40
0.9277852917
 40
1.0
 40
1.0
 40
1.0
 40
1.0
 10
464.721228237
 20
122.0788151326
 30
0.0
 10
464.4662824515
 20
121.8626044881
 30
0.0
 10
464.0826808343
 20
121.5705303675
 30
0.0
 10
463.5563779559
 20
121.262916936
 30
0.0
 10
463.2052287982
 20
121.1017119522
 30
0.0
 10
462.8859592412
 20
121.0022370731
 30
0.0
 10
462.6033472077
 20
120.9667771975
 30
0.0
 10
462.3604473027
 20
120.9982219695
 30
0.0
 10
462.2264310566
 20
121.071004405
 30
0.0
 10
462.1739700805
 20
121.1164505548
 30
0.0
  0
SPLINE
  5
5D4
100
AcDbEntity
  8
KONSTRUKTIONSELEMENTE
100
AcDbSpline
 62
7
  6
CONTINUOUS
 70
0
 71
3
 72
9
 73
5
 74
0
 42
0.0000001
 43
0.0000001
 44
0.0000000001
 40
0.0
 40
0.0
 40
0.0
 40
0.0
 40
0.5487156268
 40
1.0
 40
1.0
 40
1.0
 40
1.0
 10
436.5084144274
 20
91.0508496995
 30
0.0
 10
436.5084144274
 20
90.9936048307
 30
0.0
 10
436.519730107
 20
90.8876008352
 30
0.0
 10
436.5777544258
 20
90.7945378349
 30
0.0
 10
436.6133450663
 20
90.7637179693
 30
0.0
  0
SPLINE
  5
5D5
100
AcDbEntity
  8
KONSTRUKTIONSELEMENTE
100
AcDbSpline
 62
7
  6
CONTINUOUS
 70
0
 71
3
 72
9
 73
5
 74
0
 42
0.0000001
 43
0.0000001
 44
0.0000000001
 40
0.0
 40
0.0
 40
0.0
 40
0.0
 40
0.5486959742
 40
1.0
 40
1.0
 40
1.0
 40
1.0
 10
436.5084144274
 20
97.0801596002
 30
0.0
 10
436.5084144274
 20
97.1488490567
 30
0.0
 10
436.4948303215
 20
97.2760439447
 30
0.0
 10
436.4252221717
 20
97.3877335788
 30
0.0
 10
436.3825078632
 20
97.4247123581
 30
0.0
  0
SPLINE
  5
5D6
100
AcDbEntity
  8
KONSTRUKTIONSELEMENTE
100
AcDbSpline
 62
7
  6
CONTINUOUS
 70
0
 71
3
 72
13
 73
9
 74
0
 42
0.0000001
 43
0.0000001
 44
0.0000000001
 40
0.0
 40
0.0
 40
0.0
 40
0.0
 40
0.0843625955
 40
0.1746175943
 40
0.2754204456
 40
0.3897531286
 40
0.6639913559
 40
1.0
 40
1.0
 40
1.0
 40
1.0
 10
458.9047680791
 20
105.9563967863
 30
0.0
 10
458.9325325009
 20
105.9323505126
 30
0.0
 10
458.9827089118
 20
105.8735764984
 30
0.0
 10
459.0331519016
 20
105.7634678425
 30
0.0
 10
459.0603281412
 20
105.6324073829
 30
0.0
 10
459.0665465966
 20
105.4186213876
 30
0.0
 10
459.0096106027
 20
105.105433801
 30
0.0
 10
458.9199454075
 20
104.8546159524
 30
0.0
 10
458.8633261004
 20
104.7197249382
 30
0.0
  0
SPLINE
  5
5D7
100
AcDbEntity
  8
BEZUGSACHSEN
100
AcDbSpline
 62
7
  6
CONTINUOUS
 70
0
 71
3
 72
11
 73
7
 74
0
 42
0.0000001
 43
0.0000001
 44
0.0000000001
 40
0.0
 40
0.0
 40
0.0
 40
0.0
 40
0.2114769453
 40
0.4406496591
 40
0.7008438133
 40
1.0
 40
1.0
 40
1.0
 40
1.0
 10
467.4114012692
 20
127.1636635013
 30
0.0
 10
467.4522303606
 20
127.1282938773
 30
0.0
 10
467.5253528771
 20
127.0398050946
 30
0.0
 10
467.5939773442
 20
126.8722382505
 30
0.0
 10
467.6249682822
 20
126.6718296478
 30
0.0
 10
467.6215225013
 20
126.5283532623
 30
0.0
 10
467.6149423523
 20
126.4522219505
 30
0.0
  0
SPLINE
  5
5D8
100
AcDbEntity
  8
KONSTRUKTIONSELEMENTE
100
AcDbSpline
 62
7
  6
CONTINUOUS
 70
0
 71
3
 72
13
 73
9
 74
0
 42
0.0000001
 43
0.0000001
 44
0.0000000001
 40
0.0
 40
0.0
 40
0.0
 40
0.0
 40
0.2854781235
 40
0.5704521399
 40
0.700966491
 40
0.8178838308
 40
0.9181009276
 40
1.0
 40
1.0
 40
1.0
 40
1.0
 10
434.8113581526
 20
99.5404657545
 30
0.0
 10
435.0435573177
 20
99.7415561303
 30
0.0
 10
435.4756520825
 20
100.1807448036
 30
0.0
 10
435.931829168
 20
100.7847149024
 30
0.0
 10
436.221133092
 20
101.2798590078
 30
0.0
 10
436.3791736864
 20
101.6197547331
 30
0.0
 10
436.4793376586
 20
101.9262892937
 30
0.0
 10
436.5084144274
 20
102.1220372994
 30
0.0
 10
436.5084144274
 20
102.2101596002
 30
0.0
  0
SPLINE
  5
5D9
100
AcDbEntity
  8
KONSTRUKTIONSELEMENTE
100
AcDbSpline
 62
7
  6
CONTINUOUS
 70
0
 71
3
 72
12
 73
8
 74
0
 42
0.0000001
 43
0.0000001
 44
0.0000000001
 40
0.0
 40
0.0
 40
0.0
 40
0.0
 40
0.1424771274
 40
0.2441121659
 40
0.3668815707
 40
0.6641109534
 40
1.0
 40
1.0
 40
1.0
 40
1.0
 10
455.5613282298
 20
125.5354037487
 30
0.0
 10
455.6025586654
 20
125.5085887111
 30
0.0
 10
455.6982209602
 20
125.5117844547
 30
0.0
 10
455.8152757308
 20
125.5547427217
 30
0.0
 10
455.9751301594
 20
125.6406665071
 30
0.0
 10
456.1808996841
 20
125.8028734776
 30
0.0
 10
456.332667457
 20
125.9612161999
 30
0.0
 10
456.4070515886
 20
126.0501613756
 30
0.0
  0
SPLINE
  5
5DA
100
AcDbEntity
  8
KONSTRUKTIONSELEMENTE
100
AcDbSpline
 62
7
  6
CONTINUOUS
 70
0
 71
3
 72
10
 73
6
 74
0
 42
0.0000001
 43
0.0000001
 44
0.0000000001
 40
0.0
 40
0.0
 40
0.0
 40
0.0
 40
0.3401098209
 40
0.6176924174
 40
1.0
 40
1.0
 40
1.0
 40
1.0
 10
457.6978647694
 20
101.9431056337
 30
0.0
 10
457.6922031535
 20
101.9296172824
 30
0.0
 10
457.6833341345
 20
101.9042376098
 30
0.0
 10
457.6751572844
 20
101.8628140852
 30
0.0
 10
457.6812881366
 20
101.8302092914
 30
0.0
 10
457.6937161574
 20
101.8194423202
 30
0.0
  0
SPLINE
  5
5DB
100
AcDbEntity
  8
KONSTRUKTIONSELEMENTE
100
AcDbSpline
 62
7
  6
CONTINUOUS
 70
0
 71
3
 72
12
 73
8
 74
0
 42
0.0000001
 43
0.0000001
 44
0.0000000001
 40
0.0
 40
0.0
 40
0.0
 40
0.0
 40
0.303216907
 40
0.581772921
 40
0.8177338134
 40
0.9159369993
 40
1.0
 40
1.0
 40
1.0
 40
1.0
 10
437.7332260548
 20
106.368953527
 30
0.0
 10
437.5547512275
 20
106.1555414114
 30
0.0
 10
437.2317990996
 20
105.7290410818
 30
0.0
 10
436.8447438279
 20
105.0848936816
 30
0.0
 10
436.619931477
 20
104.5660422937
 30
0.0
 10
436.5261749912
 20
104.1931677912
 30
0.0
 10
436.5084144274
 20
104.0259026189
 30
0.0
 10
436.5084144274
 20
103.9487738622
 30
0.0
  0
SPLINE
  5
5DC
100
AcDbEntity
  8
KONSTRUKTIONSELEMENTE
100
AcDbSpline
 62
7
  6
CONTINUOUS
 70
0
 71
3
 72
15
 73
11
 74
0
 42
0.0000001
 43
0.0000001
 44
0.0000000001
 40
0.0
 40
0.0
 40
0.0
 40
0.0
 40
0.0643794215
 40
0.1447670279
 40
0.2460796662
 40
0.3684482679
 40
0.5094197477
 40
0.6650286244
 40
0.8303788796
 40
1.0
 40
1.0
 40
1.0
 40
1.0
 10
463.1556834228
 20
135.1129098112
 30
0.0
 10
463.0933775091
 20
135.1534317071
 30
0.0
 10
462.9252369012
 20
135.2011761601
 30
0.0
 10
462.6395565578
 20
135.1670710285
 30
0.0
 10
462.3071447277
 20
135.0485974587
 30
0.0
 10
461.9358393153
 20
134.8477502312
 30
0.0
 10
461.5377361065
 20
134.5717739954
 30
0.0
 10
461.1275034316
 20
134.2301096501
 30
0.0
 10
460.7206261811
 20
133.8354702172
 30
0.0
 10
460.4622299054
 20
133.5472669574
 30
0.0
 10
460.3366055605
 20
133.3970510551
 30
0.0
  0
SPLINE
  5
5DD
100
AcDbEntity
  8
KONSTRUKTIONSELEMENTE
100
AcDbSpline
 62
7
  6
CONTINUOUS
 70
0
 71
3
 72
11
 73
7
 74
0
 42
0.0000001
 43
0.0000001
 44
0.0000000001
 40
0.0
 40
0.0
 40
0.0
 40
0.0
 40
0.3179594006
 40
0.6021603801
 40
0.8341697945
 40
1.0
 40
1.0
 40
1.0
 40
1.0
 10
458.1197973425
 20
131.2658961133
 30
0.0
 10
458.195340828
 20
131.307371553
 30
0.0
 10
458.3353587485
 20
131.3914717985
 30
0.0
 10
458.5181353156
 20
131.5259601951
 30
0.0
 10
458.6515664796
 20
131.653333593
 30
0.0
 10
458.7143949346
 20
131.7451505814
 30
0.0
 10
458.7271223517
 20
131.7882578317
 30
0.0
  0
SPLINE
  5
5DE
100
AcDbEntity
  8
KONSTRUKTIONSELEMENTE
100
AcDbSpline
 62
7
  6
CONTINUOUS
 70
0
 71
3
 72
13
 73
9
 74
0
 42
0.0000001
 43
0.0000001
 44
0.0000000001
 40
0.0
 40
0.0
 40
0.0
 40
0.0
 40
0.3168637478
 40
0.6100579332
 40
0.7371323552
 40
0.8456364708
 40
0.9329740508
 40
1.0
 40
1.0
 40
1.0
 40
1.0
 10
459.0712692051
 20
130.4418973093
 30
0.0
 10
459.109407672
 20
130.5536899214
 30
0.0
 10
459.1705135784
 20
130.7732514241
 30
0.0
 10
459.2127583027
 20
131.0458673496
 30
0.0
 10
459.2169575274
 20
131.2432222518
 30
0.0
 10
459.2051570253
 20
131.3634825365
 30
0.0
 10
459.1791592837
 20
131.4584537368
 30
0.0
 10
459.1471571148
 20
131.5086652062
 30
0.0
 10
459.1283092531
 20
131.525067673
 30
0.0
  0
SPLINE
  5
5DF
100
AcDbEntity
  8
KONSTRUKTIONSELEMENTE
100
AcDbSpline
 62
7
  6
CONTINUOUS
 70
0
 71
3
 72
12
 73
8
 74
0
 42
0.0000001
 43
0.0000001
 44
0.0000000001
 40
0.0
 40
0.0
 40
0.0
 40
0.0
 40
0.3358890466
 40
0.6331184293
 40
0.7558878341
 40
0.8575228726
 40
1.0
 40
1.0
 40
1.0
 40
1.0
 10
454.3759917791
 20
126.7069886557
 30
0.0
 10
454.4503759106
 20
126.7959338314
 30
0.0
 10
454.6021436835
 20
126.9542765537
 30
0.0
 10
454.8079132082
 20
127.1164835242
 30
0.0
 10
454.9677676369
 20
127.2024073096
 30
0.0
 10
455.0848224075
 20
127.2453655766
 30
0.0
 10
455.1804847022
 20
127.2485613202
 30
0.0
 10
455.2217151378
 20
127.2217462826
 30
0.0
  0
SPLINE
  5
5E0
100
AcDbEntity
  8
KONSTRUKTIONSELEMENTE
100
AcDbSpline
 62
7
  6
CONTINUOUS
 70
0
 71
3
 72
12
 73
8
 74
0
 42
0.0000001
 43
0.0000001
 44
0.0000000001
 40
0.0
 40
0.0
 40
0.0
 40
0.0
 40
0.1424771274
 40
0.2441121659
 40
0.3668815707
 40
0.6641109534
 40
1.0
 40
1.0
 40
1.0
 40
1.0
 10
456.118223854
 20
126.6386839249
 30
0.0
 10
456.1594542895
 20
126.6118688873
 30
0.0
 10
456.2551165843
 20
126.6150646309
 30
0.0
 10
456.3721713549
 20
126.6580228979
 30
0.0
 10
456.5320257835
 20
126.7439466833
 30
0.0
 10
456.7377953082
 20
126.9061536538
 30
0.0
 10
456.8895630811
 20
127.0644963761
 30
0.0
 10
456.9639472127
 20
127.1534415518
 30
0.0
  0
SPLINE
  5
5E1
100
AcDbEntity
  8
KONSTRUKTIONSELEMENTE
100
AcDbSpline
 62
7
  6
CONTINUOUS
 70
0
 71
3
 72
13
 73
9
 74
0
 42
0.0000001
 43
0.0000001
 44
0.0000000001
 40
0.0
 40
0.0
 40
0.0
 40
0.0
 40
0.1424374923
 40
0.2440429614
 40
0.3667933689
 40
0.5081503164
 40
0.6641988276
 40
1.0
 40
1.0
 40
1.0
 40
1.0
 10
455.3491961955
 20
125.7191154794
 30
0.0
 10
455.3904278149
 20
125.6922996719
 30
0.0
 10
455.4860982277
 20
125.6954888965
 30
0.0
 10
455.6031378506
 20
125.7384572801
 30
0.0
 10
455.7153484799
 20
125.798679147
 30
0.0
 10
455.8345224806
 20
125.8814462462
 30
0.0
 10
456.0027521776
 20
126.0215304104
 30
0.0
 10
456.120532054
 20
126.1449239025
 30
0.0
 10
456.1949195542
 20
126.2338731063
 30
0.0
  0
SPLINE
  5
5E2
100
AcDbEntity
  8
KONSTRUKTIONSELEMENTE
100
AcDbSpline
 62
7
  6
CONTINUOUS
 70
0
 71
3
 72
12
 73
8
 74
0
 42
0.0000001
 43
0.0000001
 44
0.0000000001
 40
0.0
 40
0.0
 40
0.0
 40
0.0
 40
0.285581653
 40
0.5706156379
 40
0.817816411
 40
0.9180971044
 40
1.0
 40
1.0
 40
1.0
 40
1.0
 10
428.4473971219
 20
94.9965372947
 30
0.0
 10
428.3603158209
 20
94.9211226759
 30
0.0
 10
428.1981405011
 20
94.7563810712
 30
0.0
 10
427.9992213562
 20
94.49240312
 30
0.0
 10
427.8759451101
 20
94.2668261335
 30
0.0
 10
427.821902162
 20
94.1018549223
 30
0.0
 10
427.8110010188
 20
94.0284400369
 30
0.0
 10
427.8110010188
 20
93.9954021026
 30
0.0
  0
SPLINE
  5
5E3
100
AcDbEntity
  8
KONSTRUKTIONSELEMENTE
100
AcDbSpline
 62
7
  6
CONTINUOUS
 70
0
 71
3
 72
13
 73
9
 74
0
 42
0.0000001
 43
0.0000001
 44
0.0000000001
 40
0.0
 40
0.0
 40
0.0
 40
0.0
 40
0.0818990724
 40
0.1821161692
 40
0.299033509
 40
0.4295478601
 40
0.7145218765
 40
1.0
 40
1.0
 40
1.0
 40
1.0
 10
436.2962823931
 20
102.9938713309
 30
0.0
 10
436.2962823931
 20
102.9057490301
 30
0.0
 10
436.2672056243
 20
102.7100010244
 30
0.0
 10
436.167041652
 20
102.4034664639
 30
0.0
 10
436.0090010576
 20
102.0635707385
 30
0.0
 10
435.7196971336
 20
101.5684266331
 30
0.0
 10
435.2635200481
 20
100.9644565343
 30
0.0
 10
434.8314252834
 20
100.525267861
 30
0.0
 10
434.5992261182
 20
100.3241774852
 30
0.0
  0
SPLINE
  5
5E4
100
AcDbEntity
  8
KONSTRUKTIONSELEMENTE
100
AcDbSpline
 62
7
  6
CONTINUOUS
 70
0
 71
3
 72
13
 73
9
 74
0
 42
0.0000001
 43
0.0000001
 44
0.0000000001
 40
0.0
 40
0.0
 40
0.0
 40
0.0
 40
0.2854859153
 40
0.5704513138
 40
0.7009656111
 40
0.8178785543
 40
0.9181069222
 40
1.0
 40
1.0
 40
1.0
 40
1.0
 10
434.5992261182
 20
99.7241774852
 30
0.0
 10
434.8314314499
 20
99.9252732014
 30
0.0
 10
435.2635241277
 20
100.3644614989
 30
0.0
 10
435.7197018165
 20
100.9684312108
 30
0.0
 10
436.0089837168
 20
101.4635698679
 30
0.0
 10
436.1670488894
 20
101.8034629205
 30
0.0
 10
436.2671937298
 20
102.1100041783
 30
0.0
 10
436.2962823931
 20
102.3057555451
 30
0.0
 10
436.2962823931
 20
102.3938713309
 30
0.0
  0
SPLINE
  5
5E5
100
AcDbEntity
  8
KONSTRUKTIONSELEMENTE
100
AcDbSpline
 62
7
  6
CONTINUOUS
 70
0
 71
3
 72
9
 73
5
 74
0
 42
0.0000001
 43
0.0000001
 44
0.0000000001
 40
0.0
 40
0.0
 40
0.0
 40
0.0
 40
0.2756955256
 40
1.0
 40
1.0
 40
1.0
 40
1.0
 10
436.2962823931
 20
97.2638713309
 30
0.0
 10
436.2962823931
 20
97.2849951525
 30
0.0
 10
436.2934253838
 20
97.3614646081
 30
0.0
 10
436.2778167671
 20
97.4383545913
 30
0.0
 10
436.2558190591
 20
97.4893049487
 30
0.0
  0
SPLINE
  5
5E6
100
AcDbEntity
  8
KONSTRUKTIONSELEMENTE
100
AcDbSpline
 62
7
  6
CONTINUOUS
 70
0
 71
3
 72
9
 73
5
 74
0
 42
0.0000001
 43
0.0000001
 44
0.0000000001
 40
0.0
 40
0.0
 40
0.0
 40
0.0
 40
0.5486959742
 40
1.0
 40
1.0
 40
1.0
 40
1.0
 10
436.2962823931
 20
96.6638713309
 30
0.0
 10
436.2962823931
 20
96.7325607874
 30
0.0
 10
436.2826982871
 20
96.8597556754
 30
0.0
 10
436.2130901373
 20
96.9714453095
 30
0.0
 10
436.1703758289
 20
97.0084240888
 30
0.0
  0
SPLINE
  5
5E7
100
AcDbEntity
  8
KONSTRUKTIONSELEMENTE
100
AcDbSpline
 62
7
  6
CONTINUOUS
 70
0
 71
3
 72
9
 73
5
 74
0
 42
0.0000001
 43
0.0000001
 44
0.0000000001
 40
0.0
 40
0.0
 40
0.0
 40
0.0
 40
0.5484587228
 40
1.0
 40
1.0
 40
1.0
 40
1.0
 10
427.8110010188
 20
90.9654021026
 30
0.0
 10
427.8110010188
 20
90.9396593866
 30
0.0
 10
427.8161196437
 20
90.8919806895
 30
0.0
 10
427.8421811361
 20
90.850082302
 30
0.0
 10
427.8582022495
 20
90.8362078974
 30
0.0
  0
SPLINE
  5
5E8
100
AcDbEntity
  8
0
100
AcDbSpline
 62
7
  6
CONTINUOUS
 70
0
 71
3
 72
11
 73
7
 74
0
 42
0.0000001
 43
0.0000001
 44
0.0000000001
 40
0.0
 40
0.0
 40
0.0
 40
0.0
 40
0.228723591
 40
0.4673998189
 40
0.7233778832
 40
1.0
 40
1.0
 40
1.0
 40
1.0
 10
554.4696155563
 20
239.5797280029
 30
0.0
 10
554.4696155563
 20
240.1852752806
 30
0.0
 10
554.6168972007
 20
241.4272933053
 30
0.0
 10
555.2807984209
 20
243.2406708173
 30
0.0
 10
556.3960839329
 20
244.9695936337
 30
0.0
 10
557.3979682527
 20
245.9778554018
 30
0.0
 10
557.9608262463
 20
246.4464069107
 30
0.0
  0
SPLINE
  5
5E9
100
AcDbEntity
  8
0
100
AcDbSpline
 62
7
  6
CONTINUOUS
 70
0
 71
3
 72
11
 73
7
 74
0
 42
0.0000001
 43
0.0000001
 44
0.0000000001
 40
0.0
 40
0.0
 40
0.0
 40
0.0
 40
0.2766228891
 40
0.5326005813
 40
0.7712770714
 40
1.0
 40
1.0
 40
1.0
 40
1.0
 10
575.9787499877
 20
246.4461208346
 30
0.0
 10
576.5415625072
 20
245.9775757287
 30
0.0
 10
577.5433497576
 20
244.9693287617
 30
0.0
 10
578.6585262154
 20
243.2404729487
 30
0.0
 10
579.3223500455
 20
241.4271859183
 30
0.0
 10
579.4696155563
 20
240.1852395523
 30
0.0
 10
579.4696155563
 20
239.5797280029
 30
0.0
  0
SPLINE
  5
5EA
100
AcDbEntity
  8
0
100
AcDbSpline
 62
7
  6
CONTINUOUS
 70
0
 71
3
 72
15
 73
11
 74
0
 42
0.0000001
 43
0.0000001
 44
0.0000000001
 40
0.0
 40
0.0
 40
0.0
 40
0.0
 40
0.1218643093
 40
0.2440927217
 40
0.3670326996
 40
0.4909888159
 40
0.6161935862
 40
0.7427826626
 40
0.8707619297
 40
1.0
 40
1.0
 40
1.0
 40
1.0
 10
541.4696155563
 20
239.5797280029
 30
0.0
 10
541.4696155563
 20
240.7536673245
 30
0.0
 10
541.6703730853
 20
243.1098947321
 30
0.0
 10
542.5637087251
 20
246.5472480537
 30
0.0
 10
544.0216027164
 20
249.8082448292
 30
0.0
 10
546.0012573893
 20
252.8146495651
 30
0.0
 10
548.4484735949
 20
255.5010062788
 30
0.0
 10
551.3013759961
 20
257.8127684846
 30
0.0
 10
554.491408602
 20
259.705618143
 30
0.0
 10
556.7873919256
 20
260.6620054365
 30
0.0
 10
557.9666090657
 20
261.0612575002
 30
0.0
  0
SPLINE
  5
5EB
100
AcDbEntity
  8
0
100
AcDbSpline
 62
7
  6
CONTINUOUS
 70
0
 71
3
 72
15
 73
11
 74
0
 42
0.0000001
 43
0.0000001
 44
0.0000000001
 40
0.0
 40
0.0
 40
0.0
 40
0.0
 40
0.1292379522
 40
0.2572164339
 40
0.383804377
 40
0.5090081987
 40
0.6329636587
 40
0.7559037231
 40
0.8781331764
 40
1.0
 40
1.0
 40
1.0
 40
1.0
 10
575.974986261
 20
261.0604505344
 30
0.0
 10
577.1540670269
 20
260.6611343094
 30
0.0
 10
579.449756512
 20
259.7046233215
 30
0.0
 10
582.6393499288
 20
257.8117048233
 30
0.0
 10
585.4918284985
 20
255.4999695534
 30
0.0
 10
587.9386647612
 20
252.8137299763
 30
0.0
 10
589.9180093418
 20
249.8075134722
 30
0.0
 10
591.3756786825
 20
246.5467518513
 30
0.0
 10
592.2688863252
 20
243.109648074
 30
0.0
 10
592.4696155563
 20
240.7535902201
 30
0.0
 10
592.4696155563
 20
239.5797280029
 30
0.0
  0
SPLINE
  5
5EC
100
AcDbEntity
  8
0
100
AcDbSpline
 62
7
  6
CONTINUOUS
 70
0
 71
3
 72
15
 73
11
 74
0
 42
0.0000001
 43
0.0000001
 44
0.0000000001
 40
0.0
 40
0.0
 40
0.0
 40
0.0
 40
0.1217847178
 40
0.2439456878
 40
0.3668422044
 40
0.4907862168
 40
0.6160130686
 40
0.7426533781
 40
0.8706994921
 40
1.0
 40
1.0
 40
1.0
 40
1.0
 10
592.4696155563
 20
214.4649912932
 30
0.0
 10
592.4696155563
 20
213.2706328016
 30
0.0
 10
592.2617591168
 20
210.8731288734
 30
0.0
 10
591.3371985706
 20
207.3790255442
 30
0.0
 10
589.829466053
 20
204.070487308
 30
0.0
 10
587.7842639882
 20
201.0294426823
 30
0.0
 10
585.2593183508
 20
198.3241004388
 30
0.0
 10
582.3203698368
 20
196.010995061
 30
0.0
 10
579.0401174626
 20
194.1357577875
 30
0.0
 10
576.6839871085
 20
193.20402522
 30
0.0
 10
575.4753480149
 20
192.820378251
 30
0.0
  0
SPLINE
  5
5ED
100
AcDbEntity
  8
0
100
AcDbSpline
 62
7
  6
CONTINUOUS
 70
0
 71
3
 72
11
 73
7
 74
0
 42
0.0000001
 43
0.0000001
 44
0.0000000001
 40
0.0
 40
0.0
 40
0.0
 40
0.0
 40
0.2542727531
 40
0.5058428602
 40
0.7544020485
 40
1.0
 40
1.0
 40
1.0
 40
1.0
 10
558.4640351699
 20
192.8203372635
 30
0.0
 10
557.1588715873
 20
193.2346195455
 30
0.0
 10
554.6197049194
 20
194.254892358
 30
0.0
 10
551.1142485347
 20
196.3405064168
 30
0.0
 10
548.0213409259
 20
198.9289409682
 30
0.0
 10
546.2829902099
 20
200.9640231183
 30
0.0
 10
545.5148441881
 20
202.0407193825
 30
0.0
  0
SPLINE
  5
5EE
100
AcDbEntity
  8
0
100
AcDbSpline
 62
7
  6
CONTINUOUS
 70
0
 71
3
 72
13
 73
9
 74
0
 42
0.0000001
 43
0.0000001
 44
0.0000000001
 40
0.0
 40
0.0
 40
0.0
 40
0.0
 40
0.1049989209
 40
0.2131556217
 40
0.326707221
 40
0.4474124577
 40
0.7108962125
 40
1.0
 40
1.0
 40
1.0
 40
1.0
 10
579.4696155563
 20
214.4649912932
 30
0.0
 10
579.4696155563
 20
213.9805322056
 30
0.0
 10
579.3762228392
 20
212.9946921546
 30
0.0
 10
578.9562896495
 20
211.5384953191
 30
0.0
 10
578.2468443487
 20
210.1172477413
 30
0.0
 10
576.8759804057
 20
208.2620682716
 30
0.0
 10
574.4177703219
 20
206.2732301787
 30
0.0
 10
572.0160609918
 20
205.3061680393
 30
0.0
 10
570.7233398692
 20
204.9772545443
 30
0.0
  0
SPLINE
  5
5EF
100
AcDbEntity
  8
0
100
AcDbSpline
 62
7
  6
CONTINUOUS
 70
0
 71
3
 72
9
 73
5
 74
0
 42
0.0000001
 43
0.0000001
 44
0.0000000001
 40
0.0
 40
0.0
 40
0.0
 40
0.0
 40
0.5257955979
 40
1.0
 40
1.0
 40
1.0
 40
1.0
 10
563.2160026359
 20
204.9772222585
 30
0.0
 10
561.8277999364
 20
205.3304166668
 30
0.0
 10
559.2657871191
 20
206.3895746688
 30
0.0
 10
557.1623505092
 20
208.216392538
 30
0.0
 10
556.365324192
 20
209.2331028193
 30
0.0
  0
ELLIPSE
  5
5F0
100
AcDbEntity
  8
KONSTRUKTIONSELEMENTE
100
AcDbEllipse
 62
7
  6
CONTINUOUS
 10
87.2595030043
 20
132.2563835216
 30
0.0
 11
0.9142909071
 21
-0.2161022643
 31
0.0
 40
0.0607989098
 41
-2.7235007144
 42
-1.1527043876
  0
ELLIPSE
  5
5F1
100
AcDbEntity
  8
KONSTRUKTIONSELEMENTE
100
AcDbEllipse
 62
7
  6
CONTINUOUS
 10
90.0006781486
 20
130.7441519193
 30
0.0
 11
-0.4928947979
 21
0.9208512201
 31
0.0
 40
0.7424978488
 41
4.1566475332
 42
5.72744386
  0
ELLIPSE
  5
5F2
100
AcDbEntity
  8
0
100
AcDbEllipse
 62
7
  6
CONTINUOUS
 10
283.8986969943
 20
168.7732709863
 30
0.0
 11
-1.8
 21
3.1176914536
 31
0.0
 40
0.0174550649
 41
-2.7315344544
 42
-1.5707963268
  0
ELLIPSE
  5
5F3
100
AcDbEntity
  8
0
100
AcDbEllipse
 62
7
  6
CONTINUOUS
 10
309.8794591079
 20
183.7732709863
 30
0.0
 11
-1.25
 21
2.1650635095
 31
0.0
 40
0.0174550649
 41
-0.0
 42
3.1415926536
  0
ELLIPSE
  5
5F4
100
AcDbEntity
  8
0
100
AcDbEllipse
 62
7
  6
CONTINUOUS
 10
154.2794591079
 20
168.7732709863
 30
0.0
 11
1.8
 21
3.1176914536
 31
0.0
 40
0.0174550649
 41
-4.7123889804
 42
-3.5516508528
  0
ELLIPSE
  5
5F5
100
AcDbEntity
  8
0
100
AcDbEllipse
 62
7
  6
CONTINUOUS
 10
128.2986969943
 20
183.7732709863
 30
0.0
 11
1.25
 21
2.1650635095
 31
0.0
 40
0.0174550649
 41
-3.1415926536
 42
0.0
  0
ELLIPSE
  5
5F6
100
AcDbEntity
  8
0
100
AcDbEllipse
 62
7
  6
CONTINUOUS
 10
563.3649663404
 20
194.19944394
 30
0.0
 11
-0.5489753537
 21
8.4628746293
 31
0.0
 40
0.2357886283
 41
-2.1634070812
 42
-1.8392681619
  0
ELLIPSE
  5
5F7
100
AcDbEntity
  8
0
100
AcDbEllipse
 62
7
  6
CONTINUOUS
 10
566.9696155563
 20
183.7732709863
 30
0.0
 11
2.4988610088
 21
0.0871559953
 31
0.0
 40
0.8657618647
 41
1.5406092075
 42
4.6822018611
  0
ELLIPSE
  5
5F8
100
AcDbEntity
  8
RUNDUNGEN
100
AcDbEllipse
 62
7
  6
CONTINUOUS
 10
570.5742647723
 20
194.19944394
 30
0.0
 11
0.5489753537
 21
8.4628746293
 31
0.0
 40
0.2357886283
 41
-4.4439171453
 42
-4.119778226
  0
ELLIPSE
  5
5F9
100
AcDbEntity
  8
0
100
AcDbEllipse
 62
7
  6
CONTINUOUS
 10
566.9696155563
 20
183.7732709863
 30
0.0
 11
2.4988610088
 21
-0.0871559953
 31
0.0
 40
0.8657618647
 41
4.7425760997
 42
7.8841687533
  0
ELLIPSE
  5
5FA
100
AcDbEntity
  8
KONSTRUKTIONSELEMENTE
100
AcDbEllipse
 62
7
  6
CONTINUOUS
 10
457.735085293
 20
133.7260773673
 30
0.0
 11
-0.1008192969
 21
1.2529102975
 31
0.0
 40
0.2046205075
 41
1.414284035
 42
2.9366465147
  0
ELLIPSE
  5
5FB
100
AcDbEntity
  8
KONSTRUKTIONSELEMENTE
100
AcDbEllipse
 62
7
  6
CONTINUOUS
 10
459.4321415679
 20
132.2563835216
 30
0.0
 11
1.2425182653
 21
0.09998307
 31
0.0
 40
0.1605475814
 41
1.7760442449
 42
3.2984067247
  0
ELLIPSE
  5
5FC
100
AcDbEntity
  8
KONSTRUKTIONSELEMENTE
100
AcDbEllipse
 62
7
  6
CONTINUOUS
 10
459.9173622247
 20
130.7441519193
 30
0.0
 11
0.8239070247
 21
0.9692176645
 31
0.0
 40
0.2502772103
 41
-1.538620793
 42
0.0321755338
  0
ENDSEC
  0
SECTION
  2
OBJECTS
  0
DICTIONARY
  5
C
100
AcDbDictionary
280
0
281
1
  3
ACAD_GROUP
350
D
  3
ACAD_MLINESTYLE
350
17
  3
ACAD_LAYOUT
350
1A
  3
ACAD_PLOTSETTINGS
350
19
  3
ACAD_PLOTSTYLENAME
350
E
  0
DICTIONARY
  5
D
102
{ACAD_REACTORS
330
C
102
}
100
AcDbDictionary
280
0
281
1
  0
ACDBDICTIONARYWDFLT
  5
E
102
{ACAD_REACTORS
330
C
102
}
100
AcDbDictionary
281
1
  3
Normal
350
F
100
AcDbDictionaryWithDefault
340
F
  0
DICTIONARY
  5
17
102
{ACAD_REACTORS
330
C
102
}
100
AcDbDictionary
280
0
281
1
  3
Standard
350
18
  0
DICTIONARY
  5
19
102
{ACAD_REACTORS
330
C
102
}
100
AcDbDictionary
281
1
  0
DICTIONARY
  5
1A
102
{ACAD_REACTORS
330
C
102
}
100
AcDbDictionary
281
1
  3
Model
350
5FD
  3
Layout1
350
5FE
  0
ACDBPLACEHOLDER
  5
F
102
{ACAD_REACTORS
330
E
102
}
  0
MLINESTYLE
  5
18
102
{ACAD_REACTORS
330
17
102
}
100
AcDbMlineStyle
  2
STANDARD
 70
0
  3

 62
256
 51
90.0
 52
90.0
 71
2
 49
0.5
 62
256
  6
BYLAYER
 49
-0.5
 62
256
  6
BYLAYER
  0
LAYOUT
  5
5FD
102
{ACAD_REACTORS
330
1A
102
}
100
AcDbPlotSettings
  1

  2
none_device
  4
ISO_A1_(594.00_x_841.00_MM)
  6

 40
0.0
 41
0.0
 42
0.0
 43
0.0
 44
841.0
 45
594.0
 46
0.0
 47
0.0
 48
0.0
 49
0.0
140
0.0
141
0.0
142
1.0
143
1.0
 70
1024
 72
1
 73
0
 74
0
  7

 75
0
147
1.0
148
0.0
149
0.0
100
AcDbLayout
  1
Model
 70
0
 71
0
 10
0.0
 20
0.0
 11
841.0
 21
594.0
 12
0.0
 22
0.0
 32
0.0
 14
0.0
 24
0.0
 34
0.0
 15
0.0
 25
0.0
 35
0.0
146
0.0
 13
0.0
 23
0.0
 33
0.0
 16
1.0
 26
0.0
 36
0.0
 17
0.0
 27
1.0
 37
0.0
 76
0
330
20D
345
0
346
0
  0
LAYOUT
  5
5FE
102
{ACAD_REACTORS
330
1A
102
}
100
AcDbPlotSettings
  1

  2
none_device
  4
ISO_A1_(594.00_x_841.00_MM)
  6

 40
0.0
 41
0.0
 42
0.0
 43
0.0
 44
841.0
 45
594.0
 46
0.0
 47
0.0
 48
0.0
 49
0.0
140
0.0
141
0.0
142
1.0
143
1.0
 70
0
 72
1
 73
0
 74
0
  7

 75
0
147
1.0
148
0.0
149
0.0
100
AcDbLayout
  1
Layout1
 70
0
 71
1
 10
0.0
 20
0.0
 11
841.0
 21
594.0
 12
0.0
 22
0.0
 32
0.0
 14
0.0
 24
0.0
 34
0.0
 15
0.0
 25
0.0
 35
0.0
146
0.0
 13
0.0
 23
0.0
 33
0.0
 16
1.0
 26
0.0
 36
0.0
 17
0.0
 27
1.0
 37
0.0
 76
0
330
20E
345
0
346
0
  0
ENDSEC
  0
EOF
