999
DXF file: VSAK-2-22_250_7994084_M32395-P-5.dxf
999
Pro/ENGINEER 2010140 by Parametric Technology Corporation
  0
SECTION
  2
HEADER
  9
$ACADVER
  1
AC1015
  9
$DWGCODEPAGE
  3
ANSI_1252
  9
$EXTMAX
 10
1189.0
 20
841.0
 30
0.0
  9
$EXTMIN
 10
0.0
 20
0.0
 30
0.0
  9
$LIMMIN
 10
0.0
 20
0.0
  9
$LIMMAX
 10
1189.0
 20
841.0
  9
$VIEWCTR
 10
594.5
 20
420.5
  9
$VIEWSIZE
 40
841.0
  9
$CLAYER
  8
0
  9
$LTSCALE
 40
65.395
  9
$CELTYPE
  6
BYLAYER
  9
$DIMSCALE
 40
1.0
  9
$DIMASZ
 40
3.5
  9
$DIMEXO
 40
7.43125
  9
$DIMDLI
 40
45.182
  9
$DIMEXE
 40
21.402
  9
$DIMCEN
 40
10.701
  9
$DIMLFAC
 40
1.0
  9
$DIMBLK
  1
_FILLED
  9
$DIMTXT
 40
3.5
  9
$DIMTOL
 70
1
  9
$DIMLIM
 70
0
  9
$DIMTFAC
 40
1.0
  9
$DIMTP
 40
0.005
  9
$DIMTM
 40
0.005
  9
$PDMODE
 70
3
  9
$PDSIZE
 40
0.3125
  9
$HANDSEED
  5
61C
  9
$TILEMODE
 70
1
  9
$MEASUREMENT
 70
1
  9
$INSUNITS
 70
4
  0
ENDSEC
  0
SECTION
  2
CLASSES
  0
CLASS
  1
ACDBDICTIONARYWDFLT
  2
AcDbDictionaryWithDefault
  3
AutoCAD 2000
 90
0
280
0
281
0
  0
CLASS
  1
ACDBPLACEHOLDER
  2
AcDbPlaceHolder
  3
AutoCAD 2000
 90
0
280
0
281
0
  0
CLASS
  1
LAYOUT
  2
AcDbLayout
  3
AutoCAD 2000
 90
0
280
0
281
0
  0
ENDSEC
  0
SECTION
  2
TABLES
  0
TABLE
  2
VPORT
  5
8
100
AcDbSymbolTable
 70
2
  0
VPORT
  5
1F4
100
AcDbSymbolTableRecord
100
AcDbViewportTableRecord
  2
*ACTIVE
 70
0
 10
0.0
 20
0.0
 11
1.0
 21
1.0
 12
594.5
 22
420.5
 13
0.0
 23
0.0
 14
1.0
 24
1.0
 15
0.0
 25
0.0
 16
0.0
 26
0.0
 36
1.0
 17
0.0
 27
0.0
 37
0.0
 40
841.0
 41
1.4137931034
 42
50.0
 43
0.0
 44
0.0
 50
0.0
 51
0.0
 71
0
 72
100
 73
1
 74
1
 75
0
 76
0
 77
0
 78
0
  0
ENDTAB
  0
TABLE
  2
LTYPE
  5
5
100
AcDbSymbolTable
 70
6
  0
LTYPE
  5
14
100
AcDbSymbolTableRecord
100
AcDbLinetypeTableRecord
  2
BYBLOCK
 70
0
  3

 72
65
 73
0
 40
0.0
  0
LTYPE
  5
15
100
AcDbSymbolTableRecord
100
AcDbLinetypeTableRecord
  2
BYLAYER
 70
0
  3

 72
65
 73
0
 40
0.0
  0
LTYPE
  5
16
100
AcDbSymbolTableRecord
100
AcDbLinetypeTableRecord
  2
CONTINUOUS
 70
64
  3
Solid line
 72
65
 73
0
 40
0.0
  0
LTYPE
  5
1F5
100
AcDbSymbolTableRecord
100
AcDbLinetypeTableRecord
  2
CENTER
 70
64
  3
____ _ ____ _ ____ _ ____ _ ____ _ ____ _ ____
 72
65
 73
4
 40
0.6
 49
0.375
 74
0
 49
-0.075
 74
0
 49
0.075
 74
0
 49
-0.075
 74
0
  0
LTYPE
  5
1F6
100
AcDbSymbolTableRecord
100
AcDbLinetypeTableRecord
  2
HIDDEN
 70
64
  3
- - - - - - - - - - - - - - - - - - - -
 72
65
 73
2
 40
0.2
 49
0.1
 74
0
 49
-0.1
 74
0
  0
LTYPE
  5
1F7
100
AcDbSymbolTableRecord
100
AcDbLinetypeTableRecord
  2
PHANTOM
 70
64
  3
_____ _ _ _____ _ _ _____ _ _ _____
 72
65
 73
6
 40
0.8
 49
0.45
 74
0
 49
-0.05
 74
0
 49
0.1
 74
0
 49
-0.05
 74
0
 49
0.1
 74
0
 49
-0.05
 74
0
  0
LTYPE
  5
1F8
100
AcDbSymbolTableRecord
100
AcDbLinetypeTableRecord
  2
DOT
 70
64
  3
. . . . . . . . . . . . . . . . . . . .
 72
65
 73
2
 40
0.2
 49
0.1
 74
0
 49
-0.1
 74
0
  0
LTYPE
  5
1F9
100
AcDbSymbolTableRecord
100
AcDbLinetypeTableRecord
  2
DASHED
 70
64
  3
- - - - - - - - - - - - - - - - - - - -
 72
65
 73
2
 40
0.2
 49
0.1
 74
0
 49
-0.1
 74
0
  0
ENDTAB
  0
TABLE
  2
LAYER
  5
2
100
AcDbSymbolTable
 70
36
  0
LAYER
  5
10
100
AcDbSymbolTableRecord
100
AcDbLayerTableRecord
  2
0
 70
0
 62
7
  6
CONTINUOUS
370
-3
390
F
  0
LAYER
  5
1FA
100
AcDbSymbolTableRecord
100
AcDbLayerTableRecord
  2
DEFAULT_1
 70
0
 62
7
  6
CENTER
370
-3
390
F
  0
LAYER
  5
1FB
100
AcDbSymbolTableRecord
100
AcDbLayerTableRecord
  2
DEFAULT_2
 70
0
 62
8
  6
HIDDEN
370
-3
390
F
  0
LAYER
  5
1FC
100
AcDbSymbolTableRecord
100
AcDbLayerTableRecord
  2
DEFAULT_3
 70
0
 62
7
  6
PHANTOM
370
-3
390
F
  0
LAYER
  5
1FD
100
AcDbSymbolTableRecord
100
AcDbLayerTableRecord
  2
BEZUGSACHSEN
 70
0
 62
7
  6
CONTINUOUS
370
-3
390
F
  0
LAYER
  5
1FE
100
AcDbSymbolTableRecord
100
AcDbLayerTableRecord
  2
BEZUGSEBENEN
 70
0
 62
7
  6
CONTINUOUS
370
-3
390
F
  0
LAYER
  5
1FF
100
AcDbSymbolTableRecord
100
AcDbLayerTableRecord
  2
BG_STARTBEZUEGE
 70
0
 62
7
  6
CONTINUOUS
370
-3
390
F
  0
LAYER
  5
200
100
AcDbSymbolTableRecord
100
AcDbLayerTableRecord
  2
FASEN
 70
0
 62
7
  6
CONTINUOUS
370
-3
390
F
  0
LAYER
  5
201
100
AcDbSymbolTableRecord
100
AcDbLayerTableRecord
  2
HILFEN
 70
0
 62
7
  6
CONTINUOUS
370
-3
390
F
  0
LAYER
  5
202
100
AcDbSymbolTableRecord
100
AcDbLayerTableRecord
  2
KONSTRUKTIONSELEMENTE
 70
0
 62
7
  6
CONTINUOUS
370
-3
390
F
  0
LAYER
  5
203
100
AcDbSymbolTableRecord
100
AcDbLayerTableRecord
  2
NORM
 70
0
 62
7
  6
CONTINUOUS
370
-3
390
F
  0
LAYER
  5
204
100
AcDbSymbolTableRecord
100
AcDbLayerTableRecord
  2
PLATZIERUNG
 70
0
 62
7
  6
CONTINUOUS
370
-3
390
F
  0
LAYER
  5
205
100
AcDbSymbolTableRecord
100
AcDbLayerTableRecord
  2
RUNDUNGEN
 70
0
 62
7
  6
CONTINUOUS
370
-3
390
F
  0
LAYER
  5
206
100
AcDbSymbolTableRecord
100
AcDbLayerTableRecord
  2
TEIL_STARTBEZUEGE
 70
0
 62
7
  6
CONTINUOUS
370
-3
390
F
  0
LAYER
  5
207
100
AcDbSymbolTableRecord
100
AcDbLayerTableRecord
  2
T_STARTBEZUEGE
 70
0
 62
7
  6
CONTINUOUS
370
-3
390
F
  0
ENDTAB
  0
TABLE
  2
STYLE
  5
3
100
AcDbSymbolTable
 70
1
  0
STYLE
  5
11
100
AcDbSymbolTableRecord
100
AcDbTextStyleTableRecord
  2
STANDARD
 70
0
 40
0.0
 41
0.7
 50
0.0
 71
0
 42
0.2
  3
txt
  4

  0
STYLE
  5
208
100
AcDbSymbolTableRecord
100
AcDbTextStyleTableRecord
  2
TEXTSTYLE_1
 70
0
 40
0.0
 41
0.8
 50
0.0
 71
0
 42
0.2
  3
gdt
  4

  0
ENDTAB
  0
TABLE
  2
VIEW
  5
6
100
AcDbSymbolTable
 70
0
  0
ENDTAB
  0
TABLE
  2
UCS
  5
7
100
AcDbSymbolTable
 70
0
  0
ENDTAB
  0
TABLE
  2
APPID
  5
9
100
AcDbSymbolTable
 70
1
  0
APPID
  5
209
100
AcDbSymbolTableRecord
100
AcDbRegAppTableRecord
  2
ACAD
 70
0
  0
ENDTAB
  0
TABLE
  2
BLOCK_RECORD
  5
1
100
AcDbSymbolTable
 70
0
  0
BLOCK_RECORD
  5
20A
100
AcDbSymbolTableRecord
100
AcDbBlockTableRecord
  2
*Model_Space
  0
BLOCK_RECORD
  5
20B
100
AcDbSymbolTableRecord
100
AcDbBlockTableRecord
  2
*Paper_Space
  0
ENDTAB
  0
TABLE
  2
DIMSTYLE
  5
A
100
AcDbSymbolTable
 70
1
100
AcDbDimStyleTable
 71
0
  0
DIMSTYLE
105
20C
100
AcDbSymbolTableRecord
100
AcDbDimStyleTableRecord
  2
STANDARD
 70
0
  3

  4

 40
1.0
 41
3.5
 42
0.0625
 43
0.38
 44
0.18
 45
0.0
 46
0.0
 47
0.005
 48
0.005
140
3.5
141
0.09
142
0.0
143
25.4
144
1.0
145
0.0
146
1.0
147
0.09
 71
1.0
 72
0.0
 73
0
 74
0
 75
0
 76
0
 77
1
 78
8
170
0
171
2
172
0
173
0
174
0
175
0
176
0
177
0
178
5
270
2
271
3
272
3
273
2
274
2
275
0
280
0
281
0
282
0
283
1
284
8
285
0
286
0
287
3
288
0
340
11
  0
ENDTAB
  0
ENDSEC
  0
SECTION
  2
BLOCKS
  0
BLOCK
  5
20
100
AcDbEntity
  8
0
100
AcDbBlockBegin
  2
*Model_Space
 70
0
 10
0.0
 20
0.0
 30
0.0
  3
*Model_Space
  1

  0
ENDBLK
  5
21
100
AcDbEntity
  8
0
100
AcDbBlockEnd
  0
BLOCK
  5
1C
100
AcDbEntity
  8
0
100
AcDbBlockBegin
  2
*Paper_Space
 70
0
 10
0.0
 20
0.0
 30
0.0
  3
*Paper_Space
  1

  0
ENDBLK
  5
1D
100
AcDbEntity
  8
0
100
AcDbBlockEnd
  0
ENDSEC
  0
SECTION
  2
ENTITIES
  0
MTEXT
  5
20D
100
AcDbEntity
  8
0
100
AcDbMText
 62
5
  6
CONTINUOUS
  7
STANDARD
 71
1
 72
1
 10
166.5849728996
 20
558.3052242692
 30
0.0
 11
0.0
 21
1.0
 31
0.0
 44
0.9
  1
RUD
 40
12.0
 41
32.0
  0
MTEXT
  5
20E
100
AcDbEntity
  8
0
100
AcDbMText
 62
5
  6
CONTINUOUS
  7
STANDARD
 71
1
 72
1
 10
468.0686218225
 20
511.6779487576
 30
0.0
 11
0.0
 21
1.0
 31
0.0
 44
0.9
  1
VSAK 2-22/250
 40
12.0
 41
124.2857142857
  0
MTEXT
  5
20F
100
AcDbEntity
  8
0
100
AcDbMText
 62
5
  6
CONTINUOUS
  7
STANDARD
 71
1
 72
1
 10
1003.6569722077
 20
501.0240051987
 30
0.0
 11
0.0
 21
1.0
 31
0.0
 44
0.9
  1
RUD VSAK 2-22/250
 40
12.0
 41
163.4285714286
  0
LINE
  5
210
100
AcDbEntity
  8
0
100
AcDbLine
 62
7
  6
CONTINUOUS
 10
0.0
 20
0.0
 11
0.0
 21
841.0
  0
LINE
  5
211
100
AcDbEntity
  8
0
100
AcDbLine
 62
7
  6
CONTINUOUS
 10
0.0
 20
0.0
 11
1189.0
 21
0.0
  0
LINE
  5
212
100
AcDbEntity
  8
0
100
AcDbLine
 62
7
  6
CONTINUOUS
 10
0.0
 20
841.0
 11
1189.0
 21
841.0
  0
LINE
  5
213
100
AcDbEntity
  8
0
100
AcDbLine
 62
7
  6
CONTINUOUS
 10
1189.0
 20
0.0
 11
1189.0
 21
841.0
  0
LINE
  5
214
100
AcDbEntity
  8
KONSTRUKTIONSELEMENTE
100
AcDbLine
 62
7
  6
CONTINUOUS
 10
29.1492176821
 20
-15.873218412
 11
46.4870462659
 21
-25.883218412
  0
LINE
  5
215
100
AcDbEntity
  8
KONSTRUKTIONSELEMENTE
100
AcDbLine
 62
7
  6
CONTINUOUS
 10
28.5854984676
 20
-14.6496087327
 11
29.5381264118
 21
-15.1996087327
  0
LINE
  5
216
100
AcDbEntity
  8
KONSTRUKTIONSELEMENTE
100
AcDbLine
 62
7
  6
CONTINUOUS
 10
46.8759549955
 20
-25.2096087327
 11
47.8285829397
 21
-25.7596087327
  0
LINE
  5
217
100
AcDbEntity
  8
KONSTRUKTIONSELEMENTE
100
AcDbLine
 62
7
  6
CONTINUOUS
 10
37.0845433149
 20
15.4711687587
 11
34.979012042
 21
16.6867978059
  0
LINE
  5
218
100
AcDbEntity
  8
KONSTRUKTIONSELEMENTE
100
AcDbLine
 62
7
  6
CONTINUOUS
 10
69.6644190053
 20
-3.3388312413
 11
94.9480125336
 21
-17.936320771
  0
LINE
  5
219
100
AcDbEntity
  8
KONSTRUKTIONSELEMENTE
100
AcDbLine
 62
7
  6
CONTINUOUS
 10
110.2295981597
 20
-14.7202026879
 11
100.0138912664
 21
-5.2141096963
  0
LINE
  5
21A
100
AcDbEntity
  8
KONSTRUKTIONSELEMENTE
100
AcDbLine
 62
7
  6
CONTINUOUS
 10
111.9973651126
 20
-11.6583405094
 11
101.7816582193
 21
-2.1522475178
  0
LINE
  5
21B
100
AcDbEntity
  8
KONSTRUKTIONSELEMENTE
100
AcDbLine
 62
7
  6
CONTINUOUS
 10
36.217339019
 20
98.5437777038
 11
49.5577104872
 21
94.4497625124
  0
LINE
  5
21C
100
AcDbEntity
  8
KONSTRUKTIONSELEMENTE
100
AcDbLine
 62
7
  6
CONTINUOUS
 10
36.6062477487
 20
99.217387383
 11
49.9466192168
 21
95.1233721916
  0
LINE
  5
21D
100
AcDbEntity
  8
0
100
AcDbLine
 62
7
  6
CONTINUOUS
 10
123.310011604
 20
53.3559269962
 11
117.5408840484
 21
56.6867343434
  0
LINE
  5
21E
100
AcDbEntity
  8
0
100
AcDbLine
 62
7
  6
CONTINUOUS
 10
65.1299754663
 20
86.9461865217
 11
59.3608479107
 21
90.2769938689
  0
LINE
  5
21F
100
AcDbEntity
  8
0
100
AcDbLine
 62
7
  6
CONTINUOUS
 10
89.2650160206
 20
92.9303986478
 11
110.6558434941
 21
80.5803986478
  0
LINE
  5
220
100
AcDbEntity
  8
KONSTRUKTIONSELEMENTE
100
AcDbLine
 62
7
  6
CONTINUOUS
 10
39.9867788406
 20
101.5150155338
 11
50.2486030469
 21
98.3657730789
  0
LINE
  5
221
100
AcDbEntity
  8
KONSTRUKTIONSELEMENTE
100
AcDbLine
 62
7
  6
CONTINUOUS
 10
40.9767283343
 20
103.2296583538
 11
51.2385525405
 21
100.0804158988
  0
LINE
  5
222
100
AcDbEntity
  8
KONSTRUKTIONSELEMENTE
100
AcDbLine
 62
7
  6
CONTINUOUS
 10
41.7318504892
 20
117.3864949182
 11
53.1086880436
 21
113.8950669704
  0
LINE
  5
223
100
AcDbEntity
  8
KONSTRUKTIONSELEMENTE
100
AcDbLine
 62
7
  6
CONTINUOUS
 10
52.6365943342
 20
114.1141429777
 11
38.3324041841
 21
118.5039436602
  0
LINE
  5
224
100
AcDbEntity
  8
KONSTRUKTIONSELEMENTE
100
AcDbLine
 62
7
  6
CONTINUOUS
 10
62.8467684189
 20
124.4726515548
 11
49.5669478877
 21
128.5480843209
  0
LINE
  5
225
100
AcDbEntity
  8
KONSTRUKTIONSELEMENTE
100
AcDbLine
 62
7
  6
CONTINUOUS
 10
107.0626467936
 20
114.5076491198
 11
106.6986292864
 21
114.6193621413
  0
LINE
  5
226
100
AcDbEntity
  8
KONSTRUKTIONSELEMENTE
100
AcDbLine
 62
7
  6
CONTINUOUS
 10
64.6145353719
 20
127.5345137332
 11
51.3347148407
 21
131.6099464994
  0
LINE
  5
227
100
AcDbEntity
  8
KONSTRUKTIONSELEMENTE
100
AcDbLine
 62
7
  6
CONTINUOUS
 10
52.6365943342
 20
114.1141429777
 11
52.8427681318
 21
114.0383366161
  0
LINE
  5
228
100
AcDbEntity
  8
0
100
AcDbLine
 62
7
  6
CONTINUOUS
 10
103.0150160206
 20
116.7460972519
 11
124.4058434941
 21
104.3960972519
  0
LINE
  5
229
100
AcDbEntity
  8
KONSTRUKTIONSELEMENTE
100
AcDbLine
 62
7
  6
CONTINUOUS
 10
168.4318890476
 20
43.2660876876
 11
178.6475959409
 21
33.759994696
  0
LINE
  5
22A
100
AcDbEntity
  8
KONSTRUKTIONSELEMENTE
100
AcDbLine
 62
7
  6
CONTINUOUS
 10
151.1813596049
 20
73.4726515548
 11
180.2104647497
 21
46.4599958618
  0
LINE
  5
22B
100
AcDbEntity
  8
KONSTRUKTIONSELEMENTE
100
AcDbLine
 62
7
  6
CONTINUOUS
 10
181.9782317026
 20
49.5218580403
 11
152.9491265579
 21
76.5345137332
  0
LINE
  5
22C
100
AcDbEntity
  8
KONSTRUKTIONSELEMENTE
100
AcDbLine
 62
7
  6
CONTINUOUS
 10
120.7222302283
 20
106.5228323625
 11
120.4434751601
 21
106.7822242604
  0
LINE
  5
22D
100
AcDbEntity
  8
BEZUGSACHSEN
100
AcDbLine
 62
7
  6
CONTINUOUS
 10
199.1387938233
 20
162.3126771627
 11
200.0923551452
 21
161.9449479415
  0
LINE
  5
22E
100
AcDbEntity
  8
BEZUGSACHSEN
100
AcDbLine
 62
7
  6
CONTINUOUS
 10
54.4841480039
 20
107.6486125427
 11
56.9368091457
 21
93.7388799995
  0
LINE
  5
22F
100
AcDbEntity
  8
KONSTRUKTIONSELEMENTE
100
AcDbLine
 62
7
  6
CONTINUOUS
 10
38.5501641063
 20
123.5913245577
 11
38.1726843187
 21
119.5383234487
  0
LINE
  5
230
100
AcDbEntity
  8
KONSTRUKTIONSELEMENTE
100
AcDbLine
 62
7
  6
CONTINUOUS
 10
36.217339019
 20
98.5437777038
 11
29.4678680059
 21
26.0746961759
  0
LINE
  5
231
100
AcDbEntity
  8
KONSTRUKTIONSELEMENTE
100
AcDbLine
 62
7
  6
CONTINUOUS
 10
36.6062477487
 20
99.217387383
 11
36.6817437062
 21
100.0279876049
  0
LINE
  5
232
100
AcDbEntity
  8
BEZUGSACHSEN
100
AcDbLine
 62
7
  6
CONTINUOUS
 10
201.3859912996
 20
161.8768688766
 11
200.0923551452
 21
161.9449479415
  0
LINE
  5
233
100
AcDbEntity
  8
BEZUGSACHSEN
100
AcDbLine
 62
7
  6
CONTINUOUS
 10
201.4859823681
 20
163.7768958743
 11
200.5157550257
 21
163.8279551849
  0
LINE
  5
234
100
AcDbEntity
  8
BEZUGSACHSEN
100
AcDbLine
 62
7
  6
CONTINUOUS
 10
190.2598928037
 20
172.3063868857
 11
197.0514787641
 21
171.9489719976
  0
LINE
  5
235
100
AcDbEntity
  8
BEZUGSACHSEN
100
AcDbLine
 62
7
  6
CONTINUOUS
 10
198.9919316368
 20
171.8468534717
 11
203.8430647245
 21
171.5915571095
  0
LINE
  5
236
100
AcDbEntity
  8
BEZUGSACHSEN
100
AcDbLine
 62
7
  6
CONTINUOUS
 10
190.3598838722
 20
174.2064138833
 11
205.5600998536
 21
173.4064853356
  0
LINE
  5
237
100
AcDbEntity
  8
BEZUGSACHSEN
100
AcDbLine
 62
7
  6
CONTINUOUS
 10
133.2017397299
 20
214.8878712589
 11
133.9732847214
 21
214.6668970367
  0
LINE
  5
238
100
AcDbEntity
  8
BEZUGSACHSEN
100
AcDbLine
 62
7
  6
CONTINUOUS
 10
125.2506448091
 20
221.7045557127
 11
126.1426790881
 21
221.4191461753
  0
LINE
  5
239
100
AcDbEntity
  8
BEZUGSACHSEN
100
AcDbLine
 62
7
  6
CONTINUOUS
 10
520.0507471941
 20
52.9875909112
 11
506.778234881
 21
57.8183903271
  0
LINE
  5
23A
100
AcDbEntity
  8
BEZUGSACHSEN
100
AcDbLine
 62
7
  6
CONTINUOUS
 10
199.5621937993
 20
164.1956862181
 11
200.5157550257
 21
163.8279551849
  0
LINE
  5
23B
100
AcDbEntity
  8
BEZUGSACHSEN
100
AcDbLine
 62
7
  6
CONTINUOUS
 10
133.1565517389
 20
216.2259665622
 11
133.7659932015
 21
215.9567655773
  0
LINE
  5
23C
100
AcDbEntity
  8
BEZUGSACHSEN
100
AcDbLine
 62
7
  6
CONTINUOUS
 10
143.0930801439
 20
226.4213478008
 11
143.8166395353
 21
226.0741133993
  0
LINE
  5
23D
100
AcDbEntity
  8
BEZUGSACHSEN
100
AcDbLine
 62
7
  6
CONTINUOUS
 10
125.5720925872
 20
220.6602183106
 11
126.0654540027
 21
220.4204971587
  0
LINE
  5
23E
100
AcDbEntity
  8
BEZUGSACHSEN
100
AcDbLine
 62
7
  6
CONTINUOUS
 10
143.0811214782
 20
225.1149835327
 11
143.6367863193
 21
224.7473906595
  0
LINE
  5
23F
100
AcDbEntity
  8
BEZUGSACHSEN
100
AcDbLine
 62
7
  6
CONTINUOUS
 10
126.1426790881
 20
221.4191461753
 11
126.9774091111
 21
220.8655313626
  0
LINE
  5
240
100
AcDbEntity
  8
BEZUGSACHSEN
100
AcDbLine
 62
7
  6
CONTINUOUS
 10
132.3070639812
 20
215.5227263557
 11
133.2017397299
 21
214.8878712589
  0
LINE
  5
241
100
AcDbEntity
  8
BEZUGSACHSEN
100
AcDbLine
 62
7
  6
CONTINUOUS
 10
197.8951542045
 20
163.3307714908
 11
199.1387938233
 21
162.3126771627
  0
LINE
  5
242
100
AcDbEntity
  8
BEZUGSACHSEN
100
AcDbLine
 62
7
  6
CONTINUOUS
 10
143.8166395353
 20
226.0741133993
 11
144.5921781954
 21
225.2982104766
  0
LINE
  5
243
100
AcDbEntity
  8
BEZUGSACHSEN
100
AcDbLine
 62
7
  6
CONTINUOUS
 10
132.647647108
 20
216.7503340887
 11
133.1565517389
 21
216.2259665622
  0
LINE
  5
244
100
AcDbEntity
  8
BEZUGSACHSEN
100
AcDbLine
 62
7
  6
CONTINUOUS
 10
127.4284717702
 20
217.2417966598
 11
130.9742313939
 21
213.4465889129
  0
LINE
  5
245
100
AcDbEntity
  8
BEZUGSACHSEN
100
AcDbLine
 62
7
  6
CONTINUOUS
 10
126.7058926787
 20
216.4086963925
 11
129.9102834775
 21
212.9273822001
  0
LINE
  5
246
100
AcDbEntity
  8
BEZUGSACHSEN
100
AcDbLine
 62
7
  6
CONTINUOUS
 10
198.9487064994
 20
164.8630674553
 11
199.5621937993
 21
164.1956862181
  0
LINE
  5
247
100
AcDbEntity
  8
BEZUGSACHSEN
100
AcDbLine
 62
7
  6
CONTINUOUS
 10
126.0654540027
 20
220.4204971587
 11
126.5015107274
 21
219.9125705193
  0
LINE
  5
248
100
AcDbEntity
  8
BEZUGSACHSEN
100
AcDbLine
 62
7
  6
CONTINUOUS
 10
126.9774091111
 20
220.8655313626
 11
127.4134658359
 21
220.3576047232
  0
LINE
  5
249
100
AcDbEntity
  8
BEZUGSACHSEN
100
AcDbLine
 62
7
  6
CONTINUOUS
 10
131.7365939313
 20
216.2540344554
 11
132.3070639812
 21
215.5227263557
  0
LINE
  5
24A
100
AcDbEntity
  8
BEZUGSACHSEN
100
AcDbLine
 62
7
  6
CONTINUOUS
 10
143.6367863193
 20
224.7473906595
 11
144.0505463172
 21
224.1451044536
  0
LINE
  5
24B
100
AcDbEntity
  8
BEZUGSACHSEN
100
AcDbLine
 62
7
  6
CONTINUOUS
 10
132.239281121
 20
217.5298688536
 11
132.647647108
 21
216.7503340887
  0
LINE
  5
24C
100
AcDbEntity
  8
BEZUGSACHSEN
100
AcDbLine
 62
7
  6
CONTINUOUS
 10
125.1985155622
 20
210.6280388838
 11
120.7481735228
 21
219.7475899683
  0
LINE
  5
24D
100
AcDbEntity
  8
BEZUGSACHSEN
100
AcDbLine
 62
7
  6
CONTINUOUS
 10
126.1104706706
 20
211.0730730878
 11
124.1220199439
 21
215.1477661833
  0
LINE
  5
24E
100
AcDbEntity
  8
BEZUGSACHSEN
100
AcDbLine
 62
7
  6
CONTINUOUS
 10
123.5538912407
 20
216.3119640553
 11
122.1335692173
 21
219.2224592789
  0
LINE
  5
24F
100
AcDbEntity
  8
BEZUGSACHSEN
100
AcDbLine
 62
7
  6
CONTINUOUS
 10
126.5015107274
 20
219.9125705193
 11
126.7855753443
 21
219.3304710397
  0
LINE
  5
250
100
AcDbEntity
  8
BEZUGSACHSEN
100
AcDbLine
 62
7
  6
CONTINUOUS
 10
127.4134658359
 20
220.3576047232
 11
127.79221857
 21
219.581472265
  0
LINE
  5
251
100
AcDbEntity
  8
BEZUGSACHSEN
100
AcDbLine
 62
7
  6
CONTINUOUS
 10
131.266661177
 20
217.2405092346
 11
131.7365939313
 21
216.2540344554
  0
LINE
  5
252
100
AcDbEntity
  8
RUNDUNGEN
100
AcDbLine
 62
7
  6
CONTINUOUS
 10
71.4165981451
 20
140.6557780149
 11
71.4165981451
 21
149.5759018937
  0
LINE
  5
253
100
AcDbEntity
  8
KONSTRUKTIONSELEMENTE
100
AcDbLine
 62
7
  6
CONTINUOUS
 10
54.3082579953
 20
111.4572592089
 11
52.8627456216
 21
95.9367904413
  0
LINE
  5
254
100
AcDbEntity
  8
BEZUGSACHSEN
100
AcDbLine
 62
7
  6
CONTINUOUS
 10
202.3728828505
 20
162.142479572
 11
201.3859912996
 21
161.8768688766
  0
LINE
  5
255
100
AcDbEntity
  8
BEZUGSACHSEN
100
AcDbLine
 62
7
  6
CONTINUOUS
 10
202.4728740143
 20
164.0425083817
 11
201.4859823681
 21
163.7768958743
  0
LINE
  5
256
100
AcDbEntity
  8
BEZUGSACHSEN
100
AcDbLine
 62
7
  6
CONTINUOUS
 10
485.1528353402
 20
230.9351254969
 11
506.0497090473
 21
235.3768931218
  0
LINE
  5
257
100
AcDbEntity
  8
BEZUGSACHSEN
100
AcDbLine
 62
7
  6
CONTINUOUS
 10
189.6597002081
 20
176.7293349175
 11
204.6580172499
 21
179.3248960276
  0
LINE
  5
258
100
AcDbEntity
  8
BEZUGSACHSEN
100
AcDbLine
 62
7
  6
CONTINUOUS
 10
189.3352550694
 20
178.6041245478
 11
204.3335721112
 21
181.1996856578
  0
LINE
  5
259
100
AcDbEntity
  8
BEZUGSACHSEN
100
AcDbLine
 62
7
  6
CONTINUOUS
 10
187.203884282
 20
185.9026796735
 11
203.1906554891
 21
187.2637578961
  0
LINE
  5
25A
100
AcDbEntity
  8
BEZUGSACHSEN
100
AcDbLine
 62
7
  6
CONTINUOUS
 10
188.4867856816
 20
187.8362992069
 11
202.4380302956
 21
189.0112292474
  0
LINE
  5
25B
100
AcDbEntity
  8
BEZUGSACHSEN
100
AcDbLine
 62
7
  6
CONTINUOUS
 10
189.9832489165
 20
206.6794952722
 11
190.7297622206
 21
206.6832226877
  0
LINE
  5
25C
100
AcDbEntity
  8
BEZUGSACHSEN
100
AcDbLine
 62
7
  6
CONTINUOUS
 10
187.3160753634
 20
202.0598151655
 11
190.6686097413
 21
201.889818582
  0
LINE
  5
25D
100
AcDbEntity
  8
BEZUGSACHSEN
100
AcDbLine
 62
7
  6
CONTINUOUS
 10
186.7351334426
 20
201.0535942424
 11
190.6854946533
 21
200.8247680518
  0
LINE
  5
25E
100
AcDbEntity
  8
BEZUGSACHSEN
100
AcDbLine
 62
7
  6
CONTINUOUS
 10
142.2276139151
 20
226.5338892371
 11
143.0930801439
 21
226.4213478008
  0
LINE
  5
25F
100
AcDbEntity
  8
BEZUGSACHSEN
100
AcDbLine
 62
7
  6
CONTINUOUS
 10
142.3835517211
 20
225.2478836736
 11
143.0811214782
 21
225.1149835327
  0
LINE
  5
260
100
AcDbEntity
  8
BEZUGSACHSEN
100
AcDbLine
 62
7
  6
CONTINUOUS
 10
190.0931801277
 20
205.7480521385
 11
190.7466471327
 21
205.6181721574
  0
LINE
  5
261
100
AcDbEntity
  8
0
100
AcDbLine
 62
7
  6
CONTINUOUS
 10
162.4180241745
 20
230.9351254969
 11
141.5211504673
 21
235.3768931218
  0
LINE
  5
262
100
AcDbEntity
  8
BEZUGSACHSEN
100
AcDbLine
 62
7
  6
CONTINUOUS
 10
158.6422891378
 20
224.8569016728
 11
158.8773656036
 21
224.8025249598
  0
LINE
  5
263
100
AcDbEntity
  8
BEZUGSACHSEN
100
AcDbLine
 62
7
  6
CONTINUOUS
 10
157.8969295768
 20
226.1373401118
 11
159.4417156531
 21
225.7800079188
  0
LINE
  5
264
100
AcDbEntity
  8
BEZUGSACHSEN
100
AcDbLine
 62
7
  6
CONTINUOUS
 10
190.7297622206
 20
206.6832226877
 11
191.4881862177
 21
206.4207239603
  0
LINE
  5
265
100
AcDbEntity
  8
BEZUGSACHSEN
100
AcDbLine
 62
7
  6
CONTINUOUS
 10
190.7466471327
 20
205.6181721574
 11
191.4407265042
 21
205.0890711077
  0
LINE
  5
266
100
AcDbEntity
  8
BEZUGSACHSEN
100
AcDbLine
 62
7
  6
CONTINUOUS
 10
191.4881862177
 20
206.4207239603
 11
192.3921771712
 21
205.6263884533
  0
LINE
  5
267
100
AcDbEntity
  8
0
100
AcDbLine
 62
7
  6
CONTINUOUS
 10
207.8900591651
 20
197.0587858193
 11
193.5949387107
 21
212.9351254969
  0
LINE
  5
268
100
AcDbEntity
  8
BEZUGSACHSEN
100
AcDbLine
 62
7
  6
CONTINUOUS
 10
185.189276464
 20
198.3760914143
 11
186.4292839368
 21
196.8092759675
  0
LINE
  5
269
100
AcDbEntity
  8
BEZUGSACHSEN
100
AcDbLine
 62
7
  6
CONTINUOUS
 10
185.7699694163
 20
199.3818811113
 11
187.2757801325
 21
197.4792091179
  0
LINE
  5
26A
100
AcDbEntity
  8
BEZUGSACHSEN
100
AcDbLine
 62
7
  6
CONTINUOUS
 10
191.4407265042
 20
205.0890711077
 11
191.8605496682
 21
204.5586021931
  0
LINE
  5
26B
100
AcDbEntity
  8
BEZUGSACHSEN
100
AcDbLine
 62
7
  6
CONTINUOUS
 10
192.3921771712
 20
205.6263884533
 11
192.8120051396
 21
205.0959134679
  0
LINE
  5
26C
100
AcDbEntity
  8
BEZUGSACHSEN
100
AcDbLine
 62
7
  6
CONTINUOUS
 10
196.9915884168
 20
164.6485142108
 11
197.8951542045
 21
163.3307714908
  0
LINE
  5
26D
100
AcDbEntity
  8
BEZUGSACHSEN
100
AcDbLine
 62
7
  6
CONTINUOUS
 10
190.2514210653
 20
197.5407320884
 11
191.4820737245
 21
195.5179255442
  0
LINE
  5
26E
100
AcDbEntity
  8
BEZUGSACHSEN
100
AcDbLine
 62
7
  6
CONTINUOUS
 10
191.1736724324
 20
198.1018194057
 11
192.4043250915
 21
196.0790128614
  0
LINE
  5
26F
100
AcDbEntity
  8
BEZUGSACHSEN
100
AcDbLine
 62
7
  6
CONTINUOUS
 10
144.5921781954
 20
225.2982104766
 11
145.0319277548
 21
224.4815906106
  0
LINE
  5
270
100
AcDbEntity
  8
BEZUGSACHSEN
100
AcDbLine
 62
7
  6
CONTINUOUS
 10
144.0505463172
 20
224.1451044536
 11
144.3223994049
 21
223.308125883
  0
LINE
  5
271
100
AcDbEntity
  8
BEZUGSACHSEN
100
AcDbLine
 62
7
  6
CONTINUOUS
 10
131.266661177
 20
217.2405092346
 11
129.358119888
 21
223.6556591023
  0
LINE
  5
272
100
AcDbEntity
  8
BEZUGSACHSEN
100
AcDbLine
 62
7
  6
CONTINUOUS
 10
132.239281121
 20
217.5298688536
 11
130.330739832
 21
223.9450187213
  0
LINE
  5
273
100
AcDbEntity
  8
BEZUGSACHSEN
100
AcDbLine
 62
7
  6
CONTINUOUS
 10
134.2212177527
 20
225.1024566454
 11
136.1297590417
 21
218.6873067777
  0
LINE
  5
274
100
AcDbEntity
  8
BEZUGSACHSEN
100
AcDbLine
 62
7
  6
CONTINUOUS
 10
135.1938372329
 20
225.3918161265
 11
137.1023785219
 21
218.9766662587
  0
LINE
  5
275
100
AcDbEntity
  8
BEZUGSACHSEN
100
AcDbLine
 62
7
  6
CONTINUOUS
 10
145.0319277548
 20
224.4815906106
 11
145.3297705497
 21
223.4302771789
  0
LINE
  5
276
100
AcDbEntity
  8
BEZUGSACHSEN
100
AcDbLine
 62
7
  6
CONTINUOUS
 10
126.9176473228
 20
218.6741998071
 11
126.7855753443
 21
219.3304710397
  0
LINE
  5
277
100
AcDbEntity
  8
BEZUGSACHSEN
100
AcDbLine
 62
7
  6
CONTINUOUS
 10
127.9242905485
 20
218.9252010324
 11
127.79221857
 21
219.581472265
  0
LINE
  5
278
100
AcDbEntity
  8
BEZUGSACHSEN
100
AcDbLine
 62
7
  6
CONTINUOUS
 10
136.2139188446
 20
217.8113189444
 11
136.1297590417
 21
218.6873067777
  0
LINE
  5
279
100
AcDbEntity
  8
BEZUGSACHSEN
100
AcDbLine
 62
7
  6
CONTINUOUS
 10
190.6854946533
 20
200.8247680518
 11
191.4033014793
 21
200.9614964637
  0
LINE
  5
27A
100
AcDbEntity
  8
BEZUGSACHSEN
100
AcDbLine
 62
7
  6
CONTINUOUS
 10
189.3753684972
 20
205.6113297972
 11
190.0931801277
 21
205.7480521385
  0
LINE
  5
27B
100
AcDbEntity
  8
BEZUGSACHSEN
100
AcDbLine
 62
7
  6
CONTINUOUS
 10
139.4196422954
 20
215.9715726051
 11
143.4491268747
 21
216.460177789
  0
LINE
  5
27C
100
AcDbEntity
  8
BEZUGSACHSEN
100
AcDbLine
 62
7
  6
CONTINUOUS
 10
140.271075616
 20
217.3797296147
 11
143.2931890504
 21
217.7461835026
  0
LINE
  5
27D
100
AcDbEntity
  8
BEZUGSACHSEN
100
AcDbLine
 62
7
  6
CONTINUOUS
 10
125.0214269157
 20
220.6317341873
 11
125.5720925872
 21
220.6602183106
  0
LINE
  5
27E
100
AcDbEntity
  8
BEZUGSACHSEN
100
AcDbLine
 62
7
  6
CONTINUOUS
 10
133.9732847214
 20
214.6668970367
 11
134.8453664908
 21
214.7010895372
  0
LINE
  5
27F
100
AcDbEntity
  8
BEZUGSACHSEN
100
AcDbLine
 62
7
  6
CONTINUOUS
 10
133.7659932015
 20
215.9567655773
 11
134.4759714096
 21
215.9427314237
  0
LINE
  5
280
100
AcDbEntity
  8
BEZUGSACHSEN
100
AcDbLine
 62
7
  6
CONTINUOUS
 10
478.9343622618
 20
93.4459669732
 11
486.6594161457
 21
88.9859050338
  0
LINE
  5
281
100
AcDbEntity
  8
BEZUGSACHSEN
100
AcDbLine
 62
7
  6
CONTINUOUS
 10
192.8120051396
 20
205.0959134679
 11
193.2724430724
 21
204.1662204492
  0
LINE
  5
282
100
AcDbEntity
  8
BEZUGSACHSEN
100
AcDbLine
 62
7
  6
CONTINUOUS
 10
191.8605496682
 20
204.5586021931
 11
192.2160330111
 21
203.7615248854
  0
LINE
  5
283
100
AcDbEntity
  8
BEZUGSACHSEN
100
AcDbLine
 62
7
  6
CONTINUOUS
 10
186.2003840837
 20
188.2326413364
 11
187.203884282
 21
185.9026796735
  0
LINE
  5
284
100
AcDbEntity
  8
BEZUGSACHSEN
100
AcDbLine
 62
7
  6
CONTINUOUS
 10
198.1731543184
 20
198.9135666272
 11
198.925779512
 21
197.1660952758
  0
LINE
  5
285
100
AcDbEntity
  8
BEZUGSACHSEN
100
AcDbLine
 62
7
  6
CONTINUOUS
 10
202.4380302956
 20
189.0112292474
 11
203.1906554891
 21
187.2637578961
  0
LINE
  5
286
100
AcDbEntity
  8
BEZUGSACHSEN
100
AcDbLine
 62
7
  6
CONTINUOUS
 10
198.6752932215
 20
165.8301007084
 11
198.9487064994
 21
164.8630674553
  0
LINE
  5
287
100
AcDbEntity
  8
BEZUGSACHSEN
100
AcDbLine
 62
7
  6
CONTINUOUS
 10
137.2481041645
 20
217.8937381352
 11
137.1023785219
 21
218.9766662587
  0
LINE
  5
288
100
AcDbEntity
  8
BEZUGSACHSEN
100
AcDbLine
 62
7
  6
CONTINUOUS
 10
139.4196422954
 20
215.9715726051
 11
138.1981293358
 21
226.0452840532
  0
LINE
  5
289
100
AcDbEntity
  8
BEZUGSACHSEN
100
AcDbLine
 62
7
  6
CONTINUOUS
 10
140.271075616
 20
217.3797296147
 11
139.3614382867
 21
224.8814297857
  0
LINE
  5
28A
100
AcDbEntity
  8
BEZUGSACHSEN
100
AcDbLine
 62
7
  6
CONTINUOUS
 10
144.3223994049
 20
223.308125883
 11
144.7122439564
 21
220.0931116741
  0
LINE
  5
28B
100
AcDbEntity
  8
BEZUGSACHSEN
100
AcDbLine
 62
7
  6
CONTINUOUS
 10
145.3297705497
 20
223.4302771789
 11
145.7196151012
 21
220.21526297
  0
LINE
  5
28C
100
AcDbEntity
  8
BEZUGSACHSEN
100
AcDbLine
 62
7
  6
CONTINUOUS
 10
193.2724430724
 20
204.1662204492
 11
193.3536678055
 21
203.367778312
  0
LINE
  5
28D
100
AcDbEntity
  8
0
100
AcDbLine
 62
7
  6
CONTINUOUS
 10
147.7854297573
 20
684.4316706519
 11
147.7854297573
 21
474.4316706519
  0
LINE
  5
28E
100
AcDbEntity
  8
BEZUGSACHSEN
100
AcDbLine
 62
7
  6
CONTINUOUS
 10
145.6816687225
 20
219.1232331955
 11
145.7196151012
 21
220.21526297
  0
LINE
  5
28F
100
AcDbEntity
  8
BEZUGSACHSEN
100
AcDbLine
 62
7
  6
CONTINUOUS
 10
144.6483079434
 20
219.2154161601
 11
144.7122439564
 21
220.0931116741
  0
LINE
  5
290
100
AcDbEntity
  8
BEZUGSACHSEN
100
AcDbLine
 62
7
  6
CONTINUOUS
 10
127.8470654631
 20
217.9265520157
 11
127.9242905485
 21
218.9252010324
  0
LINE
  5
291
100
AcDbEntity
  8
BEZUGSACHSEN
100
AcDbLine
 62
7
  6
CONTINUOUS
 10
137.1701613821
 20
216.9695237609
 11
137.2481041645
 21
217.8937381352
  0
LINE
  5
292
100
AcDbEntity
  8
BEZUGSACHSEN
100
AcDbLine
 62
7
  6
CONTINUOUS
 10
126.8030383762
 20
218.1377890444
 11
126.9176473228
 21
218.6741998071
  0
LINE
  5
293
100
AcDbEntity
  8
RUNDUNGEN
100
AcDbLine
 62
7
  6
CONTINUOUS
 10
76.3947510592
 20
158.9384458279
 11
84.5693441395
 21
184.0972563741
  0
LINE
  5
294
100
AcDbEntity
  8
BEZUGSACHSEN
100
AcDbLine
 62
7
  6
CONTINUOUS
 10
124.3959939565
 20
221.5277267841
 11
125.2506448091
 21
221.7045557127
  0
LINE
  5
295
100
AcDbEntity
  8
BEZUGSACHSEN
100
AcDbLine
 62
7
  6
CONTINUOUS
 10
139.3614382867
 20
224.8814297857
 11
142.3835517211
 21
225.2478836736
  0
LINE
  5
296
100
AcDbEntity
  8
BEZUGSACHSEN
100
AcDbLine
 62
7
  6
CONTINUOUS
 10
138.1981293358
 20
226.0452840532
 11
142.2276139151
 21
226.5338892371
  0
LINE
  5
297
100
AcDbEntity
  8
BEZUGSACHSEN
100
AcDbLine
 62
7
  6
CONTINUOUS
 10
189.3352550694
 20
178.6041245478
 11
189.6597002081
 21
176.7293349175
  0
LINE
  5
298
100
AcDbEntity
  8
BEZUGSACHSEN
100
AcDbLine
 62
7
  6
CONTINUOUS
 10
204.3335721112
 20
181.1996856578
 11
204.6580172499
 21
179.3248960276
  0
LINE
  5
299
100
AcDbEntity
  8
BEZUGSACHSEN
100
AcDbLine
 62
7
  6
CONTINUOUS
 10
196.7515055587
 20
166.2488910045
 11
196.9915884168
 21
164.6485142108
  0
LINE
  5
29A
100
AcDbEntity
  8
0
100
AcDbLine
 62
7
  6
CONTINUOUS
 10
212.1015153752
 20
156.9894565539
 11
207.8900591651
 21
197.0587858193
  0
LINE
  5
29B
100
AcDbEntity
  8
0
100
AcDbLine
 62
7
  6
CONTINUOUS
 10
198.7854297573
 20
684.4316706519
 11
198.7854297573
 21
474.4316706519
  0
LINE
  5
29C
100
AcDbEntity
  8
BEZUGSACHSEN
100
AcDbLine
 62
7
  6
CONTINUOUS
 10
192.2160330111
 20
203.7615248854
 11
192.1923031543
 21
203.0956984591
  0
LINE
  5
29D
100
AcDbEntity
  8
BEZUGSACHSEN
100
AcDbLine
 62
7
  6
CONTINUOUS
 10
190.3598838722
 20
174.2064138833
 11
190.2598928037
 21
172.3063868857
  0
LINE
  5
29E
100
AcDbEntity
  8
BEZUGSACHSEN
100
AcDbLine
 62
7
  6
CONTINUOUS
 10
136.0744101794
 20
217.0940450053
 11
136.2139188446
 21
217.8113189444
  0
LINE
  5
29F
100
AcDbEntity
  8
BEZUGSACHSEN
100
AcDbLine
 62
7
  6
CONTINUOUS
 10
156.7263730883
 20
221.0768966367
 11
157.8969295768
 21
226.1373401118
  0
LINE
  5
2A0
100
AcDbEntity
  8
BEZUGSACHSEN
100
AcDbLine
 62
7
  6
CONTINUOUS
 10
158.4641607311
 20
224.0868331268
 11
158.6422891378
 21
224.8569016728
  0
LINE
  5
2A1
100
AcDbEntity
  8
BEZUGSACHSEN
100
AcDbLine
 62
7
  6
CONTINUOUS
 10
145.449836256
 20
218.2251788267
 11
145.6816687225
 21
219.1232331955
  0
LINE
  5
2A2
100
AcDbEntity
  8
BEZUGSACHSEN
100
AcDbLine
 62
7
  6
CONTINUOUS
 10
197.0514787641
 20
171.9489719976
 11
196.7515055587
 21
166.2488910045
  0
LINE
  5
2A3
100
AcDbEntity
  8
BEZUGSACHSEN
100
AcDbLine
 62
7
  6
CONTINUOUS
 10
198.9919316368
 20
171.8468534717
 11
198.6752932215
 21
165.8301007084
  0
LINE
  5
2A4
100
AcDbEntity
  8
BEZUGSACHSEN
100
AcDbLine
 62
7
  6
CONTINUOUS
 10
203.8430647245
 20
171.5915571095
 11
203.5264263092
 21
165.5748043461
  0
LINE
  5
2A5
100
AcDbEntity
  8
BEZUGSACHSEN
100
AcDbLine
 62
7
  6
CONTINUOUS
 10
205.5600998536
 20
173.4064853356
 11
205.1601355797
 21
165.8063773449
  0
LINE
  5
2A6
100
AcDbEntity
  8
BEZUGSACHSEN
100
AcDbLine
 62
7
  6
CONTINUOUS
 10
144.3904858243
 20
218.531696202
 11
144.6483079434
 21
219.2154161601
  0
LINE
  5
2A7
100
AcDbEntity
  8
BEZUGSACHSEN
100
AcDbLine
 62
7
  6
CONTINUOUS
 10
136.7680114665
 20
215.9488561147
 11
137.1701613821
 21
216.9695237609
  0
LINE
  5
2A8
100
AcDbEntity
  8
0
100
AcDbLine
 62
7
  6
CONTINUOUS
 10
71.4165981451
 20
149.5759018937
 11
76.3947510592
 21
158.9384458279
  0
LINE
  5
2A9
100
AcDbEntity
  8
KONSTRUKTIONSELEMENTE
100
AcDbLine
 62
7
  6
CONTINUOUS
 10
39.2857088709
 20
125.9420821028
 11
41.0534758239
 21
129.0039442813
  0
LINE
  5
2AA
100
AcDbEntity
  8
0
100
AcDbLine
 62
7
  6
CONTINUOUS
 10
104.7143653059
 20
218.9894565539
 11
84.5693441395
 21
184.0972563741
  0
LINE
  5
2AB
100
AcDbEntity
  8
KONSTRUKTIONSELEMENTE
100
AcDbLine
 62
7
  6
CONTINUOUS
 10
36.9024071356
 20
100.7332148684
 11
37.8923566293
 21
102.4478576883
  0
LINE
  5
2AC
100
AcDbEntity
  8
KONSTRUKTIONSELEMENTE
100
AcDbLine
 62
7
  6
CONTINUOUS
 10
36.217339019
 20
98.5437777038
 11
36.6062477487
 21
99.217387383
  0
LINE
  5
2AD
100
AcDbEntity
  8
RUNDUNGEN
100
AcDbLine
 62
7
  6
CONTINUOUS
 10
84.9985435667
 20
162.8406515483
 11
84.9988665009
 21
162.841210927
  0
LINE
  5
2AE
100
AcDbEntity
  8
RUNDUNGEN
100
AcDbLine
 62
7
  6
CONTINUOUS
 10
55.07805975
 20
111.016853431
 11
84.9985445405
 21
162.8406532753
  0
LINE
  5
2AF
100
AcDbEntity
  8
BEZUGSACHSEN
100
AcDbLine
 62
7
  6
CONTINUOUS
 10
506.0497090473
 20
235.3768931218
 11
542.8564942087
 21
218.9894565539
  0
LINE
  5
2B0
100
AcDbEntity
  8
BEZUGSACHSEN
100
AcDbLine
 62
7
  6
CONTINUOUS
 10
455.6143653059
 20
122.0972563741
 11
473.3152378278
 21
102.4384458279
  0
LINE
  5
2B1
100
AcDbEntity
  8
BEZUGSACHSEN
100
AcDbLine
 62
7
  6
CONTINUOUS
 10
193.3536678055
 20
203.367778312
 11
193.0962941078
 21
202.3013629521
  0
LINE
  5
2B2
100
AcDbEntity
  8
BEZUGSACHSEN
100
AcDbLine
 62
7
  6
CONTINUOUS
 10
205.1601355797
 20
165.8063773449
 11
204.7534008136
 21
164.2400400598
  0
LINE
  5
2B3
100
AcDbEntity
  8
0
100
AcDbLine
 62
7
  6
CONTINUOUS
 10
78.7085225168
 20
114.0316812108
 11
86.7457765546
 21
127.9526135576
  0
LINE
  5
2B4
100
AcDbEntity
  8
0
100
AcDbLine
 62
7
  6
CONTINUOUS
 10
254.6969724892
 20
390.766952447
 11
136.6969724892
 21
186.3849571539
  0
LINE
  5
2B5
100
AcDbEntity
  8
KONSTRUKTIONSELEMENTE
100
AcDbLine
 62
7
  6
CONTINUOUS
 10
38.2515543974
 20
8.6924912465
 11
26.8943408241
 21
-10.9787796949
  0
LINE
  5
2B6
100
AcDbEntity
  8
BEZUGSACHSEN
100
AcDbLine
 62
7
  6
CONTINUOUS
 10
144.8822146798
 20
217.2864075897
 11
145.449836256
 21
218.2251788267
  0
LINE
  5
2B7
100
AcDbEntity
  8
BEZUGSACHSEN
100
AcDbLine
 62
7
  6
CONTINUOUS
 10
127.4284717702
 20
217.2417966598
 11
127.8470654631
 21
217.9265520157
  0
LINE
  5
2B8
100
AcDbEntity
  8
BEZUGSACHSEN
100
AcDbLine
 62
7
  6
CONTINUOUS
 10
135.7112321618
 20
216.5354845393
 11
136.0744101794
 21
217.0940450053
  0
LINE
  5
2B9
100
AcDbEntity
  8
BEZUGSACHSEN
100
AcDbLine
 62
7
  6
CONTINUOUS
 10
203.5264263092
 20
165.5748043461
 11
203.1530219629
 21
164.6418106016
  0
LINE
  5
2BA
100
AcDbEntity
  8
BEZUGSACHSEN
100
AcDbLine
 62
7
  6
CONTINUOUS
 10
192.1923031543
 20
203.0956984591
 11
191.8943194923
 21
202.4285011325
  0
LINE
  5
2BB
100
AcDbEntity
  8
BEZUGSACHSEN
100
AcDbLine
 62
7
  6
CONTINUOUS
 10
95.7630160206
 20
104.1852647954
 11
83.1322579015
 21
82.3081499951
  0
LINE
  5
2BC
100
AcDbEntity
  8
0
100
AcDbLine
 62
7
  6
CONTINUOUS
 10
95.7630160206
 20
104.1852647954
 11
109.9650160206
 21
128.7838503645
  0
LINE
  5
2BD
100
AcDbEntity
  8
KONSTRUKTIONSELEMENTE
100
AcDbLine
 62
7
  6
CONTINUOUS
 10
110.6908614215
 20
125.7410514773
 11
114.3678166837
 21
132.1097248086
  0
LINE
  5
2BE
100
AcDbEntity
  8
KONSTRUKTIONSELEMENTE
100
AcDbLine
 62
7
  6
CONTINUOUS
 10
29.1492176821
 20
-15.873218412
 11
41.594297031
 21
5.6822913245
  0
LINE
  5
2BF
100
AcDbEntity
  8
KONSTRUKTIONSELEMENTE
100
AcDbLine
 62
7
  6
CONTINUOUS
 10
116.2334240057
 20
122.5410514773
 11
119.9103792679
 21
128.9097248086
  0
LINE
  5
2C0
100
AcDbEntity
  8
KONSTRUKTIONSELEMENTE
100
AcDbLine
 62
7
  6
CONTINUOUS
 10
132.2014551518
 20
150.1984927192
 11
132.6383013293
 21
150.9551324936
  0
LINE
  5
2C1
100
AcDbEntity
  8
KONSTRUKTIONSELEMENTE
100
AcDbLine
 62
7
  6
CONTINUOUS
 10
140.4291750567
 20
163.8493216249
 11
132.4375051069
 21
150.0073432345
  0
LINE
  5
2C2
100
AcDbEntity
  8
KONSTRUKTIONSELEMENTE
100
AcDbLine
 62
7
  6
CONTINUOUS
 10
117.6294280993
 20
124.3590014949
 11
110.6793408441
 21
112.3210972519
  0
LINE
  5
2C3
100
AcDbEntity
  8
KONSTRUKTIONSELEMENTE
100
AcDbLine
 62
7
  6
CONTINUOUS
 10
119.6469432639
 20
127.2534402651
 11
123.8438673576
 21
134.5227260309
  0
LINE
  5
2C4
100
AcDbEntity
  8
KONSTRUKTIONSELEMENTE
100
AcDbLine
 62
7
  6
CONTINUOUS
 10
125.1895058481
 20
124.0534402651
 11
129.386429943
 21
131.322726033
  0
LINE
  5
2C5
100
AcDbEntity
  8
KONSTRUKTIONSELEMENTE
100
AcDbLine
 62
7
  6
CONTINUOUS
 10
146.4913528832
 20
160.3493216249
 11
138.4996829334
 21
146.5073432345
  0
LINE
  5
2C6
100
AcDbEntity
  8
KONSTRUKTIONSELEMENTE
100
AcDbLine
 62
7
  6
CONTINUOUS
 10
123.6916059258
 20
120.8590014949
 11
116.7415186706
 21
108.8210972519
  0
LINE
  5
2C7
100
AcDbEntity
  8
KONSTRUKTIONSELEMENTE
100
AcDbLine
 62
7
  6
CONTINUOUS
 10
139.220094398
 20
147.1551324936
 11
138.7832482206
 21
146.3984927192
  0
LINE
  5
2C8
100
AcDbEntity
  8
KONSTRUKTIONSELEMENTE
100
AcDbLine
 62
7
  6
CONTINUOUS
 10
126.4921723367
 20
125.1097248086
 11
122.8152170745
 21
118.7410514773
  0
LINE
  5
2C9
100
AcDbEntity
  8
KONSTRUKTIONSELEMENTE
100
AcDbLine
 62
7
  6
CONTINUOUS
 10
46.4870462659
 20
-25.883218412
 11
58.9321256148
 21
-4.3277086755
  0
LINE
  5
2CA
100
AcDbEntity
  8
KONSTRUKTIONSELEMENTE
100
AcDbLine
 62
7
  6
CONTINUOUS
 10
132.0347349209
 20
121.9097248086
 11
128.3577796587
 21
115.5410514773
  0
LINE
  5
2CB
100
AcDbEntity
  8
BEZUGSACHSEN
100
AcDbLine
 62
7
  6
CONTINUOUS
 10
104.523085375
 20
69.9581499951
 11
117.1538434941
 21
91.8352647954
  0
LINE
  5
2CC
100
AcDbEntity
  8
0
100
AcDbLine
 62
7
  6
CONTINUOUS
 10
117.1538434941
 20
91.8352647954
 11
131.3558434941
 21
116.4338503645
  0
LINE
  5
2CD
100
AcDbEntity
  8
KONSTRUKTIONSELEMENTE
100
AcDbLine
 62
7
  6
CONTINUOUS
 10
51.8531929611
 20
-25.3887796949
 11
63.1315461211
 21
-5.8540989962
  0
LINE
  5
2CE
100
AcDbEntity
  8
0
100
AcDbLine
 62
7
  6
CONTINUOUS
 10
285.8738870255
 20
372.766952447
 11
167.8738870255
 21
168.3849571539
  0
LINE
  5
2CF
100
AcDbEntity
  8
BEZUGSACHSEN
100
AcDbLine
 62
7
  6
CONTINUOUS
 10
136.242729866
 20
215.3420690671
 11
136.7680114665
 21
215.9488561147
  0
LINE
  5
2D0
100
AcDbEntity
  8
BEZUGSACHSEN
100
AcDbLine
 62
7
  6
CONTINUOUS
 10
126.4417489391
 20
217.7212389637
 11
126.8030383762
 21
218.1377890444
  0
LINE
  5
2D1
100
AcDbEntity
  8
BEZUGSACHSEN
100
AcDbLine
 62
7
  6
CONTINUOUS
 10
478.9343622618
 20
93.4459669732
 11
473.3152378278
 21
102.4384458279
  0
LINE
  5
2D2
100
AcDbEntity
  8
BEZUGSACHSEN
100
AcDbLine
 62
7
  6
CONTINUOUS
 10
435.4693441395
 20
156.9894565539
 11
455.6143653059
 21
122.0972563741
  0
LINE
  5
2D3
100
AcDbEntity
  8
BEZUGSACHSEN
100
AcDbLine
 62
7
  6
CONTINUOUS
 10
474.2374018123
 20
111.8412109538
 11
474.2377266071
 21
111.8406484335
  0
LINE
  5
2D4
100
AcDbEntity
  8
BEZUGSACHSEN
100
AcDbLine
 62
7
  6
CONTINUOUS
 10
474.3975351661
 20
111.5638518491
 11
474.3978288466
 21
111.563343214
  0
LINE
  5
2D5
100
AcDbEntity
  8
BEZUGSACHSEN
100
AcDbLine
 62
7
  6
CONTINUOUS
 10
474.2374041665
 20
111.8412068763
 11
504.1582085787
 21
60.016853431
  0
LINE
  5
2D6
100
AcDbEntity
  8
0
100
AcDbLine
 62
7
  6
CONTINUOUS
 10
134.2083369979
 20
81.9888483801
 11
142.2455910357
 21
95.909780727
  0
LINE
  5
2D7
100
AcDbEntity
  8
RUNDUNGEN
100
AcDbLine
 62
7
  6
CONTINUOUS
 10
173.3331339221
 20
111.8406501499
 11
143.412650936
 21
60.016853431
  0
LINE
  5
2D8
100
AcDbEntity
  8
RUNDUNGEN
100
AcDbLine
 62
7
  6
CONTINUOUS
 10
173.3334577024
 20
111.8412109538
 11
173.3331329076
 21
111.8406484335
  0
LINE
  5
2D9
100
AcDbEntity
  8
BEZUGSACHSEN
100
AcDbLine
 62
7
  6
CONTINUOUS
 10
143.9387795388
 20
218.0419518828
 11
144.3904858243
 21
218.531696202
  0
LINE
  5
2DA
100
AcDbEntity
  8
BEZUGSACHSEN
100
AcDbLine
 62
7
  6
CONTINUOUS
 10
513.3625225168
 20
81.9888483801
 11
505.3252684789
 21
95.909780727
  0
LINE
  5
2DB
100
AcDbEntity
  8
0
100
AcDbLine
 62
7
  6
CONTINUOUS
 10
479.6969724892
 20
168.3849571539
 11
361.6969724892
 21
372.766952447
  0
LINE
  5
2DC
100
AcDbEntity
  8
BEZUGSACHSEN
100
AcDbLine
 62
7
  6
CONTINUOUS
 10
516.2150160206
 20
116.4338503645
 11
543.0477741397
 21
69.9581499951
  0
LINE
  5
2DD
100
AcDbEntity
  8
KONSTRUKTIONSELEMENTE
100
AcDbLine
 62
7
  6
CONTINUOUS
 10
112.2857406511
 20
-12.6790220374
 11
110.5179736982
 21
-15.7408842159
  0
LINE
  5
2DE
100
AcDbEntity
  8
0
100
AcDbLine
 62
7
  6
CONTINUOUS
 10
191.9564942087
 20
122.0972563741
 11
212.1015153752
 21
156.9894565539
  0
LINE
  5
2DF
100
AcDbEntity
  8
0
100
AcDbLine
 62
7
  6
CONTINUOUS
 10
168.6364972529
 20
93.4459669732
 11
174.2556216869
 21
102.4384458279
  0
LINE
  5
2E0
100
AcDbEntity
  8
BEZUGSACHSEN
100
AcDbLine
 62
7
  6
CONTINUOUS
 10
193.0962941078
 20
202.3013629521
 11
192.5240566405
 21
201.6327947252
  0
LINE
  5
2E1
100
AcDbEntity
  8
BEZUGSACHSEN
100
AcDbLine
 62
7
  6
CONTINUOUS
 10
144.2626138325
 20
216.7763048926
 11
144.8822146798
 21
217.2864075897
  0
LINE
  5
2E2
100
AcDbEntity
  8
BEZUGSACHSEN
100
AcDbLine
 62
7
  6
CONTINUOUS
 10
135.1243847055
 20
216.1356378364
 11
135.7112321618
 21
216.5354845393
  0
LINE
  5
2E3
100
AcDbEntity
  8
BEZUGSACHSEN
100
AcDbLine
 62
7
  6
CONTINUOUS
 10
564.4386016131
 20
82.3081499951
 11
537.6058434941
 21
128.7838503645
  0
LINE
  5
2E4
100
AcDbEntity
  8
0
100
AcDbLine
 62
7
  6
CONTINUOUS
 10
510.8738870255
 20
186.3849571539
 11
392.8738870255
 21
390.766952447
  0
LINE
  5
2E5
100
AcDbEntity
  8
BEZUGSACHSEN
100
AcDbLine
 62
7
  6
CONTINUOUS
 10
568.8623369979
 20
114.0316812108
 11
560.8250829601
 21
127.9526135576
  0
LINE
  5
2E6
100
AcDbEntity
  8
KONSTRUKTIONSELEMENTE
100
AcDbLine
 62
7
  6
CONTINUOUS
 10
184.8619870878
 20
39.3150427603
 11
183.0942201348
 21
36.2531805818
  0
LINE
  5
2E7
100
AcDbEntity
  8
BEZUGSACHSEN
100
AcDbLine
 62
7
  6
CONTINUOUS
 10
204.7534008136
 20
164.2400400598
 11
203.7165137285
 21
163.0244158656
  0
LINE
  5
2E8
100
AcDbEntity
  8
RUNDUNGEN
100
AcDbLine
 62
7
  6
CONTINUOUS
 10
174.2556216869
 20
102.4384458279
 11
191.9564942087
 21
122.0972563741
  0
LINE
  5
2E9
100
AcDbEntity
  8
BEZUGSACHSEN
100
AcDbLine
 62
7
  6
CONTINUOUS
 10
198.925779512
 20
197.1660952758
 11
188.4867856816
 21
187.8362992069
  0
LINE
  5
2EA
100
AcDbEntity
  8
BEZUGSACHSEN
100
AcDbLine
 62
7
  6
CONTINUOUS
 10
198.1731543184
 20
198.9135666272
 11
186.2003840837
 21
188.2326413364
  0
LINE
  5
2EB
100
AcDbEntity
  8
BEZUGSACHSEN
100
AcDbLine
 62
7
  6
CONTINUOUS
 10
191.8943194923
 20
202.4285011325
 11
191.5557205872
 21
202.1605275346
  0
LINE
  5
2EC
100
AcDbEntity
  8
BEZUGSACHSEN
100
AcDbLine
 62
7
  6
CONTINUOUS
 10
192.5240566405
 20
201.6327947252
 11
192.1854577354
 21
201.3648211272
  0
LINE
  5
2ED
100
AcDbEntity
  8
BEZUGSACHSEN
100
AcDbLine
 62
7
  6
CONTINUOUS
 10
187.2757801325
 20
197.4792091179
 11
186.4292839368
 21
196.8092759675
  0
LINE
  5
2EE
100
AcDbEntity
  8
BEZUGSACHSEN
100
AcDbLine
 62
7
  6
CONTINUOUS
 10
135.4937797868
 20
214.8939959499
 11
136.242729866
 21
215.3420690671
  0
LINE
  5
2EF
100
AcDbEntity
  8
BEZUGSACHSEN
100
AcDbLine
 62
7
  6
CONTINUOUS
 10
120.7481735228
 20
219.7475899683
 11
124.3959939565
 21
221.5277267841
  0
LINE
  5
2F0
100
AcDbEntity
  8
BEZUGSACHSEN
100
AcDbLine
 62
7
  6
CONTINUOUS
 10
122.1335692173
 20
219.2224592789
 11
125.0214269157
 21
220.6317341873
  0
LINE
  5
2F1
100
AcDbEntity
  8
BEZUGSACHSEN
100
AcDbLine
 62
7
  6
CONTINUOUS
 10
123.5538912407
 20
216.3119640553
 11
126.4417489391
 21
217.7212389637
  0
LINE
  5
2F2
100
AcDbEntity
  8
BEZUGSACHSEN
100
AcDbLine
 62
7
  6
CONTINUOUS
 10
124.1220199439
 20
215.1477661833
 11
126.7058926787
 21
216.4086963925
  0
LINE
  5
2F3
100
AcDbEntity
  8
BEZUGSACHSEN
100
AcDbLine
 62
7
  6
CONTINUOUS
 10
125.1985155622
 20
210.6280388838
 11
126.1104706706
 21
211.0730730878
  0
LINE
  5
2F4
100
AcDbEntity
  8
BEZUGSACHSEN
100
AcDbLine
 62
7
  6
CONTINUOUS
 10
129.9102834775
 20
212.9273822001
 11
130.9742313939
 21
213.4465889129
  0
LINE
  5
2F5
100
AcDbEntity
  8
0
100
AcDbLine
 62
7
  6
CONTINUOUS
 10
141.5211504673
 20
235.3768931218
 11
104.7143653059
 21
218.9894565539
  0
LINE
  5
2F6
100
AcDbEntity
  8
BEZUGSACHSEN
100
AcDbLine
 62
7
  6
CONTINUOUS
 10
592.4927997647
 20
111.016853431
 11
562.5723149742
 21
162.8406532753
  0
LINE
  5
2F7
100
AcDbEntity
  8
BEZUGSACHSEN
100
AcDbLine
 62
7
  6
CONTINUOUS
 10
562.7324199817
 20
162.5633432333
 11
562.7321263521
 21
162.5638518491
  0
LINE
  5
2F8
100
AcDbEntity
  8
BEZUGSACHSEN
100
AcDbLine
 62
7
  6
CONTINUOUS
 10
562.572315948
 20
162.8406515483
 11
562.5719930138
 21
162.841210927
  0
LINE
  5
2F9
100
AcDbEntity
  8
BEZUGSACHSEN
100
AcDbLine
 62
7
  6
CONTINUOUS
 10
542.8564942087
 20
218.9894565539
 11
563.0015153752
 21
184.0972563741
  0
LINE
  5
2FA
100
AcDbEntity
  8
BEZUGSACHSEN
100
AcDbLine
 62
7
  6
CONTINUOUS
 10
576.1542613696
 20
149.5759018937
 11
571.1761084554
 21
158.9384458279
  0
LINE
  5
2FB
100
AcDbEntity
  8
0
100
AcDbLine
 62
7
  6
CONTINUOUS
 10
448.7854297573
 20
474.4316706519
 11
448.7854297573
 21
684.4316706519
  0
LINE
  5
2FC
100
AcDbEntity
  8
BEZUGSACHSEN
100
AcDbLine
 62
7
  6
CONTINUOUS
 10
203.1530219629
 20
164.6418106016
 11
202.4728740143
 21
164.0425083817
  0
LINE
  5
2FD
100
AcDbEntity
  8
BEZUGSACHSEN
100
AcDbLine
 62
7
  6
CONTINUOUS
 10
190.2514210653
 20
197.5407320884
 11
191.1736724324
 21
198.1018194057
  0
LINE
  5
2FE
100
AcDbEntity
  8
BEZUGSACHSEN
100
AcDbLine
 62
7
  6
CONTINUOUS
 10
192.4043250915
 20
196.0790128614
 11
191.4820737245
 21
195.5179255442
  0
LINE
  5
2FF
100
AcDbEntity
  8
BEZUGSACHSEN
100
AcDbLine
 62
7
  6
CONTINUOUS
 10
191.4033014793
 20
200.9614964637
 11
192.1854577354
 21
201.3648211272
  0
LINE
  5
300
100
AcDbEntity
  8
BEZUGSACHSEN
100
AcDbLine
 62
7
  6
CONTINUOUS
 10
143.2931890504
 20
217.7461835026
 11
143.9387795388
 21
218.0419518828
  0
LINE
  5
301
100
AcDbEntity
  8
BEZUGSACHSEN
100
AcDbLine
 62
7
  6
CONTINUOUS
 10
143.4491268747
 20
216.460177789
 11
144.2626138325
 21
216.7763048926
  0
LINE
  5
302
100
AcDbEntity
  8
BEZUGSACHSEN
100
AcDbLine
 62
7
  6
CONTINUOUS
 10
129.358119888
 20
223.6556591023
 11
130.330739832
 21
223.9450187213
  0
LINE
  5
303
100
AcDbEntity
  8
BEZUGSACHSEN
100
AcDbLine
 62
7
  6
CONTINUOUS
 10
134.2212177527
 20
225.1024566454
 11
135.1938372329
 21
225.3918161265
  0
LINE
  5
304
100
AcDbEntity
  8
BEZUGSACHSEN
100
AcDbLine
 62
7
  6
CONTINUOUS
 10
134.4759714096
 20
215.9427314237
 11
135.1243847055
 21
216.1356378364
  0
LINE
  5
305
100
AcDbEntity
  8
BEZUGSACHSEN
100
AcDbLine
 62
7
  6
CONTINUOUS
 10
134.8453664908
 20
214.7010895372
 11
135.4937797868
 21
214.8939959499
  0
LINE
  5
306
100
AcDbEntity
  8
BEZUGSACHSEN
100
AcDbLine
 62
7
  6
CONTINUOUS
 10
435.4693441395
 20
156.9894565539
 11
439.6808003495
 21
197.0587858193
  0
LINE
  5
307
100
AcDbEntity
  8
BEZUGSACHSEN
100
AcDbLine
 62
7
  6
CONTINUOUS
 10
203.7165137285
 20
163.0244158656
 11
202.3728828505
 21
162.142479572
  0
LINE
  5
308
100
AcDbEntity
  8
BEZUGSACHSEN
100
AcDbLine
 62
7
  6
CONTINUOUS
 10
190.6686097413
 20
201.889818582
 11
191.5557205872
 21
202.1605275346
  0
LINE
  5
309
100
AcDbEntity
  8
BEZUGSACHSEN
100
AcDbLine
 62
7
  6
CONTINUOUS
 10
571.1761084554
 20
158.9384458279
 11
563.0015153752
 21
184.0972563741
  0
LINE
  5
30A
100
AcDbEntity
  8
0
100
AcDbLine
 62
7
  6
CONTINUOUS
 10
499.7854297573
 20
474.4316706519
 11
499.7854297573
 21
684.4316706519
  0
LINE
  5
30B
100
AcDbEntity
  8
KONSTRUKTIONSELEMENTE
100
AcDbLine
 62
7
  6
CONTINUOUS
 10
98.798179251
 20
6.805084808
 11
153.9311289194
 21
45.8716516319
  0
LINE
  5
30C
100
AcDbEntity
  8
RUNDUNGEN
100
AcDbLine
 62
7
  6
CONTINUOUS
 10
168.6364972529
 20
93.4459669732
 11
160.9114433689
 21
88.9859050338
  0
LINE
  5
30D
100
AcDbEntity
  8
BEZUGSACHSEN
100
AcDbLine
 62
7
  6
CONTINUOUS
 10
439.6808003495
 20
197.0587858193
 11
453.9759208039
 21
212.9351254969
  0
LINE
  5
30E
100
AcDbEntity
  8
KONSTRUKTIONSELEMENTE
100
AcDbLine
 62
7
  6
CONTINUOUS
 10
106.6953359019
 20
-18.5126032026
 11
110.3511693612
 21
-15.9221221383
  0
LINE
  5
30F
100
AcDbEntity
  8
KONSTRUKTIONSELEMENTE
100
AcDbLine
 62
7
  6
CONTINUOUS
 10
180.0976719537
 20
33.4994383015
 11
181.426176765
 21
34.4408013575
  0
LINE
  5
310
100
AcDbEntity
  8
BEZUGSACHSEN
100
AcDbLine
 62
7
  6
CONTINUOUS
 10
576.1542613696
 20
140.6557780149
 11
576.1542613696
 21
149.5759018937
  0
LINE
  5
311
100
AcDbEntity
  8
BEZUGSACHSEN
100
AcDbLine
 62
7
  6
CONTINUOUS
 10
127.5201123206
 20
52.9875909112
 11
140.7926246337
 21
57.8183903271
  0
LINE
  5
312
100
AcDbEntity
  8
BEZUGSACHSEN
100
AcDbLine
 62
7
  6
CONTINUOUS
 10
593.0867115108
 20
107.6486125427
 11
590.634050369
 21
93.7388799995
  0
LINE
  5
313
100
AcDbEntity
  8
0
100
AcDbLine
 62
7
  6
CONTINUOUS
 10
544.5558434941
 20
116.7460972519
 11
523.1650160206
 21
104.3960972519
  0
LINE
  5
314
100
AcDbEntity
  8
0
100
AcDbLine
 62
7
  6
CONTINUOUS
 10
558.3058434941
 20
92.9303986478
 11
536.9150160206
 21
80.5803986478
  0
LINE
  5
315
100
AcDbEntity
  8
0
100
AcDbLine
 62
7
  6
CONTINUOUS
 10
524.2608479107
 20
53.3559269962
 11
530.0299754663
 21
56.6867343434
  0
LINE
  5
316
100
AcDbEntity
  8
0
100
AcDbLine
 62
7
  6
CONTINUOUS
 10
582.4408840484
 20
86.9461865217
 11
588.210011604
 21
90.2769938689
  0
LINE
  5
317
100
AcDbEntity
  8
KONSTRUKTIONSELEMENTE
100
AcDbLine
 62
7
  6
CONTINUOUS
 10
708.4719086649
 20
-24.5187023968
 11
710.4518076522
 21
-26.2333452168
  0
LINE
  5
318
100
AcDbEntity
  8
KONSTRUKTIONSELEMENTE
100
AcDbLine
 62
7
  6
CONTINUOUS
 10
711.0565298469
 20
-25.883218412
 11
710.2787123876
 21
-25.2096087327
  0
LINE
  5
319
100
AcDbEntity
  8
KONSTRUKTIONSELEMENTE
100
AcDbLine
 62
7
  6
CONTINUOUS
 10
707.520995941
 20
-22.8213562335
 11
708.2988134003
 21
-23.4949659127
  0
LINE
  5
31A
100
AcDbEntity
  8
KONSTRUKTIONSELEMENTE
100
AcDbLine
 62
7
  6
CONTINUOUS
 10
711.0565298469
 20
-15.873218412
 11
710.2787123876
 21
-15.1996087327
  0
LINE
  5
31B
100
AcDbEntity
  8
KONSTRUKTIONSELEMENTE
100
AcDbLine
 62
7
  6
CONTINUOUS
 10
707.520995941
 20
-12.8113562335
 11
708.2988134003
 21
-13.4849659127
  0
LINE
  5
31C
100
AcDbEntity
  8
KONSTRUKTIONSELEMENTE
100
AcDbLine
 62
7
  6
CONTINUOUS
 10
739.2106785285
 20
-16.453580206
 11
742.7462124344
 21
-19.5154423845
  0
LINE
  5
31D
100
AcDbEntity
  8
KONSTRUKTIONSELEMENTE
100
AcDbLine
 62
7
  6
CONTINUOUS
 10
742.1692282192
 20
16.6867978059
 11
741.3914107598
 21
17.3604074852
  0
LINE
  5
31E
100
AcDbEntity
  8
KONSTRUKTIONSELEMENTE
100
AcDbLine
 62
7
  6
CONTINUOUS
 10
739.4115117725
 20
19.0750503051
 11
738.6336943132
 21
19.7486599844
  0
LWPOLYLINE
  5
31F
100
AcDbEntity
  8
BEZUGSACHSEN
100
AcDbPolyline
 62
7
  6
CONTINUOUS
 90
13
 70
0
 10
1009.4555915077
 20
52.6860565845
 10
1011.1522254453
 20
52.7088346193
 10
1013.2341141009
 20
52.7994237651
 10
1015.337883963
 20
52.9624884856
 10
1017.4532261518
 20
53.2016703199
 10
1019.5662454829
 20
53.5201252975
 10
1021.6629002979
 20
53.9207114057
 10
1023.7276009215
 20
54.4057313157
 10
1025.7516788378
 20
54.9793164495
 10
1027.7104479492
 20
55.6410977139
 10
1029.6341326768
 20
56.4124325086
 10
1031.5428454717
 20
57.3244900032
 10
1031.5443444346
 20
57.3253437202
  0
LWPOLYLINE
  5
320
100
AcDbEntity
  8
RUNDUNGEN
100
AcDbPolyline
 62
7
  6
CONTINUOUS
 90
13
 70
0
 10
1009.4555915076
 20
52.6860565852
 10
1011.1487156028
 20
52.7087403937
 10
1013.2304181871
 20
52.7992011623
 10
1015.3378685008
 20
52.9624870169
 10
1017.4585781332
 20
53.202374368
 10
1019.5771882709
 20
53.521991113
 10
1021.6783139946
 20
53.9239875029
 10
1023.7451437365
 20
54.4102669331
 10
1025.7686381658
 20
54.9845717336
 10
1027.7227465351
 20
55.6456225741
 10
1029.6410488076
 20
56.4154529832
 10
1031.5459068569
 20
57.3260906528
 10
1033.2024893538
 20
58.2697209006
  0
LINE
  5
321
100
AcDbEntity
  8
RUNDUNGEN
100
AcDbLine
 62
7
  6
CONTINUOUS
 10
1007.7608988182
 20
52.7088085572
 11
1009.4555915077
 21
52.6860565852
  0
LINE
  5
322
100
AcDbEntity
  8
KONSTRUKTIONSELEMENTE
100
AcDbLine
 62
7
  6
CONTINUOUS
 10
825.2734378187
 20
36.4610165618
 11
828.8089717246
 21
33.3991543833
  0
LWPOLYLINE
  5
323
100
AcDbEntity
  8
RUNDUNGEN
100
AcDbPolyline
 62
7
  6
CONTINUOUS
 90
11
 70
0
 10
987.3668385807
 20
57.3253437202
 10
989.2701342077
 20
56.4154529832
 10
991.1884364802
 20
55.6456225741
 10
993.1425448495
 20
54.9845717336
 10
995.1660392788
 20
54.4102669331
 10
997.2328690207
 20
53.9239875029
 10
999.3339947445
 20
53.521991113
 10
1001.4526048821
 20
53.202374368
 10
1003.5733145146
 20
52.9624870169
 10
1005.6807648282
 20
52.7992011623
 10
1007.7608988182
 20
52.7088085572
  0
LINE
  5
324
100
AcDbEntity
  8
KONSTRUKTIONSELEMENTE
100
AcDbLine
 62
7
  6
CONTINUOUS
 10
813.6786157763
 20
98.5437777038
 11
812.900798317
 21
99.217387383
  0
LINE
  5
325
100
AcDbEntity
  8
KONSTRUKTIONSELEMENTE
100
AcDbLine
 62
7
  6
CONTINUOUS
 10
810.1430818704
 20
101.6056398823
 11
810.9208993297
 21
100.932030203
  0
LINE
  5
326
100
AcDbEntity
  8
KONSTRUKTIONSELEMENTE
100
AcDbLine
 62
7
  6
CONTINUOUS
 10
816.5219802339
 20
101.5777803902
 11
814.5420812465
 21
103.2924232102
  0
LINE
  5
327
100
AcDbEntity
  8
BEZUGSACHSEN
100
AcDbLine
 62
7
  6
CONTINUOUS
 10
993.2452467808
 20
167.6286324272
 11
992.7730783177
 21
167.5638674641
  0
LINE
  5
328
100
AcDbEntity
  8
BEZUGSACHSEN
100
AcDbLine
 62
7
  6
CONTINUOUS
 10
993.2584025411
 20
167.630436662
 11
993.257740735
 21
167.6303461344
  0
LINE
  5
329
100
AcDbEntity
  8
BEZUGSACHSEN
100
AcDbLine
 62
7
  6
CONTINUOUS
 10
1015.4555915077
 20
149.5759018937
 11
1003.4555915077
 21
149.5759018937
  0
LINE
  5
32A
100
AcDbEntity
  8
BEZUGSACHSEN
100
AcDbLine
 62
7
  6
CONTINUOUS
 10
1001.8259491872
 20
158.9384458279
 11
1017.0852338281
 21
158.9384458279
  0
LWPOLYLINE
  5
32B
100
AcDbEntity
  8
BEZUGSACHSEN
100
AcDbPolyline
 62
7
  6
CONTINUOUS
 90
13
 70
0
 10
985.7086929699
 20
58.2697213303
 10
987.3683375436
 20
57.3244900032
 10
989.2770503386
 20
56.4124325086
 10
991.2007350661
 20
55.6410977139
 10
993.1595041775
 20
54.9793164495
 10
995.1835820939
 20
54.4057313157
 10
997.2482827174
 20
53.9207114057
 10
999.3449375325
 20
53.5201252975
 10
1001.4579568635
 20
53.2016703199
 10
1003.5732990523
 20
52.9624884856
 10
1005.6770689145
 20
52.7994237651
 10
1007.75895757
 20
52.7088346193
 10
1009.4555915077
 20
52.6860565845
  0
LINE
  5
32C
100
AcDbEntity
  8
BEZUGSACHSEN
100
AcDbLine
 62
7
  6
CONTINUOUS
 10
985.7079374481
 20
58.2701895299
 11
985.7082914377
 21
58.2699695427
  0
LINE
  5
32D
100
AcDbEntity
  8
KONSTRUKTIONSELEMENTE
100
AcDbLine
 62
7
  6
CONTINUOUS
 10
846.1416187103
 20
128.757300509
 11
842.6060848043
 21
131.8191626875
  0
LINE
  5
32E
100
AcDbEntity
  8
KONSTRUKTIONSELEMENTE
100
AcDbLine
 62
7
  6
CONTINUOUS
 10
816.8032803511
 20
94.4497625124
 11
816.8633851403
 21
94.3865789746
  0
LINE
  5
32F
100
AcDbEntity
  8
KONSTRUKTIONSELEMENTE
100
AcDbLine
 62
7
  6
CONTINUOUS
 10
818.9844563445
 20
98.3657730789
 11
819.0445611336
 21
98.3025895411
  0
LINE
  5
330
100
AcDbEntity
  8
KONSTRUKTIONSELEMENTE
100
AcDbLine
 62
7
  6
CONTINUOUS
 10
816.5207634209
 20
101.5781990716
 11
816.58086821
 21
101.5150155338
  0
LINE
  5
331
100
AcDbEntity
  8
KONSTRUKTIONSELEMENTE
100
AcDbLine
 62
7
  6
CONTINUOUS
 10
813.6786157763
 20
98.5437777038
 11
816.8032803511
 21
94.4497625124
  0
LINE
  5
332
100
AcDbEntity
  8
KONSTRUKTIONSELEMENTE
100
AcDbLine
 62
7
  6
CONTINUOUS
 10
816.58086821
 20
101.5150155338
 11
818.9844563445
 21
98.3657730789
  0
LINE
  5
333
100
AcDbEntity
  8
BEZUGSACHSEN
100
AcDbLine
 62
7
  6
CONTINUOUS
 10
1002.0695822433
 20
184.0972563741
 11
1016.841600772
 21
184.0972563741
  0
LINE
  5
334
100
AcDbEntity
  8
RUNDUNGEN
100
AcDbLine
 62
7
  6
CONTINUOUS
 10
1025.6527804743
 20
167.630436662
 11
1025.6534102833
 21
167.6303505174
  0
LINE
  5
335
100
AcDbEntity
  8
RUNDUNGEN
100
AcDbLine
 62
7
  6
CONTINUOUS
 10
1026.1381046976
 20
167.5638674641
 11
1025.6659362346
 21
167.6286324272
  0
LWPOLYLINE
  5
336
100
AcDbEntity
  8
RUNDUNGEN
100
AcDbPolyline
 62
7
  6
CONTINUOUS
 90
6
 70
0
 10
1025.6539028709
 20
167.630282886
 10
1025.562345249
 20
167.6440426403
 10
1025.2522183575
 20
167.7089534857
 10
1024.9795141997
 20
167.7911815247
 10
1024.7468474294
 20
167.8824447239
 10
1024.5396594904
 20
167.9829915496
  0
LINE
  5
337
100
AcDbEntity
  8
KONSTRUKTIONSELEMENTE
100
AcDbLine
 62
7
  6
CONTINUOUS
 10
846.3379119641
 20
128.5480843209
 11
846.1410188592
 21
128.7581807042
  0
LINE
  5
338
100
AcDbEntity
  8
KONSTRUKTIONSELEMENTE
100
AcDbLine
 62
7
  6
CONTINUOUS
 10
831.9062579399
 20
114.4774416997
 11
829.2186093895
 21
117.9988673539
  0
LINE
  5
339
100
AcDbEntity
  8
KONSTRUKTIONSELEMENTE
100
AcDbLine
 62
7
  6
CONTINUOUS
 10
829.9257161707
 20
117.3864949182
 11
832.613364721
 21
113.865069264
  0
LINE
  5
33A
100
AcDbEntity
  8
KONSTRUKTIONSELEMENTE
100
AcDbLine
 62
7
  6
CONTINUOUS
 10
835.3725753073
 20
114.1141429777
 11
832.0221591409
 21
118.5039436602
  0
LINE
  5
33B
100
AcDbEntity
  8
KONSTRUKTIONSELEMENTE
100
AcDbLine
 62
7
  6
CONTINUOUS
 10
707.520995941
 20
-12.8113562335
 11
707.520995941
 21
-22.8213562335
  0
LINE
  5
33C
100
AcDbEntity
  8
KONSTRUKTIONSELEMENTE
100
AcDbLine
 62
7
  6
CONTINUOUS
 10
708.2988134003
 20
-12.9349659127
 11
708.2988134003
 21
-13.4849659127
  0
LINE
  5
33D
100
AcDbEntity
  8
KONSTRUKTIONSELEMENTE
100
AcDbLine
 62
7
  6
CONTINUOUS
 10
708.2988134003
 20
-23.4949659127
 11
708.2988134003
 21
-24.0449659127
  0
LINE
  5
33E
100
AcDbEntity
  8
KONSTRUKTIONSELEMENTE
100
AcDbLine
 62
7
  6
CONTINUOUS
 10
710.2787123876
 20
-14.6496087327
 11
710.2787123876
 21
-15.1996087327
  0
LINE
  5
33F
100
AcDbEntity
  8
KONSTRUKTIONSELEMENTE
100
AcDbLine
 62
7
  6
CONTINUOUS
 10
710.2787123876
 20
-25.2096087327
 11
710.2787123876
 21
-25.7596087327
  0
LINE
  5
340
100
AcDbEntity
  8
KONSTRUKTIONSELEMENTE
100
AcDbLine
 62
7
  6
CONTINUOUS
 10
711.0565298469
 20
-15.873218412
 11
711.0565298469
 21
-25.883218412
  0
LINE
  5
341
100
AcDbEntity
  8
BEZUGSACHSEN
100
AcDbLine
 62
7
  6
CONTINUOUS
 10
1022.564905229
 20
210.6280388838
 11
1023.3346594448
 21
210.6280388838
  0
LINE
  5
342
100
AcDbEntity
  8
BEZUGSACHSEN
100
AcDbLine
 62
7
  6
CONTINUOUS
 10
1022.7028753943
 20
212.9273822001
 11
1023.3071608328
 21
212.9273822001
  0
LINE
  5
343
100
AcDbEntity
  8
BEZUGSACHSEN
100
AcDbLine
 62
7
  6
CONTINUOUS
 10
1022.7958436373
 20
214.6668970367
 11
1023.2117512935
 21
214.6668970367
  0
LINE
  5
344
100
AcDbEntity
  8
BEZUGSACHSEN
100
AcDbLine
 62
7
  6
CONTINUOUS
 10
1022.7086415996
 20
214.8878712589
 11
1023.0763330117
 21
214.8878712589
  0
LINE
  5
345
100
AcDbEntity
  8
BEZUGSACHSEN
100
AcDbLine
 62
7
  6
CONTINUOUS
 10
995.7137644867
 20
214.8939959499
 11
995.6403165271
 21
214.8939959499
  0
LINE
  5
346
100
AcDbEntity
  8
BEZUGSACHSEN
100
AcDbLine
 62
7
  6
CONTINUOUS
 10
995.8604451787
 20
215.3420690671
 11
995.7182335633
 21
215.3420690671
  0
LINE
  5
347
100
AcDbEntity
  8
BEZUGSACHSEN
100
AcDbLine
 62
7
  6
CONTINUOUS
 10
1022.4577925044
 20
215.5227263557
 11
1022.8039729459
 21
215.5227263557
  0
LINE
  5
348
100
AcDbEntity
  8
BEZUGSACHSEN
100
AcDbLine
 62
7
  6
CONTINUOUS
 10
996.0590822775
 20
215.9488561147
 11
995.864117069
 21
215.9488561147
  0
LINE
  5
349
100
AcDbEntity
  8
BEZUGSACHSEN
100
AcDbLine
 62
7
  6
CONTINUOUS
 10
996.0665187213
 20
215.9715726051
 11
995.709112695
 21
215.9715726051
  0
LINE
  5
34A
100
AcDbEntity
  8
BEZUGSACHSEN
100
AcDbLine
 62
7
  6
CONTINUOUS
 10
1023.0470659463
 20
215.9715726051
 11
1023.2020703203
 21
215.9715726051
  0
LINE
  5
34B
100
AcDbEntity
  8
BEZUGSACHSEN
100
AcDbLine
 62
7
  6
CONTINUOUS
 10
996.083092225
 20
216.0222005465
 11
995.781772536
 21
216.0222005465
  0
LINE
  5
34C
100
AcDbEntity
  8
BEZUGSACHSEN
100
AcDbLine
 62
7
  6
CONTINUOUS
 10
1022.7203547892
 20
216.1356378364
 11
1022.8688373097
 21
216.1356378364
  0
LINE
  5
34D
100
AcDbEntity
  8
BEZUGSACHSEN
100
AcDbLine
 62
7
  6
CONTINUOUS
 10
1022.1681097021
 20
216.2540344554
 11
1022.5327625761
 21
216.2540344554
  0
LINE
  5
34E
100
AcDbEntity
  8
BEZUGSACHSEN
100
AcDbLine
 62
7
  6
CONTINUOUS
 10
995.8629769802
 20
216.460177789
 11
995.6999199147
 21
216.460177789
  0
LINE
  5
34F
100
AcDbEntity
  8
BEZUGSACHSEN
100
AcDbLine
 62
7
  6
CONTINUOUS
 10
1022.5559159859
 20
216.5354845393
 11
1022.7936949335
 21
216.5354845393
  0
LINE
  5
350
100
AcDbEntity
  8
BEZUGSACHSEN
100
AcDbLine
 62
7
  6
CONTINUOUS
 10
995.9635742974
 20
216.7763048926
 11
995.7784899065
 21
216.7763048926
  0
LINE
  5
351
100
AcDbEntity
  8
BEZUGSACHSEN
100
AcDbLine
 62
7
  6
CONTINUOUS
 10
1022.3544834553
 20
217.0940450053
 11
1022.6518170636
 21
217.0940450053
  0
LINE
  5
352
100
AcDbEntity
  8
BEZUGSACHSEN
100
AcDbLine
 62
7
  6
CONTINUOUS
 10
1021.7754403492
 20
217.2405092346
 11
1022.1959431461
 21
217.2405092346
  0
LINE
  5
353
100
AcDbEntity
  8
BEZUGSACHSEN
100
AcDbLine
 62
7
  6
CONTINUOUS
 10
996.1258981293
 20
217.2864075897
 11
995.9248648612
 21
217.2864075897
  0
LINE
  5
354
100
AcDbEntity
  8
BEZUGSACHSEN
100
AcDbLine
 62
7
  6
CONTINUOUS
 10
1021.0467597505
 20
217.7212389637
 11
1021.5186061916
 21
217.7212389637
  0
LINE
  5
355
100
AcDbEntity
  8
BEZUGSACHSEN
100
AcDbLine
 62
7
  6
CONTINUOUS
 10
1022.6977978466
 20
217.7461835026
 11
1022.8092681283
 21
217.7461835026
  0
LINE
  5
356
100
AcDbEntity
  8
BEZUGSACHSEN
100
AcDbLine
 62
7
  6
CONTINUOUS
 10
1022.1129664043
 20
217.8113189444
 11
1022.4448947626
 21
217.8113189444
  0
LINE
  5
357
100
AcDbEntity
  8
BEZUGSACHSEN
100
AcDbLine
 62
7
  6
CONTINUOUS
 10
1022.605321173
 20
218.0419518828
 11
1022.7336157456
 21
218.0419518828
  0
LINE
  5
358
100
AcDbEntity
  8
BEZUGSACHSEN
100
AcDbLine
 62
7
  6
CONTINUOUS
 10
1020.9028538256
 20
218.1377890444
 11
1021.4437681989
 21
218.1377890444
  0
LINE
  5
359
100
AcDbEntity
  8
BEZUGSACHSEN
100
AcDbLine
 62
7
  6
CONTINUOUS
 10
996.424631983
 20
218.2251788267
 11
996.2075856319
 21
218.2251788267
  0
LINE
  5
35A
100
AcDbEntity
  8
BEZUGSACHSEN
100
AcDbLine
 62
7
  6
CONTINUOUS
 10
1022.4521948464
 20
218.531696202
 11
1022.5913772813
 21
218.531696202
  0
LINE
  5
35B
100
AcDbEntity
  8
BEZUGSACHSEN
100
AcDbLine
 62
7
  6
CONTINUOUS
 10
1020.7175392581
 20
218.6741998071
 11
1021.3038596326
 21
218.6741998071
  0
LINE
  5
35C
100
AcDbEntity
  8
BEZUGSACHSEN
100
AcDbLine
 62
7
  6
CONTINUOUS
 10
1021.8292179221
 20
218.6873067777
 11
1022.173970717
 21
218.6873067777
  0
LINE
  5
35D
100
AcDbEntity
  8
BEZUGSACHSEN
100
AcDbLine
 62
7
  6
CONTINUOUS
 10
1002.5359285617
 20
218.9894565539
 11
1016.3752544536
 21
218.9894565539
  0
LINE
  5
35E
100
AcDbEntity
  8
BEZUGSACHSEN
100
AcDbLine
 62
7
  6
CONTINUOUS
 10
996.7104279671
 20
219.1232331955
 11
996.4834234565
 21
219.1232331955
  0
LINE
  5
35F
100
AcDbEntity
  8
BEZUGSACHSEN
100
AcDbLine
 62
7
  6
CONTINUOUS
 10
1022.2384189608
 20
219.2154161601
 11
1022.3842377512
 21
219.2154161601
  0
LINE
  5
360
100
AcDbEntity
  8
BEZUGSACHSEN
100
AcDbLine
 62
7
  6
CONTINUOUS
 10
1020.528130893
 20
219.3304710397
 11
1021.0998816171
 21
219.3304710397
  0
LINE
  5
361
100
AcDbEntity
  8
BEZUGSACHSEN
100
AcDbLine
 62
7
  6
CONTINUOUS
 10
1019.2496072395
 20
219.7475899683
 11
1020.1857192547
 21
219.7475899683
  0
LINE
  5
362
100
AcDbEntity
  8
BEZUGSACHSEN
100
AcDbLine
 62
7
  6
CONTINUOUS
 10
1020.5282587724
 20
219.9125705193
 11
1020.8991549761
 21
219.9125705193
  0
LINE
  5
363
100
AcDbEntity
  8
BEZUGSACHSEN
100
AcDbLine
 62
7
  6
CONTINUOUS
 10
997.3798953662
 20
219.9836123577
 11
997.3281879949
 21
219.9836123577
  0
LINE
  5
364
100
AcDbEntity
  8
BEZUGSACHSEN
100
AcDbLine
 62
7
  6
CONTINUOUS
 10
1021.9639869498
 20
220.0931116741
 11
1022.1132329597
 21
220.0931116741
  0
LINE
  5
365
100
AcDbEntity
  8
BEZUGSACHSEN
100
AcDbLine
 62
7
  6
CONTINUOUS
 10
997.057977359
 20
220.21526297
 11
996.8218753234
 21
220.21526297
  0
LINE
  5
366
100
AcDbEntity
  8
BEZUGSACHSEN
100
AcDbLine
 62
7
  6
CONTINUOUS
 10
1020.5139808409
 20
220.4204971587
 11
1020.7015667158
 21
220.4204971587
  0
LINE
  5
367
100
AcDbEntity
  8
BEZUGSACHSEN
100
AcDbLine
 62
7
  6
CONTINUOUS
 10
1019.2775146449
 20
221.5277267841
 11
1020.1812067213
 21
221.5277267841
  0
LINE
  5
368
100
AcDbEntity
  8
BEZUGSACHSEN
100
AcDbLine
 62
7
  6
CONTINUOUS
 10
997.8965104362
 20
221.7016511022
 11
997.5908219603
 21
221.7016511022
  0
LINE
  5
369
100
AcDbEntity
  8
BEZUGSACHSEN
100
AcDbLine
 62
7
  6
CONTINUOUS
 10
1019.3419278383
 20
221.7045557127
 11
1020.2359759403
 21
221.7045557127
  0
LINE
  5
36A
100
AcDbEntity
  8
BEZUGSACHSEN
100
AcDbLine
 62
7
  6
CONTINUOUS
 10
1020.9587179949
 20
223.308125883
 11
1021.1096976481
 21
223.308125883
  0
LINE
  5
36B
100
AcDbEntity
  8
BEZUGSACHSEN
100
AcDbLine
 62
7
  6
CONTINUOUS
 10
998.0812820129
 20
223.4302771789
 11
997.8239887925
 21
223.4302771789
  0
LINE
  5
36C
100
AcDbEntity
  8
BEZUGSACHSEN
100
AcDbLine
 62
7
  6
CONTINUOUS
 10
1019.2526783066
 20
223.6556591023
 11
1020.1188899851
 21
223.6556591023
  0
LINE
  5
36D
100
AcDbEntity
  8
BEZUGSACHSEN
100
AcDbLine
 62
7
  6
CONTINUOUS
 10
1019.2676259471
 20
223.9450187213
 11
1020.1261268676
 21
223.9450187213
  0
LINE
  5
36E
100
AcDbEntity
  8
BEZUGSACHSEN
100
AcDbLine
 62
7
  6
CONTINUOUS
 10
998.7071852713
 20
224.0381536678
 11
998.6771944074
 21
224.0381536678
  0
LINE
  5
36F
100
AcDbEntity
  8
BEZUGSACHSEN
100
AcDbLine
 62
7
  6
CONTINUOUS
 10
1020.6970043656
 20
224.1451044536
 11
1020.8451786115
 21
224.1451044536
  0
LINE
  5
370
100
AcDbEntity
  8
BEZUGSACHSEN
100
AcDbLine
 62
7
  6
CONTINUOUS
 10
998.4159505376
 20
224.4815906106
 11
998.1540409335
 21
224.4815906106
  0
LINE
  5
371
100
AcDbEntity
  8
BEZUGSACHSEN
100
AcDbLine
 62
7
  6
CONTINUOUS
 10
1020.5086763553
 20
224.7473906595
 11
1020.650108146
 21
224.7473906595
  0
LINE
  5
372
100
AcDbEntity
  8
BEZUGSACHSEN
100
AcDbLine
 62
7
  6
CONTINUOUS
 10
998.9636739439
 20
224.8216629184
 11
998.8689063262
 21
224.8216629184
  0
LINE
  5
373
100
AcDbEntity
  8
BEZUGSACHSEN
100
AcDbLine
 62
7
  6
CONTINUOUS
 10
1019.2676259414
 20
225.1024566454
 11
1020.099470765
 21
225.1024566454
  0
LINE
  5
374
100
AcDbEntity
  8
BEZUGSACHSEN
100
AcDbLine
 62
7
  6
CONTINUOUS
 10
1020.4640727928
 20
225.1149835327
 11
1020.5235272416
 21
225.1149835327
  0
LINE
  5
375
100
AcDbEntity
  8
BEZUGSACHSEN
100
AcDbLine
 62
7
  6
CONTINUOUS
 10
999.0949197636
 20
225.2225863308
 11
998.9279351612
 21
225.2225863308
  0
LINE
  5
376
100
AcDbEntity
  8
BEZUGSACHSEN
100
AcDbLine
 62
7
  6
CONTINUOUS
 10
998.6759139109
 20
225.2982104766
 11
998.4138782155
 21
225.2982104766
  0
LINE
  5
377
100
AcDbEntity
  8
BEZUGSACHSEN
100
AcDbLine
 62
7
  6
CONTINUOUS
 10
1019.2526783066
 20
225.3918161265
 11
1020.0789368975
 21
225.3918161265
  0
LINE
  5
378
100
AcDbEntity
  8
BEZUGSACHSEN
100
AcDbLine
 62
7
  6
CONTINUOUS
 10
1019.2463707264
 20
226.0452840532
 11
1020.0544304486
 21
226.0452840532
  0
LINE
  5
379
100
AcDbEntity
  8
BEZUGSACHSEN
100
AcDbLine
 62
7
  6
CONTINUOUS
 10
998.9430430608
 20
226.0741133993
 11
998.6683804676
 21
226.0741133993
  0
LINE
  5
37A
100
AcDbEntity
  8
BEZUGSACHSEN
100
AcDbLine
 62
7
  6
CONTINUOUS
 10
999.3943724924
 20
226.1373401118
 11
998.9430430608
 21
226.1373401118
  0
LINE
  5
37B
100
AcDbEntity
  8
BEZUGSACHSEN
100
AcDbLine
 62
7
  6
CONTINUOUS
 10
999.4873449176
 20
226.4213478008
 11
998.7917815089
 21
226.4213478008
  0
LINE
  5
37C
100
AcDbEntity
  8
BEZUGSACHSEN
100
AcDbLine
 62
7
  6
CONTINUOUS
 10
999.5241863507
 20
226.5338892371
 11
998.8491753865
 21
226.5338892371
  0
LINE
  5
37D
100
AcDbEntity
  8
BEZUGSACHSEN
100
AcDbLine
 62
7
  6
CONTINUOUS
 10
1019.2782627438
 20
226.5338892371
 11
1020.0620076289
 21
226.5338892371
  0
LINE
  5
37E
100
AcDbEntity
  8
KONSTRUKTIONSELEMENTE
100
AcDbLine
 62
7
  6
CONTINUOUS
 10
859.3908539467
 20
111.4457869413
 11
846.3379119641
 21
128.5480843209
  0
LINE
  5
37F
100
AcDbEntity
  8
KONSTRUKTIONSELEMENTE
100
AcDbLine
 62
7
  6
CONTINUOUS
 10
738.6336943132
 20
-14.8744585925
 11
738.6336943132
 21
-3.6055012805
  0
LINE
  5
380
100
AcDbEntity
  8
KONSTRUKTIONSELEMENTE
100
AcDbLine
 62
7
  6
CONTINUOUS
 10
738.6336943132
 20
18.5330309371
 11
738.6336943132
 21
19.7486599844
  0
LINE
  5
381
100
AcDbEntity
  8
KONSTRUKTIONSELEMENTE
100
AcDbLine
 62
7
  6
CONTINUOUS
 10
741.3914107598
 20
-4.8652215621
 11
741.3914107598
 21
-2.6652215621
  0
LINE
  5
382
100
AcDbEntity
  8
KONSTRUKTIONSELEMENTE
100
AcDbLine
 62
7
  6
CONTINUOUS
 10
741.3914107598
 20
16.1447784379
 11
741.3914107598
 21
17.3604074852
  0
LINE
  5
383
100
AcDbEntity
  8
KONSTRUKTIONSELEMENTE
100
AcDbLine
 62
7
  6
CONTINUOUS
 10
742.1692282192
 20
-3.3388312413
 11
742.1692282192
 21
-17.936320771
  0
LINE
  5
384
100
AcDbEntity
  8
KONSTRUKTIONSELEMENTE
100
AcDbLine
 62
7
  6
CONTINUOUS
 10
742.1692282192
 20
15.4711687587
 11
742.1692282192
 21
16.6867978059
  0
LINE
  5
385
100
AcDbEntity
  8
BEZUGSACHSEN
100
AcDbLine
 62
7
  6
CONTINUOUS
 10
1002.5359285617
 20
235.3768931218
 11
1016.3752544536
 21
235.3768931218
  0
LINE
  5
386
100
AcDbEntity
  8
RUNDUNGEN
100
AcDbLine
 62
7
  6
CONTINUOUS
 10
1024.5416307292
 20
167.9819169896
 11
1024.5396544957
 21
167.9829744089
  0
LWPOLYLINE
  5
387
100
AcDbEntity
  8
RUNDUNGEN
100
AcDbPolyline
 62
7
  6
CONTINUOUS
 90
6
 70
0
 10
1024.5416307292
 20
167.9819169896
 10
1024.4979486684
 20
168.0057382548
 10
1024.2889987845
 20
168.1341394001
 10
1024.1441217456
 20
168.2408144116
 10
1024.0534010418
 20
168.3186082083
 10
1024.0089268602
 20
168.362115098
  0
LINE
  5
388
100
AcDbEntity
  8
BEZUGSACHSEN
100
AcDbLine
 62
7
  6
CONTINUOUS
 10
983.4635851518
 20
60.6515765365
 11
979.4213586643
 21
66.1723477317
  0
LINE
  5
389
100
AcDbEntity
  8
RUNDUNGEN
100
AcDbLine
 62
7
  6
CONTINUOUS
 10
1038.9459699983
 20
139.8697616329
 11
1032.9652078847
 21
148.8409048032
  0
LINE
  5
38A
100
AcDbEntity
  8
KONSTRUKTIONSELEMENTE
100
AcDbLine
 62
7
  6
CONTINUOUS
 10
752.5952609937
 20
-14.7202026879
 11
755.7199255685
 21
-5.2141096963
  0
LINE
  5
38B
100
AcDbEntity
  8
0
100
AcDbLine
 62
7
  6
CONTINUOUS
 10
918.4555915077
 20
240.6048116301
 11
918.4555915077
 21
318.5470979707
  0
LINE
  5
38C
100
AcDbEntity
  8
0
100
AcDbLine
 62
7
  6
CONTINUOUS
 10
954.4555915077
 20
240.6048116301
 11
954.4555915077
 21
318.5470979707
  0
LINE
  5
38D
100
AcDbEntity
  8
KONSTRUKTIONSELEMENTE
100
AcDbLine
 62
7
  6
CONTINUOUS
 10
828.3784730681
 20
46.327949866
 11
825.2538084933
 21
36.8218568744
  0
LINE
  5
38E
100
AcDbEntity
  8
KONSTRUKTIONSELEMENTE
100
AcDbLine
 62
7
  6
CONTINUOUS
 10
831.914006974
 20
43.2660876876
 11
828.7893423992
 21
33.759994696
  0
LINE
  5
38F
100
AcDbEntity
  8
KONSTRUKTIONSELEMENTE
100
AcDbLine
 62
7
  6
CONTINUOUS
 10
857.4847112842
 20
97.9213494289
 11
840.5693004413
 21
46.4599958618
  0
LINE
  5
390
100
AcDbEntity
  8
0
100
AcDbLine
 62
7
  6
CONTINUOUS
 10
1016.9618550598
 20
233.9420950721
 11
1019.3869966647
 21
226.5338892371
  0
LINE
  5
391
100
AcDbEntity
  8
0
100
AcDbLine
 62
7
  6
CONTINUOUS
 10
1023.2659529119
 20
214.6846404152
 11
1023.8600667403
 21
212.8697700911
  0
LWPOLYLINE
  5
392
100
AcDbEntity
  8
RUNDUNGEN
100
AcDbPolyline
 62
7
  6
CONTINUOUS
 90
3
 70
0
 10
1025.2405824777
 20
208.5314432441
 10
1024.768574917
 20
209.9778556347
 10
1024.0245470713
 20
212.2571446305
  0
LWPOLYLINE
  5
393
100
AcDbEntity
  8
RUNDUNGEN
100
AcDbPolyline
 62
7
  6
CONTINUOUS
 90
3
 70
0
 10
1026.416732884
 20
204.9255326914
 10
1026.1196184363
 20
205.8366983892
 10
1025.2405824777
 20
208.5314432441
  0
LINE
  5
394
100
AcDbEntity
  8
BEZUGSACHSEN
100
AcDbLine
 62
7
  6
CONTINUOUS
 10
1003.4555915077
 20
149.5759018937
 11
1001.8259491872
 21
158.9384458279
  0
LINE
  5
395
100
AcDbEntity
  8
BEZUGSACHSEN
100
AcDbLine
 62
7
  6
CONTINUOUS
 10
1001.4631932304
 20
162.3489175469
 11
1001.8259491872
 21
158.9384458279
  0
LINE
  5
396
100
AcDbEntity
  8
BEZUGSACHSEN
100
AcDbLine
 62
7
  6
CONTINUOUS
 10
1001.6032359249
 20
195.8999343213
 11
1002.0695822433
 21
184.0972563741
  0
LINE
  5
397
100
AcDbEntity
  8
BEZUGSACHSEN
100
AcDbLine
 62
7
  6
CONTINUOUS
 10
978.4555915077
 20
75.0637372336
 11
978.4555915077
 21
69.1261529665
  0
LINE
  5
398
100
AcDbEntity
  8
BEZUGSACHSEN
100
AcDbLine
 62
7
  6
CONTINUOUS
 10
978.4555915077
 20
75.288101879
 11
978.4555915077
 21
95.909780727
  0
LINE
  5
399
100
AcDbEntity
  8
BEZUGSACHSEN
100
AcDbLine
 62
7
  6
CONTINUOUS
 10
978.4555915077
 20
108.964204054
 11
978.4555915077
 21
134.9311971423
  0
LINE
  5
39A
100
AcDbEntity
  8
0
100
AcDbLine
 62
7
  6
CONTINUOUS
 10
983.9555915077
 20
834.9316706519
 11
983.9555915077
 21
323.9316706519
  0
LINE
  5
39B
100
AcDbEntity
  8
BEZUGSACHSEN
100
AcDbLine
 62
7
  6
CONTINUOUS
 10
984.1940752695
 20
91.8352647954
 11
984.1940752695
 21
98.6611527543
  0
LINE
  5
39C
100
AcDbEntity
  8
BEZUGSACHSEN
100
AcDbLine
 62
7
  6
CONTINUOUS
 10
988.4555915077
 20
156.8927213694
 11
988.4555915077
 21
162.6105263148
  0
LINE
  5
39D
100
AcDbEntity
  8
BEZUGSACHSEN
100
AcDbLine
 62
7
  6
CONTINUOUS
 10
992.2474165712
 20
203.3707876069
 11
992.2474165712
 21
197.6834870081
  0
LINE
  5
39E
100
AcDbEntity
  8
BEZUGSACHSEN
100
AcDbLine
 62
7
  6
CONTINUOUS
 10
994.4555915077
 20
209.1264798262
 11
994.4555915077
 21
168.0317725943
  0
LINE
  5
39F
100
AcDbEntity
  8
BEZUGSACHSEN
100
AcDbLine
 62
7
  6
CONTINUOUS
 10
1003.4555915077
 20
149.5759018937
 11
1003.4555915077
 21
146.6217146658
  0
LINE
  5
3A0
100
AcDbEntity
  8
RUNDUNGEN
100
AcDbLine
 62
7
  6
CONTINUOUS
 10
1017.5350672337
 20
164.8231984329
 11
1016.841600772
 21
184.0972563741
  0
LWPOLYLINE
  5
3A1
100
AcDbEntity
  8
RUNDUNGEN
100
AcDbPolyline
 62
7
  6
CONTINUOUS
 90
5
 70
0
 10
1026.6637518193
 20
203.3719214834
 10
1026.6600816357
 20
203.5628094131
 10
1026.6024725631
 20
204.1525269992
 10
1026.475713948
 20
204.7308863332
 10
1026.4166219877
 20
204.9254965353
  0
LINE
  5
3A2
100
AcDbEntity
  8
RUNDUNGEN
100
AcDbLine
 62
7
  6
CONTINUOUS
 10
1015.4555915077
 20
149.5759018937
 11
1015.4555915077
 21
146.6217146658
  0
LINE
  5
3A3
100
AcDbEntity
  8
BEZUGSACHSEN
100
AcDbLine
 62
7
  6
CONTINUOUS
 10
1024.4555915077
 20
209.1264798262
 11
1024.4555915077
 21
186.2405672975
  0
LINE
  5
3A4
100
AcDbEntity
  8
RUNDUNGEN
100
AcDbLine
 62
7
  6
CONTINUOUS
 10
1024.4555915077
 20
186.2405672595
 11
1024.4555915077
 21
168.0317670223
  0
LINE
  5
3A5
100
AcDbEntity
  8
0
100
AcDbLine
 62
7
  6
CONTINUOUS
 10
1024.4555915077
 20
186.2405672975
 11
1024.4555915077
 21
168.0317670223
  0
LINE
  5
3A6
100
AcDbEntity
  8
RUNDUNGEN
100
AcDbLine
 62
7
  6
CONTINUOUS
 10
1026.6637664441
 20
203.3707949056
 11
1026.6637663181
 21
203.3719210502
  0
LINE
  5
3A7
100
AcDbEntity
  8
0
100
AcDbLine
 62
7
  6
CONTINUOUS
 10
1026.6637664441
 20
203.3707876069
 11
1026.6637664441
 21
197.6797083593
  0
LINE
  5
3A8
100
AcDbEntity
  8
RUNDUNGEN
100
AcDbLine
 62
7
  6
CONTINUOUS
 10
1030.4555915077
 20
156.8927213694
 11
1030.4555915077
 21
162.6105263148
  0
LINE
  5
3A9
100
AcDbEntity
  8
0
100
AcDbLine
 62
7
  6
CONTINUOUS
 10
1034.7171077458
 20
91.8352647954
 11
1034.7171077458
 21
98.6611527543
  0
LINE
  5
3AA
100
AcDbEntity
  8
0
100
AcDbLine
 62
7
  6
CONTINUOUS
 10
1034.9555915077
 20
834.9316706519
 11
1034.9555915077
 21
323.9316706519
  0
LINE
  5
3AB
100
AcDbEntity
  8
BEZUGSACHSEN
100
AcDbLine
 62
7
  6
CONTINUOUS
 10
1001.3761157817
 20
164.8231984329
 11
1002.0695822433
 21
184.0972563741
  0
LINE
  5
3AC
100
AcDbEntity
  8
0
100
AcDbLine
 62
7
  6
CONTINUOUS
 10
1017.3079470904
 20
195.8999343213
 11
1016.841600772
 21
184.0972563741
  0
LINE
  5
3AD
100
AcDbEntity
  8
RUNDUNGEN
100
AcDbLine
 62
7
  6
CONTINUOUS
 10
1040.4555915077
 20
75.0637372336
 11
1040.4555915077
 21
69.1261529665
  0
LINE
  5
3AE
100
AcDbEntity
  8
0
100
AcDbLine
 62
7
  6
CONTINUOUS
 10
1040.4555915077
 20
75.288101879
 11
1040.4555915077
 21
95.909780727
  0
LINE
  5
3AF
100
AcDbEntity
  8
RUNDUNGEN
100
AcDbLine
 62
7
  6
CONTINUOUS
 10
1040.4555915077
 20
108.964204054
 11
1040.4555915077
 21
134.9311971423
  0
LINE
  5
3B0
100
AcDbEntity
  8
0
100
AcDbLine
 62
7
  6
CONTINUOUS
 10
1064.4555915077
 20
318.5470979707
 11
1064.4555915077
 21
240.6048116301
  0
LINE
  5
3B1
100
AcDbEntity
  8
RUNDUNGEN
100
AcDbLine
 62
7
  6
CONTINUOUS
 10
1017.447989785
 20
162.3489175469
 11
1017.0852338281
 21
158.9384458279
  0
LINE
  5
3B2
100
AcDbEntity
  8
0
100
AcDbLine
 62
7
  6
CONTINUOUS
 10
1015.4555915077
 20
149.5759018937
 11
1017.0852338281
 21
158.9384458279
  0
LWPOLYLINE
  5
3B3
100
AcDbEntity
  8
BEZUGSACHSEN
100
AcDbPolyline
 62
7
  6
CONTINUOUS
 90
5
 70
0
 10
992.4945610277
 20
204.9254965353
 10
992.4354690674
 20
204.7308863332
 10
992.3087104522
 20
204.1525269992
 10
992.2511013796
 20
203.5628094131
 10
992.247431196
 20
203.3719214834
  0
LINE
  5
3B4
100
AcDbEntity
  8
BEZUGSACHSEN
100
AcDbLine
 62
7
  6
CONTINUOUS
 10
993.2202545691
 20
207.1510568392
 11
992.4944501313
 21
204.9255326914
  0
LINE
  5
3B5
100
AcDbEntity
  8
BEZUGSACHSEN
100
AcDbLine
 62
7
  6
CONTINUOUS
 10
994.1426080984
 20
209.9778556347
 11
993.2202545691
 21
207.1510568392
  0
LINE
  5
3B6
100
AcDbEntity
  8
BEZUGSACHSEN
100
AcDbLine
 62
7
  6
CONTINUOUS
 10
994.886635944
 20
212.2571446305
 11
994.1426080984
 21
209.9778556347
  0
LINE
  5
3B7
100
AcDbEntity
  8
BEZUGSACHSEN
100
AcDbLine
 62
7
  6
CONTINUOUS
 10
995.0511162751
 20
212.8697700911
 11
1001.9493279555
 21
233.9420950721
  0
LINE
  5
3B8
100
AcDbEntity
  8
KONSTRUKTIONSELEMENTE
100
AcDbLine
 62
7
  6
CONTINUOUS
 10
833.0013062921
 20
126.6531867362
 11
829.3025644763
 21
122.6001856272
  0
LINE
  5
3B9
100
AcDbEntity
  8
KONSTRUKTIONSELEMENTE
100
AcDbLine
 62
7
  6
CONTINUOUS
 10
810.1430818704
 20
101.6056398823
 11
744.0082807718
 21
29.1365583544
  0
LINE
  5
3BA
100
AcDbEntity
  8
KONSTRUKTIONSELEMENTE
100
AcDbLine
 62
7
  6
CONTINUOUS
 10
810.9208993297
 20
100.932030203
 11
811.6606476929
 21
101.7426304248
  0
LINE
  5
3BB
100
AcDbEntity
  8
KONSTRUKTIONSELEMENTE
100
AcDbLine
 62
7
  6
CONTINUOUS
 10
812.900798317
 20
99.217387383
 11
813.6405466802
 21
100.0279876049
  0
LINE
  5
3BC
100
AcDbEntity
  8
KONSTRUKTIONSELEMENTE
100
AcDbLine
 62
7
  6
CONTINUOUS
 10
836.536840198
 20
123.5913245577
 11
832.8380983822
 21
119.5383234487
  0
LINE
  5
3BD
100
AcDbEntity
  8
KONSTRUKTIONSELEMENTE
100
AcDbLine
 62
7
  6
CONTINUOUS
 10
813.6786157763
 20
98.5437777038
 11
747.5438146777
 21
26.0746961759
  0
LINE
  5
3BE
100
AcDbEntity
  8
KONSTRUKTIONSELEMENTE
100
AcDbLine
 62
7
  6
CONTINUOUS
 10
817.4569501512
 20
100.3671506381
 11
830.3719443933
 21
114.5191213874
  0
LINE
  5
3BF
100
AcDbEntity
  8
KONSTRUKTIONSELEMENTE
100
AcDbLine
 62
7
  6
CONTINUOUS
 10
818.9657844217
 20
96.6104001206
 11
821.9247778743
 21
99.8528010078
  0
LINE
  5
3C0
100
AcDbEntity
  8
KONSTRUKTIONSELEMENTE
100
AcDbLine
 62
7
  6
CONTINUOUS
 10
833.9074782992
 20
111.4572592089
 11
819.743601881
 21
95.9367904413
  0
LINE
  5
3C1
100
AcDbEntity
  8
0
100
AcDbLine
 62
7
  6
CONTINUOUS
 10
1100.4555915077
 20
318.5470979707
 11
1100.4555915077
 21
240.6048116301
  0
LINE
  5
3C2
100
AcDbEntity
  8
KONSTRUKTIONSELEMENTE
100
AcDbLine
 62
7
  6
CONTINUOUS
 10
853.1564467178
 20
119.7350426614
 11
857.1869553705
 21
123.2255655448
  0
LINE
  5
3C3
100
AcDbEntity
  8
KONSTRUKTIONSELEMENTE
100
AcDbLine
 62
7
  6
CONTINUOUS
 10
901.8053932634
 20
161.8662662372
 11
905.8359019162
 21
165.3567891207
  0
LINE
  5
3C4
100
AcDbEntity
  8
KONSTRUKTIONSELEMENTE
100
AcDbLine
 62
7
  6
CONTINUOUS
 10
906.1894553067
 20
165.6629753386
 11
910.2199639595
 21
169.153498222
  0
LINE
  5
3C5
100
AcDbEntity
  8
KONSTRUKTIONSELEMENTE
100
AcDbLine
 62
7
  6
CONTINUOUS
 10
883.9705664443
 20
144.7380083282
 11
876.61665592
 21
138.369334997
  0
LINE
  5
3C6
100
AcDbEntity
  8
KONSTRUKTIONSELEMENTE
100
AcDbLine
 62
7
  6
CONTINUOUS
 10
733.3466929249
 20
10.4071340665
 11
710.6322657782
 21
-9.264136875
  0
LINE
  5
3C7
100
AcDbEntity
  8
KONSTRUKTIONSELEMENTE
100
AcDbLine
 62
7
  6
CONTINUOUS
 10
707.520995941
 20
-12.8113562335
 11
708.5921029356
 21
-11.883750366
  0
LINE
  5
3C8
100
AcDbEntity
  8
KONSTRUKTIONSELEMENTE
100
AcDbLine
 62
7
  6
CONTINUOUS
 10
868.838481327
 20
126.5600241046
 11
876.1923918513
 21
132.9286974358
  0
LINE
  5
3C9
100
AcDbEntity
  8
KONSTRUKTIONSELEMENTE
100
AcDbLine
 62
7
  6
CONTINUOUS
 10
894.2943254497
 20
148.6054317896
 11
901.648235974
 21
154.9741051209
  0
LINE
  5
3CA
100
AcDbEntity
  8
KONSTRUKTIONSELEMENTE
100
AcDbLine
 62
7
  6
CONTINUOUS
 10
735.3265919122
 20
8.6924912465
 11
712.6121647656
 21
-10.9787796949
  0
LINE
  5
3CB
100
AcDbEntity
  8
BEZUGSACHSEN
100
AcDbLine
 62
7
  6
CONTINUOUS
 10
985.9459751306
 20
148.8409048032
 11
979.9652130171
 21
139.8697616329
  0
LWPOLYLINE
  5
3CC
100
AcDbEntity
  8
BEZUGSACHSEN
100
AcDbPolyline
 62
7
  6
CONTINUOUS
 90
8
 70
0
 10
994.8850020295
 20
168.3400963638
 10
994.9044968589
 20
168.3641991351
 10
994.9022603887
 20
168.3621195715
 10
994.8577613919
 20
168.3185891687
 10
994.7669368386
 20
168.2407146766
 10
994.6219644337
 20
168.1339901058
 10
994.4130520972
 20
168.0056368955
 10
994.3695917235
 20
167.9819380787
  0
LINE
  5
3CD
100
AcDbEntity
  8
KONSTRUKTIONSELEMENTE
100
AcDbLine
 62
7
  6
CONTINUOUS
 10
857.3560328835
 20
114.1118613776
 11
857.3854690221
 21
114.1373538214
  0
LINE
  5
3CE
100
AcDbEntity
  8
KONSTRUKTIONSELEMENTE
100
AcDbLine
 62
7
  6
CONTINUOUS
 10
857.7390224127
 20
114.4435400392
 11
861.7695310655
 21
117.9340629227
  0
LINE
  5
3CF
100
AcDbEntity
  8
KONSTRUKTIONSELEMENTE
100
AcDbLine
 62
7
  6
CONTINUOUS
 10
907.7847623723
 20
157.7844221954
 11
910.4184776111
 21
160.0652864986
  0
LINE
  5
3D0
100
AcDbEntity
  8
KONSTRUKTIONSELEMENTE
100
AcDbLine
 62
7
  6
CONTINUOUS
 10
910.7720310017
 20
160.3714727164
 11
914.3454900434
 21
163.4661790259
  0
LINE
  5
3D1
100
AcDbEntity
  8
KONSTRUKTIONSELEMENTE
100
AcDbLine
 62
7
  6
CONTINUOUS
 10
888.1603499369
 20
139.9000630737
 11
883.2034667093
 21
135.6072762751
  0
LINE
  5
3D2
100
AcDbEntity
  8
KONSTRUKTIONSELEMENTE
100
AcDbLine
 62
7
  6
CONTINUOUS
 10
710.2787123876
 20
-15.1996087327
 11
735.1688710854
 21
6.3559010038
  0
LINE
  5
3D3
100
AcDbEntity
  8
KONSTRUKTIONSELEMENTE
100
AcDbLine
 62
7
  6
CONTINUOUS
 10
711.0565298469
 20
-15.873218412
 11
735.9466885447
 21
5.6822913245
  0
LINE
  5
3D4
100
AcDbEntity
  8
KONSTRUKTIONSELEMENTE
100
AcDbLine
 62
7
  6
CONTINUOUS
 10
873.0282648195
 20
121.7220788501
 11
880.3821753438
 21
128.0907521813
  0
LINE
  5
3D5
100
AcDbEntity
  8
KONSTRUKTIONSELEMENTE
100
AcDbLine
 62
7
  6
CONTINUOUS
 10
898.4841089422
 20
143.7674865351
 11
905.8380194665
 21
150.1361598664
  0
LINE
  5
3D6
100
AcDbEntity
  8
KONSTRUKTIONSELEMENTE
100
AcDbLine
 62
7
  6
CONTINUOUS
 10
886.5161508566
 20
129.7961208973
 11
893.870061381
 21
136.1647942285
  0
LINE
  5
3D7
100
AcDbEntity
  8
KONSTRUKTIONSELEMENTE
100
AcDbLine
 62
7
  6
CONTINUOUS
 10
921.6043831366
 20
159.2943020073
 11
913.1898124405
 21
152.0070700225
  0
LINE
  5
3D8
100
AcDbEntity
  8
KONSTRUKTIONSELEMENTE
100
AcDbLine
 62
7
  6
CONTINUOUS
 10
868.5713745476
 20
113.3663693301
 11
860.1568038515
 21
106.0791373454
  0
LINE
  5
3D9
100
AcDbEntity
  8
KONSTRUKTIONSELEMENTE
100
AcDbLine
 62
7
  6
CONTINUOUS
 10
905.8380194665
 20
143.1361598664
 11
901.1373666138
 21
139.0652750815
  0
LINE
  5
3DA
100
AcDbEntity
  8
KONSTRUKTIONSELEMENTE
100
AcDbLine
 62
7
  6
CONTINUOUS
 10
880.3821753438
 20
121.0907521813
 11
876.4918489353
 21
117.7216306825
  0
LINE
  5
3DB
100
AcDbEntity
  8
KONSTRUKTIONSELEMENTE
100
AcDbLine
 62
7
  6
CONTINUOUS
 10
711.0565298469
 20
-25.883218412
 11
735.9466885447
 21
-4.3277086755
  0
LINE
  5
3DC
100
AcDbEntity
  8
KONSTRUKTIONSELEMENTE
100
AcDbLine
 62
7
  6
CONTINUOUS
 10
712.6121647656
 20
-25.3887796949
 11
735.1688710854
 21
-5.8540989962
  0
LINE
  5
3DD
100
AcDbEntity
  8
KONSTRUKTIONSELEMENTE
100
AcDbLine
 62
7
  6
CONTINUOUS
 10
890.7059343492
 20
124.9581756427
 11
898.0598448735
 21
131.326848974
  0
LINE
  5
3DE
100
AcDbEntity
  8
KONSTRUKTIONSELEMENTE
100
AcDbLine
 62
7
  6
CONTINUOUS
 10
926.1869588316
 20
154.0027993852
 11
917.7723881355
 21
146.7155674004
  0
LINE
  5
3DF
100
AcDbEntity
  8
KONSTRUKTIONSELEMENTE
100
AcDbLine
 62
7
  6
CONTINUOUS
 10
873.1539502426
 20
108.074866708
 11
864.7393795465
 21
100.7876347232
  0
LINE
  5
3E0
100
AcDbEntity
  8
BEZUGSACHSEN
100
AcDbLine
 62
7
  6
CONTINUOUS
 10
994.3695917235
 20
167.9819380787
 11
994.3715175244
 21
167.9829685221
  0
LINE
  5
3E1
100
AcDbEntity
  8
KONSTRUKTIONSELEMENTE
100
AcDbLine
 62
7
  6
CONTINUOUS
 10
765.5209973346
 20
6.805084808
 11
826.9201114769
 21
45.8716516319
  0
LINE
  5
3E2
100
AcDbEntity
  8
KONSTRUKTIONSELEMENTE
100
AcDbLine
 62
7
  6
CONTINUOUS
 10
747.5438146777
 20
-18.5126032026
 11
751.6151538171
 21
-15.9221221383
  0
LINE
  5
3E3
100
AcDbEntity
  8
KONSTRUKTIONSELEMENTE
100
AcDbLine
 62
7
  6
CONTINUOUS
 10
829.2887319489
 20
33.4994383015
 11
830.7682286753
 21
34.4408013575
  0
LWPOLYLINE
  5
3E4
100
AcDbEntity
  8
BEZUGSACHSEN
100
AcDbPolyline
 62
7
  6
CONTINUOUS
 90
6
 70
0
 10
994.3715125297
 20
167.9829856628
 10
994.1682829596
 20
167.8841793248
 10
993.9388665467
 20
167.7936979507
 10
993.6702117921
 20
167.711860496
 10
993.3648019606
 20
167.6466876423
 10
993.257248196
 20
167.6302785142
  0
LINE
  5
3E5
100
AcDbEntity
  8
RUNDUNGEN
100
AcDbLine
 62
7
  6
CONTINUOUS
 10
1039.4898243511
 20
66.1723477317
 11
1035.4475978636
 21
60.6515765365
  0
LINE
  5
3E6
100
AcDbEntity
  8
RUNDUNGEN
100
AcDbLine
 62
7
  6
CONTINUOUS
 10
1033.203244877
 20
58.2701891009
 11
1033.2028915776
 21
58.2699695427
  0
ARC
  5
3E7
100
AcDbEntity
  8
0
100
AcDbCircle
 62
7
  6
CONTINUOUS
 10
54.3071785366
 20
7.6816480028
 40
80.0
100
AcDbArc
 50
37.7750981556
 51
51.1194498884
  0
ARC
  5
3E8
100
AcDbEntity
  8
0
100
AcDbCircle
 62
7
  6
CONTINUOUS
 10
54.3071785366
 20
7.6816480028
 40
80.0
100
AcDbArc
 50
68.8805501116
 51
82.2249018444
  0
ARC
  5
3E9
100
AcDbEntity
  8
BEZUGSACHSEN
100
AcDbCircle
 62
7
  6
CONTINUOUS
 10
96.9802597292
 20
81.7901791846
 40
34.235761535
100
AcDbArc
 50
65.7096704505
 51
72.8725206806
  0
ARC
  5
3EA
100
AcDbEntity
  8
BEZUGSACHSEN
100
AcDbCircle
 62
7
  6
CONTINUOUS
 10
97.3940719308
 20
81.9895566015
 40
33.8519033272
100
AcDbArc
 50
47.0868144446
 51
54.3309944243
  0
ARC
  5
3EB
100
AcDbEntity
  8
BEZUGSACHSEN
100
AcDbCircle
 62
7
  6
CONTINUOUS
 10
148.3354297573
 20
170.543356464
 40
26.0
100
AcDbArc
 50
103.8788621612
 51
16.1211378388
  0
ARC
  5
3EC
100
AcDbEntity
  8
0
100
AcDbCircle
 62
7
  6
CONTINUOUS
 10
152.2854297573
 20
177.3849571539
 40
18.0
100
AcDbArc
 50
150.0
 51
330.0
  0
ARC
  5
3ED
100
AcDbEntity
  8
0
100
AcDbCircle
 62
7
  6
CONTINUOUS
 10
120.6604297573
 20
122.6088503645
 40
12.35
100
AcDbArc
 50
148.6532229189
 51
150.0
  0
ARC
  5
3EE
100
AcDbEntity
  8
0
100
AcDbCircle
 62
7
  6
CONTINUOUS
 10
120.6604297573
 20
122.6088503645
 40
12.35
100
AcDbArc
 50
330.0
 51
331.3467770811
  0
ARC
  5
3EF
100
AcDbEntity
  8
RUNDUNGEN
100
AcDbCircle
 62
7
  6
CONTINUOUS
 10
120.6604297573
 20
122.6088503645
 40
12.35
100
AcDbArc
 50
331.3467770811
 51
148.6532229189
  0
ARC
  5
3F0
100
AcDbEntity
  8
KONSTRUKTIONSELEMENTE
100
AcDbCircle
 62
7
  6
CONTINUOUS
 10
27.3174835754
 20
7.29733027
 40
12.1186269458
100
AcDbArc
 50
50.7865697041
 51
53.8952734692
  0
ARC
  5
3F1
100
AcDbEntity
  8
KONSTRUKTIONSELEMENTE
100
AcDbCircle
 62
7
  6
CONTINUOUS
 10
68.2419165109
 20
-13.5811685506
 40
10.2888693591
100
AcDbArc
 50
81.2384503883
 51
82.1140025065
  0
ARC
  5
3F2
100
AcDbEntity
  8
KONSTRUKTIONSELEMENTE
100
AcDbCircle
 62
7
  6
CONTINUOUS
 10
68.2705134357
 20
-13.3702217596
 40
10.075993937
100
AcDbArc
 50
82.1105000658
 51
83.9508226432
  0
ARC
  5
3F3
100
AcDbEntity
  8
RUNDUNGEN
100
AcDbCircle
 62
7
  6
CONTINUOUS
 10
163.4114433689
 20
84.6557780149
 40
5.0
100
AcDbArc
 50
120.0
 51
150.0
  0
ARC
  5
3F4
100
AcDbEntity
  8
RUNDUNGEN
100
AcDbCircle
 62
7
  6
CONTINUOUS
 10
139.0825239171
 20
62.516853431
 40
5.0
100
AcDbArc
 50
290.0
 51
330.0
  0
ARC
  5
3F5
100
AcDbEntity
  8
BEZUGSACHSEN
100
AcDbCircle
 62
7
  6
CONTINUOUS
 10
125.8100172461
 20
57.6860560687
 40
5.0
100
AcDbArc
 50
239.9999557743
 51
289.9999311969
  0
ARC
  5
3F6
100
AcDbEntity
  8
BEZUGSACHSEN
100
AcDbCircle
 62
7
  6
CONTINUOUS
 10
61.860845553
 20
94.6071342591
 40
5.0
100
AcDbArc
 50
190.0001555872
 51
240.0001000089
  0
ARC
  5
3F7
100
AcDbEntity
  8
RUNDUNGEN
100
AcDbCircle
 62
7
  6
CONTINUOUS
 10
59.4081867689
 20
108.516853431
 40
5.0
100
AcDbArc
 50
150.0
 51
190.0
  0
ARC
  5
3F8
100
AcDbEntity
  8
RUNDUNGEN
100
AcDbCircle
 62
7
  6
CONTINUOUS
 10
66.4165981451
 20
140.6557780149
 40
5.0
100
AcDbArc
 50
330.0
 51
360.0
  0
ARC
  5
3F9
100
AcDbEntity
  8
BEZUGSACHSEN
100
AcDbCircle
 62
7
  6
CONTINUOUS
 10
59.4081867689
 20
108.516853431
 40
5.0
100
AcDbArc
 50
150.0
 51
190.0
  0
ARC
  5
3FA
100
AcDbEntity
  8
KONSTRUKTIONSELEMENTE
100
AcDbCircle
 62
7
  6
CONTINUOUS
 10
37.6819286574
 20
7.9257184538
 40
4.5106910407
100
AcDbArc
 50
339.112215659
 51
339.8872067218
  0
ARC
  5
3FB
100
AcDbEntity
  8
KONSTRUKTIONSELEMENTE
100
AcDbCircle
 62
7
  6
CONTINUOUS
 10
37.7532832748
 20
7.8971134137
 40
4.4338271913
100
AcDbArc
 50
330.0312035642
 51
339.1288137427
  0
CIRCLE
  5
3FC
100
AcDbEntity
  8
BEZUGSACHSEN
100
AcDbCircle
 62
7
  6
CONTINUOUS
 10
140.7836255857
 20
79.0632479499
 40
4.0
  0
ARC
  5
3FD
100
AcDbEntity
  8
KONSTRUKTIONSELEMENTE
100
AcDbCircle
 62
7
  6
CONTINUOUS
 10
120.6678604068
 20
122.6217206269
 40
3.5
100
AcDbArc
 50
114.93427076
 51
150.0
  0
ARC
  5
3FE
100
AcDbEntity
  8
KONSTRUKTIONSELEMENTE
100
AcDbCircle
 62
7
  6
CONTINUOUS
 10
120.6678604068
 20
122.6217206269
 40
3.5
100
AcDbArc
 50
330.0
 51
5.06572924
  0
ARC
  5
3FF
100
AcDbEntity
  8
KONSTRUKTIONSELEMENTE
100
AcDbCircle
 62
7
  6
CONTINUOUS
 10
122.3882815708
 20
125.6015774934
 40
3.2
100
AcDbArc
 50
150.0
 51
330.0
  0
ARC
  5
400
100
AcDbEntity
  8
KONSTRUKTIONSELEMENTE
100
AcDbCircle
 62
7
  6
CONTINUOUS
 10
52.4874949061
 20
102.3813619276
 40
2.4668022703
100
AcDbArc
 50
285.8065935613
 51
287.9541640711
  0
ARC
  5
401
100
AcDbEntity
  8
KONSTRUKTIONSELEMENTE
100
AcDbCircle
 62
7
  6
CONTINUOUS
 10
133.721556024
 20
149.4379653853
 40
1.9204151671
100
AcDbArc
 50
107.0052288833
 51
109.4576183351
  0
ARC
  5
402
100
AcDbEntity
  8
KONSTRUKTIONSELEMENTE
100
AcDbCircle
 62
7
  6
CONTINUOUS
 10
137.3668322988
 20
147.3353050885
 40
1.9180607948
100
AcDbArc
 50
10.4852452525
 51
12.9904712433
  0
ARC
  5
403
100
AcDbEntity
  8
0
100
AcDbCircle
 62
7
  6
CONTINUOUS
 10
270.2854297573
 20
381.766952447
 40
18.0
100
AcDbArc
 50
330.0
 51
150.0
  0
ARC
  5
404
100
AcDbEntity
  8
0
100
AcDbCircle
 62
7
  6
CONTINUOUS
 10
593.2636809781
 20
7.6816480028
 40
80.0
100
AcDbArc
 50
128.8805501116
 51
142.2249018444
  0
ARC
  5
405
100
AcDbEntity
  8
0
100
AcDbCircle
 62
7
  6
CONTINUOUS
 10
593.2636809781
 20
7.6816480028
 40
80.0
100
AcDbArc
 50
97.7750981556
 51
111.1194498884
  0
ARC
  5
406
100
AcDbEntity
  8
BEZUGSACHSEN
100
AcDbCircle
 62
7
  6
CONTINUOUS
 10
499.2354297573
 20
170.543356464
 40
26.0
100
AcDbArc
 50
163.8788621612
 51
76.1211378388
  0
ARC
  5
407
100
AcDbEntity
  8
0
100
AcDbCircle
 62
7
  6
CONTINUOUS
 10
495.2854297573
 20
177.3849571539
 40
18.0
100
AcDbArc
 50
210.0
 51
30.0
  0
ARC
  5
408
100
AcDbEntity
  8
BEZUGSACHSEN
100
AcDbCircle
 62
7
  6
CONTINUOUS
 10
526.9104297573
 20
122.6088503645
 40
12.35
100
AcDbArc
 50
30.0
 51
210.0
  0
ARC
  5
409
100
AcDbEntity
  8
BEZUGSACHSEN
100
AcDbCircle
 62
7
  6
CONTINUOUS
 10
484.1594161457
 20
84.6557780149
 40
5.0
100
AcDbArc
 50
30.0
 51
60.0
  0
ARC
  5
40A
100
AcDbEntity
  8
BEZUGSACHSEN
100
AcDbCircle
 62
7
  6
CONTINUOUS
 10
588.1626727458
 20
108.516853431
 40
5.0
100
AcDbArc
 50
350.0
 51
30.0
  0
ARC
  5
40B
100
AcDbEntity
  8
BEZUGSACHSEN
100
AcDbCircle
 62
7
  6
CONTINUOUS
 10
508.4883355976
 20
62.516853431
 40
5.0
100
AcDbArc
 50
210.0
 51
250.0
  0
ARC
  5
40C
100
AcDbEntity
  8
BEZUGSACHSEN
100
AcDbCircle
 62
7
  6
CONTINUOUS
 10
521.7608422686
 20
57.6860560687
 40
5.0
100
AcDbArc
 50
250.0000688031
 51
300.0000442257
  0
ARC
  5
40D
100
AcDbEntity
  8
BEZUGSACHSEN
100
AcDbCircle
 62
7
  6
CONTINUOUS
 10
585.7100139617
 20
94.6071342591
 40
5.0
100
AcDbArc
 50
299.9998999911
 51
349.9998444128
  0
ARC
  5
40E
100
AcDbEntity
  8
RUNDUNGEN
100
AcDbCircle
 62
7
  6
CONTINUOUS
 10
588.1626727458
 20
108.516853431
 40
5.0
100
AcDbArc
 50
350.0
 51
30.0
  0
ARC
  5
40F
100
AcDbEntity
  8
BEZUGSACHSEN
100
AcDbCircle
 62
7
  6
CONTINUOUS
 10
581.1542613696
 20
140.6557780149
 40
5.0
100
AcDbArc
 50
180.0
 51
210.0
  0
CIRCLE
  5
410
100
AcDbEntity
  8
BEZUGSACHSEN
100
AcDbCircle
 62
7
  6
CONTINUOUS
 10
506.787233929
 20
79.0632479499
 40
4.0
  0
ARC
  5
411
100
AcDbEntity
  8
0
100
AcDbCircle
 62
7
  6
CONTINUOUS
 10
323.7854297573
 20
474.4316706519
 40
176.0
100
AcDbArc
 50
180.0
 51
234.1293047439
  0
ARC
  5
412
100
AcDbEntity
  8
0
100
AcDbCircle
 62
7
  6
CONTINUOUS
 10
323.7854297573
 20
474.4316706519
 40
176.0
100
AcDbArc
 50
245.8706952561
 51
294.1293047439
  0
ARC
  5
413
100
AcDbEntity
  8
0
100
AcDbCircle
 62
7
  6
CONTINUOUS
 10
323.7854297573
 20
474.4316706519
 40
176.0
100
AcDbArc
 50
305.8706952561
 51
360.0
  0
ARC
  5
414
100
AcDbEntity
  8
0
100
AcDbCircle
 62
7
  6
CONTINUOUS
 10
323.7854297573
 20
684.4316706519
 40
176.0
100
AcDbArc
 50
0.0
 51
180.0
  0
ARC
  5
415
100
AcDbEntity
  8
0
100
AcDbCircle
 62
7
  6
CONTINUOUS
 10
323.7854297573
 20
684.4316706519
 40
125.0
100
AcDbArc
 50
0.0
 51
180.0
  0
ARC
  5
416
100
AcDbEntity
  8
0
100
AcDbCircle
 62
7
  6
CONTINUOUS
 10
323.7854297573
 20
474.4316706519
 40
125.0
100
AcDbArc
 50
180.0
 51
231.7198043823
  0
ARC
  5
417
100
AcDbEntity
  8
0
100
AcDbCircle
 62
7
  6
CONTINUOUS
 10
323.7854297573
 20
474.4316706519
 40
125.0
100
AcDbArc
 50
248.2801956177
 51
291.7198043823
  0
ARC
  5
418
100
AcDbEntity
  8
0
100
AcDbCircle
 62
7
  6
CONTINUOUS
 10
323.7854297573
 20
474.4316706519
 40
125.0
100
AcDbArc
 50
308.2801956177
 51
360.0
  0
ARC
  5
419
100
AcDbEntity
  8
0
100
AcDbCircle
 62
7
  6
CONTINUOUS
 10
377.2854297573
 20
381.766952447
 40
18.0
100
AcDbArc
 50
30.0
 51
210.0
  0
ARC
  5
41A
100
AcDbEntity
  8
BEZUGSACHSEN
100
AcDbCircle
 62
7
  6
CONTINUOUS
 10
317.6617454837
 20
-63.3832266245
 40
757.9750627149
100
AcDbArc
 50
21.4212981498
 51
21.6392886025
  0
ARC
  5
41B
100
AcDbEntity
  8
KONSTRUKTIONSELEMENTE
100
AcDbCircle
 62
7
  6
CONTINUOUS
 10
728.977371855
 20
22.0367300428
 40
10.8563381355
100
AcDbArc
 50
337.8907121276
 51
338.1385961602
  0
ARC
  5
41C
100
AcDbEntity
  8
KONSTRUKTIONSELEMENTE
100
AcDbCircle
 62
7
  6
CONTINUOUS
 10
819.0166310462
 20
49.4105703511
 40
9.8562992598
100
AcDbArc
 50
341.774578436
 51
344.2139151141
  0
ARC
  5
41D
100
AcDbEntity
  8
BEZUGSACHSEN
100
AcDbCircle
 62
7
  6
CONTINUOUS
 10
790.0773345928
 20
150.1473004773
 40
242.3654751804
100
AcDbArc
 50
18.1115065834
 51
18.2566509029
  0
ARC
  5
41E
100
AcDbEntity
  8
BEZUGSACHSEN
100
AcDbCircle
 62
7
  6
CONTINUOUS
 10
812.0269112858
 20
124.6382717531
 40
229.7736312815
100
AcDbArc
 50
24.7583176882
 51
24.9104324493
  0
ARC
  5
41F
100
AcDbEntity
  8
BEZUGSACHSEN
100
AcDbCircle
 62
7
  6
CONTINUOUS
 10
823.8394254677
 20
174.9649173039
 40
202.4005941573
100
AcDbArc
 50
12.0565643034
 51
12.2548514922
  0
ARC
  5
420
100
AcDbEntity
  8
BEZUGSACHSEN
100
AcDbCircle
 62
7
  6
CONTINUOUS
 10
851.5545880475
 20
141.6789398427
 40
186.4919747192
100
AcDbArc
 50
23.1137645006
 51
23.3260021886
  0
ARC
  5
421
100
AcDbEntity
  8
BEZUGSACHSEN
100
AcDbCircle
 62
7
  6
CONTINUOUS
 10
844.4842976516
 20
109.1109795139
 40
15.8261686437
100
AcDbArc
 50
348.4886518038
 51
349.1278805155
  0
ARC
  5
422
100
AcDbEntity
  8
KONSTRUKTIONSELEMENTE
100
AcDbCircle
 62
7
  6
CONTINUOUS
 10
853.4464706614
 20
119.4021500931
 40
0.4414979864
100
AcDbArc
 50
131.0422665534
 51
140.8448350323
  0
ARC
  5
423
100
AcDbEntity
  8
KONSTRUKTIONSELEMENTE
100
AcDbCircle
 62
7
  6
CONTINUOUS
 10
857.4518805631
 20
114.7742122246
 40
0.4379314743
100
AcDbArc
 50
301.7015992288
 51
310.9486150495
  0
ARC
  5
424
100
AcDbEntity
  8
BEZUGSACHSEN
100
AcDbCircle
 62
7
  6
CONTINUOUS
 10
1005.9050684152
 20
77.0974038338
 40
27.8225824482
100
AcDbArc
 50
218.5466026695
 51
219.7071019062
  0
ARC
  5
425
100
AcDbEntity
  8
RUNDUNGEN
100
AcDbCircle
 62
7
  6
CONTINUOUS
 10
1013.0061146001
 20
77.0974038339
 40
27.8225824483
100
AcDbArc
 50
320.2928980938
 51
321.4533973305
  0
ARC
  5
426
100
AcDbEntity
  8
BEZUGSACHSEN
100
AcDbCircle
 62
7
  6
CONTINUOUS
 10
1005.6882925313
 20
76.9257878002
 40
27.5460990045
100
AcDbArc
 50
216.2137372551
 51
218.548397574
  0
ARC
  5
427
100
AcDbEntity
  8
RUNDUNGEN
100
AcDbCircle
 62
7
  6
CONTINUOUS
 10
1013.222890484
 20
76.9257878003
 40
27.5460990045
100
AcDbArc
 50
321.451602426
 51
323.7862627449
  0
ARC
  5
428
100
AcDbEntity
  8
RUNDUNGEN
100
AcDbCircle
 62
7
  6
CONTINUOUS
 10
988.3686079776
 20
62.5412687457
 40
5.0320499536
100
AcDbArc
 50
219.7648027587
 51
238.0838869614
  0
ARC
  5
429
100
AcDbEntity
  8
BEZUGSACHSEN
100
AcDbCircle
 62
7
  6
CONTINUOUS
 10
988.3686079776
 20
62.5412687457
 40
5.0320499536
100
AcDbArc
 50
219.7648027587
 51
238.0838869614
  0
ARC
  5
42A
100
AcDbEntity
  8
RUNDUNGEN
100
AcDbCircle
 62
7
  6
CONTINUOUS
 10
1030.5425750377
 20
62.5412687457
 40
5.0320499536
100
AcDbArc
 50
301.9161130386
 51
320.2351972413
  0
ARC
  5
42B
100
AcDbEntity
  8
RUNDUNGEN
100
AcDbCircle
 62
7
  6
CONTINUOUS
 10
1035.4438479278
 20
69.133128397
 40
5.0135824359
100
AcDbArc
 50
329.1554738504
 51
335.3517530512
  0
ARC
  5
42C
100
AcDbEntity
  8
BEZUGSACHSEN
100
AcDbCircle
 62
7
  6
CONTINUOUS
 10
983.4611862012
 20
69.1289339968
 40
5.0061527457
100
AcDbArc
 50
210.839392412
 51
216.2032810444
  0
ARC
  5
42D
100
AcDbEntity
  8
RUNDUNGEN
100
AcDbCircle
 62
7
  6
CONTINUOUS
 10
1035.4499968142
 20
69.1289339968
 40
5.0061527457
100
AcDbArc
 50
323.7967189556
 51
329.1606075881
  0
ARC
  5
42E
100
AcDbEntity
  8
BEZUGSACHSEN
100
AcDbCircle
 62
7
  6
CONTINUOUS
 10
1035.4561868238
 20
69.1259655232
 40
4.9994046873
100
AcDbArc
 50
323.7822695223
 51
0.0021481978
  0
ARC
  5
42F
100
AcDbEntity
  8
BEZUGSACHSEN
100
AcDbCircle
 62
7
  6
CONTINUOUS
 10
983.453867165
 20
69.1258264836
 40
4.998275668
100
AcDbArc
 50
179.9962574915
 51
210.8518166693
  0
ARC
  5
430
100
AcDbEntity
  8
KONSTRUKTIONSELEMENTE
100
AcDbCircle
 62
7
  6
CONTINUOUS
 10
892.0247663498
 20
159.0454014922
 40
21.0691701492
100
AcDbArc
 50
310.9662598256
 51
314.9929763449
  0
ARC
  5
431
100
AcDbEntity
  8
0
100
AcDbCircle
 62
7
  6
CONTINUOUS
 10
1006.235905123
 20
122.6538504305
 40
10.0307486244
100
AcDbArc
 50
171.4748407657
 51
172.5870587401
  0
ARC
  5
432
100
AcDbEntity
  8
0
100
AcDbCircle
 62
7
  6
CONTINUOUS
 10
1012.675277895
 20
122.6538504308
 40
10.0307486217
100
AcDbArc
 50
7.4129412598
 51
8.5251592344
  0
ARC
  5
433
100
AcDbEntity
  8
0
100
AcDbCircle
 62
7
  6
CONTINUOUS
 10
1006.2011541198
 20
122.6582003581
 40
9.995726844
100
AcDbArc
 50
172.5860843603
 51
175.8209104182
  0
ARC
  5
434
100
AcDbEntity
  8
0
100
AcDbCircle
 62
7
  6
CONTINUOUS
 10
1012.7100288954
 20
122.6582003581
 40
9.9957268442
100
AcDbArc
 50
4.1790895818
 51
7.4139156397
  0
ARC
  5
435
100
AcDbEntity
  8
KONSTRUKTIONSELEMENTE
100
AcDbCircle
 62
7
  6
CONTINUOUS
 10
891.7021896917
 20
138.6683339768
 40
9.7117033242
100
AcDbArc
 50
310.892247018
 51
313.5021324676
  0
ARC
  5
436
100
AcDbEntity
  8
KONSTRUKTIONSELEMENTE
100
AcDbCircle
 62
7
  6
CONTINUOUS
 10
907.837633022
 20
154.2956803958
 40
9.598650573
100
AcDbArc
 50
180.0202934376
 51
192.4933992703
  0
ARC
  5
437
100
AcDbEntity
  8
KONSTRUKTIONSELEMENTE
100
AcDbCircle
 62
7
  6
CONTINUOUS
 10
881.946233433
 20
131.6649497159
 40
8.4848298484
100
AcDbArc
 50
180.0178910839
 51
187.0109099346
  0
ARC
  5
438
100
AcDbEntity
  8
KONSTRUKTIONSELEMENTE
100
AcDbCircle
 62
7
  6
CONTINUOUS
 10
909.6190348434
 20
155.9739347601
 40
5.1294977935
100
AcDbArc
 50
245.7170993298
 51
247.9133133151
  0
ARC
  5
439
100
AcDbEntity
  8
KONSTRUKTIONSELEMENTE
100
AcDbCircle
 62
7
  6
CONTINUOUS
 10
892.5775494433
 20
137.9932638235
 40
2.2420575641
100
AcDbArc
 50
12.5800915199
 51
17.0337973553
  0
ARC
  5
43A
100
AcDbEntity
  8
KONSTRUKTIONSELEMENTE
100
AcDbCircle
 62
7
  6
CONTINUOUS
 10
892.6304764573
 20
138.0051002628
 40
2.1878231702
100
AcDbArc
 50
10.6369882342
 51
12.5794484904
  0
ARC
  5
43B
100
AcDbEntity
  8
KONSTRUKTIONSELEMENTE
100
AcDbCircle
 62
7
  6
CONTINUOUS
 10
910.4848891521
 20
160.7021449018
 40
0.4379314743
100
AcDbArc
 50
301.7015992291
 51
310.9486150492
  0
ARC
  5
43C
100
AcDbEntity
  8
BEZUGSACHSEN
100
AcDbCircle
 62
7
  6
CONTINUOUS
 10
881.4099810344
 20
181.5755931453
 40
145.7483620131
100
AcDbArc
 50
13.3957966585
 51
13.6411306309
  0
ARC
  5
43D
100
AcDbEntity
  8
BEZUGSACHSEN
100
AcDbCircle
 62
7
  6
CONTINUOUS
 10
919.8071076063
 20
187.402881079
 40
107.4196194649
100
AcDbArc
 50
15.8694043115
 51
16.1524647806
  0
ARC
  5
43E
100
AcDbEntity
  8
BEZUGSACHSEN
100
AcDbCircle
 62
7
  6
CONTINUOUS
 10
922.1260619132
 20
191.0258707867
 40
104.1351467607
100
AcDbArc
 50
18.9476946883
 51
19.1082850764
  0
ARC
  5
43F
100
AcDbEntity
  8
BEZUGSACHSEN
100
AcDbCircle
 62
7
  6
CONTINUOUS
 10
967.1158532585
 20
188.3516070221
 40
62.1595870443
100
AcDbArc
 50
26.3658598161
 51
26.6431390865
  0
ARC
  5
440
100
AcDbEntity
  8
BEZUGSACHSEN
100
AcDbCircle
 62
7
  6
CONTINUOUS
 10
978.4212198114
 20
193.9397007056
 40
50.1932366329
100
AcDbArc
 50
33.1938272954
 51
33.5840244293
  0
ARC
  5
441
100
AcDbEntity
  8
BEZUGSACHSEN
100
AcDbCircle
 62
7
  6
CONTINUOUS
 10
993.4555915077
 20
162.6106451161
 40
5.0
100
AcDbArc
 50
97.8099595016
 51
179.9999999999
  0
ARC
  5
442
100
AcDbEntity
  8
KONSTRUKTIONSELEMENTE
100
AcDbCircle
 62
7
  6
CONTINUOUS
 10
906.1230437658
 20
165.0261169353
 40
0.4379314743
100
AcDbArc
 50
121.7015992288
 51
130.9486150495
  0
ARC
  5
443
100
AcDbEntity
  8
BEZUGSACHSEN
100
AcDbCircle
 62
7
  6
CONTINUOUS
 10
896.9168188333
 20
195.5500985799
 40
126.55893836
100
AcDbArc
 50
10.0893840285
 51
10.2809840795
  0
ARC
  5
444
100
AcDbEntity
  8
BEZUGSACHSEN
100
AcDbCircle
 62
7
  6
CONTINUOUS
 10
968.8173483495
 20
207.9936647951
 40
54.51128288
100
AcDbArc
 50
19.370939409
 51
19.6612181119
  0
ARC
  5
445
100
AcDbEntity
  8
BEZUGSACHSEN
100
AcDbCircle
 62
7
  6
CONTINUOUS
 10
977.9728096529
 20
207.2477661052
 40
45.9388591924
100
AcDbArc
 50
9.5811073363
 51
10.1483411037
  0
ARC
  5
446
100
AcDbEntity
  8
BEZUGSACHSEN
100
AcDbCircle
 62
7
  6
CONTINUOUS
 10
984.6889174359
 20
220.5476819635
 40
35.5058176439
100
AcDbArc
 50
358.7087813174
 51
1.5817003652
  0
ARC
  5
447
100
AcDbEntity
  8
BEZUGSACHSEN
100
AcDbCircle
 62
7
  6
CONTINUOUS
 10
985.6921735014
 20
219.5773917211
 40
34.8377654914
100
AcDbArc
 50
359.4162518036
 51
1.7342845683
  0
ARC
  5
448
100
AcDbEntity
  8
BEZUGSACHSEN
100
AcDbCircle
 62
7
  6
CONTINUOUS
 10
989.7425103484
 20
209.44584422
 40
34.0926106697
100
AcDbArc
 50
14.0911066437
 51
14.6041770291
  0
ARC
  5
449
100
AcDbEntity
  8
0
100
AcDbCircle
 62
7
  6
CONTINUOUS
 10
986.1161070761
 20
221.1573147449
 40
33.1634762505
100
AcDbArc
 50
357.5637166548
 51
0.6399657159
  0
ARC
  5
44A
100
AcDbEntity
  8
BEZUGSACHSEN
100
AcDbCircle
 62
7
  6
CONTINUOUS
 10
988.7013685773
 20
216.6668787267
 40
32.8341706176
100
AcDbArc
 50
359.3806601967
 51
1.8401798334
  0
ARC
  5
44B
100
AcDbEntity
  8
BEZUGSACHSEN
100
AcDbCircle
 62
7
  6
CONTINUOUS
 10
989.9168605244
 20
215.502752126
 40
32.0209202381
100
AcDbArc
 50
359.3648023607
 51
1.6212435454
  0
ARC
  5
44C
100
AcDbEntity
  8
BEZUGSACHSEN
100
AcDbCircle
 62
7
  6
CONTINUOUS
 10
993.6845479492
 20
211.4089824125
 40
29.6615025237
100
AcDbArc
 50
2.9343065391
 51
3.9390543374
  0
ARC
  5
44D
100
AcDbEntity
  8
BEZUGSACHSEN
100
AcDbCircle
 62
7
  6
CONTINUOUS
 10
994.111231957
 20
211.4288326897
 40
29.234397289
100
AcDbArc
 50
358.4303474903
 51
359.3027382558
  0
ARC
  5
44E
100
AcDbEntity
  8
BEZUGSACHSEN
100
AcDbCircle
 62
7
  6
CONTINUOUS
 10
1000.3863372771
 20
200.8309189848
 40
26.6914558178
100
AcDbArc
 50
31.2227972165
 51
31.7791270798
  0
ARC
  5
44F
100
AcDbEntity
  8
BEZUGSACHSEN
100
AcDbCircle
 62
7
  6
CONTINUOUS
 10
999.8242569395
 20
210.8154163435
 40
24.0585824387
100
AcDbArc
 50
13.5695593691
 51
14.3453298175
  0
ARC
  5
450
100
AcDbEntity
  8
BEZUGSACHSEN
100
AcDbCircle
 62
7
  6
CONTINUOUS
 10
1004.8659418204
 20
224.1668453798
 40
15.2622335373
100
AcDbArc
 50
3.5145713757
 51
4.6036006443
  0
ARC
  5
451
100
AcDbEntity
  8
BEZUGSACHSEN
100
AcDbCircle
 62
7
  6
CONTINUOUS
 10
1005.050545122
 20
224.1772886341
 40
15.0773709341
100
AcDbArc
 50
358.0173508907
 51
359.1173121494
  0
ARC
  5
452
100
AcDbEntity
  8
0
100
AcDbCircle
 62
7
  6
CONTINUOUS
 10
1005.1902289323
 20
224.5203170231
 40
14.089428416
100
AcDbArc
 50
2.3679910753
 51
3.5462841256
  0
ARC
  5
453
100
AcDbEntity
  8
0
100
AcDbCircle
 62
7
  6
CONTINUOUS
 10
1005.1902289484
 20
224.5271582049
 40
14.0894283999
100
AcDbArc
 50
356.453715874
 51
357.6320094872
  0
ARC
  5
454
100
AcDbEntity
  8
BEZUGSACHSEN
100
AcDbCircle
 62
7
  6
CONTINUOUS
 10
1007.6081884918
 20
213.5223161075
 40
12.488606826
100
AcDbArc
 50
142.7967757714
 51
143.3477696706
  0
ARC
  5
455
100
AcDbEntity
  8
BEZUGSACHSEN
100
AcDbCircle
 62
7
  6
CONTINUOUS
 10
1008.0524966138
 20
214.4501446615
 40
12.4201134645
100
AcDbArc
 50
177.9520137499
 51
178.84227622
  0
ARC
  5
456
100
AcDbEntity
  8
BEZUGSACHSEN
100
AcDbCircle
 62
7
  6
CONTINUOUS
 10
1006.4555915077
 20
209.1364144063
 40
12.0
100
AcDbArc
 50
161.8736837465
 51
180.0
  0
ARC
  5
457
100
AcDbEntity
  8
BEZUGSACHSEN
100
AcDbCircle
 62
7
  6
CONTINUOUS
 10
1008.4254007582
 20
225.5232296441
 40
9.502222854
100
AcDbArc
 50
176.2945009086
 51
181.8130987326
  0
ARC
  5
458
100
AcDbEntity
  8
BEZUGSACHSEN
100
AcDbCircle
 62
7
  6
CONTINUOUS
 10
1007.8997729727
 20
224.4716267079
 40
9.3118058439
100
AcDbArc
 50
177.6287163994
 51
182.0857542524
  0
ARC
  5
459
100
AcDbEntity
  8
BEZUGSACHSEN
100
AcDbCircle
 62
7
  6
CONTINUOUS
 10
1006.3670907503
 20
221.3166902276
 40
8.7847340352
100
AcDbArc
 50
181.0316826862
 51
182.2130070806
  0
ARC
  5
45A
100
AcDbEntity
  8
BEZUGSACHSEN
100
AcDbCircle
 62
7
  6
CONTINUOUS
 10
1006.3647042438
 20
221.3161943825
 40
8.7823451997
100
AcDbArc
 50
177.4844828596
 51
179.8475332944
  0
ARC
  5
45B
100
AcDbEntity
  8
BEZUGSACHSEN
100
AcDbCircle
 62
7
  6
CONTINUOUS
 10
1006.3521614729
 20
221.3163988144
 40
8.769801931
100
AcDbArc
 50
179.8486508447
 51
181.0315352948
  0
ARC
  5
45C
100
AcDbEntity
  8
BEZUGSACHSEN
100
AcDbCircle
 62
7
  6
CONTINUOUS
 10
1005.749331511
 20
220.054258405
 40
8.5692065925
100
AcDbArc
 50
177.4229713687
 51
181.7564670897
  0
ARC
  5
45D
100
AcDbEntity
  8
BEZUGSACHSEN
100
AcDbCircle
 62
7
  6
CONTINUOUS
 10
1003.6613090439
 20
215.633791232
 40
7.8891037118
100
AcDbArc
 50
175.5136534965
 51
177.1779791976
  0
ARC
  5
45E
100
AcDbEntity
  8
BEZUGSACHSEN
100
AcDbCircle
 62
7
  6
CONTINUOUS
 10
1002.8889744791
 20
224.4027670597
 40
4.5674564523
100
AcDbArc
 50
152.1869311999
 51
153.7717276841
  0
ARC
  5
45F
100
AcDbEntity
  8
BEZUGSACHSEN
100
AcDbCircle
 62
7
  6
CONTINUOUS
 10
997.9342146357
 20
216.2587783453
 40
2.2435609606
100
AcDbArc
 50
181.0960491451
 51
187.3548060858
  0
ARC
  5
460
100
AcDbEntity
  8
BEZUGSACHSEN
100
AcDbCircle
 62
7
  6
CONTINUOUS
 10
997.9247711308
 20
216.2569479704
 40
2.2341139838
100
AcDbArc
 50
174.780781007
 51
177.9204611631
  0
ARC
  5
461
100
AcDbEntity
  8
BEZUGSACHSEN
100
AcDbCircle
 62
7
  6
CONTINUOUS
 10
997.909498389
 20
216.2576151543
 40
2.2188270933
100
AcDbArc
 50
177.9233673636
 51
181.0782265865
  0
ARC
  5
462
100
AcDbEntity
  8
BEZUGSACHSEN
100
AcDbCircle
 62
7
  6
CONTINUOUS
 10
1137.5012019809
 20
181.5755931453
 40
145.7483620131
100
AcDbArc
 50
166.3588693691
 51
166.6042033415
  0
ARC
  5
463
100
AcDbEntity
  8
BEZUGSACHSEN
100
AcDbCircle
 62
7
  6
CONTINUOUS
 10
1099.104075409
 20
187.402881079
 40
107.4196194649
100
AcDbArc
 50
163.8475352194
 51
164.1305956885
  0
ARC
  5
464
100
AcDbEntity
  8
RUNDUNGEN
100
AcDbCircle
 62
7
  6
CONTINUOUS
 10
1025.4555915077
 20
162.6106451161
 40
5.0
100
AcDbArc
 50
0.0000000001
 51
82.1900404984
  0
ARC
  5
465
100
AcDbEntity
  8
BEZUGSACHSEN
100
AcDbCircle
 62
7
  6
CONTINUOUS
 10
1074.356512379
 20
209.4674614777
 40
77.168694774
100
AcDbArc
 50
169.0447898763
 51
169.2289093977
  0
ARC
  5
466
100
AcDbEntity
  8
BEZUGSACHSEN
100
AcDbCircle
 62
7
  6
CONTINUOUS
 10
1050.5717001608
 20
207.823593641
 40
55.0185099343
100
AcDbArc
 50
160.2432726315
 51
160.4694258061
  0
ARC
  5
467
100
AcDbEntity
  8
BEZUGSACHSEN
100
AcDbCircle
 62
7
  6
CONTINUOUS
 10
1040.8192619122
 20
207.2682269169
 40
45.8180036607
100
AcDbArc
 50
169.9928598033
 51
170.41933042
  0
ARC
  5
468
100
AcDbEntity
  8
BEZUGSACHSEN
100
AcDbCircle
 62
7
  6
CONTINUOUS
 10
1041.0613080109
 20
218.8143900772
 40
42.6179080542
100
AcDbArc
 50
171.3519824337
 51
171.8967991633
  0
ARC
  5
469
100
AcDbEntity
  8
BEZUGSACHSEN
100
AcDbCircle
 62
7
  6
CONTINUOUS
 10
1034.19603391
 20
200.3774467141
 40
41.7569131243
100
AcDbArc
 50
151.6106435468
 51
151.9961422354
  0
ARC
  5
46A
100
AcDbEntity
  8
BEZUGSACHSEN
100
AcDbCircle
 62
7
  6
CONTINUOUS
 10
1010.1218339211
 20
215.6919077272
 40
12.7547241249
100
AcDbArc
 50
1.1268033316
 51
1.7769451288
  0
ARC
  5
46B
100
AcDbEntity
  8
BEZUGSACHSEN
100
AcDbCircle
 62
7
  6
CONTINUOUS
 10
1010.8626733559
 20
214.4502444739
 40
12.4161253073
100
AcDbArc
 50
1.1576350097
 51
1.8255193931
  0
ARC
  5
46C
100
AcDbEntity
  8
BEZUGSACHSEN
100
AcDbCircle
 62
7
  6
CONTINUOUS
 10
1012.4555915077
 20
209.1364144063
 40
12.0
100
AcDbArc
 50
0.0
 51
18.1263162535
  0
ARC
  5
46D
100
AcDbEntity
  8
BEZUGSACHSEN
100
AcDbCircle
 62
7
  6
CONTINUOUS
 10
1011.566394922
 20
224.2928884936
 40
9.0477125074
100
AcDbArc
 50
342.2045327723
 51
343.3768271038
  0
ARC
  5
46E
100
AcDbEntity
  8
BEZUGSACHSEN
100
AcDbCircle
 62
7
  6
CONTINUOUS
 10
1012.2757195134
 20
221.5049781582
 40
9.0032478099
100
AcDbArc
 50
23.6386450087
 51
24.5651936384
  0
ARC
  5
46F
100
AcDbEntity
  8
0
100
AcDbCircle
 62
7
  6
CONTINUOUS
 10
1010.895606937
 20
224.6811373247
 40
8.9554662001
100
AcDbArc
 50
339.3828807334
 51
340.5869502378
  0
ARC
  5
470
100
AcDbEntity
  8
BEZUGSACHSEN
100
AcDbCircle
 62
7
  6
CONTINUOUS
 10
1021.3496579951
 20
209.0702937357
 40
7.039481336
100
AcDbArc
 50
77.4932392028
 51
78.0321457449
  0
ARC
  5
471
100
AcDbEntity
  8
BEZUGSACHSEN
100
AcDbCircle
 62
7
  6
CONTINUOUS
 10
1017.6009568038
 20
226.7936599062
 40
6.8157932484
100
AcDbArc
 50
295.3022427166
 51
295.85682345
  0
ARC
  5
472
100
AcDbEntity
  8
BEZUGSACHSEN
100
AcDbCircle
 62
7
  6
CONTINUOUS
 10
1016.0222085362
 20
224.4027670597
 40
4.5674564523
100
AcDbArc
 50
26.2282723159
 51
27.8130688001
  0
ARC
  5
473
100
AcDbEntity
  8
BEZUGSACHSEN
100
AcDbCircle
 62
7
  6
CONTINUOUS
 10
1017.3595306182
 20
226.3314373034
 40
2.7100495897
100
AcDbArc
 50
353.9388587974
 51
4.2842232918
  0
ARC
  5
474
100
AcDbEntity
  8
BEZUGSACHSEN
100
AcDbCircle
 62
7
  6
CONTINUOUS
 10
1017.8308543721
 20
225.0453097648
 40
2.6409989473
100
AcDbArc
 50
356.4423812452
 51
4.3991086754
  0
ARC
  5
475
100
AcDbEntity
  8
0
100
AcDbCircle
 62
7
  6
CONTINUOUS
 10
1016.7491767946
 20
226.4536231831
 40
2.5303593377
100
AcDbArc
 50
350.7132299775
 51
1.8177962605
  0
ARC
  5
476
100
AcDbEntity
  8
BEZUGSACHSEN
100
AcDbCircle
 62
7
  6
CONTINUOUS
 10
1022.1115768
 20
216.8206234768
 40
2.4184543607
100
AcDbArc
 50
297.059021786
 51
298.7888728844
  0
ARC
  5
477
100
AcDbEntity
  8
BEZUGSACHSEN
100
AcDbCircle
 62
7
  6
CONTINUOUS
 10
1020.5282318042
 20
217.5436013932
 40
2.2900144591
100
AcDbArc
 50
355.8964481643
 51
5.0752048417
  0
ARC
  5
478
100
AcDbEntity
  8
BEZUGSACHSEN
100
AcDbCircle
 62
7
  6
CONTINUOUS
 10
1020.9626006164
 20
216.2603248991
 40
2.2580085124
100
AcDbArc
 50
352.6529441923
 51
355.7684979538
  0
ARC
  5
479
100
AcDbEntity
  8
BEZUGSACHSEN
100
AcDbCircle
 62
7
  6
CONTINUOUS
 10
1020.9864118846
 20
216.2569479704
 40
2.2341139838
100
AcDbArc
 50
2.0795388369
 51
5.219218993
  0
ARC
  5
47A
100
AcDbEntity
  8
BEZUGSACHSEN
100
AcDbCircle
 62
7
  6
CONTINUOUS
 10
1020.9964590141
 20
216.2576770986
 40
2.2240470432
100
AcDbArc
 50
355.7721636031
 51
2.0701596993
  0
ARC
  5
47B
100
AcDbEntity
  8
BEZUGSACHSEN
100
AcDbCircle
 62
7
  6
CONTINUOUS
 10
1398.7966103309
 20
96.4693281485
 40
420.5976818558
100
AcDbArc
 50
163.1729974699
 51
163.306554826
  0
ARC
  5
47C
100
AcDbEntity
  8
BEZUGSACHSEN
100
AcDbCircle
 62
7
  6
CONTINUOUS
 10
1227.493837192
 20
150.5878757143
 40
240.9548956235
100
AcDbArc
 50
161.7430178987
 51
161.9371886541
  0
ARC
  5
47D
100
AcDbEntity
  8
BEZUGSACHSEN
100
AcDbCircle
 62
7
  6
CONTINUOUS
 10
1241.8000980515
 20
164.9649242566
 40
250.196708764
100
AcDbArc
 50
166.1583870306
 51
166.3265625903
  0
ARC
  5
47E
100
AcDbEntity
  8
0
100
AcDbCircle
 62
7
  6
CONTINUOUS
 10
1009.4555915077
 20
834.9316706519
 40
25.5
100
AcDbArc
 50
0.0
 51
180.0
  0
ARC
  5
47F
100
AcDbEntity
  8
0
100
AcDbCircle
 62
7
  6
CONTINUOUS
 10
1009.4555915077
 20
323.9316706519
 40
25.5
100
AcDbArc
 50
180.0
 51
360.0
  0
ARC
  5
480
100
AcDbEntity
  8
BEZUGSACHSEN
100
AcDbCircle
 62
7
  6
CONTINUOUS
 10
2716.7462948047
 20
-289.4092672911
 40
1793.3709849213
100
AcDbArc
 50
163.5047984824
 51
163.6407544486
  0
SPLINE
  5
481
100
AcDbEntity
  8
KONSTRUKTIONSELEMENTE
100
AcDbSpline
 62
7
  6
CONTINUOUS
 70
0
 71
3
 72
9
 73
5
 74
0
 42
0.0000001
 43
0.0000001
 44
0.0000000001
 40
0.0
 40
0.0
 40
0.0
 40
0.0
 40
0.4997239798
 40
1.0
 40
1.0
 40
1.0
 40
1.0
 10
114.3678166837
 20
132.1097248086
 30
0.0
 10
114.5870279901
 20
132.489409929
 30
0.0
 10
115.1018746782
 20
133.2076906297
 30
0.0
 10
115.745770772
 20
133.8123388688
 30
0.0
 10
116.0921931615
 20
134.0818399355
 30
0.0
  0
SPLINE
  5
482
100
AcDbEntity
  8
KONSTRUKTIONSELEMENTE
100
AcDbSpline
 62
7
  6
CONTINUOUS
 70
0
 71
3
 72
9
 73
5
 74
0
 42
0.0000001
 43
0.0000001
 44
0.0000000001
 40
0.0
 40
0.0
 40
0.0
 40
0.0
 40
0.5003323509
 40
1.0
 40
1.0
 40
1.0
 40
1.0
 10
132.8794521374
 20
124.3816015834
 30
0.0
 10
132.8189395045
 20
123.9481104185
 30
0.0
 10
132.6170237047
 20
123.090855651
 30
0.0
 10
132.253291367
 20
122.2882756776
 30
0.0
 10
132.0347349209
 20
121.9097248086
 30
0.0
  0
SPLINE
  5
483
100
AcDbEntity
  8
KONSTRUKTIONSELEMENTE
100
AcDbSpline
 62
7
  6
CONTINUOUS
 70
0
 71
3
 72
10
 73
6
 74
0
 42
0.0000001
 43
0.0000001
 44
0.0000000001
 40
0.0
 40
0.0
 40
0.0
 40
0.0
 40
0.2488347756
 40
0.5438407514
 40
1.0
 40
1.0
 40
1.0
 40
1.0
 10
119.9103792679
 20
128.9097248086
 30
0.0
 10
119.9529013986
 20
128.9833752993
 30
0.0
 10
120.1072731038
 20
129.102977482
 30
0.0
 10
120.419502116
 20
129.2389615065
 30
0.0
 10
120.6735867861
 20
129.2931568345
 30
0.0
 10
120.8280488486
 20
129.3142936151
 30
0.0
  0
SPLINE
  5
484
100
AcDbEntity
  8
KONSTRUKTIONSELEMENTE
100
AcDbSpline
 62
7
  6
CONTINUOUS
 70
0
 71
3
 72
10
 73
6
 74
0
 42
0.0000001
 43
0.0000001
 44
0.0000000001
 40
0.0
 40
0.0
 40
0.0
 40
0.0
 40
0.4561635586
 40
0.7511952336
 40
1.0
 40
1.0
 40
1.0
 40
1.0
 10
126.3836171684
 20
126.1069749024
 30
0.0
 10
126.4425775198
 20
125.9626095012
 30
0.0
 10
126.522703336
 20
125.7153937631
 30
0.0
 10
126.5610810508
 20
125.3769264539
 30
0.0
 10
126.5346997815
 20
125.1833845038
 30
0.0
 10
126.4921723367
 20
125.1097248086
 30
0.0
  0
SPLINE
  5
485
100
AcDbEntity
  8
KONSTRUKTIONSELEMENTE
100
AcDbSpline
 62
7
  6
CONTINUOUS
 70
0
 71
3
 72
9
 73
5
 74
0
 42
0.0000001
 43
0.0000001
 44
0.0000000001
 40
0.0
 40
0.0
 40
0.0
 40
0.0
 40
0.2752644152
 40
1.0
 40
1.0
 40
1.0
 40
1.0
 10
122.8152170745
 20
118.7410514773
 30
0.0
 10
122.7867681431
 20
118.6917764827
 30
0.0
 10
122.6326271777
 20
118.5454528295
 30
0.0
 10
122.4368374207
 20
118.4656531505
 30
0.0
 10
122.293605035
 20
118.4217676765
 30
0.0
  0
SPLINE
  5
486
100
AcDbEntity
  8
KONSTRUKTIONSELEMENTE
100
AcDbSpline
 62
7
  6
CONTINUOUS
 70
0
 71
3
 72
9
 73
5
 74
0
 42
0.0000001
 43
0.0000001
 44
0.0000000001
 40
0.0
 40
0.0
 40
0.0
 40
0.0
 40
0.7247302759
 40
1.0
 40
1.0
 40
1.0
 40
1.0
 10
116.2177133529
 20
121.9297199038
 30
0.0
 10
116.1841194853
 20
122.0756981812
 30
0.0
 10
116.1553262951
 20
122.2851405774
 30
0.0
 10
116.2049763747
 20
122.491778735
 30
0.0
 10
116.2334240057
 20
122.5410514773
 30
0.0
  0
SPLINE
  5
487
100
AcDbEntity
  8
KONSTRUKTIONSELEMENTE
100
AcDbSpline
 62
7
  6
CONTINUOUS
 70
0
 71
3
 72
13
 73
9
 74
0
 42
0.0000001
 43
0.0000001
 44
0.0000000001
 40
0.0
 40
0.0
 40
0.0
 40
0.0
 40
0.1208023438
 40
0.2417405165
 40
0.3635818662
 40
0.4866533049
 40
0.7381983824
 40
1.0
 40
1.0
 40
1.0
 40
1.0
 10
128.3577796587
 20
115.5410514773
 30
0.0
 10
128.1381172927
 20
115.1605850989
 30
0.0
 10
127.6218393764
 20
114.4406757142
 30
0.0
 10
126.651762552
 20
113.5309746673
 30
0.0
 10
125.523295059
 20
112.8120331912
 30
0.0
 10
123.8468733231
 20
112.1204510022
 30
0.0
 10
121.5200490396
 20
111.7775660858
 30
0.0
 10
119.6463306355
 20
112.0201233841
 30
0.0
 10
118.7227548777
 20
112.25142935
 30
0.0
  0
SPLINE
  5
488
100
AcDbEntity
  8
KONSTRUKTIONSELEMENTE
100
AcDbSpline
 62
7
  6
CONTINUOUS
 70
0
 71
3
 72
13
 73
9
 74
0
 42
0.0000001
 43
0.0000001
 44
0.0000000001
 40
0.0
 40
0.0
 40
0.0
 40
0.0
 40
0.2618007603
 40
0.5133270374
 40
0.6363939503
 40
0.7582240297
 40
0.8791948111
 40
1.0
 40
1.0
 40
1.0
 40
1.0
 10
112.6560160163
 20
115.7556706438
 30
0.0
 10
111.9944730253
 20
116.4397934991
 30
0.0
 10
110.8486939766
 20
117.9409055557
 30
0.0
 10
109.9834380179
 20
120.126635838
 30
0.0
 10
109.7446612164
 20
121.9233423291
 30
0.0
 10
109.8031630474
 20
123.2595452037
 30
0.0
 10
110.1061275561
 20
124.5539295596
 30
0.0
 10
110.4712939236
 20
125.3607494153
 30
0.0
 10
110.6908614215
 20
125.7410514773
 30
0.0
  0
SPLINE
  5
489
100
AcDbEntity
  8
KONSTRUKTIONSELEMENTE
100
AcDbSpline
 62
7
  6
CONTINUOUS
 70
0
 71
3
 72
11
 73
7
 74
0
 42
0.0000001
 43
0.0000001
 44
0.0000000001
 40
0.0
 40
0.0
 40
0.0
 40
0.0
 40
0.2408269973
 40
0.4857221347
 40
0.7381457264
 40
1.0
 40
1.0
 40
1.0
 40
1.0
 10
127.5935336862
 20
154.8980408928
 30
0.0
 10
128.0839612507
 20
155.5341031356
 30
0.0
 10
129.3167519471
 20
156.6446292331
 30
0.0
 10
131.6210592538
 20
157.6145245137
 30
0.0
 10
134.1670817754
 20
157.8950305125
 30
0.0
 10
135.8836218863
 20
157.6569179585
 30
0.0
 10
136.7307635261
 20
157.444754621
 30
0.0
  0
SPLINE
  5
48A
100
AcDbEntity
  8
KONSTRUKTIONSELEMENTE
100
AcDbSpline
 62
7
  6
CONTINUOUS
 70
0
 71
3
 72
11
 73
7
 74
0
 42
0.0000001
 43
0.0000001
 44
0.0000000001
 40
0.0
 40
0.0
 40
0.0
 40
0.0
 40
0.2618508936
 40
0.5142522512
 40
0.7591278735
 40
1.0
 40
1.0
 40
1.0
 40
1.0
 10
142.7975023874
 20
153.9405133272
 30
0.0
 10
143.4042642678
 20
153.3130413779
 30
0.0
 10
144.4676340016
 20
151.9458650243
 30
0.0
 10
145.4963505196
 20
149.6017068481
 30
0.0
 10
145.8081214789
 20
147.1223749142
 30
0.0
 10
145.462645883
 20
145.5002891368
 30
0.0
 10
145.1571323779
 20
144.7577574704
 30
0.0
  0
SPLINE
  5
48B
100
AcDbEntity
  8
KONSTRUKTIONSELEMENTE
100
AcDbSpline
 62
7
  6
CONTINUOUS
 70
0
 71
3
 72
10
 73
6
 74
0
 42
0.0000001
 43
0.0000001
 44
0.0000000001
 40
0.0
 40
0.0
 40
0.0
 40
0.0
 40
0.1272436481
 40
0.4453575144
 40
1.0
 40
1.0
 40
1.0
 40
1.0
 10
132.6383013293
 20
150.9551324936
 30
0.0
 10
132.6452155481
 20
150.9671082719
 30
0.0
 10
132.6717737761
 20
151.0077884288
 30
0.0
 10
132.7515388991
 20
151.0832417069
 30
0.0
 10
132.831851805
 20
151.134675643
 30
0.0
 10
132.8849948122
 20
151.1631205471
 30
0.0
  0
SPLINE
  5
48C
100
AcDbEntity
  8
KONSTRUKTIONSELEMENTE
100
AcDbSpline
 62
7
  6
CONTINUOUS
 70
0
 71
3
 72
9
 73
5
 74
0
 42
0.0000001
 43
0.0000001
 44
0.0000000001
 40
0.0
 40
0.0
 40
0.0
 40
0.0
 40
0.2191738299
 40
1.0
 40
1.0
 40
1.0
 40
1.0
 10
132.8849948122
 20
151.1631205471
 30
0.0
 10
132.8988281224
 20
151.1705248548
 30
0.0
 10
132.9626447568
 20
151.2029945174
 30
0.0
 10
133.0291516752
 20
151.2300545664
 30
0.0
 10
133.0818474948
 20
151.2487020894
 30
0.0
  0
SPLINE
  5
48D
100
AcDbEntity
  8
KONSTRUKTIONSELEMENTE
100
AcDbSpline
 62
7
  6
CONTINUOUS
 70
0
 71
3
 72
9
 73
5
 74
0
 42
0.0000001
 43
0.0000001
 44
0.0000000001
 40
0.0
 40
0.0
 40
0.0
 40
0.0
 40
0.7158791495
 40
1.0
 40
1.0
 40
1.0
 40
1.0
 10
139.2528649387
 20
147.6843582279
 30
0.0
 10
139.2761160501
 20
147.5583452462
 30
0.0
 10
139.2930346525
 20
147.3762690771
 30
0.0
 10
139.2455227645
 20
147.1991757164
 30
0.0
 10
139.220094398
 20
147.1551324936
 30
0.0
  0
SPLINE
  5
48E
100
AcDbEntity
  8
KONSTRUKTIONSELEMENTE
100
AcDbSpline
 62
7
  6
CONTINUOUS
 70
0
 71
3
 72
9
 73
5
 74
0
 42
0.0000001
 43
0.0000001
 44
0.0000000001
 40
0.0
 40
0.0
 40
0.0
 40
0.0
 40
0.2358334554
 40
1.0
 40
1.0
 40
1.0
 40
1.0
 10
126.6323844842
 20
184.8160344744
 30
0.0
 10
127.0800312387
 20
183.7732666042
 30
0.0
 10
129.221791818
 20
179.4571169907
 30
0.0
 10
132.2412754613
 20
175.603541167
 30
0.0
 10
134.8334266371
 20
172.9955911904
 30
0.0
  0
SPLINE
  5
48F
100
AcDbEntity
  8
KONSTRUKTIONSELEMENTE
100
AcDbSpline
 62
7
  6
CONTINUOUS
 70
0
 71
3
 72
9
 73
5
 74
0
 42
0.0000001
 43
0.0000001
 44
0.0000000001
 40
0.0
 40
0.0
 40
0.0
 40
0.0
 40
0.2639358111
 40
1.0
 40
1.0
 40
1.0
 40
1.0
 10
157.2140085977
 20
160.0753693136
 30
0.0
 10
158.4413304247
 20
159.7506113987
 30
0.0
 10
163.1369722506
 20
158.7134576807
 30
0.0
 10
168.0332176262
 20
158.4671327731
 30
0.0
 10
171.5490843791
 20
158.8845038076
 30
0.0
  0
SPLINE
  5
490
100
AcDbEntity
  8
KONSTRUKTIONSELEMENTE
100
AcDbSpline
 62
7
  6
CONTINUOUS
 70
0
 71
3
 72
9
 73
5
 74
0
 42
0.0000001
 43
0.0000001
 44
0.0000000001
 40
0.0
 40
0.0
 40
0.0
 40
0.0
 40
0.4902367365
 40
1.0
 40
1.0
 40
1.0
 40
1.0
 10
122.7801921016
 20
175.1810615703
 30
0.0
 10
124.7287188561
 20
172.2070859896
 30
0.0
 10
129.4147336232
 20
166.5899168553
 30
0.0
 10
135.1099702386
 20
162.0204500704
 30
0.0
 10
138.1965154809
 20
159.9853563355
 30
0.0
  0
SPLINE
  5
491
100
AcDbEntity
  8
KONSTRUKTIONSELEMENTE
100
AcDbSpline
 62
7
  6
CONTINUOUS
 70
0
 71
3
 72
9
 73
5
 74
0
 42
0.0000001
 43
0.0000001
 44
0.0000000001
 40
0.0
 40
0.0
 40
0.0
 40
0.0
 40
0.5097684429
 40
1.0
 40
1.0
 40
1.0
 40
1.0
 10
144.2610864508
 20
156.4839550031
 30
0.0
 10
147.567648914
 20
154.8280382607
 30
0.0
 10
154.3742900506
 20
152.1799862151
 30
0.0
 10
161.5838241367
 20
150.9305969917
 30
0.0
 10
165.1344885184
 20
150.7304385034
 30
0.0
  0
SPLINE
  5
492
100
AcDbEntity
  8
KONSTRUKTIONSELEMENTE
100
AcDbSpline
 62
7
  6
CONTINUOUS
 70
0
 71
3
 72
12
 73
8
 74
0
 42
0.0000001
 43
0.0000001
 44
0.0000000001
 40
0.0
 40
0.0
 40
0.0
 40
0.0
 40
0.1038096184
 40
0.2125411153
 40
0.4501979882
 40
0.7163641136
 40
1.0
 40
1.0
 40
1.0
 40
1.0
 10
41.9175464578
 20
6.3746299605
 30
0.0
 10
42.0493924834
 20
6.7346628606
 30
0.0
 10
42.2246662549
 20
7.5095957135
 30
0.0
 10
42.1998574061
 20
9.1848803174
 30
0.0
 10
41.4325392675
 20
11.3760556869
 30
0.0
 10
39.6318524041
 20
13.7050750509
 30
0.0
 10
37.9917856687
 20
14.9473721415
 30
0.0
 10
37.0845433149
 20
15.4711687587
 30
0.0
  0
SPLINE
  5
493
100
AcDbEntity
  8
KONSTRUKTIONSELEMENTE
100
AcDbSpline
 62
7
  6
CONTINUOUS
 70
0
 71
3
 72
9
 73
5
 74
0
 42
0.0000001
 43
0.0000001
 44
0.0000000001
 40
0.0
 40
0.0
 40
0.0
 40
0.0
 40
0.7446194581
 40
1.0
 40
1.0
 40
1.0
 40
1.0
 10
52.642426843
 20
95.2321401936
 30
0.0
 10
52.734389748
 20
95.3915578738
 30
0.0
 10
52.8217132608
 20
95.6291900851
 30
0.0
 10
52.8568921968
 20
95.8739422095
 30
0.0
 10
52.8627456216
 20
95.9367904413
 30
0.0
  0
SPLINE
  5
494
100
AcDbEntity
  8
KONSTRUKTIONSELEMENTE
100
AcDbSpline
 62
7
  6
CONTINUOUS
 70
0
 71
3
 72
11
 73
7
 74
0
 42
0.0000001
 43
0.0000001
 44
0.0000000001
 40
0.0
 40
0.0
 40
0.0
 40
0.0
 40
0.2165107186
 40
0.451460212
 40
0.7134365312
 40
1.0
 40
1.0
 40
1.0
 40
1.0
 10
37.8920119784
 20
102.4472806725
 30
0.0
 10
38.0151046875
 20
102.6606618629
 30
0.0
 10
38.380002038
 20
103.0492908655
 30
0.0
 10
39.1436814892
 20
103.3733164607
 30
0.0
 10
40.0446609093
 20
103.4426025083
 30
0.0
 10
40.6650320575
 20
103.3253145576
 30
0.0
 10
40.9767283343
 20
103.2296583538
 30
0.0
  0
SPLINE
  5
495
100
AcDbEntity
  8
KONSTRUKTIONSELEMENTE
100
AcDbSpline
 62
7
  6
CONTINUOUS
 70
0
 71
3
 72
11
 73
7
 74
0
 42
0.0000001
 43
0.0000001
 44
0.0000000001
 40
0.0
 40
0.0
 40
0.0
 40
0.0
 40
0.2165219707
 40
0.4514695353
 40
0.7134663306
 40
1.0
 40
1.0
 40
1.0
 40
1.0
 10
41.0538909576
 20
129.0046513212
 30
0.0
 10
41.4644737893
 20
129.7155700968
 30
0.0
 10
42.6809804549
 20
131.0101930565
 30
0.0
 10
45.2263319579
 20
132.0892917383
 30
0.0
 10
48.2287918841
 20
132.3195094176
 30
0.0
 10
50.2961016484
 20
131.9286856138
 30
0.0
 10
51.3347148407
 20
131.6099464994
 30
0.0
  0
SPLINE
  5
496
100
AcDbEntity
  8
KONSTRUKTIONSELEMENTE
100
AcDbSpline
 62
7
  6
CONTINUOUS
 70
0
 71
3
 72
9
 73
5
 74
0
 42
0.0000001
 43
0.0000001
 44
0.0000000001
 40
0.0
 40
0.0
 40
0.0
 40
0.0
 40
0.24703719
 40
1.0
 40
1.0
 40
1.0
 40
1.0
 10
39.2861240046
 20
125.9427891427
 30
0.0
 10
39.1841984853
 20
125.7663064459
 30
0.0
 10
38.811001204
 20
125.0294570949
 30
0.0
 10
38.6077690236
 20
124.2098286502
 30
0.0
 10
38.5501641063
 20
123.5913245577
 30
0.0
  0
SPLINE
  5
497
100
AcDbEntity
  8
KONSTRUKTIONSELEMENTE
100
AcDbSpline
 62
7
  6
CONTINUOUS
 70
0
 71
3
 72
9
 73
5
 74
0
 42
0.0000001
 43
0.0000001
 44
0.0000000001
 40
0.0
 40
0.0
 40
0.0
 40
0.0
 40
0.24703719
 40
1.0
 40
1.0
 40
1.0
 40
1.0
 10
97.1297311335
 20
4.9919925474
 30
0.0
 10
97.2316068726
 20
5.1685039849
 30
0.0
 10
97.6831384887
 20
5.8601269866
 30
0.0
 10
98.2913414532
 20
6.44594544
 30
0.0
 10
98.798179251
 20
6.805084808
 30
0.0
  0
SPLINE
  5
498
100
AcDbEntity
  8
KONSTRUKTIONSELEMENTE
100
AcDbSpline
 62
7
  6
CONTINUOUS
 70
0
 71
3
 72
11
 73
7
 74
0
 42
0.0000001
 43
0.0000001
 44
0.0000000001
 40
0.0
 40
0.0
 40
0.0
 40
0.0
 40
0.2197559531
 40
0.4591847907
 40
0.7203727702
 40
1.0
 40
1.0
 40
1.0
 40
1.0
 10
98.2650803423
 20
6.3880574189
 30
0.0
 10
98.1208081577
 20
5.698840592
 30
0.0
 10
98.0807560293
 20
4.197054174
 30
0.0
 10
98.7114012569
 20
1.9490199997
 30
0.0
 10
99.9620332206
 20
-0.2399994533
 30
0.0
 10
101.1257198731
 20
-1.5418726332
 30
0.0
 10
101.7816582193
 20
-2.1522475178
 30
0.0
  0
SPLINE
  5
499
100
AcDbEntity
  8
KONSTRUKTIONSELEMENTE
100
AcDbSpline
 62
7
  6
CONTINUOUS
 70
0
 71
3
 72
11
 73
7
 74
0
 42
0.0000001
 43
0.0000001
 44
0.0000000001
 40
0.0
 40
0.0
 40
0.0
 40
0.0
 40
0.2094829334
 40
0.4446557434
 40
0.7120095299
 40
1.0
 40
1.0
 40
1.0
 40
1.0
 10
26.8943408241
 20
-10.9787796949
 30
0.0
 10
26.739723628
 20
-11.2465845343
 30
0.0
 10
26.5815665313
 20
-11.9221853503
 30
0.0
 10
26.8672244151
 20
-12.9653091555
 30
0.0
 10
27.5584774739
 20
-13.9283118017
 30
0.0
 10
28.2173288971
 20
-14.4370459321
 30
0.0
 10
28.5854984676
 20
-14.6496087327
 30
0.0
  0
SPLINE
  5
49A
100
AcDbEntity
  8
KONSTRUKTIONSELEMENTE
100
AcDbSpline
 62
7
  6
CONTINUOUS
 70
0
 71
3
 72
10
 73
6
 74
0
 42
0.0000001
 43
0.0000001
 44
0.0000000001
 40
0.0
 40
0.0
 40
0.0
 40
0.0
 40
0.2176045202
 40
0.4537200981
 40
1.0
 40
1.0
 40
1.0
 40
1.0
 10
112.2857641684
 20
-12.6789810264
 30
0.0
 10
112.3268081562
 20
-12.6078774107
 30
0.0
 10
112.3780794887
 20
-12.4376836118
 30
0.0
 10
112.331150431
 20
-12.0557530754
 30
0.0
 10
112.1482493656
 20
-11.7987438857
 30
0.0
 10
111.9973651126
 20
-11.6583405094
 30
0.0
  0
SPLINE
  5
49B
100
AcDbEntity
  8
KONSTRUKTIONSELEMENTE
100
AcDbSpline
 62
7
  6
CONTINUOUS
 70
0
 71
3
 72
9
 73
5
 74
0
 42
0.0000001
 43
0.0000001
 44
0.0000000001
 40
0.0
 40
0.0
 40
0.0
 40
0.0
 40
0.2557501763
 40
1.0
 40
1.0
 40
1.0
 40
1.0
 10
181.426176765
 20
34.4408013575
 30
0.0
 10
181.5982247819
 20
34.562712581
 30
0.0
 10
182.2468478036
 20
35.0722904653
 30
0.0
 10
182.7871750323
 20
35.7214184151
 30
0.0
 10
183.0940026537
 20
36.2528220474
 30
0.0
  0
SPLINE
  5
49C
100
AcDbEntity
  8
KONSTRUKTIONSELEMENTE
100
AcDbSpline
 62
7
  6
CONTINUOUS
 70
0
 71
3
 72
9
 73
5
 74
0
 42
0.0000001
 43
0.0000001
 44
0.0000000001
 40
0.0
 40
0.0
 40
0.0
 40
0.0
 40
0.5421687125
 40
1.0
 40
1.0
 40
1.0
 40
1.0
 10
178.6475959409
 20
33.759994696
 30
0.0
 10
178.852725205
 20
33.569114331
 30
0.0
 10
179.3278814504
 20
33.3120249784
 30
0.0
 10
179.9046113527
 20
33.3626378053
 30
0.0
 10
180.0976719537
 20
33.4994383015
 30
0.0
  0
SPLINE
  5
49D
100
AcDbEntity
  8
KONSTRUKTIONSELEMENTE
100
AcDbSpline
 62
7
  6
CONTINUOUS
 70
0
 71
3
 72
8
 73
4
 74
0
 42
0.0000001
 43
0.0000001
 44
0.0000000001
 40
0.0
 40
0.0
 40
0.0
 40
0.0
 40
1.0
 40
1.0
 40
1.0
 40
1.0
 10
110.3511693612
 20
-15.9221221383
 30
0.0
 10
110.4181734154
 20
-15.8746438449
 30
0.0
 10
110.4769428817
 20
-15.8119647439
 30
0.0
 10
110.5179972154
 20
-15.7408432049
 30
0.0
  0
SPLINE
  5
49E
100
AcDbEntity
  8
KONSTRUKTIONSELEMENTE
100
AcDbSpline
 62
7
  6
CONTINUOUS
 70
0
 71
3
 72
11
 73
7
 74
0
 42
0.0000001
 43
0.0000001
 44
0.0000000001
 40
0.0
 40
0.0
 40
0.0
 40
0.0
 40
0.2773556544
 40
0.5416273378
 40
0.7832845041
 40
1.0
 40
1.0
 40
1.0
 40
1.0
 10
94.9480125336
 20
-17.936320771
 30
0.0
 10
95.935455612
 20
-18.5064212981
 30
0.0
 10
97.9927591422
 20
-19.4131054696
 30
0.0
 10
101.1877019121
 20
-20.0143466271
 30
0.0
 10
104.1888230397
 20
-19.7887940305
 30
0.0
 10
105.968418071
 20
-19.027688722
 30
0.0
 10
106.6953359019
 20
-18.5126032026
 30
0.0
  0
SPLINE
  5
49F
100
AcDbEntity
  8
KONSTRUKTIONSELEMENTE
100
AcDbSpline
 62
7
  6
CONTINUOUS
 70
0
 71
3
 72
12
 73
8
 74
0
 42
0.0000001
 43
0.0000001
 44
0.0000000001
 40
0.0
 40
0.0
 40
0.0
 40
0.0
 40
0.2874378001
 40
0.5543027143
 40
0.7890463209
 40
0.896415877
 40
1.0
 40
1.0
 40
1.0
 40
1.0
 10
69.6644190053
 20
-3.3388312413
 30
0.0
 10
68.6826786063
 20
-2.7720231577
 30
0.0
 10
66.6285361654
 20
-1.9303286699
 30
0.0
 10
63.4862028635
 20
-1.6115537224
 30
0.0
 10
61.0867388754
 20
-2.2550472157
 30
0.0
 10
59.6573171703
 20
-3.309107738
 30
0.0
 10
59.1363865652
 20
-3.9739183314
 30
0.0
 10
58.9321256148
 20
-4.3277086755
 30
0.0
  0
SPLINE
  5
4A0
100
AcDbEntity
  8
KONSTRUKTIONSELEMENTE
100
AcDbSpline
 62
7
  6
CONTINUOUS
 70
0
 71
3
 72
11
 73
7
 74
0
 42
0.0000001
 43
0.0000001
 44
0.0000000001
 40
0.0
 40
0.0
 40
0.0
 40
0.0
 40
0.2165288793
 40
0.4514682974
 40
0.7134745108
 40
1.0
 40
1.0
 40
1.0
 40
1.0
 10
184.8617696067
 20
39.3146842259
 30
0.0
 10
185.2723308109
 20
40.0257470507
 30
0.0
 10
185.7857024594
 20
41.7266536682
 30
0.0
 10
185.4477672444
 20
44.4709392163
 30
0.0
 10
184.1458910722
 20
47.1865812815
 30
0.0
 10
182.7736367536
 20
48.7817042302
 30
0.0
 10
181.9782317026
 20
49.5218580403
 30
0.0
  0
SPLINE
  5
4A1
100
AcDbEntity
  8
KONSTRUKTIONSELEMENTE
100
AcDbSpline
 62
7
  6
CONTINUOUS
 70
0
 71
3
 72
9
 73
5
 74
0
 42
0.0000001
 43
0.0000001
 44
0.0000000001
 40
0.0
 40
0.0
 40
0.0
 40
0.0
 40
0.26786217
 40
1.0
 40
1.0
 40
1.0
 40
1.0
 10
51.2385525405
 20
100.0804158988
 30
0.0
 10
51.4038147379
 20
100.0296987244
 30
0.0
 10
52.0300206776
 20
99.8772873459
 30
0.0
 10
52.7048136218
 20
99.8790811104
 30
0.0
 10
53.1594295857
 20
100.0078377067
 30
0.0
  0
SPLINE
  5
4A2
100
AcDbEntity
  8
KONSTRUKTIONSELEMENTE
100
AcDbSpline
 62
7
  6
CONTINUOUS
 70
0
 71
3
 72
11
 73
7
 74
0
 42
0.0000001
 43
0.0000001
 44
0.0000000001
 40
0.0
 40
0.0
 40
0.0
 40
0.0
 40
0.2879904701
 40
0.5553442566
 40
0.7905170666
 40
1.0
 40
1.0
 40
1.0
 40
1.0
 10
47.8285829397
 20
-25.7596087327
 30
0.0
 10
48.1967525102
 20
-25.9721715333
 30
0.0
 10
48.9667549025
 20
-26.288386538
 30
0.0
 10
50.1463661874
 20
-26.4055279242
 30
0.0
 10
51.1925668439
 20
-26.1313530058
 30
0.0
 10
51.698575765
 20
-25.6565845343
 30
0.0
 10
51.8531929611
 20
-25.3887796949
 30
0.0
  0
SPLINE
  5
4A3
100
AcDbEntity
  8
KONSTRUKTIONSELEMENTE
100
AcDbSpline
 62
7
  6
CONTINUOUS
 70
0
 71
3
 72
11
 73
7
 74
0
 42
0.0000001
 43
0.0000001
 44
0.0000000001
 40
0.0
 40
0.0
 40
0.0
 40
0.0
 40
0.2809363762
 40
0.5390132064
 40
0.7759685789
 40
1.0
 40
1.0
 40
1.0
 40
1.0
 10
69.3323421266
 20
-3.3503328556
 30
0.0
 10
68.6759285911
 20
-3.2808242875
 30
0.0
 10
67.3975035302
 20
-3.272188205
 30
0.0
 10
65.6037636504
 20
-3.6988639088
 30
0.0
 10
64.1152635204
 20
-4.5538506081
 30
0.0
 10
63.3947363797
 20
-5.3982400963
 30
0.0
 10
63.1315461211
 20
-5.8540989962
 30
0.0
  0
SPLINE
  5
4A4
100
AcDbEntity
  8
KONSTRUKTIONSELEMENTE
100
AcDbSpline
 62
7
  6
CONTINUOUS
 70
0
 71
3
 72
11
 73
7
 74
0
 42
0.0000001
 43
0.0000001
 44
0.0000000001
 40
0.0
 40
0.0
 40
0.0
 40
0.0
 40
0.2810583778
 40
0.5392023193
 40
0.7761107168
 40
1.0
 40
1.0
 40
1.0
 40
1.0
 10
37.2982881839
 20
15.3435463608
 30
0.0
 10
37.6907809009
 20
14.8083141044
 30
0.0
 10
38.3447666677
 20
13.7016770524
 30
0.0
 10
38.8802200453
 20
11.9271307801
 30
0.0
 10
38.8878077332
 20
10.2019744029
 30
0.0
 10
38.5159118827
 20
9.1503718424
 30
0.0
 10
38.2515543974
 20
8.6924912465
 30
0.0
  0
SPLINE
  5
4A5
100
AcDbEntity
  8
KONSTRUKTIONSELEMENTE
100
AcDbSpline
 62
7
  6
CONTINUOUS
 70
0
 71
3
 72
9
 73
5
 74
0
 42
0.0000001
 43
0.0000001
 44
0.0000000001
 40
0.0
 40
0.0
 40
0.0
 40
0.0
 40
0.2553805419
 40
1.0
 40
1.0
 40
1.0
 40
1.0
 10
36.6817437062
 20
100.0279876049
 30
0.0
 10
36.687597131
 20
100.0908358367
 30
0.0
 10
36.722776067
 20
100.335587961
 30
0.0
 10
36.8100995798
 20
100.5732201724
 30
0.0
 10
36.9020624848
 20
100.7326378526
 30
0.0
  0
SPLINE
  5
4A6
100
AcDbEntity
  8
KONSTRUKTIONSELEMENTE
100
AcDbSpline
 62
7
  6
CONTINUOUS
 70
0
 71
3
 72
9
 73
5
 74
0
 42
0.0000001
 43
0.0000001
 44
0.0000000001
 40
0.0
 40
0.0
 40
0.0
 40
0.0
 40
0.2381299476
 40
1.0
 40
1.0
 40
1.0
 40
1.0
 10
38.1726843187
 20
119.5383234487
 30
0.0
 10
38.1649403234
 20
119.4551761581
 30
0.0
 10
38.1555127194
 20
119.1038728953
 30
0.0
 10
38.2363481469
 20
118.7532506162
 30
0.0
 10
38.3324041841
 20
118.5039436602
 30
0.0
  0
SPLINE
  5
4A7
100
AcDbEntity
  8
KONSTRUKTIONSELEMENTE
100
AcDbSpline
 62
7
  6
CONTINUOUS
 70
0
 71
3
 72
11
 73
7
 74
0
 42
0.0000001
 43
0.0000001
 44
0.0000000001
 40
0.0
 40
0.0
 40
0.0
 40
0.0
 40
0.2188416256
 40
0.4597745413
 40
0.7222209482
 40
1.0
 40
1.0
 40
1.0
 40
1.0
 10
29.4678680059
 20
26.0746961759
 30
0.0
 10
29.3955170354
 20
25.297863685
 30
0.0
 10
29.5512759793
 20
23.6305840111
 30
0.0
 10
30.5445199359
 20
21.2241361347
 30
0.0
 10
32.2070856046
 20
18.9612792421
 30
0.0
 10
33.6584803604
 20
17.6720963582
 30
0.0
 10
34.4585421579
 20
17.0884691911
 30
0.0
  0
SPLINE
  5
4A8
100
AcDbEntity
  8
KONSTRUKTIONSELEMENTE
100
AcDbSpline
 62
7
  6
CONTINUOUS
 70
0
 71
3
 72
12
 73
8
 74
0
 42
0.0000001
 43
0.0000001
 44
0.0000000001
 40
0.0
 40
0.0
 40
0.0
 40
0.0
 40
0.214597601
 40
0.3340131511
 40
0.4606650373
 40
0.7282666641
 40
1.0
 40
1.0
 40
1.0
 40
1.0
 10
153.9311289194
 20
45.8716516319
 30
0.0
 10
154.849817193
 20
46.5226234563
 30
0.0
 10
156.5677858133
 20
47.1484887655
 30
0.0
 10
158.9838308087
 20
47.3080735808
 30
0.0
 10
161.6778428343
 20
47.0312505919
 30
0.0
 10
165.0255808138
 20
45.8688398846
 30
0.0
 10
167.3881517203
 20
44.2373238629
 30
0.0
 10
168.4318890476
 20
43.2660876876
 30
0.0
  0
SPLINE
  5
4A9
100
AcDbEntity
  8
KONSTRUKTIONSELEMENTE
100
AcDbSpline
 62
7
  6
CONTINUOUS
 70
0
 71
3
 72
11
 73
7
 74
0
 42
0.0000001
 43
0.0000001
 44
0.0000000001
 40
0.0
 40
0.0
 40
0.0
 40
0.0
 40
0.2165288793
 40
0.4514682974
 40
0.7134745108
 40
1.0
 40
1.0
 40
1.0
 40
1.0
 10
183.0940026537
 20
36.2528220474
 30
0.0
 10
183.504563858
 20
36.9638848722
 30
0.0
 10
184.0179355064
 20
38.6647914897
 30
0.0
 10
183.6800002914
 20
41.4090770378
 30
0.0
 10
182.3781241192
 20
44.124719103
 30
0.0
 10
181.0058698006
 20
45.7198420517
 30
0.0
 10
180.2104647497
 20
46.4599958618
 30
0.0
  0
SPLINE
  5
4AA
100
AcDbEntity
  8
KONSTRUKTIONSELEMENTE
100
AcDbSpline
 62
7
  6
CONTINUOUS
 70
0
 71
3
 72
9
 73
5
 74
0
 42
0.0000001
 43
0.0000001
 44
0.0000000001
 40
0.0
 40
0.0
 40
0.0
 40
0.0
 40
0.5381008783
 40
1.0
 40
1.0
 40
1.0
 40
1.0
 10
49.9466192168
 20
95.1233721916
 30
0.0
 10
50.4029021337
 20
94.9833439175
 30
0.0
 10
51.3019374779
 20
94.8530682757
 30
0.0
 10
52.1962243203
 20
95.1246915424
 30
0.0
 10
52.5305779109
 20
95.3614590898
 30
0.0
  0
SPLINE
  5
4AB
100
AcDbEntity
  8
KONSTRUKTIONSELEMENTE
100
AcDbSpline
 62
7
  6
CONTINUOUS
 70
0
 71
3
 72
8
 73
4
 74
0
 42
0.0000001
 43
0.0000001
 44
0.0000000001
 40
0.0
 40
0.0
 40
0.0
 40
0.0
 40
1.0
 40
1.0
 40
1.0
 40
1.0
 10
52.5305779109
 20
95.3614590898
 30
0.0
 10
52.626217863
 20
95.4291851065
 30
0.0
 10
52.7159395383
 20
95.5063198644
 30
0.0
 10
52.7965301069
 20
95.5914020249
 30
0.0
  0
SPLINE
  5
4AC
100
AcDbEntity
  8
KONSTRUKTIONSELEMENTE
100
AcDbSpline
 62
7
  6
CONTINUOUS
 70
0
 71
3
 72
11
 73
7
 74
0
 42
0.0000001
 43
0.0000001
 44
0.0000000001
 40
0.0
 40
0.0
 40
0.0
 40
0.0
 40
0.2825292704
 40
0.5442891309
 40
0.7820757896
 40
1.0
 40
1.0
 40
1.0
 40
1.0
 10
50.2486030469
 20
98.3657730789
 30
0.0
 10
50.5270001651
 20
98.2803360253
 30
0.0
 10
51.0820094025
 20
98.1687761353
 30
0.0
 10
51.8959575603
 20
98.1951807477
 30
0.0
 10
52.6113608253
 20
98.422122508
 30
0.0
 10
52.9953994412
 20
98.71407635
 30
0.0
 10
53.1433783083
 20
98.8830647453
 30
0.0
  0
SPLINE
  5
4AD
100
AcDbEntity
  8
KONSTRUKTIONSELEMENTE
100
AcDbSpline
 62
7
  6
CONTINUOUS
 70
0
 71
3
 72
10
 73
6
 74
0
 42
0.0000001
 43
0.0000001
 44
0.0000000001
 40
0.0
 40
0.0
 40
0.0
 40
0.0
 40
0.2176045202
 40
0.4537200981
 40
1.0
 40
1.0
 40
1.0
 40
1.0
 10
110.5179972154
 20
-15.7408432049
 30
0.0
 10
110.5590412032
 20
-15.6697395892
 30
0.0
 10
110.6103125357
 20
-15.4995457902
 30
0.0
 10
110.5633834781
 20
-15.1176152539
 30
0.0
 10
110.3804824126
 20
-14.8606060642
 30
0.0
 10
110.2295981597
 20
-14.7202026879
 30
0.0
  0
SPLINE
  5
4AE
100
AcDbEntity
  8
KONSTRUKTIONSELEMENTE
100
AcDbSpline
 62
7
  6
CONTINUOUS
 70
0
 71
3
 72
11
 73
7
 74
0
 42
0.0000001
 43
0.0000001
 44
0.0000000001
 40
0.0
 40
0.0
 40
0.0
 40
0.0
 40
0.2165107186
 40
0.451460212
 40
0.7134365312
 40
1.0
 40
1.0
 40
1.0
 40
1.0
 10
36.9020624848
 20
100.7326378526
 30
0.0
 10
37.0251551939
 20
100.946019043
 30
0.0
 10
37.3900525443
 20
101.3346480456
 30
0.0
 10
38.1537319955
 20
101.6586736408
 30
0.0
 10
39.0547114156
 20
101.7279596883
 30
0.0
 10
39.6750825638
 20
101.6106717377
 30
0.0
 10
39.9867788406
 20
101.5150155338
 30
0.0
  0
SPLINE
  5
4AF
100
AcDbEntity
  8
KONSTRUKTIONSELEMENTE
100
AcDbSpline
 62
7
  6
CONTINUOUS
 70
0
 71
3
 72
11
 73
7
 74
0
 42
0.0000001
 43
0.0000001
 44
0.0000000001
 40
0.0
 40
0.0
 40
0.0
 40
0.0
 40
0.2865634688
 40
0.548539788
 40
0.7834892814
 40
1.0
 40
1.0
 40
1.0
 40
1.0
 10
49.5577104872
 20
94.4497625124
 30
0.0
 10
49.869406764
 20
94.3541063085
 30
0.0
 10
50.4897779122
 20
94.2368183579
 30
0.0
 10
51.3907573323
 20
94.3061044054
 30
0.0
 10
52.1544367834
 20
94.6301300006
 30
0.0
 10
52.5193341339
 20
95.0187590032
 30
0.0
 10
52.642426843
 20
95.2321401936
 30
0.0
  0
SPLINE
  5
4B0
100
AcDbEntity
  8
KONSTRUKTIONSELEMENTE
100
AcDbSpline
 62
7
  6
CONTINUOUS
 70
0
 71
3
 72
11
 73
7
 74
0
 42
0.0000001
 43
0.0000001
 44
0.0000000001
 40
0.0
 40
0.0
 40
0.0
 40
0.0
 40
0.2865336694
 40
0.5485304647
 40
0.7834780293
 40
1.0
 40
1.0
 40
1.0
 40
1.0
 10
49.5669478877
 20
128.5480843209
 30
0.0
 10
48.5283346955
 20
128.8668234353
 30
0.0
 10
46.4610249312
 20
129.2576472391
 30
0.0
 10
43.4585650049
 20
129.0274295598
 30
0.0
 10
40.913213502
 20
127.9483308781
 30
0.0
 10
39.6967068364
 20
126.6537079183
 30
0.0
 10
39.2861240046
 20
125.9427891427
 30
0.0
  0
SPLINE
  5
4B1
100
AcDbEntity
  8
KONSTRUKTIONSELEMENTE
100
AcDbSpline
 62
7
  6
CONTINUOUS
 70
0
 71
3
 72
11
 73
7
 74
0
 42
0.0000001
 43
0.0000001
 44
0.0000000001
 40
0.0
 40
0.0
 40
0.0
 40
0.0
 40
0.2865336694
 40
0.5485304647
 40
0.7834780293
 40
1.0
 40
1.0
 40
1.0
 40
1.0
 10
100.0138912664
 20
-5.2141096963
 30
0.0
 10
99.2185485
 20
-4.4740138443
 30
0.0
 10
97.8464302753
 20
-2.8790829728
 30
0.0
 10
96.5445746708
 20
-0.1637675632
 30
0.0
 10
96.206425791
 20
2.5801208408
 30
0.0
 10
96.7193488297
 20
4.280957997
 30
0.0
 10
97.1297311335
 20
4.9919925474
 30
0.0
  0
SPLINE
  5
4B2
100
AcDbEntity
  8
0
100
AcDbSpline
 62
7
  6
CONTINUOUS
 70
0
 71
3
 72
9
 73
5
 74
0
 42
0.0000001
 43
0.0000001
 44
0.0000000001
 40
0.0
 40
0.0
 40
0.0
 40
0.0
 40
0.5183802924
 40
1.0
 40
1.0
 40
1.0
 40
1.0
 10
132.2255961929
 20
75.288101879
 30
0.0
 10
132.1818142308
 20
74.810208537
 30
0.0
 10
131.9067817409
 20
73.8778053846
 30
0.0
 10
131.1668245817
 20
73.2367815987
 30
0.0
 10
130.7676954386
 20
73.0380607133
 30
0.0
  0
SPLINE
  5
4B3
100
AcDbEntity
  8
0
100
AcDbSpline
 62
7
  6
CONTINUOUS
 70
0
 71
3
 72
9
 73
5
 74
0
 42
0.0000001
 43
0.0000001
 44
0.0000000001
 40
0.0
 40
0.0
 40
0.0
 40
0.0
 40
0.4816197076
 40
1.0
 40
1.0
 40
1.0
 40
1.0
 10
72.6772337931
 20
106.5766043817
 30
0.0
 10
72.6497665566
 20
107.0216208017
 30
0.0
 10
72.83493086
 20
107.9829543922
 30
0.0
 10
73.5048994316
 20
108.6873410916
 30
0.0
 10
73.896876225
 20
108.964204054
 30
0.0
  0
LINE
  5
4B4
100
AcDbEntity
  8
BEZUGSACHSEN
100
AcDbLine
 62
7
  6
CONTINUOUS
 10
65.1299754663
 20
86.9461865217
 11
71.5856274643
 21
99.845815547
  0
LINE
  5
4B5
100
AcDbEntity
  8
BEZUGSACHSEN
100
AcDbLine
 62
7
  6
CONTINUOUS
 10
125.4844643803
 20
68.7273073268
 11
117.5408840484
 21
56.6867343434
  0
SPLINE
  5
4B6
100
AcDbEntity
  8
0
100
AcDbSpline
 62
7
  6
CONTINUOUS
 70
0
 71
3
 72
11
 73
7
 74
0
 42
0.0000001
 43
0.0000001
 44
0.0000000001
 40
0.0
 40
0.0
 40
0.0
 40
0.0
 40
0.2554166893
 40
0.5069641095
 40
0.7546082035
 40
1.0
 40
1.0
 40
1.0
 40
1.0
 10
86.7457765546
 20
127.9526135576
 30
0.0
 10
87.0097601459
 20
128.4098465501
 30
0.0
 10
87.7094485753
 20
129.2249881986
 30
0.0
 10
89.0666162378
 20
130.0322507978
 30
0.0
 10
90.5468120781
 20
130.4894882839
 30
0.0
 10
91.5616018712
 20
130.6203754058
 30
0.0
 10
92.0677664146
 20
130.6534639713
 30
0.0
  0
SPLINE
  5
4B7
100
AcDbEntity
  8
0
100
AcDbSpline
 62
7
  6
CONTINUOUS
 70
0
 71
3
 72
11
 73
7
 74
0
 42
0.0000001
 43
0.0000001
 44
0.0000000001
 40
0.0
 40
0.0
 40
0.0
 40
0.0
 40
0.245391792
 40
0.4930358813
 40
0.7445833006
 40
1.0
 40
1.0
 40
1.0
 40
1.0
 10
141.9236011758
 20
101.8691843512
 30
0.0
 10
142.1480279052
 20
101.4142887235
 30
0.0
 10
142.5420712262
 20
100.4700114404
 30
0.0
 10
142.8861898599
 20
98.9595055189
 30
0.0
 10
142.8656638157
 20
97.380532535
 30
0.0
 10
142.5095746375
 20
96.3670137376
 30
0.0
 10
142.2455910357
 20
95.909780727
 30
0.0
  0
SPLINE
  5
4B8
100
AcDbEntity
  8
0
100
AcDbSpline
 62
7
  6
CONTINUOUS
 70
0
 71
3
 72
9
 73
5
 74
0
 42
0.0000001
 43
0.0000001
 44
0.0000000001
 40
0.0
 40
0.0
 40
0.0
 40
0.0
 40
0.5068383231
 40
1.0
 40
1.0
 40
1.0
 40
1.0
 10
130.7676954386
 20
73.0380607133
 30
0.0
 10
129.7273757685
 20
72.5200999242
 30
0.0
 10
127.7385222656
 20
71.3505233588
 30
0.0
 10
126.1059359343
 20
69.6719860358
 30
0.0
 10
125.4844643803
 20
68.7273073268
 30
0.0
  0
SPLINE
  5
4B9
100
AcDbEntity
  8
0
100
AcDbSpline
 62
7
  6
CONTINUOUS
 70
0
 71
3
 72
9
 73
5
 74
0
 42
0.0000001
 43
0.0000001
 44
0.0000000001
 40
0.0
 40
0.0
 40
0.0
 40
0.0
 40
0.493161726
 40
1.0
 40
1.0
 40
1.0
 40
1.0
 10
71.5856274535
 20
99.8458155533
 30
0.0
 10
72.0930074717
 20
100.8563651349
 30
0.0
 10
72.7303701842
 20
103.1094950019
 30
0.0
 10
72.7488264177
 20
105.416680869
 30
0.0
 10
72.6772337931
 20
106.5766043817
 30
0.0
  0
SPLINE
  5
4BA
100
AcDbEntity
  8
0
100
AcDbSpline
 62
7
  6
CONTINUOUS
 70
0
 71
3
 72
9
 73
5
 74
0
 42
0.0000001
 43
0.0000001
 44
0.0000000001
 40
0.0
 40
0.0
 40
0.0
 40
0.0
 40
0.4997850418
 40
1.0
 40
1.0
 40
1.0
 40
1.0
 10
134.2083369979
 20
81.9888483801
 30
0.0
 10
133.6227604315
 20
80.9746000153
 30
0.0
 10
132.7207919199
 20
78.7806583464
 30
0.0
 10
132.3325352593
 20
76.4553740919
 30
0.0
 10
132.2255961929
 20
75.288101879
 30
0.0
  0
SPLINE
  5
4BB
100
AcDbEntity
  8
0
100
AcDbSpline
 62
7
  6
CONTINUOUS
 70
0
 71
3
 72
9
 73
5
 74
0
 42
0.0000001
 43
0.0000001
 44
0.0000000001
 40
0.0
 40
0.0
 40
0.0
 40
0.0
 40
0.5002149582
 40
1.0
 40
1.0
 40
1.0
 40
1.0
 10
73.896876225
 20
108.964204054
 30
0.0
 10
74.8542940813
 20
109.6404521085
 30
0.0
 10
76.6739209864
 20
111.1393343671
 30
0.0
 10
78.1229459503
 20
113.017432846
 30
0.0
 10
78.7085225168
 20
114.0316812108
 30
0.0
  0
SPLINE
  5
4BC
100
AcDbEntity
  8
BEZUGSACHSEN
100
AcDbSpline
 62
7
  6
CONTINUOUS
 70
0
 71
3
 72
11
 73
7
 74
0
 42
0.0000001
 43
0.0000001
 44
0.0000000001
 40
0.0
 40
0.0
 40
0.0
 40
0.0
 40
0.245391792
 40
0.4930358813
 40
0.7445833006
 40
1.0
 40
1.0
 40
1.0
 40
1.0
 10
505.6472583389
 20
101.8691843512
 30
0.0
 10
505.4228316095
 20
101.4142887235
 30
0.0
 10
505.0287882885
 20
100.4700114404
 30
0.0
 10
504.6846696548
 20
98.9595055189
 30
0.0
 10
504.705195699
 20
97.380532535
 30
0.0
 10
505.0612848771
 20
96.3670137376
 30
0.0
 10
505.3252684789
 20
95.909780727
 30
0.0
  0
SPLINE
  5
4BD
100
AcDbEntity
  8
BEZUGSACHSEN
100
AcDbSpline
 62
7
  6
CONTINUOUS
 70
0
 71
3
 72
11
 73
7
 74
0
 42
0.0000001
 43
0.0000001
 44
0.0000000001
 40
0.0
 40
0.0
 40
0.0
 40
0.0
 40
0.2554166893
 40
0.5069641095
 40
0.7546082035
 40
1.0
 40
1.0
 40
1.0
 40
1.0
 10
560.8250829601
 20
127.9526135576
 30
0.0
 10
560.5610993688
 20
128.4098465501
 30
0.0
 10
559.8614109394
 20
129.2249881986
 30
0.0
 10
558.5042432768
 20
130.0322507978
 30
0.0
 10
557.0240474366
 20
130.4894882839
 30
0.0
 10
556.0092576434
 20
130.6203754058
 30
0.0
 10
555.5030931001
 20
130.6534639713
 30
0.0
  0
LINE
  5
4BE
100
AcDbEntity
  8
BEZUGSACHSEN
100
AcDbLine
 62
7
  6
CONTINUOUS
 10
530.0299754663
 20
56.6867343434
 11
522.0863951344
 21
68.7273073268
  0
LINE
  5
4BF
100
AcDbEntity
  8
BEZUGSACHSEN
100
AcDbLine
 62
7
  6
CONTINUOUS
 10
575.9852320503
 20
99.845815547
 11
582.4408840484
 21
86.9461865217
  0
SPLINE
  5
4C0
100
AcDbEntity
  8
BEZUGSACHSEN
100
AcDbSpline
 62
7
  6
CONTINUOUS
 70
0
 71
3
 72
9
 73
5
 74
0
 42
0.0000001
 43
0.0000001
 44
0.0000000001
 40
0.0
 40
0.0
 40
0.0
 40
0.0
 40
0.4816197076
 40
1.0
 40
1.0
 40
1.0
 40
1.0
 10
574.8936257215
 20
106.5766043817
 30
0.0
 10
574.9210929581
 20
107.0216208017
 30
0.0
 10
574.7359286547
 20
107.9829543922
 30
0.0
 10
574.0659600831
 20
108.6873410916
 30
0.0
 10
573.6739832897
 20
108.964204054
 30
0.0
  0
SPLINE
  5
4C1
100
AcDbEntity
  8
BEZUGSACHSEN
100
AcDbSpline
 62
7
  6
CONTINUOUS
 70
0
 71
3
 72
9
 73
5
 74
0
 42
0.0000001
 43
0.0000001
 44
0.0000000001
 40
0.0
 40
0.0
 40
0.0
 40
0.0
 40
0.5183802924
 40
1.0
 40
1.0
 40
1.0
 40
1.0
 10
515.3452633217
 20
75.288101879
 30
0.0
 10
515.3890452839
 20
74.810208537
 30
0.0
 10
515.6640777738
 20
73.8778053846
 30
0.0
 10
516.4040349329
 20
73.2367815987
 30
0.0
 10
516.8031640761
 20
73.0380607133
 30
0.0
  0
SPLINE
  5
4C2
100
AcDbEntity
  8
BEZUGSACHSEN
100
AcDbSpline
 62
7
  6
CONTINUOUS
 70
0
 71
3
 72
9
 73
5
 74
0
 42
0.0000001
 43
0.0000001
 44
0.0000000001
 40
0.0
 40
0.0
 40
0.0
 40
0.0
 40
0.5002149582
 40
1.0
 40
1.0
 40
1.0
 40
1.0
 10
573.6739832897
 20
108.964204054
 30
0.0
 10
572.7165654333
 20
109.6404521085
 30
0.0
 10
570.8969385282
 20
111.1393343671
 30
0.0
 10
569.4479135643
 20
113.017432846
 30
0.0
 10
568.8623369979
 20
114.0316812108
 30
0.0
  0
SPLINE
  5
4C3
100
AcDbEntity
  8
BEZUGSACHSEN
100
AcDbSpline
 62
7
  6
CONTINUOUS
 70
0
 71
3
 72
9
 73
5
 74
0
 42
0.0000001
 43
0.0000001
 44
0.0000000001
 40
0.0
 40
0.0
 40
0.0
 40
0.0
 40
0.4997850418
 40
1.0
 40
1.0
 40
1.0
 40
1.0
 10
513.3625225168
 20
81.9888483801
 30
0.0
 10
513.9480990832
 20
80.9746000153
 30
0.0
 10
514.8500675948
 20
78.7806583464
 30
0.0
 10
515.2383242554
 20
76.4553740919
 30
0.0
 10
515.3452633217
 20
75.288101879
 30
0.0
  0
SPLINE
  5
4C4
100
AcDbEntity
  8
BEZUGSACHSEN
100
AcDbSpline
 62
7
  6
CONTINUOUS
 70
0
 71
3
 72
9
 73
5
 74
0
 42
0.0000001
 43
0.0000001
 44
0.0000000001
 40
0.0
 40
0.0
 40
0.0
 40
0.0
 40
0.493161726
 40
1.0
 40
1.0
 40
1.0
 40
1.0
 10
575.9852320612
 20
99.8458155533
 30
0.0
 10
575.477852043
 20
100.8563651349
 30
0.0
 10
574.8404893305
 20
103.1094950019
 30
0.0
 10
574.8220330969
 20
105.416680869
 30
0.0
 10
574.8936257215
 20
106.5766043817
 30
0.0
  0
SPLINE
  5
4C5
100
AcDbEntity
  8
BEZUGSACHSEN
100
AcDbSpline
 62
7
  6
CONTINUOUS
 70
0
 71
3
 72
9
 73
5
 74
0
 42
0.0000001
 43
0.0000001
 44
0.0000000001
 40
0.0
 40
0.0
 40
0.0
 40
0.0
 40
0.5068383231
 40
1.0
 40
1.0
 40
1.0
 40
1.0
 10
516.8031640761
 20
73.0380607133
 30
0.0
 10
517.8434837462
 20
72.5200999242
 30
0.0
 10
519.8323372491
 20
71.3505233588
 30
0.0
 10
521.4649235804
 20
69.6719860358
 30
0.0
 10
522.0863951344
 20
68.7273073268
 30
0.0
  0
SPLINE
  5
4C6
100
AcDbEntity
  8
KONSTRUKTIONSELEMENTE
100
AcDbSpline
 62
7
  6
CONTINUOUS
 70
0
 71
3
 72
14
 73
10
 74
0
 42
0.0000001
 43
0.0000001
 44
0.0000000001
 40
0.0
 40
0.0
 40
0.0
 40
0.0
 40
0.2681553591
 40
0.3915126194
 40
0.50985396
 40
0.6272318756
 40
0.747520332
 40
0.8723037564
 40
1.0
 40
1.0
 40
1.0
 40
1.0
 10
901.648235974
 20
154.9741051209
 30
0.0
 10
902.3083350007
 20
155.545767647
 30
0.0
 10
903.3297819986
 20
156.3219885848
 30
0.0
 10
904.788546334
 20
157.1206975941
 30
0.0
 10
905.8790860294
 20
157.5533098587
 30
0.0
 10
907.0185542373
 20
157.8004904151
 30
0.0
 10
908.2102273777
 20
157.8003526731
 30
0.0
 10
909.3975960315
 20
157.4817739978
 30
0.0
 10
910.1074220219
 20
157.0370949242
 30
0.0
 10
910.4215138516
 20
156.7645806153
 30
0.0
  0
SPLINE
  5
4C7
100
AcDbEntity
  8
KONSTRUKTIONSELEMENTE
100
AcDbSpline
 62
7
  6
CONTINUOUS
 70
0
 71
3
 72
11
 73
7
 74
0
 42
0.0000001
 43
0.0000001
 44
0.0000000001
 40
0.0
 40
0.0
 40
0.0
 40
0.0
 40
0.3728834025
 40
0.6854808532
 40
0.9081073968
 40
1.0
 40
1.0
 40
1.0
 40
1.0
 10
905.8380194665
 20
150.1361598664
 30
0.0
 10
906.0562584349
 20
150.325160357
 30
0.0
 10
906.4690298317
 20
150.6596346209
 30
0.0
 10
907.0497288614
 20
151.0577803622
 30
0.0
 10
907.4755991027
 20
151.2925995812
 30
0.0
 10
907.7016907066
 20
151.3855365433
 30
0.0
 10
907.7700778802
 20
151.4051615827
 30
0.0
  0
SPLINE
  5
4C8
100
AcDbEntity
  8
KONSTRUKTIONSELEMENTE
100
AcDbSpline
 62
7
  6
CONTINUOUS
 70
0
 71
3
 72
13
 73
9
 74
0
 42
0.0000001
 43
0.0000001
 44
0.0000000001
 40
0.0
 40
0.0
 40
0.0
 40
0.0
 40
0.1316973557
 40
0.2620567894
 40
0.3900192549
 40
0.5147550585
 40
0.756658895
 40
1.0
 40
1.0
 40
1.0
 40
1.0
 10
910.4215138516
 20
156.7645806153
 30
0.0
 10
910.624889493
 20
156.588126575
 30
0.0
 10
910.9963738973
 20
156.1962330352
 30
0.0
 10
911.4223421786
 20
155.516655464
 30
0.0
 10
911.7122159537
 20
154.7845110126
 30
0.0
 10
911.9177700892
 20
153.7901429237
 30
0.0
 10
911.8942620136
 20
152.5277389089
 30
0.0
 10
911.6555674718
 20
151.5589110121
 30
0.0
 10
911.5021267423
 20
151.0856556733
 30
0.0
  0
SPLINE
  5
4C9
100
AcDbEntity
  8
KONSTRUKTIONSELEMENTE
100
AcDbSpline
 62
7
  6
CONTINUOUS
 70
0
 71
3
 72
17
 73
13
 74
0
 42
0.0000001
 43
0.0000001
 44
0.0000000001
 40
0.0
 40
0.0
 40
0.0
 40
0.0
 40
0.0605252461
 40
0.1202095418
 40
0.1783206278
 40
0.2348588393
 40
0.3456548951
 40
0.4617755893
 40
0.5883105192
 40
0.7239025317
 40
0.8633239296
 40
1.0
 40
1.0
 40
1.0
 40
1.0
 10
889.7108310646
 20
134.9770110407
 30
0.0
 10
889.467135941
 20
135.1884473212
 30
0.0
 10
889.0308994179
 20
135.6675761846
 30
0.0
 10
888.568934223
 20
136.5072646894
 30
0.0
 10
888.3031261101
 20
137.4046113714
 30
0.0
 10
888.1876442288
 20
138.6069357998
 30
0.0
 10
888.4077332564
 20
140.121740358
 30
0.0
 10
889.0669313502
 20
141.8949492639
 30
0.0
 10
890.0325375339
 20
143.6709584777
 30
0.0
 10
891.2586424574
 20
145.429981337
 30
0.0
 10
892.6838827135
 20
147.1027770051
 30
0.0
 10
893.7435851551
 20
148.1284767037
 30
0.0
 10
894.2943254497
 20
148.6054317896
 30
0.0
  0
SPLINE
  5
4CA
100
AcDbEntity
  8
KONSTRUKTIONSELEMENTE
100
AcDbSpline
 62
7
  6
CONTINUOUS
 70
0
 71
3
 72
25
 73
21
 74
0
 42
0.0000001
 43
0.0000001
 44
0.0000000001
 40
0.0
 40
0.0
 40
0.0
 40
0.0
 40
0.0042469725
 40
0.0046566945
 40
0.0054175942
 40
0.0103899607
 40
0.0196468446
 40
0.0328167232
 40
0.0495536369
 40
0.0695298707
 40
0.0924202952
 40
0.1456942527
 40
0.2073652625
 40
0.2757654002
 40
0.3494880459
 40
0.4273393028
 40
0.5081869854
 40
0.6747634259
 40
0.8413821781
 40
1.0
 40
1.0
 40
1.0
 40
1.0
 10
894.6397292549
 20
138.3958553977
 30
0.0
 10
894.6396560355
 20
138.3863055516
 30
0.0
 10
894.6399289004
 20
138.3791458395
 30
0.0
 10
894.6381372011
 20
138.3623953212
 30
0.0
 10
894.6408797945
 20
138.3860118667
 30
0.0
 10
894.6454030636
 20
138.4065761229
 30
0.0
 10
894.6587441975
 20
138.4752534836
 30
0.0
 10
894.6799698858
 20
138.5568591301
 30
0.0
 10
894.7124239345
 20
138.6657734372
 30
0.0
 10
894.7555687978
 20
138.7921683741
 30
0.0
 10
894.8317980685
 20
138.9947339453
 30
0.0
 10
894.955321007
 20
139.2790934294
 30
0.0
 10
895.139252389
 20
139.6483004357
 30
0.0
 10
895.3626324778
 20
140.0486046911
 30
0.0
 10
895.6219656477
 20
140.469988619
 30
0.0
 10
895.9130073285
 20
140.9042538439
 30
0.0
 10
896.3425665643
 20
141.496438412
 30
0.0
 10
896.9286517102
 20
142.220926576
 30
0.0
 10
897.680911081
 20
143.0326361772
 30
0.0
 10
898.2144823994
 20
143.5339830995
 30
0.0
 10
898.4841089422
 20
143.7674865351
 30
0.0
  0
SPLINE
  5
4CB
100
AcDbEntity
  8
KONSTRUKTIONSELEMENTE
100
AcDbSpline
 62
7
  6
CONTINUOUS
 70
0
 71
3
 72
9
 73
5
 74
0
 42
0.0000001
 43
0.0000001
 44
0.0000000001
 40
0.0
 40
0.0
 40
0.0
 40
0.0
 40
0.4961581806
 40
1.0
 40
1.0
 40
1.0
 40
1.0
 10
891.4715714188
 20
134.0782205715
 30
0.0
 10
891.15132131
 20
134.1549310927
 30
0.0
 10
890.5213996921
 20
134.3844405681
 30
0.0
 10
889.9634203795
 20
134.7578579266
 30
0.0
 10
889.7108310646
 20
134.9770110407
 30
0.0
  0
SPLINE
  5
4CC
100
AcDbEntity
  8
KONSTRUKTIONSELEMENTE
100
AcDbSpline
 62
7
  6
CONTINUOUS
 70
0
 71
3
 72
14
 73
10
 74
0
 42
0.0000001
 43
0.0000001
 44
0.0000000001
 40
0.0
 40
0.0
 40
0.0
 40
0.0
 40
0.2681553591
 40
0.3915126194
 40
0.50985396
 40
0.6272318756
 40
0.747520332
 40
0.8723037564
 40
1.0
 40
1.0
 40
1.0
 40
1.0
 10
876.1923918513
 20
132.9286974358
 30
0.0
 10
876.852490878
 20
133.500359962
 30
0.0
 10
877.8739378758
 20
134.2765808997
 30
0.0
 10
879.3327022113
 20
135.075289909
 30
0.0
 10
880.4232419067
 20
135.5079021736
 30
0.0
 10
881.5627101146
 20
135.75508273
 30
0.0
 10
882.754383255
 20
135.754944988
 30
0.0
 10
883.9417519088
 20
135.4363663127
 30
0.0
 10
884.6515778992
 20
134.9916872391
 30
0.0
 10
884.9656697289
 20
134.7191729302
 30
0.0
  0
SPLINE
  5
4CD
100
AcDbEntity
  8
KONSTRUKTIONSELEMENTE
100
AcDbSpline
 62
7
  6
CONTINUOUS
 70
0
 71
3
 72
11
 73
7
 74
0
 42
0.0000001
 43
0.0000001
 44
0.0000000001
 40
0.0
 40
0.0
 40
0.0
 40
0.0
 40
0.3728834025
 40
0.6854808532
 40
0.9081073968
 40
1.0
 40
1.0
 40
1.0
 40
1.0
 10
880.3821753438
 20
128.0907521813
 30
0.0
 10
880.6004143122
 20
128.279752672
 30
0.0
 10
881.013185709
 20
128.6142269359
 30
0.0
 10
881.5938847387
 20
129.0123726771
 30
0.0
 10
882.01975498
 20
129.2471918961
 30
0.0
 10
882.2458465839
 20
129.3401288583
 30
0.0
 10
882.3142337575
 20
129.3597538976
 30
0.0
  0
SPLINE
  5
4CE
100
AcDbEntity
  8
KONSTRUKTIONSELEMENTE
100
AcDbSpline
 62
7
  6
CONTINUOUS
 70
0
 71
3
 72
11
 73
7
 74
0
 42
0.0000001
 43
0.0000001
 44
0.0000000001
 40
0.0
 40
0.0
 40
0.0
 40
0.0
 40
0.2614344484
 40
0.515038786
 40
0.7587064224
 40
1.0
 40
1.0
 40
1.0
 40
1.0
 10
884.9656697289
 20
134.7191729302
 30
0.0
 10
885.3341085906
 20
134.3995057111
 30
0.0
 10
885.9505152091
 20
133.6303488917
 30
0.0
 10
886.4166499702
 20
132.2689165249
 30
0.0
 10
886.4731603259
 20
130.877215692
 30
0.0
 10
886.3090699689
 20
129.9814984345
 30
0.0
 10
886.1947942183
 20
129.5460369527
 30
0.0
  0
SPLINE
  5
4CF
100
AcDbEntity
  8
KONSTRUKTIONSELEMENTE
100
AcDbSpline
 62
7
  6
CONTINUOUS
 70
0
 71
3
 72
9
 73
5
 74
0
 42
0.0000001
 43
0.0000001
 44
0.0000000001
 40
0.0
 40
0.0
 40
0.0
 40
0.0
 40
0.2539746107
 40
1.0
 40
1.0
 40
1.0
 40
1.0
 10
881.9059739835
 20
122.5530372339
 30
0.0
 10
881.7830923027
 20
122.4231096223
 30
0.0
 10
881.2931807778
 20
121.9173353387
 30
0.0
 10
880.7792671475
 20
121.4346437709
 30
0.0
 10
880.3821753438
 20
121.0907521813
 30
0.0
  0
SPLINE
  5
4D0
100
AcDbEntity
  8
KONSTRUKTIONSELEMENTE
100
AcDbSpline
 62
7
  6
CONTINUOUS
 70
0
 71
3
 72
17
 73
13
 74
0
 42
0.0000001
 43
0.0000001
 44
0.0000000001
 40
0.0
 40
0.0
 40
0.0
 40
0.0
 40
0.0605252461
 40
0.1202095418
 40
0.1783206278
 40
0.2348588393
 40
0.3456548951
 40
0.4617755893
 40
0.5883105192
 40
0.7239025317
 40
0.8633239296
 40
1.0
 40
1.0
 40
1.0
 40
1.0
 10
864.2549869419
 20
112.9316033557
 30
0.0
 10
864.0112918183
 20
113.1430396361
 30
0.0
 10
863.5750552952
 20
113.6221684995
 30
0.0
 10
863.1130901003
 20
114.4618570044
 30
0.0
 10
862.8472819873
 20
115.3592036864
 30
0.0
 10
862.7318001061
 20
116.5615281148
 30
0.0
 10
862.9518891337
 20
118.0763326729
 30
0.0
 10
863.6110872275
 20
119.8495415789
 30
0.0
 10
864.5766934112
 20
121.6255507926
 30
0.0
 10
865.8027983347
 20
123.384573652
 30
0.0
 10
867.2280385908
 20
125.05736932
 30
0.0
 10
868.2877410324
 20
126.0830690187
 30
0.0
 10
868.838481327
 20
126.5600241046
 30
0.0
  0
SPLINE
  5
4D1
100
AcDbEntity
  8
KONSTRUKTIONSELEMENTE
100
AcDbSpline
 62
7
  6
CONTINUOUS
 70
0
 71
3
 72
25
 73
21
 74
0
 42
0.0000001
 43
0.0000001
 44
0.0000000001
 40
0.0
 40
0.0
 40
0.0
 40
0.0
 40
0.0042469725
 40
0.0046566945
 40
0.0054175942
 40
0.0103899607
 40
0.0196468446
 40
0.0328167232
 40
0.0495536369
 40
0.0695298707
 40
0.0924202952
 40
0.1456942527
 40
0.2073652625
 40
0.2757654002
 40
0.3494880459
 40
0.4273393028
 40
0.5081869854
 40
0.6747634259
 40
0.8413821781
 40
1.0
 40
1.0
 40
1.0
 40
1.0
 10
869.1838851322
 20
116.3504477127
 30
0.0
 10
869.1838119128
 20
116.3408978666
 30
0.0
 10
869.1840847777
 20
116.3337381545
 30
0.0
 10
869.1822930784
 20
116.3169876362
 30
0.0
 10
869.1850356718
 20
116.3406041816
 30
0.0
 10
869.1895589409
 20
116.3611684379
 30
0.0
 10
869.2029000748
 20
116.4298457985
 30
0.0
 10
869.224125763
 20
116.511451445
 30
0.0
 10
869.2565798118
 20
116.6203657522
 30
0.0
 10
869.2997246751
 20
116.746760689
 30
0.0
 10
869.3759539458
 20
116.9493262602
 30
0.0
 10
869.4994768842
 20
117.2336857443
 30
0.0
 10
869.6834082663
 20
117.6028927507
 30
0.0
 10
869.9067883551
 20
118.0031970061
 30
0.0
 10
870.166121525
 20
118.424580934
 30
0.0
 10
870.4571632058
 20
118.8588461589
 30
0.0
 10
870.8867224415
 20
119.4510307269
 30
0.0
 10
871.4728075875
 20
120.175518891
 30
0.0
 10
872.2250669583
 20
120.9872284921
 30
0.0
 10
872.7586382767
 20
121.4885754145
 30
0.0
 10
873.0282648195
 20
121.7220788501
 30
0.0
  0
SPLINE
  5
4D2
100
AcDbEntity
  8
KONSTRUKTIONSELEMENTE
100
AcDbSpline
 62
7
  6
CONTINUOUS
 70
0
 71
3
 72
9
 73
5
 74
0
 42
0.0000001
 43
0.0000001
 44
0.0000000001
 40
0.0
 40
0.0
 40
0.0
 40
0.0
 40
0.4924789319
 40
1.0
 40
1.0
 40
1.0
 40
1.0
 10
866.8917689651
 20
111.9114475512
 30
0.0
 10
866.4213732648
 20
111.9317437338
 30
0.0
 10
865.4649407467
 20
112.114756829
 30
0.0
 10
864.6214840263
 20
112.6136208734
 30
0.0
 10
864.2549869419
 20
112.9316033557
 30
0.0
  0
SPLINE
  5
4D3
100
AcDbEntity
  8
KONSTRUKTIONSELEMENTE
100
AcDbSpline
 62
7
  6
CONTINUOUS
 70
0
 71
3
 72
11
 73
7
 74
0
 42
0.0000001
 43
0.0000001
 44
0.0000000001
 40
0.0
 40
0.0
 40
0.0
 40
0.0
 40
0.2479456752
 40
0.5001194804
 40
0.7522092273
 40
1.0
 40
1.0
 40
1.0
 40
1.0
 10
876.6924690273
 20
124.8932379905
 30
0.0
 10
877.645884253
 20
124.0841867766
 30
0.0
 10
879.9006193322
 20
122.8132291974
 30
0.0
 10
883.7135059833
 20
122.1855026451
 30
0.0
 10
887.5199452018
 20
122.8476419797
 30
0.0
 10
889.7612918877
 20
124.1400912737
 30
0.0
 10
890.7059343492
 20
124.9581756427
 30
0.0
  0
SPLINE
  5
4D4
100
AcDbEntity
  8
KONSTRUKTIONSELEMENTE
100
AcDbSpline
 62
7
  6
CONTINUOUS
 70
0
 71
3
 72
11
 73
7
 74
0
 42
0.0000001
 43
0.0000001
 44
0.0000000001
 40
0.0
 40
0.0
 40
0.0
 40
0.0
 40
0.248134181
 40
0.4970423747
 40
0.7474513343
 40
1.0
 40
1.0
 40
1.0
 40
1.0
 10
901.2150967953
 20
138.0338837138
 30
0.0
 10
901.214951106
 20
138.5811754961
 30
0.0
 10
901.1076265306
 20
139.6803880933
 30
0.0
 10
900.631427821
 20
141.2689360435
 30
0.0
 10
899.8604791855
 20
142.7477279892
 30
0.0
 10
899.1724507117
 20
143.6268875723
 30
0.0
 10
898.7919293589
 20
144.0336851463
 30
0.0
  0
SPLINE
  5
4D5
100
AcDbEntity
  8
KONSTRUKTIONSELEMENTE
100
AcDbSpline
 62
7
  6
CONTINUOUS
 70
0
 71
3
 72
11
 73
7
 74
0
 42
0.0000001
 43
0.0000001
 44
0.0000000001
 40
0.0
 40
0.0
 40
0.0
 40
0.0
 40
0.2522926972
 40
0.5040924315
 40
0.753698002
 40
1.0
 40
1.0
 40
1.0
 40
1.0
 10
892.7739054988
 20
147.1564783567
 30
0.0
 10
891.9929634583
 20
147.2800257516
 30
0.0
 10
890.401507921
 20
147.3616316679
 30
0.0
 10
888.0525283859
 20
146.9844339258
 30
0.0
 10
885.8537060315
 20
146.1244695973
 30
0.0
 10
884.5540531158
 20
145.2433226085
 30
0.0
 10
883.9705664443
 20
144.7380083282
 30
0.0
  0
SPLINE
  5
4D6
100
AcDbEntity
  8
KONSTRUKTIONSELEMENTE
100
AcDbSpline
 62
7
  6
CONTINUOUS
 70
0
 71
3
 72
9
 73
5
 74
0
 42
0.0000001
 43
0.0000001
 44
0.0000000001
 40
0.0
 40
0.0
 40
0.0
 40
0.0
 40
0.5511010499
 40
1.0
 40
1.0
 40
1.0
 40
1.0
 10
893.870061381
 20
136.1647942285
 30
0.0
 10
894.16775326
 20
136.4226029583
 30
0.0
 10
894.6374835502
 20
136.9920278115
 30
0.0
 10
894.8160572097
 20
137.7123440204
 30
0.0
 10
894.81611251
 20
138.0331211202
 30
0.0
  0
SPLINE
  5
4D7
100
AcDbEntity
  8
KONSTRUKTIONSELEMENTE
100
AcDbSpline
 62
7
  6
CONTINUOUS
 70
0
 71
3
 72
8
 73
4
 74
0
 42
0.0000001
 43
0.0000001
 44
0.0000000001
 40
0.0
 40
0.0
 40
0.0
 40
0.0
 40
1.0
 40
1.0
 40
1.0
 40
1.0
 10
894.81611251
 20
138.0331211202
 30
0.0
 10
894.8161342021
 20
138.1589493286
 30
0.0
 10
894.8039186552
 20
138.2852731364
 30
0.0
 10
894.7807049306
 20
138.4089414893
 30
0.0
  0
SPLINE
  5
4D8
100
AcDbEntity
  8
KONSTRUKTIONSELEMENTE
100
AcDbSpline
 62
7
  6
CONTINUOUS
 70
0
 71
3
 72
9
 73
5
 74
0
 42
0.0000001
 43
0.0000001
 44
0.0000000001
 40
0.0
 40
0.0
 40
0.0
 40
0.0
 40
0.2557478915
 40
1.0
 40
1.0
 40
1.0
 40
1.0
 10
888.4879140294
 20
140.151588125
 30
0.0
 10
888.4588128469
 20
140.1317526074
 30
0.0
 10
888.3461150485
 20
140.0526098333
 30
0.0
 10
888.2378241214
 20
139.9671576856
 30
0.0
 10
888.1603499369
 20
139.9000630737
 30
0.0
  0
SPLINE
  5
4D9
100
AcDbEntity
  8
KONSTRUKTIONSELEMENTE
100
AcDbSpline
 62
7
  6
CONTINUOUS
 70
0
 71
3
 72
11
 73
7
 74
0
 42
0.0000001
 43
0.0000001
 44
0.0000000001
 40
0.0
 40
0.0
 40
0.0
 40
0.0
 40
0.2530038339
 40
0.5034921531
 40
0.7521880601
 40
1.0
 40
1.0
 40
1.0
 40
1.0
 10
898.3875472989
 20
131.6239621012
 30
0.0
 10
898.827433637
 20
132.0414514532
 30
0.0
 10
899.6271967885
 20
132.957034582
 30
0.0
 10
900.5291761421
 20
134.5319729884
 30
0.0
 10
901.0886747675
 20
136.2459561483
 30
0.0
 10
901.2152549229
 20
137.4398659845
 30
0.0
 10
901.2150967953
 20
138.0338837138
 30
0.0
  0
SPLINE
  5
4DA
100
AcDbEntity
  8
KONSTRUKTIONSELEMENTE
100
AcDbSpline
 62
7
  6
CONTINUOUS
 70
0
 71
3
 72
9
 73
5
 74
0
 42
0.0000001
 43
0.0000001
 44
0.0000000001
 40
0.0
 40
0.0
 40
0.0
 40
0.0
 40
0.5179662846
 40
1.0
 40
1.0
 40
1.0
 40
1.0
 10
881.8611069895
 20
129.1532232262
 30
0.0
 10
882.6377987872
 20
128.8307830766
 30
0.0
 10
884.3329140513
 20
128.631769855
 30
0.0
 10
885.9245436023
 20
129.283773986
 30
0.0
 10
886.5161508566
 20
129.7961208973
 30
0.0
  0
SPLINE
  5
4DB
100
AcDbEntity
  8
KONSTRUKTIONSELEMENTE
100
AcDbSpline
 62
7
  6
CONTINUOUS
 70
0
 71
3
 72
11
 73
7
 74
0
 42
0.0000001
 43
0.0000001
 44
0.0000000001
 40
0.0
 40
0.0
 40
0.0
 40
0.0
 40
0.25325041
 40
0.5038513826
 40
0.752420737
 40
1.0
 40
1.0
 40
1.0
 40
1.0
 10
876.61665592
 20
138.369334997
 30
0.0
 10
876.1296823012
 20
137.9476034721
 30
0.0
 10
875.2409583789
 20
137.0098318673
 30
0.0
 10
874.2321001046
 20
135.3668513775
 30
0.0
 10
873.6037257639
 20
133.5586192945
 30
0.0
 10
873.4612363508
 20
132.292079804
 30
0.0
 10
873.4614039982
 20
131.6623002572
 30
0.0
  0
SPLINE
  5
4DC
100
AcDbEntity
  8
KONSTRUKTIONSELEMENTE
100
AcDbSpline
 62
7
  6
CONTINUOUS
 70
0
 71
3
 72
9
 73
5
 74
0
 42
0.0000001
 43
0.0000001
 44
0.0000000001
 40
0.0
 40
0.0
 40
0.0
 40
0.0
 40
0.263717416
 40
1.0
 40
1.0
 40
1.0
 40
1.0
 10
906.0532498205
 20
165.4590213477
 30
0.0
 10
906.060772083
 20
165.4793738828
 30
0.0
 10
906.0931577748
 20
165.5549908592
 30
0.0
 10
906.143856576
 20
165.6233369493
 30
0.0
 10
906.1895847885
 20
165.6630717685
 30
0.0
  0
SPLINE
  5
4DD
100
AcDbEntity
  8
KONSTRUKTIONSELEMENTE
100
AcDbSpline
 62
7
  6
CONTINUOUS
 70
0
 71
3
 72
9
 73
5
 74
0
 42
0.0000001
 43
0.0000001
 44
0.0000000001
 40
0.0
 40
0.0
 40
0.0
 40
0.0
 40
0.5474286833
 40
1.0
 40
1.0
 40
1.0
 40
1.0
 10
910.6020634978
 20
160.5677342847
 30
0.0
 10
910.6020634978
 20
160.4678076442
 30
0.0
 10
910.5815772167
 20
160.2825315864
 30
0.0
 10
910.4807067324
 20
160.1193756071
 30
0.0
 10
910.4183481294
 20
160.0651900686
 30
0.0
  0
SPLINE
  5
4DE
100
AcDbEntity
  8
KONSTRUKTIONSELEMENTE
100
AcDbSpline
 62
7
  6
CONTINUOUS
 70
0
 71
3
 72
9
 73
5
 74
0
 42
0.0000001
 43
0.0000001
 44
0.0000000001
 40
0.0
 40
0.0
 40
0.0
 40
0.0
 40
0.2418469557
 40
1.0
 40
1.0
 40
1.0
 40
1.0
 10
910.7150201267
 20
160.3295543615
 30
0.0
 10
910.7032727997
 20
160.3222915903
 30
0.0
 10
910.6533226102
 20
160.2944965786
 30
0.0
 10
910.598465082
 20
160.2759581368
 30
0.0
 10
910.556200876
 20
160.2665633057
 30
0.0
  0
SPLINE
  5
4DF
100
AcDbEntity
  8
KONSTRUKTIONSELEMENTE
100
AcDbSpline
 62
7
  6
CONTINUOUS
 70
0
 71
3
 72
9
 73
5
 74
0
 42
0.0000001
 43
0.0000001
 44
0.0000000001
 40
0.0
 40
0.0
 40
0.0
 40
0.0
 40
0.4536655057
 40
1.0
 40
1.0
 40
1.0
 40
1.0
 10
922.7539449225
 20
161.5761073652
 30
0.0
 10
922.7542261862
 20
161.1805986426
 30
0.0
 10
922.5357807193
 20
160.301627802
 30
0.0
 10
921.9644308142
 20
159.6061124427
 30
0.0
 10
921.6043831366
 20
159.2943020073
 30
0.0
  0
SPLINE
  5
4E0
100
AcDbEntity
  8
KONSTRUKTIONSELEMENTE
100
AcDbSpline
 62
7
  6
CONTINUOUS
 70
0
 71
3
 72
9
 73
5
 74
0
 42
0.0000001
 43
0.0000001
 44
0.0000000001
 40
0.0
 40
0.0
 40
0.0
 40
0.0
 40
0.4959414851
 40
1.0
 40
1.0
 40
1.0
 40
1.0
 10
910.2199639595
 20
169.153498222
 30
0.0
 10
911.0814061471
 20
169.8995290403
 30
0.0
 10
913.0603862436
 20
171.1410803215
 30
0.0
 10
915.3050782282
 20
171.7700891614
 30
0.0
 10
916.4523495427
 20
171.9290565489
 30
0.0
  0
SPLINE
  5
4E1
100
AcDbEntity
  8
KONSTRUKTIONSELEMENTE
100
AcDbSpline
 62
7
  6
CONTINUOUS
 70
0
 71
3
 72
11
 73
7
 74
0
 42
0.0000001
 43
0.0000001
 44
0.0000000001
 40
0.0
 40
0.0
 40
0.0
 40
0.0
 40
0.2548461805
 40
0.5057935407
 40
0.7537074042
 40
1.0
 40
1.0
 40
1.0
 40
1.0
 10
924.457886434
 20
170.3872045304
 30
0.0
 10
925.2458842128
 20
169.9282502082
 30
0.0
 10
926.7099023188
 20
168.8292957341
 30
0.0
 10
928.4184919648
 20
166.7053671927
 30
0.0
 10
929.5047355045
 20
164.2360477406
 30
0.0
 10
929.7535564535
 20
162.4580876915
 30
0.0
 10
929.7533690439
 20
161.5767849467
 30
0.0
  0
SPLINE
  5
4E2
100
AcDbEntity
  8
KONSTRUKTIONSELEMENTE
100
AcDbSpline
 62
7
  6
CONTINUOUS
 70
0
 71
3
 72
11
 73
7
 74
0
 42
0.0000001
 43
0.0000001
 44
0.0000000001
 40
0.0
 40
0.0
 40
0.0
 40
0.0
 40
0.2474731587
 40
0.4959977795
 40
0.74660939
 40
1.0
 40
1.0
 40
1.0
 40
1.0
 10
929.7533690439
 20
161.5767849467
 30
0.0
 10
929.7532178519
 20
160.8657970332
 30
0.0
 10
929.5920862932
 20
159.4357999348
 30
0.0
 10
928.8815818385
 20
157.3942096281
 30
0.0
 10
927.7415077938
 20
155.538644722
 30
0.0
 10
926.7372665685
 20
154.4793798653
 30
0.0
 10
926.1869588316
 20
154.0027993852
 30
0.0
  0
SPLINE
  5
4E3
100
AcDbEntity
  8
KONSTRUKTIONSELEMENTE
100
AcDbSpline
 62
7
  6
CONTINUOUS
 70
0
 71
3
 72
9
 73
5
 74
0
 42
0.0000001
 43
0.0000001
 44
0.0000000001
 40
0.0
 40
0.0
 40
0.0
 40
0.0
 40
0.5216474603
 40
1.0
 40
1.0
 40
1.0
 40
1.0
 10
922.340976657
 20
162.9990407263
 30
0.0
 10
922.4754363872
 20
162.7764306254
 30
0.0
 10
922.6824792872
 20
162.3153883705
 30
0.0
 10
922.7537753275
 20
161.8145893537
 30
0.0
 10
922.7539449225
 20
161.5761073652
 30
0.0
  0
SPLINE
  5
4E4
100
AcDbEntity
  8
KONSTRUKTIONSELEMENTE
100
AcDbSpline
 62
7
  6
CONTINUOUS
 70
0
 71
3
 72
9
 73
5
 74
0
 42
0.0000001
 43
0.0000001
 44
0.0000000001
 40
0.0
 40
0.0
 40
0.0
 40
0.0
 40
0.4828762735
 40
1.0
 40
1.0
 40
1.0
 40
1.0
 10
913.1898124405
 20
152.0070700225
 30
0.0
 10
912.4894800187
 20
151.4005643542
 30
0.0
 10
910.612875668
 20
150.623627143
 30
0.0
 10
908.609630121
 20
150.8477513485
 30
0.0
 10
907.6902976937
 20
151.2208599005
 30
0.0
  0
SPLINE
  5
4E5
100
AcDbEntity
  8
KONSTRUKTIONSELEMENTE
100
AcDbSpline
 62
7
  6
CONTINUOUS
 70
0
 71
3
 72
11
 73
7
 74
0
 42
0.0000001
 43
0.0000001
 44
0.0000000001
 40
0.0
 40
0.0
 40
0.0
 40
0.0
 40
0.2474731587
 40
0.4959977795
 40
0.74660939
 40
1.0
 40
1.0
 40
1.0
 40
1.0
 10
898.2389830511
 20
154.2922806757
 30
0.0
 10
898.2391342431
 20
155.0032685892
 30
0.0
 10
898.4002658017
 20
156.4332656876
 30
0.0
 10
899.1107702565
 20
158.4748559943
 30
0.0
 10
900.2508443012
 20
160.3304209004
 30
0.0
 10
901.2550855264
 20
161.3896857571
 30
0.0
 10
901.8053932634
 20
161.8662662372
 30
0.0
  0
SPLINE
  5
4E6
100
AcDbEntity
  8
KONSTRUKTIONSELEMENTE
100
AcDbSpline
 62
7
  6
CONTINUOUS
 70
0
 71
3
 72
13
 73
9
 74
0
 42
0.0000001
 43
0.0000001
 44
0.0000000001
 40
0.0
 40
0.0
 40
0.0
 40
0.0
 40
0.1234025971
 40
0.2482774642
 40
0.4999529145
 40
0.7516628665
 40
0.876546835
 40
1.0
 40
1.0
 40
1.0
 40
1.0
 10
917.7723881355
 20
146.7155674004
 30
0.0
 10
917.2364280497
 20
146.2514123507
 30
0.0
 10
916.0653541609
 20
145.4192664129
 30
0.0
 10
913.4498349729
 20
144.2018381895
 30
0.0
 10
909.8181712591
 20
143.5693597944
 30
0.0
 10
906.1838032628
 20
144.1855598773
 30
0.0
 10
903.561946753
 20
145.3905550353
 30
0.0
 10
902.3866340181
 20
146.2172617285
 30
0.0
 10
901.8480750311
 20
146.6788453212
 30
0.0
  0
SPLINE
  5
4E7
100
AcDbEntity
  8
KONSTRUKTIONSELEMENTE
100
AcDbSpline
 62
7
  6
CONTINUOUS
 70
0
 71
3
 72
17
 73
13
 74
0
 42
0.0000001
 43
0.0000001
 44
0.0000000001
 40
0.0
 40
0.0
 40
0.0
 40
0.0
 40
0.0666965855
 40
0.1121083436
 40
0.1663146687
 40
0.298396932
 40
0.4529391682
 40
0.6152979265
 40
0.7695200193
 40
0.9010869874
 40
0.9550293621
 40
1.0
 40
1.0
 40
1.0
 40
1.0
 10
905.8929127911
 20
165.3987074756
 30
0.0
 10
906.0296849066
 20
165.4832666768
 30
0.0
 10
906.3288590602
 20
165.4932159685
 30
0.0
 10
906.7101272078
 20
165.3819230226
 30
0.0
 10
907.2216606113
 20
165.1488171555
 30
0.0
 10
907.9011867315
 20
164.6794707424
 30
0.0
 10
908.7020855761
 20
163.9476720997
 30
0.0
 10
909.4464222613
 20
163.0858926113
 30
0.0
 10
910.0533578041
 20
162.1896310103
 30
0.0
 10
910.4169600494
 20
161.4495051016
 30
0.0
 10
910.5714290718
 20
160.914515772
 30
0.0
 10
910.6020634978
 20
160.6761552886
 30
0.0
 10
910.6020634978
 20
160.5677342847
 30
0.0
  0
SPLINE
  5
4E8
100
AcDbEntity
  8
KONSTRUKTIONSELEMENTE
100
AcDbSpline
 62
7
  6
CONTINUOUS
 70
0
 71
3
 72
19
 73
15
 74
0
 42
0.0000001
 43
0.0000001
 44
0.0000000001
 40
0.0
 40
0.0
 40
0.0
 40
0.0
 40
0.0298591125
 40
0.0649654204
 40
0.1083133475
 40
0.1607531931
 40
0.2219444693
 40
0.2908720764
 40
0.4453922444
 40
0.6093363335
 40
0.765923282
 40
0.8997117143
 40
0.9544781516
 40
1.0
 40
1.0
 40
1.0
 40
1.0
 10
906.1895847885
 20
165.6630717685
 30
0.0
 10
906.2445110683
 20
165.7107991052
 30
0.0
 10
906.3932674849
 20
165.7824400197
 30
0.0
 10
906.6615556582
 20
165.7917348296
 30
0.0
 10
906.9747279954
 20
165.7205734338
 30
0.0
 10
907.329065786
 20
165.5730020166
 30
0.0
 10
907.7164427324
 20
165.3525113214
 30
0.0
 10
908.2845920061
 20
164.9532012312
 30
0.0
 10
908.9903526252
 20
164.3213232826
 30
0.0
 10
909.7564894034
 20
163.4498627089
 30
0.0
 10
910.3845739662
 20
162.5354676657
 30
0.0
 10
910.7624970636
 20
161.7776130495
 30
0.0
 10
910.9235540498
 20
161.2291178714
 30
0.0
 10
910.9556168884
 20
160.984855241
 30
0.0
 10
910.9556168884
 20
160.8739205026
 30
0.0
  0
SPLINE
  5
4E9
100
AcDbEntity
  8
KONSTRUKTIONSELEMENTE
100
AcDbSpline
 62
7
  6
CONTINUOUS
 70
0
 71
3
 72
9
 73
5
 74
0
 42
0.0000001
 43
0.0000001
 44
0.0000000001
 40
0.0
 40
0.0
 40
0.0
 40
0.0
 40
0.5474286833
 40
1.0
 40
1.0
 40
1.0
 40
1.0
 10
910.9556168884
 20
160.8739205026
 30
0.0
 10
910.9556168884
 20
160.7739938621
 30
0.0
 10
910.9351306073
 20
160.5887178043
 30
0.0
 10
910.834260123
 20
160.425561825
 30
0.0
 10
910.77190152
 20
160.3713762865
 30
0.0
  0
SPLINE
  5
4EA
100
AcDbEntity
  8
KONSTRUKTIONSELEMENTE
100
AcDbSpline
 62
7
  6
CONTINUOUS
 70
0
 71
3
 72
9
 73
5
 74
0
 42
0.0000001
 43
0.0000001
 44
0.0000000001
 40
0.0
 40
0.0
 40
0.0
 40
0.0
 40
0.5474286833
 40
1.0
 40
1.0
 40
1.0
 40
1.0
 10
857.5690549088
 20
114.6398016075
 30
0.0
 10
857.5690549088
 20
114.539874967
 30
0.0
 10
857.5485686277
 20
114.3545989092
 30
0.0
 10
857.4476981435
 20
114.1914429299
 30
0.0
 10
857.3853395404
 20
114.1372573915
 30
0.0
  0
SPLINE
  5
4EB
100
AcDbEntity
  8
KONSTRUKTIONSELEMENTE
100
AcDbSpline
 62
7
  6
CONTINUOUS
 70
0
 71
3
 72
9
 73
5
 74
0
 42
0.0000001
 43
0.0000001
 44
0.0000000001
 40
0.0
 40
0.0
 40
0.0
 40
0.0
 40
0.2418469557
 40
1.0
 40
1.0
 40
1.0
 40
1.0
 10
857.6820115377
 20
114.4016216843
 30
0.0
 10
857.6702642107
 20
114.3943589131
 30
0.0
 10
857.6203140212
 20
114.3665639014
 30
0.0
 10
857.565456493
 20
114.3480254596
 30
0.0
 10
857.5231922871
 20
114.3386306285
 30
0.0
  0
SPLINE
  5
4EC
100
AcDbEntity
  8
KONSTRUKTIONSELEMENTE
100
AcDbSpline
 62
7
  6
CONTINUOUS
 70
0
 71
3
 72
9
 73
5
 74
0
 42
0.0000001
 43
0.0000001
 44
0.0000000001
 40
0.0
 40
0.0
 40
0.0
 40
0.0
 40
0.4536655057
 40
1.0
 40
1.0
 40
1.0
 40
1.0
 10
869.7209363335
 20
115.648174688
 30
0.0
 10
869.7212175973
 20
115.2526659654
 30
0.0
 10
869.5027721303
 20
114.3736951248
 30
0.0
 10
868.9314222253
 20
113.6781797655
 30
0.0
 10
868.5713745476
 20
113.3663693301
 30
0.0
  0
SPLINE
  5
4ED
100
AcDbEntity
  8
KONSTRUKTIONSELEMENTE
100
AcDbSpline
 62
7
  6
CONTINUOUS
 70
0
 71
3
 72
11
 73
7
 74
0
 42
0.0000001
 43
0.0000001
 44
0.0000000001
 40
0.0
 40
0.0
 40
0.0
 40
0.0
 40
0.2462174959
 40
0.4960111032
 40
0.747993541
 40
1.0
 40
1.0
 40
1.0
 40
1.0
 10
857.1869553705
 20
123.2255655448
 30
0.0
 10
857.901002605
 20
123.8439485894
 30
0.0
 10
859.505239473
 20
124.9094254843
 30
0.0
 10
862.2282470384
 20
125.8917394795
 30
0.0
 10
865.1242921532
 20
126.2320853553
 30
0.0
 10
867.0658199593
 20
126.0177335189
 30
0.0
 10
868.008250187
 20
125.8020103506
 30
0.0
  0
SPLINE
  5
4EE
100
AcDbEntity
  8
KONSTRUKTIONSELEMENTE
100
AcDbSpline
 62
7
  6
CONTINUOUS
 70
0
 71
3
 72
11
 73
7
 74
0
 42
0.0000001
 43
0.0000001
 44
0.0000000001
 40
0.0
 40
0.0
 40
0.0
 40
0.0
 40
0.2527027043
 40
0.5031447787
 40
0.7519832681
 40
1.0
 40
1.0
 40
1.0
 40
1.0
 10
873.9203386489
 20
122.4943770749
 30
0.0
 10
874.3595716452
 20
122.0324572606
 30
0.0
 10
875.1546213395
 20
121.032721089
 30
0.0
 10
876.0457697149
 20
119.3458696922
 30
0.0
 10
876.5963114779
 20
117.5311591905
 30
0.0
 10
876.7204934877
 20
116.274445598
 30
0.0
 10
876.7203604549
 20
115.6488522695
 30
0.0
  0
SPLINE
  5
4EF
100
AcDbEntity
  8
KONSTRUKTIONSELEMENTE
100
AcDbSpline
 62
7
  6
CONTINUOUS
 70
0
 71
3
 72
11
 73
7
 74
0
 42
0.0000001
 43
0.0000001
 44
0.0000000001
 40
0.0
 40
0.0
 40
0.0
 40
0.0
 40
0.2474731587
 40
0.4959977795
 40
0.74660939
 40
1.0
 40
1.0
 40
1.0
 40
1.0
 10
876.7203604549
 20
115.6488522695
 30
0.0
 10
876.7202092629
 20
114.937864356
 30
0.0
 10
876.5590777042
 20
113.5078672576
 30
0.0
 10
875.8485732495
 20
111.4662769509
 30
0.0
 10
874.7084992048
 20
109.6107120448
 30
0.0
 10
873.7042579795
 20
108.5514471881
 30
0.0
 10
873.1539502426
 20
108.074866708
 30
0.0
  0
SPLINE
  5
4F0
100
AcDbEntity
  8
KONSTRUKTIONSELEMENTE
100
AcDbSpline
 62
7
  6
CONTINUOUS
 70
0
 71
3
 72
9
 73
5
 74
0
 42
0.0000001
 43
0.0000001
 44
0.0000000001
 40
0.0
 40
0.0
 40
0.0
 40
0.0
 40
0.2360454846
 40
1.0
 40
1.0
 40
1.0
 40
1.0
 10
861.7695310655
 20
117.9340629227
 30
0.0
 10
861.8701299943
 20
118.0211841506
 30
0.0
 10
862.3142410919
 20
118.3693240029
 30
0.0
 10
862.823782091
 20
118.6315765916
 30
0.0
 10
863.2278839419
 20
118.7806139728
 30
0.0
  0
SPLINE
  5
4F1
100
AcDbEntity
  8
KONSTRUKTIONSELEMENTE
100
AcDbSpline
 62
7
  6
CONTINUOUS
 70
0
 71
3
 72
9
 73
5
 74
0
 42
0.0000001
 43
0.0000001
 44
0.0000000001
 40
0.0
 40
0.0
 40
0.0
 40
0.0
 40
0.5182428296
 40
1.0
 40
1.0
 40
1.0
 40
1.0
 10
869.3823557215
 20
116.9411476471
 30
0.0
 10
869.4931161022
 20
116.7365024151
 30
0.0
 10
869.6626362528
 20
116.3151621189
 30
0.0
 10
869.7207825033
 20
115.8644884312
 30
0.0
 10
869.7209363335
 20
115.648174688
 30
0.0
  0
SPLINE
  5
4F2
100
AcDbEntity
  8
KONSTRUKTIONSELEMENTE
100
AcDbSpline
 62
7
  6
CONTINUOUS
 70
0
 71
3
 72
9
 73
5
 74
0
 42
0.0000001
 43
0.0000001
 44
0.0000000001
 40
0.0
 40
0.0
 40
0.0
 40
0.0
 40
0.4893904827
 40
1.0
 40
1.0
 40
1.0
 40
1.0
 10
860.1568038515
 20
106.0791373454
 30
0.0
 10
859.362709055
 20
105.3914310786
 30
0.0
 10
857.2037769724
 20
104.5916152306
 30
0.0
 10
854.9624700993
 20
105.054141778
 30
0.0
 10
854.0163843186
 20
105.6075099065
 30
0.0
  0
SPLINE
  5
4F3
100
AcDbEntity
  8
KONSTRUKTIONSELEMENTE
100
AcDbSpline
 62
7
  6
CONTINUOUS
 70
0
 71
3
 72
11
 73
7
 74
0
 42
0.0000001
 43
0.0000001
 44
0.0000000001
 40
0.0
 40
0.0
 40
0.0
 40
0.0
 40
0.2473324393
 40
0.4990256767
 40
0.7513047528
 40
1.0
 40
1.0
 40
1.0
 40
1.0
 10
864.7393795465
 20
100.7876347232
 30
0.0
 10
863.7278085761
 20
99.9115885652
 30
0.0
 10
861.3478440549
 20
98.5066202038
 30
0.0
 10
857.2974441429
 20
97.6835819284
 30
0.0
 10
853.1861447476
 20
98.1673056815
 30
0.0
 10
850.6839437203
 20
99.360344813
 30
0.0
 10
849.5898767808
 20
100.1436318373
 30
0.0
  0
SPLINE
  5
4F4
100
AcDbEntity
  8
KONSTRUKTIONSELEMENTE
100
AcDbSpline
 62
7
  6
CONTINUOUS
 70
0
 71
3
 72
15
 73
11
 74
0
 42
0.0000001
 43
0.0000001
 44
0.0000000001
 40
0.0
 40
0.0
 40
0.0
 40
0.0
 40
0.085079861
 40
0.1998048323
 40
0.3383129227
 40
0.4904145936
 40
0.6439832079
 40
0.7866762645
 40
0.9078248707
 40
1.0
 40
1.0
 40
1.0
 40
1.0
 10
853.206891257
 20
119.5496143928
 30
0.0
 10
853.4018528475
 20
119.5433312356
 30
0.0
 10
853.8504984703
 20
119.4017999671
 30
0.0
 10
854.5199422155
 20
119.0085736158
 30
0.0
 10
855.2466557607
 20
118.4236289151
 30
0.0
 10
855.9627583493
 20
117.6971760812
 30
0.0
 10
856.605308502
 20
116.8925329658
 30
0.0
 10
857.1183150516
 20
116.0810090853
 30
0.0
 10
857.4564267171
 20
115.3368317338
 30
0.0
 10
857.5690549088
 20
114.851131757
 30
0.0
 10
857.5690549088
 20
114.6398016075
 30
0.0
  0
SPLINE
  5
4F5
100
AcDbEntity
  8
KONSTRUKTIONSELEMENTE
100
AcDbSpline
 62
7
  6
CONTINUOUS
 70
0
 71
3
 72
19
 73
15
 74
0
 42
0.0000001
 43
0.0000001
 44
0.0000000001
 40
0.0
 40
0.0
 40
0.0
 40
0.0
 40
0.0298591125
 40
0.0649654204
 40
0.1083133475
 40
0.1607531931
 40
0.2219444693
 40
0.2908720764
 40
0.4453922444
 40
0.6093363335
 40
0.765923282
 40
0.8997117143
 40
0.9544781516
 40
1.0
 40
1.0
 40
1.0
 40
1.0
 10
853.1565761995
 20
119.7351390913
 30
0.0
 10
853.2115024793
 20
119.782866428
 30
0.0
 10
853.3602588959
 20
119.8545073426
 30
0.0
 10
853.6285470692
 20
119.8638021524
 30
0.0
 10
853.9417194064
 20
119.7926407566
 30
0.0
 10
854.296057197
 20
119.6450693395
 30
0.0
 10
854.6834341434
 20
119.4245786443
 30
0.0
 10
855.2515834172
 20
119.025268554
 30
0.0
 10
855.9573440362
 20
118.3933906055
 30
0.0
 10
856.7234808144
 20
117.5219300317
 30
0.0
 10
857.3515653772
 20
116.6075349885
 30
0.0
 10
857.7294884746
 20
115.8496803724
 30
0.0
 10
857.8905454608
 20
115.3011851942
 30
0.0
 10
857.9226082994
 20
115.0569225638
 30
0.0
 10
857.9226082994
 20
114.9459878254
 30
0.0
  0
SPLINE
  5
4F6
100
AcDbEntity
  8
KONSTRUKTIONSELEMENTE
100
AcDbSpline
 62
7
  6
CONTINUOUS
 70
0
 71
3
 72
9
 73
5
 74
0
 42
0.0000001
 43
0.0000001
 44
0.0000000001
 40
0.0
 40
0.0
 40
0.0
 40
0.0
 40
0.5474286833
 40
1.0
 40
1.0
 40
1.0
 40
1.0
 10
857.9226082994
 20
114.9459878254
 30
0.0
 10
857.9226082994
 20
114.8460611849
 30
0.0
 10
857.9021220183
 20
114.6607851271
 30
0.0
 10
857.801251534
 20
114.4976291478
 30
0.0
 10
857.738892931
 20
114.4434436093
 30
0.0
  0
SPLINE
  5
4F7
100
AcDbEntity
  8
KONSTRUKTIONSELEMENTE
100
AcDbSpline
 62
7
  6
CONTINUOUS
 70
0
 71
3
 72
9
 73
5
 74
0
 42
0.0000001
 43
0.0000001
 44
0.0000000001
 40
0.0
 40
0.0
 40
0.0
 40
0.0
 40
0.4923585199
 40
1.0
 40
1.0
 40
1.0
 40
1.0
 10
948.4345958837
 20
162.9675766334
 30
0.0
 10
950.231104721
 20
164.5233989246
 30
0.0
 10
953.7623398442
 20
167.8207344952
 30
0.0
 10
957.0669063509
 20
171.3441872667
 30
0.0
 10
958.6852233432
 20
173.184065521
 30
0.0
  0
SPLINE
  5
4F8
100
AcDbEntity
  8
KONSTRUKTIONSELEMENTE
100
AcDbSpline
 62
7
  6
CONTINUOUS
 70
0
 71
3
 72
13
 73
9
 74
0
 42
0.0000001
 43
0.0000001
 44
0.0000000001
 40
0.0
 40
0.0
 40
0.0
 40
0.0
 40
0.2718158477
 40
0.5211952567
 40
0.6414563161
 40
0.7607872971
 40
0.880202066
 40
1.0
 40
1.0
 40
1.0
 40
1.0
 10
976.7853953442
 20
204.3203286911
 30
0.0
 10
977.0744290372
 20
205.6167690144
 30
0.0
 10
977.4726222839
 20
208.1429147759
 30
0.0
 10
977.3749294373
 20
211.305554168
 30
0.0
 10
976.8248112528
 20
213.6389650884
 30
0.0
 10
976.1587055505
 20
215.2709434249
 30
0.0
 10
975.2160717936
 20
216.7591783696
 30
0.0
 10
974.4066903829
 20
217.6151018716
 30
0.0
 10
973.9639123696
 20
217.9980550154
 30
0.0
  0
SPLINE
  5
4F9
100
AcDbEntity
  8
KONSTRUKTIONSELEMENTE
100
AcDbSpline
 62
7
  6
CONTINUOUS
 70
0
 71
3
 72
15
 73
11
 74
0
 42
0.0000001
 43
0.0000001
 44
0.0000000001
 40
0.0
 40
0.0
 40
0.0
 40
0.0
 40
0.0213843792
 40
0.0703247638
 40
0.1554981516
 40
0.2744075703
 40
0.4225940244
 40
0.5957253586
 40
0.789600204
 40
1.0
 40
1.0
 40
1.0
 40
1.0
 10
968.7274692913
 20
211.9510467738
 30
0.0
 10
968.6038957494
 20
212.0624379661
 30
0.0
 10
968.0818521224
 20
212.2821029492
 30
0.0
 10
966.866142212
 20
212.3782692547
 30
0.0
 10
964.9052181839
 20
212.0723205422
 30
0.0
 10
962.2989257627
 20
211.1995324063
 30
0.0
 10
959.2041231199
 20
209.715912013
 30
0.0
 10
955.7676988363
 20
207.6437368556
 30
0.0
 10
952.1084171746
 20
205.0318213156
 30
0.0
 10
949.6719678571
 20
203.0391721963
 30
0.0
 10
948.4345958837
 20
201.9675766334
 30
0.0
  0
SPLINE
  5
4FA
100
AcDbEntity
  8
KONSTRUKTIONSELEMENTE
100
AcDbSpline
 62
7
  6
CONTINUOUS
 70
0
 71
3
 72
9
 73
5
 74
0
 42
0.0000001
 43
0.0000001
 44
0.0000000001
 40
0.0
 40
0.0
 40
0.0
 40
0.0
 40
0.4911494074
 40
1.0
 40
1.0
 40
1.0
 40
1.0
 10
943.197366518
 20
169.0150082016
 30
0.0
 10
944.7173491308
 20
170.3313517575
 30
0.0
 10
947.7198615544
 20
173.1191823189
 30
0.0
 10
950.5457362109
 20
176.0851597682
 30
0.0
 10
951.937947682
 20
177.6348488229
 30
0.0
  0
SPLINE
  5
4FB
100
AcDbEntity
  8
KONSTRUKTIONSELEMENTE
100
AcDbSpline
 62
7
  6
CONTINUOUS
 70
0
 71
3
 72
11
 73
7
 74
0
 42
0.0000001
 43
0.0000001
 44
0.0000000001
 40
0.0
 40
0.0
 40
0.0
 40
0.0
 40
0.4234440313
 40
0.7154661397
 40
0.8912888548
 40
1.0
 40
1.0
 40
1.0
 40
1.0
 10
969.3854887358
 20
209.749592861
 30
0.0
 10
969.3716870158
 20
210.080278533
 30
0.0
 10
969.3187796351
 20
210.6402017755
 30
0.0
 10
969.1338259949
 20
211.3141098085
 30
0.0
 10
968.9403656304
 20
211.7264396255
 30
0.0
 10
968.7905833671
 20
211.8941547235
 30
0.0
 10
968.7274692913
 20
211.9510467738
 30
0.0
  0
SPLINE
  5
4FC
100
AcDbEntity
  8
KONSTRUKTIONSELEMENTE
100
AcDbSpline
 62
7
  6
CONTINUOUS
 70
0
 71
3
 72
19
 73
15
 74
0
 42
0.0000001
 43
0.0000001
 44
0.0000000001
 40
0.0
 40
0.0
 40
0.0
 40
0.0
 40
0.1472206894
 40
0.2987857613
 40
0.4477911127
 40
0.5876443316
 40
0.6524163413
 40
0.7130618242
 40
0.7693229674
 40
0.8212295232
 40
0.8691953116
 40
0.9141070491
 40
0.9572741652
 40
1.0
 40
1.0
 40
1.0
 40
1.0
 10
943.197366518
 20
208.0150082016
 30
0.0
 10
940.8502121451
 20
205.982312888
 30
0.0
 10
936.2855912079
 20
201.623409926
 30
0.0
 10
930.0198080967
 20
194.5433958578
 30
0.0
 10
924.455753659
 20
187.0919801506
 30
0.0
 10
920.5402900767
 20
180.7277778274
 30
0.0
 10
918.0172457631
 20
175.7308956275
 30
0.0
 10
916.5089952673
 20
172.2052019543
 30
0.0
 10
915.3548940155
 20
168.8329114322
 30
0.0
 10
914.5740138764
 20
165.6281207368
 30
0.0
 10
914.1923178729
 20
162.5901805003
 30
0.0
 10
914.2575054318
 20
159.7078550644
 30
0.0
 10
914.8531878992
 20
156.9931989794
 30
0.0
 10
915.6788357039
 20
155.3501195652
 30
0.0
 10
916.1976120863
 20
154.6133106206
 30
0.0
  0
SPLINE
  5
4FD
100
AcDbEntity
  8
KONSTRUKTIONSELEMENTE
100
AcDbSpline
 62
7
  6
CONTINUOUS
 70
0
 71
3
 72
17
 73
13
 74
0
 42
0.0000001
 43
0.0000001
 44
0.0000000001
 40
0.0
 40
0.0
 40
0.0
 40
0.0
 40
0.050294881
 40
0.1004242241
 40
0.1505058728
 40
0.2009888934
 40
0.3055935329
 40
0.4195168701
 40
0.5458063933
 40
0.6853288951
 40
0.8373308712
 40
1.0
 40
1.0
 40
1.0
 40
1.0
 10
973.9639123696
 20
217.9980550154
 30
0.0
 10
973.5232571908
 20
218.3791721463
 30
0.0
 10
972.5656604243
 20
219.0552016958
 30
0.0
 10
970.9662362073
 20
219.7725839233
 30
0.0
 10
969.2651850115
 20
220.1994317657
 30
0.0
 10
966.8904070374
 20
220.4143406837
 30
0.0
 10
963.7635462564
 20
220.0689147665
 30
0.0
 10
959.9304645456
 20
218.8958826863
 30
0.0
 10
955.9245262479
 20
217.0544359138
 30
0.0
 10
951.7506116704
 20
214.5916365592
 30
0.0
 10
947.4491724358
 20
211.5538004796
 30
0.0
 10
944.6217787244
 20
209.2485853578
 30
0.0
 10
943.197366518
 20
208.0150082016
 30
0.0
  0
SPLINE
  5
4FE
100
AcDbEntity
  8
KONSTRUKTIONSELEMENTE
100
AcDbSpline
 62
7
  6
CONTINUOUS
 70
0
 71
3
 72
11
 73
7
 74
0
 42
0.0000001
 43
0.0000001
 44
0.0000000001
 40
0.0
 40
0.0
 40
0.0
 40
0.0
 40
0.207475201
 40
0.4468017599
 40
0.7127361454
 40
1.0
 40
1.0
 40
1.0
 40
1.0
 10
929.6001774086
 20
159.9640079123
 30
0.0
 10
930.6445173477
 20
160.4050250525
 30
0.0
 10
932.8343373181
 20
161.4960358709
 30
0.0
 10
936.1551060659
 20
163.5373074354
 30
0.0
 10
939.6716929315
 20
166.0699346432
 30
0.0
 10
942.0108567218
 20
167.9874605762
 30
0.0
 10
943.197366518
 20
169.0150082016
 30
0.0
  0
SPLINE
  5
4FF
100
AcDbEntity
  8
KONSTRUKTIONSELEMENTE
100
AcDbSpline
 62
7
  6
CONTINUOUS
 70
0
 71
3
 72
14
 73
10
 74
0
 42
0.0000001
 43
0.0000001
 44
0.0000000001
 40
0.0
 40
0.0
 40
0.0
 40
0.0
 40
0.0969995246
 40
0.1987398502
 40
0.3081724911
 40
0.4271247046
 40
0.5562895679
 40
0.6954742876
 40
1.0
 40
1.0
 40
1.0
 40
1.0
 10
922.5029203788
 20
150.8069583313
 30
0.0
 10
923.4415075384
 20
150.6590820916
 30
0.0
 10
925.4060261222
 20
150.5967768816
 30
0.0
 10
928.3983892238
 20
151.0772300611
 30
0.0
 10
931.4939858522
 20
152.0418847285
 30
0.0
 10
934.7074381083
 20
153.4484385647
 30
0.0
 10
938.0395798974
 20
155.2708789761
 30
0.0
 10
942.7572036836
 20
158.3160732928
 30
0.0
 10
946.1796594852
 20
161.0147444284
 30
0.0
 10
948.4345958837
 20
162.9675766334
 30
0.0
  0
SPLINE
  5
500
100
AcDbEntity
  8
KONSTRUKTIONSELEMENTE
100
AcDbSpline
 62
7
  6
CONTINUOUS
 70
0
 71
3
 72
18
 73
14
 74
0
 42
0.0000001
 43
0.0000001
 44
0.0000000001
 40
0.0
 40
0.0
 40
0.0
 40
0.0
 40
0.150109784
 40
0.3056698898
 40
0.4602364294
 40
0.6073878209
 40
0.7408905132
 40
0.8006727015
 40
0.854818949
 40
0.9025922289
 40
0.9432283348
 40
0.9759344021
 40
1.0
 40
1.0
 40
1.0
 40
1.0
 10
948.4345958837
 20
201.9675766334
 30
0.0
 10
946.5259683096
 20
200.3146566679
 30
0.0
 10
942.7839121673
 20
196.7794085213
 30
0.0
 10
937.5659117032
 20
191.0524117286
 30
0.0
 10
932.809470994
 20
184.9985039998
 30
0.0
 10
928.7374651417
 20
178.9063499581
 30
0.0
 10
925.9743270357
 20
173.8789042293
 30
0.0
 10
924.284828609
 20
170.0729298492
 30
0.0
 10
923.3425105249
 20
167.519114623
 30
0.0
 10
922.6855042333
 20
165.2102869367
 30
0.0
 10
922.3121897221
 20
163.2034839202
 30
0.0
 10
922.2030906503
 20
161.5648800976
 30
0.0
 10
922.2820731852
 20
160.6069138948
 30
0.0
 10
922.3635780744
 20
160.2104161487
 30
0.0
  0
LINE
  5
501
100
AcDbEntity
  8
BEZUGSACHSEN
100
AcDbLine
 62
7
  6
CONTINUOUS
 10
995.6983285327
 20
215.2300627868
 11
995.7182335633
 21
215.3420690671
  0
LINE
  5
502
100
AcDbEntity
  8
BEZUGSACHSEN
100
AcDbLine
 62
7
  6
CONTINUOUS
 10
995.864117069
 20
215.9488561147
 11
995.87037339
 21
215.9715739913
  0
LINE
  5
503
100
AcDbEntity
  8
BEZUGSACHSEN
100
AcDbLine
 62
7
  6
CONTINUOUS
 10
995.6999199147
 20
216.460177789
 11
995.7386393722
 21
216.6182516495
  0
LINE
  5
504
100
AcDbEntity
  8
BEZUGSACHSEN
100
AcDbLine
 62
7
  6
CONTINUOUS
 10
995.7386393722
 20
216.6182516495
 11
995.7784899065
 21
216.7763048926
  0
LINE
  5
505
100
AcDbEntity
  8
BEZUGSACHSEN
100
AcDbLine
 62
7
  6
CONTINUOUS
 10
996.2075856319
 20
218.2251788267
 11
996.4834234565
 21
219.1232331955
  0
LINE
  5
506
100
AcDbEntity
  8
BEZUGSACHSEN
100
AcDbLine
 62
7
  6
CONTINUOUS
 10
996.4834234565
 20
219.1232331955
 11
996.8218753234
 21
220.21526297
  0
LINE
  5
507
100
AcDbEntity
  8
BEZUGSACHSEN
100
AcDbLine
 62
7
  6
CONTINUOUS
 10
997.8239887925
 20
223.4302771789
 11
996.8218753234
 21
220.21526297
  0
LINE
  5
508
100
AcDbEntity
  8
BEZUGSACHSEN
100
AcDbLine
 62
7
  6
CONTINUOUS
 10
998.1540409335
 20
224.4815906106
 11
997.8239887925
 21
223.4302771789
  0
SPLINE
  5
509
100
AcDbEntity
  8
BEZUGSACHSEN
100
AcDbSpline
 62
7
  6
CONTINUOUS
 70
0
 71
3
 72
8
 73
4
 74
0
 42
0.0000001
 43
0.0000001
 44
0.0000000001
 40
0.0
 40
0.0
 40
0.0
 40
0.0
 40
1.0
 40
1.0
 40
1.0
 40
1.0
 10
998.4138782155
 20
225.2982104766
 30
0.0
 10
998.3271322283
 20
225.0260463876
 30
0.0
 10
998.2405177211
 20
224.7538403541
 30
0.0
 10
998.1540409335
 20
224.4815906106
 30
0.0
  0
LINE
  5
50A
100
AcDbEntity
  8
BEZUGSACHSEN
100
AcDbLine
 62
7
  6
CONTINUOUS
 10
998.7187775366
 20
226.216822034
 11
998.6989404721
 21
226.1608008311
  0
LINE
  5
50B
100
AcDbEntity
  8
BEZUGSACHSEN
100
AcDbLine
 62
7
  6
CONTINUOUS
 10
998.6989404721
 20
226.1608008311
 11
998.6683804676
 21
226.0741133993
  0
LINE
  5
50C
100
AcDbEntity
  8
BEZUGSACHSEN
100
AcDbLine
 62
7
  6
CONTINUOUS
 10
995.7963775292
 20
216.2508889917
 11
996.9471337218
 21
219.8670337695
  0
LINE
  5
50D
100
AcDbEntity
  8
BEZUGSACHSEN
100
AcDbLine
 62
7
  6
CONTINUOUS
 10
996.9471337218
 20
219.8670337695
 11
997.1348145158
 21
220.4567295385
  0
LINE
  5
50E
100
AcDbEntity
  8
BEZUGSACHSEN
100
AcDbLine
 62
7
  6
CONTINUOUS
 10
997.1348145158
 20
220.4567295385
 11
997.3481414857
 21
221.1269833562
  0
LINE
  5
50F
100
AcDbEntity
  8
BEZUGSACHSEN
100
AcDbLine
 62
7
  6
CONTINUOUS
 10
997.3481414857
 20
221.1269833562
 11
997.3614636791
 21
221.1688396942
  0
LINE
  5
510
100
AcDbEntity
  8
BEZUGSACHSEN
100
AcDbLine
 62
7
  6
CONTINUOUS
 10
997.3614636791
 20
221.1688396942
 11
997.4737319104
 21
221.52156614
  0
LINE
  5
511
100
AcDbEntity
  8
BEZUGSACHSEN
100
AcDbLine
 62
7
  6
CONTINUOUS
 10
997.4737319104
 20
221.52156614
 11
997.5365498093
 21
221.7189258664
  0
LINE
  5
512
100
AcDbEntity
  8
BEZUGSACHSEN
100
AcDbLine
 62
7
  6
CONTINUOUS
 10
997.5365498093
 20
221.7189258664
 11
997.6637967097
 21
222.1187011257
  0
LINE
  5
513
100
AcDbEntity
  8
BEZUGSACHSEN
100
AcDbLine
 62
7
  6
CONTINUOUS
 10
997.6637967097
 20
222.1187011257
 11
997.8646668619
 21
222.7497648895
  0
LINE
  5
514
100
AcDbEntity
  8
BEZUGSACHSEN
100
AcDbLine
 62
7
  6
CONTINUOUS
 10
997.8646668619
 20
222.7497648895
 11
998.076350163
 21
223.4147794667
  0
LINE
  5
515
100
AcDbEntity
  8
BEZUGSACHSEN
100
AcDbLine
 62
7
  6
CONTINUOUS
 10
998.076350163
 20
223.4147794667
 11
998.140204573
 21
223.6153775748
  0
LINE
  5
516
100
AcDbEntity
  8
BEZUGSACHSEN
100
AcDbLine
 62
7
  6
CONTINUOUS
 10
998.140204573
 20
223.6153775748
 11
998.2319371834
 21
223.9035516556
  0
LINE
  5
517
100
AcDbEntity
  8
BEZUGSACHSEN
100
AcDbLine
 62
7
  6
CONTINUOUS
 10
998.2319371834
 20
223.9035516556
 11
998.3315026863
 21
224.2163282707
  0
LINE
  5
518
100
AcDbEntity
  8
BEZUGSACHSEN
100
AcDbLine
 62
7
  6
CONTINUOUS
 10
998.3315026863
 20
224.2163282707
 11
998.540988125
 21
224.8743952592
  0
LINE
  5
519
100
AcDbEntity
  8
BEZUGSACHSEN
100
AcDbLine
 62
7
  6
CONTINUOUS
 10
998.540988125
 20
224.8743952592
 11
998.9430430608
 21
226.1373401118
  0
LINE
  5
51A
100
AcDbEntity
  8
BEZUGSACHSEN
100
AcDbLine
 62
7
  6
CONTINUOUS
 10
998.5474010129
 20
223.889184225
 11
998.5320073895
 21
223.8080270839
  0
LINE
  5
51B
100
AcDbEntity
  8
BEZUGSACHSEN
100
AcDbLine
 62
7
  6
CONTINUOUS
 10
998.5320073895
 20
223.8080270839
 11
998.4020845575
 21
223.3110978954
  0
LINE
  5
51C
100
AcDbEntity
  8
BEZUGSACHSEN
100
AcDbLine
 62
7
  6
CONTINUOUS
 10
998.4020845575
 20
223.3110978954
 11
998.2034410456
 21
222.6419328675
  0
LINE
  5
51D
100
AcDbEntity
  8
BEZUGSACHSEN
100
AcDbLine
 62
7
  6
CONTINUOUS
 10
998.2034410456
 20
222.6419328675
 11
998.0025295835
 21
222.010882282
  0
LINE
  5
51E
100
AcDbEntity
  8
BEZUGSACHSEN
100
AcDbLine
 62
7
  6
CONTINUOUS
 10
997.7992694802
 20
221.4179473174
 11
998.0025295835
 21
222.010882282
  0
LINE
  5
51F
100
AcDbEntity
  8
BEZUGSACHSEN
100
AcDbLine
 62
7
  6
CONTINUOUS
 10
997.6610644342
 20
221.0734765108
 11
997.7992694802
 21
221.4179473174
  0
LINE
  5
520
100
AcDbEntity
  8
BEZUGSACHSEN
100
AcDbLine
 62
7
  6
CONTINUOUS
 10
997.3281879949
 20
219.9836123577
 11
996.886650865
 21
218.4770642085
  0
LINE
  5
521
100
AcDbEntity
  8
BEZUGSACHSEN
100
AcDbLine
 62
7
  6
CONTINUOUS
 10
998.6771944074
 20
224.0381536678
 11
998.5314834774
 21
223.5014577652
  0
LINE
  5
522
100
AcDbEntity
  8
BEZUGSACHSEN
100
AcDbLine
 62
7
  6
CONTINUOUS
 10
998.6942605334
 20
224.1083502729
 11
998.6771944074
 21
224.0381536678
  0
LINE
  5
523
100
AcDbEntity
  8
BEZUGSACHSEN
100
AcDbLine
 62
7
  6
CONTINUOUS
 10
995.781772536
 20
216.0222005465
 11
995.8492473225
 21
216.234049517
  0
LINE
  5
524
100
AcDbEntity
  8
BEZUGSACHSEN
100
AcDbLine
 62
7
  6
CONTINUOUS
 10
995.8492473225
 20
216.234049517
 11
997.000981417
 21
219.849946522
  0
LINE
  5
525
100
AcDbEntity
  8
BEZUGSACHSEN
100
AcDbLine
 62
7
  6
CONTINUOUS
 10
997.000981417
 20
219.849946522
 11
997.1887911568
 21
220.4395511096
  0
LINE
  5
526
100
AcDbEntity
  8
BEZUGSACHSEN
100
AcDbLine
 62
7
  6
CONTINUOUS
 10
997.5908219603
 20
221.7016511022
 11
997.7181800163
 21
222.1014611607
  0
LINE
  5
527
100
AcDbEntity
  8
BEZUGSACHSEN
100
AcDbLine
 62
7
  6
CONTINUOUS
 10
997.7181800163
 20
222.1014611607
 11
997.840889485
 21
222.4866752181
  0
LINE
  5
528
100
AcDbEntity
  8
BEZUGSACHSEN
100
AcDbLine
 62
7
  6
CONTINUOUS
 10
997.840889485
 20
222.4866752181
 11
997.9191911653
 21
222.7324812728
  0
LINE
  5
529
100
AcDbEntity
  8
BEZUGSACHSEN
100
AcDbLine
 62
7
  6
CONTINUOUS
 10
997.9191911653
 20
222.7324812728
 11
998.0917652247
 21
223.2742249958
  0
LINE
  5
52A
100
AcDbEntity
  8
BEZUGSACHSEN
100
AcDbLine
 62
7
  6
CONTINUOUS
 10
998.0917652247
 20
223.2742249958
 11
998.1310184459
 21
223.3974477992
  0
LINE
  5
52B
100
AcDbEntity
  8
BEZUGSACHSEN
100
AcDbLine
 62
7
  6
CONTINUOUS
 10
998.1310184459
 20
223.3974477992
 11
998.286704127
 21
223.8861700607
  0
LINE
  5
52C
100
AcDbEntity
  8
BEZUGSACHSEN
100
AcDbLine
 62
7
  6
CONTINUOUS
 10
998.286704127
 20
223.8861700607
 11
998.3434490645
 21
224.0643004699
  0
LINE
  5
52D
100
AcDbEntity
  8
BEZUGSACHSEN
100
AcDbLine
 62
7
  6
CONTINUOUS
 10
998.3434490645
 20
224.0643004699
 11
998.3863331513
 21
224.1989193433
  0
LINE
  5
52E
100
AcDbEntity
  8
BEZUGSACHSEN
100
AcDbLine
 62
7
  6
CONTINUOUS
 10
998.3863331513
 20
224.1989193433
 11
998.5959408979
 21
224.8569016728
  0
SPLINE
  5
52F
100
AcDbEntity
  8
0
100
AcDbSpline
 62
7
  6
CONTINUOUS
 70
0
 71
3
 72
13
 73
9
 74
0
 42
0.0000001
 43
0.0000001
 44
0.0000000001
 40
0.0
 40
0.0
 40
0.0
 40
0.0
 40
0.1163020077
 40
0.2340377015
 40
0.3543777481
 40
0.4780373202
 40
0.7344007909
 40
1.0
 40
1.0
 40
1.0
 40
1.0
 10
996.2056584725
 20
124.1632479499
 30
0.0
 10
996.2056584725
 20
123.4122320394
 30
0.0
 10
996.3790504534
 20
121.8954849948
 30
0.0
 10
997.1460015888
 20
119.720580398
 30
0.0
 10
998.3878490074
 20
117.7209274846
 30
0.0
 10
1000.630054328
 20
115.3673631402
 30
0.0
 10
1004.3423478611
 20
113.2575230393
 30
0.0
 10
1007.7404944441
 20
112.6884113497
 30
0.0
 10
1009.4555915077
 20
112.6884113497
 30
0.0
  0
SPLINE
  5
530
100
AcDbEntity
  8
0
100
AcDbSpline
 62
7
  6
CONTINUOUS
 70
0
 71
3
 72
13
 73
9
 74
0
 42
0.0000001
 43
0.0000001
 44
0.0000000001
 40
0.0
 40
0.0
 40
0.0
 40
0.0
 40
0.2655992091
 40
0.5219626798
 40
0.6456222519
 40
0.7659622985
 40
0.8836979923
 40
1.0
 40
1.0
 40
1.0
 40
1.0
 10
1009.4555915077
 20
112.6884113497
 30
0.0
 10
1011.1706885712
 20
112.6884113497
 30
0.0
 10
1014.5688351543
 20
113.2575230393
 30
0.0
 10
1018.2811286873
 20
115.3673631402
 30
0.0
 10
1020.5233340079
 20
117.7209274846
 30
0.0
 10
1021.7651814266
 20
119.720580398
 30
0.0
 10
1022.5321325619
 20
121.8954849948
 30
0.0
 10
1022.7055245428
 20
123.4122320394
 30
0.0
 10
1022.7055245428
 20
124.1632479499
 30
0.0
  0
SPLINE
  5
531
100
AcDbEntity
  8
0
100
AcDbSpline
 62
7
  6
CONTINUOUS
 70
0
 71
3
 72
9
 73
5
 74
0
 42
0.0000001
 43
0.0000001
 44
0.0000000001
 40
0.0
 40
0.0
 40
0.0
 40
0.0
 40
0.2417535653
 40
1.0
 40
1.0
 40
1.0
 40
1.0
 10
1035.6360138922
 20
99.8458155533
 30
0.0
 10
1036.0018792629
 20
100.3623396003
 30
0.0
 10
1037.4621942613
 20
102.5366383905
 30
0.0
 10
1038.7491333723
 20
104.822149767
 30
0.0
 10
1039.6782402601
 20
106.5766043817
 30
0.0
  0
SPLINE
  5
532
100
AcDbEntity
  8
BEZUGSACHSEN
100
AcDbSpline
 62
7
  6
CONTINUOUS
 70
0
 71
3
 72
9
 73
5
 74
0
 42
0.0000001
 43
0.0000001
 44
0.0000000001
 40
0.0
 40
0.0
 40
0.0
 40
0.0
 40
0.5007989339
 40
1.0
 40
1.0
 40
1.0
 40
1.0
 10
979.9652130171
 20
139.8697616329
 30
0.0
 10
979.4817903056
 20
139.1446275657
 30
0.0
 10
978.7185573114
 20
137.5499462267
 30
0.0
 10
978.4555915077
 20
135.7999191801
 30
0.0
 10
978.4555915077
 20
134.9311971423
 30
0.0
  0
SPLINE
  5
533
100
AcDbEntity
  8
BEZUGSACHSEN
100
AcDbSpline
 62
7
  6
CONTINUOUS
 70
0
 71
3
 72
9
 73
5
 74
0
 42
0.0000001
 43
0.0000001
 44
0.0000000001
 40
0.0
 40
0.0
 40
0.0
 40
0.0
 40
0.509804802
 40
1.0
 40
1.0
 40
1.0
 40
1.0
 10
985.9459751306
 20
148.8409048032
 30
0.0
 10
986.7497417502
 20
150.0465547326
 30
0.0
 10
988.0147163121
 20
152.6413927631
 30
0.0
 10
988.4555915077
 20
155.4994465855
 30
0.0
 10
988.4555915077
 20
156.8927213694
 30
0.0
  0
SPLINE
  5
534
100
AcDbEntity
  8
0
100
AcDbSpline
 62
7
  6
CONTINUOUS
 70
0
 71
3
 72
9
 73
5
 74
0
 42
0.0000001
 43
0.0000001
 44
0.0000000001
 40
0.0
 40
0.0
 40
0.0
 40
0.0
 40
0.5665882405
 40
1.0
 40
1.0
 40
1.0
 40
1.0
 10
1039.6782402601
 20
106.5766043817
 30
0.0
 10
1039.9015808307
 20
106.9983436885
 30
0.0
 10
1040.2542087592
 20
107.7634667883
 30
0.0
 10
1040.4555915077
 20
108.5991496346
 30
0.0
 10
1040.4555915077
 20
108.964204054
 30
0.0
  0
SPLINE
  5
535
100
AcDbEntity
  8
BEZUGSACHSEN
100
AcDbSpline
 62
7
  6
CONTINUOUS
 70
0
 71
3
 72
9
 73
5
 74
0
 42
0.0000001
 43
0.0000001
 44
0.0000000001
 40
0.0
 40
0.0
 40
0.0
 40
0.0
 40
0.2452274517
 40
1.0
 40
1.0
 40
1.0
 40
1.0
 10
1001.9451910404
 20
233.9294544419
 30
0.0
 10
1001.9849760261
 20
234.050955643
 30
0.0
 10
1002.1565530088
 20
234.543343455
 30
0.0
 10
1002.3637676652
 20
235.0230530616
 30
0.0
 10
1002.5359285617
 20
235.3768931218
 30
0.0
  0
SPLINE
  5
536
100
AcDbEntity
  8
RUNDUNGEN
100
AcDbSpline
 62
7
  6
CONTINUOUS
 70
0
 71
3
 72
9
 73
5
 74
0
 42
0.0000001
 43
0.0000001
 44
0.0000000001
 40
0.0
 40
0.0
 40
0.0
 40
0.0
 40
0.5007989339
 40
1.0
 40
1.0
 40
1.0
 40
1.0
 10
1038.9459699983
 20
139.8697616329
 30
0.0
 10
1039.4293927097
 20
139.1446275657
 30
0.0
 10
1040.1926257039
 20
137.5499462267
 30
0.0
 10
1040.4555915077
 20
135.7999191801
 30
0.0
 10
1040.4555915077
 20
134.9311971423
 30
0.0
  0
SPLINE
  5
537
100
AcDbEntity
  8
BEZUGSACHSEN
100
AcDbSpline
 62
7
  6
CONTINUOUS
 70
0
 71
3
 72
9
 73
5
 74
0
 42
0.0000001
 43
0.0000001
 44
0.0000000001
 40
0.0
 40
0.0
 40
0.0
 40
0.0
 40
0.2474258013
 40
1.0
 40
1.0
 40
1.0
 40
1.0
 10
983.2751691232
 20
99.845815547
 30
0.0
 10
983.6322202776
 20
99.3417352955
 30
0.0
 10
985.1434964618
 20
97.3533918488
 30
0.0
 10
986.9196969565
 20
95.5682867679
 30
0.0
 10
988.3643486252
 20
94.3669695166
 30
0.0
  0
SPLINE
  5
538
100
AcDbEntity
  8
RUNDUNGEN
100
AcDbSpline
 62
7
  6
CONTINUOUS
 70
0
 71
3
 72
9
 73
5
 74
0
 42
0.0000001
 43
0.0000001
 44
0.0000000001
 40
0.0
 40
0.0
 40
0.0
 40
0.0
 40
0.509804802
 40
1.0
 40
1.0
 40
1.0
 40
1.0
 10
1032.9652078847
 20
148.8409048032
 30
0.0
 10
1032.1614412652
 20
150.0465547326
 30
0.0
 10
1030.8964667032
 20
152.6413927631
 30
0.0
 10
1030.4555915077
 20
155.4994465855
 30
0.0
 10
1030.4555915077
 20
156.8927213694
 30
0.0
  0
SPLINE
  5
539
100
AcDbEntity
  8
0
100
AcDbSpline
 62
7
  6
CONTINUOUS
 70
0
 71
3
 72
10
 73
6
 74
0
 42
0.0000001
 43
0.0000001
 44
0.0000000001
 40
0.0
 40
0.0
 40
0.0
 40
0.0
 40
0.4966692771
 40
0.7561360185
 40
1.0
 40
1.0
 40
1.0
 40
1.0
 10
1039.1158455455
 20
101.8691843512
 30
0.0
 10
1039.4576888475
 20
100.9131921749
 30
0.0
 10
1039.9351490015
 20
99.4391566831
 30
0.0
 10
1040.3569662501
 20
97.437130645
 30
0.0
 10
1040.4555915077
 20
96.4082781411
 30
0.0
 10
1040.4555915077
 20
95.909780727
 30
0.0
  0
SPLINE
  5
53A
100
AcDbEntity
  8
RUNDUNGEN
100
AcDbSpline
 62
7
  6
CONTINUOUS
 70
0
 71
3
 72
8
 73
4
 74
0
 42
0.0000001
 43
0.0000001
 44
0.0000000001
 40
0.0
 40
0.0
 40
0.0
 40
0.0
 40
1.0
 40
1.0
 40
1.0
 40
1.0
 10
1040.4555915077
 20
69.1261529665
 30
0.0
 10
1040.4555915077
 20
68.4151501891
 30
0.0
 10
1040.297065535
 20
67.688486631
 30
0.0
 10
1040.0006190532
 20
67.042232476
 30
0.0
  0
SPLINE
  5
53B
100
AcDbEntity
  8
BEZUGSACHSEN
100
AcDbSpline
 62
7
  6
CONTINUOUS
 70
0
 71
3
 72
15
 73
11
 74
0
 42
0.0000001
 43
0.0000001
 44
0.0000000001
 40
0.0
 40
0.0
 40
0.0
 40
0.0
 40
0.1178714941
 40
0.2409733788
 40
0.3690164377
 40
0.5
 40
0.6309835623
 40
0.7590266212
 40
0.8821285059
 40
1.0
 40
1.0
 40
1.0
 40
1.0
 10
1033.3242524747
 20
97.0212104522
 30
0.0
 10
1032.4594922546
 20
94.8603934292
 30
0.0
 10
1029.8912115548
 20
90.7306047018
 30
0.0
 10
1024.2090224689
 20
86.0002738133
 30
0.0
 10
1017.1801147275
 20
82.991903988
 30
0.0
 10
1009.4555915077
 20
81.9623919671
 30
0.0
 10
1001.7310682879
 20
82.991903988
 30
0.0
 10
994.7021605464
 20
86.0002738133
 30
0.0
 10
989.0199714605
 20
90.7306047018
 30
0.0
 10
986.4516907608
 20
94.8603934292
 30
0.0
 10
985.5869305406
 20
97.0212104522
 30
0.0
  0
SPLINE
  5
53C
100
AcDbEntity
  8
BEZUGSACHSEN
100
AcDbSpline
 62
7
  6
CONTINUOUS
 70
0
 71
3
 72
9
 73
5
 74
0
 42
0.0000001
 43
0.0000001
 44
0.0000000001
 40
0.0
 40
0.0
 40
0.0
 40
0.0
 40
0.2530003682
 40
1.0
 40
1.0
 40
1.0
 40
1.0
 10
1030.543215646
 20
94.3639607868
 30
0.0
 10
1031.0292366552
 20
94.7679884549
 30
0.0
 10
1032.8994526894
 20
96.4248724724
 30
0.0
 10
1034.5573918197
 20
98.3230307055
 30
0.0
 10
1035.6360138922
 20
99.845815547
 30
0.0
  0
SPLINE
  5
53D
100
AcDbEntity
  8
0
100
AcDbSpline
 62
7
  6
CONTINUOUS
 70
0
 71
3
 72
9
 73
5
 74
0
 42
0.0000001
 43
0.0000001
 44
0.0000000001
 40
0.0
 40
0.0
 40
0.0
 40
0.0
 40
0.2452274517
 40
1.0
 40
1.0
 40
1.0
 40
1.0
 10
1016.9659919749
 20
233.9294544419
 30
0.0
 10
1016.9262069893
 20
234.050955643
 30
0.0
 10
1016.7546300066
 20
234.543343455
 30
0.0
 10
1016.5474153502
 20
235.0230530616
 30
0.0
 10
1016.3752544536
 20
235.3768931218
 30
0.0
  0
SPLINE
  5
53E
100
AcDbEntity
  8
BEZUGSACHSEN
100
AcDbSpline
 62
7
  6
CONTINUOUS
 70
0
 71
3
 72
9
 73
5
 74
0
 42
0.0000001
 43
0.0000001
 44
0.0000000001
 40
0.0
 40
0.0
 40
0.0
 40
0.0
 40
0.2417535653
 40
1.0
 40
1.0
 40
1.0
 40
1.0
 10
983.2751691232
 20
99.8458155533
 30
0.0
 10
982.9093037525
 20
100.3623396003
 30
0.0
 10
981.4489887541
 20
102.5366383905
 30
0.0
 10
980.162049643
 20
104.822149767
 30
0.0
 10
979.2329427553
 20
106.5766043817
 30
0.0
  0
SPLINE
  5
53F
100
AcDbEntity
  8
BEZUGSACHSEN
100
AcDbSpline
 62
7
  6
CONTINUOUS
 70
0
 71
3
 72
9
 73
5
 74
0
 42
0.0000001
 43
0.0000001
 44
0.0000000001
 40
0.0
 40
0.0
 40
0.0
 40
0.0
 40
0.5665882405
 40
1.0
 40
1.0
 40
1.0
 40
1.0
 10
979.2329427553
 20
106.5766043817
 30
0.0
 10
979.0096021847
 20
106.9983436885
 30
0.0
 10
978.6569742561
 20
107.7634667883
 30
0.0
 10
978.4555915077
 20
108.5991496346
 30
0.0
 10
978.4555915077
 20
108.964204054
 30
0.0
  0
SPLINE
  5
540
100
AcDbEntity
  8
BEZUGSACHSEN
100
AcDbSpline
 62
7
  6
CONTINUOUS
 70
0
 71
3
 72
10
 73
6
 74
0
 42
0.0000001
 43
0.0000001
 44
0.0000000001
 40
0.0
 40
0.0
 40
0.0
 40
0.0
 40
0.4966692771
 40
0.7561360185
 40
1.0
 40
1.0
 40
1.0
 40
1.0
 10
979.7953374698
 20
101.8691843512
 30
0.0
 10
979.4534941678
 20
100.9131921749
 30
0.0
 10
978.9760340138
 20
99.4391566831
 30
0.0
 10
978.5542167653
 20
97.437130645
 30
0.0
 10
978.4555915077
 20
96.4082781411
 30
0.0
 10
978.4555915077
 20
95.909780727
 30
0.0
  0
LINE
  5
541
100
AcDbEntity
  8
BEZUGSACHSEN
100
AcDbLine
 62
7
  6
CONTINUOUS
 10
1021.7754403492
 20
217.2417966598
 11
1021.8333476963
 21
217.0963445534
  0
LINE
  5
542
100
AcDbEntity
  8
BEZUGSACHSEN
100
AcDbLine
 62
7
  6
CONTINUOUS
 10
1021.8333476963
 20
217.0963445534
 11
1022.0819409761
 21
216.4710858799
  0
LINE
  5
543
100
AcDbEntity
  8
BEZUGSACHSEN
100
AcDbLine
 62
7
  6
CONTINUOUS
 10
1022.0819409761
 20
216.4710858799
 11
1022.1174178711
 21
216.3817408395
  0
LINE
  5
544
100
AcDbEntity
  8
BEZUGSACHSEN
100
AcDbLine
 62
7
  6
CONTINUOUS
 10
1022.1174178711
 20
216.3817408395
 11
1022.1632382608
 21
216.2663035644
  0
LINE
  5
545
100
AcDbEntity
  8
BEZUGSACHSEN
100
AcDbLine
 62
7
  6
CONTINUOUS
 10
1022.1632382608
 20
216.2663035644
 11
1022.2176353518
 21
216.1291948345
  0
SPLINE
  5
546
100
AcDbEntity
  8
BEZUGSACHSEN
100
AcDbSpline
 62
7
  6
CONTINUOUS
 70
0
 71
3
 72
8
 73
4
 74
0
 42
0.0000001
 43
0.0000001
 44
0.0000000001
 40
0.0
 40
0.0
 40
0.0
 40
0.0
 40
1.0
 40
1.0
 40
1.0
 40
1.0
 10
1021.6279449984
 20
217.9265520157
 30
0.0
 10
1021.5350245389
 20
218.2594845084
 30
0.0
 10
1021.441923897
 20
218.5923667601
 30
0.0
 10
1021.3486522312
 20
218.9252010324
 30
0.0
  0
LINE
  5
547
100
AcDbEntity
  8
BEZUGSACHSEN
100
AcDbLine
 62
7
  6
CONTINUOUS
 10
1021.3486522312
 20
218.9252010324
 11
1021.1439492385
 21
219.581472265
  0
LINE
  5
548
100
AcDbEntity
  8
BEZUGSACHSEN
100
AcDbLine
 62
7
  6
CONTINUOUS
 10
1020.8766734028
 20
220.3576047232
 11
1021.1439492385
 21
219.581472265
  0
LINE
  5
549
100
AcDbEntity
  8
BEZUGSACHSEN
100
AcDbLine
 62
7
  6
CONTINUOUS
 10
1020.680298846
 20
220.8655313626
 11
1020.7373269285
 21
220.7180988981
  0
LINE
  5
54A
100
AcDbEntity
  8
BEZUGSACHSEN
100
AcDbLine
 62
7
  6
CONTINUOUS
 10
1020.7373269285
 20
220.7180988981
 11
1020.7787238507
 21
220.6110404857
  0
LINE
  5
54B
100
AcDbEntity
  8
BEZUGSACHSEN
100
AcDbLine
 62
7
  6
CONTINUOUS
 10
1020.7787238507
 20
220.6110404857
 11
1020.8766734028
 21
220.3576047232
  0
LINE
  5
54C
100
AcDbEntity
  8
BEZUGSACHSEN
100
AcDbLine
 62
7
  6
CONTINUOUS
 10
1023.3434645087
 20
211.0730730878
 11
1021.9358130037
 21
215.1477661833
  0
LINE
  5
54D
100
AcDbEntity
  8
BEZUGSACHSEN
100
AcDbLine
 62
7
  6
CONTINUOUS
 10
1021.5336209478
 20
216.3119640553
 11
1020.528130893
 21
219.2224592789
  0
LINE
  5
54E
100
AcDbEntity
  8
BEZUGSACHSEN
100
AcDbLine
 62
7
  6
CONTINUOUS
 10
1020.0789368975
 20
225.3918161265
 11
1020.165525686
 21
225.1237953329
  0
LINE
  5
54F
100
AcDbEntity
  8
BEZUGSACHSEN
100
AcDbLine
 62
7
  6
CONTINUOUS
 10
1020.165525686
 20
225.1237953329
 11
1020.5066168392
 21
224.0679346246
  0
SPLINE
  5
550
100
AcDbEntity
  8
BEZUGSACHSEN
100
AcDbSpline
 62
7
  6
CONTINUOUS
 70
0
 71
3
 72
8
 73
4
 74
0
 42
0.0000001
 43
0.0000001
 44
0.0000000001
 40
0.0
 40
0.0
 40
0.0
 40
0.0
 40
1.0
 40
1.0
 40
1.0
 40
1.0
 10
1020.5066168392
 20
224.0679346246
 30
0.0
 10
1021.0548082588
 20
222.3708932657
 30
0.0
 10
1021.6028662046
 20
220.6738087807
 30
0.0
 10
1022.1507443539
 20
218.9766662587
 30
0.0
  0
LINE
  5
551
100
AcDbEntity
  8
BEZUGSACHSEN
100
AcDbLine
 62
7
  6
CONTINUOUS
 10
1022.4730247601
 20
216.7503340887
 11
1022.6473593129
 21
216.2981475177
  0
LINE
  5
552
100
AcDbEntity
  8
BEZUGSACHSEN
100
AcDbLine
 62
7
  6
CONTINUOUS
 10
1022.6473593129
 20
216.2981475177
 11
1022.6751399867
 21
216.2259665622
  0
LINE
  5
553
100
AcDbEntity
  8
BEZUGSACHSEN
100
AcDbLine
 62
7
  6
CONTINUOUS
 10
1022.2041332369
 20
217.5298688536
 11
1022.4730247601
 21
216.7503340887
  0
LINE
  5
554
100
AcDbEntity
  8
BEZUGSACHSEN
100
AcDbLine
 62
7
  6
CONTINUOUS
 10
1022.2041332369
 20
217.5298688536
 11
1022.0331277981
 21
218.0577981237
  0
LINE
  5
555
100
AcDbEntity
  8
BEZUGSACHSEN
100
AcDbLine
 62
7
  6
CONTINUOUS
 10
1022.0331277981
 20
218.0577981237
 11
1021.7138429345
 21
219.0434929753
  0
LINE
  5
556
100
AcDbEntity
  8
BEZUGSACHSEN
100
AcDbLine
 62
7
  6
CONTINUOUS
 10
1021.7138429345
 20
219.0434929753
 11
1021.6883733728
 21
219.1221222911
  0
LINE
  5
557
100
AcDbEntity
  8
BEZUGSACHSEN
100
AcDbLine
 62
7
  6
CONTINUOUS
 10
1021.6883733728
 20
219.1221222911
 11
1021.5020113473
 21
219.6974559387
  0
LINE
  5
558
100
AcDbEntity
  8
BEZUGSACHSEN
100
AcDbLine
 62
7
  6
CONTINUOUS
 10
1021.5020113473
 20
219.6974559387
 11
1021.2490987435
 21
220.4782409498
  0
LINE
  5
559
100
AcDbEntity
  8
BEZUGSACHSEN
100
AcDbLine
 62
7
  6
CONTINUOUS
 10
1021.2490987435
 20
220.4782409498
 11
1021.1701188422
 21
220.7220650277
  0
LINE
  5
55A
100
AcDbEntity
  8
BEZUGSACHSEN
100
AcDbLine
 62
7
  6
CONTINUOUS
 10
1021.1701188422
 20
220.7220650277
 11
1021.0815458013
 21
220.9955044145
  0
LINE
  5
55B
100
AcDbEntity
  8
BEZUGSACHSEN
100
AcDbLine
 62
7
  6
CONTINUOUS
 10
1021.0815458013
 20
220.9955044145
 11
1020.8949166962
 21
221.5716577833
  0
LINE
  5
55C
100
AcDbEntity
  8
BEZUGSACHSEN
100
AcDbLine
 62
7
  6
CONTINUOUS
 10
1020.8949166962
 20
221.5716577833
 11
1020.2102696654
 21
223.6852592695
  0
LINE
  5
55D
100
AcDbEntity
  8
BEZUGSACHSEN
100
AcDbLine
 62
7
  6
CONTINUOUS
 10
1020.2102696654
 20
223.6852592695
 11
1020.1261268676
 21
223.9450187213
  0
LINE
  5
55E
100
AcDbEntity
  8
BEZUGSACHSEN
100
AcDbLine
 62
7
  6
CONTINUOUS
 10
1023.272497119
 20
214.8457717373
 11
1023.2708664882
 21
214.8939959499
  0
LINE
  5
55F
100
AcDbEntity
  8
BEZUGSACHSEN
100
AcDbLine
 62
7
  6
CONTINUOUS
 10
1023.0470659463
 20
215.9488561147
 11
1023.0364280847
 21
215.9874815341
  0
LINE
  5
560
100
AcDbEntity
  8
BEZUGSACHSEN
100
AcDbLine
 62
7
  6
CONTINUOUS
 10
1023.0364280847
 20
215.9874815341
 11
1023.0282675406
 21
216.0171032409
  0
LINE
  5
561
100
AcDbEntity
  8
BEZUGSACHSEN
100
AcDbLine
 62
7
  6
CONTINUOUS
 10
1023.0282675406
 20
216.0171032409
 11
1022.9772658507
 21
216.2020622334
  0
LINE
  5
562
100
AcDbEntity
  8
BEZUGSACHSEN
100
AcDbLine
 62
7
  6
CONTINUOUS
 10
1022.9772658507
 20
216.2020622334
 11
1022.9497238146
 21
216.3018229799
  0
LINE
  5
563
100
AcDbEntity
  8
BEZUGSACHSEN
100
AcDbLine
 62
7
  6
CONTINUOUS
 10
1022.9497238146
 20
216.3018229799
 11
1022.9069536165
 21
216.4565755772
  0
LINE
  5
564
100
AcDbEntity
  8
BEZUGSACHSEN
100
AcDbLine
 62
7
  6
CONTINUOUS
 10
1022.9069536165
 20
216.4565755772
 11
1022.7647919817
 21
216.9695237609
  0
LINE
  5
565
100
AcDbEntity
  8
BEZUGSACHSEN
100
AcDbLine
 62
7
  6
CONTINUOUS
 10
1022.7647919817
 20
216.9695237609
 11
1022.4891427541
 21
217.8937381352
  0
LINE
  5
566
100
AcDbEntity
  8
BEZUGSACHSEN
100
AcDbLine
 62
7
  6
CONTINUOUS
 10
1022.4891427541
 20
217.8937381352
 11
1022.1507443539
 21
218.9766662587
  0
LINE
  5
567
100
AcDbEntity
  8
BEZUGSACHSEN
100
AcDbLine
 62
7
  6
CONTINUOUS
 10
1022.9863181541
 20
217.2864075897
 11
1022.9164023364
 21
217.5193049239
  0
LINE
  5
568
100
AcDbEntity
  8
BEZUGSACHSEN
100
AcDbLine
 62
7
  6
CONTINUOUS
 10
1022.9164023364
 20
217.5193049239
 11
1022.8459770559
 21
217.753399268
  0
LINE
  5
569
100
AcDbEntity
  8
BEZUGSACHSEN
100
AcDbLine
 62
7
  6
CONTINUOUS
 10
1022.8459770559
 20
217.753399268
 11
1022.7750421306
 21
217.988690582
  0
LINE
  5
56A
100
AcDbEntity
  8
BEZUGSACHSEN
100
AcDbLine
 62
7
  6
CONTINUOUS
 10
1022.7750421306
 20
217.988690582
 11
1022.7035973834
 21
218.2251788267
  0
LINE
  5
56B
100
AcDbEntity
  8
BEZUGSACHSEN
100
AcDbLine
 62
7
  6
CONTINUOUS
 10
1020.4973047998
 20
225.2982104766
 11
1020.6277730033
 21
224.8885227442
  0
LINE
  5
56C
100
AcDbEntity
  8
BEZUGSACHSEN
100
AcDbLine
 62
7
  6
CONTINUOUS
 10
1020.6277730033
 20
224.8885227442
 11
1020.692594962
 21
224.6847122347
  0
LINE
  5
56D
100
AcDbEntity
  8
BEZUGSACHSEN
100
AcDbLine
 62
7
  6
CONTINUOUS
 10
1020.434405133
 20
225.490804587
 11
1020.4973047998
 21
225.2982104766
  0
LINE
  5
56E
100
AcDbEntity
  8
BEZUGSACHSEN
100
AcDbLine
 62
7
  6
CONTINUOUS
 10
1020.1194015065
 20
226.4213478008
 11
1020.1505416349
 21
226.334418006
  0
LINE
  5
56F
100
AcDbEntity
  8
BEZUGSACHSEN
100
AcDbLine
 62
7
  6
CONTINUOUS
 10
1022.812375465
 20
217.3797296147
 11
1022.715447281
 21
217.6897392914
  0
LINE
  5
570
100
AcDbEntity
  8
BEZUGSACHSEN
100
AcDbLine
 62
7
  6
CONTINUOUS
 10
1022.715447281
 20
217.6897392914
 11
1022.6371912672
 21
217.9400278422
  0
LINE
  5
571
100
AcDbEntity
  8
BEZUGSACHSEN
100
AcDbLine
 62
7
  6
CONTINUOUS
 10
1022.6371912672
 20
217.9400278422
 11
1022.2986136005
 21
219.0228999175
  0
LINE
  5
572
100
AcDbEntity
  8
BEZUGSACHSEN
100
AcDbLine
 62
7
  6
CONTINUOUS
 10
1022.2986136005
 20
219.0228999175
 11
1022.2323633391
 21
219.2347859258
  0
LINE
  5
573
100
AcDbEntity
  8
BEZUGSACHSEN
100
AcDbLine
 62
7
  6
CONTINUOUS
 10
1022.2323633391
 20
219.2347859258
 11
1020.4667638531
 21
224.8814297857
  0
SPLINE
  5
574
100
AcDbEntity
  8
BEZUGSACHSEN
100
AcDbSpline
 62
7
  6
CONTINUOUS
 70
0
 71
3
 72
9
 73
5
 74
0
 42
0.0000001
 43
0.0000001
 44
0.0000000001
 40
0.0
 40
0.0
 40
0.0
 40
0.0
 40
0.2979216798
 40
1.0
 40
1.0
 40
1.0
 40
1.0
 10
978.4555915077
 20
75.288101879
 30
0.0
 10
978.4555915077
 20
75.0481514052
 30
0.0
 10
978.4982524683
 20
74.2540138622
 30
0.0
 10
978.8006516846
 20
73.4025797393
 30
0.0
 10
979.2329427553
 20
73.0380607133
 30
0.0
  0
SPLINE
  5
575
100
AcDbEntity
  8
0
100
AcDbSpline
 62
7
  6
CONTINUOUS
 70
0
 71
3
 72
9
 73
5
 74
0
 42
0.0000001
 43
0.0000001
 44
0.0000000001
 40
0.0
 40
0.0
 40
0.0
 40
0.0
 40
0.2979216798
 40
1.0
 40
1.0
 40
1.0
 40
1.0
 10
1040.4555915077
 20
75.288101879
 30
0.0
 10
1040.4555915077
 20
75.0481514052
 30
0.0
 10
1040.412930547
 20
74.2540138622
 30
0.0
 10
1040.1105313307
 20
73.4025797393
 30
0.0
 10
1039.6782402601
 20
73.0380607133
 30
0.0
  0
SPLINE
  5
576
100
AcDbEntity
  8
BEZUGSACHSEN
100
AcDbSpline
 62
7
  6
CONTINUOUS
 70
0
 71
3
 72
9
 73
5
 74
0
 42
0.0000001
 43
0.0000001
 44
0.0000000001
 40
0.0
 40
0.0
 40
0.0
 40
0.0
 40
0.5000000005
 40
1.0
 40
1.0
 40
1.0
 40
1.0
 10
1002.5359285617
 20
235.3768931218
 30
0.0
 10
1001.8713900064
 20
232.7049509341
 30
0.0
 10
1001.1114870315
 20
227.1831748346
 30
0.0
 10
1001.8713900079
 20
221.6613987358
 30
0.0
 10
1002.5359285617
 20
218.9894565539
 30
0.0
  0
SPLINE
  5
577
100
AcDbEntity
  8
BEZUGSACHSEN
100
AcDbSpline
 62
7
  6
CONTINUOUS
 70
0
 71
3
 72
9
 73
5
 74
0
 42
0.0000001
 43
0.0000001
 44
0.0000000001
 40
0.0
 40
0.0
 40
0.0
 40
0.0
 40
0.5002039105
 40
1.0
 40
1.0
 40
1.0
 40
1.0
 10
1002.5359285617
 20
218.9894565539
 30
0.0
 10
1002.0885603789
 20
215.1595401078
 30
0.0
 10
1001.4588626781
 20
207.4683756671
 30
0.0
 10
1001.4511226502
 20
199.7497427605
 30
0.0
 10
1001.6032359249
 20
195.8999343213
 30
0.0
  0
SPLINE
  5
578
100
AcDbEntity
  8
0
100
AcDbSpline
 62
7
  6
CONTINUOUS
 70
0
 71
3
 72
13
 73
9
 74
0
 42
0.0000001
 43
0.0000001
 44
0.0000000001
 40
0.0
 40
0.0
 40
0.0
 40
0.0
 40
0.2655992091
 40
0.5219626798
 40
0.6456222519
 40
0.7659622985
 40
0.8836979923
 40
1.0
 40
1.0
 40
1.0
 40
1.0
 10
1009.4555915077
 20
135.63808455
 30
0.0
 10
1007.7404944441
 20
135.63808455
 30
0.0
 10
1004.3423478611
 20
135.0689728604
 30
0.0
 10
1000.630054328
 20
132.9591327595
 30
0.0
 10
998.3878490074
 20
130.6055684151
 30
0.0
 10
997.1460015888
 20
128.6059155018
 30
0.0
 10
996.3790504534
 20
126.4310109049
 30
0.0
 10
996.2056584725
 20
124.9142638603
 30
0.0
 10
996.2056584725
 20
124.1632479499
 30
0.0
  0
SPLINE
  5
579
100
AcDbEntity
  8
0
100
AcDbSpline
 62
7
  6
CONTINUOUS
 70
0
 71
3
 72
9
 73
5
 74
0
 42
0.0000001
 43
0.0000001
 44
0.0000000001
 40
0.0
 40
0.0
 40
0.0
 40
0.0
 40
0.5085654991
 40
1.0
 40
1.0
 40
1.0
 40
1.0
 10
1009.4555915077
 20
80.5803986478
 30
0.0
 10
1011.2045239208
 20
80.5803986478
 30
0.0
 10
1014.6689350261
 20
81.1497426408
 30
0.0
 10
1017.7491624469
 20
82.8630275982
 30
0.0
 10
1019.0418614882
 20
83.9516486875
 30
0.0
  0
SPLINE
  5
57A
100
AcDbEntity
  8
BEZUGSACHSEN
100
AcDbSpline
 62
7
  6
CONTINUOUS
 70
0
 71
3
 72
15
 73
11
 74
0
 42
0.0000001
 43
0.0000001
 44
0.0000000001
 40
0.0
 40
0.0
 40
0.0
 40
0.0
 40
0.1182787976
 40
0.2418258225
 40
0.3697043448
 40
0.5
 40
0.6302956552
 40
0.7581741775
 40
0.8817212024
 40
1.0
 40
1.0
 40
1.0
 40
1.0
 10
1035.6360137725
 20
68.7273073268
 30
0.0
 10
1034.2182004186
 20
66.8561304829
 30
0.0
 10
1030.7814119487
 20
63.4161215342
 30
0.0
 10
1024.4379494167
 20
59.6034495504
 30
0.0
 10
1017.1805248116
 20
57.2236795669
 30
0.0
 10
1009.4555915077
 20
56.4157481806
 30
0.0
 10
1001.7306582037
 20
57.2236795669
 30
0.0
 10
994.4732335986
 20
59.6034495504
 30
0.0
 10
988.1297710666
 20
63.4161215342
 30
0.0
 10
984.6929825968
 20
66.8561304829
 30
0.0
 10
983.2751692428
 20
68.7273073268
 30
0.0
  0
SPLINE
  5
57B
100
AcDbEntity
  8
BEZUGSACHSEN
100
AcDbSpline
 62
7
  6
CONTINUOUS
 70
0
 71
3
 72
19
 73
15
 74
0
 42
0.0000001
 43
0.0000001
 44
0.0000000001
 40
0.0
 40
0.0
 40
0.0
 40
0.0
 40
0.0581529382
 40
0.1170186733
 40
0.1771895919
 40
0.2390194491
 40
0.3672020887
 40
0.5
 40
0.6327979113
 40
0.7609805509
 40
0.8228104081
 40
0.8829813267
 40
0.9418470618
 40
1.0
 40
1.0
 40
1.0
 40
1.0
 10
984.1940752695
 20
91.8352647954
 30
0.0
 10
984.1940752695
 20
90.4033811587
 30
0.0
 10
984.5246200159
 20
87.511643203
 30
0.0
 10
985.9869586585
 20
83.3651628985
 30
0.0
 10
988.3546900297
 20
79.5527516647
 30
0.0
 10
992.62867892
 20
75.0656512814
 30
0.0
 10
999.7141550562
 20
71.0432279253
 30
0.0
 10
1009.4555915077
 20
69.4060165802
 30
0.0
 10
1019.1970279592
 20
71.0432279253
 30
0.0
 10
1026.2825040953
 20
75.0656512814
 30
0.0
 10
1030.5564929856
 20
79.5527516647
 30
0.0
 10
1032.9242243569
 20
83.3651628985
 30
0.0
 10
1034.3865629994
 20
87.511643203
 30
0.0
 10
1034.7171077458
 20
90.4033811587
 30
0.0
 10
1034.7171077458
 20
91.8352647954
 30
0.0
  0
SPLINE
  5
57C
100
AcDbEntity
  8
0
100
AcDbSpline
 62
7
  6
CONTINUOUS
 70
0
 71
3
 72
9
 73
5
 74
0
 42
0.0000001
 43
0.0000001
 44
0.0000000001
 40
0.0
 40
0.0
 40
0.0
 40
0.0
 40
0.4519688092
 40
1.0
 40
1.0
 40
1.0
 40
1.0
 10
1039.6782402601
 20
73.0380607133
 30
0.0
 10
1038.9965330023
 20
72.4632274991
 30
0.0
 10
1037.5583068856
 20
71.1060433204
 30
0.0
 10
1036.289005661
 20
69.5891015097
 30
0.0
 10
1035.6360137725
 20
68.7273073268
 30
0.0
  0
LINE
  5
57D
100
AcDbEntity
  8
BEZUGSACHSEN
100
AcDbLine
 62
7
  6
CONTINUOUS
 10
1021.9249625906
 20
216.4086963925
 11
1022.360298746
 21
215.3165321216
  0
SPLINE
  5
57E
100
AcDbEntity
  8
BEZUGSACHSEN
100
AcDbSpline
 62
7
  6
CONTINUOUS
 70
0
 71
3
 72
8
 73
4
 74
0
 42
0.0000001
 43
0.0000001
 44
0.0000000001
 40
0.0
 40
0.0
 40
0.0
 40
0.0
 40
1.0
 40
1.0
 40
1.0
 40
1.0
 10
1022.360298746
 20
215.3165321216
 30
0.0
 10
1022.564524421
 20
214.8033079091
 30
0.0
 10
1022.7683195953
 20
214.2899121223
 30
0.0
 10
1022.9716273238
 20
213.7763235845
 30
0.0
  0
LINE
  5
57F
100
AcDbEntity
  8
BEZUGSACHSEN
100
AcDbLine
 62
7
  6
CONTINUOUS
 10
1022.9716273238
 20
213.7763235845
 11
1023.1255860447
 21
213.3871226942
  0
LINE
  5
580
100
AcDbEntity
  8
BEZUGSACHSEN
100
AcDbLine
 62
7
  6
CONTINUOUS
 10
1023.1255860447
 20
213.3871226942
 11
1023.3071608328
 21
212.9273822001
  0
SPLINE
  5
581
100
AcDbEntity
  8
0
100
AcDbSpline
 62
7
  6
CONTINUOUS
 70
0
 71
3
 72
9
 73
5
 74
0
 42
0.0000001
 43
0.0000001
 44
0.0000000001
 40
0.0
 40
0.0
 40
0.0
 40
0.0
 40
0.4914345009
 40
1.0
 40
1.0
 40
1.0
 40
1.0
 10
999.8693215271
 20
83.9516486875
 30
0.0
 10
1001.1620205684
 20
82.8630275982
 30
0.0
 10
1004.2422479892
 20
81.1497426408
 30
0.0
 10
1007.7066590946
 20
80.5803986478
 30
0.0
 10
1009.4555915077
 20
80.5803986478
 30
0.0
  0
LINE
  5
582
100
AcDbEntity
  8
BEZUGSACHSEN
100
AcDbLine
 62
7
  6
CONTINUOUS
 10
1023.3346594448
 20
210.6280388838
 11
1023.1983130643
 21
211.0229572469
  0
LINE
  5
583
100
AcDbEntity
  8
BEZUGSACHSEN
100
AcDbLine
 62
7
  6
CONTINUOUS
 10
1023.1983130643
 20
211.0229572469
 11
1021.7913374777
 21
215.0978809078
  0
LINE
  5
584
100
AcDbEntity
  8
BEZUGSACHSEN
100
AcDbLine
 62
7
  6
CONTINUOUS
 10
1021.7913374777
 20
215.0978809078
 11
1021.778149845
 21
215.136073061
  0
LINE
  5
585
100
AcDbEntity
  8
BEZUGSACHSEN
100
AcDbLine
 62
7
  6
CONTINUOUS
 10
1021.778149845
 20
215.136073061
 11
1021.4011655306
 21
216.2278259561
  0
LINE
  5
586
100
AcDbEntity
  8
BEZUGSACHSEN
100
AcDbLine
 62
7
  6
CONTINUOUS
 10
1021.4011655306
 20
216.2278259561
 11
1021.389318301
 21
216.2621352514
  0
LINE
  5
587
100
AcDbEntity
  8
BEZUGSACHSEN
100
AcDbLine
 62
7
  6
CONTINUOUS
 10
1021.389318301
 20
216.2621352514
 11
1020.3842244812
 21
219.1727644618
  0
LINE
  5
588
100
AcDbEntity
  8
BEZUGSACHSEN
100
AcDbLine
 62
7
  6
CONTINUOUS
 10
1020.3842244812
 20
219.1727644618
 11
1020.1857192547
 21
219.7475899683
  0
SPLINE
  5
589
100
AcDbEntity
  8
0
100
AcDbSpline
 62
7
  6
CONTINUOUS
 70
0
 71
3
 72
8
 73
4
 74
0
 42
0.0000001
 43
0.0000001
 44
0.0000000001
 40
0.0
 40
0.0
 40
0.0
 40
0.0
 40
1.0
 40
1.0
 40
1.0
 40
1.0
 10
1019.2496072395
 20
219.7475899683
 30
0.0
 10
1020.3550544743
 20
216.7078661058
 30
0.0
 10
1021.46022999
 20
213.6680433847
 30
0.0
 10
1022.564905229
 20
210.6280388838
 30
0.0
  0
SPLINE
  5
58A
100
AcDbEntity
  8
BEZUGSACHSEN
100
AcDbSpline
 62
7
  6
CONTINUOUS
 70
0
 71
3
 72
11
 73
7
 74
0
 42
0.0000001
 43
0.0000001
 44
0.0000000001
 40
0.0
 40
0.0
 40
0.0
 40
0.0
 40
0.2467779716
 40
0.4999973665
 40
0.7532182481
 40
1.0
 40
1.0
 40
1.0
 40
1.0
 10
988.3643486252
 20
94.3669695166
 30
0.0
 10
991.2349262499
 20
91.9799066028
 30
0.0
 10
998.0099523372
 20
88.2112809544
 30
0.0
 10
1009.4530985756
 20
86.3059007312
 30
0.0
 10
1020.8965679791
 20
88.209666336
 30
0.0
 10
1027.6722198297
 20
91.9773113975
 30
0.0
 10
1030.543215646
 20
94.3639607868
 30
0.0
  0
SPLINE
  5
58B
100
AcDbEntity
  8
0
100
AcDbSpline
 62
7
  6
CONTINUOUS
 70
0
 71
3
 72
13
 73
9
 74
0
 42
0.0000001
 43
0.0000001
 44
0.0000000001
 40
0.0
 40
0.0
 40
0.0
 40
0.0
 40
0.1163020077
 40
0.2340377015
 40
0.3543777481
 40
0.4780373202
 40
0.7344007909
 40
1.0
 40
1.0
 40
1.0
 40
1.0
 10
1022.7055245428
 20
124.1632479499
 30
0.0
 10
1022.7055245428
 20
124.9142638603
 30
0.0
 10
1022.5321325619
 20
126.4310109049
 30
0.0
 10
1021.7651814266
 20
128.6059155018
 30
0.0
 10
1020.5233340079
 20
130.6055684151
 30
0.0
 10
1018.2811286873
 20
132.9591327595
 30
0.0
 10
1014.5688351543
 20
135.0689728604
 30
0.0
 10
1011.1706885712
 20
135.63808455
 30
0.0
 10
1009.4555915077
 20
135.63808455
 30
0.0
  0
SPLINE
  5
58C
100
AcDbEntity
  8
0
100
AcDbSpline
 62
7
  6
CONTINUOUS
 70
0
 71
3
 72
9
 73
5
 74
0
 42
0.0000001
 43
0.0000001
 44
0.0000000001
 40
0.0
 40
0.0
 40
0.0
 40
0.0
 40
0.5002039105
 40
1.0
 40
1.0
 40
1.0
 40
1.0
 10
1016.3752544536
 20
218.9894565539
 30
0.0
 10
1016.8226226364
 20
215.1595401078
 30
0.0
 10
1017.4523203373
 20
207.4683756671
 30
0.0
 10
1017.4600603651
 20
199.7497427605
 30
0.0
 10
1017.3079470904
 20
195.8999343213
 30
0.0
  0
LINE
  5
58D
100
AcDbEntity
  8
BEZUGSACHSEN
100
AcDbLine
 62
7
  6
CONTINUOUS
 10
1020.5734863326
 20
220.6602183106
 11
1020.6697305986
 21
220.4802106093
  0
LINE
  5
58E
100
AcDbEntity
  8
BEZUGSACHSEN
100
AcDbLine
 62
7
  6
CONTINUOUS
 10
1020.6697305986
 20
220.4802106093
 11
1020.7015667158
 21
220.4204971587
  0
LINE
  5
58F
100
AcDbEntity
  8
BEZUGSACHSEN
100
AcDbLine
 62
7
  6
CONTINUOUS
 10
1020.7015667158
 20
220.4204971587
 11
1020.8991549761
 21
219.9125705193
  0
LINE
  5
590
100
AcDbEntity
  8
BEZUGSACHSEN
100
AcDbLine
 62
7
  6
CONTINUOUS
 10
1020.8991549761
 20
219.9125705193
 11
1021.0998816171
 21
219.3304710397
  0
LINE
  5
591
100
AcDbEntity
  8
BEZUGSACHSEN
100
AcDbLine
 62
7
  6
CONTINUOUS
 10
1021.3038596326
 20
218.6741998071
 11
1021.0998816171
 21
219.3304710397
  0
LINE
  5
592
100
AcDbEntity
  8
BEZUGSACHSEN
100
AcDbLine
 62
7
  6
CONTINUOUS
 10
1021.4437681989
 20
218.1377890444
 11
1021.3038596326
 21
218.6741998071
  0
LINE
  5
593
100
AcDbEntity
  8
BEZUGSACHSEN
100
AcDbLine
 62
7
  6
CONTINUOUS
 10
1020.099470765
 20
225.1024566454
 11
1020.4408969878
 21
224.0468241992
  0
LINE
  5
594
100
AcDbEntity
  8
BEZUGSACHSEN
100
AcDbLine
 62
7
  6
CONTINUOUS
 10
1020.4408969878
 20
224.0468241992
 11
1022.087075544
 21
218.9560807145
  0
LINE
  5
595
100
AcDbEntity
  8
BEZUGSACHSEN
100
AcDbLine
 62
7
  6
CONTINUOUS
 10
1022.087075544
 20
218.9560807145
 11
1022.173970717
 21
218.6873067777
  0
LINE
  5
596
100
AcDbEntity
  8
0
100
AcDbLine
 62
7
  6
CONTINUOUS
 10
1019.6626738078
 20
223.9450192027
 11
1019.6214555925
 21
224.0657846309
  0
LINE
  5
597
100
AcDbEntity
  8
0
100
AcDbLine
 62
7
  6
CONTINUOUS
 10
1019.6214555925
 20
224.0657846309
 11
1019.2676259414
 21
225.1024566454
  0
LINE
  5
598
100
AcDbEntity
  8
BEZUGSACHSEN
100
AcDbLine
 62
7
  6
CONTINUOUS
 10
1022.4448947626
 20
217.8113189444
 11
1022.173970717
 21
218.6873067777
  0
LINE
  5
599
100
AcDbEntity
  8
BEZUGSACHSEN
100
AcDbLine
 62
7
  6
CONTINUOUS
 10
1022.6518170636
 20
217.0940450053
 11
1022.4448947626
 21
217.8113189444
  0
LINE
  5
59A
100
AcDbEntity
  8
BEZUGSACHSEN
100
AcDbLine
 62
7
  6
CONTINUOUS
 10
1022.7936949335
 20
216.5354845393
 11
1022.6875653956
 21
216.9538558111
  0
LINE
  5
59B
100
AcDbEntity
  8
BEZUGSACHSEN
100
AcDbLine
 62
7
  6
CONTINUOUS
 10
1022.6875653956
 20
216.9538558111
 11
1022.6518170636
 21
217.0940450053
  0
LINE
  5
59C
100
AcDbEntity
  8
BEZUGSACHSEN
100
AcDbLine
 62
7
  6
CONTINUOUS
 10
1022.8688373097
 20
216.1356378364
 11
1022.831623928
 21
216.3355449791
  0
LINE
  5
59D
100
AcDbEntity
  8
BEZUGSACHSEN
100
AcDbLine
 62
7
  6
CONTINUOUS
 10
1022.831623928
 20
216.3355449791
 11
1022.8127485768
 21
216.4355106886
  0
LINE
  5
59E
100
AcDbEntity
  8
BEZUGSACHSEN
100
AcDbLine
 62
7
  6
CONTINUOUS
 10
1022.8127485768
 20
216.4355106886
 11
1022.7936949335
 21
216.5354845393
  0
LINE
  5
59F
100
AcDbEntity
  8
BEZUGSACHSEN
100
AcDbLine
 62
7
  6
CONTINUOUS
 10
1022.8704245367
 20
216.0874135046
 11
1022.8688373097
 21
216.1356378364
  0
SPLINE
  5
5A0
100
AcDbEntity
  8
0
100
AcDbSpline
 62
7
  6
CONTINUOUS
 70
0
 71
3
 72
9
 73
5
 74
0
 42
0.0000001
 43
0.0000001
 44
0.0000000001
 40
0.0
 40
0.0
 40
0.0
 40
0.0
 40
0.5000000005
 40
1.0
 40
1.0
 40
1.0
 40
1.0
 10
1016.3752544536
 20
235.3768931218
 30
0.0
 10
1017.0397930089
 20
232.7049509341
 30
0.0
 10
1017.7996959838
 20
227.1831748346
 30
0.0
 10
1017.0397930075
 20
221.6613987358
 30
0.0
 10
1016.3752544536
 20
218.9894565539
 30
0.0
  0
LINE
  5
5A1
100
AcDbEntity
  8
BEZUGSACHSEN
100
AcDbLine
 62
7
  6
CONTINUOUS
 10
1022.1959431461
 20
217.2405092346
 11
1022.1556720954
 21
217.3648988624
  0
LINE
  5
5A2
100
AcDbEntity
  8
BEZUGSACHSEN
100
AcDbLine
 62
7
  6
CONTINUOUS
 10
1022.1556720954
 20
217.3648988624
 11
1022.1119276383
 21
217.500016722
  0
LINE
  5
5A3
100
AcDbEntity
  8
BEZUGSACHSEN
100
AcDbLine
 62
7
  6
CONTINUOUS
 10
1022.1119276383
 20
217.500016722
 11
1021.9410199528
 21
218.0279117687
  0
LINE
  5
5A4
100
AcDbEntity
  8
BEZUGSACHSEN
100
AcDbLine
 62
7
  6
CONTINUOUS
 10
1021.9410199528
 20
218.0279117687
 11
1021.6822663043
 21
218.8271296801
  0
LINE
  5
5A5
100
AcDbEntity
  8
BEZUGSACHSEN
100
AcDbLine
 62
7
  6
CONTINUOUS
 10
1021.6822663043
 20
218.8271296801
 11
1021.6218743324
 21
219.0136613995
  0
LINE
  5
5A6
100
AcDbEntity
  8
BEZUGSACHSEN
100
AcDbLine
 62
7
  6
CONTINUOUS
 10
1021.6218743324
 20
219.0136613995
 11
1021.4101339187
 21
219.6676541183
  0
LINE
  5
5A7
100
AcDbEntity
  8
BEZUGSACHSEN
100
AcDbLine
 62
7
  6
CONTINUOUS
 10
1021.4101339187
 20
219.6676541183
 11
1021.1648643325
 21
220.4251945595
  0
LINE
  5
5A8
100
AcDbEntity
  8
BEZUGSACHSEN
100
AcDbLine
 62
7
  6
CONTINUOUS
 10
1021.1648643325
 20
220.4251945595
 11
1021.157326933
 21
220.4484743937
  0
LINE
  5
5A9
100
AcDbEntity
  8
BEZUGSACHSEN
100
AcDbLine
 62
7
  6
CONTINUOUS
 10
1021.157326933
 20
220.4484743937
 11
1020.9898439144
 21
220.9657554622
  0
LINE
  5
5AA
100
AcDbEntity
  8
BEZUGSACHSEN
100
AcDbLine
 62
7
  6
CONTINUOUS
 10
1020.9898439144
 20
220.9657554622
 11
1020.8032924136
 21
221.5419239486
  0
LINE
  5
5AB
100
AcDbEntity
  8
BEZUGSACHSEN
100
AcDbLine
 62
7
  6
CONTINUOUS
 10
1020.8032924136
 20
221.5419239486
 11
1020.1188899851
 21
223.6556591023
  0
LINE
  5
5AC
100
AcDbEntity
  8
0
100
AcDbLine
 62
7
  6
CONTINUOUS
 10
1019.2526783066
 20
223.6556591023
 11
1019.9180479844
 21
221.7045565344
  0
LINE
  5
5AD
100
AcDbEntity
  8
BEZUGSACHSEN
100
AcDbLine
 62
7
  6
CONTINUOUS
 10
1022.1959431461
 20
217.2405092346
 11
1022.5327625761
 21
216.2540344554
  0
LINE
  5
5AE
100
AcDbEntity
  8
BEZUGSACHSEN
100
AcDbLine
 62
7
  6
CONTINUOUS
 10
1022.5327625761
 20
216.2540344554
 11
1022.6009475668
 21
216.0703311553
  0
LINE
  5
5AF
100
AcDbEntity
  8
BEZUGSACHSEN
100
AcDbLine
 62
7
  6
CONTINUOUS
 10
1022.6009475668
 20
216.0703311553
 11
1022.8039729459
 21
215.5227263557
  0
LINE
  5
5B0
100
AcDbEntity
  8
BEZUGSACHSEN
100
AcDbLine
 62
7
  6
CONTINUOUS
 10
1023.2020703203
 20
215.9715726051
 11
1023.1947531661
 21
215.9949955668
  0
LINE
  5
5B1
100
AcDbEntity
  8
BEZUGSACHSEN
100
AcDbLine
 62
7
  6
CONTINUOUS
 10
1023.1947531661
 20
215.9949955668
 11
1023.0828115654
 21
216.3533285638
  0
LINE
  5
5B2
100
AcDbEntity
  8
BEZUGSACHSEN
100
AcDbLine
 62
7
  6
CONTINUOUS
 10
1023.0828115654
 20
216.3533285638
 11
1022.915592018
 21
216.8885979415
  0
LINE
  5
5B3
100
AcDbEntity
  8
BEZUGSACHSEN
100
AcDbLine
 62
7
  6
CONTINUOUS
 10
1022.915592018
 20
216.8885979415
 11
1022.8791489099
 21
217.0052503332
  0
LINE
  5
5B4
100
AcDbEntity
  8
BEZUGSACHSEN
100
AcDbLine
 62
7
  6
CONTINUOUS
 10
1022.8791489099
 20
217.0052503332
 11
1022.766622854
 21
217.3654358321
  0
LINE
  5
5B5
100
AcDbEntity
  8
BEZUGSACHSEN
100
AcDbLine
 62
7
  6
CONTINUOUS
 10
1022.766622854
 20
217.3654358321
 11
1022.6698007075
 21
217.6753495191
  0
LINE
  5
5B6
100
AcDbEntity
  8
BEZUGSACHSEN
100
AcDbLine
 62
7
  6
CONTINUOUS
 10
1022.6698007075
 20
217.6753495191
 11
1022.591573877
 21
217.9257389362
  0
LINE
  5
5B7
100
AcDbEntity
  8
BEZUGSACHSEN
100
AcDbLine
 62
7
  6
CONTINUOUS
 10
1022.591573877
 20
217.9257389362
 11
1022.2532281381
 21
219.0086867776
  0
LINE
  5
5B8
100
AcDbEntity
  8
BEZUGSACHSEN
100
AcDbLine
 62
7
  6
CONTINUOUS
 10
1022.2532281381
 20
219.0086867776
 11
1020.4224741055
 21
224.8675889265
  0
LINE
  5
5B9
100
AcDbEntity
  8
BEZUGSACHSEN
100
AcDbLine
 62
7
  6
CONTINUOUS
 10
1020.4224741055
 20
224.8675889265
 11
1020.3179039898
 21
225.2022049509
  0
LINE
  5
5BA
100
AcDbEntity
  8
BEZUGSACHSEN
100
AcDbLine
 62
7
  6
CONTINUOUS
 10
1020.3179039898
 20
225.2022049509
 11
1020.2426591256
 21
225.4429803641
  0
LINE
  5
5BB
100
AcDbEntity
  8
BEZUGSACHSEN
100
AcDbLine
 62
7
  6
CONTINUOUS
 10
1020.2426591256
 20
225.4429803641
 11
1020.0544304486
 21
226.0452840532
  0
LINE
  5
5BC
100
AcDbEntity
  8
0
100
AcDbLine
 62
7
  6
CONTINUOUS
 10
1019.2463707264
 20
226.0452840532
 11
1019.4410559459
 21
225.453818387
  0
LINE
  5
5BD
100
AcDbEntity
  8
0
100
AcDbLine
 62
7
  6
CONTINUOUS
 10
1019.4410559459
 20
225.453818387
 11
1019.4614628549
 21
225.3918196176
  0
SPLINE
  5
5BE
100
AcDbEntity
  8
0
100
AcDbSpline
 62
7
  6
CONTINUOUS
 70
0
 71
3
 72
11
 73
7
 74
0
 42
0.0000001
 43
0.0000001
 44
0.0000000001
 40
0.0
 40
0.0
 40
0.0
 40
0.0
 40
0.2647888574
 40
0.521671278
 40
0.7662421648
 40
1.0
 40
1.0
 40
1.0
 40
1.0
 10
1009.4555915077
 20
134.13808455
 30
0.0
 10
1007.8786537216
 20
134.13808455
 30
0.0
 10
1004.7491119742
 20
133.6544254406
 30
0.0
 10
1000.6136495774
 20
131.5396038323
 30
0.0
 10
997.557715043
 20
128.2708743557
 30
0.0
 10
996.522358846
 20
125.5175982363
 30
0.0
 10
996.3159876123
 20
124.1408455707
 30
0.0
  0
SPLINE
  5
5BF
100
AcDbEntity
  8
0
100
AcDbSpline
 62
7
  6
CONTINUOUS
 70
0
 71
3
 72
11
 73
7
 74
0
 42
0.0000001
 43
0.0000001
 44
0.0000000001
 40
0.0
 40
0.0
 40
0.0
 40
0.0
 40
0.2647888574
 40
0.521671278
 40
0.7662421648
 40
1.0
 40
1.0
 40
1.0
 40
1.0
 10
1009.4555915077
 20
134.13808455
 30
0.0
 10
1011.0325292938
 20
134.13808455
 30
0.0
 10
1014.1620710411
 20
133.6544254406
 30
0.0
 10
1018.297533438
 20
131.5396038323
 30
0.0
 10
1021.3534679723
 20
128.2708743557
 30
0.0
 10
1022.3888241693
 20
125.5175982363
 30
0.0
 10
1022.595195403
 20
124.1408455707
 30
0.0
  0
SPLINE
  5
5C0
100
AcDbEntity
  8
BEZUGSACHSEN
100
AcDbSpline
 62
7
  6
CONTINUOUS
 70
0
 71
3
 72
9
 73
5
 74
0
 42
0.0000001
 43
0.0000001
 44
0.0000000001
 40
0.0
 40
0.0
 40
0.0
 40
0.0
 40
0.2563452295
 40
1.0
 40
1.0
 40
1.0
 40
1.0
 10
1001.9553618932
 20
140.6557780149
 30
0.0
 10
1001.7891565051
 20
140.4298937938
 30
0.0
 10
1001.1243109811
 20
139.5610055433
 30
0.0
 10
1000.4010426843
 20
138.7365238266
 30
0.0
 10
999.8312930868
 20
138.1557780149
 30
0.0
  0
SPLINE
  5
5C1
100
AcDbEntity
  8
RUNDUNGEN
100
AcDbSpline
 62
7
  6
CONTINUOUS
 70
0
 71
3
 72
9
 73
5
 74
0
 42
0.0000001
 43
0.0000001
 44
0.0000000001
 40
0.0
 40
0.0
 40
0.0
 40
0.0
 40
0.2563452295
 40
1.0
 40
1.0
 40
1.0
 40
1.0
 10
1016.9558211221
 20
140.6557780149
 30
0.0
 10
1017.1220265102
 20
140.4298937938
 30
0.0
 10
1017.7868720342
 20
139.5610055433
 30
0.0
 10
1018.510140331
 20
138.7365238266
 30
0.0
 10
1019.0798899285
 20
138.1557780149
 30
0.0
  0
SPLINE
  5
5C2
100
AcDbEntity
  8
BEZUGSACHSEN
100
AcDbSpline
 62
7
  6
CONTINUOUS
 70
0
 71
3
 72
9
 73
5
 74
0
 42
0.0000001
 43
0.0000001
 44
0.0000000001
 40
0.0
 40
0.0
 40
0.0
 40
0.0
 40
0.4519688092
 40
1.0
 40
1.0
 40
1.0
 40
1.0
 10
979.2329427553
 20
73.0380607133
 30
0.0
 10
979.914650013
 20
72.4632274991
 30
0.0
 10
981.3528761297
 20
71.1060433204
 30
0.0
 10
982.6221773543
 20
69.5891015097
 30
0.0
 10
983.2751692428
 20
68.7273073268
 30
0.0
  0
LINE
  5
5C3
100
AcDbEntity
  8
BEZUGSACHSEN
100
AcDbLine
 62
7
  6
CONTINUOUS
 10
1020.618686641
 20
224.8390585262
 11
1020.650108146
 21
224.7473906595
  0
LINE
  5
5C4
100
AcDbEntity
  8
BEZUGSACHSEN
100
AcDbLine
 62
7
  6
CONTINUOUS
 10
1020.650108146
 20
224.7473906595
 11
1020.7480261253
 21
224.4453666821
  0
LINE
  5
5C5
100
AcDbEntity
  8
BEZUGSACHSEN
100
AcDbLine
 62
7
  6
CONTINUOUS
 10
1020.7480261253
 20
224.4453666821
 11
1020.8451786115
 21
224.1451044536
  0
LINE
  5
5C6
100
AcDbEntity
  8
BEZUGSACHSEN
100
AcDbLine
 62
7
  6
CONTINUOUS
 10
1020.8451786115
 20
224.1451044536
 11
1021.1096976481
 21
223.308125883
  0
LINE
  5
5C7
100
AcDbEntity
  8
BEZUGSACHSEN
100
AcDbLine
 62
7
  6
CONTINUOUS
 10
1021.1096976481
 20
223.308125883
 11
1022.1132329597
 21
220.0931116741
  0
LINE
  5
5C8
100
AcDbEntity
  8
BEZUGSACHSEN
100
AcDbLine
 62
7
  6
CONTINUOUS
 10
1022.3842377512
 20
219.2154161601
 11
1022.1132329597
 21
220.0931116741
  0
LINE
  5
5C9
100
AcDbEntity
  8
BEZUGSACHSEN
100
AcDbLine
 62
7
  6
CONTINUOUS
 10
1022.5913772813
 20
218.531696202
 11
1022.3842377512
 21
219.2154161601
  0
LINE
  5
5CA
100
AcDbEntity
  8
BEZUGSACHSEN
100
AcDbLine
 62
7
  6
CONTINUOUS
 10
1022.7336157456
 20
218.0419518828
 11
1022.6628679468
 21
218.2861795069
  0
LINE
  5
5CB
100
AcDbEntity
  8
BEZUGSACHSEN
100
AcDbLine
 62
7
  6
CONTINUOUS
 10
1022.6628679468
 20
218.2861795069
 11
1022.5913772813
 21
218.531696202
  0
SPLINE
  5
5CC
100
AcDbEntity
  8
KONSTRUKTIONSELEMENTE
100
AcDbSpline
 62
7
  6
CONTINUOUS
 70
0
 71
3
 72
11
 73
7
 74
0
 42
0.0000001
 43
0.0000001
 44
0.0000000001
 40
0.0
 40
0.0
 40
0.0
 40
0.0
 40
0.3553660481
 40
0.4919554141
 40
0.6464733594
 40
1.0
 40
1.0
 40
1.0
 40
1.0
 10
741.7072416701
 20
-2.0751851456
 30
0.0
 10
741.1298110748
 20
-1.5755430658
 30
0.0
 10
739.7943130441
 20
-1.8613964216
 30
0.0
 10
738.5835085804
 20
-2.4432248567
 30
0.0
 10
737.3812511774
 20
-3.1590695596
 30
0.0
 10
736.5209199022
 20
-3.8304097322
 30
0.0
 10
735.9466885447
 20
-4.3277086755
 30
0.0
  0
SPLINE
  5
5CD
100
AcDbEntity
  8
KONSTRUKTIONSELEMENTE
100
AcDbSpline
 62
7
  6
CONTINUOUS
 70
0
 71
3
 72
9
 73
5
 74
0
 42
0.0000001
 43
0.0000001
 44
0.0000000001
 40
0.0
 40
0.0
 40
0.0
 40
0.0
 40
0.5627353229
 40
1.0
 40
1.0
 40
1.0
 40
1.0
 10
737.7539027677
 20
15.5156358893
 30
0.0
 10
738.0138281698
 20
16.0485566005
 30
0.0
 10
738.4193869679
 20
17.0233041884
 30
0.0
 10
738.6336943132
 20
18.0723041459
 30
0.0
 10
738.6336943132
 20
18.5330309371
 30
0.0
  0
SPLINE
  5
5CE
100
AcDbEntity
  8
KONSTRUKTIONSELEMENTE
100
AcDbSpline
 62
7
  6
CONTINUOUS
 70
0
 71
3
 72
9
 73
5
 74
0
 42
0.0000001
 43
0.0000001
 44
0.0000000001
 40
0.0
 40
0.0
 40
0.0
 40
0.0
 40
0.5486732816
 40
1.0
 40
1.0
 40
1.0
 40
1.0
 10
738.6336943132
 20
-14.8744585925
 30
0.0
 10
738.6336943132
 20
-15.1893443709
 30
0.0
 10
738.6959961249
 20
-15.7724660417
 30
0.0
 10
739.0152185648
 20
-16.2844336745
 30
0.0
 10
739.2110780151
 20
-16.4539314708
 30
0.0
  0
SPLINE
  5
5CF
100
AcDbEntity
  8
KONSTRUKTIONSELEMENTE
100
AcDbSpline
 62
7
  6
CONTINUOUS
 70
0
 71
3
 72
8
 73
4
 74
0
 42
0.0000001
 43
0.0000001
 44
0.0000000001
 40
0.0
 40
0.0
 40
0.0
 40
0.0
 40
1.0
 40
1.0
 40
1.0
 40
1.0
 10
831.9548288799
 20
114.3340197132
 30
0.0
 10
831.9535888451
 20
114.3844788972
 30
0.0
 10
831.9368811853
 20
114.4373183427
 30
0.0
 10
831.9062579399
 20
114.4774416997
 30
0.0
  0
SPLINE
  5
5D0
100
AcDbEntity
  8
KONSTRUKTIONSELEMENTE
100
AcDbSpline
 62
7
  6
CONTINUOUS
 70
0
 71
3
 72
9
 73
5
 74
0
 42
0.0000001
 43
0.0000001
 44
0.0000000001
 40
0.0
 40
0.0
 40
0.0
 40
0.0
 40
0.3358800569
 40
1.0
 40
1.0
 40
1.0
 40
1.0
 10
825.2538084933
 20
36.8218568744
 30
0.0
 10
825.2408774682
 20
36.7825171232
 30
0.0
 10
825.2086974704
 20
36.6685576619
 30
0.0
 10
825.2115548511
 20
36.5146052696
 30
0.0
 10
825.2734537384
 20
36.4610077141
 30
0.0
  0
SPLINE
  5
5D1
100
AcDbEntity
  8
KONSTRUKTIONSELEMENTE
100
AcDbSpline
 62
7
  6
CONTINUOUS
 70
0
 71
3
 72
11
 73
7
 74
0
 42
0.0000001
 43
0.0000001
 44
0.0000000001
 40
0.0
 40
0.0
 40
0.0
 40
0.0
 40
0.3553660481
 40
0.4919554141
 40
0.6464733594
 40
1.0
 40
1.0
 40
1.0
 40
1.0
 10
740.9294242108
 20
-3.6015754664
 30
0.0
 10
740.3519936155
 20
-3.1019333866
 30
0.0
 10
739.0164955848
 20
-3.3877867424
 30
0.0
 10
737.8056911211
 20
-3.9696151774
 30
0.0
 10
736.6034337181
 20
-4.6854598803
 30
0.0
 10
735.7431024429
 20
-5.3568000529
 30
0.0
 10
735.1688710854
 20
-5.8540989962
 30
0.0
  0
SPLINE
  5
5D2
100
AcDbEntity
  8
KONSTRUKTIONSELEMENTE
100
AcDbSpline
 62
7
  6
CONTINUOUS
 70
0
 71
3
 72
10
 73
6
 74
0
 42
0.0000001
 43
0.0000001
 44
0.0000000001
 40
0.0
 40
0.0
 40
0.0
 40
0.0
 40
0.1889346049
 40
0.5351285558
 40
1.0
 40
1.0
 40
1.0
 40
1.0
 10
710.4517835667
 20
-26.2333208182
 30
0.0
 10
710.5013372125
 20
-26.2762346477
 30
0.0
 10
710.6742273599
 20
-26.3620109159
 30
0.0
 10
711.0335685787
 20
-26.3432443302
 30
0.0
 10
711.2987783855
 20
-26.2452615095
 30
0.0
 10
711.4454385766
 20
-26.17813613
 30
0.0
  0
SPLINE
  5
5D3
100
AcDbEntity
  8
KONSTRUKTIONSELEMENTE
100
AcDbSpline
 62
7
  6
CONTINUOUS
 70
0
 71
3
 72
9
 73
5
 74
0
 42
0.0000001
 43
0.0000001
 44
0.0000000001
 40
0.0
 40
0.0
 40
0.0
 40
0.0
 40
0.2183282735
 40
1.0
 40
1.0
 40
1.0
 40
1.0
 10
711.4454385766
 20
-26.17813613
 30
0.0
 10
711.5388352931
 20
-26.1353890834
 30
0.0
 10
711.9559837384
 20
-25.9164660262
 30
0.0
 10
712.3341762139
 20
-25.6295248426
 30
0.0
 10
712.6121647656
 20
-25.3887796949
 30
0.0
  0
SPLINE
  5
5D4
100
AcDbEntity
  8
KONSTRUKTIONSELEMENTE
100
AcDbSpline
 62
7
  6
CONTINUOUS
 70
0
 71
3
 72
12
 73
8
 74
0
 42
0.0000001
 43
0.0000001
 44
0.0000000001
 40
0.0
 40
0.0
 40
0.0
 40
0.0
 40
0.1697156635
 40
0.2699021624
 40
0.3843804761
 40
0.6607333466
 40
1.0
 40
1.0
 40
1.0
 40
1.0
 10
742.746611921
 20
-19.5157936493
 30
0.0
 10
742.9677153084
 20
-19.7071376813
 30
0.0
 10
743.4291931909
 20
-19.8886871604
 30
0.0
 10
744.0920570054
 20
-19.9072635565
 30
0.0
 10
744.9336627738
 20
-19.7865403333
 30
0.0
 10
746.1240885701
 20
-19.3480038048
 30
0.0
 10
747.0506561508
 20
-18.8263864032
 30
0.0
 10
747.5438146777
 20
-18.5126032026
 30
0.0
  0
SPLINE
  5
5D5
100
AcDbEntity
  8
BEZUGSACHSEN
100
AcDbSpline
 62
7
  6
CONTINUOUS
 70
0
 71
3
 72
11
 73
7
 74
0
 42
0.0000001
 43
0.0000001
 44
0.0000000001
 40
0.0
 40
0.0
 40
0.0
 40
0.0
 40
0.3534900149
 40
0.5080461252
 40
0.644605206
 40
1.0
 40
1.0
 40
1.0
 40
1.0
 10
853.1849928654
 20
104.9586411629
 30
0.0
 10
853.5438251924
 20
105.2693990737
 30
0.0
 10
854.0814847595
 20
105.6889694117
 30
0.0
 10
854.832811426
 20
106.1363296727
 30
0.0
 10
855.5895208836
 20
106.5000045234
 30
0.0
 10
856.4241650247
 20
106.6789345327
 30
0.0
 10
856.7850708639
 20
106.3666637735
 30
0.0
  0
SPLINE
  5
5D6
100
AcDbEntity
  8
BEZUGSACHSEN
100
AcDbSpline
 62
7
  6
CONTINUOUS
 70
0
 71
3
 72
11
 73
7
 74
0
 42
0.0000001
 43
0.0000001
 44
0.0000000001
 40
0.0
 40
0.0
 40
0.0
 40
0.0
 40
0.3047917663
 40
0.5691304122
 40
0.797802987
 40
1.0
 40
1.0
 40
1.0
 40
1.0
 10
860.0263962469
 20
106.1258856804
 30
0.0
 10
860.131782279
 20
106.6746894733
 30
0.0
 10
860.2746377315
 20
107.7116667193
 30
0.0
 10
860.2571475759
 20
109.1814702389
 30
0.0
 10
859.987493126
 20
110.4379696355
 30
0.0
 10
859.6157758234
 20
111.151088564
 30
0.0
 10
859.3908539467
 20
111.4457869413
 30
0.0
  0
SPLINE
  5
5D7
100
AcDbEntity
  8
KONSTRUKTIONSELEMENTE
100
AcDbSpline
 62
7
  6
CONTINUOUS
 70
0
 71
3
 72
12
 73
8
 74
0
 42
0.0000001
 43
0.0000001
 44
0.0000000001
 40
0.0
 40
0.0
 40
0.0
 40
0.0
 40
0.243215281
 40
0.5144977653
 40
0.7780221394
 40
0.8960482234
 40
1.0
 40
1.0
 40
1.0
 40
1.0
 10
830.7682286753
 20
34.4408013575
 30
0.0
 10
831.8443861196
 20
35.125530727
 30
0.0
 10
833.9570277935
 20
36.8312972297
 30
0.0
 10
836.7477894472
 20
39.8194807502
 30
0.0
 10
838.7451359154
 20
42.6185741035
 30
0.0
 10
839.9533705049
 20
44.8628654491
 30
0.0
 10
840.3990636361
 20
45.9420884632
 30
0.0
 10
840.5693004413
 20
46.4599958618
 30
0.0
  0
SPLINE
  5
5D8
100
AcDbEntity
  8
KONSTRUKTIONSELEMENTE
100
AcDbSpline
 62
7
  6
CONTINUOUS
 70
0
 71
3
 72
9
 73
5
 74
0
 42
0.0000001
 43
0.0000001
 44
0.0000000001
 40
0.0
 40
0.0
 40
0.0
 40
0.0
 40
0.5148567739
 40
1.0
 40
1.0
 40
1.0
 40
1.0
 10
751.6151538171
 20
-15.9221221383
 30
0.0
 10
751.84213872
 20
-15.7776978905
 30
0.0
 10
752.2181586288
 20
-15.4051816518
 30
0.0
 10
752.5160989311
 20
-14.9610355551
 30
0.0
 10
752.5952609937
 20
-14.7202026879
 30
0.0
  0
SPLINE
  5
5D9
100
AcDbEntity
  8
KONSTRUKTIONSELEMENTE
100
AcDbSpline
 62
7
  6
CONTINUOUS
 70
0
 71
3
 72
9
 73
5
 74
0
 42
0.0000001
 43
0.0000001
 44
0.0000000001
 40
0.0
 40
0.0
 40
0.0
 40
0.0
 40
0.3784231441
 40
1.0
 40
1.0
 40
1.0
 40
1.0
 10
828.8089876443
 20
33.3991455356
 30
0.0
 10
828.8576248715
 20
33.3570311036
 30
0.0
 10
829.0554726113
 20
33.3569259529
 30
0.0
 10
829.1995736484
 20
33.4427093283
 30
0.0
 10
829.2887319489
 20
33.4994383015
 30
0.0
  0
SPLINE
  5
5DA
100
AcDbEntity
  8
KONSTRUKTIONSELEMENTE
100
AcDbSpline
 62
7
  6
CONTINUOUS
 70
0
 71
3
 72
10
 73
6
 74
0
 42
0.0000001
 43
0.0000001
 44
0.0000000001
 40
0.0
 40
0.0
 40
0.0
 40
0.0
 40
0.1952284128
 40
0.4343563259
 40
1.0
 40
1.0
 40
1.0
 40
1.0
 10
817.7606250749
 20
99.9597630688
 30
0.0
 10
817.9313035735
 20
100.010460925
 30
0.0
 10
818.2947807683
 20
100.1764968603
 30
0.0
 10
819.0574917661
 20
100.6790334787
 30
0.0
 10
819.5971378932
 20
101.1863967843
 30
0.0
 10
819.944878887
 20
101.5674438278
 30
0.0
  0
SPLINE
  5
5DB
100
AcDbEntity
  8
BEZUGSACHSEN
100
AcDbSpline
 62
7
  6
CONTINUOUS
 70
0
 71
3
 72
16
 73
12
 74
0
 42
0.0000001
 43
0.0000001
 44
0.0000000001
 40
0.0
 40
0.0
 40
0.0
 40
0.0
 40
0.0604194303
 40
0.0972512247
 40
0.1400398366
 40
0.2446528485
 40
0.3732023846
 40
0.520590233
 40
0.679658882
 40
0.8423302392
 40
1.0
 40
1.0
 40
1.0
 40
1.0
 10
849.5849148669
 20
98.0506185523
 30
0.0
 10
849.4591417394
 20
98.1594426991
 30
0.0
 10
849.3276728172
 20
98.4170297609
 30
0.0
 10
849.2870968654
 20
98.8004226296
 30
0.0
 10
849.3199835822
 20
99.3091918008
 30
0.0
 10
849.5267106002
 20
100.0465898863
 30
0.0
 10
849.9612435189
 20
101.0021027481
 30
0.0
 10
850.5800005704
 20
102.0300431146
 30
0.0
 10
851.3471477133
 20
103.0708723455
 30
0.0
 10
852.2191254772
 20
104.0634257041
 30
0.0
 10
852.8569042152
 20
104.6745080571
 30
0.0
 10
853.1849928654
 20
104.9586411629
 30
0.0
  0
SPLINE
  5
5DC
100
AcDbEntity
  8
KONSTRUKTIONSELEMENTE
100
AcDbSpline
 62
7
  6
CONTINUOUS
 70
0
 71
3
 72
9
 73
5
 74
0
 42
0.0000001
 43
0.0000001
 44
0.0000000001
 40
0.0
 40
0.0
 40
0.0
 40
0.0
 40
0.2933152047
 40
1.0
 40
1.0
 40
1.0
 40
1.0
 10
708.2988134003
 20
-24.0449659127
 30
0.0
 10
708.2988134003
 20
-24.0950662981
 30
0.0
 10
708.3082887016
 20
-24.2642892898
 30
0.0
 10
708.3806379022
 20
-24.4396576905
 30
0.0
 10
708.4718845794
 20
-24.5186779983
 30
0.0
  0
SPLINE
  5
5DD
100
AcDbEntity
  8
KONSTRUKTIONSELEMENTE
100
AcDbSpline
 62
7
  6
CONTINUOUS
 70
0
 71
3
 72
11
 73
7
 74
0
 42
0.0000001
 43
0.0000001
 44
0.0000000001
 40
0.0
 40
0.0
 40
0.0
 40
0.0
 40
0.2857886869
 40
0.5710293088
 40
0.8184092914
 40
1.0
 40
1.0
 40
1.0
 40
1.0
 10
710.6322657782
 20
-9.264136875
 30
0.0
 10
710.3129676747
 20
-9.540657144
 30
0.0
 10
709.7188493873
 20
-10.1442510837
 30
0.0
 10
708.987226682
 20
-11.1141395837
 30
0.0
 10
708.4838018369
 20
-12.0416384109
 30
0.0
 10
708.2988134003
 20
-12.6665773816
 30
0.0
 10
708.2988134003
 20
-12.9349659127
 30
0.0
  0
SPLINE
  5
5DE
100
AcDbEntity
  8
KONSTRUKTIONSELEMENTE
100
AcDbSpline
 62
7
  6
CONTINUOUS
 70
0
 71
3
 72
12
 73
8
 74
0
 42
0.0000001
 43
0.0000001
 44
0.0000000001
 40
0.0
 40
0.0
 40
0.0
 40
0.0
 40
0.1039473314
 40
0.2219780859
 40
0.4855022837
 40
0.7567845856
 40
1.0
 40
1.0
 40
1.0
 40
1.0
 10
755.7199255685
 20
-5.2141096963
 30
0.0
 10
755.8901551116
 20
-4.6962243912
 30
0.0
 10
756.335847039
 20
-3.6169998956
 30
0.0
 10
757.5440707309
 20
-1.3727016434
 30
0.0
 10
759.541435476
 20
1.426407426
 30
0.0
 10
762.3321939109
 20
4.4145928529
 30
0.0
 10
764.4448391902
 20
6.1203549931
 30
0.0
 10
765.5209973346
 20
6.805084808
 30
0.0
  0
SPLINE
  5
5DF
100
AcDbEntity
  8
KONSTRUKTIONSELEMENTE
100
AcDbSpline
 62
7
  6
CONTINUOUS
 70
0
 71
3
 72
9
 73
5
 74
0
 42
0.0000001
 43
0.0000001
 44
0.0000000001
 40
0.0
 40
0.0
 40
0.0
 40
0.0
 40
0.2345826859
 40
1.0
 40
1.0
 40
1.0
 40
1.0
 10
739.4115117725
 20
19.0750503051
 30
0.0
 10
739.3896318619
 20
18.9886994662
 30
0.0
 10
739.2889035676
 20
18.622490574
 30
0.0
 10
739.1612298557
 20
18.2639908023
 30
0.0
 10
739.0530013939
 20
17.9942348841
 30
0.0
  0
SPLINE
  5
5E0
100
AcDbEntity
  8
KONSTRUKTIONSELEMENTE
100
AcDbSpline
 62
7
  6
CONTINUOUS
 70
0
 71
3
 72
11
 73
7
 74
0
 42
0.0000001
 43
0.0000001
 44
0.0000000001
 40
0.0
 40
0.0
 40
0.0
 40
0.0
 40
0.2227817513
 40
0.4757106727
 40
0.741146362
 40
1.0
 40
1.0
 40
1.0
 40
1.0
 10
739.0354177316
 20
17.9506817247
 30
0.0
 10
738.769364882
 20
17.2957669705
 30
0.0
 10
738.0725743028
 20
15.9495194763
 30
0.0
 10
736.7495953587
 20
14.000654566
 30
0.0
 10
735.1613232781
 20
12.1088384735
 30
0.0
 10
733.9675751163
 20
10.944833817
 30
0.0
 10
733.3466929249
 20
10.4071340665
 30
0.0
  0
SPLINE
  5
5E1
100
AcDbEntity
  8
KONSTRUKTIONSELEMENTE
100
AcDbSpline
 62
7
  6
CONTINUOUS
 70
0
 71
3
 72
13
 73
9
 74
0
 42
0.0000001
 43
0.0000001
 44
0.0000000001
 40
0.0
 40
0.0
 40
0.0
 40
0.0
 40
0.3387082209
 40
0.6145850421
 40
0.7288715786
 40
0.8288717439
 40
0.9176159119
 40
1.0
 40
1.0
 40
1.0
 40
1.0
 10
826.9201114769
 20
45.8716516319
 30
0.0
 10
827.4133577687
 20
46.1854906748
 30
0.0
 10
828.3398192699
 20
46.7074379705
 30
0.0
 10
829.5312019718
 20
47.1451704674
 30
0.0
 10
830.371702405
 20
47.2670587726
 30
0.0
 10
830.8980446712
 20
47.2494833666
 30
0.0
 10
831.3546871941
 20
47.1260318665
 30
0.0
 10
831.6102938647
 20
46.9674965456
 30
0.0
 10
831.7177734043
 20
46.8743913029
 30
0.0
  0
SPLINE
  5
5E2
100
AcDbEntity
  8
KONSTRUKTIONSELEMENTE
100
AcDbSpline
 62
7
  6
CONTINUOUS
 70
0
 71
3
 72
11
 73
7
 74
0
 42
0.0000001
 43
0.0000001
 44
0.0000000001
 40
0.0
 40
0.0
 40
0.0
 40
0.0
 40
0.1969653708
 40
0.4389957179
 40
0.7125134986
 40
1.0
 40
1.0
 40
1.0
 40
1.0
 10
738.7213169948
 20
20.1503313696
 30
0.0
 10
738.8441932641
 20
20.830696552
 30
0.0
 10
739.3391135669
 20
22.304738224
 30
0.0
 10
740.491356658
 20
24.5295952425
 30
0.0
 10
742.0700932191
 20
26.8716963864
 30
0.0
 10
743.3280503913
 20
28.3911766479
 30
0.0
 10
744.0082807718
 20
29.1365583544
 30
0.0
  0
SPLINE
  5
5E3
100
AcDbEntity
  8
KONSTRUKTIONSELEMENTE
100
AcDbSpline
 62
7
  6
CONTINUOUS
 70
0
 71
3
 72
13
 73
9
 74
0
 42
0.0000001
 43
0.0000001
 44
0.0000000001
 40
0.0
 40
0.0
 40
0.0
 40
0.0
 40
0.3442017304
 40
0.639278175
 40
0.7587825572
 40
0.8568962178
 40
0.935063035
 40
1.0
 40
1.0
 40
1.0
 40
1.0
 10
811.6606476929
 20
101.7426304248
 30
0.0
 10
811.9282935571
 20
102.0359109615
 30
0.0
 10
812.4600676018
 20
102.5496187236
 30
0.0
 10
813.1753538676
 20
103.0644814617
 30
0.0
 10
813.7122922147
 20
103.317085637
 30
0.0
 10
814.0432243146
 20
103.4084607799
 30
0.0
 10
814.3264628263
 20
103.4130158392
 30
0.0
 10
814.4843340839
 20
103.3419882298
 30
0.0
 10
814.5411405429
 20
103.2931610149
 30
0.0
  0
SPLINE
  5
5E4
100
AcDbEntity
  8
KONSTRUKTIONSELEMENTE
100
AcDbSpline
 62
7
  6
CONTINUOUS
 70
0
 71
3
 72
14
 73
10
 74
0
 42
0.0000001
 43
0.0000001
 44
0.0000000001
 40
0.0
 40
0.0
 40
0.0
 40
0.0
 40
0.3441519859
 40
0.5001803068
 40
0.6395256825
 40
0.7589756986
 40
0.8570248581
 40
0.9351117401
 40
1.0
 40
1.0
 40
1.0
 40
1.0
 10
833.0013062921
 20
126.6531867362
 30
0.0
 10
833.8938598783
 20
127.6312276093
 30
0.0
 10
835.2822495275
 20
128.9762957709
 30
0.0
 10
837.2401776253
 20
130.4704093141
 30
0.0
 10
838.5961735512
 20
131.3175321231
 30
0.0
 10
839.843368546
 20
131.9025842426
 30
0.0
 10
840.9465675226
 20
132.2065339959
 30
0.0
 10
841.8905175815
 20
132.220525094
 30
0.0
 10
842.416373711
 20
131.9830241792
 30
0.0
 10
842.6052548528
 20
131.8197771187
 30
0.0
  0
SPLINE
  5
5E5
100
AcDbEntity
  8
KONSTRUKTIONSELEMENTE
100
AcDbSpline
 62
7
  6
CONTINUOUS
 70
0
 71
3
 72
9
 73
5
 74
0
 42
0.0000001
 43
0.0000001
 44
0.0000000001
 40
0.0
 40
0.0
 40
0.0
 40
0.0
 40
0.2573534216
 40
1.0
 40
1.0
 40
1.0
 40
1.0
 10
738.6336943132
 20
19.7486599844
 30
0.0
 10
738.6423577344
 20
19.7828508774
 30
0.0
 10
738.6749621996
 20
19.9159708
 30
0.0
 10
738.7032273025
 20
20.0501688497
 30
0.0
 10
738.7213169948
 20
20.1503313696
 30
0.0
  0
SPLINE
  5
5E6
100
AcDbEntity
  8
KONSTRUKTIONSELEMENTE
100
AcDbSpline
 62
7
  6
CONTINUOUS
 70
0
 71
3
 72
9
 73
5
 74
0
 42
0.0000001
 43
0.0000001
 44
0.0000000001
 40
0.0
 40
0.0
 40
0.0
 40
0.0
 40
0.2445147161
 40
1.0
 40
1.0
 40
1.0
 40
1.0
 10
828.486625235
 20
121.5658058387
 30
0.0
 10
828.5466320861
 20
121.6549188437
 30
0.0
 10
828.7993410814
 20
122.014412045
 30
0.0
 10
829.0788071814
 20
122.3549972335
 30
0.0
 10
829.3025644763
 20
122.6001856272
 30
0.0
  0
SPLINE
  5
5E7
100
AcDbEntity
  8
BEZUGSACHSEN
100
AcDbSpline
 62
7
  6
CONTINUOUS
 70
0
 71
3
 72
11
 73
7
 74
0
 42
0.0000001
 43
0.0000001
 44
0.0000000001
 40
0.0
 40
0.0
 40
0.0
 40
0.0
 40
0.194366916
 40
0.4160218838
 40
0.68223499
 40
1.0
 40
1.0
 40
1.0
 40
1.0
 10
856.7850708639
 20
106.3666637735
 30
0.0
 10
856.8604892953
 20
106.3014086064
 30
0.0
 10
856.9906264775
 20
106.1231995083
 30
0.0
 10
857.0787739775
 20
105.7787207565
 30
0.0
 10
857.0766000053
 20
105.3624581758
 30
0.0
 10
857.0222510958
 20
105.0664939283
 30
0.0
 10
856.9834531055
 20
104.9081306817
 30
0.0
  0
SPLINE
  5
5E8
100
AcDbEntity
  8
KONSTRUKTIONSELEMENTE
100
AcDbSpline
 62
7
  6
CONTINUOUS
 70
0
 71
3
 72
10
 73
6
 74
0
 42
0.0000001
 43
0.0000001
 44
0.0000000001
 40
0.0
 40
0.0
 40
0.0
 40
0.0
 40
0.1702020269
 40
0.4025143755
 40
1.0
 40
1.0
 40
1.0
 40
1.0
 10
816.4147412695
 20
94.9465817187
 30
0.0
 10
816.5907259645
 20
94.9416897422
 30
0.0
 10
817.0048397833
 20
95.0555886885
 30
0.0
 10
817.9070949806
 20
95.5626547973
 30
0.0
 10
818.5491818319
 20
96.1538960328
 30
0.0
 10
818.9657844217
 20
96.6104001206
 30
0.0
  0
SPLINE
  5
5E9
100
AcDbEntity
  8
KONSTRUKTIONSELEMENTE
100
AcDbSpline
 62
7
  6
CONTINUOUS
 70
0
 71
3
 72
12
 73
8
 74
0
 42
0.0000001
 43
0.0000001
 44
0.0000000001
 40
0.0
 40
0.0
 40
0.0
 40
0.0
 40
0.2855672817
 40
0.5706138983
 40
0.8178266478
 40
0.9180835819
 40
1.0
 40
1.0
 40
1.0
 40
1.0
 10
735.9466885447
 20
5.6822913245
 30
0.0
 10
736.7981080943
 20
6.4196422838
 30
0.0
 10
738.3838261244
 20
8.030431801
 30
0.0
 10
740.3288579256
 20
10.6115924047
 30
0.0
 10
741.5341338493
 20
12.817257124
 30
0.0
 10
742.062755531
 20
14.4302644259
 30
0.0
 10
742.1692282192
 20
15.1480775441
 30
0.0
 10
742.1692282192
 20
15.4711687587
 30
0.0
  0
SPLINE
  5
5EA
100
AcDbEntity
  8
KONSTRUKTIONSELEMENTE
100
AcDbSpline
 62
7
  6
CONTINUOUS
 70
0
 71
3
 72
14
 73
10
 74
0
 42
0.0000001
 43
0.0000001
 44
0.0000000001
 40
0.0
 40
0.0
 40
0.0
 40
0.0
 40
0.0648882599
 40
0.1429751419
 40
0.2410243014
 40
0.3604743175
 40
0.4998196932
 40
0.6558480141
 40
1.0
 40
1.0
 40
1.0
 40
1.0
 10
846.1407887587
 20
128.7579149402
 30
0.0
 10
845.9519076169
 20
128.9211620008
 30
0.0
 10
845.4260514875
 20
129.1586629156
 30
0.0
 10
844.4821014286
 20
129.1446718174
 30
0.0
 10
843.3789024519
 20
128.8407220641
 30
0.0
 10
842.1317074571
 20
128.2556699446
 30
0.0
 10
840.7757115313
 20
127.4085471357
 30
0.0
 10
838.8177834334
 20
125.9144335924
 30
0.0
 10
837.4293937842
 20
124.5693654308
 30
0.0
 10
836.536840198
 20
123.5913245577
 30
0.0
  0
SPLINE
  5
5EB
100
AcDbEntity
  8
KONSTRUKTIONSELEMENTE
100
AcDbSpline
 62
7
  6
CONTINUOUS
 70
0
 71
3
 72
13
 73
9
 74
0
 42
0.0000001
 43
0.0000001
 44
0.0000000001
 40
0.0
 40
0.0
 40
0.0
 40
0.0
 40
0.064936965
 40
0.1431037822
 40
0.2412174428
 40
0.360721825
 40
0.6557982696
 40
1.0
 40
1.0
 40
1.0
 40
1.0
 10
816.863109031
 20
94.3862598512
 30
0.0
 10
816.9199154899
 20
94.3374326363
 30
0.0
 10
817.0777867475
 20
94.2664050269
 30
0.0
 10
817.3610252592
 20
94.2709600862
 30
0.0
 10
817.6919573592
 20
94.3623352291
 30
0.0
 10
818.2288957062
 20
94.6149394044
 30
0.0
 10
818.944181972
 20
95.1298021425
 30
0.0
 10
819.4759560167
 20
95.6435099047
 30
0.0
 10
819.743601881
 20
95.9367904413
 30
0.0
  0
SPLINE
  5
5EC
100
AcDbEntity
  8
KONSTRUKTIONSELEMENTE
100
AcDbSpline
 62
7
  6
CONTINUOUS
 70
0
 71
3
 72
9
 73
5
 74
0
 42
0.0000001
 43
0.0000001
 44
0.0000000001
 40
0.0
 40
0.0
 40
0.0
 40
0.0
 40
0.3358800569
 40
1.0
 40
1.0
 40
1.0
 40
1.0
 10
828.7893423992
 20
33.759994696
 30
0.0
 10
828.7764113741
 20
33.7206549447
 30
0.0
 10
828.7442313764
 20
33.6066954834
 30
0.0
 10
828.747088757
 20
33.4527430911
 30
0.0
 10
828.8089876443
 20
33.3991455356
 30
0.0
  0
SPLINE
  5
5ED
100
AcDbEntity
  8
KONSTRUKTIONSELEMENTE
100
AcDbSpline
 62
7
  6
CONTINUOUS
 70
0
 71
3
 72
13
 73
9
 74
0
 42
0.0000001
 43
0.0000001
 44
0.0000000001
 40
0.0
 40
0.0
 40
0.0
 40
0.0
 40
0.064936965
 40
0.1431037822
 40
0.2412174428
 40
0.360721825
 40
0.6557982696
 40
1.0
 40
1.0
 40
1.0
 40
1.0
 10
819.0442850243
 20
98.3022704177
 30
0.0
 10
819.1010914832
 20
98.2534432028
 30
0.0
 10
819.2589627409
 20
98.1824155935
 30
0.0
 10
819.5422012526
 20
98.1869706527
 30
0.0
 10
819.8731333525
 20
98.2783457956
 30
0.0
 10
820.4100716995
 20
98.530949971
 30
0.0
 10
821.1253579654
 20
99.045812709
 30
0.0
 10
821.65713201
 20
99.5595204712
 30
0.0
 10
821.9247778743
 20
99.8528010078
 30
0.0
  0
SPLINE
  5
5EE
100
AcDbEntity
  8
KONSTRUKTIONSELEMENTE
100
AcDbSpline
 62
7
  6
CONTINUOUS
 70
0
 71
3
 72
11
 73
7
 74
0
 42
0.0000001
 43
0.0000001
 44
0.0000000001
 40
0.0
 40
0.0
 40
0.0
 40
0.0
 40
0.2874865014
 40
0.5610042821
 40
0.8030346292
 40
1.0
 40
1.0
 40
1.0
 40
1.0
 10
747.5438146777
 20
26.0746961759
 30
0.0
 10
746.8635842973
 20
25.3293144695
 30
0.0
 10
745.605627125
 20
23.809834208
 30
0.0
 10
744.0268905639
 20
21.467733064
 30
0.0
 10
742.8746474729
 20
19.2428760456
 30
0.0
 10
742.3797271701
 20
17.7688343735
 30
0.0
 10
742.2568509007
 20
17.0884691911
 30
0.0
  0
SPLINE
  5
5EF
100
AcDbEntity
  8
KONSTRUKTIONSELEMENTE
100
AcDbSpline
 62
7
  6
CONTINUOUS
 70
0
 71
3
 72
11
 73
7
 74
0
 42
0.0000001
 43
0.0000001
 44
0.0000000001
 40
0.0
 40
0.0
 40
0.0
 40
0.0
 40
0.18436948
 40
0.4023889958
 40
0.6725775155
 40
1.0
 40
1.0
 40
1.0
 40
1.0
 10
831.7177734043
 20
46.8743913029
 30
0.0
 10
831.8940024489
 20
46.7217311034
 30
0.0
 10
832.1888033996
 20
46.2798196296
 30
0.0
 10
832.3324779485
 20
45.4263913339
 30
0.0
 10
832.2396675397
 20
44.3924318352
 30
0.0
 10
832.0433041908
 20
43.6594455463
 30
0.0
 10
831.914006974
 20
43.2660876876
 30
0.0
  0
SPLINE
  5
5F0
100
AcDbEntity
  8
BEZUGSACHSEN
100
AcDbSpline
 62
7
  6
CONTINUOUS
 70
0
 71
3
 72
11
 73
7
 74
0
 42
0.0000001
 43
0.0000001
 44
0.0000000001
 40
0.0
 40
0.0
 40
0.0
 40
0.0
 40
0.3431373362
 40
0.6221761104
 40
0.8352432468
 40
1.0
 40
1.0
 40
1.0
 40
1.0
 10
852.2443589482
 20
98.725718592
 30
0.0
 10
851.9720046398
 20
98.53777225
 30
0.0
 10
851.4590365786
 20
98.2219076517
 30
0.0
 10
850.7103112212
 20
97.9147470524
 30
0.0
 10
850.0728205096
 20
97.817047576
 30
0.0
 10
849.7050674475
 20
97.9466575369
 30
0.0
 10
849.5849148669
 20
98.0506185523
 30
0.0
  0
SPLINE
  5
5F1
100
AcDbEntity
  8
KONSTRUKTIONSELEMENTE
100
AcDbSpline
 62
7
  6
CONTINUOUS
 70
0
 71
3
 72
9
 73
5
 74
0
 42
0.0000001
 43
0.0000001
 44
0.0000000001
 40
0.0
 40
0.0
 40
0.0
 40
0.0
 40
0.2426596253
 40
1.0
 40
1.0
 40
1.0
 40
1.0
 10
742.2568509007
 20
17.0884691911
 30
0.0
 10
742.2509400711
 20
17.0557409624
 30
0.0
 10
742.2253008858
 20
16.9211006533
 30
0.0
 10
742.1947230721
 20
16.7874153076
 30
0.0
 10
742.1692282192
 20
16.6867978059
 30
0.0
  0
SPLINE
  5
5F2
100
AcDbEntity
  8
KONSTRUKTIONSELEMENTE
100
AcDbSpline
 62
7
  6
CONTINUOUS
 70
0
 71
3
 72
9
 73
5
 74
0
 42
0.0000001
 43
0.0000001
 44
0.0000000001
 40
0.0
 40
0.0
 40
0.0
 40
0.0
 40
0.5486732816
 40
1.0
 40
1.0
 40
1.0
 40
1.0
 10
742.1692282192
 20
-17.936320771
 30
0.0
 10
742.1692282192
 20
-18.2512065494
 30
0.0
 10
742.2315300309
 20
-18.8343282202
 30
0.0
 10
742.5507524707
 20
-19.346295853
 30
0.0
 10
742.746611921
 20
-19.5157936493
 30
0.0
  0
SPLINE
  5
5F3
100
AcDbEntity
  8
KONSTRUKTIONSELEMENTE
100
AcDbSpline
 62
7
  6
CONTINUOUS
 70
0
 71
3
 72
9
 73
5
 74
0
 42
0.0000001
 43
0.0000001
 44
0.0000000001
 40
0.0
 40
0.0
 40
0.0
 40
0.0
 40
0.2531014165
 40
1.0
 40
1.0
 40
1.0
 40
1.0
 10
832.8380983822
 20
119.5383234487
 30
0.0
 10
832.7631364457
 20
119.4561817836
 30
0.0
 10
832.472879598
 20
119.1263186135
 30
0.0
 10
832.2054549346
 20
118.7761465614
 30
0.0
 10
832.0221591409
 20
118.5039436602
 30
0.0
  0
SPLINE
  5
5F4
100
AcDbEntity
  8
KONSTRUKTIONSELEMENTE
100
AcDbSpline
 62
7
  6
CONTINUOUS
 70
0
 71
3
 72
9
 73
5
 74
0
 42
0.0000001
 43
0.0000001
 44
0.0000000001
 40
0.0
 40
0.0
 40
0.0
 40
0.0
 40
0.5486311305
 40
1.0
 40
1.0
 40
1.0
 40
1.0
 10
742.1692282192
 20
-3.3388312413
 30
0.0
 10
742.1692282192
 20
-3.0869256813
 30
0.0
 10
742.1193390691
 20
-2.6204108723
 30
0.0
 10
741.8639633165
 20
-2.2107940482
 30
0.0
 10
741.7072416701
 20
-2.0751851456
 30
0.0
  0
SPLINE
  5
5F5
100
AcDbEntity
  8
KONSTRUKTIONSELEMENTE
100
AcDbSpline
 62
7
  6
CONTINUOUS
 70
0
 71
3
 72
10
 73
6
 74
0
 42
0.0000001
 43
0.0000001
 44
0.0000000001
 40
0.0
 40
0.0
 40
0.0
 40
0.0
 40
0.6126827105
 40
0.8437825825
 40
1.0
 40
1.0
 40
1.0
 40
1.0
 10
830.4124905027
 20
112.9383395135
 30
0.0
 10
830.8027435205
 20
113.1336925842
 30
0.0
 10
831.3263973181
 20
113.4550358392
 30
0.0
 10
831.8238133733
 20
113.9579316372
 30
0.0
 10
831.9575626283
 20
114.2227787116
 30
0.0
 10
831.9548288799
 20
114.3340197132
 30
0.0
  0
SPLINE
  5
5F6
100
AcDbEntity
  8
KONSTRUKTIONSELEMENTE
100
AcDbSpline
 62
7
  6
CONTINUOUS
 70
0
 71
3
 72
12
 73
8
 74
0
 42
0.0000001
 43
0.0000001
 44
0.0000000001
 40
0.0
 40
0.0
 40
0.0
 40
0.0
 40
0.3092390021
 40
0.603666959
 40
0.8446072846
 40
0.9339726771
 40
1.0
 40
1.0
 40
1.0
 40
1.0
 10
832.2911701592
 20
111.3113552055
 30
0.0
 10
832.3881227066
 20
111.564348344
 30
0.0
 10
832.5513094329
 20
112.0689894759
 30
0.0
 10
832.7034024806
 20
112.7933570634
 30
0.0
 10
832.7470897131
 20
113.3443285703
 30
0.0
 10
832.6997752576
 20
113.6888346676
 30
0.0
 10
832.6484619717
 20
113.8190839513
 30
0.0
 10
832.613364721
 20
113.865069264
 30
0.0
  0
SPLINE
  5
5F7
100
AcDbEntity
  8
KONSTRUKTIONSELEMENTE
100
AcDbSpline
 62
7
  6
CONTINUOUS
 70
0
 71
3
 72
13
 73
9
 74
0
 42
0.0000001
 43
0.0000001
 44
0.0000000001
 40
0.0
 40
0.0
 40
0.0
 40
0.0
 40
0.3442017304
 40
0.639278175
 40
0.7587825572
 40
0.8568962178
 40
0.935063035
 40
1.0
 40
1.0
 40
1.0
 40
1.0
 10
813.6405466802
 20
100.0279876049
 30
0.0
 10
813.9081925445
 20
100.3212681415
 30
0.0
 10
814.4399665891
 20
100.8349759036
 30
0.0
 10
815.155252855
 20
101.3498386417
 30
0.0
 10
815.692191202
 20
101.6024428171
 30
0.0
 10
816.0231233019
 20
101.69381796
 30
0.0
 10
816.3063618136
 20
101.6983730192
 30
0.0
 10
816.4642330713
 20
101.6273454098
 30
0.0
 10
816.5210395302
 20
101.5785181949
 30
0.0
  0
SPLINE
  5
5F8
100
AcDbEntity
  8
KONSTRUKTIONSELEMENTE
100
AcDbSpline
 62
7
  6
CONTINUOUS
 70
0
 71
3
 72
9
 73
5
 74
0
 42
0.0000001
 43
0.0000001
 44
0.0000000001
 40
0.0
 40
0.0
 40
0.0
 40
0.0
 40
0.2933152047
 40
1.0
 40
1.0
 40
1.0
 40
1.0
 10
710.2787123876
 20
-25.7596087327
 30
0.0
 10
710.2787123876
 20
-25.809709118
 30
0.0
 10
710.2881876889
 20
-25.9789321097
 30
0.0
 10
710.3605368895
 20
-26.1543005105
 30
0.0
 10
710.4517835667
 20
-26.2333208182
 30
0.0
  0
SPLINE
  5
5F9
100
AcDbEntity
  8
KONSTRUKTIONSELEMENTE
100
AcDbSpline
 62
7
  6
CONTINUOUS
 70
0
 71
3
 72
11
 73
7
 74
0
 42
0.0000001
 43
0.0000001
 44
0.0000000001
 40
0.0
 40
0.0
 40
0.0
 40
0.0
 40
0.2857886869
 40
0.5710293088
 40
0.8184092914
 40
1.0
 40
1.0
 40
1.0
 40
1.0
 10
712.6121647656
 20
-10.9787796949
 30
0.0
 10
712.2928666621
 20
-11.2552999639
 30
0.0
 10
711.6987483747
 20
-11.8588939036
 30
0.0
 10
710.9671256693
 20
-12.8287824037
 30
0.0
 10
710.4637008242
 20
-13.7562812309
 30
0.0
 10
710.2787123876
 20
-14.3812202015
 30
0.0
 10
710.2787123876
 20
-14.6496087327
 30
0.0
  0
SPLINE
  5
5FA
100
AcDbEntity
  8
KONSTRUKTIONSELEMENTE
100
AcDbSpline
 62
7
  6
CONTINUOUS
 70
0
 71
3
 72
11
 73
7
 74
0
 42
0.0000001
 43
0.0000001
 44
0.0000000001
 40
0.0
 40
0.0
 40
0.0
 40
0.0
 40
0.2057946179
 40
0.4569047766
 40
0.7305096475
 40
1.0
 40
1.0
 40
1.0
 40
1.0
 10
741.3914107598
 20
17.3604074852
 30
0.0
 10
741.2111091872
 20
16.6488327284
 30
0.0
 10
740.5734326897
 20
15.1322730444
 30
0.0
 10
739.2041174993
 20
12.9096451516
 30
0.0
 10
737.4312295764
 20
10.6913773987
 30
0.0
 10
736.0532381642
 20
9.3217853603
 30
0.0
 10
735.3265919122
 20
8.6924912465
 30
0.0
  0
SPLINE
  5
5FB
100
AcDbEntity
  8
KONSTRUKTIONSELEMENTE
100
AcDbSpline
 62
7
  6
CONTINUOUS
 70
0
 71
3
 72
12
 73
8
 74
0
 42
0.0000001
 43
0.0000001
 44
0.0000000001
 40
0.0
 40
0.0
 40
0.0
 40
0.0
 40
0.285581653
 40
0.5706156379
 40
0.817816411
 40
0.9180971044
 40
1.0
 40
1.0
 40
1.0
 40
1.0
 10
735.1688710854
 20
6.3559010038
 30
0.0
 10
736.0203326947
 20
7.0932883878
 30
0.0
 10
737.6060469327
 20
8.7040951888
 30
0.0
 10
739.5510341272
 20
11.2852129339
 30
0.0
 10
740.7564018677
 20
13.4908545801
 30
0.0
 10
741.2848218047
 20
15.1039064227
 30
0.0
 10
741.3914107598
 20
15.8217408577
 30
0.0
 10
741.3914107598
 20
16.1447784379
 30
0.0
  0
SPLINE
  5
5FC
100
AcDbEntity
  8
KONSTRUKTIONSELEMENTE
100
AcDbSpline
 62
7
  6
CONTINUOUS
 70
0
 71
3
 72
9
 73
5
 74
0
 42
0.0000001
 43
0.0000001
 44
0.0000000001
 40
0.0
 40
0.0
 40
0.0
 40
0.0
 40
0.5486311305
 40
1.0
 40
1.0
 40
1.0
 40
1.0
 10
741.3914107598
 20
-4.8652215621
 30
0.0
 10
741.3914107598
 20
-4.6133160021
 30
0.0
 10
741.3415216098
 20
-4.146801193
 30
0.0
 10
741.0861458572
 20
-3.7371843689
 30
0.0
 10
740.9294242108
 20
-3.6015754664
 30
0.0
  0
SPLINE
  5
5FD
100
AcDbEntity
  8
KONSTRUKTIONSELEMENTE
100
AcDbSpline
 62
7
  6
CONTINUOUS
 70
0
 71
3
 72
9
 73
5
 74
0
 42
0.0000001
 43
0.0000001
 44
0.0000000001
 40
0.0
 40
0.0
 40
0.0
 40
0.0
 40
0.2763905897
 40
1.0
 40
1.0
 40
1.0
 40
1.0
 10
741.3914107598
 20
-2.6652215621
 30
0.0
 10
741.3914107598
 20
-2.5854076854
 30
0.0
 10
741.3803037948
 20
-2.2972553619
 30
0.0
 10
741.3192853444
 20
-2.0073274442
 30
0.0
 10
741.2333403846
 20
-1.8168622733
 30
0.0
  0
SPLINE
  5
5FE
100
AcDbEntity
  8
0
100
AcDbSpline
 62
7
  6
CONTINUOUS
 70
0
 71
3
 72
14
 73
10
 74
0
 42
0.0000001
 43
0.0000001
 44
0.0000000001
 40
0.0
 40
0.0
 40
0.0
 40
0.0
 40
0.1127712484
 40
0.2271784672
 40
0.3446698319
 40
0.4663081237
 40
0.5927196198
 40
0.724088947
 40
1.0
 40
1.0
 40
1.0
 40
1.0
 10
954.4555915077
 20
318.5470979707
 30
0.0
 10
954.4555915077
 20
320.5230587469
 30
0.0
 10
954.7787570781
 20
324.5109637779
 30
0.0
 10
956.2299781384
 20
330.3982768339
 30
0.0
 10
958.6459614702
 20
336.129696664
 30
0.0
 10
962.0128991916
 20
341.6058703045
 30
0.0
 10
966.2996183232
 20
346.7188078645
 30
0.0
 10
973.2641845235
 20
352.9922235445
 30
0.0
 10
979.5157771616
 20
356.6487825102
 30
0.0
 10
983.951866581
 20
358.5705598408
 30
0.0
  0
SPLINE
  5
5FF
100
AcDbEntity
  8
0
100
AcDbSpline
 62
7
  6
CONTINUOUS
 70
0
 71
3
 72
14
 73
10
 74
0
 42
0.0000001
 43
0.0000001
 44
0.0000000001
 40
0.0
 40
0.0
 40
0.0
 40
0.0
 40
0.2759118716
 40
0.4072816032
 40
0.5336933061
 40
0.6553317212
 40
0.7728229149
 40
0.8872295389
 40
1.0
 40
1.0
 40
1.0
 40
1.0
 10
1034.957018643
 20
358.5715562021
 30
0.0
 10
1039.3934068129
 20
356.6498550314
 30
0.0
 10
1045.6454631769
 20
352.9933566017
 30
0.0
 10
1052.6105809484
 20
346.7198469897
 30
0.0
 10
1056.8976491226
 20
341.6067700974
 30
0.0
 10
1060.2648716769
 20
336.1304079386
 30
0.0
 10
1062.6810566548
 20
330.3987627378
 30
0.0
 10
1064.1324003495
 20
324.5112096005
 30
0.0
 10
1064.4555915077
 20
320.523138761
 30
0.0
 10
1064.4555915077
 20
318.5470979707
 30
0.0
  0
SPLINE
  5
600
100
AcDbEntity
  8
0
100
AcDbSpline
 62
7
  6
CONTINUOUS
 70
0
 71
3
 72
16
 73
12
 74
0
 42
0.0000001
 43
0.0000001
 44
0.0000000001
 40
0.0
 40
0.0
 40
0.0
 40
0.0
 40
0.1208530035
 40
0.2422192649
 40
0.3645735828
 40
0.4883103077
 40
0.6136987301
 40
0.7408448808
 40
0.8051055696
 40
0.8697599775
 40
1.0
 40
1.0
 40
1.0
 40
1.0
 10
918.4555915077
 20
318.5470979707
 30
0.0
 10
918.4555915077
 20
322.9585970857
 30
0.0
 10
919.265565887
 20
331.8211807552
 30
0.0
 10
922.8648542308
 20
344.7041338582
 30
0.0
 10
928.725872431
 20
356.8461153124
 30
0.0
 10
936.6599952607
 20
367.9221422451
 30
0.0
 10
946.4279605778
 20
377.6619607649
 30
0.0
 10
955.8444518939
 20
384.460338832
 30
0.0
 10
964.0025499735
 20
389.0380991657
 30
0.0
 10
972.5812702368
 20
393.0405310135
 30
0.0
 10
979.3529194128
 20
395.3273064986
 30
0.0
 10
983.9543278604
 20
396.5227214731
 30
0.0
  0
SPLINE
  5
601
100
AcDbEntity
  8
0
100
AcDbSpline
 62
7
  6
CONTINUOUS
 70
0
 71
3
 72
16
 73
12
 74
0
 42
0.0000001
 43
0.0000001
 44
0.0000000001
 40
0.0
 40
0.0
 40
0.0
 40
0.0
 40
0.1302400903
 40
0.1948944961
 40
0.2591551575
 40
0.3863012163
 40
0.5116895215
 40
0.6354261425
 40
0.7577804254
 40
0.8791467664
 40
1.0
 40
1.0
 40
1.0
 40
1.0
 10
1034.9570996518
 20
396.5226579259
 30
0.0
 10
1039.5584995486
 20
395.3272438014
 30
0.0
 10
1046.3301262673
 20
393.0404430633
 30
0.0
 10
1054.9088194021
 20
389.0380026993
 30
0.0
 10
1063.0668846663
 20
384.4602367383
 30
0.0
 10
1072.4833341386
 20
377.6618619173
 30
0.0
 10
1082.2512540538
 20
367.9220595673
 30
0.0
 10
1090.1853415769
 20
356.8460580259
 30
0.0
 10
1096.0463382747
 20
344.7041035072
 30
0.0
 10
1099.6456182442
 20
331.8211698736
 30
0.0
 10
1100.4555915077
 20
322.9585953147
 30
0.0
 10
1100.4555915077
 20
318.5470979707
 30
0.0
  0
SPLINE
  5
602
100
AcDbEntity
  8
0
100
AcDbSpline
 62
7
  6
CONTINUOUS
 70
0
 71
3
 72
17
 73
13
 74
0
 42
0.0000001
 43
0.0000001
 44
0.0000000001
 40
0.0
 40
0.0
 40
0.0
 40
0.0
 40
0.1206225972
 40
0.2417984507
 40
0.3640357109
 40
0.4257465335
 40
0.4878657118
 40
0.6133213591
 40
0.7405996613
 40
0.8049387238
 40
0.8696671083
 40
1.0
 40
1.0
 40
1.0
 40
1.0
 10
1100.4555915077
 20
240.6048116301
 30
0.0
 10
1100.4555915077
 20
236.0187621442
 30
0.0
 10
1099.5793714142
 20
226.8019300584
 30
0.0
 10
1095.6917925909
 20
213.4404088657
 30
0.0
 10
1090.4358707755
 20
203.0207653004
 30
0.0
 10
1085.1462147896
 20
195.2922913308
 30
0.0
 10
1079.1270269531
 20
187.9573678874
 30
0.0
 10
1070.3667634068
 20
179.7114922189
 30
0.0
 10
1060.3146086941
 20
172.9597717676
 30
0.0
 10
1051.6354607701
 20
168.5065685253
 30
0.0
 10
1042.5333204946
 20
164.6910164488
 30
0.0
 10
1035.3760439903
 20
162.6124603515
 30
0.0
 10
1030.5283611343
 20
161.5856661135
 30
0.0
  0
LINE
  5
603
100
AcDbEntity
  8
0
100
AcDbLine
 62
7
  6
CONTINUOUS
 10
1030.5283611343
 20
161.5856661135
 11
1030.4582010674
 21
161.5708315568
  0
LINE
  5
604
100
AcDbEntity
  8
0
100
AcDbLine
 62
7
  6
CONTINUOUS
 10
988.4518236221
 20
161.5710748082
 11
988.3806355679
 21
161.5861280597
  0
SPLINE
  5
605
100
AcDbEntity
  8
0
100
AcDbSpline
 62
7
  6
CONTINUOUS
 70
0
 71
3
 72
12
 73
8
 74
0
 42
0.0000001
 43
0.0000001
 44
0.0000000001
 40
0.0
 40
0.0
 40
0.0
 40
0.0
 40
0.2546109262
 40
0.5064845189
 40
0.6312746872
 40
0.7551676539
 40
1.0
 40
1.0
 40
1.0
 40
1.0
 10
988.3806355679
 20
161.5861280597
 30
0.0
 10
983.4268941528
 20
162.6355070266
 30
0.0
 10
973.7144179796
 20
165.4723880212
 30
0.0
 10
962.3043815616
 20
170.8393294724
 30
0.0
 10
953.8644205732
 20
176.1383468604
 30
0.0
 10
946.0010797445
 20
182.0245402146
 30
0.0
 10
940.6921340977
 20
187.1513637923
 30
0.0
 10
937.5009550969
 20
190.8290575725
 30
0.0
  0
SPLINE
  5
606
100
AcDbEntity
  8
0
100
AcDbSpline
 62
7
  6
CONTINUOUS
 70
0
 71
3
 72
11
 73
7
 74
0
 42
0.0000001
 43
0.0000001
 44
0.0000000001
 40
0.0
 40
0.0
 40
0.0
 40
0.0
 40
0.25262077
 40
0.5030400097
 40
0.7519162636
 40
1.0
 40
1.0
 40
1.0
 40
1.0
 10
932.4665819422
 20
197.2500400041
 30
0.0
 10
930.2207842736
 20
200.4315108118
 30
0.0
 10
926.2035817811
 20
207.1036507181
 30
0.0
 10
921.7704784694
 20
217.8610852986
 30
0.0
 10
919.062837844
 20
229.1060722532
 30
0.0
 10
918.4555915077
 20
236.7804790409
 30
0.0
 10
918.4555915077
 20
240.6048116301
 30
0.0
  0
SPLINE
  5
607
100
AcDbEntity
  8
0
100
AcDbSpline
 62
7
  6
CONTINUOUS
 70
0
 71
3
 72
15
 73
11
 74
0
 42
0.0000001
 43
0.0000001
 44
0.0000000001
 40
0.0
 40
0.0
 40
0.0
 40
0.0
 40
0.110170654
 40
0.222552917
 40
0.3389816748
 40
0.4606423199
 40
0.5880022085
 40
0.7208770675
 40
0.8585666695
 40
1.0
 40
1.0
 40
1.0
 40
1.0
 10
1064.4555915077
 20
240.6048116301
 30
0.0
 10
1064.4555915077
 20
238.2676732056
 30
0.0
 10
1064.0009695421
 20
233.5344635587
 30
0.0
 10
1061.9630752154
 20
226.5964012813
 30
0.0
 10
1058.5788806936
 20
219.9305021962
 30
0.0
 10
1053.8875897199
 20
213.7105628361
 30
0.0
 10
1047.9726214888
 20
208.1220580103
 30
0.0
 10
1040.9675813794
 20
203.3504870119
 30
0.0
 10
1033.0566974746
 20
199.5631138506
 30
0.0
 10
1027.3785520302
 20
197.8011169752
 30
0.0
 10
1024.4578050445
 20
197.1146265829
 30
0.0
  0
SPLINE
  5
608
100
AcDbEntity
  8
0
100
AcDbSpline
 62
7
  6
CONTINUOUS
 70
0
 71
3
 72
11
 73
7
 74
0
 42
0.0000001
 43
0.0000001
 44
0.0000000001
 40
0.0
 40
0.0
 40
0.0
 40
0.0
 40
0.261029123
 40
0.5157909037
 40
0.7625277051
 40
1.0
 40
1.0
 40
1.0
 40
1.0
 10
994.4523026651
 20
197.1148782539
 30
0.0
 10
991.7364801917
 20
197.7532475726
 30
0.0
 10
986.445210233
 20
199.3668962999
 30
0.0
 10
979.0181929532
 20
202.7823394023
 30
0.0
 10
972.3508596522
 20
207.0639648062
 30
0.0
 10
968.4332377467
 20
210.4805690021
 30
0.0
 10
966.6566419118
 20
212.2931630373
 30
0.0
  0
SPLINE
  5
609
100
AcDbEntity
  8
0
100
AcDbSpline
 62
7
  6
CONTINUOUS
 70
0
 71
3
 72
11
 73
7
 74
0
 42
0.0000001
 43
0.0000001
 44
0.0000000001
 40
0.0
 40
0.0
 40
0.0
 40
0.0
 40
0.2596323067
 40
0.5113251403
 40
0.7571915868
 40
1.0
 40
1.0
 40
1.0
 40
1.0
 10
961.0678266687
 20
219.1981450182
 30
0.0
 10
959.9875966769
 20
220.8397569119
 30
0.0
 10
958.0761625183
 20
224.2221172093
 30
0.0
 10
955.9883930563
 20
229.5803585077
 30
0.0
 10
954.7345855848
 20
235.062395634
 30
0.0
 10
954.4555915077
 20
238.7670079119
 30
0.0
 10
954.4555915077
 20
240.6048116301
 30
0.0
  0
ELLIPSE
  5
60A
100
AcDbEntity
  8
KONSTRUKTIONSELEMENTE
100
AcDbEllipse
 62
7
  6
CONTINUOUS
 10
52.4424717759
 20
112.0298487462
 30
0.0
 11
-0.9252092967
 21
2.0294610737
 31
0.0
 40
0.8040646284
 41
-2.1902533329
 42
-0.7307217434
  0
ELLIPSE
  5
60B
100
AcDbEntity
  8
KONSTRUKTIONSELEMENTE
100
AcDbEllipse
 62
7
  6
CONTINUOUS
 10
40.7916121728
 20
117.7974665458
 30
0.0
 11
3.2187506327
 21
-1.0247880901
 31
0.0
 40
0.0330294486
 41
-2.4297450715
 42
-1.2638623942
  0
ELLIPSE
  5
60C
100
AcDbEntity
  8
0
100
AcDbEllipse
 62
7
  6
CONTINUOUS
 10
52.353600482
 20
4.2979515557
 30
0.0
 11
69.2820323028
 21
120.0
 31
0.0
 40
0.5773502692
 41
0.1549516761
 42
0.3680572752
  0
ELLIPSE
  5
60D
100
AcDbEntity
  8
0
100
AcDbEllipse
 62
7
  6
CONTINUOUS
 10
52.353600482
 20
4.2979515557
 30
0.0
 11
69.2820323028
 21
120.0
 31
0.0
 40
0.5773502692
 41
-0.3680572752
 42
-0.1549516761
  0
ELLIPSE
  5
60E
100
AcDbEntity
  8
BEZUGSACHSEN
100
AcDbEllipse
 62
7
  6
CONTINUOUS
 10
595.2172590326
 20
4.2979515557
 30
0.0
 11
-69.2820323028
 21
120.0
 31
0.0
 40
0.5773502692
 41
6.4381369832
 42
6.6512425824
  0
ELLIPSE
  5
60F
100
AcDbEntity
  8
BEZUGSACHSEN
100
AcDbEllipse
 62
7
  6
CONTINUOUS
 10
595.2172590326
 20
4.2979515557
 30
0.0
 11
-69.2820323028
 21
120.0
 31
0.0
 40
0.5773502692
 41
-0.3680572752
 42
-0.1549516761
  0
ELLIPSE
  5
610
100
AcDbEntity
  8
0
100
AcDbEllipse
 62
7
  6
CONTINUOUS
 10
1113.7580939492
 20
4.2979515557
 30
0.0
 11
-77.8599191574
 21
125.979995558
 31
0.0
 40
0.1458980338
 41
0.5712403661
 42
0.5998810797
  0
ELLIPSE
  5
611
100
AcDbEntity
  8
BEZUGSACHSEN
100
AcDbEllipse
 62
7
  6
CONTINUOUS
 10
905.1530890662
 20
4.2979515557
 30
0.0
 11
77.8599191574
 21
125.979995558
 31
0.0
 40
0.1458980338
 41
-0.5998810797
 42
-0.5712403661
  0
ELLIPSE
  5
612
100
AcDbEntity
  8
BEZUGSACHSEN
100
AcDbEllipse
 62
7
  6
CONTINUOUS
 10
1022.3759746876
 20
163.5860579899
 30
0.0
 11
20.7791358533
 21
-3.4385258642
 31
0.0
 40
0.9054404305
 41
-3.0255553018
 42
-2.8960968696
  0
ELLIPSE
  5
613
100
AcDbEntity
  8
RUNDUNGEN
100
AcDbEllipse
 62
7
  6
CONTINUOUS
 10
996.5352083278
 20
163.5860579899
 30
0.0
 11
20.7791358533
 21
3.4385258642
 31
0.0
 40
0.9054404305
 41
-0.245495784
 42
-0.1160373518
  0
ELLIPSE
  5
614
100
AcDbEntity
  8
BEZUGSACHSEN
100
AcDbEllipse
 62
7
  6
CONTINUOUS
 10
998.1944989299
 20
149.3160320527
 30
0.0
 11
1.8818413341
 21
-9.956795082
 31
0.0
 40
0.4934339055
 41
0.4306083837
 42
1.205003035
  0
ELLIPSE
  5
615
100
AcDbEntity
  8
RUNDUNGEN
100
AcDbEllipse
 62
7
  6
CONTINUOUS
 10
1020.7166840855
 20
149.3160320527
 30
0.0
 11
1.8818413341
 21
9.956795082
 31
0.0
 40
0.4934339055
 41
-4.3465956886
 42
-3.5722010373
  0
ELLIPSE
  5
616
100
AcDbEntity
  8
KONSTRUKTIONSELEMENTE
100
AcDbEllipse
 62
7
  6
CONTINUOUS
 10
829.1044021011
 20
122.4514970571
 30
0.0
 11
-0.2673541942
 21
4.5515837307
 31
0.0
 40
0.1492557162
 41
-4.5253243529
 42
-3.3594416756
  0
ELLIPSE
  5
617
100
AcDbEntity
  8
KONSTRUKTIONSELEMENTE
100
AcDbEllipse
 62
7
  6
CONTINUOUS
 10
829.9349283688
 20
115.0917109247
 30
0.0
 11
1.8786861321
 21
2.1096059202
 31
0.0
 40
0.2506297473
 41
-1.6193024691
 42
-1.174456639
  0
ELLIPSE
  5
618
100
AcDbEntity
  8
KONSTRUKTIONSELEMENTE
100
AcDbEllipse
 62
7
  6
CONTINUOUS
 10
834.4784136381
 20
117.7974665458
 30
0.0
 11
4.6090775591
 21
0.270731308
 31
0.0
 40
0.2156790275
 41
2.120121577
 42
3.2860042543
  0
ELLIPSE
  5
619
100
AcDbEntity
  8
KONSTRUKTIONSELEMENTE
100
AcDbEllipse
 62
7
  6
CONTINUOUS
 10
833.4704622748
 20
112.0298487462
 30
0.0
 11
1.8786861321
 21
2.1096059202
 31
0.0
 40
0.2506297473
 41
-1.6193024691
 42
-0.0485061423
  0
ENDSEC
  0
SECTION
  2
OBJECTS
  0
DICTIONARY
  5
C
100
AcDbDictionary
280
0
281
1
  3
ACAD_GROUP
350
D
  3
ACAD_MLINESTYLE
350
17
  3
ACAD_LAYOUT
350
1A
  3
ACAD_PLOTSETTINGS
350
19
  3
ACAD_PLOTSTYLENAME
350
E
  0
DICTIONARY
  5
D
102
{ACAD_REACTORS
330
C
102
}
100
AcDbDictionary
280
0
281
1
  0
ACDBDICTIONARYWDFLT
  5
E
102
{ACAD_REACTORS
330
C
102
}
100
AcDbDictionary
281
1
  3
Normal
350
F
100
AcDbDictionaryWithDefault
340
F
  0
DICTIONARY
  5
17
102
{ACAD_REACTORS
330
C
102
}
100
AcDbDictionary
280
0
281
1
  3
Standard
350
18
  0
DICTIONARY
  5
19
102
{ACAD_REACTORS
330
C
102
}
100
AcDbDictionary
281
1
  0
DICTIONARY
  5
1A
102
{ACAD_REACTORS
330
C
102
}
100
AcDbDictionary
281
1
  3
Model
350
61A
  3
Layout1
350
61B
  0
ACDBPLACEHOLDER
  5
F
102
{ACAD_REACTORS
330
E
102
}
  0
MLINESTYLE
  5
18
102
{ACAD_REACTORS
330
17
102
}
100
AcDbMlineStyle
  2
STANDARD
 70
0
  3

 62
256
 51
90.0
 52
90.0
 71
2
 49
0.5
 62
256
  6
BYLAYER
 49
-0.5
 62
256
  6
BYLAYER
  0
LAYOUT
  5
61A
102
{ACAD_REACTORS
330
1A
102
}
100
AcDbPlotSettings
  1

  2
none_device
  4
ISO_A0_(1189.00_x_841.00_MM)
  6

 40
0.0
 41
0.0
 42
0.0
 43
0.0
 44
1189.0
 45
841.0
 46
0.0
 47
0.0
 48
0.0
 49
0.0
140
0.0
141
0.0
142
1.0
143
1.0
 70
1024
 72
1
 73
0
 74
0
  7

 75
0
147
1.0
148
0.0
149
0.0
100
AcDbLayout
  1
Model
 70
0
 71
0
 10
0.0
 20
0.0
 11
1189.0
 21
841.0
 12
0.0
 22
0.0
 32
0.0
 14
0.0
 24
0.0
 34
0.0
 15
0.0
 25
0.0
 35
0.0
146
0.0
 13
0.0
 23
0.0
 33
0.0
 16
1.0
 26
0.0
 36
0.0
 17
0.0
 27
1.0
 37
0.0
 76
0
330
20A
345
0
346
0
  0
LAYOUT
  5
61B
102
{ACAD_REACTORS
330
1A
102
}
100
AcDbPlotSettings
  1

  2
none_device
  4
ISO_A0_(1189.00_x_841.00_MM)
  6

 40
0.0
 41
0.0
 42
0.0
 43
0.0
 44
1189.0
 45
841.0
 46
0.0
 47
0.0
 48
0.0
 49
0.0
140
0.0
141
0.0
142
1.0
143
1.0
 70
0
 72
1
 73
0
 74
0
  7

 75
0
147
1.0
148
0.0
149
0.0
100
AcDbLayout
  1
Layout1
 70
0
 71
1
 10
0.0
 20
0.0
 11
1189.0
 21
841.0
 12
0.0
 22
0.0
 32
0.0
 14
0.0
 24
0.0
 34
0.0
 15
0.0
 25
0.0
 35
0.0
146
0.0
 13
0.0
 23
0.0
 33
0.0
 16
1.0
 26
0.0
 36
0.0
 17
0.0
 27
1.0
 37
0.0
 76
0
330
20B
345
0
346
0
  0
ENDSEC
  0
EOF
