999
DXF file: VSAK-2-20_250_7994082_M32395-P-4.dxf
999
Pro/ENGINEER 2010140 by Parametric Technology Corporation
  0
SECTION
  2
HEADER
  9
$ACADVER
  1
AC1015
  9
$DWGCODEPAGE
  3
ANSI_1252
  9
$EXTMAX
 10
1189.0
 20
841.0
 30
0.0
  9
$EXTMIN
 10
0.0
 20
0.0
 30
0.0
  9
$LIMMIN
 10
0.0
 20
0.0
  9
$LIMMAX
 10
1189.0
 20
841.0
  9
$VIEWCTR
 10
594.5
 20
420.5
  9
$VIEWSIZE
 40
841.0
  9
$CLAYER
  8
0
  9
$LTSCALE
 40
65.395
  9
$CELTYPE
  6
BYLAYER
  9
$DIMSCALE
 40
1.0
  9
$DIMASZ
 40
3.5
  9
$DIMEXO
 40
7.43125
  9
$DIMDLI
 40
45.182
  9
$DIMEXE
 40
21.402
  9
$DIMCEN
 40
10.701
  9
$DIMLFAC
 40
1.0
  9
$DIMBLK
  1
_FILLED
  9
$DIMTXT
 40
3.5
  9
$DIMTOL
 70
1
  9
$DIMLIM
 70
0
  9
$DIMTFAC
 40
1.0
  9
$DIMTP
 40
0.005
  9
$DIMTM
 40
0.005
  9
$PDMODE
 70
3
  9
$PDSIZE
 40
0.3125
  9
$HANDSEED
  5
6EA
  9
$TILEMODE
 70
1
  9
$MEASUREMENT
 70
1
  9
$INSUNITS
 70
4
  0
ENDSEC
  0
SECTION
  2
CLASSES
  0
CLASS
  1
ACDBDICTIONARYWDFLT
  2
AcDbDictionaryWithDefault
  3
AutoCAD 2000
 90
0
280
0
281
0
  0
CLASS
  1
ACDBPLACEHOLDER
  2
AcDbPlaceHolder
  3
AutoCAD 2000
 90
0
280
0
281
0
  0
CLASS
  1
LAYOUT
  2
AcDbLayout
  3
AutoCAD 2000
 90
0
280
0
281
0
  0
ENDSEC
  0
SECTION
  2
TABLES
  0
TABLE
  2
VPORT
  5
8
100
AcDbSymbolTable
 70
2
  0
VPORT
  5
1F4
100
AcDbSymbolTableRecord
100
AcDbViewportTableRecord
  2
*ACTIVE
 70
0
 10
0.0
 20
0.0
 11
1.0
 21
1.0
 12
594.5
 22
420.5
 13
0.0
 23
0.0
 14
1.0
 24
1.0
 15
0.0
 25
0.0
 16
0.0
 26
0.0
 36
1.0
 17
0.0
 27
0.0
 37
0.0
 40
841.0
 41
1.4137931034
 42
50.0
 43
0.0
 44
0.0
 50
0.0
 51
0.0
 71
0
 72
100
 73
1
 74
1
 75
0
 76
0
 77
0
 78
0
  0
ENDTAB
  0
TABLE
  2
LTYPE
  5
5
100
AcDbSymbolTable
 70
6
  0
LTYPE
  5
14
100
AcDbSymbolTableRecord
100
AcDbLinetypeTableRecord
  2
BYBLOCK
 70
0
  3

 72
65
 73
0
 40
0.0
  0
LTYPE
  5
15
100
AcDbSymbolTableRecord
100
AcDbLinetypeTableRecord
  2
BYLAYER
 70
0
  3

 72
65
 73
0
 40
0.0
  0
LTYPE
  5
16
100
AcDbSymbolTableRecord
100
AcDbLinetypeTableRecord
  2
CONTINUOUS
 70
64
  3
Solid line
 72
65
 73
0
 40
0.0
  0
LTYPE
  5
1F5
100
AcDbSymbolTableRecord
100
AcDbLinetypeTableRecord
  2
CENTER
 70
64
  3
____ _ ____ _ ____ _ ____ _ ____ _ ____ _ ____
 72
65
 73
4
 40
0.6
 49
0.375
 74
0
 49
-0.075
 74
0
 49
0.075
 74
0
 49
-0.075
 74
0
  0
LTYPE
  5
1F6
100
AcDbSymbolTableRecord
100
AcDbLinetypeTableRecord
  2
HIDDEN
 70
64
  3
- - - - - - - - - - - - - - - - - - - -
 72
65
 73
2
 40
0.2
 49
0.1
 74
0
 49
-0.1
 74
0
  0
LTYPE
  5
1F7
100
AcDbSymbolTableRecord
100
AcDbLinetypeTableRecord
  2
PHANTOM
 70
64
  3
_____ _ _ _____ _ _ _____ _ _ _____
 72
65
 73
6
 40
0.8
 49
0.45
 74
0
 49
-0.05
 74
0
 49
0.1
 74
0
 49
-0.05
 74
0
 49
0.1
 74
0
 49
-0.05
 74
0
  0
LTYPE
  5
1F8
100
AcDbSymbolTableRecord
100
AcDbLinetypeTableRecord
  2
DOT
 70
64
  3
. . . . . . . . . . . . . . . . . . . .
 72
65
 73
2
 40
0.2
 49
0.1
 74
0
 49
-0.1
 74
0
  0
LTYPE
  5
1F9
100
AcDbSymbolTableRecord
100
AcDbLinetypeTableRecord
  2
DASHED
 70
64
  3
- - - - - - - - - - - - - - - - - - - -
 72
65
 73
2
 40
0.2
 49
0.1
 74
0
 49
-0.1
 74
0
  0
ENDTAB
  0
TABLE
  2
LAYER
  5
2
100
AcDbSymbolTable
 70
36
  0
LAYER
  5
10
100
AcDbSymbolTableRecord
100
AcDbLayerTableRecord
  2
0
 70
0
 62
7
  6
CONTINUOUS
370
-3
390
F
  0
LAYER
  5
1FA
100
AcDbSymbolTableRecord
100
AcDbLayerTableRecord
  2
DEFAULT_1
 70
0
 62
7
  6
CENTER
370
-3
390
F
  0
LAYER
  5
1FB
100
AcDbSymbolTableRecord
100
AcDbLayerTableRecord
  2
DEFAULT_2
 70
0
 62
8
  6
HIDDEN
370
-3
390
F
  0
LAYER
  5
1FC
100
AcDbSymbolTableRecord
100
AcDbLayerTableRecord
  2
DEFAULT_3
 70
0
 62
7
  6
PHANTOM
370
-3
390
F
  0
LAYER
  5
1FD
100
AcDbSymbolTableRecord
100
AcDbLayerTableRecord
  2
BEZUGSACHSEN
 70
0
 62
7
  6
CONTINUOUS
370
-3
390
F
  0
LAYER
  5
1FE
100
AcDbSymbolTableRecord
100
AcDbLayerTableRecord
  2
BEZUGSEBENEN
 70
0
 62
7
  6
CONTINUOUS
370
-3
390
F
  0
LAYER
  5
1FF
100
AcDbSymbolTableRecord
100
AcDbLayerTableRecord
  2
BG_STARTBEZUEGE
 70
0
 62
7
  6
CONTINUOUS
370
-3
390
F
  0
LAYER
  5
200
100
AcDbSymbolTableRecord
100
AcDbLayerTableRecord
  2
FASEN
 70
0
 62
7
  6
CONTINUOUS
370
-3
390
F
  0
LAYER
  5
201
100
AcDbSymbolTableRecord
100
AcDbLayerTableRecord
  2
HILFEN
 70
0
 62
7
  6
CONTINUOUS
370
-3
390
F
  0
LAYER
  5
202
100
AcDbSymbolTableRecord
100
AcDbLayerTableRecord
  2
KONSTRUKTIONSELEMENTE
 70
0
 62
7
  6
CONTINUOUS
370
-3
390
F
  0
LAYER
  5
203
100
AcDbSymbolTableRecord
100
AcDbLayerTableRecord
  2
NORM
 70
0
 62
7
  6
CONTINUOUS
370
-3
390
F
  0
LAYER
  5
204
100
AcDbSymbolTableRecord
100
AcDbLayerTableRecord
  2
PLATZIERUNG
 70
0
 62
7
  6
CONTINUOUS
370
-3
390
F
  0
LAYER
  5
205
100
AcDbSymbolTableRecord
100
AcDbLayerTableRecord
  2
RUNDUNGEN
 70
0
 62
7
  6
CONTINUOUS
370
-3
390
F
  0
LAYER
  5
206
100
AcDbSymbolTableRecord
100
AcDbLayerTableRecord
  2
TEIL_STARTBEZUEGE
 70
0
 62
7
  6
CONTINUOUS
370
-3
390
F
  0
LAYER
  5
207
100
AcDbSymbolTableRecord
100
AcDbLayerTableRecord
  2
T_STARTBEZUEGE
 70
0
 62
7
  6
CONTINUOUS
370
-3
390
F
  0
ENDTAB
  0
TABLE
  2
STYLE
  5
3
100
AcDbSymbolTable
 70
1
  0
STYLE
  5
11
100
AcDbSymbolTableRecord
100
AcDbTextStyleTableRecord
  2
STANDARD
 70
0
 40
0.0
 41
0.7
 50
0.0
 71
0
 42
0.2
  3
txt
  4

  0
STYLE
  5
208
100
AcDbSymbolTableRecord
100
AcDbTextStyleTableRecord
  2
TEXTSTYLE_1
 70
0
 40
0.0
 41
0.8
 50
0.0
 71
0
 42
0.2
  3
gdt
  4

  0
ENDTAB
  0
TABLE
  2
VIEW
  5
6
100
AcDbSymbolTable
 70
0
  0
ENDTAB
  0
TABLE
  2
UCS
  5
7
100
AcDbSymbolTable
 70
0
  0
ENDTAB
  0
TABLE
  2
APPID
  5
9
100
AcDbSymbolTable
 70
1
  0
APPID
  5
209
100
AcDbSymbolTableRecord
100
AcDbRegAppTableRecord
  2
ACAD
 70
0
  0
ENDTAB
  0
TABLE
  2
BLOCK_RECORD
  5
1
100
AcDbSymbolTable
 70
0
  0
BLOCK_RECORD
  5
20A
100
AcDbSymbolTableRecord
100
AcDbBlockTableRecord
  2
*Model_Space
  0
BLOCK_RECORD
  5
20B
100
AcDbSymbolTableRecord
100
AcDbBlockTableRecord
  2
*Paper_Space
  0
ENDTAB
  0
TABLE
  2
DIMSTYLE
  5
A
100
AcDbSymbolTable
 70
1
100
AcDbDimStyleTable
 71
0
  0
DIMSTYLE
105
20C
100
AcDbSymbolTableRecord
100
AcDbDimStyleTableRecord
  2
STANDARD
 70
0
  3

  4

 40
1.0
 41
3.5
 42
0.0625
 43
0.38
 44
0.18
 45
0.0
 46
0.0
 47
0.005
 48
0.005
140
3.5
141
0.09
142
0.0
143
25.4
144
1.0
145
0.0
146
1.0
147
0.09
 71
1.0
 72
0.0
 73
0
 74
0
 75
0
 76
0
 77
1
 78
8
170
0
171
2
172
0
173
0
174
0
175
0
176
0
177
0
178
5
270
2
271
3
272
3
273
2
274
2
275
0
280
0
281
0
282
0
283
1
284
8
285
0
286
0
287
3
288
0
340
11
  0
ENDTAB
  0
ENDSEC
  0
SECTION
  2
BLOCKS
  0
BLOCK
  5
20
100
AcDbEntity
  8
0
100
AcDbBlockBegin
  2
*Model_Space
 70
0
 10
0.0
 20
0.0
 30
0.0
  3
*Model_Space
  1

  0
ENDBLK
  5
21
100
AcDbEntity
  8
0
100
AcDbBlockEnd
  0
BLOCK
  5
1C
100
AcDbEntity
  8
0
100
AcDbBlockBegin
  2
*Paper_Space
 70
0
 10
0.0
 20
0.0
 30
0.0
  3
*Paper_Space
  1

  0
ENDBLK
  5
1D
100
AcDbEntity
  8
0
100
AcDbBlockEnd
  0
ENDSEC
  0
SECTION
  2
ENTITIES
  0
MTEXT
  5
20D
100
AcDbEntity
  8
0
100
AcDbMText
 62
5
  6
CONTINUOUS
  7
STANDARD
 71
1
 72
1
 10
163.0527315909
 20
537.3718911588
 30
0.0
 11
0.0
 21
1.0
 31
0.0
 44
0.9
  1
RUD
 40
12.0
 41
32.0
  0
MTEXT
  5
20E
100
AcDbEntity
  8
0
100
AcDbMText
 62
5
  6
CONTINUOUS
  7
STANDARD
 71
1
 72
1
 10
459.5861183789
 20
495.8734670831
 30
0.0
 11
0.0
 21
1.0
 31
0.0
 44
0.9
  1
VSAK 2-20/250
 40
12.0
 41
124.2857142857
  0
MTEXT
  5
20F
100
AcDbEntity
  8
0
100
AcDbMText
 62
5
  6
CONTINUOUS
  7
STANDARD
 71
1
 72
1
 10
958.7641971814
 20
479.9911265118
 30
0.0
 11
0.0
 21
1.0
 31
0.0
 44
0.9
  1
RUD VSAK 2-20/250
 40
12.0
 41
163.4285714286
  0
LINE
  5
210
100
AcDbEntity
  8
0
100
AcDbLine
 62
7
  6
CONTINUOUS
 10
0.0
 20
0.0
 11
0.0
 21
841.0
  0
LINE
  5
211
100
AcDbEntity
  8
0
100
AcDbLine
 62
7
  6
CONTINUOUS
 10
0.0
 20
0.0
 11
1189.0
 21
0.0
  0
LINE
  5
212
100
AcDbEntity
  8
0
100
AcDbLine
 62
7
  6
CONTINUOUS
 10
0.0
 20
841.0
 11
1189.0
 21
841.0
  0
LINE
  5
213
100
AcDbEntity
  8
0
100
AcDbLine
 62
7
  6
CONTINUOUS
 10
1189.0
 20
0.0
 11
1189.0
 21
841.0
  0
LINE
  5
214
100
AcDbEntity
  8
KONSTRUKTIONSELEMENTE
100
AcDbLine
 62
7
  6
CONTINUOUS
 10
44.3516058032
 20
-5.698904679
 11
60.1132681521
 21
-14.798904679
  0
LINE
  5
215
100
AcDbEntity
  8
KONSTRUKTIONSELEMENTE
100
AcDbLine
 62
7
  6
CONTINUOUS
 10
43.83913379
 20
-4.5865322433
 11
44.7051591938
 21
-5.0865322433
  0
LINE
  5
216
100
AcDbEntity
  8
KONSTRUKTIONSELEMENTE
100
AcDbLine
 62
7
  6
CONTINUOUS
 10
60.4668215427
 20
-14.1865322433
 11
61.3328469464
 21
-14.6865322433
  0
LINE
  5
217
100
AcDbEntity
  8
KONSTRUKTIONSELEMENTE
100
AcDbLine
 62
7
  6
CONTINUOUS
 10
51.5655381966
 20
22.7959927488
 11
49.3946398431
 21
24.0493614977
  0
LINE
  5
218
100
AcDbEntity
  8
KONSTRUKTIONSELEMENTE
100
AcDbLine
 62
7
  6
CONTINUOUS
 10
81.1836070061
 20
5.6959927488
 11
102.7361785468
 21
-6.7473902319
  0
LINE
  5
219
100
AcDbEntity
  8
KONSTRUKTIONSELEMENTE
100
AcDbLine
 62
7
  6
CONTINUOUS
 10
114.2076799114
 20
-5.5390321068
 11
106.3494438397
 21
1.7733471175
  0
LINE
  5
21A
100
AcDbEntity
  8
KONSTRUKTIONSELEMENTE
100
AcDbLine
 62
7
  6
CONTINUOUS
 10
115.9754468644
 20
-2.4771699284
 11
108.1172107926
 21
4.8352092959
  0
LINE
  5
21B
100
AcDbEntity
  8
KONSTRUKTIONSELEMENTE
100
AcDbLine
 62
7
  6
CONTINUOUS
 10
50.1511142538
 20
95.9921552742
 11
62.7451712342
 21
92.1271758977
  0
LINE
  5
21C
100
AcDbEntity
  8
KONSTRUKTIONSELEMENTE
100
AcDbLine
 62
7
  6
CONTINUOUS
 10
50.5046676444
 20
96.6045277099
 11
63.0987246248
 21
92.7395483334
  0
LINE
  5
21D
100
AcDbEntity
  8
KONSTRUKTIONSELEMENTE
100
AcDbLine
 62
7
  6
CONTINUOUS
 10
53.5778777279
 20
98.6932805743
 11
63.3732553794
 21
95.6871855036
  0
LINE
  5
21E
100
AcDbEntity
  8
KONSTRUKTIONSELEMENTE
100
AcDbLine
 62
7
  6
CONTINUOUS
 10
54.6385378997
 20
100.5303978813
 11
64.4339155511
 21
97.5243028107
  0
LINE
  5
21F
100
AcDbEntity
  8
KONSTRUKTIONSELEMENTE
100
AcDbLine
 62
7
  6
CONTINUOUS
 10
66.3061848632
 20
109.7562458866
 11
66.4095804239
 21
109.7180848954
  0
LINE
  5
220
100
AcDbEntity
  8
0
100
AcDbLine
 62
7
  6
CONTINUOUS
 10
132.3614041177
 20
61.1529739252
 11
124.8079137348
 21
65.5139836311
  0
LINE
  5
221
100
AcDbEntity
  8
0
100
AcDbLine
 62
7
  6
CONTINUOUS
 10
81.5572845397
 20
90.4847460395
 11
74.0037941567
 21
94.8457557454
  0
LINE
  5
222
100
AcDbEntity
  8
0
100
AcDbLine
 62
7
  6
CONTINUOUS
 10
101.9398133446
 20
98.3467966996
 11
121.4253849298
 21
87.0967966996
  0
LINE
  5
223
100
AcDbEntity
  8
KONSTRUKTIONSELEMENTE
100
AcDbLine
 62
7
  6
CONTINUOUS
 10
55.2148623963
 20
113.0858567807
 11
66.6397919662
 21
109.5796699154
  0
LINE
  5
224
100
AcDbEntity
  8
KONSTRUKTIONSELEMENTE
100
AcDbLine
 62
7
  6
CONTINUOUS
 10
66.3061848632
 20
109.7562458866
 11
52.0064008166
 21
114.1446943837
  0
LINE
  5
225
100
AcDbEntity
  8
KONSTRUKTIONSELEMENTE
100
AcDbLine
 62
7
  6
CONTINUOUS
 10
74.0338547592
 20
119.5122585957
 11
62.2733957785
 21
123.1214157949
  0
LINE
  5
226
100
AcDbEntity
  8
KONSTRUKTIONSELEMENTE
100
AcDbLine
 62
7
  6
CONTINUOUS
 10
75.8016217121
 20
122.5741207741
 11
64.0411627315
 21
126.1832779734
  0
LINE
  5
227
100
AcDbEntity
  8
0
100
AcDbLine
 62
7
  6
CONTINUOUS
 10
114.1898133446
 20
119.5644190924
 11
133.6753849298
 21
108.3144190924
  0
LINE
  5
228
100
AcDbEntity
  8
KONSTRUKTIONSELEMENTE
100
AcDbLine
 62
7
  6
CONTINUOUS
 10
169.1514894641
 20
46.2741461282
 11
177.0097255359
 21
38.9617669039
  0
LINE
  5
229
100
AcDbEntity
  8
KONSTRUKTIONSELEMENTE
100
AcDbLine
 62
7
  6
CONTINUOUS
 10
153.7081919073
 20
73.5122585957
 11
178.430515362
 21
50.5072225093
  0
LINE
  5
22A
100
AcDbEntity
  8
KONSTRUKTIONSELEMENTE
100
AcDbLine
 62
7
  6
CONTINUOUS
 10
180.198282315
 20
53.5690846877
 11
155.4759588603
 21
76.5741207741
  0
LINE
  5
22B
100
AcDbEntity
  8
BEZUGSACHSEN
100
AcDbLine
 62
7
  6
CONTINUOUS
 10
70.0350388669
 20
111.1823729588
 11
72.5493708977
 21
96.9228874238
  0
LINE
  5
22C
100
AcDbEntity
  8
BEZUGSACHSEN
100
AcDbLine
 62
7
  6
CONTINUOUS
 10
204.9880270431
 20
169.1367140185
 11
203.9671763177
 21
169.1072031102
  0
LINE
  5
22D
100
AcDbEntity
  8
BEZUGSACHSEN
100
AcDbLine
 62
7
  6
CONTINUOUS
 10
204.9446829217
 20
170.6360876501
 11
204.1790446989
 21
170.6139544637
  0
LINE
  5
22E
100
AcDbEntity
  8
BEZUGSACHSEN
100
AcDbLine
 62
7
  6
CONTINUOUS
 10
143.0087380281
 20
212.3217250593
 11
143.6297678464
 21
212.1672798497
  0
LINE
  5
22F
100
AcDbEntity
  8
BEZUGSACHSEN
100
AcDbLine
 62
7
  6
CONTINUOUS
 10
203.1943148171
 20
169.3349645964
 11
203.9671763177
 21
169.1072031102
  0
LINE
  5
230
100
AcDbEntity
  8
BEZUGSACHSEN
100
AcDbLine
 62
7
  6
CONTINUOUS
 10
203.406183157
 20
170.8417173799
 11
204.1790446989
 21
170.6139544637
  0
LINE
  5
231
100
AcDbEntity
  8
BEZUGSACHSEN
100
AcDbLine
 62
7
  6
CONTINUOUS
 10
136.6700045306
 20
217.5991627891
 11
137.3827606938
 21
217.3838224692
  0
LINE
  5
232
100
AcDbEntity
  8
BEZUGSACHSEN
100
AcDbLine
 62
7
  6
CONTINUOUS
 10
500.7277337268
 20
60.9319722742
 11
487.1214909931
 21
65.8842396294
  0
LINE
  5
233
100
AcDbEntity
  8
BEZUGSACHSEN
100
AcDbLine
 62
7
  6
CONTINUOUS
 10
142.9476577646
 20
213.3765643201
 11
143.4399725051
 21
213.1798687315
  0
LINE
  5
234
100
AcDbEntity
  8
BEZUGSACHSEN
100
AcDbLine
 62
7
  6
CONTINUOUS
 10
150.513539961
 20
221.7225856814
 11
151.1049139818
 21
221.4780304626
  0
LINE
  5
235
100
AcDbEntity
  8
BEZUGSACHSEN
100
AcDbLine
 62
7
  6
CONTINUOUS
 10
136.9283457061
 20
216.7770180497
 11
137.322683133
 21
216.5931758292
  0
LINE
  5
236
100
AcDbEntity
  8
BEZUGSACHSEN
100
AcDbLine
 62
7
  6
CONTINUOUS
 10
150.5515581711
 20
220.693064857
 11
151.009386212
 21
220.4257516285
  0
LINE
  5
237
100
AcDbEntity
  8
BEZUGSACHSEN
100
AcDbLine
 62
7
  6
CONTINUOUS
 10
165.2308940873
 20
220.9687791943
 11
165.6101132267
 21
220.7444165747
  0
LINE
  5
238
100
AcDbEntity
  8
BEZUGSACHSEN
100
AcDbLine
 62
7
  6
CONTINUOUS
 10
137.3827606938
 20
217.3838224692
 11
138.0501850044
 21
216.9557147582
  0
LINE
  5
239
100
AcDbEntity
  8
BEZUGSACHSEN
100
AcDbLine
 62
7
  6
CONTINUOUS
 10
142.2815388049
 20
212.799616683
 11
143.0087380281
 21
212.3217250593
  0
LINE
  5
23A
100
AcDbEntity
  8
BEZUGSACHSEN
100
AcDbLine
 62
7
  6
CONTINUOUS
 10
202.1517927046
 20
170.0551419545
 11
203.1943148171
 21
169.3349645964
  0
LINE
  5
23B
100
AcDbEntity
  8
BEZUGSACHSEN
100
AcDbLine
 62
7
  6
CONTINUOUS
 10
151.1049139818
 20
221.4780304626
 11
151.7534765754
 21
220.8978877257
  0
LINE
  5
23C
100
AcDbEntity
  8
BEZUGSACHSEN
100
AcDbLine
 62
7
  6
CONTINUOUS
 10
202.8813101251
 20
171.3267526699
 11
203.406183157
 21
170.8417173799
  0
LINE
  5
23D
100
AcDbEntity
  8
BEZUGSACHSEN
100
AcDbLine
 62
7
  6
CONTINUOUS
 10
142.5309723575
 20
213.777232941
 11
142.9476577646
 21
213.3765643201
  0
LINE
  5
23E
100
AcDbEntity
  8
BEZUGSACHSEN
100
AcDbLine
 62
7
  6
CONTINUOUS
 10
138.4161266489
 20
214.0952436034
 11
141.2535015744
 21
211.1351328111
  0
LINE
  5
23F
100
AcDbEntity
  8
BEZUGSACHSEN
100
AcDbLine
 62
7
  6
CONTINUOUS
 10
137.8404612915
 20
213.4280160002
 11
140.4047491598
 21
210.7121706121
  0
LINE
  5
240
100
AcDbEntity
  8
BEZUGSACHSEN
100
AcDbLine
 62
7
  6
CONTINUOUS
 10
137.322683133
 20
216.5931758292
 11
137.6716883604
 21
216.1965660448
  0
LINE
  5
241
100
AcDbEntity
  8
BEZUGSACHSEN
100
AcDbLine
 62
7
  6
CONTINUOUS
 10
138.0501850044
 20
216.9557147582
 11
138.3991902319
 21
216.5591049738
  0
LINE
  5
242
100
AcDbEntity
  8
BEZUGSACHSEN
100
AcDbLine
 62
7
  6
CONTINUOUS
 10
141.8117686606
 20
213.3620086171
 11
142.2815388049
 21
212.799616683
  0
LINE
  5
243
100
AcDbEntity
  8
BEZUGSACHSEN
100
AcDbLine
 62
7
  6
CONTINUOUS
 10
201.3572591434
 20
171.0325902565
 11
202.1517927046
 21
170.0551419545
  0
LINE
  5
244
100
AcDbEntity
  8
BEZUGSACHSEN
100
AcDbLine
 62
7
  6
CONTINUOUS
 10
151.009386212
 20
220.4257516285
 11
151.3622626395
 21
219.9678861612
  0
LINE
  5
245
100
AcDbEntity
  8
BEZUGSACHSEN
100
AcDbLine
 62
7
  6
CONTINUOUS
 10
142.1899177197
 20
214.3818751909
 11
142.5309723575
 21
213.777232941
  0
LINE
  5
246
100
AcDbEntity
  8
BEZUGSACHSEN
100
AcDbLine
 62
7
  6
CONTINUOUS
 10
141.417628218
 20
214.1283737044
 11
141.8117686606
 21
213.3620086171
  0
LINE
  5
247
100
AcDbEntity
  8
BEZUGSACHSEN
100
AcDbLine
 62
7
  6
CONTINUOUS
 10
136.6459896063
 20
208.8390528699
 11
133.0778270259
 21
215.9992355352
  0
LINE
  5
248
100
AcDbEntity
  8
BEZUGSACHSEN
100
AcDbLine
 62
7
  6
CONTINUOUS
 10
137.3734914777
 20
209.2015917989
 11
135.7792060468
 21
212.4008223969
  0
LINE
  5
249
100
AcDbEntity
  8
BEZUGSACHSEN
100
AcDbLine
 62
7
  6
CONTINUOUS
 10
135.3236959845
 20
213.3148881601
 11
134.184920616
 21
215.6000529948
  0
LINE
  5
24A
100
AcDbEntity
  8
BEZUGSACHSEN
100
AcDbLine
 62
7
  6
CONTINUOUS
 10
137.6716883604
 20
216.1965660448
 11
137.8994436043
 21
215.7395327364
  0
LINE
  5
24B
100
AcDbEntity
  8
BEZUGSACHSEN
100
AcDbLine
 62
7
  6
CONTINUOUS
 10
138.3991902319
 20
216.5591049738
 11
138.7028638194
 21
215.9497273716
  0
LINE
  5
24C
100
AcDbEntity
  8
RUNDUNGEN
100
AcDbLine
 62
7
  6
CONTINUOUS
 10
85.258825572
 20
140.2942243191
 11
85.258825572
 21
148.859653421
  0
LINE
  5
24D
100
AcDbEntity
  8
KONSTRUKTIONSELEMENTE
100
AcDbLine
 62
7
  6
CONTINUOUS
 10
52.2581377954
 20
118.6152705557
 11
51.9149743521
 21
114.9307240929
  0
LINE
  5
24E
100
AcDbEntity
  8
KONSTRUKTIONSELEMENTE
100
AcDbLine
 62
7
  6
CONTINUOUS
 10
50.1511142538
 20
95.9921552742
 11
44.2526154061
 21
32.6599633063
  0
LINE
  5
24F
100
AcDbEntity
  8
KONSTRUKTIONSELEMENTE
100
AcDbLine
 62
7
  6
CONTINUOUS
 10
50.5046676444
 20
96.6045277099
 11
50.573300333
 21
97.3414370025
  0
LINE
  5
250
100
AcDbEntity
  8
KONSTRUKTIONSELEMENTE
100
AcDbLine
 62
7
  6
CONTINUOUS
 10
67.1420166937
 20
108.4278040022
 11
65.7497486291
 21
93.4790194695
  0
LINE
  5
251
100
AcDbEntity
  8
BEZUGSACHSEN
100
AcDbLine
 62
7
  6
CONTINUOUS
 10
206.6106012597
 20
182.7214962292
 11
194.907685211
 21
180.0678655169
  0
LINE
  5
252
100
AcDbEntity
  8
BEZUGSACHSEN
100
AcDbLine
 62
7
  6
CONTINUOUS
 10
194.5759813719
 20
181.530730023
 11
206.2788974206
 21
184.1843607353
  0
LINE
  5
253
100
AcDbEntity
  8
BEZUGSACHSEN
100
AcDbLine
 62
7
  6
CONTINUOUS
 10
462.8444964405
 20
230.5294943084
 11
484.5270629662
 21
235.1382660973
  0
LINE
  5
254
100
AcDbEntity
  8
BEZUGSACHSEN
100
AcDbLine
 62
7
  6
CONTINUOUS
 10
192.6858984175
 20
187.2207431085
 11
205.2651114385
 21
188.5486730262
  0
LINE
  5
255
100
AcDbEntity
  8
BEZUGSACHSEN
100
AcDbLine
 62
7
  6
CONTINUOUS
 10
193.6662377216
 20
188.7653137015
 11
204.6439988552
 21
189.9140371384
  0
LINE
  5
256
100
AcDbEntity
  8
BEZUGSACHSEN
100
AcDbLine
 62
7
  6
CONTINUOUS
 10
195.5764308779
 20
176.6178802281
 11
200.9358941478
 21
176.772812409
  0
LINE
  5
257
100
AcDbEntity
  8
BEZUGSACHSEN
100
AcDbLine
 62
7
  6
CONTINUOUS
 10
202.4671691635
 20
176.8170787405
 11
206.2953574176
 21
176.9277445899
  0
LINE
  5
258
100
AcDbEntity
  8
BEZUGSACHSEN
100
AcDbLine
 62
7
  6
CONTINUOUS
 10
195.5330867565
 20
178.1172538597
 11
207.5280758093
 21
178.4640068311
  0
LINE
  5
259
100
AcDbEntity
  8
BEZUGSACHSEN
100
AcDbLine
 62
7
  6
CONTINUOUS
 10
149.8172127184
 20
221.776588871
 11
150.513539961
 21
221.7225856814
  0
LINE
  5
25A
100
AcDbEntity
  8
BEZUGSACHSEN
100
AcDbLine
 62
7
  6
CONTINUOUS
 10
149.9887784367
 20
220.7698263167
 11
150.5515581711
 21
220.693064857
  0
LINE
  5
25B
100
AcDbEntity
  8
BEZUGSACHSEN
100
AcDbLine
 62
7
  6
CONTINUOUS
 10
161.7004484418
 20
214.2405895598
 11
160.8953043723
 21
214.3521085056
  0
LINE
  5
25C
100
AcDbEntity
  8
BEZUGSACHSEN
100
AcDbLine
 62
7
  6
CONTINUOUS
 10
162.1908593092
 20
217.7812561122
 11
164.4720998158
 21
217.4652859074
  0
LINE
  5
25D
100
AcDbEntity
  8
BEZUGSACHSEN
100
AcDbLine
 62
7
  6
CONTINUOUS
 10
162.3309766812
 20
218.7928749922
 11
164.8806005919
 21
218.4397315219
  0
LINE
  5
25E
100
AcDbEntity
  8
BEZUGSACHSEN
100
AcDbLine
 62
7
  6
CONTINUOUS
 10
162.6812701766
 20
221.3219226646
 11
165.2308940873
 21
220.9687791943
  0
LINE
  5
25F
100
AcDbEntity
  8
BEZUGSACHSEN
100
AcDbLine
 62
7
  6
CONTINUOUS
 10
161.9928905837
 20
222.2764573438
 11
165.2134668619
 21
221.8303815604
  0
LINE
  5
260
100
AcDbEntity
  8
0
100
AcDbLine
 62
7
  6
CONTINUOUS
 10
172.770701834
 20
230.5294943084
 11
151.0881353082
 21
235.1382660973
  0
LINE
  5
261
100
AcDbEntity
  8
BEZUGSACHSEN
100
AcDbLine
 62
7
  6
CONTINUOUS
 10
165.2134668619
 20
221.8303815604
 11
165.861066334
 21
221.5688461007
  0
LINE
  5
262
100
AcDbEntity
  8
0
100
AcDbLine
 62
7
  6
CONTINUOUS
 10
215.3161114674
 20
198.0562267723
 11
200.4835147551
 21
214.5294943084
  0
LINE
  5
263
100
AcDbEntity
  8
BEZUGSACHSEN
100
AcDbLine
 62
7
  6
CONTINUOUS
 10
165.861066334
 20
221.5688461007
 11
166.3277713849
 21
220.9886905549
  0
LINE
  5
264
100
AcDbEntity
  8
BEZUGSACHSEN
100
AcDbLine
 62
7
  6
CONTINUOUS
 10
151.7534765754
 20
220.8978877257
 11
152.1349472092
 21
220.2722289694
  0
LINE
  5
265
100
AcDbEntity
  8
BEZUGSACHSEN
100
AcDbLine
 62
7
  6
CONTINUOUS
 10
165.6101132267
 20
220.7444165747
 11
165.8317877688
 21
220.3700374412
  0
LINE
  5
266
100
AcDbEntity
  8
BEZUGSACHSEN
100
AcDbLine
 62
7
  6
CONTINUOUS
 10
166.3277713849
 20
220.9886905549
 11
166.6369318383
 21
220.2585184953
  0
LINE
  5
267
100
AcDbEntity
  8
BEZUGSACHSEN
100
AcDbLine
 62
7
  6
CONTINUOUS
 10
151.3622626395
 20
219.9678861612
 11
151.610185765
 21
219.3194691347
  0
LINE
  5
268
100
AcDbEntity
  8
BEZUGSACHSEN
100
AcDbLine
 62
7
  6
CONTINUOUS
 10
152.1349472092
 20
220.2722289694
 11
152.4114647012
 21
219.4560177139
  0
LINE
  5
269
100
AcDbEntity
  8
BEZUGSACHSEN
100
AcDbLine
 62
7
  6
CONTINUOUS
 10
141.417628218
 20
214.1283737044
 11
139.7719908772
 21
219.1417898357
  0
LINE
  5
26A
100
AcDbEntity
  8
BEZUGSACHSEN
100
AcDbLine
 62
7
  6
CONTINUOUS
 10
142.1899177197
 20
214.3818751909
 11
140.5442803789
 21
219.3952913222
  0
LINE
  5
26B
100
AcDbEntity
  8
BEZUGSACHSEN
100
AcDbLine
 62
7
  6
CONTINUOUS
 10
143.6334369127
 20
220.4092967848
 11
145.2790742534
 21
215.3958806535
  0
LINE
  5
26C
100
AcDbEntity
  8
BEZUGSACHSEN
100
AcDbLine
 62
7
  6
CONTINUOUS
 10
144.4057260461
 20
220.6627981504
 11
146.0513633869
 21
215.6493820191
  0
LINE
  5
26D
100
AcDbEntity
  8
BEZUGSACHSEN
100
AcDbLine
 62
7
  6
CONTINUOUS
 10
138.0059484392
 20
215.2220767576
 11
137.8994436043
 21
215.7395327364
  0
LINE
  5
26E
100
AcDbEntity
  8
BEZUGSACHSEN
100
AcDbLine
 62
7
  6
CONTINUOUS
 10
138.8093686543
 20
215.4322713928
 11
138.7028638194
 21
215.9497273716
  0
LINE
  5
26F
100
AcDbEntity
  8
BEZUGSACHSEN
100
AcDbLine
 62
7
  6
CONTINUOUS
 10
151.1611443393
 20
213.890281256
 11
147.9560285947
 21
213.3440869394
  0
LINE
  5
270
100
AcDbEntity
  8
BEZUGSACHSEN
100
AcDbLine
 62
7
  6
CONTINUOUS
 10
148.5857417924
 20
214.4873981903
 11
150.9895786009
 21
214.8970439277
  0
LINE
  5
271
100
AcDbEntity
  8
BEZUGSACHSEN
100
AcDbLine
 62
7
  6
CONTINUOUS
 10
143.6297678464
 20
212.1672798497
 11
144.3264269517
 21
212.2168078139
  0
LINE
  5
272
100
AcDbEntity
  8
BEZUGSACHSEN
100
AcDbLine
 62
7
  6
CONTINUOUS
 10
136.4886764266
 20
216.748092879
 11
136.9283457061
 21
216.7770180497
  0
LINE
  5
273
100
AcDbEntity
  8
BEZUGSACHSEN
100
AcDbLine
 62
7
  6
CONTINUOUS
 10
143.4399725051
 20
213.1798687315
 11
144.0079165047
 21
213.1871464017
  0
LINE
  5
274
100
AcDbEntity
  8
BEZUGSACHSEN
100
AcDbLine
 62
7
  6
CONTINUOUS
 10
462.1039023199
 20
97.907065889
 11
469.5217815164
 21
93.624351338
  0
LINE
  5
275
100
AcDbEntity
  8
BEZUGSACHSEN
100
AcDbLine
 62
7
  6
CONTINUOUS
 10
192.6858984175
 20
187.2207431085
 11
191.8577483558
 21
189.0412284829
  0
LINE
  5
276
100
AcDbEntity
  8
BEZUGSACHSEN
100
AcDbLine
 62
7
  6
CONTINUOUS
 10
201.1243609818
 20
197.6511002237
 11
201.7454735651
 21
196.2857361116
  0
LINE
  5
277
100
AcDbEntity
  8
BEZUGSACHSEN
100
AcDbLine
 62
7
  6
CONTINUOUS
 10
204.6439988552
 20
189.9140371384
 11
205.2651114385
 21
188.5486730262
  0
LINE
  5
278
100
AcDbEntity
  8
BEZUGSACHSEN
100
AcDbLine
 62
7
  6
CONTINUOUS
 10
202.6044255617
 20
172.0690617638
 11
202.8813101251
 21
171.3267526699
  0
LINE
  5
279
100
AcDbEntity
  8
BEZUGSACHSEN
100
AcDbLine
 62
7
  6
CONTINUOUS
 10
147.9560285947
 20
213.3440869394
 11
146.6120969737
 21
221.2303945544
  0
LINE
  5
27A
100
AcDbEntity
  8
BEZUGSACHSEN
100
AcDbLine
 62
7
  6
CONTINUOUS
 10
148.5857417924
 20
214.4873981903
 11
147.5849416283
 21
220.3601805793
  0
LINE
  5
27B
100
AcDbEntity
  8
BEZUGSACHSEN
100
AcDbLine
 62
7
  6
CONTINUOUS
 10
151.610185765
 20
219.3194691347
 11
152.039100101
 21
216.8025625141
  0
LINE
  5
27C
100
AcDbEntity
  8
BEZUGSACHSEN
100
AcDbLine
 62
7
  6
CONTINUOUS
 10
152.4114647012
 20
219.4560177139
 11
152.8403790372
 21
216.9391110932
  0
LINE
  5
27D
100
AcDbEntity
  8
BEZUGSACHSEN
100
AcDbLine
 62
7
  6
CONTINUOUS
 10
165.323949676
 20
217.6909732549
 11
165.3316300666
 21
217.6446440461
  0
LINE
  5
27E
100
AcDbEntity
  8
BEZUGSACHSEN
100
AcDbLine
 62
7
  6
CONTINUOUS
 10
146.1880736273
 20
214.7985163155
 11
146.0513633869
 21
215.6493820191
  0
LINE
  5
27F
100
AcDbEntity
  8
BEZUGSACHSEN
100
AcDbLine
 62
7
  6
CONTINUOUS
 10
164.4720998158
 20
217.4652859074
 11
164.6345752153
 21
216.4373096281
  0
LINE
  5
280
100
AcDbEntity
  8
BEZUGSACHSEN
100
AcDbLine
 62
7
  6
CONTINUOUS
 10
145.3626994256
 20
214.7067380289
 11
145.2790742534
 21
215.3958806535
  0
LINE
  5
281
100
AcDbEntity
  8
BEZUGSACHSEN
100
AcDbLine
 62
7
  6
CONTINUOUS
 10
152.8498044893
 20
216.0773842883
 11
152.8403790372
 21
216.9391110932
  0
LINE
  5
282
100
AcDbEntity
  8
0
100
AcDbLine
 62
7
  6
CONTINUOUS
 10
147.8075991372
 20
659.7407694098
 11
147.8075991372
 21
449.7407694098
  0
LINE
  5
283
100
AcDbEntity
  8
BEZUGSACHSEN
100
AcDbLine
 62
7
  6
CONTINUOUS
 10
152.0199312667
 20
216.1086294682
 11
152.039100101
 21
216.8025625141
  0
LINE
  5
284
100
AcDbEntity
  8
BEZUGSACHSEN
100
AcDbLine
 62
7
  6
CONTINUOUS
 10
146.1429844721
 20
214.0671235112
 11
146.1880736273
 21
214.7985163155
  0
LINE
  5
285
100
AcDbEntity
  8
BEZUGSACHSEN
100
AcDbLine
 62
7
  6
CONTINUOUS
 10
138.7492910935
 20
214.6416247528
 11
138.8093686543
 21
215.4322713928
  0
LINE
  5
286
100
AcDbEntity
  8
0
100
AcDbLine
 62
7
  6
CONTINUOUS
 10
97.9039725886
 20
188.856515459
 11
88.7890520848
 21
157.0690100393
  0
LINE
  5
287
100
AcDbEntity
  8
BEZUGSACHSEN
100
AcDbLine
 62
7
  6
CONTINUOUS
 10
164.8806005919
 20
218.4397315219
 11
165.306525522
 21
218.5525751956
  0
LINE
  5
288
100
AcDbEntity
  8
BEZUGSACHSEN
100
AcDbLine
 62
7
  6
CONTINUOUS
 10
135.9878345117
 20
217.4493912512
 11
136.6700045306
 21
217.5991627891
  0
LINE
  5
289
100
AcDbEntity
  8
BEZUGSACHSEN
100
AcDbLine
 62
7
  6
CONTINUOUS
 10
147.5849416283
 20
220.3601805793
 11
149.9887784367
 21
220.7698263167
  0
LINE
  5
28A
100
AcDbEntity
  8
BEZUGSACHSEN
100
AcDbLine
 62
7
  6
CONTINUOUS
 10
146.6120969737
 20
221.2303945544
 11
149.8172127184
 21
221.776588871
  0
LINE
  5
28B
100
AcDbEntity
  8
BEZUGSACHSEN
100
AcDbLine
 62
7
  6
CONTINUOUS
 10
201.065926512
 20
172.2746915142
 11
201.3572591434
 21
171.0325902565
  0
LINE
  5
28C
100
AcDbEntity
  8
BEZUGSACHSEN
100
AcDbLine
 62
7
  6
CONTINUOUS
 10
194.907685211
 20
180.0678655169
 11
194.5759813719
 21
181.530730023
  0
LINE
  5
28D
100
AcDbEntity
  8
BEZUGSACHSEN
100
AcDbLine
 62
7
  6
CONTINUOUS
 10
206.2788974206
 20
184.1843607353
 11
206.6106012597
 21
182.7214962292
  0
LINE
  5
28E
100
AcDbEntity
  8
BEZUGSACHSEN
100
AcDbLine
 62
7
  6
CONTINUOUS
 10
165.8317877688
 20
220.3700374412
 11
165.8959207848
 21
219.8456413684
  0
LINE
  5
28F
100
AcDbEntity
  8
BEZUGSACHSEN
100
AcDbLine
 62
7
  6
CONTINUOUS
 10
166.6369318383
 20
220.2585184953
 11
166.672559504
 21
219.9672019611
  0
LINE
  5
290
100
AcDbEntity
  8
0
100
AcDbLine
 62
7
  6
CONTINUOUS
 10
219.3917142513
 20
159.2794565155
 11
215.3161114674
 21
198.0562267723
  0
LINE
  5
291
100
AcDbEntity
  8
BEZUGSACHSEN
100
AcDbLine
 62
7
  6
CONTINUOUS
 10
195.5764308779
 20
176.6178802281
 11
195.5330867565
 21
178.1172538597
  0
LINE
  5
292
100
AcDbEntity
  8
BEZUGSACHSEN
100
AcDbLine
 62
7
  6
CONTINUOUS
 10
200.9358941478
 20
176.772812409
 11
201.065926512
 21
172.2746915142
  0
LINE
  5
293
100
AcDbEntity
  8
BEZUGSACHSEN
100
AcDbLine
 62
7
  6
CONTINUOUS
 10
202.4671691635
 20
176.8170787405
 11
202.6044255617
 21
172.0690617638
  0
LINE
  5
294
100
AcDbEntity
  8
BEZUGSACHSEN
100
AcDbLine
 62
7
  6
CONTINUOUS
 10
206.2953574176
 20
176.9277445899
 11
206.4326138159
 21
172.1797276132
  0
LINE
  5
295
100
AcDbEntity
  8
BEZUGSACHSEN
100
AcDbLine
 62
7
  6
CONTINUOUS
 10
207.5280758093
 20
178.4640068311
 11
207.701452295
 21
172.4665123047
  0
LINE
  5
296
100
AcDbEntity
  8
0
100
AcDbLine
 62
7
  6
CONTINUOUS
 10
192.8075991372
 20
659.7407694098
 11
192.8075991372
 21
449.7407694098
  0
LINE
  5
297
100
AcDbEntity
  8
BEZUGSACHSEN
100
AcDbLine
 62
7
  6
CONTINUOUS
 10
160.8953043723
 20
214.3521085056
 11
161.9928905837
 21
222.2764573438
  0
LINE
  5
298
100
AcDbEntity
  8
BEZUGSACHSEN
100
AcDbLine
 62
7
  6
CONTINUOUS
 10
161.7004484418
 20
214.2405895598
 11
162.1908593092
 21
217.7812561122
  0
LINE
  5
299
100
AcDbEntity
  8
BEZUGSACHSEN
100
AcDbLine
 62
7
  6
CONTINUOUS
 10
162.3309766812
 20
218.7928749922
 11
162.6812701766
 21
221.3219226646
  0
LINE
  5
29A
100
AcDbEntity
  8
BEZUGSACHSEN
100
AcDbLine
 62
7
  6
CONTINUOUS
 10
165.8959207848
 20
219.8456413684
 11
165.8258620334
 21
219.3398314561
  0
LINE
  5
29B
100
AcDbEntity
  8
BEZUGSACHSEN
100
AcDbLine
 62
7
  6
CONTINUOUS
 10
145.2645251649
 20
214.137068417
 11
145.3626994256
 21
214.7067380289
  0
LINE
  5
29C
100
AcDbEntity
  8
BEZUGSACHSEN
100
AcDbLine
 62
7
  6
CONTINUOUS
 10
137.9152843872
 20
214.7965418026
 11
138.0059484392
 21
215.2220767576
  0
LINE
  5
29D
100
AcDbEntity
  8
BEZUGSACHSEN
100
AcDbLine
 62
7
  6
CONTINUOUS
 10
152.6970881667
 20
215.3606928548
 11
152.8498044893
 21
216.0773842883
  0
LINE
  5
29E
100
AcDbEntity
  8
RUNDUNGEN
100
AcDbLine
 62
7
  6
CONTINUOUS
 10
85.258825572
 20
148.859653421
 11
88.7890520848
 21
157.0690100393
  0
LINE
  5
29F
100
AcDbEntity
  8
BEZUGSACHSEN
100
AcDbLine
 62
7
  6
CONTINUOUS
 10
456.7595041961
 20
105.0690100393
 11
433.7881772317
 21
128.856515459
  0
LINE
  5
2A0
100
AcDbEntity
  8
BEZUGSACHSEN
100
AcDbLine
 62
7
  6
CONTINUOUS
 10
151.8386206378
 20
215.5597319112
 11
152.0199312667
 21
216.1086294682
  0
LINE
  5
2A1
100
AcDbEntity
  8
BEZUGSACHSEN
100
AcDbLine
 62
7
  6
CONTINUOUS
 10
145.8404650962
 20
213.2512301472
 11
146.1429844721
 21
214.0671235112
  0
LINE
  5
2A2
100
AcDbEntity
  8
KONSTRUKTIONSELEMENTE
100
AcDbLine
 62
7
  6
CONTINUOUS
 10
52.9268148541
 20
120.7523228694
 11
54.6945818071
 21
123.8141850479
  0
LINE
  5
2A3
100
AcDbEntity
  8
0
100
AcDbLine
 62
7
  6
CONTINUOUS
 10
115.4686657971
 20
219.2794565155
 11
97.9039725886
 21
188.856515459
  0
LINE
  5
2A4
100
AcDbEntity
  8
KONSTRUKTIONSELEMENTE
100
AcDbLine
 62
7
  6
CONTINUOUS
 10
50.7739034506
 20
97.9825526966
 11
51.8345636224
 21
99.8196700037
  0
LINE
  5
2A5
100
AcDbEntity
  8
KONSTRUKTIONSELEMENTE
100
AcDbLine
 62
7
  6
CONTINUOUS
 10
50.1511142538
 20
95.9921552742
 11
50.5046676444
 21
96.6045277099
  0
LINE
  5
2A6
100
AcDbEntity
  8
BEZUGSACHSEN
100
AcDbLine
 62
7
  6
CONTINUOUS
 10
484.5270629662
 20
235.1382660973
 11
520.1465324773
 21
219.2794565155
  0
LINE
  5
2A7
100
AcDbEntity
  8
BEZUGSACHSEN
100
AcDbLine
 62
7
  6
CONTINUOUS
 10
207.701452295
 20
172.4665123047
 11
207.4823599211
 21
171.2096556032
  0
LINE
  5
2A8
100
AcDbEntity
  8
BEZUGSACHSEN
100
AcDbLine
 62
7
  6
CONTINUOUS
 10
165.6216116454
 20
218.8526086488
 11
165.8258620334
 21
219.3398314561
  0
LINE
  5
2A9
100
AcDbEntity
  8
BEZUGSACHSEN
100
AcDbLine
 62
7
  6
CONTINUOUS
 10
152.2772798744
 20
214.5984854606
 11
152.6970881667
 21
215.3606928548
  0
LINE
  5
2AA
100
AcDbEntity
  8
RUNDUNGEN
100
AcDbLine
 62
7
  6
CONTINUOUS
 10
70.3913859145
 20
113.2033174918
 11
98.1292975545
 21
161.2467897481
  0
LINE
  5
2AB
100
AcDbEntity
  8
0
100
AcDbLine
 62
7
  6
CONTINUOUS
 10
99.1429022461
 20
128.8068935369
 11
91.7535211893
 21
116.0081101101
  0
LINE
  5
2AC
100
AcDbEntity
  8
BEZUGSACHSEN
100
AcDbLine
 62
7
  6
CONTINUOUS
 10
138.4161266489
 20
214.0952436034
 11
138.7492910935
 21
214.6416247528
  0
LINE
  5
2AD
100
AcDbEntity
  8
BEZUGSACHSEN
100
AcDbLine
 62
7
  6
CONTINUOUS
 10
144.984550772
 20
213.6868714628
 11
145.2645251649
 21
214.137068417
  0
LINE
  5
2AE
100
AcDbEntity
  8
BEZUGSACHSEN
100
AcDbLine
 62
7
  6
CONTINUOUS
 10
456.7595041961
 20
105.0690100393
 11
462.1039023199
 21
97.907065889
  0
LINE
  5
2AF
100
AcDbEntity
  8
BEZUGSACHSEN
100
AcDbLine
 62
7
  6
CONTINUOUS
 10
206.4326138159
 20
172.1797276132
 11
206.199073374
 21
171.4226630755
  0
LINE
  5
2B0
100
AcDbEntity
  8
0
100
AcDbLine
 62
7
  6
CONTINUOUS
 10
249.4511926767
 20
363.3440003973
 11
148.4511926767
 21
188.4068688328
  0
LINE
  5
2B1
100
AcDbEntity
  8
KONSTRUKTIONSELEMENTE
100
AcDbLine
 62
7
  6
CONTINUOUS
 10
52.6044757127
 20
16.5954853126
 11
42.3017177504
 21
-1.2494149362
  0
LINE
  5
2B2
100
AcDbEntity
  8
BEZUGSACHSEN
100
AcDbLine
 62
7
  6
CONTINUOUS
 10
107.0408133446
 20
107.1819878691
 11
95.4399389468
 21
87.0886839997
  0
LINE
  5
2B3
100
AcDbEntity
  8
0
100
AcDbLine
 62
7
  6
CONTINUOUS
 10
107.0408133446
 20
107.1819878691
 11
121.8148133446
 21
132.7713065001
  0
LINE
  5
2B4
100
AcDbEntity
  8
KONSTRUKTIONSELEMENTE
100
AcDbLine
 62
7
  6
CONTINUOUS
 10
117.1502151368
 20
122.5919854072
 11
120.827170399
 21
128.9606587384
  0
LINE
  5
2B5
100
AcDbEntity
  8
KONSTRUKTIONSELEMENTE
100
AcDbLine
 62
7
  6
CONTINUOUS
 10
44.3516058032
 20
-5.698904679
 11
55.6653143022
 21
13.8970132633
  0
LINE
  5
2B6
100
AcDbEntity
  8
KONSTRUKTIONSELEMENTE
100
AcDbLine
 62
7
  6
CONTINUOUS
 10
122.692777721
 20
119.3919854072
 11
126.3697329832
 21
125.7606587384
  0
LINE
  5
2B7
100
AcDbEntity
  8
KONSTRUKTIONSELEMENTE
100
AcDbLine
 62
7
  6
CONTINUOUS
 10
150.605286109
 20
167.1378681019
 11
141.7846836544
 21
151.8601364972
  0
LINE
  5
2B8
100
AcDbEntity
  8
KONSTRUKTIONSELEMENTE
100
AcDbLine
 62
7
  6
CONTINUOUS
 10
124.0887818146
 20
121.2099354248
 11
120.901510224
 21
115.6894190924
  0
LINE
  5
2B9
100
AcDbEntity
  8
KONSTRUKTIONSELEMENTE
100
AcDbLine
 62
7
  6
CONTINUOUS
 10
126.1062969791
 20
124.1043741949
 11
134.1772029478
 21
138.0835933956
  0
LINE
  5
2BA
100
AcDbEntity
  8
KONSTRUKTIONSELEMENTE
100
AcDbLine
 62
7
  6
CONTINUOUS
 10
131.6488595634
 20
120.9043741949
 11
139.719765532
 21
134.8835933956
  0
LINE
  5
2BB
100
AcDbEntity
  8
KONSTRUKTIONSELEMENTE
100
AcDbLine
 62
7
  6
CONTINUOUS
 10
156.6674639355
 20
163.6378681019
 11
147.8468614809
 21
148.3601364972
  0
LINE
  5
2BC
100
AcDbEntity
  8
KONSTRUKTIONSELEMENTE
100
AcDbLine
 62
7
  6
CONTINUOUS
 10
130.150959641
 20
117.7099354248
 11
126.9636880505
 21
112.1894190924
  0
LINE
  5
2BD
100
AcDbEntity
  8
KONSTRUKTIONSELEMENTE
100
AcDbLine
 62
7
  6
CONTINUOUS
 10
132.9515260519
 20
121.9606587384
 11
129.2745707898
 21
115.5919854072
  0
LINE
  5
2BE
100
AcDbEntity
  8
KONSTRUKTIONSELEMENTE
100
AcDbLine
 62
7
  6
CONTINUOUS
 10
60.1132681521
 20
-14.798904679
 11
71.426976651
 21
4.7970132633
  0
LINE
  5
2BF
100
AcDbEntity
  8
KONSTRUKTIONSELEMENTE
100
AcDbLine
 62
7
  6
CONTINUOUS
 10
138.4940886362
 20
118.7606587384
 11
134.817133374
 21
112.3919854072
  0
LINE
  5
2C0
100
AcDbEntity
  8
BEZUGSACHSEN
100
AcDbLine
 62
7
  6
CONTINUOUS
 10
114.9255105319
 20
75.8386839997
 11
126.5263849298
 21
95.9319878691
  0
LINE
  5
2C1
100
AcDbEntity
  8
0
100
AcDbLine
 62
7
  6
CONTINUOUS
 10
126.5263849298
 20
95.9319878691
 11
141.3003849298
 21
121.5213065001
  0
LINE
  5
2C2
100
AcDbEntity
  8
KONSTRUKTIONSELEMENTE
100
AcDbLine
 62
7
  6
CONTINUOUS
 10
64.9915833296
 20
-14.3494149362
 11
75.2446316568
 21
3.409385699
  0
LINE
  5
2C3
100
AcDbEntity
  8
BEZUGSACHSEN
100
AcDbLine
 62
7
  6
CONTINUOUS
 10
145.4317755789
 20
212.7587829556
 11
145.8404650962
 21
213.2512301472
  0
LINE
  5
2C4
100
AcDbEntity
  8
BEZUGSACHSEN
100
AcDbLine
 62
7
  6
CONTINUOUS
 10
137.6274517952
 20
214.4629280443
 11
137.9152843872
 21
214.7965418026
  0
LINE
  5
2C5
100
AcDbEntity
  8
BEZUGSACHSEN
100
AcDbLine
 62
7
  6
CONTINUOUS
 10
416.2234840232
 20
159.2794565155
 11
433.7881772317
 21
128.856515459
  0
LINE
  5
2C6
100
AcDbEntity
  8
BEZUGSACHSEN
100
AcDbLine
 62
7
  6
CONTINUOUS
 10
457.8115632068
 20
115.2467903802
 11
485.5494752117
 21
67.2033174918
  0
LINE
  5
2C7
100
AcDbEntity
  8
BEZUGSACHSEN
100
AcDbLine
 62
7
  6
CONTINUOUS
 10
486.4121401325
 20
99.9046490548
 11
493.8015211893
 21
87.105865628
  0
LINE
  5
2C8
100
AcDbEntity
  8
0
100
AcDbLine
 62
7
  6
CONTINUOUS
 10
277.1640055978
 20
347.3440003973
 11
176.1640055978
 21
172.4068688328
  0
LINE
  5
2C9
100
AcDbEntity
  8
0
100
AcDbLine
 62
7
  6
CONTINUOUS
 10
149.2030581419
 20
99.9046490548
 11
141.8136770851
 21
87.105865628
  0
LINE
  5
2CA
100
AcDbEntity
  8
RUNDUNGEN
100
AcDbLine
 62
7
  6
CONTINUOUS
 10
177.8036350676
 20
115.2467903802
 11
150.0657230627
 21
67.2033174918
  0
LINE
  5
2CB
100
AcDbEntity
  8
BEZUGSACHSEN
100
AcDbLine
 62
7
  6
CONTINUOUS
 10
151.4951697625
 20
215.1558699861
 11
151.8386206378
 21
215.5597319112
  0
LINE
  5
2CC
100
AcDbEntity
  8
0
100
AcDbLine
 62
7
  6
CONTINUOUS
 10
459.4511926767
 20
172.4068688328
 11
358.4511926767
 21
347.3440003973
  0
LINE
  5
2CD
100
AcDbEntity
  8
BEZUGSACHSEN
100
AcDbLine
 62
7
  6
CONTINUOUS
 10
494.3148133446
 20
121.5213065001
 11
520.6896877425
 21
75.8386839997
  0
LINE
  5
2CE
100
AcDbEntity
  8
KONSTRUKTIONSELEMENTE
100
AcDbLine
 62
7
  6
CONTINUOUS
 10
116.2376064449
 20
-3.4050622265
 11
114.4698394919
 21
-6.466924405
  0
LINE
  5
2CF
100
AcDbEntity
  8
0
100
AcDbLine
 62
7
  6
CONTINUOUS
 10
201.8270210428
 20
128.856515459
 11
219.3917142513
 21
159.2794565155
  0
LINE
  5
2D0
100
AcDbEntity
  8
BEZUGSACHSEN
100
AcDbLine
 62
7
  6
CONTINUOUS
 10
207.4823599211
 20
171.2096556032
 11
206.7456184667
 21
170.1879409696
  0
LINE
  5
2D1
100
AcDbEntity
  8
BEZUGSACHSEN
100
AcDbLine
 62
7
  6
CONTINUOUS
 10
165.306525522
 20
218.5525751956
 11
165.6216116454
 21
218.8526086488
  0
LINE
  5
2D2
100
AcDbEntity
  8
BEZUGSACHSEN
100
AcDbLine
 62
7
  6
CONTINUOUS
 10
151.8002830067
 20
214.1718655992
 11
152.2772798744
 21
214.5984854606
  0
LINE
  5
2D3
100
AcDbEntity
  8
BEZUGSACHSEN
100
AcDbLine
 62
7
  6
CONTINUOUS
 10
144.5227761725
 20
213.3561473927
 11
144.984550772
 21
213.6868714628
  0
LINE
  5
2D4
100
AcDbEntity
  8
BEZUGSACHSEN
100
AcDbLine
 62
7
  6
CONTINUOUS
 10
513.8003849298
 20
132.7713065001
 11
540.1752593277
 21
87.0886839997
  0
LINE
  5
2D5
100
AcDbEntity
  8
0
100
AcDbLine
 62
7
  6
CONTINUOUS
 10
487.1640055978
 20
188.4068688328
 11
386.1640055978
 21
363.3440003973
  0
LINE
  5
2D6
100
AcDbEntity
  8
BEZUGSACHSEN
100
AcDbLine
 62
7
  6
CONTINUOUS
 10
536.4722960284
 20
128.8068935369
 11
543.8616770851
 21
116.0081101101
  0
LINE
  5
2D7
100
AcDbEntity
  8
KONSTRUKTIONSELEMENTE
100
AcDbLine
 62
7
  6
CONTINUOUS
 10
182.8198781197
 20
44.2901617059
 11
181.0521111667
 21
41.2282995275
  0
LINE
  5
2D8
100
AcDbEntity
  8
RUNDUNGEN
100
AcDbLine
 62
7
  6
CONTINUOUS
 10
173.5112959545
 20
97.907065889
 11
178.8556940783
 21
105.0690100393
  0
LINE
  5
2D9
100
AcDbEntity
  8
BEZUGSACHSEN
100
AcDbLine
 62
7
  6
CONTINUOUS
 10
206.199073374
 20
171.4226630755
 11
205.7030963955
 21
170.9081168978
  0
LINE
  5
2DA
100
AcDbEntity
  8
BEZUGSACHSEN
100
AcDbLine
 62
7
  6
CONTINUOUS
 10
201.7454735651
 20
196.2857361116
 11
193.6662377216
 21
188.7653137015
  0
LINE
  5
2DB
100
AcDbEntity
  8
BEZUGSACHSEN
100
AcDbLine
 62
7
  6
CONTINUOUS
 10
191.8577483558
 20
189.0412284829
 11
201.1243609818
 21
197.6511002237
  0
LINE
  5
2DC
100
AcDbEntity
  8
BEZUGSACHSEN
100
AcDbLine
 62
7
  6
CONTINUOUS
 10
144.8412866195
 20
212.3858088049
 11
145.4317755789
 21
212.7587829556
  0
LINE
  5
2DD
100
AcDbEntity
  8
BEZUGSACHSEN
100
AcDbLine
 62
7
  6
CONTINUOUS
 10
150.9895786009
 20
214.8970439277
 11
151.4951697625
 21
215.1558699861
  0
LINE
  5
2DE
100
AcDbEntity
  8
BEZUGSACHSEN
100
AcDbLine
 62
7
  6
CONTINUOUS
 10
133.0778270259
 20
215.9992355352
 11
135.9878345117
 21
217.4493912512
  0
LINE
  5
2DF
100
AcDbEntity
  8
BEZUGSACHSEN
100
AcDbLine
 62
7
  6
CONTINUOUS
 10
134.184920616
 20
215.6000529948
 11
136.4886764266
 21
216.748092879
  0
LINE
  5
2E0
100
AcDbEntity
  8
BEZUGSACHSEN
100
AcDbLine
 62
7
  6
CONTINUOUS
 10
135.3236959845
 20
213.3148881601
 11
137.6274517952
 21
214.4629280443
  0
LINE
  5
2E1
100
AcDbEntity
  8
BEZUGSACHSEN
100
AcDbLine
 62
7
  6
CONTINUOUS
 10
135.7792060468
 20
212.4008223969
 11
137.8404612915
 21
213.4280160002
  0
LINE
  5
2E2
100
AcDbEntity
  8
BEZUGSACHSEN
100
AcDbLine
 62
7
  6
CONTINUOUS
 10
136.6459896063
 20
208.8390528699
 11
137.3734914777
 21
209.2015917989
  0
LINE
  5
2E3
100
AcDbEntity
  8
BEZUGSACHSEN
100
AcDbLine
 62
7
  6
CONTINUOUS
 10
140.4047491598
 20
210.7121706121
 11
141.2535015744
 21
211.1351328111
  0
LINE
  5
2E4
100
AcDbEntity
  8
0
100
AcDbLine
 62
7
  6
CONTINUOUS
 10
151.0881353082
 20
235.1382660973
 11
115.4686657971
 21
219.2794565155
  0
LINE
  5
2E5
100
AcDbEntity
  8
BEZUGSACHSEN
100
AcDbLine
 62
7
  6
CONTINUOUS
 10
565.2238123599
 20
113.2033174918
 11
537.4859007199
 21
161.2467897481
  0
LINE
  5
2E6
100
AcDbEntity
  8
BEZUGSACHSEN
100
AcDbLine
 62
7
  6
CONTINUOUS
 10
520.1465324773
 20
219.2794565155
 11
537.7112256858
 21
188.856515459
  0
LINE
  5
2E7
100
AcDbEntity
  8
0
100
AcDbLine
 62
7
  6
CONTINUOUS
 10
178.8556940783
 20
105.0690100393
 11
201.8270210428
 21
128.856515459
  0
LINE
  5
2E8
100
AcDbEntity
  8
BEZUGSACHSEN
100
AcDbLine
 62
7
  6
CONTINUOUS
 10
206.7456184667
 20
170.1879409696
 11
205.7464405583
 21
169.4087418363
  0
LINE
  5
2E9
100
AcDbEntity
  8
BEZUGSACHSEN
100
AcDbLine
 62
7
  6
CONTINUOUS
 10
165.323949676
 20
217.6909732549
 11
165.370481274
 21
217.7119363113
  0
LINE
  5
2EA
100
AcDbEntity
  8
BEZUGSACHSEN
100
AcDbLine
 62
7
  6
CONTINUOUS
 10
151.8002830067
 20
214.1718655992
 11
151.1611443393
 21
213.890281256
  0
LINE
  5
2EB
100
AcDbEntity
  8
BEZUGSACHSEN
100
AcDbLine
 62
7
  6
CONTINUOUS
 10
139.7719908772
 20
219.1417898357
 11
140.5442803789
 21
219.3952913222
  0
LINE
  5
2EC
100
AcDbEntity
  8
BEZUGSACHSEN
100
AcDbLine
 62
7
  6
CONTINUOUS
 10
143.6334369127
 20
220.4092967848
 11
144.4057260461
 21
220.6627981504
  0
LINE
  5
2ED
100
AcDbEntity
  8
BEZUGSACHSEN
100
AcDbLine
 62
7
  6
CONTINUOUS
 10
144.0079165047
 20
213.1871464017
 11
144.5227761725
 21
213.3561473927
  0
LINE
  5
2EE
100
AcDbEntity
  8
BEZUGSACHSEN
100
AcDbLine
 62
7
  6
CONTINUOUS
 10
144.8412866195
 20
212.3858088049
 11
144.3264269517
 21
212.2168078139
  0
LINE
  5
2EF
100
AcDbEntity
  8
BEZUGSACHSEN
100
AcDbLine
 62
7
  6
CONTINUOUS
 10
550.3563727025
 20
148.859653421
 11
546.8261461897
 21
157.0690100393
  0
LINE
  5
2F0
100
AcDbEntity
  8
0
100
AcDbLine
 62
7
  6
CONTINUOUS
 10
442.8075991372
 20
449.7407694098
 11
442.8075991372
 21
659.7407694098
  0
LINE
  5
2F1
100
AcDbEntity
  8
BEZUGSACHSEN
100
AcDbLine
 62
7
  6
CONTINUOUS
 10
416.2234840232
 20
159.2794565155
 11
420.2990868071
 21
198.0562267723
  0
LINE
  5
2F2
100
AcDbEntity
  8
BEZUGSACHSEN
100
AcDbLine
 62
7
  6
CONTINUOUS
 10
537.7112256858
 20
188.856515459
 11
546.8261461897
 21
157.0690100393
  0
LINE
  5
2F3
100
AcDbEntity
  8
0
100
AcDbLine
 62
7
  6
CONTINUOUS
 10
487.8075991372
 20
449.7407694098
 11
487.8075991372
 21
659.7407694098
  0
LINE
  5
2F4
100
AcDbEntity
  8
RUNDUNGEN
100
AcDbLine
 62
7
  6
CONTINUOUS
 10
173.5112959545
 20
97.907065889
 11
166.093416758
 21
93.624351338
  0
LINE
  5
2F5
100
AcDbEntity
  8
BEZUGSACHSEN
100
AcDbLine
 62
7
  6
CONTINUOUS
 10
205.7030963955
 20
170.9081168978
 11
204.9446829217
 21
170.6360876501
  0
LINE
  5
2F6
100
AcDbEntity
  8
BEZUGSACHSEN
100
AcDbLine
 62
7
  6
CONTINUOUS
 10
205.7464405583
 20
169.4087418363
 11
204.9880270431
 21
169.1367140185
  0
LINE
  5
2F7
100
AcDbEntity
  8
BEZUGSACHSEN
100
AcDbLine
 62
7
  6
CONTINUOUS
 10
420.2990868071
 20
198.0562267723
 11
435.1316835194
 21
214.5294943084
  0
LINE
  5
2F8
100
AcDbEntity
  8
KONSTRUKTIONSELEMENTE
100
AcDbLine
 62
7
  6
CONTINUOUS
 10
105.2442510984
 20
12.6998875759
 11
155.9689802566
 21
48.6428406231
  0
LINE
  5
2F9
100
AcDbEntity
  8
KONSTRUKTIONSELEMENTE
100
AcDbLine
 62
7
  6
CONTINUOUS
 10
113.4155634271
 20
-7.2712833516
 11
114.3181991856
 21
-6.6316861527
  0
LINE
  5
2FA
100
AcDbEntity
  8
KONSTRUKTIONSELEMENTE
100
AcDbLine
 62
7
  6
CONTINUOUS
 10
178.3279764566
 20
38.7248974545
 11
179.5357081032
 21
39.5806820508
  0
LINE
  5
2FB
100
AcDbEntity
  8
BEZUGSACHSEN
100
AcDbLine
 62
7
  6
CONTINUOUS
 10
550.3563727025
 20
140.2942243191
 11
550.3563727025
 21
148.859653421
  0
LINE
  5
2FC
100
AcDbEntity
  8
BEZUGSACHSEN
100
AcDbLine
 62
7
  6
CONTINUOUS
 10
134.8874645477
 20
60.9319722742
 11
148.4937072813
 21
65.8842396294
  0
LINE
  5
2FD
100
AcDbEntity
  8
BEZUGSACHSEN
100
AcDbLine
 62
7
  6
CONTINUOUS
 10
565.5801594076
 20
111.1823729588
 11
563.0658273767
 21
96.9228874238
  0
LINE
  5
2FE
100
AcDbEntity
  8
0
100
AcDbLine
 62
7
  6
CONTINUOUS
 10
521.4253849298
 20
119.5644190924
 11
501.9398133446
 21
108.3144190924
  0
LINE
  5
2FF
100
AcDbEntity
  8
0
100
AcDbLine
 62
7
  6
CONTINUOUS
 10
533.6753849298
 20
98.3467966996
 11
514.1898133446
 21
87.0967966996
  0
LINE
  5
300
100
AcDbEntity
  8
0
100
AcDbLine
 62
7
  6
CONTINUOUS
 10
503.2537941567
 20
61.1529739252
 11
510.8072845397
 21
65.5139836311
  0
LINE
  5
301
100
AcDbEntity
  8
0
100
AcDbLine
 62
7
  6
CONTINUOUS
 10
554.0579137348
 20
90.4847460395
 11
561.6114041177
 21
94.8457557454
  0
LINE
  5
302
100
AcDbEntity
  8
KONSTRUKTIONSELEMENTE
100
AcDbLine
 62
7
  6
CONTINUOUS
 10
692.5176100601
 20
-13.2800844672
 11
694.6389304036
 21
-15.1172017743
  0
LINE
  5
303
100
AcDbEntity
  8
KONSTRUKTIONSELEMENTE
100
AcDbLine
 62
7
  6
CONTINUOUS
 10
695.1886778534
 20
-14.798904679
 11
694.4815710722
 21
-14.1865322433
  0
LINE
  5
304
100
AcDbEntity
  8
KONSTRUKTIONSELEMENTE
100
AcDbLine
 62
7
  6
CONTINUOUS
 10
691.6531439474
 20
-11.7370425005
 11
692.3602507286
 21
-12.3494149362
  0
LINE
  5
305
100
AcDbEntity
  8
KONSTRUKTIONSELEMENTE
100
AcDbLine
 62
7
  6
CONTINUOUS
 10
695.1886778534
 20
-5.698904679
 11
694.4815710722
 21
-5.0865322433
  0
LINE
  5
306
100
AcDbEntity
  8
KONSTRUKTIONSELEMENTE
100
AcDbLine
 62
7
  6
CONTINUOUS
 10
691.6531439474
 20
-2.6370425005
 11
692.3602507286
 21
-3.2494149362
  0
LINE
  5
307
100
AcDbEntity
  8
KONSTRUKTIONSELEMENTE
100
AcDbLine
 62
7
  6
CONTINUOUS
 10
720.4619462997
 20
-5.1210931567
 11
723.9974802056
 21
-8.1829553352
  0
LINE
  5
308
100
AcDbEntity
  8
KONSTRUKTIONSELEMENTE
100
AcDbLine
 62
7
  6
CONTINUOUS
 10
723.4729491008
 20
24.0493614977
 11
722.7658423196
 21
24.6617339334
  0
LINE
  5
309
100
AcDbEntity
  8
KONSTRUKTIONSELEMENTE
100
AcDbLine
 62
7
  6
CONTINUOUS
 10
720.6445219761
 20
26.4988512405
 11
719.9374151949
 21
27.1112236762
  0
LWPOLYLINE
  5
30A
100
AcDbEntity
  8
BEZUGSACHSEN
100
AcDbPolyline
 62
7
  6
CONTINUOUS
 90
15
 70
0
 10
965.3034682671
 20
60.7510507194
 10
966.7140130286
 20
60.7671592695
 10
968.467439653
 20
60.8323087396
 10
970.2339751929
 20
60.949284387
 10
972.0083745602
 20
61.1201156061
 10
973.7824985151
 20
61.346590384
 10
975.547916651
 20
61.6303276433
 10
977.2959448938
 20
61.972798335
 10
979.0179813068
 20
62.3754324783
 10
980.7033963314
 20
62.839091086
 10
982.3494991355
 20
63.3671311804
 10
983.9429845106
 20
63.9601776182
 10
985.4986305028
 20
64.6314114626
 10
987.0260746525
 20
65.3992889504
 10
988.336594836
 20
66.1668403312
  0
LWPOLYLINE
  5
30B
100
AcDbEntity
  8
RUNDUNGEN
100
AcDbPolyline
 62
7
  6
CONTINUOUS
 90
15
 70
0
 10
965.3034682662
 20
60.7510507197
 10
966.7086938674
 20
60.7670379329
 10
968.4607845171
 20
60.8319661876
 10
970.2304883634
 20
60.9490019182
 10
972.0105651089
 20
61.1203603641
 10
973.7914837
 20
61.3478839519
 10
975.5634811122
 20
61.6330997379
 10
977.3167026027
 20
61.9772536698
 10
979.0415699402
 20
62.3814283528
 10
980.7264006548
 20
62.8459350073
 10
982.369096645
 20
63.3739090822
 10
983.9555356195
 20
63.9652053961
 10
985.5043866443
 20
64.6340876038
 10
987.0280966614
 20
65.400388823
 10
988.3365981687
 20
66.1668424366
  0
LINE
  5
30C
100
AcDbEntity
  8
RUNDUNGEN
100
AcDbLine
 62
7
  6
CONTINUOUS
 10
963.89587928
 20
60.7671255143
 11
965.3034682671
 21
60.7510507197
  0
LINE
  5
30D
100
AcDbEntity
  8
KONSTRUKTIONSELEMENTE
100
AcDbLine
 62
7
  6
CONTINUOUS
 10
796.6773247959
 20
41.6955924346
 11
800.2128587018
 21
38.6337302561
  0
LINE
  5
30E
100
AcDbEntity
  8
KONSTRUKTIONSELEMENTE
100
AcDbLine
 62
7
  6
CONTINUOUS
 10
786.1554733359
 20
95.9921552742
 11
785.4483665547
 21
96.6045277099
  0
LINE
  5
30F
100
AcDbEntity
  8
KONSTRUKTIONSELEMENTE
100
AcDbLine
 62
7
  6
CONTINUOUS
 10
782.61993943
 20
99.0540174527
 11
783.3270462112
 21
98.441645017
  0
LINE
  5
310
100
AcDbEntity
  8
KONSTRUKTIONSELEMENTE
100
AcDbLine
 62
7
  6
CONTINUOUS
 10
788.7403501155
 20
98.7503395346
 11
786.6190297719
 21
100.5874568417
  0
LINE
  5
311
100
AcDbEntity
  8
KONSTRUKTIONSELEMENTE
100
AcDbLine
 62
7
  6
CONTINUOUS
 10
789.1053315009
 20
92.1271758977
 11
789.1599722183
 21
92.0697363179
  0
LINE
  5
312
100
AcDbEntity
  8
BEZUGSACHSEN
100
AcDbLine
 62
7
  6
CONTINUOUS
 10
970.3034682666
 20
148.859653421
 11
960.3034682666
 21
148.859653421
  0
LINE
  5
313
100
AcDbEntity
  8
BEZUGSACHSEN
100
AcDbLine
 62
7
  6
CONTINUOUS
 10
959.4864899459
 20
157.0690100393
 11
971.1204465874
 21
157.0690100393
  0
LWPOLYLINE
  5
314
100
AcDbEntity
  8
BEZUGSACHSEN
100
AcDbPolyline
 62
7
  6
CONTINUOUS
 90
15
 70
0
 10
942.2703416972
 20
66.1668403312
 10
943.5808618807
 20
65.3992889504
 10
945.1083060304
 20
64.6314114626
 10
946.6639520227
 20
63.9601776182
 10
948.2574373977
 20
63.3671311804
 10
949.9035402018
 20
62.839091086
 10
951.5889552265
 20
62.3754324783
 10
953.3109916394
 20
61.972798335
 10
955.0590198822
 20
61.6303276433
 10
956.8244380181
 20
61.346590384
 10
958.5985619731
 20
61.1201156061
 10
960.3729613403
 20
60.949284387
 10
962.1394968802
 20
60.8323087396
 10
963.8929235047
 20
60.7671592695
 10
965.3034682662
 20
60.7510507194
  0
LWPOLYLINE
  5
315
100
AcDbEntity
  8
RUNDUNGEN
100
AcDbPolyline
 62
7
  6
CONTINUOUS
 90
14
 70
0
 10
942.2703383646
 20
66.1668424366
 10
943.5788398718
 20
65.400388823
 10
945.1025498889
 20
64.6340876038
 10
946.6514009138
 20
63.9652053961
 10
948.2378398883
 20
63.3739090822
 10
949.8805358784
 20
62.8459350073
 10
951.5653665931
 20
62.3814283528
 10
953.2902339306
 20
61.9772536698
 10
955.0434554211
 20
61.6330997379
 10
956.8154528333
 20
61.3478839519
 10
958.5963714244
 20
61.1203603641
 10
960.3764481699
 20
60.9490019182
 10
962.1461520162
 20
60.8319661876
 10
963.89587928
 20
60.7671255143
  0
LINE
  5
316
100
AcDbEntity
  8
KONSTRUKTIONSELEMENTE
100
AcDbLine
 62
7
  6
CONTINUOUS
 10
815.5327944825
 20
123.3116123296
 11
811.9972605766
 21
126.373474508
  0
LINE
  5
317
100
AcDbEntity
  8
KONSTRUKTIONSELEMENTE
100
AcDbLine
 62
7
  6
CONTINUOUS
 10
791.0882187676
 20
95.6871855036
 11
791.142859485
 21
95.6297459238
  0
LINE
  5
318
100
AcDbEntity
  8
KONSTRUKTIONSELEMENTE
100
AcDbLine
 62
7
  6
CONTINUOUS
 10
788.7392439218
 20
98.7507201541
 11
788.7938846392
 21
98.6932805743
  0
LINE
  5
319
100
AcDbEntity
  8
KONSTRUKTIONSELEMENTE
100
AcDbLine
 62
7
  6
CONTINUOUS
 10
786.1554733359
 20
95.9921552742
 11
789.1053315009
 21
92.1271758977
  0
LINE
  5
31A
100
AcDbEntity
  8
KONSTRUKTIONSELEMENTE
100
AcDbLine
 62
7
  6
CONTINUOUS
 10
788.7938846392
 20
98.6932805743
 11
791.0882187676
 21
95.6871855036
  0
LINE
  5
31B
100
AcDbEntity
  8
BEZUGSACHSEN
100
AcDbLine
 62
7
  6
CONTINUOUS
 10
959.4864899459
 20
188.856515459
 11
971.1204465874
 21
188.856515459
  0
LINE
  5
31C
100
AcDbEntity
  8
KONSTRUKTIONSELEMENTE
100
AcDbLine
 62
7
  6
CONTINUOUS
 10
815.7112428951
 20
123.1214157949
 11
815.5322491634
 21
123.312412507
  0
LINE
  5
31D
100
AcDbEntity
  8
KONSTRUKTIONSELEMENTE
100
AcDbLine
 62
7
  6
CONTINUOUS
 10
802.6867434034
 20
110.1195446085
 11
799.9553932506
 21
113.6982292164
  0
LINE
  5
31E
100
AcDbEntity
  8
KONSTRUKTIONSELEMENTE
100
AcDbLine
 62
7
  6
CONTINUOUS
 10
800.6625000318
 20
113.0858567807
 11
803.3938501846
 21
109.5071721728
  0
LINE
  5
31F
100
AcDbEntity
  8
KONSTRUKTIONSELEMENTE
100
AcDbLine
 62
7
  6
CONTINUOUS
 10
806.1530607709
 20
109.7562458866
 11
802.8036766293
 21
114.1446943837
  0
LINE
  5
320
100
AcDbEntity
  8
KONSTRUKTIONSELEMENTE
100
AcDbLine
 62
7
  6
CONTINUOUS
 10
827.2595459859
 20
107.9905346533
 11
815.7112428951
 21
123.1214157949
  0
LINE
  5
321
100
AcDbEntity
  8
BEZUGSACHSEN
100
AcDbLine
 62
7
  6
CONTINUOUS
 10
951.3034682666
 20
203.1736819471
 11
951.2330708821
 21
203.1736819471
  0
LINE
  5
322
100
AcDbEntity
  8
BEZUGSACHSEN
100
AcDbLine
 62
7
  6
CONTINUOUS
 10
979.3034682666
 20
203.1736819471
 11
979.3738656512
 21
203.1736819471
  0
LINE
  5
323
100
AcDbEntity
  8
BEZUGSACHSEN
100
AcDbLine
 62
7
  6
CONTINUOUS
 10
979.3034682666
 20
203.2458277848
 11
979.5762579585
 21
203.2458277848
  0
LINE
  5
324
100
AcDbEntity
  8
BEZUGSACHSEN
100
AcDbLine
 62
7
  6
CONTINUOUS
 10
979.3034682666
 20
203.6618523773
 11
979.6408613047
 21
203.6618523773
  0
LINE
  5
325
100
AcDbEntity
  8
BEZUGSACHSEN
100
AcDbLine
 62
7
  6
CONTINUOUS
 10
979.3034682666
 20
204.3312992515
 11
979.5786933351
 21
204.3312992515
  0
LINE
  5
326
100
AcDbEntity
  8
BEZUGSACHSEN
100
AcDbLine
 62
7
  6
CONTINUOUS
 10
979.3034682666
 20
205.1637077935
 11
979.378506924
 21
205.1637077935
  0
LINE
  5
327
100
AcDbEntity
  8
BEZUGSACHSEN
100
AcDbLine
 62
7
  6
CONTINUOUS
 10
951.3034682666
 20
205.9591402253
 11
950.9867453128
 21
205.9591402253
  0
LINE
  5
328
100
AcDbEntity
  8
BEZUGSACHSEN
100
AcDbLine
 62
7
  6
CONTINUOUS
 10
979.3034682666
 20
205.9591402253
 11
979.6201912204
 21
205.9591402253
  0
LINE
  5
329
100
AcDbEntity
  8
BEZUGSACHSEN
100
AcDbLine
 62
7
  6
CONTINUOUS
 10
979.3034682666
 20
208.6692805722
 11
979.622444657
 21
208.6692805722
  0
LINE
  5
32A
100
AcDbEntity
  8
BEZUGSACHSEN
100
AcDbLine
 62
7
  6
CONTINUOUS
 10
978.744313516
 20
208.8390528699
 11
979.4637213838
 21
208.8390528699
  0
LINE
  5
32B
100
AcDbEntity
  8
BEZUGSACHSEN
100
AcDbLine
 62
7
  6
CONTINUOUS
 10
951.2248256941
 20
209.2015917989
 11
951.1218213081
 21
209.2015917989
  0
LINE
  5
32C
100
AcDbEntity
  8
BEZUGSACHSEN
100
AcDbLine
 62
7
  6
CONTINUOUS
 10
951.3034682666
 20
210.7121706121
 11
951.098199496
 21
210.7121706121
  0
LINE
  5
32D
100
AcDbEntity
  8
BEZUGSACHSEN
100
AcDbLine
 62
7
  6
CONTINUOUS
 10
978.8383248965
 20
210.7121706121
 11
979.5087370372
 21
210.7121706121
  0
LINE
  5
32E
100
AcDbEntity
  8
BEZUGSACHSEN
100
AcDbLine
 62
7
  6
CONTINUOUS
 10
951.3132659099
 20
211.1351328111
 11
951.1105632403
 21
211.1351328111
  0
LINE
  5
32F
100
AcDbEntity
  8
BEZUGSACHSEN
100
AcDbLine
 62
7
  6
CONTINUOUS
 10
951.3896966283
 20
212.1672798497
 11
951.1343852354
 21
212.1672798497
  0
LINE
  5
330
100
AcDbEntity
  8
BEZUGSACHSEN
100
AcDbLine
 62
7
  6
CONTINUOUS
 10
978.9791276362
 20
212.1672798497
 11
979.4725512978
 21
212.1672798497
  0
LINE
  5
331
100
AcDbEntity
  8
BEZUGSACHSEN
100
AcDbLine
 62
7
  6
CONTINUOUS
 10
951.3956317064
 20
212.2168078139
 11
951.0619451389
 21
212.2168078139
  0
LINE
  5
332
100
AcDbEntity
  8
BEZUGSACHSEN
100
AcDbLine
 62
7
  6
CONTINUOUS
 10
978.901581445
 20
212.3217250593
 11
979.3328826525
 21
212.3217250593
  0
LINE
  5
333
100
AcDbEntity
  8
BEZUGSACHSEN
100
AcDbLine
 62
7
  6
CONTINUOUS
 10
951.4158835802
 20
212.3858088049
 11
951.0589471257
 21
212.3858088049
  0
LINE
  5
334
100
AcDbEntity
  8
BEZUGSACHSEN
100
AcDbLine
 62
7
  6
CONTINUOUS
 10
951.4212476655
 20
212.4305718589
 11
951.0349760388
 21
212.4305718589
  0
LINE
  5
335
100
AcDbEntity
  8
BEZUGSACHSEN
100
AcDbLine
 62
7
  6
CONTINUOUS
 10
979.5479894076
 20
212.4305718589
 11
979.5719604945
 21
212.4305718589
  0
LINE
  5
336
100
AcDbEntity
  8
BEZUGSACHSEN
100
AcDbLine
 62
7
  6
CONTINUOUS
 10
979.5479894076
 20
212.4594979377
 11
979.6379052508
 21
212.4594979377
  0
LINE
  5
337
100
AcDbEntity
  8
BEZUGSACHSEN
100
AcDbLine
 62
7
  6
CONTINUOUS
 10
951.4419458125
 20
212.6032969804
 11
951.1715197478
 21
212.6032969804
  0
LINE
  5
338
100
AcDbEntity
  8
BEZUGSACHSEN
100
AcDbLine
 62
7
  6
CONTINUOUS
 10
978.6613589291
 20
212.799616683
 11
979.0602796821
 21
212.799616683
  0
LINE
  5
339
100
AcDbEntity
  8
BEZUGSACHSEN
100
AcDbLine
 62
7
  6
CONTINUOUS
 10
979.4833008752
 20
212.8053611963
 11
979.6373144137
 21
212.8053611963
  0
LINE
  5
33A
100
AcDbEntity
  8
BEZUGSACHSEN
100
AcDbLine
 62
7
  6
CONTINUOUS
 10
951.5254866031
 20
213.1024627328
 11
951.4426529133
 21
213.1024627328
  0
LINE
  5
33B
100
AcDbEntity
  8
BEZUGSACHSEN
100
AcDbLine
 62
7
  6
CONTINUOUS
 10
979.3743794898
 20
213.1607279202
 11
979.5706526478
 21
213.1607279202
  0
LINE
  5
33C
100
AcDbEntity
  8
BEZUGSACHSEN
100
AcDbLine
 62
7
  6
CONTINUOUS
 10
951.1005031487
 20
213.3440869394
 11
951.0739849432
 21
213.3440869394
  0
LINE
  5
33D
100
AcDbEntity
  8
BEZUGSACHSEN
100
AcDbLine
 62
7
  6
CONTINUOUS
 10
979.3193638377
 20
213.3440869394
 11
979.5329515901
 21
213.3440869394
  0
LINE
  5
33E
100
AcDbEntity
  8
BEZUGSACHSEN
100
AcDbLine
 62
7
  6
CONTINUOUS
 10
978.9460925785
 20
213.3561473927
 11
979.1565869618
 21
213.3561473927
  0
LINE
  5
33F
100
AcDbEntity
  8
BEZUGSACHSEN
100
AcDbLine
 62
7
  6
CONTINUOUS
 10
978.3782068737
 20
213.3620086171
 11
978.7927537714
 21
213.3620086171
  0
LINE
  5
340
100
AcDbEntity
  8
BEZUGSACHSEN
100
AcDbLine
 62
7
  6
CONTINUOUS
 10
951.1734505991
 20
213.6458219904
 11
951.0029370233
 21
213.6458219904
  0
LINE
  5
341
100
AcDbEntity
  8
BEZUGSACHSEN
100
AcDbLine
 62
7
  6
CONTINUOUS
 10
979.5703250002
 20
213.6458219904
 11
979.6039995099
 21
213.6458219904
  0
LINE
  5
342
100
AcDbEntity
  8
BEZUGSACHSEN
100
AcDbLine
 62
7
  6
CONTINUOUS
 10
978.7908220414
 20
213.6868714628
 11
979.0916059782
 21
213.6868714628
  0
LINE
  5
343
100
AcDbEntity
  8
BEZUGSACHSEN
100
AcDbLine
 62
7
  6
CONTINUOUS
 10
979.5797594263
 20
213.7759271436
 11
979.6186002417
 21
213.7759271436
  0
LINE
  5
344
100
AcDbEntity
  8
BEZUGSACHSEN
100
AcDbLine
 62
7
  6
CONTINUOUS
 10
951.6140949127
 20
213.7846857989
 11
951.3551239618
 21
213.7846857989
  0
LINE
  5
345
100
AcDbEntity
  8
BEZUGSACHSEN
100
AcDbLine
 62
7
  6
CONTINUOUS
 10
951.7548557754
 20
214.1016229644
 11
951.4250559496
 21
214.1016229644
  0
LINE
  5
346
100
AcDbEntity
  8
BEZUGSACHSEN
100
AcDbLine
 62
7
  6
CONTINUOUS
 10
978.0081352731
 20
214.1283737044
 11
978.4632785999
 21
214.1283737044
  0
LINE
  5
347
100
AcDbEntity
  8
BEZUGSACHSEN
100
AcDbLine
 62
7
  6
CONTINUOUS
 10
978.5886796336
 20
214.137068417
 11
978.9594737807
 21
214.137068417
  0
LINE
  5
348
100
AcDbEntity
  8
BEZUGSACHSEN
100
AcDbLine
 62
7
  6
CONTINUOUS
 10
951.1294978715
 20
214.1718655992
 11
951.0927951422
 21
214.1718655992
  0
LINE
  5
349
100
AcDbEntity
  8
BEZUGSACHSEN
100
AcDbLine
 62
7
  6
CONTINUOUS
 10
951.1548453366
 20
214.2405895598
 11
950.9993475523
 21
214.2405895598
  0
LINE
  5
34A
100
AcDbEntity
  8
BEZUGSACHSEN
100
AcDbLine
 62
7
  6
CONTINUOUS
 10
979.4925032259
 20
214.2405895598
 11
979.607588981
 21
214.2405895598
  0
LINE
  5
34B
100
AcDbEntity
  8
BEZUGSACHSEN
100
AcDbLine
 62
7
  6
CONTINUOUS
 10
979.4572404616
 20
214.3521085056
 11
979.5901006016
 21
214.3521085056
  0
LINE
  5
34C
100
AcDbEntity
  8
BEZUGSACHSEN
100
AcDbLine
 62
7
  6
CONTINUOUS
 10
977.2320210147
 20
214.4629280443
 11
977.748593519
 21
214.4629280443
  0
LINE
  5
34D
100
AcDbEntity
  8
BEZUGSACHSEN
100
AcDbLine
 62
7
  6
CONTINUOUS
 10
951.8998042871
 20
214.5433523277
 11
951.5608332738
 21
214.5433523277
  0
LINE
  5
34E
100
AcDbEntity
  8
BEZUGSACHSEN
100
AcDbLine
 62
7
  6
CONTINUOUS
 10
978.3508540829
 20
214.7067380289
 11
978.7617080298
 21
214.7067380289
  0
LINE
  5
34F
100
AcDbEntity
  8
BEZUGSACHSEN
100
AcDbLine
 62
7
  6
CONTINUOUS
 10
977.0891263102
 20
214.7965418026
 11
977.6821497153
 21
214.7965418026
  0
LINE
  5
350
100
AcDbEntity
  8
BEZUGSACHSEN
100
AcDbLine
 62
7
  6
CONTINUOUS
 10
979.0038525975
 20
214.8970439277
 11
979.1896846763
 21
214.8970439277
  0
LINE
  5
351
100
AcDbEntity
  8
BEZUGSACHSEN
100
AcDbLine
 62
7
  6
CONTINUOUS
 10
952.1005031487
 20
215.1098736601
 11
951.7609184177
 21
215.1098736601
  0
LINE
  5
352
100
AcDbEntity
  8
BEZUGSACHSEN
100
AcDbLine
 62
7
  6
CONTINUOUS
 10
978.9032247191
 20
215.1558699861
 11
979.1229474366
 21
215.1558699861
  0
LINE
  5
353
100
AcDbEntity
  8
BEZUGSACHSEN
100
AcDbLine
 62
7
  6
CONTINUOUS
 10
976.9068565778
 20
215.2220767576
 11
977.5499946012
 21
215.2220767576
  0
LINE
  5
354
100
AcDbEntity
  8
BEZUGSACHSEN
100
AcDbLine
 62
7
  6
CONTINUOUS
 10
978.0727767297
 20
215.3958806535
 11
978.4992958423
 21
215.3958806535
  0
LINE
  5
355
100
AcDbEntity
  8
BEZUGSACHSEN
100
AcDbLine
 62
7
  6
CONTINUOUS
 10
978.7462089651
 20
215.5597319112
 11
978.98951672
 21
215.5597319112
  0
LINE
  5
356
100
AcDbEntity
  8
BEZUGSACHSEN
100
AcDbLine
 62
7
  6
CONTINUOUS
 10
976.7449546087
 20
215.7395327364
 11
977.3530484092
 21
215.7395327364
  0
LINE
  5
357
100
AcDbEntity
  8
BEZUGSACHSEN
100
AcDbLine
 62
7
  6
CONTINUOUS
 10
952.2685885646
 20
215.8011853169
 11
952.0243393742
 21
215.8011853169
  0
LINE
  5
358
100
AcDbEntity
  8
BEZUGSACHSEN
100
AcDbLine
 62
7
  6
CONTINUOUS
 10
975.7013997394
 20
215.9992355352
 11
976.4007150428
 21
215.9992355352
  0
LINE
  5
359
100
AcDbEntity
  8
BEZUGSACHSEN
100
AcDbLine
 62
7
  6
CONTINUOUS
 10
978.5327990009
 20
216.1086294682
 11
978.7909175381
 21
216.1086294682
  0
LINE
  5
35A
100
AcDbEntity
  8
BEZUGSACHSEN
100
AcDbLine
 62
7
  6
CONTINUOUS
 10
976.7635920616
 20
216.1965660448
 11
977.1570708983
 21
216.1965660448
  0
LINE
  5
35B
100
AcDbEntity
  8
BEZUGSACHSEN
100
AcDbLine
 62
7
  6
CONTINUOUS
 10
976.7685184716
 20
216.5931758292
 11
976.9620316411
 21
216.5931758292
  0
LINE
  5
35C
100
AcDbEntity
  8
BEZUGSACHSEN
100
AcDbLine
 62
7
  6
CONTINUOUS
 10
952.7095748768
 20
216.7416665089
 11
952.6606031444
 21
216.7416665089
  0
LINE
  5
35D
100
AcDbEntity
  8
BEZUGSACHSEN
100
AcDbLine
 62
7
  6
CONTINUOUS
 10
978.2629819435
 20
216.8025625141
 11
978.5281320386
 21
216.8025625141
  0
LINE
  5
35E
100
AcDbEntity
  8
BEZUGSACHSEN
100
AcDbLine
 62
7
  6
CONTINUOUS
 10
975.7250538636
 20
217.4493912512
 11
976.4418868405
 21
217.4493912512
  0
LINE
  5
35F
100
AcDbEntity
  8
BEZUGSACHSEN
100
AcDbLine
 62
7
  6
CONTINUOUS
 10
975.7850858982
 20
217.5991627891
 11
976.5054972545
 21
217.5991627891
  0
LINE
  5
360
100
AcDbEntity
  8
BEZUGSACHSEN
100
AcDbLine
 62
7
  6
CONTINUOUS
 10
952.7044322085
 20
217.6909732549
 11
952.483011118
 21
217.6909732549
  0
LINE
  5
361
100
AcDbEntity
  8
BEZUGSACHSEN
100
AcDbLine
 62
7
  6
CONTINUOUS
 10
952.8094555926
 20
217.9538334426
 11
952.6196642726
 21
217.9538334426
  0
LINE
  5
362
100
AcDbEntity
  8
BEZUGSACHSEN
100
AcDbLine
 62
7
  6
CONTINUOUS
 10
953.2883766835
 20
218.2494967664
 11
953.0034379209
 21
218.2494967664
  0
LINE
  5
363
100
AcDbEntity
  8
BEZUGSACHSEN
100
AcDbLine
 62
7
  6
CONTINUOUS
 10
953.0580953948
 20
218.5724865563
 11
952.8869031055
 21
218.5724865563
  0
LINE
  5
364
100
AcDbEntity
  8
BEZUGSACHSEN
100
AcDbLine
 62
7
  6
CONTINUOUS
 10
952.9149884877
 20
218.7928749922
 11
952.7576961039
 21
218.7928749922
  0
LINE
  5
365
100
AcDbEntity
  8
BEZUGSACHSEN
100
AcDbLine
 62
7
  6
CONTINUOUS
 10
953.5242436011
 20
218.863951094
 11
953.2623957372
 21
218.863951094
  0
LINE
  5
366
100
AcDbEntity
  8
BEZUGSACHSEN
100
AcDbLine
 62
7
  6
CONTINUOUS
 10
953.2604841061
 20
219.0597093635
 11
953.0850312548
 21
219.0597093635
  0
LINE
  5
367
100
AcDbEntity
  8
BEZUGSACHSEN
100
AcDbLine
 62
7
  6
CONTINUOUS
 10
975.7040030799
 20
219.1417898357
 11
976.4420915444
 21
219.1417898357
  0
LINE
  5
368
100
AcDbEntity
  8
BEZUGSACHSEN
100
AcDbLine
 62
7
  6
CONTINUOUS
 10
953.6411657978
 20
219.2767547071
 11
953.4544389727
 21
219.2767547071
  0
LINE
  5
369
100
AcDbEntity
  8
BEZUGSACHSEN
100
AcDbLine
 62
7
  6
CONTINUOUS
 10
959.9040316987
 20
219.2794565155
 11
970.7029048346
 21
219.2794565155
  0
LINE
  5
36A
100
AcDbEntity
  8
BEZUGSACHSEN
100
AcDbLine
 62
7
  6
CONTINUOUS
 10
977.2842648264
 20
219.3194691347
 11
977.5485006071
 21
219.3194691347
  0
LINE
  5
36B
100
AcDbEntity
  8
BEZUGSACHSEN
100
AcDbLine
 62
7
  6
CONTINUOUS
 10
975.7166730317
 20
219.3952913222
 11
976.4587679641
 21
219.3952913222
  0
LINE
  5
36C
100
AcDbEntity
  8
BEZUGSACHSEN
100
AcDbLine
 62
7
  6
CONTINUOUS
 10
953.5539396661
 20
219.7341224226
 11
953.346118437
 21
219.7341224226
  0
LINE
  5
36D
100
AcDbEntity
  8
BEZUGSACHSEN
100
AcDbLine
 62
7
  6
CONTINUOUS
 10
977.0320985285
 20
219.9678861612
 11
977.2886878924
 21
219.9678861612
  0
LINE
  5
36E
100
AcDbEntity
  8
BEZUGSACHSEN
100
AcDbLine
 62
7
  6
CONTINUOUS
 10
953.8123006966
 20
220.2585184953
 11
953.5397028656
 21
220.2585184953
  0
LINE
  5
36F
100
AcDbEntity
  8
BEZUGSACHSEN
100
AcDbLine
 62
7
  6
CONTINUOUS
 10
975.7166730269
 20
220.4092967848
 11
976.4742741166
 21
220.4092967848
  0
LINE
  5
370
100
AcDbEntity
  8
BEZUGSACHSEN
100
AcDbLine
 62
7
  6
CONTINUOUS
 10
976.879537095
 20
220.4257516285
 11
977.0951269675
 21
220.4257516285
  0
LINE
  5
371
100
AcDbEntity
  8
BEZUGSACHSEN
100
AcDbLine
 62
7
  6
CONTINUOUS
 10
954.14333421
 20
220.4767372694
 11
954.0337180121
 21
220.4767372694
  0
LINE
  5
372
100
AcDbEntity
  8
BEZUGSACHSEN
100
AcDbLine
 62
7
  6
CONTINUOUS
 10
954.1544375592
 20
220.5056624829
 11
953.9737179389
 21
220.5056624829
  0
LINE
  5
373
100
AcDbEntity
  8
BEZUGSACHSEN
100
AcDbLine
 62
7
  6
CONTINUOUS
 10
975.7040030799
 20
220.6627981504
 11
976.4653351089
 21
220.6627981504
  0
LINE
  5
374
100
AcDbEntity
  8
BEZUGSACHSEN
100
AcDbLine
 62
7
  6
CONTINUOUS
 10
976.9028351875
 20
220.693064857
 11
976.9669381188
 21
220.693064857
  0
LINE
  5
375
100
AcDbEntity
  8
BEZUGSACHSEN
100
AcDbLine
 62
7
  6
CONTINUOUS
 10
954.339854664
 20
220.9886905549
 11
953.7950892579
 21
220.9886905549
  0
LINE
  5
376
100
AcDbEntity
  8
BEZUGSACHSEN
100
AcDbLine
 62
7
  6
CONTINUOUS
 10
975.6986560637
 20
221.2303945544
 11
976.4701318335
 21
221.2303945544
  0
LINE
  5
377
100
AcDbEntity
  8
BEZUGSACHSEN
100
AcDbLine
 62
7
  6
CONTINUOUS
 10
954.5625555127
 20
221.5688461007
 11
953.9854283361
 21
221.5688461007
  0
LINE
  5
378
100
AcDbEntity
  8
BEZUGSACHSEN
100
AcDbLine
 62
7
  6
CONTINUOUS
 10
975.7256878556
 20
221.776588871
 11
976.5108038983
 21
221.776588871
  0
LINE
  5
379
100
AcDbEntity
  8
BEZUGSACHSEN
100
AcDbLine
 62
7
  6
CONTINUOUS
 10
954.6629495696
 20
221.8303815604
 11
954.0470270747
 21
221.8303815604
  0
LINE
  5
37A
100
AcDbEntity
  8
BEZUGSACHSEN
100
AcDbLine
 62
7
  6
CONTINUOUS
 10
954.8341820197
 20
222.2764573438
 11
954.0789103115
 21
222.2764573438
  0
LINE
  5
37B
100
AcDbEntity
  8
BEZUGSACHSEN
100
AcDbLine
 62
7
  6
CONTINUOUS
 10
975.7727545136
 20
222.2764573438
 11
976.5280262218
 21
222.2764573438
  0
LINE
  5
37C
100
AcDbEntity
  8
KONSTRUKTIONSELEMENTE
100
AcDbLine
 62
7
  6
CONTINUOUS
 10
691.6531439474
 20
-2.6370425005
 11
691.6531439474
 21
-11.7370425005
  0
LINE
  5
37D
100
AcDbEntity
  8
KONSTRUKTIONSELEMENTE
100
AcDbLine
 62
7
  6
CONTINUOUS
 10
692.3602507286
 20
-2.7494149362
 11
692.3602507286
 21
-3.2494149362
  0
LINE
  5
37E
100
AcDbEntity
  8
KONSTRUKTIONSELEMENTE
100
AcDbLine
 62
7
  6
CONTINUOUS
 10
692.3602507286
 20
-12.3494149362
 11
692.3602507286
 21
-12.8494149362
  0
LINE
  5
37F
100
AcDbEntity
  8
KONSTRUKTIONSELEMENTE
100
AcDbLine
 62
7
  6
CONTINUOUS
 10
694.4815710722
 20
-4.5865322433
 11
694.4815710722
 21
-5.0865322433
  0
LINE
  5
380
100
AcDbEntity
  8
KONSTRUKTIONSELEMENTE
100
AcDbLine
 62
7
  6
CONTINUOUS
 10
694.4815710722
 20
-14.1865322433
 11
694.4815710722
 21
-14.6865322433
  0
LINE
  5
381
100
AcDbEntity
  8
KONSTRUKTIONSELEMENTE
100
AcDbLine
 62
7
  6
CONTINUOUS
 10
695.1886778534
 20
-5.698904679
 11
695.1886778534
 21
-14.798904679
  0
LINE
  5
382
100
AcDbEntity
  8
BEZUGSACHSEN
100
AcDbLine
 62
7
  6
CONTINUOUS
 10
959.9040316987
 20
235.1382660973
 11
970.7029048346
 21
235.1382660973
  0
LINE
  5
383
100
AcDbEntity
  8
KONSTRUKTIONSELEMENTE
100
AcDbLine
 62
7
  6
CONTINUOUS
 10
719.9374151949
 20
-3.6855280534
 11
719.9374151949
 21
5.3164042811
  0
LINE
  5
384
100
AcDbEntity
  8
KONSTRUKTIONSELEMENTE
100
AcDbLine
 62
7
  6
CONTINUOUS
 10
719.9374151949
 20
25.8578549273
 11
719.9374151949
 21
27.1112236762
  0
LINE
  5
385
100
AcDbEntity
  8
KONSTRUKTIONSELEMENTE
100
AcDbLine
 62
7
  6
CONTINUOUS
 10
722.7658423196
 20
4.3083651845
 11
722.7658423196
 21
6.3083651845
  0
LINE
  5
386
100
AcDbEntity
  8
KONSTRUKTIONSELEMENTE
100
AcDbLine
 62
7
  6
CONTINUOUS
 10
722.7658423196
 20
23.4083651845
 11
722.7658423196
 21
24.6617339334
  0
LINE
  5
387
100
AcDbEntity
  8
KONSTRUKTIONSELEMENTE
100
AcDbLine
 62
7
  6
CONTINUOUS
 10
723.4729491008
 20
5.6959927488
 11
723.4729491008
 21
-6.7473902319
  0
LINE
  5
388
100
AcDbEntity
  8
KONSTRUKTIONSELEMENTE
100
AcDbLine
 62
7
  6
CONTINUOUS
 10
723.4729491008
 20
22.7959927488
 11
723.4729491008
 21
24.0493614977
  0
LINE
  5
389
100
AcDbEntity
  8
BEZUGSACHSEN
100
AcDbLine
 62
7
  6
CONTINUOUS
 10
940.5699743393
 20
68.0832508322
 11
937.1672594879
 21
72.8255637319
  0
LINE
  5
38A
100
AcDbEntity
  8
RUNDUNGEN
100
AcDbLine
 62
7
  6
CONTINUOUS
 10
980.8885284777
 20
164.6871918556
 11
984.662788176
 21
161.2635705858
  0
LINE
  5
38B
100
AcDbEntity
  8
RUNDUNGEN
100
AcDbLine
 62
7
  6
CONTINUOUS
 10
980.888524838
 20
164.6871910908
 11
980.2074327447
 21
165.3217599342
  0
LINE
  5
38C
100
AcDbEntity
  8
RUNDUNGEN
100
AcDbLine
 62
7
  6
CONTINUOUS
 10
980.2074327447
 20
165.3217599342
 11
979.455476406
 21
166.0663532547
  0
LINE
  5
38D
100
AcDbEntity
  8
RUNDUNGEN
100
AcDbLine
 62
7
  6
CONTINUOUS
 10
979.5829044419
 20
165.9102050379
 11
979.5806363159
 21
165.9125479512
  0
LWPOLYLINE
  5
38E
100
AcDbEntity
  8
RUNDUNGEN
100
AcDbPolyline
 62
7
  6
CONTINUOUS
 90
3
 70
0
 10
979.455476406
 20
166.0663532547
 10
978.7821806354
 20
166.7810225022
 10
978.1856428763
 20
167.462166391
  0
LINE
  5
38F
100
AcDbEntity
  8
BEZUGSACHSEN
100
AcDbLine
 62
7
  6
CONTINUOUS
 10
980.0223107244
 20
165.44883551
 11
980.0178024686
 21
165.4538672827
  0
LINE
  5
390
100
AcDbEntity
  8
RUNDUNGEN
100
AcDbLine
 62
7
  6
CONTINUOUS
 10
980.0222743624
 20
165.4488760305
 11
980.0178024686
 21
165.4538672827
  0
LWPOLYLINE
  5
391
100
AcDbEntity
  8
RUNDUNGEN
100
AcDbPolyline
 62
7
  6
CONTINUOUS
 90
4
 70
0
 10
977.0971965927
 20
168.8430022762
 10
977.023972679
 20
168.9275105339
 10
976.9603764538
 20
169.0055216349
 10
976.9130011083
 20
169.0687042123
  0
LINE
  5
392
100
AcDbEntity
  8
RUNDUNGEN
100
AcDbLine
 62
7
  6
CONTINUOUS
 10
977.2348430896
 20
168.6745196206
 11
977.0971965927
 21
168.8430022762
  0
LWPOLYLINE
  5
393
100
AcDbEntity
  8
RUNDUNGEN
100
AcDbPolyline
 62
7
  6
CONTINUOUS
 90
3
 70
0
 10
978.1856428763
 20
167.462166391
 10
977.6636316832
 20
168.1062414408
 10
977.2348430896
 20
168.6745196206
  0
LINE
  5
394
100
AcDbEntity
  8
RUNDUNGEN
100
AcDbLine
 62
7
  6
CONTINUOUS
 10
976.9136889141
 20
169.067758416
 11
976.912982746
 21
169.0687407242
  0
LWPOLYLINE
  5
395
100
AcDbEntity
  8
RUNDUNGEN
100
AcDbPolyline
 62
7
  6
CONTINUOUS
 90
3
 70
0
 10
979.8713880315
 20
165.6545141593
 10
979.8331554265
 20
165.7116446465
 10
979.7075022969
 20
165.9335240777
  0
LINE
  5
396
100
AcDbEntity
  8
RUNDUNGEN
100
AcDbLine
 62
7
  6
CONTINUOUS
 10
992.1919239951
 20
142.7160243072
 11
982.6543125625
 21
157.0224414561
  0
LWPOLYLINE
  5
397
100
AcDbEntity
  8
RUNDUNGEN
100
AcDbPolyline
 62
7
  6
CONTINUOUS
 90
6
 70
0
 10
982.6542916188
 20
157.022471777
 10
981.9966018753
 20
158.0442953719
 10
981.2489139884
 20
159.3032012657
 10
980.5660038294
 20
160.5649154798
 10
979.947196582
 20
161.8270799745
 10
979.663866882
 20
162.4526962659
  0
LINE
  5
398
100
AcDbEntity
  8
KONSTRUKTIONSELEMENTE
100
AcDbLine
 62
7
  6
CONTINUOUS
 10
730.2551686163
 20
-5.5390321068
 11
732.6587567508
 21
1.7733471175
  0
LINE
  5
399
100
AcDbEntity
  8
0
100
AcDbLine
 62
7
  6
CONTINUOUS
 10
895.8034682666
 20
226.7392279353
 11
895.8034682666
 21
309.0116412948
  0
LINE
  5
39A
100
AcDbEntity
  8
RUNDUNGEN
100
AcDbLine
 62
7
  6
CONTINUOUS
 10
979.7075022969
 20
165.9335240777
 11
979.575213269
 21
166.2229523491
  0
LINE
  5
39B
100
AcDbEntity
  8
RUNDUNGEN
100
AcDbLine
 62
7
  6
CONTINUOUS
 10
979.6638769637
 20
162.4526750869
 11
979.6637461659
 21
162.4529719668
  0
LINE
  5
39C
100
AcDbEntity
  8
RUNDUNGEN
100
AcDbLine
 62
7
  6
CONTINUOUS
 10
979.575213269
 20
166.2229523491
 11
979.4534372199
 21
166.5760767084
  0
LINE
  5
39D
100
AcDbEntity
  8
0
100
AcDbLine
 62
7
  6
CONTINUOUS
 10
927.8034682666
 20
226.7392279353
 11
927.8034682666
 21
309.0116412948
  0
LINE
  5
39E
100
AcDbEntity
  8
KONSTRUKTIONSELEMENTE
100
AcDbLine
 62
7
  6
CONTINUOUS
 10
799.0145649058
 20
49.1884482216
 11
796.6594799547
 21
42.0236290824
  0
LINE
  5
39F
100
AcDbEntity
  8
KONSTRUKTIONSELEMENTE
100
AcDbLine
 62
7
  6
CONTINUOUS
 10
802.5986019951
 20
46.2741461282
 11
800.1950138606
 21
38.9617669039
  0
LINE
  5
3A0
100
AcDbEntity
  8
KONSTRUKTIONSELEMENTE
100
AcDbLine
 62
7
  6
CONTINUOUS
 10
825.4521962545
 20
94.7666525345
 11
810.9040666261
 21
50.5072225093
  0
LINE
  5
3A1
100
AcDbEntity
  8
0
100
AcDbLine
 62
7
  6
CONTINUOUS
 10
971.3686881328
 20
233.7494425124
 11
975.9646360425
 21
221.776588871
  0
LWPOLYLINE
  5
3A2
100
AcDbEntity
  8
RUNDUNGEN
100
AcDbPolyline
 62
7
  6
CONTINUOUS
 90
4
 70
0
 10
979.4534372199
 20
166.5760767084
 10
979.3603975296
 20
166.9790935548
 10
979.3101221054
 20
167.4113460525
 10
979.3034804005
 20
167.6254619878
  0
LINE
  5
3A3
100
AcDbEntity
  8
BEZUGSACHSEN
100
AcDbLine
 62
7
  6
CONTINUOUS
 10
960.3034682666
 20
148.859653421
 11
959.8968648381
 21
151.3228561779
  0
LINE
  5
3A4
100
AcDbEntity
  8
BEZUGSACHSEN
100
AcDbLine
 62
7
  6
CONTINUOUS
 10
959.4238501532
 20
189.4406707876
 11
959.4864899459
 21
188.856515459
  0
LINE
  5
3A5
100
AcDbEntity
  8
BEZUGSACHSEN
100
AcDbLine
 62
7
  6
CONTINUOUS
 10
959.6898437371
 20
153.2226532048
 11
959.4864899459
 21
157.0690100393
  0
LINE
  5
3A6
100
AcDbEntity
  8
BEZUGSACHSEN
100
AcDbLine
 62
7
  6
CONTINUOUS
 10
936.3034682666
 20
99.9046490548
 11
936.3034682666
 21
75.4886635641
  0
LINE
  5
3A7
100
AcDbEntity
  8
BEZUGSACHSEN
100
AcDbLine
 62
7
  6
CONTINUOUS
 10
936.3034682666
 20
111.9094776963
 11
936.3034682666
 21
135.8557712959
  0
LINE
  5
3A8
100
AcDbEntity
  8
BEZUGSACHSEN
100
AcDbLine
 62
7
  6
CONTINUOUS
 10
942.1017194709
 20
101.3828098194
 11
942.1017194709
 21
95.9319878691
  0
LINE
  5
3A9
100
AcDbEntity
  8
0
100
AcDbLine
 62
7
  6
CONTINUOUS
 10
942.8034682666
 20
807.1759927948
 11
942.8034682666
 21
302.3055460247
  0
LINE
  5
3AA
100
AcDbEntity
  8
BEZUGSACHSEN
100
AcDbLine
 62
7
  6
CONTINUOUS
 10
944.3034682666
 20
157.560197833
 11
944.3034682666
 21
151.5487078999
  0
LINE
  5
3AB
100
AcDbEntity
  8
BEZUGSACHSEN
100
AcDbLine
 62
7
  6
CONTINUOUS
 10
951.3036352945
 20
167.6247962166
 11
951.3034682666
 21
210.7802483651
  0
LWPOLYLINE
  5
3AC
100
AcDbEntity
  8
BEZUGSACHSEN
100
AcDbPolyline
 62
7
  6
CONTINUOUS
 90
4
 70
0
 10
951.3034544906
 20
167.624796658
 10
951.2978335664
 20
167.4293037627
 10
951.2490794189
 20
166.9938405392
 10
951.1567453525
 20
166.5873635839
  0
LINE
  5
3AD
100
AcDbEntity
  8
BEZUGSACHSEN
100
AcDbLine
 62
7
  6
CONTINUOUS
 10
959.4864899459
 20
188.856515459
 11
959.4864899459
 21
157.0690100393
  0
LINE
  5
3AE
100
AcDbEntity
  8
BEZUGSACHSEN
100
AcDbLine
 62
7
  6
CONTINUOUS
 10
960.3034682666
 20
148.859653421
 11
960.3034682666
 21
145.8509208749
  0
LINE
  5
3AF
100
AcDbEntity
  8
RUNDUNGEN
100
AcDbLine
 62
7
  6
CONTINUOUS
 10
970.3034682666
 20
148.859653421
 11
970.3034682666
 21
145.8509208749
  0
LINE
  5
3B0
100
AcDbEntity
  8
0
100
AcDbLine
 62
7
  6
CONTINUOUS
 10
971.1204465874
 20
188.856515459
 11
971.1204465874
 21
157.0690100393
  0
LINE
  5
3B1
100
AcDbEntity
  8
BEZUGSACHSEN
100
AcDbLine
 62
7
  6
CONTINUOUS
 10
979.3034682666
 20
210.7121706121
 11
979.3034682666
 21
209.6258416767
  0
LINE
  5
3B2
100
AcDbEntity
  8
BEZUGSACHSEN
100
AcDbLine
 62
7
  6
CONTINUOUS
 10
979.3034682666
 20
208.8390528699
 11
979.3034682666
 21
182.9967141239
  0
LINE
  5
3B3
100
AcDbEntity
  8
RUNDUNGEN
100
AcDbLine
 62
7
  6
CONTINUOUS
 10
979.3034682666
 20
182.9967140686
 11
979.3032995558
 21
167.6254615705
  0
LINE
  5
3B4
100
AcDbEntity
  8
RUNDUNGEN
100
AcDbLine
 62
7
  6
CONTINUOUS
 10
986.3034682666
 20
151.5487078999
 11
986.3034682666
 21
157.560197833
  0
LINE
  5
3B5
100
AcDbEntity
  8
0
100
AcDbLine
 62
7
  6
CONTINUOUS
 10
987.8034682666
 20
807.1759927948
 11
987.8034682666
 21
302.3055460247
  0
LINE
  5
3B6
100
AcDbEntity
  8
0
100
AcDbLine
 62
7
  6
CONTINUOUS
 10
988.5052170624
 20
101.3828098194
 11
988.5052170624
 21
95.9319878691
  0
LINE
  5
3B7
100
AcDbEntity
  8
RUNDUNGEN
100
AcDbLine
 62
7
  6
CONTINUOUS
 10
970.9170927961
 20
153.2226532048
 11
971.1204465874
 21
157.0690100393
  0
LINE
  5
3B8
100
AcDbEntity
  8
0
100
AcDbLine
 62
7
  6
CONTINUOUS
 10
994.3034682666
 20
99.9046490548
 11
994.3034682666
 21
82.0678494319
  0
LINE
  5
3B9
100
AcDbEntity
  8
RUNDUNGEN
100
AcDbLine
 62
7
  6
CONTINUOUS
 10
994.3034682666
 20
82.0678494319
 11
994.3034682666
 21
75.4886635641
  0
LINE
  5
3BA
100
AcDbEntity
  8
RUNDUNGEN
100
AcDbLine
 62
7
  6
CONTINUOUS
 10
994.3034682666
 20
111.9094776963
 11
994.3034682666
 21
135.8557712959
  0
LINE
  5
3BB
100
AcDbEntity
  8
0
100
AcDbLine
 62
7
  6
CONTINUOUS
 10
1002.8034682666
 20
309.0116412948
 11
1002.8034682666
 21
226.7392279353
  0
LINE
  5
3BC
100
AcDbEntity
  8
0
100
AcDbLine
 62
7
  6
CONTINUOUS
 10
971.1830863801
 20
189.4406707876
 11
971.1204465874
 21
188.856515459
  0
LINE
  5
3BD
100
AcDbEntity
  8
RUNDUNGEN
100
AcDbLine
 62
7
  6
CONTINUOUS
 10
970.3034682666
 20
148.859653421
 11
970.7100716952
 21
151.3228561779
  0
LINE
  5
3BE
100
AcDbEntity
  8
BEZUGSACHSEN
100
AcDbLine
 62
7
  6
CONTINUOUS
 10
952.1005031487
 20
215.1549804104
 11
959.2382484004
 21
233.7494425124
  0
LINE
  5
3BF
100
AcDbEntity
  8
KONSTRUKTIONSELEMENTE
100
AcDbLine
 62
7
  6
CONTINUOUS
 10
803.2656437473
 20
121.6771327342
 11
799.9031511874
 21
117.9925862714
  0
LINE
  5
3C0
100
AcDbEntity
  8
KONSTRUKTIONSELEMENTE
100
AcDbLine
 62
7
  6
CONTINUOUS
 10
782.61993943
 20
99.0540174527
 11
724.8234028845
 21
35.7218254847
  0
LINE
  5
3C1
100
AcDbEntity
  8
KONSTRUKTIONSELEMENTE
100
AcDbLine
 62
7
  6
CONTINUOUS
 10
783.3270462112
 20
98.441645017
 11
783.9995447231
 21
99.1785543096
  0
LINE
  5
3C2
100
AcDbEntity
  8
KONSTRUKTIONSELEMENTE
100
AcDbLine
 62
7
  6
CONTINUOUS
 10
785.4483665547
 20
96.6045277099
 11
786.1208650667
 21
97.3414370025
  0
LINE
  5
3C3
100
AcDbEntity
  8
KONSTRUKTIONSELEMENTE
100
AcDbLine
 62
7
  6
CONTINUOUS
 10
806.8011776532
 20
118.6152705557
 11
803.4386850934
 21
114.9307240929
  0
LINE
  5
3C4
100
AcDbEntity
  8
KONSTRUKTIONSELEMENTE
100
AcDbLine
 62
7
  6
CONTINUOUS
 10
786.1554733359
 20
95.9921552742
 11
728.3589367904
 21
32.6599633063
  0
LINE
  5
3C5
100
AcDbEntity
  8
KONSTRUKTIONSELEMENTE
100
AcDbLine
 62
7
  6
CONTINUOUS
 10
789.4375042057
 20
97.8499938087
 11
801.7521321163
 21
111.3440961454
  0
LINE
  5
3C6
100
AcDbEntity
  8
0
100
AcDbLine
 62
7
  6
CONTINUOUS
 10
1034.8034682666
 20
309.0116412948
 11
1034.8034682666
 21
226.7392279353
  0
LINE
  5
3C7
100
AcDbEntity
  8
BEZUGSACHSEN
100
AcDbLine
 62
7
  6
CONTINUOUS
 10
951.1567453525
 20
166.5873635839
 11
951.0349397215
 21
166.2309561406
  0
LINE
  5
3C8
100
AcDbEntity
  8
BEZUGSACHSEN
100
AcDbLine
 62
7
  6
CONTINUOUS
 10
950.94311125
 20
162.4527923884
 11
950.9431903674
 21
162.4529719668
  0
LWPOLYLINE
  5
3C9
100
AcDbEntity
  8
BEZUGSACHSEN
100
AcDbPolyline
 62
7
  6
CONTINUOUS
 90
6
 70
0
 10
950.9431213253
 20
162.4528135517
 10
950.7129513512
 20
161.9420250202
 10
950.0855544638
 20
160.651765382
 10
949.3909682918
 20
159.3614038722
 10
948.6284352524
 20
158.0734736386
 10
947.9526458705
 20
157.0224732109
  0
LINE
  5
3CA
100
AcDbEntity
  8
BEZUGSACHSEN
100
AcDbLine
 62
7
  6
CONTINUOUS
 10
951.0349397215
 20
166.2309561406
 11
950.9021037693
 21
165.9387221871
  0
LINE
  5
3CB
100
AcDbEntity
  8
KONSTRUKTIONSELEMENTE
100
AcDbLine
 62
7
  6
CONTINUOUS
 10
791.0712442923
 20
94.0913919052
 11
793.7612383402
 21
97.0390290754
  0
LINE
  5
3CC
100
AcDbEntity
  8
KONSTRUKTIONSELEMENTE
100
AcDbLine
 62
7
  6
CONTINUOUS
 10
805.4205122668
 20
108.4278040022
 11
791.7783510735
 21
93.4790194695
  0
LWPOLYLINE
  5
3CD
100
AcDbEntity
  8
BEZUGSACHSEN
100
AcDbPolyline
 62
7
  6
CONTINUOUS
 90
3
 70
0
 10
950.9021037693
 20
165.9387221871
 10
950.775621152
 20
165.7146026859
 10
950.7353880039
 20
165.6543551213
  0
LINE
  5
3CE
100
AcDbEntity
  8
BEZUGSACHSEN
100
AcDbLine
 62
7
  6
CONTINUOUS
 10
947.9526239708
 20
157.0224414561
 11
938.4150125382
 21
142.7160243072
  0
LINE
  5
3CF
100
AcDbEntity
  8
BEZUGSACHSEN
100
AcDbLine
 62
7
  6
CONTINUOUS
 10
953.6932476192
 20
169.067758416
 11
953.6939384863
 21
169.0687194318
  0
LWPOLYLINE
  5
3D0
100
AcDbEntity
  8
BEZUGSACHSEN
100
AcDbPolyline
 62
7
  6
CONTINUOUS
 90
3
 70
0
 10
953.6939201225
 20
169.0686829179
 10
953.6502898555
 20
169.0103176893
 10
953.5892674149
 20
168.9349552293
  0
LINE
  5
3D1
100
AcDbEntity
  8
BEZUGSACHSEN
100
AcDbLine
 62
7
  6
CONTINUOUS
 10
953.3648417129
 20
168.6651976775
 11
952.9433557551
 21
168.106306888
  0
LINE
  5
3D2
100
AcDbEntity
  8
KONSTRUKTIONSELEMENTE
100
AcDbLine
 62
7
  6
CONTINUOUS
 10
820.9696412873
 20
116.2317281549
 11
821.0251387569
 21
116.2797903733
  0
LINE
  5
3D3
100
AcDbEntity
  8
KONSTRUKTIONSELEMENTE
100
AcDbLine
 62
7
  6
CONTINUOUS
 10
821.3786921475
 20
116.5859765912
 11
825.4092008002
 21
120.0764994747
  0
LINE
  5
3D4
100
AcDbEntity
  8
KONSTRUKTIONSELEMENTE
100
AcDbLine
 62
7
  6
CONTINUOUS
 10
870.0276386931
 20
158.7172001671
 11
874.0581473459
 21
162.2077230505
  0
LINE
  5
3D5
100
AcDbEntity
  8
KONSTRUKTIONSELEMENTE
100
AcDbLine
 62
7
  6
CONTINUOUS
 10
874.4117007365
 20
162.5139092684
 11
878.4422093892
 21
166.0044321518
  0
LINE
  5
3D6
100
AcDbEntity
  8
KONSTRUKTIONSELEMENTE
100
AcDbLine
 62
7
  6
CONTINUOUS
 10
852.1928118741
 20
141.588942258
 11
844.8389013497
 21
135.2202689268
  0
LINE
  5
3D7
100
AcDbEntity
  8
KONSTRUKTIONSELEMENTE
100
AcDbLine
 62
7
  6
CONTINUOUS
 10
715.0870869967
 20
18.4326026196
 11
694.4815710722
 21
0.5877023709
  0
LINE
  5
3D8
100
AcDbEntity
  8
KONSTRUKTIONSELEMENTE
100
AcDbLine
 62
7
  6
CONTINUOUS
 10
837.0607267567
 20
123.4109580344
 11
844.414637281
 21
129.7796313657
  0
LINE
  5
3D9
100
AcDbEntity
  8
KONSTRUKTIONSELEMENTE
100
AcDbLine
 62
7
  6
CONTINUOUS
 10
862.5165708794
 20
145.4563657195
 11
869.8704814037
 21
151.8250390507
  0
LINE
  5
3DA
100
AcDbEntity
  8
KONSTRUKTIONSELEMENTE
100
AcDbLine
 62
7
  6
CONTINUOUS
 10
691.6531439474
 20
-2.6370425005
 11
692.6268775789
 21
-1.7937644392
  0
LINE
  5
3DB
100
AcDbEntity
  8
KONSTRUKTIONSELEMENTE
100
AcDbLine
 62
7
  6
CONTINUOUS
 10
825.2247249226
 20
110.6566090895
 11
825.6077144518
 21
110.9882877512
  0
LINE
  5
3DC
100
AcDbEntity
  8
KONSTRUKTIONSELEMENTE
100
AcDbLine
 62
7
  6
CONTINUOUS
 10
825.9612678424
 20
111.2944739691
 11
829.9917764952
 21
114.7849968525
  0
LINE
  5
3DD
100
AcDbEntity
  8
KONSTRUKTIONSELEMENTE
100
AcDbLine
 62
7
  6
CONTINUOUS
 10
876.007007802
 20
154.6353561252
 11
878.6407230408
 21
156.9162204284
  0
LINE
  5
3DE
100
AcDbEntity
  8
KONSTRUKTIONSELEMENTE
100
AcDbLine
 62
7
  6
CONTINUOUS
 10
878.9942764314
 20
157.2224066462
 11
882.5677354731
 21
160.3171129557
  0
LINE
  5
3DF
100
AcDbEntity
  8
KONSTRUKTIONSELEMENTE
100
AcDbLine
 62
7
  6
CONTINUOUS
 10
717.2084073403
 20
16.5954853126
 11
696.6028914157
 21
-1.2494149362
  0
LINE
  5
3E0
100
AcDbEntity
  8
KONSTRUKTIONSELEMENTE
100
AcDbLine
 62
7
  6
CONTINUOUS
 10
856.3825953666
 20
136.7509970035
 11
851.4257121391
 21
132.4582102049
  0
LINE
  5
3E1
100
AcDbEntity
  8
KONSTRUKTIONSELEMENTE
100
AcDbLine
 62
7
  6
CONTINUOUS
 10
694.4815710722
 20
-5.0865322433
 11
717.1089880701
 21
14.509385699
  0
LINE
  5
3E2
100
AcDbEntity
  8
KONSTRUKTIONSELEMENTE
100
AcDbLine
 62
7
  6
CONTINUOUS
 10
695.1886778534
 20
-5.698904679
 11
717.8160948513
 21
13.8970132633
  0
LINE
  5
3E3
100
AcDbEntity
  8
KONSTRUKTIONSELEMENTE
100
AcDbLine
 62
7
  6
CONTINUOUS
 10
841.2505102492
 20
118.5730127799
 11
848.6044207736
 21
124.9416861111
  0
LINE
  5
3E4
100
AcDbEntity
  8
KONSTRUKTIONSELEMENTE
100
AcDbLine
 62
7
  6
CONTINUOUS
 10
866.7063543719
 20
140.6184204649
 11
874.0602648963
 21
146.9870937962
  0
LINE
  5
3E5
100
AcDbEntity
  8
KONSTRUKTIONSELEMENTE
100
AcDbLine
 62
7
  6
CONTINUOUS
 10
854.7383962863
 20
126.6470548271
 11
862.0923068107
 21
133.0157281583
  0
LINE
  5
3E6
100
AcDbEntity
  8
KONSTRUKTIONSELEMENTE
100
AcDbLine
 62
7
  6
CONTINUOUS
 10
889.8266285663
 20
156.1452359371
 11
881.4120578702
 21
148.8580039524
  0
LINE
  5
3E7
100
AcDbEntity
  8
KONSTRUKTIONSELEMENTE
100
AcDbLine
 62
7
  6
CONTINUOUS
 10
836.7936199773
 20
110.21730326
 11
828.3790492812
 21
102.9300712752
  0
LINE
  5
3E8
100
AcDbEntity
  8
KONSTRUKTIONSELEMENTE
100
AcDbLine
 62
7
  6
CONTINUOUS
 10
695.1886778534
 20
-14.798904679
 11
717.8160948513
 21
4.7970132633
  0
LINE
  5
3E9
100
AcDbEntity
  8
KONSTRUKTIONSELEMENTE
100
AcDbLine
 62
7
  6
CONTINUOUS
 10
874.0602648963
 20
139.9870937962
 11
869.3596120435
 21
135.9162090113
  0
LINE
  5
3EA
100
AcDbEntity
  8
KONSTRUKTIONSELEMENTE
100
AcDbLine
 62
7
  6
CONTINUOUS
 10
848.6044207736
 20
117.9416861111
 11
844.714094365
 21
114.5725646123
  0
LINE
  5
3EB
100
AcDbEntity
  8
KONSTRUKTIONSELEMENTE
100
AcDbLine
 62
7
  6
CONTINUOUS
 10
696.6028914157
 20
-14.3494149362
 11
717.1089880701
 21
3.409385699
  0
LINE
  5
3EC
100
AcDbEntity
  8
KONSTRUKTIONSELEMENTE
100
AcDbLine
 62
7
  6
CONTINUOUS
 10
858.9281797789
 20
121.8091095726
 11
866.2820903032
 21
128.1777829038
  0
LINE
  5
3ED
100
AcDbEntity
  8
KONSTRUKTIONSELEMENTE
100
AcDbLine
 62
7
  6
CONTINUOUS
 10
894.4092042613
 20
150.853733315
 11
885.9946335652
 21
143.5665013302
  0
LINE
  5
3EE
100
AcDbEntity
  8
KONSTRUKTIONSELEMENTE
100
AcDbLine
 62
7
  6
CONTINUOUS
 10
841.3761956723
 20
104.9258006378
 11
832.9616249762
 21
97.638568653
  0
LINE
  5
3EF
100
AcDbEntity
  8
BEZUGSACHSEN
100
AcDbLine
 62
7
  6
CONTINUOUS
 10
952.9433557551
 20
168.106306888
 11
952.4213389421
 21
167.4622201313
  0
LINE
  5
3F0
100
AcDbEntity
  8
BEZUGSACHSEN
100
AcDbLine
 62
7
  6
CONTINUOUS
 10
953.5045873504
 20
168.8369681983
 11
953.3648417129
 21
168.6651976775
  0
LINE
  5
3F1
100
AcDbEntity
  8
BEZUGSACHSEN
100
AcDbLine
 62
7
  6
CONTINUOUS
 10
953.5892674149
 20
168.9349552293
 11
953.5045873504
 21
168.8369681983
  0
LWPOLYLINE
  5
3F2
100
AcDbEntity
  8
BEZUGSACHSEN
100
AcDbPolyline
 62
7
  6
CONTINUOUS
 90
3
 70
0
 10
952.4213389421
 20
167.4622201313
 10
951.8246794044
 20
166.780938305
 10
951.1512616501
 20
166.0661497884
  0
LINE
  5
3F3
100
AcDbEntity
  8
RUNDUNGEN
100
AcDbLine
 62
7
  6
CONTINUOUS
 10
950.5846621708
 20
165.4488760305
 11
950.5891340647
 21
165.4538672827
  0
LINE
  5
3F4
100
AcDbEntity
  8
BEZUGSACHSEN
100
AcDbLine
 62
7
  6
CONTINUOUS
 10
950.5846258088
 20
165.44883551
 11
950.5891340647
 21
165.4538672827
  0
LINE
  5
3F5
100
AcDbEntity
  8
BEZUGSACHSEN
100
AcDbLine
 62
7
  6
CONTINUOUS
 10
951.0240320914
 20
165.9102050379
 11
951.0263002174
 21
165.9125479512
  0
LWPOLYLINE
  5
3F6
100
AcDbEntity
  8
BEZUGSACHSEN
100
AcDbPolyline
 62
7
  6
CONTINUOUS
 90
3
 70
0
 10
951.1512616501
 20
166.0661497884
 10
950.3993378056
 20
165.3216009763
 10
949.7184123013
 20
164.6871916404
  0
LINE
  5
3F7
100
AcDbEntity
  8
BEZUGSACHSEN
100
AcDbLine
 62
7
  6
CONTINUOUS
 10
945.9441483573
 20
161.2635705858
 11
949.7183050914
 21
164.6870984628
  0
LINE
  5
3F8
100
AcDbEntity
  8
KONSTRUKTIONSELEMENTE
100
AcDbLine
 62
7
  6
CONTINUOUS
 10
741.5688219927
 20
12.6998875759
 11
798.0586969977
 21
48.6428406231
  0
LINE
  5
3F9
100
AcDbEntity
  8
KONSTRUKTIONSELEMENTE
100
AcDbLine
 62
7
  6
CONTINUOUS
 10
728.3589367904
 20
-7.2712833516
 11
729.3641620921
 21
-6.6316861527
  0
LINE
  5
3FA
100
AcDbEntity
  8
KONSTRUKTIONSELEMENTE
100
AcDbLine
 62
7
  6
CONTINUOUS
 10
800.6490043603
 20
38.7248974545
 11
801.9940013843
 21
39.5806820508
  0
LINE
  5
3FB
100
AcDbEntity
  8
RUNDUNGEN
100
AcDbLine
 62
7
  6
CONTINUOUS
 10
993.4396770453
 20
72.8255637319
 11
990.036962194
 21
68.0832508322
  0
ARC
  5
3FC
100
AcDbEntity
  8
BEZUGSACHSEN
100
AcDbCircle
 62
7
  6
CONTINUOUS
 10
-18.7282740711
 20
-115.5527098557
 40
608.7008648053
100
AcDbArc
 50
19.8175358824
 51
21.1023777308
  0
ARC
  5
3FD
100
AcDbEntity
  8
0
100
AcDbCircle
 62
7
  6
CONTINUOUS
 10
73.1732046711
 20
26.0215689156
 40
65.0
100
AcDbArc
 50
69.9667663002
 51
82.5919479374
  0
ARC
  5
3FE
100
AcDbEntity
  8
0
100
AcDbCircle
 62
7
  6
CONTINUOUS
 10
73.1732046711
 20
26.0215689156
 40
65.0
100
AcDbArc
 50
37.4080520626
 51
50.0332336998
  0
ARC
  5
3FF
100
AcDbEntity
  8
BEZUGSACHSEN
100
AcDbCircle
 62
7
  6
CONTINUOUS
 10
157.6825991372
 20
172.3961338478
 40
26.0
100
AcDbArc
 50
98.0184962827
 51
21.9815037173
  0
ARC
  5
400
100
AcDbEntity
  8
0
100
AcDbCircle
 62
7
  6
CONTINUOUS
 10
162.3075991372
 20
180.4068688328
 40
16.0
100
AcDbArc
 50
150.0
 51
330.0
  0
ARC
  5
401
100
AcDbEntity
  8
0
100
AcDbCircle
 62
7
  6
CONTINUOUS
 10
131.5575991372
 20
127.1463065001
 40
11.25
100
AcDbArc
 50
330.0
 51
150.0
  0
ARC
  5
402
100
AcDbEntity
  8
KONSTRUKTIONSELEMENTE
100
AcDbCircle
 62
7
  6
CONTINUOUS
 10
42.6102576198
 20
15.2550601966
 40
11.1070958187
100
AcDbArc
 50
52.3515341598
 51
54.9226131091
  0
ARC
  5
403
100
AcDbEntity
  8
KONSTRUKTIONSELEMENTE
100
AcDbCircle
 62
7
  6
CONTINUOUS
 10
79.8904229204
 20
-3.6152229859
 40
9.3535175982
100
AcDbArc
 50
81.2384503882
 51
82.1140025065
  0
ARC
  5
404
100
AcDbEntity
  8
KONSTRUKTIONSELEMENTE
100
AcDbCircle
 62
7
  6
CONTINUOUS
 10
79.9164201247
 20
-3.4234531768
 40
9.1599944881
100
AcDbArc
 50
82.1105000658
 51
83.9508226432
  0
ARC
  5
405
100
AcDbEntity
  8
KONSTRUKTIONSELEMENTE
100
AcDbCircle
 62
7
  6
CONTINUOUS
 10
44.4923365166
 20
17.3292481085
 40
8.9845469701
100
AcDbArc
 50
35.0323628081
 51
37.0353147283
  0
ARC
  5
406
100
AcDbEntity
  8
RUNDUNGEN
100
AcDbCircle
 62
7
  6
CONTINUOUS
 10
168.593416758
 20
89.2942243191
 40
5.0
100
AcDbArc
 50
120.0
 51
150.0
  0
ARC
  5
407
100
AcDbEntity
  8
RUNDUNGEN
100
AcDbCircle
 62
7
  6
CONTINUOUS
 10
80.258825572
 20
140.2942243191
 40
5.0
100
AcDbArc
 50
330.0
 51
360.0
  0
ARC
  5
408
100
AcDbEntity
  8
KONSTRUKTIONSELEMENTE
100
AcDbCircle
 62
7
  6
CONTINUOUS
 10
52.1086157808
 20
15.9364924717
 40
4.1006282188
100
AcDbArc
 50
339.112215659
 51
339.8872067218
  0
ARC
  5
409
100
AcDbEntity
  8
KONSTRUKTIONSELEMENTE
100
AcDbCircle
 62
7
  6
CONTINUOUS
 10
52.1734836147
 20
15.9104878898
 40
4.0307519921
100
AcDbArc
 50
330.0312035642
 51
339.1288137427
  0
ARC
  5
40A
100
AcDbEntity
  8
KONSTRUKTIONSELEMENTE
100
AcDbCircle
 62
7
  6
CONTINUOUS
 10
127.127214122
 20
119.4726545567
 40
3.5
100
AcDbArc
 50
114.93427076
 51
150.0
  0
ARC
  5
40B
100
AcDbEntity
  8
KONSTRUKTIONSELEMENTE
100
AcDbCircle
 62
7
  6
CONTINUOUS
 10
127.127214122
 20
119.4726545567
 40
3.5
100
AcDbArc
 50
330.0
 51
5.06572924
  0
ARC
  5
40C
100
AcDbEntity
  8
KONSTRUKTIONSELEMENTE
100
AcDbCircle
 62
7
  6
CONTINUOUS
 10
153.6437184165
 20
165.4005872339
 40
3.5
100
AcDbArc
 50
122.1487511503
 51
150.0
  0
ARC
  5
40D
100
AcDbEntity
  8
KONSTRUKTIONSELEMENTE
100
AcDbCircle
 62
7
  6
CONTINUOUS
 10
153.6437184165
 20
165.4005872339
 40
3.5
100
AcDbArc
 50
330.0
 51
357.8512488497
  0
ARC
  5
40E
100
AcDbEntity
  8
KONSTRUKTIONSELEMENTE
100
AcDbCircle
 62
7
  6
CONTINUOUS
 10
128.8476352861
 20
122.4525114232
 40
3.2
100
AcDbArc
 50
150.0
 51
330.0
  0
CIRCLE
  5
40F
100
AcDbEntity
  8
BEZUGSACHSEN
100
AcDbCircle
 62
7
  6
CONTINUOUS
 10
148.7247060523
 20
85.480607896
 40
3.0
  0
ARC
  5
410
100
AcDbEntity
  8
BEZUGSACHSEN
100
AcDbCircle
 62
7
  6
CONTINUOUS
 10
75.5037941688
 20
97.4438318882
 40
3.0
100
AcDbArc
 50
189.9999986699
 51
239.9999991452
  0
ARC
  5
411
100
AcDbEntity
  8
RUNDUNGEN
100
AcDbCircle
 62
7
  6
CONTINUOUS
 10
72.9894621259
 20
111.7033174918
 40
3.0
100
AcDbArc
 50
150.0
 51
190.0
  0
ARC
  5
412
100
AcDbEntity
  8
RUNDUNGEN
100
AcDbCircle
 62
7
  6
CONTINUOUS
 10
147.4676468514
 20
68.7033174918
 40
3.0
100
AcDbArc
 50
290.0
 51
330.0
  0
ARC
  5
413
100
AcDbEntity
  8
BEZUGSACHSEN
100
AcDbCircle
 62
7
  6
CONTINUOUS
 10
133.8614055109
 20
63.7510506436
 40
3.0
100
AcDbArc
 50
239.9999817986
 51
289.9999716836
  0
ARC
  5
414
100
AcDbEntity
  8
BEZUGSACHSEN
100
AcDbCircle
 62
7
  6
CONTINUOUS
 10
72.9894621259
 20
111.7033174918
 40
3.0
100
AcDbArc
 50
150.0
 51
190.0
  0
ARC
  5
415
100
AcDbEntity
  8
BEZUGSACHSEN
100
AcDbCircle
 62
7
  6
CONTINUOUS
 10
-336.2072237255
 20
455.4097036401
 40
603.7671238346
100
AcDbArc
 50
319.7774416332
 51
321.1066323415
  0
ARC
  5
416
100
AcDbEntity
  8
0
100
AcDbCircle
 62
7
  6
CONTINUOUS
 10
263.3075991372
 20
355.3440003973
 40
16.0
100
AcDbArc
 50
330.0
 51
150.0
  0
ARC
  5
417
100
AcDbEntity
  8
BEZUGSACHSEN
100
AcDbCircle
 62
7
  6
CONTINUOUS
 10
620.9998513485
 20
-103.1116356312
 40
573.1142234993
100
AcDbArc
 50
158.8578201547
 51
160.2581145036
  0
ARC
  5
418
100
AcDbEntity
  8
0
100
AcDbCircle
 62
7
  6
CONTINUOUS
 10
562.4419936034
 20
26.0215689156
 40
65.0
100
AcDbArc
 50
97.4080520626
 51
110.0332336998
  0
ARC
  5
419
100
AcDbEntity
  8
0
100
AcDbCircle
 62
7
  6
CONTINUOUS
 10
562.4419936034
 20
26.0215689156
 40
65.0
100
AcDbArc
 50
129.9667663002
 51
142.5919479374
  0
ARC
  5
41A
100
AcDbEntity
  8
BEZUGSACHSEN
100
AcDbCircle
 62
7
  6
CONTINUOUS
 10
477.9325991372
 20
172.3961338478
 40
26.0
100
AcDbArc
 50
158.0184962827
 51
81.9815037173
  0
ARC
  5
41B
100
AcDbEntity
  8
0
100
AcDbCircle
 62
7
  6
CONTINUOUS
 10
473.3075991372
 20
180.4068688328
 40
16.0
100
AcDbArc
 50
210.0
 51
30.0
  0
ARC
  5
41C
100
AcDbEntity
  8
BEZUGSACHSEN
100
AcDbCircle
 62
7
  6
CONTINUOUS
 10
504.0575991372
 20
127.1463065001
 40
11.25
100
AcDbArc
 50
30.0
 51
210.0
  0
ARC
  5
41D
100
AcDbEntity
  8
BEZUGSACHSEN
100
AcDbCircle
 62
7
  6
CONTINUOUS
 10
467.0217815164
 20
89.2942243191
 40
5.0
100
AcDbArc
 50
30.0
 51
60.0
  0
ARC
  5
41E
100
AcDbEntity
  8
BEZUGSACHSEN
100
AcDbCircle
 62
7
  6
CONTINUOUS
 10
555.3563727025
 20
140.2942243191
 40
5.0
100
AcDbArc
 50
180.0
 51
210.0
  0
ARC
  5
41F
100
AcDbEntity
  8
BEZUGSACHSEN
100
AcDbCircle
 62
7
  6
CONTINUOUS
 10
562.6257361486
 20
111.7033174918
 40
3.0
100
AcDbArc
 50
350.0
 51
30.0
  0
CIRCLE
  5
420
100
AcDbEntity
  8
BEZUGSACHSEN
100
AcDbCircle
 62
7
  6
CONTINUOUS
 10
486.8904922221
 20
85.480607896
 40
3.0
  0
ARC
  5
421
100
AcDbEntity
  8
BEZUGSACHSEN
100
AcDbCircle
 62
7
  6
CONTINUOUS
 10
501.7537927635
 20
63.7510506436
 40
3.0
100
AcDbArc
 50
250.0000283164
 51
300.0000182014
  0
ARC
  5
422
100
AcDbEntity
  8
BEZUGSACHSEN
100
AcDbCircle
 62
7
  6
CONTINUOUS
 10
488.1475514231
 20
68.7033174918
 40
3.0
100
AcDbArc
 50
210.0
 51
250.0
  0
ARC
  5
423
100
AcDbEntity
  8
BEZUGSACHSEN
100
AcDbCircle
 62
7
  6
CONTINUOUS
 10
560.1114041056
 20
97.4438318882
 40
3.0
100
AcDbArc
 50
300.0000008548
 51
350.0000013301
  0
ARC
  5
424
100
AcDbEntity
  8
BEZUGSACHSEN
100
AcDbCircle
 62
7
  6
CONTINUOUS
 10
949.6594528229
 20
437.1020973373
 40
575.0225796619
100
AcDbArc
 50
218.8601303696
 51
220.2468846869
  0
ARC
  5
425
100
AcDbEntity
  8
0
100
AcDbCircle
 62
7
  6
CONTINUOUS
 10
317.8075991372
 20
449.7407694098
 40
170.0
100
AcDbArc
 50
180.0
 51
234.5993031227
  0
ARC
  5
426
100
AcDbEntity
  8
0
100
AcDbCircle
 62
7
  6
CONTINUOUS
 10
317.8075991372
 20
449.7407694098
 40
170.0
100
AcDbArc
 50
245.4006968773
 51
294.5993031227
  0
ARC
  5
427
100
AcDbEntity
  8
0
100
AcDbCircle
 62
7
  6
CONTINUOUS
 10
317.8075991372
 20
449.7407694098
 40
170.0
100
AcDbArc
 50
305.4006968773
 51
360.0
  0
ARC
  5
428
100
AcDbEntity
  8
0
100
AcDbCircle
 62
7
  6
CONTINUOUS
 10
317.8075991372
 20
659.7407694098
 40
170.0
100
AcDbArc
 50
0.0
 51
180.0
  0
ARC
  5
429
100
AcDbEntity
  8
0
100
AcDbCircle
 62
7
  6
CONTINUOUS
 10
317.8075991372
 20
659.7407694098
 40
125.0
100
AcDbArc
 50
0.0
 51
180.0
  0
ARC
  5
42A
100
AcDbEntity
  8
0
100
AcDbCircle
 62
7
  6
CONTINUOUS
 10
317.8075991372
 20
449.7407694098
 40
125.0
100
AcDbArc
 50
180.0
 51
232.6453131679
  0
ARC
  5
42B
100
AcDbEntity
  8
0
100
AcDbCircle
 62
7
  6
CONTINUOUS
 10
317.8075991372
 20
449.7407694098
 40
125.0
100
AcDbArc
 50
247.3549355026
 51
292.6450644974
  0
ARC
  5
42C
100
AcDbEntity
  8
0
100
AcDbCircle
 62
7
  6
CONTINUOUS
 10
317.8075991372
 20
449.7407694098
 40
125.0
100
AcDbArc
 50
307.3546868321
 51
360.0
  0
ARC
  5
42D
100
AcDbEntity
  8
0
100
AcDbCircle
 62
7
  6
CONTINUOUS
 10
372.3075991372
 20
355.3440003973
 40
16.0
100
AcDbArc
 50
30.0
 51
210.0
  0
ARC
  5
42E
100
AcDbEntity
  8
BEZUGSACHSEN
100
AcDbCircle
 62
7
  6
CONTINUOUS
 10
308.8731955793
 20
-124.20860841
 40
749.7938858533
100
AcDbArc
 50
26.5672487265
 51
26.7434186616
  0
ARC
  5
42F
100
AcDbEntity
  8
BEZUGSACHSEN
100
AcDbCircle
 62
7
  6
CONTINUOUS
 10
708.9003103225
 20
119.7112125125
 40
286.6394346466
100
AcDbArc
 50
19.3716012741
 51
19.4930599198
  0
ARC
  5
430
100
AcDbEntity
  8
KONSTRUKTIONSELEMENTE
100
AcDbCircle
 62
7
  6
CONTINUOUS
 10
711.5690825681
 20
28.8257510257
 40
9.3812156416
100
AcDbArc
 50
338.5356302864
 51
339.0541402169
  0
ARC
  5
431
100
AcDbEntity
  8
KONSTRUKTIONSELEMENTE
100
AcDbCircle
 62
7
  6
CONTINUOUS
 10
712.1229737376
 20
28.6155720764
 40
8.7887905682
100
AcDbArc
 50
339.042939646
 51
340.6202423114
  0
ARC
  5
432
100
AcDbEntity
  8
KONSTRUKTIONSELEMENTE
100
AcDbCircle
 62
7
  6
CONTINUOUS
 10
715.1794833571
 20
28.1534926272
 40
4.8707535289
100
AcDbArc
 50
347.6440045755
 51
351.1806361086
  0
ARC
  5
433
100
AcDbEntity
  8
KONSTRUKTIONSELEMENTE
100
AcDbCircle
 62
7
  6
CONTINUOUS
 10
718.715017263
 20
25.0916304487
 40
4.8707535289
100
AcDbArc
 50
347.6440045755
 51
351.1806361086
  0
ARC
  5
434
100
AcDbEntity
  8
BEZUGSACHSEN
100
AcDbCircle
 62
7
  6
CONTINUOUS
 10
803.245221707
 20
113.0867206283
 40
202.3946133295
100
AcDbArc
 50
30.8772421178
 51
31.0185525399
  0
ARC
  5
435
100
AcDbEntity
  8
BEZUGSACHSEN
100
AcDbCircle
 62
7
  6
CONTINUOUS
 10
798.2359721278
 20
160.7451594354
 40
186.5090489779
100
AcDbArc
 50
13.6118321638
 51
13.7778261754
  0
ARC
  5
436
100
AcDbEntity
  8
BEZUGSACHSEN
100
AcDbCircle
 62
7
  6
CONTINUOUS
 10
816.5412593184
 20
150.7971327879
 40
175.0624997127
100
AcDbArc
 50
23.6052333972
 51
23.812609554
  0
ARC
  5
437
100
AcDbEntity
  8
BEZUGSACHSEN
100
AcDbCircle
 62
7
  6
CONTINUOUS
 10
828.0078409317
 20
169.5884794517
 40
157.3879672612
100
AcDbArc
 50
16.2714907713
 51
16.4422943692
  0
ARC
  5
438
100
AcDbEntity
  8
BEZUGSACHSEN
100
AcDbCircle
 62
7
  6
CONTINUOUS
 10
847.0929434586
 20
137.2049997382
 40
152.0852522139
100
AcDbArc
 50
29.5980294464
 51
29.8052996149
  0
ARC
  5
439
100
AcDbEntity
  8
BEZUGSACHSEN
100
AcDbCircle
 62
7
  6
CONTINUOUS
 10
846.2648980789
 20
181.8528893381
 40
135.6313015309
100
AcDbArc
 50
13.7520472335
 51
13.9897924724
  0
ARC
  5
43A
100
AcDbEntity
  8
BEZUGSACHSEN
100
AcDbCircle
 62
7
  6
CONTINUOUS
 10
853.3724572392
 20
173.8335197596
 40
132.3658657401
100
AcDbArc
 50
18.1908271555
 51
18.3749365518
  0
ARC
  5
43B
100
AcDbEntity
  8
BEZUGSACHSEN
100
AcDbCircle
 62
7
  6
CONTINUOUS
 10
937.6244998821
 20
184.5509921995
 40
50.3824139065
100
AcDbArc
 50
34.6269973493
 51
34.8992816222
  0
ARC
  5
43C
100
AcDbEntity
  8
BEZUGSACHSEN
100
AcDbCircle
 62
7
  6
CONTINUOUS
 10
961.6781943055
 20
83.2457911269
 40
25.9898519234
100
AcDbArc
 50
218.380080894
 51
219.2392410904
  0
ARC
  5
43D
100
AcDbEntity
  8
BEZUGSACHSEN
100
AcDbCircle
 62
7
  6
CONTINUOUS
 10
961.5650222668
 20
83.1561842569
 40
25.8455006123
100
AcDbArc
 50
217.4561118954
 51
218.3801297947
  0
ARC
  5
43E
100
AcDbEntity
  8
BEZUGSACHSEN
100
AcDbCircle
 62
7
  6
CONTINUOUS
 10
961.395706229
 20
83.027103513
 40
25.632593347
100
AcDbArc
 50
215.661964134
 51
217.4572370158
  0
ARC
  5
43F
100
AcDbEntity
  8
KONSTRUKTIONSELEMENTE
100
AcDbCircle
 62
7
  6
CONTINUOUS
 10
860.2470117795
 20
155.8963354221
 40
21.0691701493
100
AcDbArc
 50
310.9662598256
 51
314.9929763449
  0
ARC
  5
440
100
AcDbEntity
  8
KONSTRUKTIONSELEMENTE
100
AcDbCircle
 62
7
  6
CONTINUOUS
 10
859.9244351214
 20
135.5192679067
 40
9.7117033243
100
AcDbArc
 50
310.892247018
 51
313.5021324676
  0
ARC
  5
441
100
AcDbEntity
  8
KONSTRUKTIONSELEMENTE
100
AcDbCircle
 62
7
  6
CONTINUOUS
 10
876.0598784518
 20
151.1466143256
 40
9.598650573
100
AcDbArc
 50
180.0202934376
 51
192.4933992703
  0
ARC
  5
442
100
AcDbEntity
  8
0
100
AcDbCircle
 62
7
  6
CONTINUOUS
 10
962.4567384828
 20
124.8210828667
 40
8.9037389506
100
AcDbArc
 50
170.403841313
 51
172.5864832799
  0
ARC
  5
443
100
AcDbEntity
  8
0
100
AcDbCircle
 62
7
  6
CONTINUOUS
 10
962.4208892207
 20
124.8257339763
 40
8.8675892309
100
AcDbArc
 50
172.5863968028
 51
175.2931235056
  0
ARC
  5
444
100
AcDbEntity
  8
KONSTRUKTIONSELEMENTE
100
AcDbCircle
 62
7
  6
CONTINUOUS
 10
850.1684788628
 20
128.5158836457
 40
8.4848298484
100
AcDbArc
 50
180.0178910839
 51
187.0109099346
  0
ARC
  5
445
100
AcDbEntity
  8
KONSTRUKTIONSELEMENTE
100
AcDbCircle
 62
7
  6
CONTINUOUS
 10
809.5332941576
 20
109.3575663405
 40
8.2585923122
100
AcDbArc
 50
137.558937985
 51
144.5737726621
  0
ARC
  5
446
100
AcDbEntity
  8
KONSTRUKTIONSELEMENTE
100
AcDbCircle
 62
7
  6
CONTINUOUS
 10
805.9976785856
 20
112.4194944944
 40
8.2584875226
100
AcDbArc
 50
137.5588934247
 51
144.5738172224
  0
ARC
  5
447
100
AcDbEntity
  8
KONSTRUKTIONSELEMENTE
100
AcDbCircle
 62
7
  6
CONTINUOUS
 10
877.8412802729
 20
152.8248686895
 40
5.1294977931
100
AcDbArc
 50
245.7170993296
 51
247.9133133152
  0
ARC
  5
448
100
AcDbEntity
  8
BEZUGSACHSEN
100
AcDbCircle
 62
7
  6
CONTINUOUS
 10
949.303149304
 20
157.5602761265
 40
4.999681038
100
AcDbArc
 50
132.2023998958
 51
180.0008972349
  0
ARC
  5
449
100
AcDbEntity
  8
BEZUGSACHSEN
100
AcDbCircle
 62
7
  6
CONTINUOUS
 10
940.9725775145
 20
75.5560039432
 40
4.6835615754
100
AcDbArc
 50
209.7637335018
 51
215.6606773437
  0
ARC
  5
44A
100
AcDbEntity
  8
BEZUGSACHSEN
100
AcDbCircle
 62
7
  6
CONTINUOUS
 10
943.8853070412
 20
68.7179316949
 40
3.019317416
100
AcDbArc
 50
219.2975695078
 51
237.654958733
  0
ARC
  5
44B
100
AcDbEntity
  8
KONSTRUKTIONSELEMENTE
100
AcDbCircle
 62
7
  6
CONTINUOUS
 10
860.7997948732
 20
134.8441977533
 40
2.242057564
100
AcDbArc
 50
12.5800915197
 51
17.0337973554
  0
ARC
  5
44C
100
AcDbEntity
  8
KONSTRUKTIONSELEMENTE
100
AcDbCircle
 62
7
  6
CONTINUOUS
 10
860.8527218874
 20
134.8560341927
 40
2.1878231698
100
AcDbArc
 50
10.6369882341
 51
12.5794484907
  0
ARC
  5
44D
100
AcDbEntity
  8
KONSTRUKTIONSELEMENTE
100
AcDbCircle
 62
7
  6
CONTINUOUS
 10
878.7071345818
 20
157.5530788316
 40
0.4379314743
100
AcDbArc
 50
301.701599229
 51
310.9486150493
  0
ARC
  5
44E
100
AcDbEntity
  8
KONSTRUKTIONSELEMENTE
100
AcDbCircle
 62
7
  6
CONTINUOUS
 10
874.3452891955
 20
161.8770508652
 40
0.4379314743
100
AcDbArc
 50
121.7015992286
 51
130.9486150498
  0
ARC
  5
44F
100
AcDbEntity
  8
KONSTRUKTIONSELEMENTE
100
AcDbCircle
 62
7
  6
CONTINUOUS
 10
825.6741259928
 20
111.6251461545
 40
0.4379314743
100
AcDbArc
 50
301.701599229
 51
310.9486150493
  0
ARC
  5
450
100
AcDbEntity
  8
KONSTRUKTIONSELEMENTE
100
AcDbCircle
 62
7
  6
CONTINUOUS
 10
821.3122806065
 20
115.949118188
 40
0.4379314743
100
AcDbArc
 50
121.7015992286
 51
130.9486150497
  0
ARC
  5
451
100
AcDbEntity
  8
BEZUGSACHSEN
100
AcDbCircle
 62
7
  6
CONTINUOUS
 10
881.0763666542
 20
186.3116927277
 40
101.8988384835
100
AcDbArc
 50
15.0429238232
 51
15.3298371665
  0
ARC
  5
452
100
AcDbEntity
  8
BEZUGSACHSEN
100
AcDbCircle
 62
7
  6
CONTINUOUS
 10
892.8432794243
 20
197.7262814641
 40
86.5391685902
100
AcDbArc
 50
11.1512518659
 51
11.3764688393
  0
ARC
  5
453
100
AcDbEntity
  8
BEZUGSACHSEN
100
AcDbCircle
 62
7
  6
CONTINUOUS
 10
902.7138568033
 20
190.0235444186
 40
80.5073208092
100
AcDbArc
 50
17.5478803178
 51
17.7732659413
  0
ARC
  5
454
100
AcDbEntity
  8
BEZUGSACHSEN
100
AcDbCircle
 62
7
  6
CONTINUOUS
 10
911.9809660279
 20
189.364714123
 40
72.1432056975
100
AcDbArc
 50
25.5609364204
 51
25.737724106
  0
ARC
  5
455
100
AcDbEntity
  8
BEZUGSACHSEN
100
AcDbCircle
 62
7
  6
CONTINUOUS
 10
927.7872998597
 20
199.1840980436
 40
52.0465380059
100
AcDbArc
 50
4.9354671779
 51
5.6756083096
  0
ARC
  5
456
100
AcDbEntity
  8
BEZUGSACHSEN
100
AcDbCircle
 62
7
  6
CONTINUOUS
 10
941.5832275244
 20
186.2677700756
 40
46.917172682
100
AcDbArc
 50
41.5453340797
 51
41.8976659227
  0
ARC
  5
457
100
AcDbEntity
  8
BEZUGSACHSEN
100
AcDbCircle
 62
7
  6
CONTINUOUS
 10
943.4621283648
 20
207.3442761636
 40
36.1845838865
100
AcDbArc
 50
357.8061972888
 51
2.0985217573
  0
ARC
  5
458
100
AcDbEntity
  8
BEZUGSACHSEN
100
AcDbCircle
 62
7
  6
CONTINUOUS
 10
945.5043531297
 20
206.6165514484
 40
34.5296379618
100
AcDbArc
 50
10.0283874097
 51
10.2464678749
  0
ARC
  5
459
100
AcDbEntity
  8
BEZUGSACHSEN
100
AcDbCircle
 62
7
  6
CONTINUOUS
 10
952.1200131163
 20
208.0552569081
 40
27.9209091541
100
AcDbArc
 50
14.1842980285
 51
14.732802295
  0
ARC
  5
45A
100
AcDbEntity
  8
BEZUGSACHSEN
100
AcDbCircle
 62
7
  6
CONTINUOUS
 10
956.5306541113
 20
199.0761246305
 40
23.6395637092
100
AcDbArc
 50
12.8444066897
 51
13.6098373001
  0
ARC
  5
45B
100
AcDbEntity
  8
BEZUGSACHSEN
100
AcDbCircle
 62
7
  6
CONTINUOUS
 10
962.3543122611
 20
196.8272059454
 40
22.9859081853
100
AcDbArc
 50
41.8642973157
 51
42.3833487054
  0
ARC
  5
45C
100
AcDbEntity
  8
BEZUGSACHSEN
100
AcDbCircle
 62
7
  6
CONTINUOUS
 10
957.714723286
 20
210.3043870999
 40
21.7983054998
100
AcDbArc
 50
356.1455339842
 51
357.1001185974
  0
ARC
  5
45D
100
AcDbEntity
  8
BEZUGSACHSEN
100
AcDbCircle
 62
7
  6
CONTINUOUS
 10
957.8854686513
 20
210.2915850733
 40
21.6273616564
100
AcDbArc
 50
1.8615999525
 51
2.2353160222
  0
ARC
  5
45E
100
AcDbEntity
  8
BEZUGSACHSEN
100
AcDbCircle
 62
7
  6
CONTINUOUS
 10
957.9328459931
 20
210.2930710745
 40
21.5799610465
100
AcDbArc
 50
1.1127983208
 51
1.8617429315
  0
ARC
  5
45F
100
AcDbEntity
  8
BEZUGSACHSEN
100
AcDbCircle
 62
7
  6
CONTINUOUS
 10
959.1579583279
 20
209.0330741546
 40
20.6638379075
100
AcDbArc
 50
9.3375941934
 51
9.8519430155
  0
ARC
  5
460
100
AcDbEntity
  8
BEZUGSACHSEN
100
AcDbCircle
 62
7
  6
CONTINUOUS
 10
959.5799858934
 20
206.5630786657
 40
20.269579084
100
AcDbArc
 50
350.8771038028
 51
351.770875071
  0
ARC
  5
461
100
AcDbEntity
  8
BEZUGSACHSEN
100
AcDbCircle
 62
7
  6
CONTINUOUS
 10
961.9211898625
 20
209.6668387853
 40
17.9919730468
100
AcDbArc
 50
10.3350886429
 51
10.9107944488
  0
ARC
  5
462
100
AcDbEntity
  8
BEZUGSACHSEN
100
AcDbCircle
 62
7
  6
CONTINUOUS
 10
963.6042134885
 20
208.8001079938
 40
16.5511989164
100
AcDbArc
 50
15.2756131546
 51
15.8928873601
  0
ARC
  5
463
100
AcDbEntity
  8
BEZUGSACHSEN
100
AcDbCircle
 62
7
  6
CONTINUOUS
 10
953.2521899556
 20
199.8442776985
 40
13.7263587213
100
AcDbArc
 50
97.6544627873
 51
97.9467341759
  0
ARC
  5
464
100
AcDbEntity
  8
BEZUGSACHSEN
100
AcDbCircle
 62
7
  6
CONTINUOUS
 10
963.2385523466
 20
209.4940123628
 40
12.9208283606
100
AcDbArc
 50
161.0325151784
 51
161.2568112816
  0
ARC
  5
465
100
AcDbEntity
  8
BEZUGSACHSEN
100
AcDbCircle
 62
7
  6
CONTINUOUS
 10
963.2143680279
 20
209.5023896735
 40
12.8952342835
100
AcDbArc
 50
159.9520972695
 51
161.0327896928
  0
ARC
  5
466
100
AcDbEntity
  8
BEZUGSACHSEN
100
AcDbCircle
 62
7
  6
CONTINUOUS
 10
963.0460236423
 20
209.6923545241
 40
12.730411996
100
AcDbArc
 50
160.1538026313
 51
161.2903200986
  0
ARC
  5
467
100
AcDbEntity
  8
BEZUGSACHSEN
100
AcDbCircle
 62
7
  6
CONTINUOUS
 10
963.0230465817
 20
209.7005878812
 40
12.7060044089
100
AcDbArc
 50
159.7745099545
 51
160.1535488719
  0
ARC
  5
468
100
AcDbEntity
  8
BEZUGSACHSEN
100
AcDbCircle
 62
7
  6
CONTINUOUS
 10
963.3034682666
 20
210.8545650159
 40
12.0
100
AcDbArc
 50
159.0
 51
180.0
  0
ARC
  5
469
100
AcDbEntity
  8
BEZUGSACHSEN
100
AcDbCircle
 62
7
  6
CONTINUOUS
 10
962.1590294752
 20
210.2999834822
 40
11.8561458394
100
AcDbArc
 50
158.8637829351
 51
160.0149938045
  0
ARC
  5
46A
100
AcDbEntity
  8
BEZUGSACHSEN
100
AcDbCircle
 62
7
  6
CONTINUOUS
 10
962.1381423661
 20
210.2396310955
 40
11.8355573817
100
AcDbArc
 50
158.841223741
 51
160.2421519921
  0
ARC
  5
46B
100
AcDbEntity
  8
BEZUGSACHSEN
100
AcDbCircle
 62
7
  6
CONTINUOUS
 10
955.2315898956
 20
209.0462359266
 40
10.5714129999
100
AcDbArc
 50
98.6497015332
 51
98.9857436118
  0
ARC
  5
46C
100
AcDbEntity
  8
BEZUGSACHSEN
100
AcDbCircle
 62
7
  6
CONTINUOUS
 10
959.2642891254
 20
202.4536075491
 40
8.9892430668
100
AcDbArc
 50
155.2540537569
 51
157.0473841795
  0
ARC
  5
46D
100
AcDbEntity
  8
BEZUGSACHSEN
100
AcDbCircle
 62
7
  6
CONTINUOUS
 10
959.261478469
 20
205.1697410093
 40
8.9863943943
100
AcDbArc
 50
155.2506486767
 51
157.0811845668
  0
ARC
  5
46E
100
AcDbEntity
  8
BEZUGSACHSEN
100
AcDbCircle
 62
7
  6
CONTINUOUS
 10
952.4376822688
 20
206.9957159742
 40
4.0051617731
100
AcDbArc
 50
249.4332976944
 51
250.4965300122
  0
ARC
  5
46F
100
AcDbEntity
  8
BEZUGSACHSEN
100
AcDbCircle
 62
7
  6
CONTINUOUS
 10
954.1442079147
 20
210.0815313055
 40
3.8968338918
100
AcDbArc
 50
141.358759353
 51
142.928766881
  0
ARC
  5
470
100
AcDbEntity
  8
BEZUGSACHSEN
100
AcDbCircle
 62
7
  6
CONTINUOUS
 10
962.8790558361
 20
236.4572665776
 40
35.2622448373
100
AcDbArc
 50
250.4866001454
 51
250.6574551896
  0
ARC
  5
471
100
AcDbEntity
  8
0
100
AcDbCircle
 62
7
  6
CONTINUOUS
 10
949.7615707423
 20
217.1476222057
 40
25.9652367666
100
AcDbArc
 50
357.4651038175
 51
0.6659088883
  0
ARC
  5
472
100
AcDbEntity
  8
BEZUGSACHSEN
100
AcDbCircle
 62
7
  6
CONTINUOUS
 10
950.6637460595
 20
217.4556037139
 40
25.7781415296
100
AcDbArc
 50
356.7612791834
 51
359.9861918713
  0
ARC
  5
473
100
AcDbEntity
  8
BEZUGSACHSEN
100
AcDbCircle
 62
7
  6
CONTINUOUS
 10
951.4775552831
 20
216.692935712
 40
25.2910233347
100
AcDbArc
 50
357.5233476952
 51
0.1249564062
  0
ARC
  5
474
100
AcDbEntity
  8
BEZUGSACHSEN
100
AcDbCircle
 62
7
  6
CONTINUOUS
 10
953.7777062383
 20
214.407836664
 40
23.9709505879
100
AcDbArc
 50
357.3867096506
 51
0.1316804831
  0
ARC
  5
475
100
AcDbEntity
  8
BEZUGSACHSEN
100
AcDbCircle
 62
7
  6
CONTINUOUS
 10
954.6916754122
 20
213.4940265906
 40
23.4490166373
100
AcDbArc
 50
357.3278752286
 51
359.8387082372
  0
ARC
  5
476
100
AcDbEntity
  8
0
100
AcDbCircle
 62
7
  6
CONTINUOUS
 10
962.9771683499
 20
219.8996462216
 40
12.7496950203
100
AcDbArc
 50
2.2909260525
 51
3.4315751584
  0
ARC
  5
477
100
AcDbEntity
  8
0
100
AcDbCircle
 62
7
  6
CONTINUOUS
 10
962.977168363
 20
219.9049417638
 40
12.7496950072
100
AcDbArc
 50
356.5684248413
 51
357.709074492
  0
ARC
  5
478
100
AcDbEntity
  8
BEZUGSACHSEN
100
AcDbCircle
 62
7
  6
CONTINUOUS
 10
963.8114557874
 20
220.0999867276
 40
12.6669294191
100
AcDbArc
 50
355.6616848081
 51
356.810834923
  0
ARC
  5
479
100
AcDbEntity
  8
BEZUGSACHSEN
100
AcDbCircle
 62
7
  6
CONTINUOUS
 10
963.9081174072
 20
220.0930951441
 40
12.5701343637
100
AcDbArc
 50
1.4414269704
 51
2.5976462914
  0
ARC
  5
47A
100
AcDbEntity
  8
BEZUGSACHSEN
100
AcDbCircle
 62
7
  6
CONTINUOUS
 10
964.3477640761
 20
220.287516161
 40
10.3157816397
100
AcDbArc
 50
178.9489716498
 51
180.5521022936
  0
ARC
  5
47B
100
AcDbEntity
  8
BEZUGSACHSEN
100
AcDbCircle
 62
7
  6
CONTINUOUS
 10
963.7420073255
 20
219.3081932792
 40
10.1020561013
100
AcDbArc
 50
178.9267419633
 51
180.7948144419
  0
ARC
  5
47C
100
AcDbEntity
  8
BEZUGSACHSEN
100
AcDbCircle
 62
7
  6
CONTINUOUS
 10
962.2318224604
 20
216.8599825741
 40
9.5719505789
100
AcDbArc
 50
180.7082343104
 51
181.4343683694
  0
ARC
  5
47D
100
AcDbEntity
  8
BEZUGSACHSEN
100
AcDbCircle
 62
7
  6
CONTINUOUS
 10
960.5100354198
 20
212.6161435329
 40
9.542290268
100
AcDbArc
 50
179.3829929594
 51
180.4213602991
  0
ARC
  5
47E
100
AcDbEntity
  8
BEZUGSACHSEN
100
AcDbCircle
 62
7
  6
CONTINUOUS
 10
961.6281925661
 20
215.8807015919
 40
9.3603523467
100
AcDbArc
 50
180.7245116828
 51
181.7070803823
  0
ARC
  5
47F
100
AcDbEntity
  8
BEZUGSACHSEN
100
AcDbCircle
 62
7
  6
CONTINUOUS
 10
960.2068178102
 20
213.5954661165
 40
8.8537160601
100
AcDbArc
 50
178.775393901
 51
180.9580066179
  0
ARC
  5
480
100
AcDbEntity
  8
BEZUGSACHSEN
100
AcDbCircle
 62
7
  6
CONTINUOUS
 10
953.0284203612
 20
215.0377094935
 40
3.4390020933
100
AcDbArc
 50
235.9024438093
 51
236.5814244001
  0
ARC
  5
481
100
AcDbEntity
  8
BEZUGSACHSEN
100
AcDbCircle
 62
7
  6
CONTINUOUS
 10
954.1800232806
 20
213.8842062945
 40
3.1527206068
100
AcDbArc
 50
184.8715560153
 51
186.53282981
  0
ARC
  5
482
100
AcDbEntity
  8
BEZUGSACHSEN
100
AcDbCircle
 62
7
  6
CONTINUOUS
 10
954.1475230423
 20
213.8804344875
 40
3.1200022706
100
AcDbArc
 50
186.5319174366
 51
188.2132199344
  0
ARC
  5
483
100
AcDbEntity
  8
BEZUGSACHSEN
100
AcDbCircle
 62
7
  6
CONTINUOUS
 10
954.1169626923
 20
213.8761054531
 40
3.089136936
100
AcDbArc
 50
188.2147248125
 51
189.1636099448
  0
ARC
  5
484
100
AcDbEntity
  8
BEZUGSACHSEN
100
AcDbCircle
 62
7
  6
CONTINUOUS
 10
955.2282853018
 20
223.0313411694
 40
2.8201049795
100
AcDbArc
 50
243.5852672915
 51
244.9385743503
  0
ARC
  5
485
100
AcDbEntity
  8
BEZUGSACHSEN
100
AcDbCircle
 62
7
  6
CONTINUOUS
 10
956.4983371983
 20
221.8793516511
 40
2.4517992153
100
AcDbArc
 50
170.6790289377
 51
181.1444518321
  0
ARC
  5
486
100
AcDbEntity
  8
BEZUGSACHSEN
100
AcDbCircle
 62
7
  6
CONTINUOUS
 10
956.1113352534
 20
221.0372911184
 40
2.3915062809
100
AcDbArc
 50
173.1645860878
 51
181.6416353452
  0
ARC
  5
487
100
AcDbEntity
  8
BEZUGSACHSEN
100
AcDbCircle
 62
7
  6
CONTINUOUS
 10
955.0312412168
 20
218.5055313189
 40
2.2916312459
100
AcDbArc
 50
172.7968216743
 51
175.0166132928
  0
ARC
  5
488
100
AcDbEntity
  8
BEZUGSACHSEN
100
AcDbCircle
 62
7
  6
CONTINUOUS
 10
954.998682372
 20
218.5083207536
 40
2.2589531669
100
AcDbArc
 50
175.015360444
 51
179.500180894
  0
ARC
  5
489
100
AcDbEntity
  8
BEZUGSACHSEN
100
AcDbCircle
 62
7
  6
CONTINUOUS
 10
954.988313752
 20
218.5086434255
 40
2.2485821387
100
AcDbArc
 50
179.5060978069
 51
181.7562087219
  0
ARC
  5
48A
100
AcDbEntity
  8
BEZUGSACHSEN
100
AcDbCircle
 62
7
  6
CONTINUOUS
 10
954.56648529
 20
217.4963920624
 40
2.2187740431
100
AcDbArc
 50
172.6235467861
 51
180.8032858449
  0
ARC
  5
48B
100
AcDbEntity
  8
BEZUGSACHSEN
100
AcDbCircle
 62
7
  6
CONTINUOUS
 10
951.7264476243
 20
214.0974975057
 40
1.8046534475
100
AcDbArc
 50
245.738812645
 51
247.4704221691
  0
ARC
  5
48C
100
AcDbEntity
  8
BEZUGSACHSEN
100
AcDbCircle
 62
7
  6
CONTINUOUS
 10
952.0442473687
 20
213.5848434526
 40
1.6841731442
100
AcDbArc
 50
234.3201982421
 51
235.5148287165
  0
ARC
  5
48D
100
AcDbEntity
  8
BEZUGSACHSEN
100
AcDbCircle
 62
7
  6
CONTINUOUS
 10
1132.3709643446
 20
160.7451594502
 40
186.5090489153
100
AcDbArc
 50
166.2221738245
 51
166.3881678362
  0
ARC
  5
48E
100
AcDbEntity
  8
BEZUGSACHSEN
100
AcDbCircle
 62
7
  6
CONTINUOUS
 10
1107.5917115786
 20
170.8519594235
 40
161.7624580853
100
AcDbArc
 50
161.7280912846
 51
161.9443574562
  0
ARC
  5
48F
100
AcDbEntity
  8
BEZUGSACHSEN
100
AcDbCircle
 62
7
  6
CONTINUOUS
 10
1103.8862206465
 20
167.4800278341
 40
159.4301732754
100
AcDbArc
 50
162.8306433934
 51
162.9586724072
  0
ARC
  5
490
100
AcDbEntity
  8
BEZUGSACHSEN
100
AcDbCircle
 62
7
  6
CONTINUOUS
 10
1088.3003416402
 20
138.4418955546
 40
155.8981310184
100
AcDbArc
 50
151.3860174466
 51
151.5947872811
  0
ARC
  5
491
100
AcDbEntity
  8
BEZUGSACHSEN
100
AcDbCircle
 62
7
  6
CONTINUOUS
 10
1074.2872453972
 20
159.2620495414
 40
135.0362413688
100
AcDbArc
 50
153.1115103678
 51
153.3487312203
  0
ARC
  5
492
100
AcDbEntity
  8
BEZUGSACHSEN
100
AcDbCircle
 62
7
  6
CONTINUOUS
 10
996.022036677
 20
185.005923073
 40
52.8958195771
100
AcDbArc
 50
147.2006996972
 51
147.4723832394
  0
ARC
  5
493
100
AcDbEntity
  8
RUNDUNGEN
100
AcDbCircle
 62
7
  6
CONTINUOUS
 10
968.9287422287
 20
83.2457911262
 40
25.9898519221
100
AcDbArc
 50
320.7607589097
 51
321.6199191079
  0
ARC
  5
494
100
AcDbEntity
  8
RUNDUNGEN
100
AcDbCircle
 62
7
  6
CONTINUOUS
 10
969.0419142672
 20
83.1561842564
 40
25.8455006114
100
AcDbArc
 50
321.6198702071
 51
322.5438881046
  0
ARC
  5
495
100
AcDbEntity
  8
RUNDUNGEN
100
AcDbCircle
 62
7
  6
CONTINUOUS
 10
969.2112303042
 20
83.0271035131
 40
25.632593347
100
AcDbArc
 50
322.5427629842
 51
324.338035866
  0
ARC
  5
496
100
AcDbEntity
  8
0
100
AcDbCircle
 62
7
  6
CONTINUOUS
 10
968.1501980501
 20
124.8210828667
 40
8.903738951
100
AcDbArc
 50
7.4135167201
 51
9.596158687
  0
ARC
  5
497
100
AcDbEntity
  8
0
100
AcDbCircle
 62
7
  6
CONTINUOUS
 10
968.1860473126
 20
124.8257339763
 40
8.8675892309
100
AcDbArc
 50
4.7068764944
 51
7.4136031972
  0
ARC
  5
498
100
AcDbEntity
  8
RUNDUNGEN
100
AcDbCircle
 62
7
  6
CONTINUOUS
 10
981.3037872292
 20
157.5602761265
 40
4.999681038
100
AcDbArc
 50
359.9991027651
 51
47.7976001042
  0
ARC
  5
499
100
AcDbEntity
  8
RUNDUNGEN
100
AcDbCircle
 62
7
  6
CONTINUOUS
 10
989.6343590188
 20
75.5560039432
 40
4.6835615754
100
AcDbArc
 50
324.3393226563
 51
330.2362664982
  0
ARC
  5
49A
100
AcDbEntity
  8
BEZUGSACHSEN
100
AcDbCircle
 62
7
  6
CONTINUOUS
 10
986.7216294921
 20
68.7179316949
 40
3.019317416
100
AcDbArc
 50
302.345041267
 51
320.7024304922
  0
ARC
  5
49B
100
AcDbEntity
  8
RUNDUNGEN
100
AcDbCircle
 62
7
  6
CONTINUOUS
 10
986.7216294921
 20
68.7179316949
 40
3.019317416
100
AcDbArc
 50
302.345041267
 51
320.7024304922
  0
ARC
  5
49C
100
AcDbEntity
  8
BEZUGSACHSEN
100
AcDbCircle
 62
7
  6
CONTINUOUS
 10
970.1717272766
 20
197.2698524905
 40
24.4156177405
100
AcDbArc
 50
141.1626803094
 51
141.3620966902
  0
ARC
  5
49D
100
AcDbEntity
  8
BEZUGSACHSEN
100
AcDbCircle
 62
7
  6
CONTINUOUS
 10
970.8163044527
 20
206.5301853914
 40
20.0563821661
100
AcDbArc
 50
188.5241695865
 51
189.1255281568
  0
ARC
  5
49E
100
AcDbEntity
  8
BEZUGSACHSEN
100
AcDbCircle
 62
7
  6
CONTINUOUS
 10
968.6858472477
 20
209.6659839631
 40
17.992229495
100
AcDbArc
 50
168.7998865934
 51
169.9513003803
  0
ARC
  5
49F
100
AcDbEntity
  8
BEZUGSACHSEN
100
AcDbCircle
 62
7
  6
CONTINUOUS
 10
966.9576253292
 20
208.8126272052
 40
16.5043961778
100
AcDbArc
 50
163.9005305514
 51
164.7250650023
  0
ARC
  5
4A0
100
AcDbEntity
  8
BEZUGSACHSEN
100
AcDbCircle
 62
7
  6
CONTINUOUS
 10
965.4854146769
 20
210.8673727286
 40
14.8245111635
100
AcDbArc
 50
148.7742173482
 51
149.2828747407
  0
ARC
  5
4A1
100
AcDbEntity
  8
BEZUGSACHSEN
100
AcDbCircle
 62
7
  6
CONTINUOUS
 10
967.5520377794
 20
209.6893022456
 40
12.7397972006
100
AcDbArc
 50
18.7098781817
 51
19.246421794
  0
ARC
  5
4A2
100
AcDbEntity
  8
BEZUGSACHSEN
100
AcDbCircle
 62
7
  6
CONTINUOUS
 10
967.3034682666
 20
210.8545650159
 40
12.0
100
AcDbArc
 50
3.42016017
 51
6.2881801386
  0
ARC
  5
4A3
100
AcDbEntity
  8
BEZUGSACHSEN
100
AcDbCircle
 62
7
  6
CONTINUOUS
 10
968.4471458682
 20
210.2997030526
 40
11.8569570356
100
AcDbArc
 50
19.9850225655
 51
21.1362117409
  0
ARC
  5
4A4
100
AcDbEntity
  8
BEZUGSACHSEN
100
AcDbCircle
 62
7
  6
CONTINUOUS
 10
968.5278244089
 20
209.1509650862
 40
11.7768881777
100
AcDbArc
 50
20.8576061841
 51
21.2170010535
  0
ARC
  5
4A5
100
AcDbEntity
  8
BEZUGSACHSEN
100
AcDbCircle
 62
7
  6
CONTINUOUS
 10
968.1937988433
 20
211.3866149488
 40
11.6579490728
100
AcDbArc
 50
13.1134557892
 51
13.8224698727
  0
ARC
  5
4A6
100
AcDbEntity
  8
BEZUGSACHSEN
100
AcDbCircle
 62
7
  6
CONTINUOUS
 10
968.7594980468
 20
212.4926654445
 40
10.7890205386
100
AcDbArc
 50
358.5348808499
 51
359.4325217439
  0
ARC
  5
4A7
100
AcDbEntity
  8
BEZUGSACHSEN
100
AcDbCircle
 62
7
  6
CONTINUOUS
 10
968.3846411869
 20
213.4635124525
 40
10.7724809215
100
AcDbArc
 50
358.5299258435
 51
359.2042082944
  0
ARC
  5
4A8
100
AcDbEntity
  8
0
100
AcDbCircle
 62
7
  6
CONTINUOUS
 10
969.2807948156
 20
205.4985612531
 40
10.0357894774
100
AcDbArc
 50
19.4423293108
 51
23.1798502174
  0
ARC
  5
4A9
100
AcDbEntity
  8
BEZUGSACHSEN
100
AcDbCircle
 62
7
  6
CONTINUOUS
 10
970.0969011134
 20
212.6161435329
 40
9.542290268
100
AcDbArc
 50
359.5786397009
 51
0.6170070406
  0
ARC
  5
4AA
100
AcDbEntity
  8
BEZUGSACHSEN
100
AcDbCircle
 62
7
  6
CONTINUOUS
 10
971.3099213089
 20
205.15363362
 40
9.0254103777
100
AcDbArc
 50
24.3240699472
 51
24.747767103
  0
ARC
  5
4AB
100
AcDbEntity
  8
BEZUGSACHSEN
100
AcDbCircle
 62
7
  6
CONTINUOUS
 10
971.356601295
 20
205.1745799012
 40
8.9742464456
100
AcDbArc
 50
22.9180657092
 51
24.324966768
  0
ARC
  5
4AC
100
AcDbEntity
  8
BEZUGSACHSEN
100
AcDbCircle
 62
7
  6
CONTINUOUS
 10
967.7278806972
 20
236.4572665776
 40
35.2622448373
100
AcDbArc
 50
289.3425448104
 51
289.5133998546
  0
ARC
  5
4AD
100
AcDbEntity
  8
BEZUGSACHSEN
100
AcDbCircle
 62
7
  6
CONTINUOUS
 10
969.0622628555
 20
220.672031836
 40
8.0525935262
100
AcDbArc
 50
336.4093749841
 51
337.5671793402
  0
ARC
  5
4AE
100
AcDbEntity
  8
0
100
AcDbCircle
 62
7
  6
CONTINUOUS
 10
968.446652402
 20
220.453666524
 40
7.8740585311
100
AcDbArc
 50
337.5708385762
 51
338.7449609821
  0
ARC
  5
4AF
100
AcDbEntity
  8
0
100
AcDbCircle
 62
7
  6
CONTINUOUS
 10
972.0177145107
 20
221.6863347078
 40
3.7090716009
100
AcDbArc
 50
352.9390177796
 51
1.3943362771
  0
ARC
  5
4B0
100
AcDbEntity
  8
BEZUGSACHSEN
100
AcDbCircle
 62
7
  6
CONTINUOUS
 10
974.076282422
 20
199.0761246305
 40
23.6395637092
100
AcDbArc
 50
166.3901626999
 51
167.1555933103
  0
ARC
  5
4B1
100
AcDbEntity
  8
BEZUGSACHSEN
100
AcDbCircle
 62
7
  6
CONTINUOUS
 10
972.7207779581
 20
206.9456122788
 40
23.1371394278
100
AcDbArc
 50
144.1211789146
 51
144.6473279647
  0
ARC
  5
4B2
100
AcDbEntity
  8
BEZUGSACHSEN
100
AcDbCircle
 62
7
  6
CONTINUOUS
 10
972.6740905401
 20
210.2930710745
 40
21.5799610465
100
AcDbArc
 50
178.1382570685
 51
178.8872016792
  0
ARC
  5
4B3
100
AcDbEntity
  8
BEZUGSACHSEN
100
AcDbCircle
 62
7
  6
CONTINUOUS
 10
978.1692542645
 20
206.9957159742
 40
4.0051617731
100
AcDbArc
 50
289.5034699878
 51
290.5667023056
  0
ARC
  5
4B4
100
AcDbEntity
  8
BEZUGSACHSEN
100
AcDbCircle
 62
7
  6
CONTINUOUS
 10
977.5785161721
 20
215.0377094935
 40
3.4390020933
100
AcDbArc
 50
303.4185755999
 51
304.0975561907
  0
ARC
  5
4B5
100
AcDbEntity
  8
BEZUGSACHSEN
100
AcDbCircle
 62
7
  6
CONTINUOUS
 10
976.3737904414
 20
213.8876962409
 40
3.2059700271
100
AcDbArc
 50
358.4120685275
 51
0.0461983325
  0
ARC
  5
4B6
100
AcDbEntity
  8
BEZUGSACHSEN
100
AcDbCircle
 62
7
  6
CONTINUOUS
 10
976.0387706865
 20
214.8957127273
 40
3.150914271
100
AcDbArc
 50
352.5543275573
 51
0.0242063608
  0
ARC
  5
4B7
100
AcDbEntity
  8
BEZUGSACHSEN
100
AcDbCircle
 62
7
  6
CONTINUOUS
 10
976.4302342142
 20
213.8847149688
 40
3.1494656342
100
AcDbArc
 50
350.1158216506
 51
358.43782888
  0
ARC
  5
4B8
100
AcDbEntity
  8
BEZUGSACHSEN
100
AcDbCircle
 62
7
  6
CONTINUOUS
 10
977.4389216677
 20
213.9546643846
 40
2.1869946701
100
AcDbArc
 50
351.8816836053
 51
355.3121402096
  0
ARC
  5
4B9
100
AcDbEntity
  8
BEZUGSACHSEN
100
AcDbCircle
 62
7
  6
CONTINUOUS
 10
977.4550344861
 20
213.9601926747
 40
2.1707402578
100
AcDbArc
 50
7.4216954137
 51
9.6552905427
  0
ARC
  5
4BA
100
AcDbEntity
  8
BEZUGSACHSEN
100
AcDbCircle
 62
7
  6
CONTINUOUS
 10
978.8804889089
 20
214.0974975057
 40
1.8046534475
100
AcDbArc
 50
292.5295778309
 51
294.261187355
  0
ARC
  5
4BB
100
AcDbEntity
  8
BEZUGSACHSEN
100
AcDbCircle
 62
7
  6
CONTINUOUS
 10
978.5536186184
 20
213.5976944007
 40
1.6999022756
100
AcDbArc
 50
304.0911784273
 51
305.6755052782
  0
ARC
  5
4BC
100
AcDbEntity
  8
BEZUGSACHSEN
100
AcDbCircle
 62
7
  6
CONTINUOUS
 10
974.0258975967
 20
216.9867904684
 40
20.557617615
100
AcDbArc
 50
166.3723861072
 51
167.1212572676
  0
ARC
  5
4BD
100
AcDbEntity
  8
BEZUGSACHSEN
100
AcDbCircle
 62
7
  6
CONTINUOUS
 10
977.1320698255
 20
232.5514120916
 40
19.469496832
100
AcDbArc
 50
275.7497959655
 51
275.9079711933
  0
ARC
  5
4BE
100
AcDbEntity
  8
BEZUGSACHSEN
100
AcDbCircle
 62
7
  6
CONTINUOUS
 10
973.0127590792
 20
225.1807807507
 40
9.231248743
100
AcDbArc
 50
294.0072852987
 51
294.4448052173
  0
ARC
  5
4BF
100
AcDbEntity
  8
BEZUGSACHSEN
100
AcDbCircle
 62
7
  6
CONTINUOUS
 10
972.6687980256
 20
217.1688663066
 40
5.5582356628
100
AcDbArc
 50
39.3495500181
 51
40.3804683607
  0
ARC
  5
4C0
100
AcDbEntity
  8
BEZUGSACHSEN
100
AcDbCircle
 62
7
  6
CONTINUOUS
 10
972.8283626396
 20
221.776188401
 40
3.6824412805
100
AcDbArc
 50
351.4764898802
 51
0.006230986
  0
ARC
  5
4C1
100
AcDbEntity
  8
BEZUGSACHSEN
100
AcDbCircle
 62
7
  6
CONTINUOUS
 10
973.3181965591
 20
220.7682127928
 40
3.5846389916
100
AcDbArc
 50
353.4639706757
 51
0.0257900762
  0
ARC
  5
4C2
100
AcDbEntity
  8
BEZUGSACHSEN
100
AcDbCircle
 62
7
  6
CONTINUOUS
 10
974.6067675191
 20
219.4745419395
 40
2.9874361262
100
AcDbArc
 50
48.8073455695
 51
50.4056519251
  0
ARC
  5
4C3
100
AcDbEntity
  8
0
100
AcDbCircle
 62
7
  6
CONTINUOUS
 10
965.3034682666
 20
302.2407694098
 40
22.5
100
AcDbArc
 50
180.0
 51
360.0
  0
ARC
  5
4C4
100
AcDbEntity
  8
BEZUGSACHSEN
100
AcDbCircle
 62
7
  6
CONTINUOUS
 10
1002.8196366735
 20
199.1840980436
 40
52.0465380059
100
AcDbArc
 50
174.3243916904
 51
175.0645328221
  0
ARC
  5
4C5
100
AcDbEntity
  8
BEZUGSACHSEN
100
AcDbCircle
 62
7
  6
CONTINUOUS
 10
996.8586647531
 20
193.5162616088
 40
50.4730603418
100
AcDbArc
 50
149.1016781773
 51
149.3107859509
  0
ARC
  5
4C6
100
AcDbEntity
  8
BEZUGSACHSEN
100
AcDbCircle
 62
7
  6
CONTINUOUS
 10
994.6517386572
 20
209.3448307469
 40
42.5494659671
100
AcDbArc
 50
164.1460172206
 51
164.3814545711
  0
ARC
  5
4C7
100
AcDbEntity
  8
BEZUGSACHSEN
100
AcDbCircle
 62
7
  6
CONTINUOUS
 10
989.2086522623
 20
198.7653612077
 40
41.3152696811
100
AcDbArc
 50
152.3260010393
 51
152.7368525978
  0
ARC
  5
4C8
100
AcDbEntity
  8
BEZUGSACHSEN
100
AcDbCircle
 62
7
  6
CONTINUOUS
 10
991.4207533936
 20
205.1102567378
 40
40.9939066362
100
AcDbArc
 50
167.4435702368
 51
167.783697831
  0
ARC
  5
4C9
100
AcDbEntity
  8
BEZUGSACHSEN
100
AcDbCircle
 62
7
  6
CONTINUOUS
 10
987.2994592394
 20
207.3443194307
 40
36.3391301027
100
AcDbArc
 50
177.9104752505
 51
181.4721734065
  0
ARC
  5
4CA
100
AcDbEntity
  8
BEZUGSACHSEN
100
AcDbCircle
 62
7
  6
CONTINUOUS
 10
986.3606356478
 20
207.314849462
 40
35.3998596743
100
AcDbArc
 50
181.4635296311
 51
182.1947945068
  0
ARC
  5
4CB
100
AcDbEntity
  8
BEZUGSACHSEN
100
AcDbCircle
 62
7
  6
CONTINUOUS
 10
985.1512885454
 20
208.0519398313
 40
33.8716073644
100
AcDbArc
 50
178.77750689
 51
182.1116555669
  0
ARC
  5
4CC
100
AcDbEntity
  8
0
100
AcDbCircle
 62
7
  6
CONTINUOUS
 10
965.3034682666
 20
807.2407694098
 40
22.5
100
AcDbArc
 50
0.0
 51
180.0
  0
SPLINE
  5
4CD
100
AcDbEntity
  8
KONSTRUKTIONSELEMENTE
100
AcDbSpline
 62
7
  6
CONTINUOUS
 70
0
 71
3
 72
13
 73
9
 74
0
 42
0.0000001
 43
0.0000001
 44
0.0000000001
 40
0.0
 40
0.0
 40
0.0
 40
0.0
 40
0.1205814004
 40
0.2413301363
 40
0.3630239401
 40
0.4860289892
 40
0.7377510631
 40
1.0
 40
1.0
 40
1.0
 40
1.0
 10
120.827170399
 20
128.9606587384
 30
0.0
 10
121.0527588672
 20
129.351389427
 30
0.0
 10
121.5852246274
 20
130.0897131677
 30
0.0
 10
122.5894047205
 20
131.0166185572
 30
0.0
 10
123.7584770573
 20
131.7413326246
 30
0.0
 10
125.4947503435
 20
132.4249764821
 30
0.0
 10
127.8987419211
 20
132.7290459771
 30
0.0
 10
129.8229219223
 20
132.432491847
 30
0.0
 10
130.7682369642
 20
132.1693685939
 30
0.0
  0
SPLINE
  5
4CE
100
AcDbEntity
  8
KONSTRUKTIONSELEMENTE
100
AcDbSpline
 62
7
  6
CONTINUOUS
 70
0
 71
3
 72
13
 73
9
 74
0
 42
0.0000001
 43
0.0000001
 44
0.0000000001
 40
0.0
 40
0.0
 40
0.0
 40
0.0
 40
0.2622429925
 40
0.5139423583
 40
0.6369453389
 40
0.7586282612
 40
0.8794111013
 40
1.0
 40
1.0
 40
1.0
 40
1.0
 10
136.3099576365
 20
128.9667592485
 30
0.0
 10
137.0092018247
 20
128.2796974403
 30
0.0
 10
138.2257027578
 20
126.7621706392
 30
0.0
 10
139.161862344
 20
124.5298064512
 30
0.0
 10
139.4366826837
 20
122.6860781612
 30
0.0
 10
139.3932363444
 20
121.3125075574
 30
0.0
 10
139.0923570157
 20
119.9806763673
 30
0.0
 10
138.7194784646
 20
119.1510453728
 30
0.0
 10
138.4940886362
 20
118.7606587384
 30
0.0
  0
SPLINE
  5
4CF
100
AcDbEntity
  8
KONSTRUKTIONSELEMENTE
100
AcDbSpline
 62
7
  6
CONTINUOUS
 70
0
 71
3
 72
10
 73
6
 74
0
 42
0.0000001
 43
0.0000001
 44
0.0000000001
 40
0.0
 40
0.0
 40
0.0
 40
0.0
 40
0.2488347756
 40
0.5438407514
 40
1.0
 40
1.0
 40
1.0
 40
1.0
 10
126.3697329832
 20
125.7606587384
 30
0.0
 10
126.4122551138
 20
125.8343092292
 30
0.0
 10
126.5666268191
 20
125.9539114118
 30
0.0
 10
126.8788558312
 20
126.0898954363
 30
0.0
 10
127.1329405014
 20
126.1440907643
 30
0.0
 10
127.2874025638
 20
126.1652275449
 30
0.0
  0
SPLINE
  5
4D0
100
AcDbEntity
  8
KONSTRUKTIONSELEMENTE
100
AcDbSpline
 62
7
  6
CONTINUOUS
 70
0
 71
3
 72
10
 73
6
 74
0
 42
0.0000001
 43
0.0000001
 44
0.0000000001
 40
0.0
 40
0.0
 40
0.0
 40
0.0
 40
0.4561635586
 40
0.7511952336
 40
1.0
 40
1.0
 40
1.0
 40
1.0
 10
132.8429708836
 20
122.9579088322
 30
0.0
 10
132.9019312351
 20
122.813543431
 30
0.0
 10
132.9820570513
 20
122.5663276929
 30
0.0
 10
133.0204347661
 20
122.2278603837
 30
0.0
 10
132.9940534968
 20
122.0343184336
 30
0.0
 10
132.9515260519
 20
121.9606587384
 30
0.0
  0
SPLINE
  5
4D1
100
AcDbEntity
  8
KONSTRUKTIONSELEMENTE
100
AcDbSpline
 62
7
  6
CONTINUOUS
 70
0
 71
3
 72
9
 73
5
 74
0
 42
0.0000001
 43
0.0000001
 44
0.0000000001
 40
0.0
 40
0.0
 40
0.0
 40
0.0
 40
0.2752644152
 40
1.0
 40
1.0
 40
1.0
 40
1.0
 10
129.2745707898
 20
115.5919854072
 30
0.0
 10
129.2461218583
 20
115.5427104125
 30
0.0
 10
129.091980893
 20
115.3963867593
 30
0.0
 10
128.896191136
 20
115.3165870803
 30
0.0
 10
128.7529587503
 20
115.2727016064
 30
0.0
  0
SPLINE
  5
4D2
100
AcDbEntity
  8
KONSTRUKTIONSELEMENTE
100
AcDbSpline
 62
7
  6
CONTINUOUS
 70
0
 71
3
 72
9
 73
5
 74
0
 42
0.0000001
 43
0.0000001
 44
0.0000000001
 40
0.0
 40
0.0
 40
0.0
 40
0.0
 40
0.7247302759
 40
1.0
 40
1.0
 40
1.0
 40
1.0
 10
122.6770670682
 20
118.7806538336
 30
0.0
 10
122.6434732006
 20
118.926632111
 30
0.0
 10
122.6146800103
 20
119.1360745072
 30
0.0
 10
122.6643300899
 20
119.3427126648
 30
0.0
 10
122.692777721
 20
119.3919854072
 30
0.0
  0
SPLINE
  5
4D3
100
AcDbEntity
  8
KONSTRUKTIONSELEMENTE
100
AcDbSpline
 62
7
  6
CONTINUOUS
 70
0
 71
3
 72
9
 73
5
 74
0
 42
0.0000001
 43
0.0000001
 44
0.0000000001
 40
0.0
 40
0.0
 40
0.0
 40
0.0
 40
0.4977738647
 40
1.0
 40
1.0
 40
1.0
 40
1.0
 10
134.817133374
 20
112.3919854072
 30
0.0
 10
134.4533090781
 20
111.7618232417
 30
0.0
 10
133.5065064846
 20
110.609459451
 30
0.0
 10
132.2505925068
 20
109.8140440358
 30
0.0
 10
131.5813693536
 20
109.5121718906
 30
0.0
  0
SPLINE
  5
4D4
100
AcDbEntity
  8
KONSTRUKTIONSELEMENTE
100
AcDbSpline
 62
7
  6
CONTINUOUS
 70
0
 71
3
 72
9
 73
5
 74
0
 42
0.0000001
 43
0.0000001
 44
0.0000000001
 40
0.0
 40
0.0
 40
0.0
 40
0.0
 40
0.5021776825
 40
1.0
 40
1.0
 40
1.0
 40
1.0
 10
116.2740711298
 20
118.3504368624
 30
0.0
 10
116.200918046
 20
119.0807671708
 30
0.0
 10
116.2618759481
 20
120.5659200089
 30
0.0
 10
116.7864056301
 20
121.9618488573
 30
0.0
 10
117.1502151368
 20
122.5919854072
 30
0.0
  0
SPLINE
  5
4D5
100
AcDbEntity
  8
KONSTRUKTIONSELEMENTE
100
AcDbSpline
 62
7
  6
CONTINUOUS
 70
0
 71
3
 72
9
 73
5
 74
0
 42
0.0000001
 43
0.0000001
 44
0.0000000001
 40
0.0
 40
0.0
 40
0.0
 40
0.0
 40
0.4922747915
 40
1.0
 40
1.0
 40
1.0
 40
1.0
 10
138.8396067182
 20
154.5044107529
 30
0.0
 10
139.5478749621
 20
154.625410494
 30
0.0
 10
141.0190220195
 20
154.7012358398
 30
0.0
 10
142.471238362
 20
154.4757289775
 30
0.0
 10
143.1901172413
 20
154.2956885508
 30
0.0
  0
SPLINE
  5
4D6
100
AcDbEntity
  8
KONSTRUKTIONSELEMENTE
100
AcDbSpline
 62
7
  6
CONTINUOUS
 70
0
 71
3
 72
9
 73
5
 74
0
 42
0.0000001
 43
0.0000001
 44
0.0000000001
 40
0.0
 40
0.0
 40
0.0
 40
0.0
 40
0.5077339443
 40
1.0
 40
1.0
 40
1.0
 40
1.0
 10
149.2568561027
 20
150.791447257
 30
0.0
 10
149.7714137217
 20
150.2593266959
 30
0.0
 10
150.6913184051
 20
149.1154693129
 30
0.0
 10
151.3602763466
 20
147.8050155089
 30
0.0
 10
151.6093377127
 20
147.1319520637
 30
0.0
  0
SPLINE
  5
4D7
100
AcDbEntity
  8
KONSTRUKTIONSELEMENTE
100
AcDbSpline
 62
7
  6
CONTINUOUS
 70
0
 71
3
 72
9
 73
5
 74
0
 42
0.0000001
 43
0.0000001
 44
0.0000000001
 40
0.0
 40
0.0
 40
0.0
 40
0.0
 40
0.4920422614
 40
1.0
 40
1.0
 40
1.0
 40
1.0
 10
142.1469441467
 20
130.9203768334
 30
0.0
 10
141.4065392694
 20
130.8034423007
 30
0.0
 10
139.86909663
 20
130.7496934623
 30
0.0
 10
138.3584886067
 20
131.0192796208
 30
0.0
 10
137.6128450622
 20
131.2262217493
 30
0.0
  0
SPLINE
  5
4D8
100
AcDbEntity
  8
KONSTRUKTIONSELEMENTE
100
AcDbSpline
 62
7
  6
CONTINUOUS
 70
0
 71
3
 72
9
 73
5
 74
0
 42
0.0000001
 43
0.0000001
 44
0.0000000001
 40
0.0
 40
0.0
 40
0.0
 40
0.0
 40
0.5079750284
 40
1.0
 40
1.0
 40
1.0
 40
1.0
 10
132.0622681978
 20
134.4312925821
 30
0.0
 10
131.5104488508
 20
134.9734980159
 30
0.0
 10
130.5220669142
 20
136.1466487836
 30
0.0
 10
129.8001759502
 20
137.5046095029
 30
0.0
 10
129.5313402827
 20
138.2040552554
 30
0.0
  0
SPLINE
  5
4D9
100
AcDbEntity
  8
KONSTRUKTIONSELEMENTE
100
AcDbSpline
 62
7
  6
CONTINUOUS
 70
0
 71
3
 72
11
 73
7
 74
0
 42
0.0000001
 43
0.0000001
 44
0.0000000001
 40
0.0
 40
0.0
 40
0.0
 40
0.0
 40
0.2313517462
 40
0.4775691394
 40
0.7351801865
 40
1.0
 40
1.0
 40
1.0
 40
1.0
 10
133.2639115382
 20
181.2734470433
 30
0.0
 10
134.0044249636
 20
179.6122085603
 30
0.0
 10
135.8325390342
 20
176.3114739553
 30
0.0
 10
139.361657346
 20
171.7114464532
 30
0.0
 10
143.6657160229
 20
167.4457620996
 30
0.0
 10
146.9365800739
 20
164.9410013425
 30
0.0
 10
148.6638766602
 20
163.778735505
 30
0.0
  0
SPLINE
  5
4DA
100
AcDbEntity
  8
KONSTRUKTIONSELEMENTE
100
AcDbSpline
 62
7
  6
CONTINUOUS
 70
0
 71
3
 72
11
 73
7
 74
0
 42
0.0000001
 43
0.0000001
 44
0.0000000001
 40
0.0
 40
0.0
 40
0.0
 40
0.0
 40
0.2648245591
 40
0.5224383814
 40
0.7686548251
 40
1.0
 40
1.0
 40
1.0
 40
1.0
 10
154.728915987
 20
160.2770732005
 30
0.0
 10
156.5995328688
 20
159.3621062174
 30
0.0
 10
160.4050162315
 20
157.7815144016
 30
0.0
 10
166.2525777424
 20
156.1868349436
 30
0.0
 10
172.0020988981
 20
155.4308162818
 30
0.0
 10
175.77540666
 20
155.4984467378
 30
0.0
 10
177.5846326778
 20
155.6880817223
 30
0.0
  0
SPLINE
  5
4DB
100
AcDbEntity
  8
KONSTRUKTIONSELEMENTE
100
AcDbSpline
 62
7
  6
CONTINUOUS
 70
0
 71
3
 72
9
 73
5
 74
0
 42
0.0000001
 43
0.0000001
 44
0.0000000001
 40
0.0
 40
0.0
 40
0.0
 40
0.0
 40
0.2450730537
 40
1.0
 40
1.0
 40
1.0
 40
1.0
 10
132.0168225674
 20
168.222729247
 30
0.0
 10
132.8910329101
 20
167.1384032715
 30
0.0
 10
136.6420977032
 20
162.8640850607
 30
0.0
 10
141.0738717037
 20
159.1980572518
 30
0.0
 10
144.6558691962
 20
156.8362902653
 30
0.0
  0
SPLINE
  5
4DC
100
AcDbEntity
  8
KONSTRUKTIONSELEMENTE
100
AcDbSpline
 62
7
  6
CONTINUOUS
 70
0
 71
3
 72
9
 73
5
 74
0
 42
0.0000001
 43
0.0000001
 44
0.0000000001
 40
0.0
 40
0.0
 40
0.0
 40
0.0
 40
0.2546360491
 40
1.0
 40
1.0
 40
1.0
 40
1.0
 10
150.7204401661
 20
153.3348889329
 30
0.0
 10
152.0138579864
 20
152.6871490982
 30
0.0
 10
157.1841236157
 20
150.3314210906
 30
0.0
 10
162.7109721301
 20
148.7372524408
 30
0.0
 10
166.8944568491
 20
148.0832723063
 30
0.0
  0
SPLINE
  5
4DD
100
AcDbEntity
  8
KONSTRUKTIONSELEMENTE
100
AcDbSpline
 62
7
  6
CONTINUOUS
 70
0
 71
3
 72
12
 73
8
 74
0
 42
0.0000001
 43
0.0000001
 44
0.0000000001
 40
0.0
 40
0.0
 40
0.0
 40
0.0
 40
0.1038096184
 40
0.2125411153
 40
0.4501979882
 40
0.7163641136
 40
1.0
 40
1.0
 40
1.0
 40
1.0
 10
55.9591774174
 20
14.5264120233
 30
0.0
 10
56.0790374407
 20
14.8537146597
 30
0.0
 10
56.238377233
 20
15.5581990715
 30
0.0
 10
56.2158237341
 20
17.081185075
 30
0.0
 10
55.5182617899
 20
19.0731626837
 30
0.0
 10
53.8812737322
 20
21.1904530146
 30
0.0
 10
52.3903039728
 20
22.319814006
 30
0.0
 10
51.5655381966
 20
22.7959927488
 30
0.0
  0
SPLINE
  5
4DE
100
AcDbEntity
  8
KONSTRUKTIONSELEMENTE
100
AcDbSpline
 62
7
  6
CONTINUOUS
 70
0
 71
3
 72
9
 73
5
 74
0
 42
0.0000001
 43
0.0000001
 44
0.0000000001
 40
0.0
 40
0.0
 40
0.0
 40
0.0
 40
0.7446194581
 40
1.0
 40
1.0
 40
1.0
 40
1.0
 10
65.5494588304
 20
92.8384283352
 30
0.0
 10
65.6330614713
 20
92.983353499
 30
0.0
 10
65.7124464829
 20
93.1993827821
 30
0.0
 10
65.7444273338
 20
93.4218847133
 30
0.0
 10
65.7497486291
 20
93.4790194695
 30
0.0
  0
SPLINE
  5
4DF
100
AcDbEntity
  8
KONSTRUKTIONSELEMENTE
100
AcDbSpline
 62
7
  6
CONTINUOUS
 70
0
 71
3
 72
11
 73
7
 74
0
 42
0.0000001
 43
0.0000001
 44
0.0000000001
 40
0.0
 40
0.0
 40
0.0
 40
0.0
 40
0.2165107186
 40
0.451460212
 40
0.7134365312
 40
1.0
 40
1.0
 40
1.0
 40
1.0
 10
51.8342503035
 20
99.8191454439
 30
0.0
 10
51.9461527663
 20
100.0131283442
 30
0.0
 10
52.2778776304
 20
100.3664274375
 30
0.0
 10
52.9721316769
 20
100.6609961604
 30
0.0
 10
53.791203877
 20
100.7239834763
 30
0.0
 10
54.3551776481
 20
100.6173580666
 30
0.0
 10
54.6385378997
 20
100.5303978813
 30
0.0
  0
SPLINE
  5
4E0
100
AcDbEntity
  8
KONSTRUKTIONSELEMENTE
100
AcDbSpline
 62
7
  6
CONTINUOUS
 70
0
 71
3
 72
11
 73
7
 74
0
 42
0.0000001
 43
0.0000001
 44
0.0000000001
 40
0.0
 40
0.0
 40
0.0
 40
0.0
 40
0.2165219707
 40
0.4514695353
 40
0.7134663306
 40
1.0
 40
1.0
 40
1.0
 40
1.0
 10
54.6949592014
 20
123.8148278114
 30
0.0
 10
55.0682163211
 20
124.4611176074
 30
0.0
 10
56.1741314717
 20
125.6380475708
 30
0.0
 10
58.4880873835
 20
126.6190463724
 30
0.0
 10
61.2175964073
 20
126.8283351718
 30
0.0
 10
63.0969689203
 20
126.4730408047
 30
0.0
 10
64.0411627315
 20
126.1832779734
 30
0.0
  0
SPLINE
  5
4E1
100
AcDbEntity
  8
KONSTRUKTIONSELEMENTE
100
AcDbSpline
 62
7
  6
CONTINUOUS
 70
0
 71
3
 72
9
 73
5
 74
0
 42
0.0000001
 43
0.0000001
 44
0.0000000001
 40
0.0
 40
0.0
 40
0.0
 40
0.0
 40
0.24703719
 40
1.0
 40
1.0
 40
1.0
 40
1.0
 10
52.9271922484
 20
120.7529656329
 30
0.0
 10
52.8345326854
 20
120.5925268176
 30
0.0
 10
52.4952624296
 20
119.9226637712
 30
0.0
 10
52.310505902
 20
119.1775470034
 30
0.0
 10
52.2581377954
 20
118.6152705557
 30
0.0
  0
SPLINE
  5
4E2
100
AcDbEntity
  8
KONSTRUKTIONSELEMENTE
100
AcDbSpline
 62
7
  6
CONTINUOUS
 70
0
 71
3
 72
9
 73
5
 74
0
 42
0.0000001
 43
0.0000001
 44
0.0000000001
 40
0.0
 40
0.0
 40
0.0
 40
0.0
 40
0.247037646
 40
1.0
 40
1.0
 40
1.0
 40
1.0
 10
103.727417379
 20
11.0515140185
 30
0.0
 10
103.8200328364
 20
11.2119904423
 30
0.0
 10
104.2305252531
 20
11.8407820915
 30
0.0
 10
104.7834644367
 20
12.3733795073
 30
0.0
 10
105.2442510984
 20
12.6998875759
 30
0.0
  0
SPLINE
  5
4E3
100
AcDbEntity
  8
KONSTRUKTIONSELEMENTE
100
AcDbSpline
 62
7
  6
CONTINUOUS
 70
0
 71
3
 72
11
 73
7
 74
0
 42
0.0000001
 43
0.0000001
 44
0.0000000001
 40
0.0
 40
0.0
 40
0.0
 40
0.0
 40
0.2203815833
 40
0.4602540562
 40
0.7212311482
 40
1.0
 40
1.0
 40
1.0
 40
1.0
 10
104.8856550457
 20
12.4182277113
 30
0.0
 10
104.7778083184
 20
11.7989668799
 30
0.0
 10
104.7788777374
 20
10.4606110702
 30
0.0
 10
105.3721228363
 20
8.4679668296
 30
0.0
 10
106.4992470113
 20
6.5307586817
 30
0.0
 10
107.5351255692
 20
5.376861119
 30
0.0
 10
108.1172107926
 20
4.8352092959
 30
0.0
  0
SPLINE
  5
4E4
100
AcDbEntity
  8
KONSTRUKTIONSELEMENTE
100
AcDbSpline
 62
7
  6
CONTINUOUS
 70
0
 71
3
 72
11
 73
7
 74
0
 42
0.0000001
 43
0.0000001
 44
0.0000000001
 40
0.0
 40
0.0
 40
0.0
 40
0.0
 40
0.2094829334
 40
0.4446557434
 40
0.7120095299
 40
1.0
 40
1.0
 40
1.0
 40
1.0
 10
42.3017177504
 20
-1.2494149362
 30
0.0
 10
42.161156663
 20
-1.4928738811
 30
0.0
 10
42.0173774842
 20
-2.1070564411
 30
0.0
 10
42.2770664695
 20
-3.0553508095
 30
0.0
 10
42.9054783412
 20
-3.9308077606
 30
0.0
 10
43.5044341804
 20
-4.3932933336
 30
0.0
 10
43.83913379
 20
-4.5865322433
 30
0.0
  0
SPLINE
  5
4E5
100
AcDbEntity
  8
KONSTRUKTIONSELEMENTE
100
AcDbSpline
 62
7
  6
CONTINUOUS
 70
0
 71
3
 72
10
 73
6
 74
0
 42
0.0000001
 43
0.0000001
 44
0.0000000001
 40
0.0
 40
0.0
 40
0.0
 40
0.0
 40
0.2176045202
 40
0.4537200981
 40
1.0
 40
1.0
 40
1.0
 40
1.0
 10
116.2376278242
 20
-3.4050249438
 30
0.0
 10
116.2749405403
 20
-3.3403852932
 30
0.0
 10
116.3215508427
 20
-3.1856636578
 30
0.0
 10
116.278888063
 20
-2.8384540792
 30
0.0
 10
116.1126143671
 20
-2.6048093614
 30
0.0
 10
115.9754468644
 20
-2.4771699284
 30
0.0
  0
SPLINE
  5
4E6
100
AcDbEntity
  8
KONSTRUKTIONSELEMENTE
100
AcDbSpline
 62
7
  6
CONTINUOUS
 70
0
 71
3
 72
9
 73
5
 74
0
 42
0.0000001
 43
0.0000001
 44
0.0000000001
 40
0.0
 40
0.0
 40
0.0
 40
0.0
 40
0.2557501717
 40
1.0
 40
1.0
 40
1.0
 40
1.0
 10
179.5357081032
 20
39.5806820508
 30
0.0
 10
179.692115421
 20
39.6915104568
 30
0.0
 10
180.281772831
 20
40.154763181
 30
0.0
 10
180.7729794796
 20
40.7448796534
 30
0.0
 10
181.0519136934
 20
41.2279739951
 30
0.0
  0
SPLINE
  5
4E7
100
AcDbEntity
  8
KONSTRUKTIONSELEMENTE
100
AcDbSpline
 62
7
  6
CONTINUOUS
 70
0
 71
3
 72
9
 73
5
 74
0
 42
0.0000001
 43
0.0000001
 44
0.0000000001
 40
0.0
 40
0.0
 40
0.0
 40
0.0
 40
0.5421687125
 40
1.0
 40
1.0
 40
1.0
 40
1.0
 10
177.0097255359
 20
38.9617669039
 30
0.0
 10
177.1962066851
 20
38.7882392994
 30
0.0
 10
177.6281669082
 20
38.5545217061
 30
0.0
 10
178.1524668193
 20
38.600533367
 30
0.0
 10
178.3279764566
 20
38.7248974545
 30
0.0
  0
SPLINE
  5
4E8
100
AcDbEntity
  8
KONSTRUKTIONSELEMENTE
100
AcDbSpline
 62
7
  6
CONTINUOUS
 70
0
 71
3
 72
8
 73
4
 74
0
 42
0.0000001
 43
0.0000001
 44
0.0000000001
 40
0.0
 40
0.0
 40
0.0
 40
0.0
 40
1.0
 40
1.0
 40
1.0
 40
1.0
 10
114.3181991856
 20
-6.6316861527
 30
0.0
 10
114.3791119621
 20
-6.5885240678
 30
0.0
 10
114.4325387496
 20
-6.5315430668
 30
0.0
 10
114.4698608713
 20
-6.4668871223
 30
0.0
  0
SPLINE
  5
4E9
100
AcDbEntity
  8
KONSTRUKTIONSELEMENTE
100
AcDbSpline
 62
7
  6
CONTINUOUS
 70
0
 71
3
 72
11
 73
7
 74
0
 42
0.0000001
 43
0.0000001
 44
0.0000000001
 40
0.0
 40
0.0
 40
0.0
 40
0.0
 40
0.2773556544
 40
0.5416273378
 40
0.7832845041
 40
1.0
 40
1.0
 40
1.0
 40
1.0
 10
102.7361785468
 20
-6.7473902319
 30
0.0
 10
103.6338540727
 20
-7.2656634384
 30
0.0
 10
105.5041300092
 20
-8.0899217761
 30
0.0
 10
108.4086234364
 20
-8.6365046466
 30
0.0
 10
111.1369153705
 20
-8.4314568315
 30
0.0
 10
112.7547290354
 20
-7.7395429147
 30
0.0
 10
113.4155634271
 20
-7.2712833516
 30
0.0
  0
SPLINE
  5
4EA
100
AcDbEntity
  8
KONSTRUKTIONSELEMENTE
100
AcDbSpline
 62
7
  6
CONTINUOUS
 70
0
 71
3
 72
12
 73
8
 74
0
 42
0.0000001
 43
0.0000001
 44
0.0000000001
 40
0.0
 40
0.0
 40
0.0
 40
0.0
 40
0.2874378001
 40
0.5543027143
 40
0.7890463209
 40
0.896415877
 40
1.0
 40
1.0
 40
1.0
 40
1.0
 10
81.1836070061
 20
5.6959927488
 30
0.0
 10
80.2911157343
 20
6.2112728249
 30
0.0
 10
78.4237135153
 20
6.976449632
 30
0.0
 10
75.5670468772
 20
7.2662450388
 30
0.0
 10
73.3857159789
 20
6.681250954
 30
0.0
 10
72.0862417015
 20
5.7230141155
 30
0.0
 10
71.6126684242
 20
5.1186408488
 30
0.0
 10
71.426976651
 20
4.7970132633
 30
0.0
  0
SPLINE
  5
4EB
100
AcDbEntity
  8
KONSTRUKTIONSELEMENTE
100
AcDbSpline
 62
7
  6
CONTINUOUS
 70
0
 71
3
 72
11
 73
7
 74
0
 42
0.0000001
 43
0.0000001
 44
0.0000000001
 40
0.0
 40
0.0
 40
0.0
 40
0.0
 40
0.2165288812
 40
0.4514682898
 40
0.7134745045
 40
1.0
 40
1.0
 40
1.0
 40
1.0
 10
182.8196806463
 20
44.2898361736
 30
0.0
 10
183.1929180285
 20
44.9362569369
 30
0.0
 10
183.6596193702
 20
46.4825356153
 30
0.0
 10
183.3524054563
 20
48.9773404995
 30
0.0
 10
182.1688816908
 20
51.4461058802
 30
0.0
 10
180.9213777995
 20
52.8962176028
 30
0.0
 10
180.198282315
 20
53.5690846877
 30
0.0
  0
SPLINE
  5
4EC
100
AcDbEntity
  8
KONSTRUKTIONSELEMENTE
100
AcDbSpline
 62
7
  6
CONTINUOUS
 70
0
 71
3
 72
9
 73
5
 74
0
 42
0.0000001
 43
0.0000001
 44
0.0000000001
 40
0.0
 40
0.0
 40
0.0
 40
0.0
 40
0.2668708834
 40
1.0
 40
1.0
 40
1.0
 40
1.0
 10
64.4339155511
 20
97.5243028107
 30
0.0
 10
64.5785245936
 20
97.4799238653
 30
0.0
 10
65.1283591299
 20
97.3449069776
 30
0.0
 10
65.7185863123
 20
97.3398143957
 30
0.0
 10
66.1212515434
 20
97.4424756998
 30
0.0
  0
SPLINE
  5
4ED
100
AcDbEntity
  8
KONSTRUKTIONSELEMENTE
100
AcDbSpline
 62
7
  6
CONTINUOUS
 70
0
 71
3
 72
11
 73
7
 74
0
 42
0.0000001
 43
0.0000001
 44
0.0000000001
 40
0.0
 40
0.0
 40
0.0
 40
0.0
 40
0.2879904701
 40
0.5553442566
 40
0.7905170666
 40
1.0
 40
1.0
 40
1.0
 40
1.0
 10
61.3328469464
 20
-14.6865322433
 30
0.0
 10
61.667546556
 20
-14.879771153
 30
0.0
 10
62.3675487308
 20
-15.167239339
 30
0.0
 10
63.4399226262
 20
-15.2737315083
 30
0.0
 10
64.3910141321
 20
-15.0244815825
 30
0.0
 10
64.8510222422
 20
-14.5928738811
 30
0.0
 10
64.9915833296
 20
-14.3494149362
 30
0.0
  0
SPLINE
  5
4EE
100
AcDbEntity
  8
KONSTRUKTIONSELEMENTE
100
AcDbSpline
 62
7
  6
CONTINUOUS
 70
0
 71
3
 72
11
 73
7
 74
0
 42
0.0000001
 43
0.0000001
 44
0.0000000001
 40
0.0
 40
0.0
 40
0.0
 40
0.0
 40
0.2809363762
 40
0.5390132064
 40
0.7759685789
 40
1.0
 40
1.0
 40
1.0
 40
1.0
 10
80.8817189346
 20
5.6855367359
 30
0.0
 10
80.2849793568
 20
5.7487263432
 30
0.0
 10
79.122774756
 20
5.7565773274
 30
0.0
 10
77.492102138
 20
5.3686903239
 30
0.0
 10
76.1389202017
 20
4.5914296882
 30
0.0
 10
75.4838955282
 20
3.8238028807
 30
0.0
 10
75.2446316568
 20
3.409385699
 30
0.0
  0
SPLINE
  5
4EF
100
AcDbEntity
  8
KONSTRUKTIONSELEMENTE
100
AcDbSpline
 62
7
  6
CONTINUOUS
 70
0
 71
3
 72
11
 73
7
 74
0
 42
0.0000001
 43
0.0000001
 44
0.0000000001
 40
0.0
 40
0.0
 40
0.0
 40
0.0
 40
0.2802845588
 40
0.5380420842
 40
0.7752557276
 40
1.0
 40
1.0
 40
1.0
 40
1.0
 10
51.8491345692
 20
22.4867287601
 30
0.0
 10
52.1843326803
 20
22.0084836219
 30
0.0
 10
52.7402144244
 20
21.0229276051
 30
0.0
 10
53.1846399749
 20
19.4513453459
 30
0.0
 10
53.1717523998
 20
17.9285098436
 30
0.0
 10
52.838620861
 20
17.0010366057
 30
0.0
 10
52.6044757127
 20
16.5954853126
 30
0.0
  0
SPLINE
  5
4F0
100
AcDbEntity
  8
KONSTRUKTIONSELEMENTE
100
AcDbSpline
 62
7
  6
CONTINUOUS
 70
0
 71
3
 72
9
 73
5
 74
0
 42
0.0000001
 43
0.0000001
 44
0.0000000001
 40
0.0
 40
0.0
 40
0.0
 40
0.0
 40
0.2553805419
 40
1.0
 40
1.0
 40
1.0
 40
1.0
 10
50.573300333
 20
97.3414370025
 30
0.0
 10
50.5786216283
 20
97.3985717587
 30
0.0
 10
50.6106024792
 20
97.6210736899
 30
0.0
 10
50.6899874908
 20
97.837102973
 30
0.0
 10
50.7735901317
 20
97.9820281368
 30
0.0
  0
SPLINE
  5
4F1
100
AcDbEntity
  8
KONSTRUKTIONSELEMENTE
100
AcDbSpline
 62
7
  6
CONTINUOUS
 70
0
 71
3
 72
9
 73
5
 74
0
 42
0.0000001
 43
0.0000001
 44
0.0000000001
 40
0.0
 40
0.0
 40
0.0
 40
0.0
 40
0.2401439602
 40
1.0
 40
1.0
 40
1.0
 40
1.0
 10
51.9149743521
 20
114.9307240929
 30
0.0
 10
51.9090779976
 20
114.8674149243
 30
0.0
 10
51.8991195426
 20
114.6024575667
 30
0.0
 10
51.9465420074
 20
114.3367711177
 30
0.0
 10
52.0064008166
 20
114.1446943837
 30
0.0
  0
SPLINE
  5
4F2
100
AcDbEntity
  8
KONSTRUKTIONSELEMENTE
100
AcDbSpline
 62
7
  6
CONTINUOUS
 70
0
 71
3
 72
11
 73
7
 74
0
 42
0.0000001
 43
0.0000001
 44
0.0000000001
 40
0.0
 40
0.0
 40
0.0
 40
0.0
 40
0.218430057
 40
0.4594392003
 40
0.7221962123
 40
1.0
 40
1.0
 40
1.0
 40
1.0
 10
44.2526154061
 20
32.6599633063
 30
0.0
 10
44.1852851461
 20
31.9370381923
 30
0.0
 10
44.3373605499
 20
30.3829543005
 30
0.0
 10
45.2854724587
 20
28.1477277468
 30
0.0
 10
46.8640886598
 20
26.0567198218
 30
0.0
 10
48.2376395322
 20
24.8755540517
 30
0.0
 10
48.9933090522
 20
24.3448474294
 30
0.0
  0
SPLINE
  5
4F3
100
AcDbEntity
  8
KONSTRUKTIONSELEMENTE
100
AcDbSpline
 62
7
  6
CONTINUOUS
 70
0
 71
3
 72
12
 73
8
 74
0
 42
0.0000001
 43
0.0000001
 44
0.0000000001
 40
0.0
 40
0.0
 40
0.0
 40
0.0
 40
0.214597601
 40
0.3340131511
 40
0.4606650373
 40
0.7282666641
 40
1.0
 40
1.0
 40
1.0
 40
1.0
 10
155.9689802566
 20
48.6428406231
 30
0.0
 10
156.8041514145
 20
49.2346331908
 30
0.0
 10
158.3659410693
 20
49.8036016536
 30
0.0
 10
160.5623456106
 20
49.9486787584
 30
0.0
 10
163.011447452
 20
49.6970214958
 30
0.0
 10
166.0548456152
 20
48.6402844891
 30
0.0
 10
168.2026373484
 20
47.1570881059
 30
0.0
 10
169.1514894641
 20
46.2741461282
 30
0.0
  0
SPLINE
  5
4F4
100
AcDbEntity
  8
KONSTRUKTIONSELEMENTE
100
AcDbSpline
 62
7
  6
CONTINUOUS
 70
0
 71
3
 72
11
 73
7
 74
0
 42
0.0000001
 43
0.0000001
 44
0.0000000001
 40
0.0
 40
0.0
 40
0.0
 40
0.0
 40
0.2165288812
 40
0.4514682898
 40
0.7134745045
 40
1.0
 40
1.0
 40
1.0
 40
1.0
 10
181.0519136934
 20
41.2279739951
 30
0.0
 10
181.4251510755
 20
41.8743947584
 30
0.0
 10
181.8918524172
 20
43.4206734369
 30
0.0
 10
181.5846385034
 20
45.915478321
 30
0.0
 10
180.4011147379
 20
48.3842437017
 30
0.0
 10
179.1536108466
 20
49.8343554243
 30
0.0
 10
178.430515362
 20
50.5072225093
 30
0.0
  0
SPLINE
  5
4F5
100
AcDbEntity
  8
KONSTRUKTIONSELEMENTE
100
AcDbSpline
 62
7
  6
CONTINUOUS
 70
0
 71
3
 72
9
 73
5
 74
0
 42
0.0000001
 43
0.0000001
 44
0.0000000001
 40
0.0
 40
0.0
 40
0.0
 40
0.0
 40
0.5381008783
 40
1.0
 40
1.0
 40
1.0
 40
1.0
 10
63.0987246248
 20
92.7395483334
 30
0.0
 10
63.5135272765
 20
92.6122499023
 30
0.0
 10
64.3308321348
 20
92.4938175008
 30
0.0
 10
65.1438201734
 20
92.7407477432
 30
0.0
 10
65.447777983
 20
92.9559909681
 30
0.0
  0
SPLINE
  5
4F6
100
AcDbEntity
  8
KONSTRUKTIONSELEMENTE
100
AcDbSpline
 62
7
  6
CONTINUOUS
 70
0
 71
3
 72
8
 73
4
 74
0
 42
0.0000001
 43
0.0000001
 44
0.0000000001
 40
0.0
 40
0.0
 40
0.0
 40
0.0
 40
1.0
 40
1.0
 40
1.0
 40
1.0
 10
65.447777983
 20
92.9559909681
 30
0.0
 10
65.534723394
 20
93.0175600742
 30
0.0
 10
65.6162885534
 20
93.0876825814
 30
0.0
 10
65.6895527067
 20
93.16503
 30
0.0
  0
SPLINE
  5
4F7
100
AcDbEntity
  8
KONSTRUKTIONSELEMENTE
100
AcDbSpline
 62
7
  6
CONTINUOUS
 70
0
 71
3
 72
11
 73
7
 74
0
 42
0.0000001
 43
0.0000001
 44
0.0000000001
 40
0.0
 40
0.0
 40
0.0
 40
0.0
 40
0.2825292704
 40
0.5442891309
 40
0.7820757896
 40
1.0
 40
1.0
 40
1.0
 40
1.0
 10
63.3732553794
 20
95.6871855036
 30
0.0
 10
63.6263436687
 20
95.609515455
 30
0.0
 10
64.1308975208
 20
95.5080973732
 30
0.0
 10
64.8708503916
 20
95.5321015662
 30
0.0
 10
65.5212169961
 20
95.7384122574
 30
0.0
 10
65.8703430106
 20
96.0038248411
 30
0.0
 10
66.0048692534
 20
96.1574506549
 30
0.0
  0
SPLINE
  5
4F8
100
AcDbEntity
  8
KONSTRUKTIONSELEMENTE
100
AcDbSpline
 62
7
  6
CONTINUOUS
 70
0
 71
3
 72
10
 73
6
 74
0
 42
0.0000001
 43
0.0000001
 44
0.0000000001
 40
0.0
 40
0.0
 40
0.0
 40
0.0
 40
0.2176045202
 40
0.4537200981
 40
1.0
 40
1.0
 40
1.0
 40
1.0
 10
114.4698608713
 20
-6.4668871223
 30
0.0
 10
114.5071735874
 20
-6.4022474716
 30
0.0
 10
114.5537838897
 20
-6.2475258362
 30
0.0
 10
114.51112111
 20
-5.9003162577
 30
0.0
 10
114.3448474141
 20
-5.6666715399
 30
0.0
 10
114.2076799114
 20
-5.5390321068
 30
0.0
  0
SPLINE
  5
4F9
100
AcDbEntity
  8
KONSTRUKTIONSELEMENTE
100
AcDbSpline
 62
7
  6
CONTINUOUS
 70
0
 71
3
 72
11
 73
7
 74
0
 42
0.0000001
 43
0.0000001
 44
0.0000000001
 40
0.0
 40
0.0
 40
0.0
 40
0.0
 40
0.2165107186
 40
0.451460212
 40
0.7134365312
 40
1.0
 40
1.0
 40
1.0
 40
1.0
 10
50.7735901317
 20
97.9820281368
 30
0.0
 10
50.8854925945
 20
98.1760110371
 30
0.0
 10
51.2172174586
 20
98.5293101304
 30
0.0
 10
51.9114715051
 20
98.8238788533
 30
0.0
 10
52.7305437052
 20
98.8868661693
 30
0.0
 10
53.2945174763
 20
98.7802407596
 30
0.0
 10
53.5778777279
 20
98.6932805743
 30
0.0
  0
SPLINE
  5
4FA
100
AcDbEntity
  8
KONSTRUKTIONSELEMENTE
100
AcDbSpline
 62
7
  6
CONTINUOUS
 70
0
 71
3
 72
11
 73
7
 74
0
 42
0.0000001
 43
0.0000001
 44
0.0000000001
 40
0.0
 40
0.0
 40
0.0
 40
0.0
 40
0.2865634688
 40
0.548539788
 40
0.7834892814
 40
1.0
 40
1.0
 40
1.0
 40
1.0
 10
62.7451712342
 20
92.1271758977
 30
0.0
 10
63.0285314858
 20
92.0402157124
 30
0.0
 10
63.5925052569
 20
91.9335903027
 30
0.0
 10
64.411577457
 20
91.9965776187
 30
0.0
 10
65.1058315035
 20
92.2911463415
 30
0.0
 10
65.4375563676
 20
92.6444454348
 30
0.0
 10
65.5494588304
 20
92.8384283352
 30
0.0
  0
SPLINE
  5
4FB
100
AcDbEntity
  8
KONSTRUKTIONSELEMENTE
100
AcDbSpline
 62
7
  6
CONTINUOUS
 70
0
 71
3
 72
11
 73
7
 74
0
 42
0.0000001
 43
0.0000001
 44
0.0000000001
 40
0.0
 40
0.0
 40
0.0
 40
0.0
 40
0.2865336694
 40
0.5485304647
 40
0.7834780293
 40
1.0
 40
1.0
 40
1.0
 40
1.0
 10
62.2733957785
 20
123.1214157949
 30
0.0
 10
61.3292019673
 20
123.4111786262
 30
0.0
 10
59.4498294543
 20
123.7664729933
 30
0.0
 10
56.7203204305
 20
123.557184194
 30
0.0
 10
54.4063645187
 20
122.5761853923
 30
0.0
 10
53.3004493682
 20
121.3992554289
 30
0.0
 10
52.9271922484
 20
120.7529656329
 30
0.0
  0
SPLINE
  5
4FC
100
AcDbEntity
  8
KONSTRUKTIONSELEMENTE
100
AcDbSpline
 62
7
  6
CONTINUOUS
 70
0
 71
3
 72
11
 73
7
 74
0
 42
0.0000001
 43
0.0000001
 44
0.0000000001
 40
0.0
 40
0.0
 40
0.0
 40
0.0
 40
0.286535685
 40
0.5485338619
 40
0.7834775224
 40
1.0
 40
1.0
 40
1.0
 40
1.0
 10
106.3494438397
 20
1.7733471175
 30
0.0
 10
105.6264083458
 20
2.4461583788
 30
0.0
 10
104.3790343819
 20
3.8960867467
 30
0.0
 10
103.1955389663
 20
6.3645216373
 30
0.0
 10
102.8881096518
 20
8.858922107
 30
0.0
 10
103.3543626038
 20
10.4051154808
 30
0.0
 10
103.727417379
 20
11.0515140185
 30
0.0
  0
LINE
  5
4FD
100
AcDbEntity
  8
BEZUGSACHSEN
100
AcDbLine
 62
7
  6
CONTINUOUS
 10
510.8210167375
 20
65.5219709362
 11
510.763348492
 21
65.590083098
  0
SPLINE
  5
4FE
100
AcDbEntity
  8
BEZUGSACHSEN
100
AcDbSpline
 62
7
  6
CONTINUOUS
 70
0
 71
3
 72
9
 73
5
 74
0
 42
0.0000001
 43
0.0000001
 44
0.0000000001
 40
0.0
 40
0.0
 40
0.0
 40
0.0
 40
0.5173663479
 40
1.0
 40
1.0
 40
1.0
 40
1.0
 10
495.6255142371
 20
82.0678494319
 30
0.0
 10
495.7144102672
 20
81.6061790612
 30
0.0
 10
496.0674300699
 20
80.7294421148
 30
0.0
 10
496.7932360237
 20
80.1207389374
 30
0.0
 10
497.183156115
 20
79.9199359064
 30
0.0
  0
SPLINE
  5
4FF
100
AcDbEntity
  8
BEZUGSACHSEN
100
AcDbSpline
 62
7
  6
CONTINUOUS
 70
0
 71
3
 72
9
 73
5
 74
0
 42
0.0000001
 43
0.0000001
 44
0.0000000001
 40
0.0
 40
0.0
 40
0.0
 40
0.0
 40
0.4826336521
 40
1.0
 40
1.0
 40
1.0
 40
1.0
 10
548.394057311
 20
109.4865634974
 30
0.0
 10
548.4151168307
 20
109.9246457174
 30
0.0
 10
548.2508673926
 20
110.8575637003
 30
0.0
 10
547.6681008259
 20
111.6016562906
 30
0.0
 10
547.3127305718
 20
111.9094776963
 30
0.0
  0
SPLINE
  5
500
100
AcDbEntity
  8
BEZUGSACHSEN
100
AcDbSpline
 62
7
  6
CONTINUOUS
 70
0
 71
3
 72
11
 73
7
 74
0
 42
0.0000001
 43
0.0000001
 44
0.0000000001
 40
0.0
 40
0.0
 40
0.0
 40
0.0
 40
0.2449026047
 40
0.4922101403
 40
0.7439897683
 40
1.0
 40
1.0
 40
1.0
 40
1.0
 10
486.5268341869
 20
108.6311217358
 30
0.0
 10
486.2155397078
 20
107.9604926873
 30
0.0
 10
485.6874048645
 20
106.5632350578
 30
0.0
 10
485.3021948045
 20
104.3329998446
 30
0.0
 10
485.4667471208
 20
102.0327875126
 30
0.0
 10
486.0256951836
 20
100.5739913407
 30
0.0
 10
486.4121401325
 20
99.9046490548
 30
0.0
  0
SPLINE
  5
501
100
AcDbEntity
  8
BEZUGSACHSEN
100
AcDbSpline
 62
7
  6
CONTINUOUS
 70
0
 71
3
 72
11
 73
7
 74
0
 42
0.0000001
 43
0.0000001
 44
0.0000000001
 40
0.0
 40
0.0
 40
0.0
 40
0.0
 40
0.255989082
 40
0.5077658608
 40
0.7550832605
 40
1.0
 40
1.0
 40
1.0
 40
1.0
 10
536.4722960284
 20
128.8068935369
 30
0.0
 10
536.0858831285
 20
129.4761803121
 30
0.0
 10
535.1020574959
 20
130.6895830176
 30
0.0
 10
533.1923691324
 20
131.9822315573
 30
0.0
 10
531.0682710765
 20
132.7637975285
 30
0.0
 10
529.5940732738
 20
133.0050725431
 30
0.0
 10
528.8576019741
 20
133.0708019127
 30
0.0
  0
SPLINE
  5
502
100
AcDbEntity
  8
BEZUGSACHSEN
100
AcDbSpline
 62
7
  6
CONTINUOUS
 70
0
 71
3
 72
9
 73
5
 74
0
 42
0.0000001
 43
0.0000001
 44
0.0000000001
 40
0.0
 40
0.0
 40
0.0
 40
0.0
 40
0.4999180081
 40
1.0
 40
1.0
 40
1.0
 40
1.0
 10
493.8015211893
 20
87.105865628
 30
0.0
 10
494.2495379015
 20
86.3298779198
 30
0.0
 10
494.9993062424
 20
84.6889772846
 30
0.0
 10
495.4560369216
 20
82.9480085904
 30
0.0
 10
495.6255142371
 20
82.0678494319
 30
0.0
  0
SPLINE
  5
503
100
AcDbEntity
  8
BEZUGSACHSEN
100
AcDbSpline
 62
7
  6
CONTINUOUS
 70
0
 71
3
 72
9
 73
5
 74
0
 42
0.0000001
 43
0.0000001
 44
0.0000000001
 40
0.0
 40
0.0
 40
0.0
 40
0.0
 40
0.5000819919
 40
1.0
 40
1.0
 40
1.0
 40
1.0
 10
547.3127305718
 20
111.9094776963
 30
0.0
 10
546.6352290389
 20
112.4963289362
 30
0.0
 10
545.3558712621
 20
113.7623536542
 30
0.0
 10
544.3096937973
 20
115.2321224019
 30
0.0
 10
543.8616770851
 20
116.0081101101
 30
0.0
  0
SPLINE
  5
504
100
AcDbEntity
  8
BEZUGSACHSEN
100
AcDbSpline
 62
7
  6
CONTINUOUS
 70
0
 71
3
 72
9
 73
5
 74
0
 42
0.0000001
 43
0.0000001
 44
0.0000000001
 40
0.0
 40
0.0
 40
0.0
 40
0.0
 40
0.2547129413
 40
1.0
 40
1.0
 40
1.0
 40
1.0
 10
497.183156115
 20
79.9199359064
 30
0.0
 10
497.6326269894
 20
79.6884651104
 30
0.0
 10
499.3663782651
 20
78.7298001605
 30
0.0
 10
500.971586577
 20
77.471594986
 30
0.0
 10
501.9009095151
 20
76.3206482356
 30
0.0
  0
SPLINE
  5
505
100
AcDbEntity
  8
BEZUGSACHSEN
100
AcDbSpline
 62
7
  6
CONTINUOUS
 70
0
 71
3
 72
9
 73
5
 74
0
 42
0.0000001
 43
0.0000001
 44
0.0000000001
 40
0.0
 40
0.0
 40
0.0
 40
0.0
 40
0.2466680508
 40
1.0
 40
1.0
 40
1.0
 40
1.0
 10
549.1522551694
 20
103.6012253686
 30
0.0
 10
548.9759416263
 20
104.0586010138
 30
0.0
 10
548.4000485102
 20
105.967891764
 30
0.0
 10
548.3221748485
 20
107.9912573732
 30
0.0
 10
548.394057311
 20
109.4865634974
 30
0.0
  0
LINE
  5
506
100
AcDbEntity
  8
BEZUGSACHSEN
100
AcDbLine
 62
7
  6
CONTINUOUS
 10
553.9235305458
 20
90.8126299757
 11
554.0441304267
 21
90.4768472599
  0
SPLINE
  5
507
100
AcDbEntity
  8
0
100
AcDbSpline
 62
7
  6
CONTINUOUS
 70
0
 71
3
 72
9
 73
5
 74
0
 42
0.0000001
 43
0.0000001
 44
0.0000000001
 40
0.0
 40
0.0
 40
0.0
 40
0.0
 40
0.5173663479
 40
1.0
 40
1.0
 40
1.0
 40
1.0
 10
139.9896840373
 20
82.0678494319
 30
0.0
 10
139.9007880072
 20
81.6061790612
 30
0.0
 10
139.5477682046
 20
80.7294421148
 30
0.0
 10
138.8219622508
 20
80.1207389374
 30
0.0
 10
138.4320421595
 20
79.9199359064
 30
0.0
  0
SPLINE
  5
508
100
AcDbEntity
  8
0
100
AcDbSpline
 62
7
  6
CONTINUOUS
 70
0
 71
3
 72
9
 73
5
 74
0
 42
0.0000001
 43
0.0000001
 44
0.0000000001
 40
0.0
 40
0.0
 40
0.0
 40
0.0
 40
0.2466680508
 40
1.0
 40
1.0
 40
1.0
 40
1.0
 10
86.4629431051
 20
103.6012253686
 30
0.0
 10
86.6392566481
 20
104.0586010138
 30
0.0
 10
87.2151497643
 20
105.967891764
 30
0.0
 10
87.2930234259
 20
107.9912573732
 30
0.0
 10
87.2211409634
 20
109.4865634974
 30
0.0
  0
SPLINE
  5
509
100
AcDbEntity
  8
0
100
AcDbSpline
 62
7
  6
CONTINUOUS
 70
0
 71
3
 72
9
 73
5
 74
0
 42
0.0000001
 43
0.0000001
 44
0.0000000001
 40
0.0
 40
0.0
 40
0.0
 40
0.0
 40
0.2547129413
 40
1.0
 40
1.0
 40
1.0
 40
1.0
 10
138.4320421595
 20
79.9199359064
 30
0.0
 10
137.982571285
 20
79.6884651104
 30
0.0
 10
136.2488200093
 20
78.7298001605
 30
0.0
 10
134.6436116974
 20
77.471594986
 30
0.0
 10
133.7142887593
 20
76.3206482356
 30
0.0
  0
SPLINE
  5
50A
100
AcDbEntity
  8
0
100
AcDbSpline
 62
7
  6
CONTINUOUS
 70
0
 71
3
 72
9
 73
5
 74
0
 42
0.0000001
 43
0.0000001
 44
0.0000000001
 40
0.0
 40
0.0
 40
0.0
 40
0.0
 40
0.5000819919
 40
1.0
 40
1.0
 40
1.0
 40
1.0
 10
88.3024677027
 20
111.9094776963
 30
0.0
 10
88.9799692355
 20
112.4963289362
 30
0.0
 10
90.2593270124
 20
113.7623536542
 30
0.0
 10
91.3055044771
 20
115.2321224019
 30
0.0
 10
91.7535211893
 20
116.0081101101
 30
0.0
  0
SPLINE
  5
50B
100
AcDbEntity
  8
0
100
AcDbSpline
 62
7
  6
CONTINUOUS
 70
0
 71
3
 72
9
 73
5
 74
0
 42
0.0000001
 43
0.0000001
 44
0.0000000001
 40
0.0
 40
0.0
 40
0.0
 40
0.0
 40
0.4999180081
 40
1.0
 40
1.0
 40
1.0
 40
1.0
 10
141.8136770851
 20
87.105865628
 30
0.0
 10
141.3656603729
 20
86.3298779198
 30
0.0
 10
140.615892032
 20
84.6889772846
 30
0.0
 10
140.1591613529
 20
82.9480085904
 30
0.0
 10
139.9896840373
 20
82.0678494319
 30
0.0
  0
SPLINE
  5
50C
100
AcDbEntity
  8
0
100
AcDbSpline
 62
7
  6
CONTINUOUS
 70
0
 71
3
 72
11
 73
7
 74
0
 42
0.0000001
 43
0.0000001
 44
0.0000000001
 40
0.0
 40
0.0
 40
0.0
 40
0.0
 40
0.255989082
 40
0.5077658608
 40
0.7550832605
 40
1.0
 40
1.0
 40
1.0
 40
1.0
 10
99.1429022461
 20
128.8068935369
 30
0.0
 10
99.5293151459
 20
129.4761803121
 30
0.0
 10
100.5131407785
 20
130.6895830176
 30
0.0
 10
102.422829142
 20
131.9822315573
 30
0.0
 10
104.5469271979
 20
132.7637975285
 30
0.0
 10
106.0211250007
 20
133.0050725431
 30
0.0
 10
106.7575963004
 20
133.0708019127
 30
0.0
  0
SPLINE
  5
50D
100
AcDbEntity
  8
0
100
AcDbSpline
 62
7
  6
CONTINUOUS
 70
0
 71
3
 72
11
 73
7
 74
0
 42
0.0000001
 43
0.0000001
 44
0.0000000001
 40
0.0
 40
0.0
 40
0.0
 40
0.0
 40
0.2449026047
 40
0.4922101403
 40
0.7439897683
 40
1.0
 40
1.0
 40
1.0
 40
1.0
 10
149.0883640876
 20
108.6311217358
 30
0.0
 10
149.3996585667
 20
107.9604926873
 30
0.0
 10
149.92779341
 20
106.5632350578
 30
0.0
 10
150.3130034699
 20
104.3329998446
 30
0.0
 10
150.1484511536
 20
102.0327875126
 30
0.0
 10
149.5895030908
 20
100.5739913407
 30
0.0
 10
149.2030581419
 20
99.9046490548
 30
0.0
  0
SPLINE
  5
50E
100
AcDbEntity
  8
0
100
AcDbSpline
 62
7
  6
CONTINUOUS
 70
0
 71
3
 72
9
 73
5
 74
0
 42
0.0000001
 43
0.0000001
 44
0.0000000001
 40
0.0
 40
0.0
 40
0.0
 40
0.0
 40
0.4826336521
 40
1.0
 40
1.0
 40
1.0
 40
1.0
 10
87.2211409634
 20
109.4865634974
 30
0.0
 10
87.2000814438
 20
109.9246457174
 30
0.0
 10
87.3643308818
 20
110.8575637003
 30
0.0
 10
87.9470974486
 20
111.6016562906
 30
0.0
 10
88.3024677027
 20
111.9094776963
 30
0.0
  0
SPLINE
  5
50F
100
AcDbEntity
  8
KONSTRUKTIONSELEMENTE
100
AcDbSpline
 62
7
  6
CONTINUOUS
 70
0
 71
3
 72
14
 73
10
 74
0
 42
0.0000001
 43
0.0000001
 44
0.0000000001
 40
0.0
 40
0.0
 40
0.0
 40
0.0
 40
0.2681553591
 40
0.3915126194
 40
0.50985396
 40
0.6272318756
 40
0.747520332
 40
0.8723037564
 40
1.0
 40
1.0
 40
1.0
 40
1.0
 10
869.8704814037
 20
151.8250390507
 30
0.0
 10
870.5305804304
 20
152.3967015768
 30
0.0
 10
871.5520274283
 20
153.1729225146
 30
0.0
 10
873.0107917637
 20
153.9716315239
 30
0.0
 10
874.1013314591
 20
154.4042437885
 30
0.0
 10
875.2407996671
 20
154.6514243449
 30
0.0
 10
876.4324728075
 20
154.6512866029
 30
0.0
 10
877.6198414612
 20
154.3327079276
 30
0.0
 10
878.3296674517
 20
153.888028854
 30
0.0
 10
878.6437592813
 20
153.6155145451
 30
0.0
  0
SPLINE
  5
510
100
AcDbEntity
  8
KONSTRUKTIONSELEMENTE
100
AcDbSpline
 62
7
  6
CONTINUOUS
 70
0
 71
3
 72
11
 73
7
 74
0
 42
0.0000001
 43
0.0000001
 44
0.0000000001
 40
0.0
 40
0.0
 40
0.0
 40
0.0
 40
0.3728834025
 40
0.6854808532
 40
0.9081073968
 40
1.0
 40
1.0
 40
1.0
 40
1.0
 10
874.0602648963
 20
146.9870937962
 30
0.0
 10
874.2785038646
 20
147.1760942868
 30
0.0
 10
874.6912752615
 20
147.5105685507
 30
0.0
 10
875.2719742911
 20
147.908714292
 30
0.0
 10
875.6978445324
 20
148.143533511
 30
0.0
 10
875.9239361363
 20
148.2364704731
 30
0.0
 10
875.99232331
 20
148.2560955125
 30
0.0
  0
SPLINE
  5
511
100
AcDbEntity
  8
KONSTRUKTIONSELEMENTE
100
AcDbSpline
 62
7
  6
CONTINUOUS
 70
0
 71
3
 72
13
 73
9
 74
0
 42
0.0000001
 43
0.0000001
 44
0.0000000001
 40
0.0
 40
0.0
 40
0.0
 40
0.0
 40
0.1316973557
 40
0.2620567894
 40
0.3900192549
 40
0.5147550585
 40
0.756658895
 40
1.0
 40
1.0
 40
1.0
 40
1.0
 10
878.6437592813
 20
153.6155145451
 30
0.0
 10
878.8471349228
 20
153.4390605048
 30
0.0
 10
879.2186193271
 20
153.047166965
 30
0.0
 10
879.6445876083
 20
152.3675893938
 30
0.0
 10
879.9344613835
 20
151.6354449425
 30
0.0
 10
880.1400155189
 20
150.6410768535
 30
0.0
 10
880.1165074433
 20
149.3786728387
 30
0.0
 10
879.8778129016
 20
148.4098449419
 30
0.0
 10
879.724372172
 20
147.9365896031
 30
0.0
  0
SPLINE
  5
512
100
AcDbEntity
  8
KONSTRUKTIONSELEMENTE
100
AcDbSpline
 62
7
  6
CONTINUOUS
 70
0
 71
3
 72
17
 73
13
 74
0
 42
0.0000001
 43
0.0000001
 44
0.0000000001
 40
0.0
 40
0.0
 40
0.0
 40
0.0
 40
0.0605252461
 40
0.1202095418
 40
0.1783206278
 40
0.2348588393
 40
0.3456548951
 40
0.4617755893
 40
0.5883105192
 40
0.7239025317
 40
0.8633239296
 40
1.0
 40
1.0
 40
1.0
 40
1.0
 10
857.9330764943
 20
131.8279449706
 30
0.0
 10
857.6893813708
 20
132.039381251
 30
0.0
 10
857.2531448476
 20
132.5185101144
 30
0.0
 10
856.7911796528
 20
133.3581986192
 30
0.0
 10
856.5253715398
 20
134.2555453012
 30
0.0
 10
856.4098896585
 20
135.4578697296
 30
0.0
 10
856.6299786862
 20
136.9726742878
 30
0.0
 10
857.28917678
 20
138.7458831937
 30
0.0
 10
858.2547829636
 20
140.5218924075
 30
0.0
 10
859.4808878871
 20
142.2809152668
 30
0.0
 10
860.9061281432
 20
143.9537109349
 30
0.0
 10
861.9658305849
 20
144.9794106335
 30
0.0
 10
862.5165708794
 20
145.4563657195
 30
0.0
  0
SPLINE
  5
513
100
AcDbEntity
  8
KONSTRUKTIONSELEMENTE
100
AcDbSpline
 62
7
  6
CONTINUOUS
 70
0
 71
3
 72
25
 73
21
 74
0
 42
0.0000001
 43
0.0000001
 44
0.0000000001
 40
0.0
 40
0.0
 40
0.0
 40
0.0
 40
0.0042469725
 40
0.0046566945
 40
0.0054175942
 40
0.0103899607
 40
0.0196468446
 40
0.0328167232
 40
0.0495536369
 40
0.0695298707
 40
0.0924202952
 40
0.1456942527
 40
0.2073652625
 40
0.2757654002
 40
0.3494880459
 40
0.4273393028
 40
0.5081869854
 40
0.6747634259
 40
0.8413821781
 40
1.0
 40
1.0
 40
1.0
 40
1.0
 10
862.8619746846
 20
135.2467893276
 30
0.0
 10
862.8619014652
 20
135.2372394815
 30
0.0
 10
862.8621743301
 20
135.2300797693
 30
0.0
 10
862.8603826308
 20
135.213329251
 30
0.0
 10
862.8631252242
 20
135.2369457965
 30
0.0
 10
862.8676484934
 20
135.2575100527
 30
0.0
 10
862.8809896272
 20
135.3261874134
 30
0.0
 10
862.9022153155
 20
135.4077930599
 30
0.0
 10
862.9346693642
 20
135.5167073671
 30
0.0
 10
862.9778142275
 20
135.6431023039
 30
0.0
 10
863.0540434982
 20
135.8456678751
 30
0.0
 10
863.1775664367
 20
136.1300273592
 30
0.0
 10
863.3614978187
 20
136.4992343655
 30
0.0
 10
863.5848779075
 20
136.8995386209
 30
0.0
 10
863.8442110775
 20
137.3209225489
 30
0.0
 10
864.1352527582
 20
137.7551877737
 30
0.0
 10
864.564811994
 20
138.3473723418
 30
0.0
 10
865.1508971399
 20
139.0718605058
 30
0.0
 10
865.9031565108
 20
139.883570107
 30
0.0
 10
866.4367278291
 20
140.3849170294
 30
0.0
 10
866.7063543719
 20
140.6184204649
 30
0.0
  0
SPLINE
  5
514
100
AcDbEntity
  8
KONSTRUKTIONSELEMENTE
100
AcDbSpline
 62
7
  6
CONTINUOUS
 70
0
 71
3
 72
9
 73
5
 74
0
 42
0.0000001
 43
0.0000001
 44
0.0000000001
 40
0.0
 40
0.0
 40
0.0
 40
0.0
 40
0.4961581806
 40
1.0
 40
1.0
 40
1.0
 40
1.0
 10
859.6938168485
 20
130.9291545014
 30
0.0
 10
859.3735667397
 20
131.0058650225
 30
0.0
 10
858.7436451218
 20
131.2353744979
 30
0.0
 10
858.1856658092
 20
131.6087918565
 30
0.0
 10
857.9330764943
 20
131.8279449706
 30
0.0
  0
SPLINE
  5
515
100
AcDbEntity
  8
KONSTRUKTIONSELEMENTE
100
AcDbSpline
 62
7
  6
CONTINUOUS
 70
0
 71
3
 72
14
 73
10
 74
0
 42
0.0000001
 43
0.0000001
 44
0.0000000001
 40
0.0
 40
0.0
 40
0.0
 40
0.0
 40
0.2681553591
 40
0.3915126194
 40
0.50985396
 40
0.6272318756
 40
0.747520332
 40
0.8723037564
 40
1.0
 40
1.0
 40
1.0
 40
1.0
 10
844.414637281
 20
129.7796313657
 30
0.0
 10
845.0747363077
 20
130.3512938918
 30
0.0
 10
846.0961833056
 20
131.1275148295
 30
0.0
 10
847.554947641
 20
131.9262238389
 30
0.0
 10
848.6454873364
 20
132.3588361035
 30
0.0
 10
849.7849555443
 20
132.6060166599
 30
0.0
 10
850.9766286847
 20
132.6058789179
 30
0.0
 10
852.1639973385
 20
132.2873002425
 30
0.0
 10
852.8738233289
 20
131.8426211689
 30
0.0
 10
853.1879151586
 20
131.57010686
 30
0.0
  0
SPLINE
  5
516
100
AcDbEntity
  8
KONSTRUKTIONSELEMENTE
100
AcDbSpline
 62
7
  6
CONTINUOUS
 70
0
 71
3
 72
11
 73
7
 74
0
 42
0.0000001
 43
0.0000001
 44
0.0000000001
 40
0.0
 40
0.0
 40
0.0
 40
0.0
 40
0.3728834025
 40
0.6854808532
 40
0.9081073968
 40
1.0
 40
1.0
 40
1.0
 40
1.0
 10
848.6044207736
 20
124.9416861111
 30
0.0
 10
848.8226597419
 20
125.1306866018
 30
0.0
 10
849.2354311388
 20
125.4651608657
 30
0.0
 10
849.8161301684
 20
125.8633066069
 30
0.0
 10
850.2420004097
 20
126.098125826
 30
0.0
 10
850.4680920136
 20
126.1910627881
 30
0.0
 10
850.5364791873
 20
126.2106878274
 30
0.0
  0
SPLINE
  5
517
100
AcDbEntity
  8
KONSTRUKTIONSELEMENTE
100
AcDbSpline
 62
7
  6
CONTINUOUS
 70
0
 71
3
 72
11
 73
7
 74
0
 42
0.0000001
 43
0.0000001
 44
0.0000000001
 40
0.0
 40
0.0
 40
0.0
 40
0.0
 40
0.2614344484
 40
0.515038786
 40
0.7587064224
 40
1.0
 40
1.0
 40
1.0
 40
1.0
 10
853.1879151586
 20
131.57010686
 30
0.0
 10
853.5563540203
 20
131.2504396409
 30
0.0
 10
854.1727606389
 20
130.4812828215
 30
0.0
 10
854.6388953999
 20
129.1198504547
 30
0.0
 10
854.6954057556
 20
127.7281496218
 30
0.0
 10
854.5313153986
 20
126.8324323643
 30
0.0
 10
854.417039648
 20
126.3969708825
 30
0.0
  0
SPLINE
  5
518
100
AcDbEntity
  8
KONSTRUKTIONSELEMENTE
100
AcDbSpline
 62
7
  6
CONTINUOUS
 70
0
 71
3
 72
9
 73
5
 74
0
 42
0.0000001
 43
0.0000001
 44
0.0000000001
 40
0.0
 40
0.0
 40
0.0
 40
0.0
 40
0.2539746107
 40
1.0
 40
1.0
 40
1.0
 40
1.0
 10
850.1282194132
 20
119.4039711637
 30
0.0
 10
850.0053377324
 20
119.2740435522
 30
0.0
 10
849.5154262075
 20
118.7682692685
 30
0.0
 10
849.0015125772
 20
118.2855777007
 30
0.0
 10
848.6044207736
 20
117.9416861111
 30
0.0
  0
SPLINE
  5
519
100
AcDbEntity
  8
KONSTRUKTIONSELEMENTE
100
AcDbSpline
 62
7
  6
CONTINUOUS
 70
0
 71
3
 72
17
 73
13
 74
0
 42
0.0000001
 43
0.0000001
 44
0.0000000001
 40
0.0
 40
0.0
 40
0.0
 40
0.0
 40
0.0605252461
 40
0.1202095418
 40
0.1783206278
 40
0.2348588393
 40
0.3456548951
 40
0.4617755893
 40
0.5883105192
 40
0.7239025317
 40
0.8633239296
 40
1.0
 40
1.0
 40
1.0
 40
1.0
 10
832.4772323716
 20
109.7825372855
 30
0.0
 10
832.233537248
 20
109.9939735659
 30
0.0
 10
831.7973007249
 20
110.4731024294
 30
0.0
 10
831.33533553
 20
111.3127909342
 30
0.0
 10
831.0695274171
 20
112.2101376162
 30
0.0
 10
830.9540455358
 20
113.4124620446
 30
0.0
 10
831.1741345635
 20
114.9272666027
 30
0.0
 10
831.8333326572
 20
116.7004755087
 30
0.0
 10
832.7989388409
 20
118.4764847224
 30
0.0
 10
834.0250437644
 20
120.2355075818
 30
0.0
 10
835.4502840205
 20
121.9083032498
 30
0.0
 10
836.5099864622
 20
122.9340029485
 30
0.0
 10
837.0607267567
 20
123.4109580344
 30
0.0
  0
SPLINE
  5
51A
100
AcDbEntity
  8
KONSTRUKTIONSELEMENTE
100
AcDbSpline
 62
7
  6
CONTINUOUS
 70
0
 71
3
 72
25
 73
21
 74
0
 42
0.0000001
 43
0.0000001
 44
0.0000000001
 40
0.0
 40
0.0
 40
0.0
 40
0.0
 40
0.0042469725
 40
0.0046566945
 40
0.0054175942
 40
0.0103899607
 40
0.0196468446
 40
0.0328167232
 40
0.0495536369
 40
0.0695298707
 40
0.0924202952
 40
0.1456942527
 40
0.2073652625
 40
0.2757654002
 40
0.3494880459
 40
0.4273393028
 40
0.5081869854
 40
0.6747634259
 40
0.8413821781
 40
1.0
 40
1.0
 40
1.0
 40
1.0
 10
837.4061305619
 20
113.2013816425
 30
0.0
 10
837.4060573425
 20
113.1918317964
 30
0.0
 10
837.4063302074
 20
113.1846720843
 30
0.0
 10
837.4045385081
 20
113.167921566
 30
0.0
 10
837.4072811015
 20
113.1915381114
 30
0.0
 10
837.4118043707
 20
113.2121023677
 30
0.0
 10
837.4251455045
 20
113.2807797284
 30
0.0
 10
837.4463711928
 20
113.3623853749
 30
0.0
 10
837.4788252415
 20
113.471299682
 30
0.0
 10
837.5219701048
 20
113.5976946189
 30
0.0
 10
837.5981993755
 20
113.80026019
 30
0.0
 10
837.721722314
 20
114.0846196742
 30
0.0
 10
837.905653696
 20
114.4538266805
 30
0.0
 10
838.1290337848
 20
114.8541309359
 30
0.0
 10
838.3883669547
 20
115.2755148638
 30
0.0
 10
838.6794086355
 20
115.7097800887
 30
0.0
 10
839.1089678713
 20
116.3019646568
 30
0.0
 10
839.6950530172
 20
117.0264528208
 30
0.0
 10
840.447312388
 20
117.8381624219
 30
0.0
 10
840.9808837064
 20
118.3395093443
 30
0.0
 10
841.2505102492
 20
118.5730127799
 30
0.0
  0
SPLINE
  5
51B
100
AcDbEntity
  8
KONSTRUKTIONSELEMENTE
100
AcDbSpline
 62
7
  6
CONTINUOUS
 70
0
 71
3
 72
9
 73
5
 74
0
 42
0.0000001
 43
0.0000001
 44
0.0000000001
 40
0.0
 40
0.0
 40
0.0
 40
0.0
 40
0.4924789319
 40
1.0
 40
1.0
 40
1.0
 40
1.0
 10
835.1140143948
 20
108.762381481
 30
0.0
 10
834.6436186945
 20
108.7826776636
 30
0.0
 10
833.6871861765
 20
108.9656907589
 30
0.0
 10
832.843729456
 20
109.4645548032
 30
0.0
 10
832.4772323716
 20
109.7825372855
 30
0.0
  0
SPLINE
  5
51C
100
AcDbEntity
  8
KONSTRUKTIONSELEMENTE
100
AcDbSpline
 62
7
  6
CONTINUOUS
 70
0
 71
3
 72
11
 73
7
 74
0
 42
0.0000001
 43
0.0000001
 44
0.0000000001
 40
0.0
 40
0.0
 40
0.0
 40
0.0
 40
0.2479456752
 40
0.5001194804
 40
0.7522092273
 40
1.0
 40
1.0
 40
1.0
 40
1.0
 10
844.9147144571
 20
121.7441719203
 30
0.0
 10
845.8681296827
 20
120.9351207064
 30
0.0
 10
848.1228647619
 20
119.6641631272
 30
0.0
 10
851.9357514131
 20
119.0364365749
 30
0.0
 10
855.7421906315
 20
119.6985759096
 30
0.0
 10
857.9835373175
 20
120.9910252035
 30
0.0
 10
858.9281797789
 20
121.8091095726
 30
0.0
  0
SPLINE
  5
51D
100
AcDbEntity
  8
KONSTRUKTIONSELEMENTE
100
AcDbSpline
 62
7
  6
CONTINUOUS
 70
0
 71
3
 72
11
 73
7
 74
0
 42
0.0000001
 43
0.0000001
 44
0.0000000001
 40
0.0
 40
0.0
 40
0.0
 40
0.0
 40
0.248134181
 40
0.4970423747
 40
0.7474513343
 40
1.0
 40
1.0
 40
1.0
 40
1.0
 10
869.437342225
 20
134.8848176436
 30
0.0
 10
869.4371965358
 20
135.4321094259
 30
0.0
 10
869.3298719603
 20
136.5313220231
 30
0.0
 10
868.8536732507
 20
138.1198699733
 30
0.0
 10
868.0827246152
 20
139.5986619191
 30
0.0
 10
867.3946961414
 20
140.4778215021
 30
0.0
 10
867.0141747887
 20
140.8846190761
 30
0.0
  0
SPLINE
  5
51E
100
AcDbEntity
  8
KONSTRUKTIONSELEMENTE
100
AcDbSpline
 62
7
  6
CONTINUOUS
 70
0
 71
3
 72
11
 73
7
 74
0
 42
0.0000001
 43
0.0000001
 44
0.0000000001
 40
0.0
 40
0.0
 40
0.0
 40
0.0
 40
0.2522926972
 40
0.5040924315
 40
0.753698002
 40
1.0
 40
1.0
 40
1.0
 40
1.0
 10
860.9961509285
 20
144.0074122865
 30
0.0
 10
860.215208888
 20
144.1309596814
 30
0.0
 10
858.6237533507
 20
144.2125655978
 30
0.0
 10
856.2747738157
 20
143.8353678556
 30
0.0
 10
854.0759514613
 20
142.9754035271
 30
0.0
 10
852.7762985456
 20
142.0942565383
 30
0.0
 10
852.1928118741
 20
141.588942258
 30
0.0
  0
SPLINE
  5
51F
100
AcDbEntity
  8
KONSTRUKTIONSELEMENTE
100
AcDbSpline
 62
7
  6
CONTINUOUS
 70
0
 71
3
 72
9
 73
5
 74
0
 42
0.0000001
 43
0.0000001
 44
0.0000000001
 40
0.0
 40
0.0
 40
0.0
 40
0.0
 40
0.5511010499
 40
1.0
 40
1.0
 40
1.0
 40
1.0
 10
862.0923068107
 20
133.0157281583
 30
0.0
 10
862.3899986898
 20
133.2735368881
 30
0.0
 10
862.8597289799
 20
133.8429617413
 30
0.0
 10
863.0383026394
 20
134.5632779502
 30
0.0
 10
863.0383579397
 20
134.88405505
 30
0.0
  0
SPLINE
  5
520
100
AcDbEntity
  8
KONSTRUKTIONSELEMENTE
100
AcDbSpline
 62
7
  6
CONTINUOUS
 70
0
 71
3
 72
8
 73
4
 74
0
 42
0.0000001
 43
0.0000001
 44
0.0000000001
 40
0.0
 40
0.0
 40
0.0
 40
0.0
 40
1.0
 40
1.0
 40
1.0
 40
1.0
 10
863.0383579397
 20
134.88405505
 30
0.0
 10
863.0383796318
 20
135.0098832584
 30
0.0
 10
863.0261640849
 20
135.1362070663
 30
0.0
 10
863.0029503604
 20
135.2598754191
 30
0.0
  0
SPLINE
  5
521
100
AcDbEntity
  8
KONSTRUKTIONSELEMENTE
100
AcDbSpline
 62
7
  6
CONTINUOUS
 70
0
 71
3
 72
9
 73
5
 74
0
 42
0.0000001
 43
0.0000001
 44
0.0000000001
 40
0.0
 40
0.0
 40
0.0
 40
0.0
 40
0.2557478915
 40
1.0
 40
1.0
 40
1.0
 40
1.0
 10
856.7101594592
 20
137.0025220548
 30
0.0
 10
856.6810582766
 20
136.9826865372
 30
0.0
 10
856.5683604782
 20
136.9035437631
 30
0.0
 10
856.4600695511
 20
136.8180916155
 30
0.0
 10
856.3825953666
 20
136.7509970035
 30
0.0
  0
SPLINE
  5
522
100
AcDbEntity
  8
KONSTRUKTIONSELEMENTE
100
AcDbSpline
 62
7
  6
CONTINUOUS
 70
0
 71
3
 72
11
 73
7
 74
0
 42
0.0000001
 43
0.0000001
 44
0.0000000001
 40
0.0
 40
0.0
 40
0.0
 40
0.0
 40
0.2530038339
 40
0.5034921531
 40
0.7521880601
 40
1.0
 40
1.0
 40
1.0
 40
1.0
 10
866.6097927286
 20
128.474896031
 30
0.0
 10
867.0496790667
 20
128.892385383
 30
0.0
 10
867.8494422182
 20
129.8079685118
 30
0.0
 10
868.7514215718
 20
131.3829069182
 30
0.0
 10
869.3109201972
 20
133.0968900781
 30
0.0
 10
869.4375003527
 20
134.2907999143
 30
0.0
 10
869.437342225
 20
134.8848176436
 30
0.0
  0
SPLINE
  5
523
100
AcDbEntity
  8
KONSTRUKTIONSELEMENTE
100
AcDbSpline
 62
7
  6
CONTINUOUS
 70
0
 71
3
 72
9
 73
5
 74
0
 42
0.0000001
 43
0.0000001
 44
0.0000000001
 40
0.0
 40
0.0
 40
0.0
 40
0.0
 40
0.5179662846
 40
1.0
 40
1.0
 40
1.0
 40
1.0
 10
850.0833524193
 20
126.004157156
 30
0.0
 10
850.8600442169
 20
125.6817170064
 30
0.0
 10
852.5551594811
 20
125.4827037848
 30
0.0
 10
854.1467890321
 20
126.1347079158
 30
0.0
 10
854.7383962863
 20
126.6470548271
 30
0.0
  0
SPLINE
  5
524
100
AcDbEntity
  8
KONSTRUKTIONSELEMENTE
100
AcDbSpline
 62
7
  6
CONTINUOUS
 70
0
 71
3
 72
11
 73
7
 74
0
 42
0.0000001
 43
0.0000001
 44
0.0000000001
 40
0.0
 40
0.0
 40
0.0
 40
0.0
 40
0.25325041
 40
0.5038513826
 40
0.752420737
 40
1.0
 40
1.0
 40
1.0
 40
1.0
 10
844.8389013497
 20
135.2202689268
 30
0.0
 10
844.3519277309
 20
134.7985374019
 30
0.0
 10
843.4632038086
 20
133.8607657971
 30
0.0
 10
842.4543455343
 20
132.2177853073
 30
0.0
 10
841.8259711937
 20
130.4095532243
 30
0.0
 10
841.6834817805
 20
129.1430137339
 30
0.0
 10
841.683649428
 20
128.513234187
 30
0.0
  0
SPLINE
  5
525
100
AcDbEntity
  8
KONSTRUKTIONSELEMENTE
100
AcDbSpline
 62
7
  6
CONTINUOUS
 70
0
 71
3
 72
9
 73
5
 74
0
 42
0.0000001
 43
0.0000001
 44
0.0000000001
 40
0.0
 40
0.0
 40
0.0
 40
0.0
 40
0.263717416
 40
1.0
 40
1.0
 40
1.0
 40
1.0
 10
874.2754952502
 20
162.3099552775
 30
0.0
 10
874.2830175128
 20
162.3303078126
 30
0.0
 10
874.3154032046
 20
162.405924789
 30
0.0
 10
874.3661020058
 20
162.4742708792
 30
0.0
 10
874.4118302182
 20
162.5140056983
 30
0.0
  0
SPLINE
  5
526
100
AcDbEntity
  8
KONSTRUKTIONSELEMENTE
100
AcDbSpline
 62
7
  6
CONTINUOUS
 70
0
 71
3
 72
9
 73
5
 74
0
 42
0.0000001
 43
0.0000001
 44
0.0000000001
 40
0.0
 40
0.0
 40
0.0
 40
0.0
 40
0.5474286833
 40
1.0
 40
1.0
 40
1.0
 40
1.0
 10
878.8243089275
 20
157.4186682145
 30
0.0
 10
878.8243089275
 20
157.318741574
 30
0.0
 10
878.8038226464
 20
157.1334655163
 30
0.0
 10
878.7029521622
 20
156.970309537
 30
0.0
 10
878.6405935591
 20
156.9161239985
 30
0.0
  0
SPLINE
  5
527
100
AcDbEntity
  8
KONSTRUKTIONSELEMENTE
100
AcDbSpline
 62
7
  6
CONTINUOUS
 70
0
 71
3
 72
9
 73
5
 74
0
 42
0.0000001
 43
0.0000001
 44
0.0000000001
 40
0.0
 40
0.0
 40
0.0
 40
0.0
 40
0.2418469557
 40
1.0
 40
1.0
 40
1.0
 40
1.0
 10
878.9372655564
 20
157.1804882913
 30
0.0
 10
878.9255182294
 20
157.1732255201
 30
0.0
 10
878.8755680399
 20
157.1454305084
 30
0.0
 10
878.8207105117
 20
157.1268920666
 30
0.0
 10
878.7784463058
 20
157.1174972355
 30
0.0
  0
SPLINE
  5
528
100
AcDbEntity
  8
KONSTRUKTIONSELEMENTE
100
AcDbSpline
 62
7
  6
CONTINUOUS
 70
0
 71
3
 72
9
 73
5
 74
0
 42
0.0000001
 43
0.0000001
 44
0.0000000001
 40
0.0
 40
0.0
 40
0.0
 40
0.0
 40
0.4536655057
 40
1.0
 40
1.0
 40
1.0
 40
1.0
 10
890.9761903523
 20
158.427041295
 30
0.0
 10
890.976471616
 20
158.0315325725
 30
0.0
 10
890.7580261491
 20
157.1525617318
 30
0.0
 10
890.186676244
 20
156.4570463725
 30
0.0
 10
889.8266285663
 20
156.1452359371
 30
0.0
  0
SPLINE
  5
529
100
AcDbEntity
  8
KONSTRUKTIONSELEMENTE
100
AcDbSpline
 62
7
  6
CONTINUOUS
 70
0
 71
3
 72
9
 73
5
 74
0
 42
0.0000001
 43
0.0000001
 44
0.0000000001
 40
0.0
 40
0.0
 40
0.0
 40
0.0
 40
0.4959414851
 40
1.0
 40
1.0
 40
1.0
 40
1.0
 10
878.4422093892
 20
166.0044321518
 30
0.0
 10
879.3036515768
 20
166.7504629702
 30
0.0
 10
881.2826316733
 20
167.9920142513
 30
0.0
 10
883.5273236579
 20
168.6210230912
 30
0.0
 10
884.6745949725
 20
168.7799904788
 30
0.0
  0
SPLINE
  5
52A
100
AcDbEntity
  8
KONSTRUKTIONSELEMENTE
100
AcDbSpline
 62
7
  6
CONTINUOUS
 70
0
 71
3
 72
11
 73
7
 74
0
 42
0.0000001
 43
0.0000001
 44
0.0000000001
 40
0.0
 40
0.0
 40
0.0
 40
0.0
 40
0.2548461805
 40
0.5057935407
 40
0.7537074042
 40
1.0
 40
1.0
 40
1.0
 40
1.0
 10
892.6801318637
 20
167.2381384602
 30
0.0
 10
893.4681296425
 20
166.779184138
 30
0.0
 10
894.9321477485
 20
165.680229664
 30
0.0
 10
896.6407373945
 20
163.5563011225
 30
0.0
 10
897.7269809342
 20
161.0869816704
 30
0.0
 10
897.9758018832
 20
159.3090216213
 30
0.0
 10
897.9756144736
 20
158.4277188765
 30
0.0
  0
SPLINE
  5
52B
100
AcDbEntity
  8
KONSTRUKTIONSELEMENTE
100
AcDbSpline
 62
7
  6
CONTINUOUS
 70
0
 71
3
 72
11
 73
7
 74
0
 42
0.0000001
 43
0.0000001
 44
0.0000000001
 40
0.0
 40
0.0
 40
0.0
 40
0.0
 40
0.2474731587
 40
0.4959977795
 40
0.74660939
 40
1.0
 40
1.0
 40
1.0
 40
1.0
 10
897.9756144736
 20
158.4277188765
 30
0.0
 10
897.9754632816
 20
157.7167309631
 30
0.0
 10
897.814331723
 20
156.2867338647
 30
0.0
 10
897.1038272682
 20
154.2451435579
 30
0.0
 10
895.9637532235
 20
152.3895786518
 30
0.0
 10
894.9595119982
 20
151.3303137951
 30
0.0
 10
894.4092042613
 20
150.853733315
 30
0.0
  0
SPLINE
  5
52C
100
AcDbEntity
  8
KONSTRUKTIONSELEMENTE
100
AcDbSpline
 62
7
  6
CONTINUOUS
 70
0
 71
3
 72
9
 73
5
 74
0
 42
0.0000001
 43
0.0000001
 44
0.0000000001
 40
0.0
 40
0.0
 40
0.0
 40
0.0
 40
0.5216474603
 40
1.0
 40
1.0
 40
1.0
 40
1.0
 10
890.5632220867
 20
159.8499746562
 30
0.0
 10
890.6976818169
 20
159.6273645552
 30
0.0
 10
890.9047247169
 20
159.1663223004
 30
0.0
 10
890.9760207572
 20
158.6655232835
 30
0.0
 10
890.9761903523
 20
158.427041295
 30
0.0
  0
SPLINE
  5
52D
100
AcDbEntity
  8
KONSTRUKTIONSELEMENTE
100
AcDbSpline
 62
7
  6
CONTINUOUS
 70
0
 71
3
 72
9
 73
5
 74
0
 42
0.0000001
 43
0.0000001
 44
0.0000000001
 40
0.0
 40
0.0
 40
0.0
 40
0.0
 40
0.4828762735
 40
1.0
 40
1.0
 40
1.0
 40
1.0
 10
881.4120578702
 20
148.8580039524
 30
0.0
 10
880.7117254484
 20
148.251498284
 30
0.0
 10
878.8351210977
 20
147.4745610728
 30
0.0
 10
876.8318755507
 20
147.6986852784
 30
0.0
 10
875.9125431235
 20
148.0717938303
 30
0.0
  0
SPLINE
  5
52E
100
AcDbEntity
  8
KONSTRUKTIONSELEMENTE
100
AcDbSpline
 62
7
  6
CONTINUOUS
 70
0
 71
3
 72
11
 73
7
 74
0
 42
0.0000001
 43
0.0000001
 44
0.0000000001
 40
0.0
 40
0.0
 40
0.0
 40
0.0
 40
0.2474731587
 40
0.4959977795
 40
0.74660939
 40
1.0
 40
1.0
 40
1.0
 40
1.0
 10
866.4612284808
 20
151.1432146056
 30
0.0
 10
866.4613796728
 20
151.854202519
 30
0.0
 10
866.6225112314
 20
153.2841996174
 30
0.0
 10
867.3330156862
 20
155.3257899241
 30
0.0
 10
868.4730897309
 20
157.1813548303
 30
0.0
 10
869.4773309562
 20
158.240619687
 30
0.0
 10
870.0276386931
 20
158.7172001671
 30
0.0
  0
SPLINE
  5
52F
100
AcDbEntity
  8
KONSTRUKTIONSELEMENTE
100
AcDbSpline
 62
7
  6
CONTINUOUS
 70
0
 71
3
 72
13
 73
9
 74
0
 42
0.0000001
 43
0.0000001
 44
0.0000000001
 40
0.0
 40
0.0
 40
0.0
 40
0.0
 40
0.1234025971
 40
0.2482774642
 40
0.4999529145
 40
0.7516628665
 40
0.876546835
 40
1.0
 40
1.0
 40
1.0
 40
1.0
 10
885.9946335652
 20
143.5665013302
 30
0.0
 10
885.4586734794
 20
143.1023462806
 30
0.0
 10
884.2875995906
 20
142.2702003428
 30
0.0
 10
881.6720804026
 20
141.0527721193
 30
0.0
 10
878.0404166889
 20
140.4202937242
 30
0.0
 10
874.4060486925
 20
141.0364938072
 30
0.0
 10
871.7841921827
 20
142.2414889651
 30
0.0
 10
870.6088794478
 20
143.0681956583
 30
0.0
 10
870.0703204608
 20
143.5297792511
 30
0.0
  0
SPLINE
  5
530
100
AcDbEntity
  8
KONSTRUKTIONSELEMENTE
100
AcDbSpline
 62
7
  6
CONTINUOUS
 70
0
 71
3
 72
17
 73
13
 74
0
 42
0.0000001
 43
0.0000001
 44
0.0000000001
 40
0.0
 40
0.0
 40
0.0
 40
0.0
 40
0.0666965855
 40
0.1121083436
 40
0.1663146687
 40
0.298396932
 40
0.4529391682
 40
0.6152979265
 40
0.7695200193
 40
0.9010869874
 40
0.9550293621
 40
1.0
 40
1.0
 40
1.0
 40
1.0
 10
874.1151582209
 20
162.2496414054
 30
0.0
 10
874.2519303363
 20
162.3342006066
 30
0.0
 10
874.5511044899
 20
162.3441498983
 30
0.0
 10
874.9323726375
 20
162.2328569524
 30
0.0
 10
875.443906041
 20
161.9997510853
 30
0.0
 10
876.1234321612
 20
161.5304046722
 30
0.0
 10
876.9243310058
 20
160.7986060296
 30
0.0
 10
877.6686676911
 20
159.9368265411
 30
0.0
 10
878.2756032338
 20
159.0405649402
 30
0.0
 10
878.6392054791
 20
158.3004390315
 30
0.0
 10
878.7936745015
 20
157.7654497018
 30
0.0
 10
878.8243089275
 20
157.5270892184
 30
0.0
 10
878.8243089275
 20
157.4186682145
 30
0.0
  0
SPLINE
  5
531
100
AcDbEntity
  8
KONSTRUKTIONSELEMENTE
100
AcDbSpline
 62
7
  6
CONTINUOUS
 70
0
 71
3
 72
19
 73
15
 74
0
 42
0.0000001
 43
0.0000001
 44
0.0000000001
 40
0.0
 40
0.0
 40
0.0
 40
0.0
 40
0.0298591125
 40
0.0649654204
 40
0.1083133475
 40
0.1607531931
 40
0.2219444693
 40
0.2908720764
 40
0.4453922444
 40
0.6093363335
 40
0.765923282
 40
0.8997117143
 40
0.9544781516
 40
1.0
 40
1.0
 40
1.0
 40
1.0
 10
874.4118302182
 20
162.5140056983
 30
0.0
 10
874.466756498
 20
162.561733035
 30
0.0
 10
874.6155129146
 20
162.6333739496
 30
0.0
 10
874.8838010879
 20
162.6426687594
 30
0.0
 10
875.1969734251
 20
162.5715073636
 30
0.0
 10
875.5513112157
 20
162.4239359465
 30
0.0
 10
875.9386881621
 20
162.2034452513
 30
0.0
 10
876.5068374359
 20
161.804135161
 30
0.0
 10
877.212598055
 20
161.1722572125
 30
0.0
 10
877.9787348332
 20
160.3007966388
 30
0.0
 10
878.6068193959
 20
159.3864015955
 30
0.0
 10
878.9847424933
 20
158.6285469794
 30
0.0
 10
879.1457994795
 20
158.0800518012
 30
0.0
 10
879.1778623181
 20
157.8357891708
 30
0.0
 10
879.1778623181
 20
157.7248544324
 30
0.0
  0
SPLINE
  5
532
100
AcDbEntity
  8
KONSTRUKTIONSELEMENTE
100
AcDbSpline
 62
7
  6
CONTINUOUS
 70
0
 71
3
 72
9
 73
5
 74
0
 42
0.0000001
 43
0.0000001
 44
0.0000000001
 40
0.0
 40
0.0
 40
0.0
 40
0.0
 40
0.5474286833
 40
1.0
 40
1.0
 40
1.0
 40
1.0
 10
879.1778623181
 20
157.7248544324
 30
0.0
 10
879.1778623181
 20
157.6249277919
 30
0.0
 10
879.157376037
 20
157.4396517341
 30
0.0
 10
879.0565055528
 20
157.2764957548
 30
0.0
 10
878.9941469497
 20
157.2223102163
 30
0.0
  0
SPLINE
  5
533
100
AcDbEntity
  8
KONSTRUKTIONSELEMENTE
100
AcDbSpline
 62
7
  6
CONTINUOUS
 70
0
 71
3
 72
9
 73
5
 74
0
 42
0.0000001
 43
0.0000001
 44
0.0000000001
 40
0.0
 40
0.0
 40
0.0
 40
0.0
 40
0.263717416
 40
1.0
 40
1.0
 40
1.0
 40
1.0
 10
821.2424866612
 20
116.3820226003
 30
0.0
 10
821.2500089238
 20
116.4023751354
 30
0.0
 10
821.2823946156
 20
116.4779921118
 30
0.0
 10
821.3330934168
 20
116.546338202
 30
0.0
 10
821.3788216292
 20
116.5860730211
 30
0.0
  0
SPLINE
  5
534
100
AcDbEntity
  8
KONSTRUKTIONSELEMENTE
100
AcDbSpline
 62
7
  6
CONTINUOUS
 70
0
 71
3
 72
9
 73
5
 74
0
 42
0.0000001
 43
0.0000001
 44
0.0000000001
 40
0.0
 40
0.0
 40
0.0
 40
0.0
 40
0.5474286833
 40
1.0
 40
1.0
 40
1.0
 40
1.0
 10
825.7913003385
 20
111.4907355373
 30
0.0
 10
825.7913003385
 20
111.3908088969
 30
0.0
 10
825.7708140574
 20
111.2055328391
 30
0.0
 10
825.6699435732
 20
111.0423768598
 30
0.0
 10
825.6075849701
 20
110.9881913213
 30
0.0
  0
SPLINE
  5
535
100
AcDbEntity
  8
KONSTRUKTIONSELEMENTE
100
AcDbSpline
 62
7
  6
CONTINUOUS
 70
0
 71
3
 72
9
 73
5
 74
0
 42
0.0000001
 43
0.0000001
 44
0.0000000001
 40
0.0
 40
0.0
 40
0.0
 40
0.0
 40
0.2418469557
 40
1.0
 40
1.0
 40
1.0
 40
1.0
 10
825.9042569675
 20
111.2525556142
 30
0.0
 10
825.8925096404
 20
111.2452928429
 30
0.0
 10
825.8425594509
 20
111.2174978312
 30
0.0
 10
825.7877019228
 20
111.1989593894
 30
0.0
 10
825.7454377168
 20
111.1895645584
 30
0.0
  0
SPLINE
  5
536
100
AcDbEntity
  8
KONSTRUKTIONSELEMENTE
100
AcDbSpline
 62
7
  6
CONTINUOUS
 70
0
 71
3
 72
9
 73
5
 74
0
 42
0.0000001
 43
0.0000001
 44
0.0000000001
 40
0.0
 40
0.0
 40
0.0
 40
0.0
 40
0.4536655057
 40
1.0
 40
1.0
 40
1.0
 40
1.0
 10
837.9431817633
 20
112.4991086179
 30
0.0
 10
837.943463027
 20
112.1035998953
 30
0.0
 10
837.7250175601
 20
111.2246290546
 30
0.0
 10
837.153667655
 20
110.5291136954
 30
0.0
 10
836.7936199773
 20
110.21730326
 30
0.0
  0
SPLINE
  5
537
100
AcDbEntity
  8
KONSTRUKTIONSELEMENTE
100
AcDbSpline
 62
7
  6
CONTINUOUS
 70
0
 71
3
 72
11
 73
7
 74
0
 42
0.0000001
 43
0.0000001
 44
0.0000000001
 40
0.0
 40
0.0
 40
0.0
 40
0.0
 40
0.2462174959
 40
0.4960111032
 40
0.747993541
 40
1.0
 40
1.0
 40
1.0
 40
1.0
 10
825.4092008002
 20
120.0764994747
 30
0.0
 10
826.1232480347
 20
120.6948825192
 30
0.0
 10
827.7274849027
 20
121.7603594141
 30
0.0
 10
830.4504924681
 20
122.7426734093
 30
0.0
 10
833.3465375829
 20
123.0830192851
 30
0.0
 10
835.288065389
 20
122.8686674487
 30
0.0
 10
836.2304956167
 20
122.6529442804
 30
0.0
  0
SPLINE
  5
538
100
AcDbEntity
  8
KONSTRUKTIONSELEMENTE
100
AcDbSpline
 62
7
  6
CONTINUOUS
 70
0
 71
3
 72
11
 73
7
 74
0
 42
0.0000001
 43
0.0000001
 44
0.0000000001
 40
0.0
 40
0.0
 40
0.0
 40
0.0
 40
0.2527027043
 40
0.5031447787
 40
0.7519832681
 40
1.0
 40
1.0
 40
1.0
 40
1.0
 10
842.1425840786
 20
119.3453110047
 30
0.0
 10
842.5818170749
 20
118.8833911904
 30
0.0
 10
843.3768667692
 20
117.8836550188
 30
0.0
 10
844.2680151447
 20
116.196803622
 30
0.0
 10
844.8185569076
 20
114.3820931203
 30
0.0
 10
844.9427389174
 20
113.1253795278
 30
0.0
 10
844.9426058846
 20
112.4997861993
 30
0.0
  0
SPLINE
  5
539
100
AcDbEntity
  8
KONSTRUKTIONSELEMENTE
100
AcDbSpline
 62
7
  6
CONTINUOUS
 70
0
 71
3
 72
11
 73
7
 74
0
 42
0.0000001
 43
0.0000001
 44
0.0000000001
 40
0.0
 40
0.0
 40
0.0
 40
0.0
 40
0.2474731587
 40
0.4959977795
 40
0.74660939
 40
1.0
 40
1.0
 40
1.0
 40
1.0
 10
844.9426058846
 20
112.4997861993
 30
0.0
 10
844.9424546926
 20
111.7887982859
 30
0.0
 10
844.781323134
 20
110.3588011875
 30
0.0
 10
844.0708186792
 20
108.3172108807
 30
0.0
 10
842.9307446345
 20
106.4616459746
 30
0.0
 10
841.9265034092
 20
105.4023811179
 30
0.0
 10
841.3761956723
 20
104.9258006378
 30
0.0
  0
SPLINE
  5
53A
100
AcDbEntity
  8
KONSTRUKTIONSELEMENTE
100
AcDbSpline
 62
7
  6
CONTINUOUS
 70
0
 71
3
 72
9
 73
5
 74
0
 42
0.0000001
 43
0.0000001
 44
0.0000000001
 40
0.0
 40
0.0
 40
0.0
 40
0.0
 40
0.2360454846
 40
1.0
 40
1.0
 40
1.0
 40
1.0
 10
829.9917764952
 20
114.7849968525
 30
0.0
 10
830.092375424
 20
114.8721180805
 30
0.0
 10
830.5364865216
 20
115.2202579327
 30
0.0
 10
831.0460275207
 20
115.4825105214
 30
0.0
 10
831.4501293716
 20
115.6315479026
 30
0.0
  0
SPLINE
  5
53B
100
AcDbEntity
  8
KONSTRUKTIONSELEMENTE
100
AcDbSpline
 62
7
  6
CONTINUOUS
 70
0
 71
3
 72
9
 73
5
 74
0
 42
0.0000001
 43
0.0000001
 44
0.0000000001
 40
0.0
 40
0.0
 40
0.0
 40
0.0
 40
0.5182428296
 40
1.0
 40
1.0
 40
1.0
 40
1.0
 10
837.6046011513
 20
113.7920815769
 30
0.0
 10
837.7153615319
 20
113.5874363449
 30
0.0
 10
837.8848816825
 20
113.1660960488
 30
0.0
 10
837.943027933
 20
112.715422361
 30
0.0
 10
837.9431817633
 20
112.4991086179
 30
0.0
  0
SPLINE
  5
53C
100
AcDbEntity
  8
KONSTRUKTIONSELEMENTE
100
AcDbSpline
 62
7
  6
CONTINUOUS
 70
0
 71
3
 72
9
 73
5
 74
0
 42
0.0000001
 43
0.0000001
 44
0.0000000001
 40
0.0
 40
0.0
 40
0.0
 40
0.0
 40
0.4887106819
 40
1.0
 40
1.0
 40
1.0
 40
1.0
 10
828.3790492812
 20
102.9300712752
 30
0.0
 10
827.5935488262
 20
102.2498079264
 30
0.0
 10
825.4603241703
 20
101.4512747265
 30
0.0
 10
823.2397795973
 20
101.8903501698
 30
0.0
 10
822.2940685582
 20
102.426518177
 30
0.0
  0
SPLINE
  5
53D
100
AcDbEntity
  8
KONSTRUKTIONSELEMENTE
100
AcDbSpline
 62
7
  6
CONTINUOUS
 70
0
 71
3
 72
11
 73
7
 74
0
 42
0.0000001
 43
0.0000001
 44
0.0000000001
 40
0.0
 40
0.0
 40
0.0
 40
0.0
 40
0.2474179544
 40
0.4992169013
 40
0.7514898746
 40
1.0
 40
1.0
 40
1.0
 40
1.0
 10
832.9616249762
 20
97.638568653
 30
0.0
 10
831.9367662202
 20
96.751014935
 30
0.0
 10
829.5206774759
 20
95.332394904
 30
0.0
 10
825.4105231987
 20
94.5247475971
 30
0.0
 10
821.2505714773
 20
95.0580899941
 30
0.0
 10
818.734400927
 20
96.305725593
 30
0.0
 10
817.6420011369
 20
97.1187527959
 30
0.0
  0
SPLINE
  5
53E
100
AcDbEntity
  8
KONSTRUKTIONSELEMENTE
100
AcDbSpline
 62
7
  6
CONTINUOUS
 70
0
 71
3
 72
17
 73
13
 74
0
 42
0.0000001
 43
0.0000001
 44
0.0000000001
 40
0.0
 40
0.0
 40
0.0
 40
0.0
 40
0.0666965855
 40
0.1121083436
 40
0.1663146687
 40
0.298396932
 40
0.4529391682
 40
0.6152979265
 40
0.7695200193
 40
0.9010869874
 40
0.9550293621
 40
1.0
 40
1.0
 40
1.0
 40
1.0
 10
821.0821496319
 20
116.3217087282
 30
0.0
 10
821.2189217473
 20
116.4062679294
 30
0.0
 10
821.5180959009
 20
116.4162172211
 30
0.0
 10
821.8993640485
 20
116.3049242752
 30
0.0
 10
822.410897452
 20
116.0718184081
 30
0.0
 10
823.0904235722
 20
115.602471995
 30
0.0
 10
823.8913224168
 20
114.8706733524
 30
0.0
 10
824.6356591021
 20
114.0088938639
 30
0.0
 10
825.2425946448
 20
113.112632263
 30
0.0
 10
825.6061968901
 20
112.3725063543
 30
0.0
 10
825.7606659125
 20
111.8375170246
 30
0.0
 10
825.7913003385
 20
111.5991565412
 30
0.0
 10
825.7913003385
 20
111.4907355373
 30
0.0
  0
SPLINE
  5
53F
100
AcDbEntity
  8
KONSTRUKTIONSELEMENTE
100
AcDbSpline
 62
7
  6
CONTINUOUS
 70
0
 71
3
 72
19
 73
15
 74
0
 42
0.0000001
 43
0.0000001
 44
0.0000000001
 40
0.0
 40
0.0
 40
0.0
 40
0.0
 40
0.0298591125
 40
0.0649654204
 40
0.1083133475
 40
0.1607531931
 40
0.2219444693
 40
0.2908720764
 40
0.4453922444
 40
0.6093363335
 40
0.765923282
 40
0.8997117143
 40
0.9544781516
 40
1.0
 40
1.0
 40
1.0
 40
1.0
 10
821.3788216292
 20
116.5860730211
 30
0.0
 10
821.433747909
 20
116.6338003579
 30
0.0
 10
821.5825043256
 20
116.7054412724
 30
0.0
 10
821.8507924989
 20
116.7147360822
 30
0.0
 10
822.1639648361
 20
116.6435746864
 30
0.0
 10
822.5183026267
 20
116.4960032693
 30
0.0
 10
822.9056795731
 20
116.2755125741
 30
0.0
 10
823.4738288469
 20
115.8762024838
 30
0.0
 10
824.179589466
 20
115.2443245353
 30
0.0
 10
824.9457262442
 20
114.3728639616
 30
0.0
 10
825.573810807
 20
113.4584689184
 30
0.0
 10
825.9517339043
 20
112.7006143022
 30
0.0
 10
826.1127908905
 20
112.152119124
 30
0.0
 10
826.1448537291
 20
111.9078564936
 30
0.0
 10
826.1448537291
 20
111.7969217552
 30
0.0
  0
SPLINE
  5
540
100
AcDbEntity
  8
KONSTRUKTIONSELEMENTE
100
AcDbSpline
 62
7
  6
CONTINUOUS
 70
0
 71
3
 72
9
 73
5
 74
0
 42
0.0000001
 43
0.0000001
 44
0.0000000001
 40
0.0
 40
0.0
 40
0.0
 40
0.0
 40
0.5474286833
 40
1.0
 40
1.0
 40
1.0
 40
1.0
 10
826.1448537291
 20
111.7969217552
 30
0.0
 10
826.1448537291
 20
111.6969951147
 30
0.0
 10
826.124367448
 20
111.5117190569
 30
0.0
 10
826.0234969638
 20
111.3485630776
 30
0.0
 10
825.9611383607
 20
111.2943775391
 30
0.0
  0
SPLINE
  5
541
100
AcDbEntity
  8
KONSTRUKTIONSELEMENTE
100
AcDbSpline
 62
7
  6
CONTINUOUS
 70
0
 71
3
 72
9
 73
5
 74
0
 42
0.0000001
 43
0.0000001
 44
0.0000000001
 40
0.0
 40
0.0
 40
0.0
 40
0.0
 40
0.492679631
 40
1.0
 40
1.0
 40
1.0
 40
1.0
 10
916.6568413134
 20
159.8185105633
 30
0.0
 10
918.9747834251
 20
161.8259073164
 30
0.0
 10
923.48519572
 20
166.1278889854
 30
0.0
 10
927.6220261095
 20
170.7882372404
 30
0.0
 10
929.618798047
 20
173.2341566604
 30
0.0
  0
SPLINE
  5
542
100
AcDbEntity
  8
KONSTRUKTIONSELEMENTE
100
AcDbSpline
 62
7
  6
CONTINUOUS
 70
0
 71
3
 72
13
 73
9
 74
0
 42
0.0000001
 43
0.0000001
 44
0.0000000001
 40
0.0
 40
0.0
 40
0.0
 40
0.0
 40
0.2713901594
 40
0.5207180685
 40
0.6410624211
 40
0.760518994
 40
0.8800692561
 40
1.0
 40
1.0
 40
1.0
 40
1.0
 10
945.0351271214
 20
201.2957715581
 30
0.0
 10
945.3158440003
 20
202.5801325221
 30
0.0
 10
945.6993579087
 20
205.0838044841
 30
0.0
 10
945.5886851833
 20
208.2165395642
 30
0.0
 10
945.0341295593
 20
210.5282366915
 30
0.0
 10
944.3680076376
 20
212.1453983622
 30
0.0
 10
943.4293833815
 20
213.6201937742
 30
0.0
 10
942.6255802132
 20
214.4689380172
 30
0.0
 10
942.1861577993
 20
214.8489889452
 30
0.0
  0
SPLINE
  5
543
100
AcDbEntity
  8
KONSTRUKTIONSELEMENTE
100
AcDbSpline
 62
7
  6
CONTINUOUS
 70
0
 71
3
 72
15
 73
11
 74
0
 42
0.0000001
 43
0.0000001
 44
0.0000000001
 40
0.0
 40
0.0
 40
0.0
 40
0.0
 40
0.0213843792
 40
0.0703247638
 40
0.1554981516
 40
0.2744075703
 40
0.4225940244
 40
0.5957253586
 40
0.789600204
 40
1.0
 40
1.0
 40
1.0
 40
1.0
 10
936.9497147211
 20
208.8019807036
 30
0.0
 10
936.8261411791
 20
208.9133718959
 30
0.0
 10
936.3040975521
 20
209.1330368791
 30
0.0
 10
935.0883876417
 20
209.2292031845
 30
0.0
 10
933.1274636136
 20
208.923254472
 30
0.0
 10
930.5211711924
 20
208.0504663361
 30
0.0
 10
927.4263685496
 20
206.5668459428
 30
0.0
 10
923.989944266
 20
204.4946707854
 30
0.0
 10
920.3306626043
 20
201.8827552454
 30
0.0
 10
917.8942132868
 20
199.8901061262
 30
0.0
 10
916.6568413134
 20
198.8185105633
 30
0.0
  0
SPLINE
  5
544
100
AcDbEntity
  8
KONSTRUKTIONSELEMENTE
100
AcDbSpline
 62
7
  6
CONTINUOUS
 70
0
 71
3
 72
9
 73
5
 74
0
 42
0.0000001
 43
0.0000001
 44
0.0000000001
 40
0.0
 40
0.0
 40
0.0
 40
0.0
 40
0.4911966222
 40
1.0
 40
1.0
 40
1.0
 40
1.0
 10
911.4196119478
 20
165.8659421314
 30
0.0
 10
913.4255865386
 20
167.6031670864
 30
0.0
 10
917.3498684682
 20
171.326509607
 30
0.0
 10
920.9703841986
 20
175.3442068898
 30
0.0
 10
922.7304919965
 20
177.4555524685
 30
0.0
  0
SPLINE
  5
545
100
AcDbEntity
  8
KONSTRUKTIONSELEMENTE
100
AcDbSpline
 62
7
  6
CONTINUOUS
 70
0
 71
3
 72
12
 73
8
 74
0
 42
0.0000001
 43
0.0000001
 44
0.0000000001
 40
0.0
 40
0.0
 40
0.0
 40
0.0
 40
0.4257862564
 40
0.7194164269
 40
0.8202646549
 40
0.8948986577
 40
1.0
 40
1.0
 40
1.0
 40
1.0
 10
937.6140212897
 20
206.3860720393
 30
0.0
 10
937.6077698373
 20
206.7493072803
 30
0.0
 10
937.5633647278
 20
207.363929258
 30
0.0
 10
937.3955210865
 20
208.0483415333
 30
0.0
 10
937.2371073677
 20
208.4166040838
 30
0.0
 10
937.1194247193
 20
208.6258069999
 30
0.0
 10
937.0163223192
 20
208.7419395357
 30
0.0
 10
936.9497147211
 20
208.8019807036
 30
0.0
  0
SPLINE
  5
546
100
AcDbEntity
  8
KONSTRUKTIONSELEMENTE
100
AcDbSpline
 62
7
  6
CONTINUOUS
 70
0
 71
3
 72
19
 73
15
 74
0
 42
0.0000001
 43
0.0000001
 44
0.0000000001
 40
0.0
 40
0.0
 40
0.0
 40
0.0
 40
0.1472206894
 40
0.2987857613
 40
0.4477911127
 40
0.5876443316
 40
0.6524163413
 40
0.7130618242
 40
0.7693229674
 40
0.8212295232
 40
0.8691953116
 40
0.9141070491
 40
0.9572741652
 40
1.0
 40
1.0
 40
1.0
 40
1.0
 10
911.4196119478
 20
204.8659421314
 30
0.0
 10
909.0724575749
 20
202.8332468179
 30
0.0
 10
904.5078366376
 20
198.4743438558
 30
0.0
 10
898.2420535264
 20
191.3943297876
 30
0.0
 10
892.6779990887
 20
183.9429140805
 30
0.0
 10
888.7625355065
 20
177.5787117572
 30
0.0
 10
886.2394911929
 20
172.5818295573
 30
0.0
 10
884.7312406971
 20
169.0561358841
 30
0.0
 10
883.5771394452
 20
165.683845362
 30
0.0
 10
882.7962593061
 20
162.4790546667
 30
0.0
 10
882.4145633026
 20
159.4411144301
 30
0.0
 10
882.4797508615
 20
156.5587889942
 30
0.0
 10
883.0754333289
 20
153.8441329092
 30
0.0
 10
883.9010811336
 20
152.201053495
 30
0.0
 10
884.419857516
 20
151.4642445505
 30
0.0
  0
SPLINE
  5
547
100
AcDbEntity
  8
KONSTRUKTIONSELEMENTE
100
AcDbSpline
 62
7
  6
CONTINUOUS
 70
0
 71
3
 72
17
 73
13
 74
0
 42
0.0000001
 43
0.0000001
 44
0.0000000001
 40
0.0
 40
0.0
 40
0.0
 40
0.0
 40
0.050294881
 40
0.1004242241
 40
0.1505058728
 40
0.2009888934
 40
0.3055935329
 40
0.4195168701
 40
0.5458063933
 40
0.6853288951
 40
0.8373308712
 40
1.0
 40
1.0
 40
1.0
 40
1.0
 10
942.1861577993
 20
214.8489889452
 30
0.0
 10
941.7455026205
 20
215.2301060762
 30
0.0
 10
940.787905854
 20
215.9061356256
 30
0.0
 10
939.1884816371
 20
216.6235178531
 30
0.0
 10
937.4874304412
 20
217.0503656955
 30
0.0
 10
935.1126524671
 20
217.2652746135
 30
0.0
 10
931.9857916862
 20
216.9198486963
 30
0.0
 10
928.1527099754
 20
215.7468166161
 30
0.0
 10
924.1467716776
 20
213.9053698436
 30
0.0
 10
919.9728571001
 20
211.4425704891
 30
0.0
 10
915.6714178655
 20
208.4047344094
 30
0.0
 10
912.8440241542
 20
206.0995192876
 30
0.0
 10
911.4196119478
 20
204.8659421314
 30
0.0
  0
SPLINE
  5
548
100
AcDbEntity
  8
KONSTRUKTIONSELEMENTE
100
AcDbSpline
 62
7
  6
CONTINUOUS
 70
0
 71
3
 72
11
 73
7
 74
0
 42
0.0000001
 43
0.0000001
 44
0.0000000001
 40
0.0
 40
0.0
 40
0.0
 40
0.0
 40
0.207475201
 40
0.4468017599
 40
0.7127361454
 40
1.0
 40
1.0
 40
1.0
 40
1.0
 10
897.8224228384
 20
156.8149418422
 30
0.0
 10
898.8667627774
 20
157.2559589823
 30
0.0
 10
901.0565827479
 20
158.3469698007
 30
0.0
 10
904.3773514956
 20
160.3882413653
 30
0.0
 10
907.8939383613
 20
162.920868573
 30
0.0
 10
910.2331021516
 20
164.8383945061
 30
0.0
 10
911.4196119478
 20
165.8659421314
 30
0.0
  0
SPLINE
  5
549
100
AcDbEntity
  8
KONSTRUKTIONSELEMENTE
100
AcDbSpline
 62
7
  6
CONTINUOUS
 70
0
 71
3
 72
14
 73
10
 74
0
 42
0.0000001
 43
0.0000001
 44
0.0000000001
 40
0.0
 40
0.0
 40
0.0
 40
0.0
 40
0.0969995246
 40
0.1987398502
 40
0.3081724911
 40
0.4271247046
 40
0.5562895679
 40
0.6954742876
 40
1.0
 40
1.0
 40
1.0
 40
1.0
 10
890.7251658086
 20
147.6578922611
 30
0.0
 10
891.6637529681
 20
147.5100160214
 30
0.0
 10
893.6282715519
 20
147.4477108114
 30
0.0
 10
896.6206346535
 20
147.9281639909
 30
0.0
 10
899.7162312819
 20
148.8928186583
 30
0.0
 10
902.929683538
 20
150.2993724945
 30
0.0
 10
906.2618253271
 20
152.1218129059
 30
0.0
 10
910.9794491133
 20
155.1670072226
 30
0.0
 10
914.4019049149
 20
157.8656783582
 30
0.0
 10
916.6568413134
 20
159.8185105633
 30
0.0
  0
SPLINE
  5
54A
100
AcDbEntity
  8
KONSTRUKTIONSELEMENTE
100
AcDbSpline
 62
7
  6
CONTINUOUS
 70
0
 71
3
 72
18
 73
14
 74
0
 42
0.0000001
 43
0.0000001
 44
0.0000000001
 40
0.0
 40
0.0
 40
0.0
 40
0.0
 40
0.150109784
 40
0.3056698898
 40
0.4602364294
 40
0.6073878209
 40
0.7408905132
 40
0.8006727015
 40
0.854818949
 40
0.9025922289
 40
0.9432283348
 40
0.9759344021
 40
1.0
 40
1.0
 40
1.0
 40
1.0
 10
916.6568413134
 20
198.8185105633
 30
0.0
 10
914.7482137393
 20
197.1655905977
 30
0.0
 10
911.006157597
 20
193.6303424511
 30
0.0
 10
905.7881571329
 20
187.9033456584
 30
0.0
 10
901.0317164238
 20
181.8494379296
 30
0.0
 10
896.9597105714
 20
175.7572838879
 30
0.0
 10
894.1965724654
 20
170.7298381591
 30
0.0
 10
892.5070740387
 20
166.923863779
 30
0.0
 10
891.5647559546
 20
164.3700485528
 30
0.0
 10
890.907749663
 20
162.0612208666
 30
0.0
 10
890.5344351518
 20
160.05441785
 30
0.0
 10
890.4253360801
 20
158.4158140274
 30
0.0
 10
890.5043186149
 20
157.4578478246
 30
0.0
 10
890.5858235041
 20
157.0613500785
 30
0.0
  0
LINE
  5
54B
100
AcDbEntity
  8
BEZUGSACHSEN
100
AcDbLine
 62
7
  6
CONTINUOUS
 10
951.1055208807
 20
210.9941571013
 11
951.107927028
 21
211.0646465132
  0
LINE
  5
54C
100
AcDbEntity
  8
BEZUGSACHSEN
100
AcDbLine
 62
7
  6
CONTINUOUS
 10
951.107927028
 20
211.0646465132
 11
951.1105632403
 21
211.1351328111
  0
LINE
  5
54D
100
AcDbEntity
  8
BEZUGSACHSEN
100
AcDbLine
 62
7
  6
CONTINUOUS
 10
951.3283472679
 20
211.5703299756
 11
951.1105632403
 21
211.1351328111
  0
LINE
  5
54E
100
AcDbEntity
  8
BEZUGSACHSEN
100
AcDbLine
 62
7
  6
CONTINUOUS
 10
951.1328427996
 20
209.0021127736
 11
951.13176134
 21
209.0203087012
  0
LINE
  5
54F
100
AcDbEntity
  8
BEZUGSACHSEN
100
AcDbLine
 62
7
  6
CONTINUOUS
 10
951.13176134
 20
209.0203087012
 11
951.1266018737
 21
209.1109468393
  0
LINE
  5
550
100
AcDbEntity
  8
BEZUGSACHSEN
100
AcDbLine
 62
7
  6
CONTINUOUS
 10
951.1266018737
 20
209.1109468393
 11
951.1218213081
 21
209.2015917989
  0
LINE
  5
551
100
AcDbEntity
  8
BEZUGSACHSEN
100
AcDbLine
 62
7
  6
CONTINUOUS
 10
951.1218213081
 20
209.2015917989
 11
951.2137019465
 21
209.416191768
  0
LINE
  5
552
100
AcDbEntity
  8
BEZUGSACHSEN
100
AcDbLine
 62
7
  6
CONTINUOUS
 10
951.2137019465
 20
209.416191768
 11
951.3034653893
 21
209.6258426636
  0
LINE
  5
553
100
AcDbEntity
  8
BEZUGSACHSEN
100
AcDbLine
 62
7
  6
CONTINUOUS
 10
951.1996672473
 20
203.1853896669
 11
951.2330708821
 21
203.1736819471
  0
LINE
  5
554
100
AcDbEntity
  8
BEZUGSACHSEN
100
AcDbLine
 62
7
  6
CONTINUOUS
 10
951.0306785747
 20
203.2458277848
 11
951.0137710749
 21
203.34928341
  0
LINE
  5
555
100
AcDbEntity
  8
BEZUGSACHSEN
100
AcDbLine
 62
7
  6
CONTINUOUS
 10
950.9814766442
 20
203.5572959886
 11
950.9660752286
 21
203.6618523773
  0
LINE
  5
556
100
AcDbEntity
  8
BEZUGSACHSEN
100
AcDbLine
 62
7
  6
CONTINUOUS
 10
951.3034585183
 20
205.4067845607
 11
951.2784129887
 21
205.3257120471
  0
LINE
  5
557
100
AcDbEntity
  8
BEZUGSACHSEN
100
AcDbLine
 62
7
  6
CONTINUOUS
 10
951.2784129887
 20
205.3257120471
 11
951.2284296093
 21
205.1637077935
  0
LINE
  5
558
100
AcDbEntity
  8
BEZUGSACHSEN
100
AcDbLine
 62
7
  6
CONTINUOUS
 10
951.0906804485
 20
212.1966254192
 11
951.1005031487
 21
212.1899260362
  0
LINE
  5
559
100
AcDbEntity
  8
BEZUGSACHSEN
100
AcDbLine
 62
7
  6
CONTINUOUS
 10
951.0589471257
 20
212.3858088049
 11
951.0601153431
 21
212.3012940113
  0
LINE
  5
55A
100
AcDbEntity
  8
BEZUGSACHSEN
100
AcDbLine
 62
7
  6
CONTINUOUS
 10
951.0601153431
 20
212.3012940113
 11
951.0609474536
 21
212.2590473379
  0
LINE
  5
55B
100
AcDbEntity
  8
BEZUGSACHSEN
100
AcDbLine
 62
7
  6
CONTINUOUS
 10
951.0609474536
 20
212.2590473379
 11
951.0619451389
 21
212.2168078139
  0
LINE
  5
55C
100
AcDbEntity
  8
BEZUGSACHSEN
100
AcDbLine
 62
7
  6
CONTINUOUS
 10
951.0655139057
 20
212.4255011649
 11
951.0589471257
 21
212.3858088049
  0
LINE
  5
55D
100
AcDbEntity
  8
BEZUGSACHSEN
100
AcDbLine
 62
7
  6
CONTINUOUS
 10
951.0672505244
 20
213.3841474239
 11
951.0739849432
 21
213.3440869394
  0
LINE
  5
55E
100
AcDbEntity
  8
BEZUGSACHSEN
100
AcDbLine
 62
7
  6
CONTINUOUS
 10
951.0927951422
 20
214.1718655992
 11
951.0757960635
 21
214.101842681
  0
LINE
  5
55F
100
AcDbEntity
  8
BEZUGSACHSEN
100
AcDbLine
 62
7
  6
CONTINUOUS
 10
951.0757960635
 20
214.101842681
 11
951.0591963144
 21
214.0315708695
  0
LINE
  5
560
100
AcDbEntity
  8
BEZUGSACHSEN
100
AcDbLine
 62
7
  6
CONTINUOUS
 10
951.0591963144
 20
214.0315708695
 11
951.0429914565
 21
213.9610503423
  0
LINE
  5
561
100
AcDbEntity
  8
BEZUGSACHSEN
100
AcDbLine
 62
7
  6
CONTINUOUS
 10
951.0429914565
 20
213.9610503423
 11
951.0271771069
 21
213.890281256
  0
LINE
  5
562
100
AcDbEntity
  8
BEZUGSACHSEN
100
AcDbLine
 62
7
  6
CONTINUOUS
 10
951.1005031487
 20
214.1964345595
 11
951.1144160199
 21
214.240591983
  0
LINE
  5
563
100
AcDbEntity
  8
BEZUGSACHSEN
100
AcDbLine
 62
7
  6
CONTINUOUS
 10
951.1005031487
 20
214.1964345595
 11
951.0927951422
 21
214.1718655992
  0
LINE
  5
564
100
AcDbEntity
  8
BEZUGSACHSEN
100
AcDbLine
 62
7
  6
CONTINUOUS
 10
952.3479293044
 20
217.4652859074
 11
951.843579039
 21
216.1050716625
  0
LINE
  5
565
100
AcDbEntity
  8
BEZUGSACHSEN
100
AcDbLine
 62
7
  6
CONTINUOUS
 10
951.843579039
 20
216.1050716625
 11
951.7152000959
 21
215.758185187
  0
LINE
  5
566
100
AcDbEntity
  8
BEZUGSACHSEN
100
AcDbLine
 62
7
  6
CONTINUOUS
 10
951.7152000959
 20
215.758185187
 11
951.5258713634
 21
215.2460992854
  0
LINE
  5
567
100
AcDbEntity
  8
BEZUGSACHSEN
100
AcDbLine
 62
7
  6
CONTINUOUS
 10
951.5258713634
 20
215.2460992854
 11
951.4055923765
 21
214.9204498738
  0
LINE
  5
568
100
AcDbEntity
  8
BEZUGSACHSEN
100
AcDbLine
 62
7
  6
CONTINUOUS
 10
951.4055923765
 20
214.9204498738
 11
951.2567028279
 21
214.5169773225
  0
LINE
  5
569
100
AcDbEntity
  8
BEZUGSACHSEN
100
AcDbLine
 62
7
  6
CONTINUOUS
 10
951.2567028279
 20
214.5169773225
 11
951.1005031487
 21
214.0932529179
  0
LINE
  5
56A
100
AcDbEntity
  8
BEZUGSACHSEN
100
AcDbLine
 62
7
  6
CONTINUOUS
 10
950.9912524811
 20
213.7433615325
 11
950.9883362915
 21
213.7759271436
  0
LINE
  5
56B
100
AcDbEntity
  8
BEZUGSACHSEN
100
AcDbLine
 62
7
  6
CONTINUOUS
 10
951.1005031487
 20
214.5751668001
 11
951.3825448638
 21
215.3046912068
  0
LINE
  5
56C
100
AcDbEntity
  8
BEZUGSACHSEN
100
AcDbLine
 62
7
  6
CONTINUOUS
 10
951.3825448638
 20
215.3046912068
 11
951.712811942
 21
216.1588794164
  0
LINE
  5
56D
100
AcDbEntity
  8
BEZUGSACHSEN
100
AcDbLine
 62
7
  6
CONTINUOUS
 10
951.712811942
 20
216.1588794164
 11
952.0760497453
 21
217.0982534612
  0
LINE
  5
56E
100
AcDbEntity
  8
BEZUGSACHSEN
100
AcDbLine
 62
7
  6
CONTINUOUS
 10
952.0760497453
 20
217.0982534612
 11
952.234888611
 21
217.5090012285
  0
LINE
  5
56F
100
AcDbEntity
  8
BEZUGSACHSEN
100
AcDbLine
 62
7
  6
CONTINUOUS
 10
952.234888611
 20
217.5090012285
 11
952.3435441997
 21
217.7899687655
  0
LINE
  5
570
100
AcDbEntity
  8
BEZUGSACHSEN
100
AcDbLine
 62
7
  6
CONTINUOUS
 10
952.3435441997
 20
217.7899687655
 11
952.5703337525
 21
218.3763898731
  0
LINE
  5
571
100
AcDbEntity
  8
BEZUGSACHSEN
100
AcDbLine
 62
7
  6
CONTINUOUS
 10
952.5703337525
 20
218.3763898731
 11
952.6138225707
 21
218.4888375095
  0
LINE
  5
572
100
AcDbEntity
  8
BEZUGSACHSEN
100
AcDbLine
 62
7
  6
CONTINUOUS
 10
952.6138225707
 20
218.4888375095
 11
952.6605988465
 21
218.6097841564
  0
LINE
  5
573
100
AcDbEntity
  8
BEZUGSACHSEN
100
AcDbLine
 62
7
  6
CONTINUOUS
 10
952.6605988465
 20
218.6097841564
 11
952.7348307464
 21
218.8017185245
  0
LINE
  5
574
100
AcDbEntity
  8
BEZUGSACHSEN
100
AcDbLine
 62
7
  6
CONTINUOUS
 10
952.7348307464
 20
218.8017185245
 11
952.7788454453
 21
218.9155216211
  0
LINE
  5
575
100
AcDbEntity
  8
BEZUGSACHSEN
100
AcDbLine
 62
7
  6
CONTINUOUS
 10
952.7788454453
 20
218.9155216211
 11
952.9684467302
 21
219.4057363069
  0
LINE
  5
576
100
AcDbEntity
  8
BEZUGSACHSEN
100
AcDbLine
 62
7
  6
CONTINUOUS
 10
952.9684467302
 20
219.4057363069
 11
953.0689227203
 21
219.6655090511
  0
LINE
  5
577
100
AcDbEntity
  8
BEZUGSACHSEN
100
AcDbLine
 62
7
  6
CONTINUOUS
 10
953.0689227203
 20
219.6655090511
 11
953.1641291101
 21
219.9116525219
  0
LINE
  5
578
100
AcDbEntity
  8
BEZUGSACHSEN
100
AcDbLine
 62
7
  6
CONTINUOUS
 10
953.1641291101
 20
219.9116525219
 11
953.1944134558
 21
219.9899476382
  0
LINE
  5
579
100
AcDbEntity
  8
BEZUGSACHSEN
100
AcDbLine
 62
7
  6
CONTINUOUS
 10
953.1944134558
 20
219.9899476382
 11
953.365893753
 21
220.4332720139
  0
LINE
  5
57A
100
AcDbEntity
  8
BEZUGSACHSEN
100
AcDbLine
 62
7
  6
CONTINUOUS
 10
953.365893753
 20
220.4332720139
 11
953.3951388435
 21
220.5088771697
  0
LINE
  5
57B
100
AcDbEntity
  8
BEZUGSACHSEN
100
AcDbLine
 62
7
  6
CONTINUOUS
 10
953.3951388435
 20
220.5088771697
 11
953.5085718468
 21
220.802122849
  0
LINE
  5
57C
100
AcDbEntity
  8
BEZUGSACHSEN
100
AcDbLine
 62
7
  6
CONTINUOUS
 10
953.5085718468
 20
220.802122849
 11
953.5717785132
 21
220.965521107
  0
LINE
  5
57D
100
AcDbEntity
  8
BEZUGSACHSEN
100
AcDbLine
 62
7
  6
CONTINUOUS
 10
953.5717785132
 20
220.965521107
 11
953.5922736287
 21
221.0185034694
  0
LINE
  5
57E
100
AcDbEntity
  8
BEZUGSACHSEN
100
AcDbLine
 62
7
  6
CONTINUOUS
 10
953.5922736287
 20
221.0185034694
 11
953.71318465
 21
221.3310688257
  0
LINE
  5
57F
100
AcDbEntity
  8
BEZUGSACHSEN
100
AcDbLine
 62
7
  6
CONTINUOUS
 10
953.71318465
 20
221.3310688257
 11
954.0789103115
 21
222.2764573438
  0
LINE
  5
580
100
AcDbEntity
  8
BEZUGSACHSEN
100
AcDbLine
 62
7
  6
CONTINUOUS
 10
951.1005031487
 20
208.9318901332
 11
951.3056104236
 21
209.3768403955
  0
LINE
  5
581
100
AcDbEntity
  8
BEZUGSACHSEN
100
AcDbLine
 62
7
  6
CONTINUOUS
 10
953.6733916077
 20
220.8004899239
 11
953.6577579399
 21
220.7444165747
  0
LINE
  5
582
100
AcDbEntity
  8
BEZUGSACHSEN
100
AcDbLine
 62
7
  6
CONTINUOUS
 10
953.6577579399
 20
220.7444165747
 11
953.5516287506
 21
220.4350687878
  0
LINE
  5
583
100
AcDbEntity
  8
BEZUGSACHSEN
100
AcDbLine
 62
7
  6
CONTINUOUS
 10
953.5516287506
 20
220.4350687878
 11
953.5293720313
 21
220.3700374412
  0
LINE
  5
584
100
AcDbEntity
  8
BEZUGSACHSEN
100
AcDbLine
 62
7
  6
CONTINUOUS
 10
953.5293720313
 20
220.3700374412
 11
953.4318904749
 21
220.1073919974
  0
LINE
  5
585
100
AcDbEntity
  8
BEZUGSACHSEN
100
AcDbLine
 62
7
  6
CONTINUOUS
 10
953.4318904749
 20
220.1073919974
 11
953.3627712411
 21
219.9210904211
  0
LINE
  5
586
100
AcDbEntity
  8
BEZUGSACHSEN
100
AcDbLine
 62
7
  6
CONTINUOUS
 10
953.3627712411
 20
219.9210904211
 11
953.3347855618
 21
219.8456413684
  0
LINE
  5
587
100
AcDbEntity
  8
BEZUGSACHSEN
100
AcDbLine
 62
7
  6
CONTINUOUS
 10
950.9849211678
 20
212.4522277467
 11
950.9690312824
 21
212.4594979377
  0
LINE
  5
588
100
AcDbEntity
  8
BEZUGSACHSEN
100
AcDbLine
 62
7
  6
CONTINUOUS
 10
953.3347855618
 20
219.8456413684
 11
953.2367638957
 21
219.5926029257
  0
LINE
  5
589
100
AcDbEntity
  8
BEZUGSACHSEN
100
AcDbLine
 62
7
  6
CONTINUOUS
 10
953.2367638957
 20
219.5926029257
 11
953.1388460624
 21
219.3398314561
  0
LINE
  5
58A
100
AcDbEntity
  8
BEZUGSACHSEN
100
AcDbLine
 62
7
  6
CONTINUOUS
 10
950.9690312824
 20
212.4594979377
 11
950.9680031892
 21
212.5459689743
  0
LINE
  5
58B
100
AcDbEntity
  8
BEZUGSACHSEN
100
AcDbLine
 62
7
  6
CONTINUOUS
 10
950.9682984426
 20
212.7189006039
 11
950.9696221196
 21
212.8053611963
  0
LINE
  5
58C
100
AcDbEntity
  8
BEZUGSACHSEN
100
AcDbLine
 62
7
  6
CONTINUOUS
 10
952.9415092105
 20
218.8526086488
 11
953.1388460624
 21
219.3398314561
  0
LINE
  5
58D
100
AcDbEntity
  8
BEZUGSACHSEN
100
AcDbLine
 62
7
  6
CONTINUOUS
 10
951.1734505991
 20
213.6408867562
 11
951.1368537113
 21
213.5150171606
  0
LINE
  5
58E
100
AcDbEntity
  8
BEZUGSACHSEN
100
AcDbLine
 62
7
  6
CONTINUOUS
 10
951.1368537113
 20
213.5150171606
 11
951.1005031487
 21
213.3893912745
  0
LINE
  5
58F
100
AcDbEntity
  8
BEZUGSACHSEN
100
AcDbLine
 62
7
  6
CONTINUOUS
 10
952.8085146505
 20
218.5525751956
 11
952.841598301
 21
218.6273330606
  0
LINE
  5
590
100
AcDbEntity
  8
BEZUGSACHSEN
100
AcDbLine
 62
7
  6
CONTINUOUS
 10
952.841598301
 20
218.6273330606
 11
952.8747919213
 21
218.7022579293
  0
LINE
  5
591
100
AcDbEntity
  8
BEZUGSACHSEN
100
AcDbLine
 62
7
  6
CONTINUOUS
 10
952.8747919213
 20
218.7022579293
 11
952.9080955464
 21
218.7773497945
  0
LINE
  5
592
100
AcDbEntity
  8
BEZUGSACHSEN
100
AcDbLine
 62
7
  6
CONTINUOUS
 10
952.9080955464
 20
218.7773497945
 11
952.9415092105
 21
218.8526086488
  0
LINE
  5
593
100
AcDbEntity
  8
BEZUGSACHSEN
100
AcDbLine
 62
7
  6
CONTINUOUS
 10
951.4451141197
 20
214.447486223
 11
951.3083494481
 21
214.0422839738
  0
LINE
  5
594
100
AcDbEntity
  8
BEZUGSACHSEN
100
AcDbLine
 62
7
  6
CONTINUOUS
 10
951.3083494481
 20
214.0422839738
 11
951.2406668993
 21
213.8411097061
  0
LINE
  5
595
100
AcDbEntity
  8
BEZUGSACHSEN
100
AcDbLine
 62
7
  6
CONTINUOUS
 10
951.2406668993
 20
213.8411097061
 11
951.2181185433
 21
213.7739916646
  0
LINE
  5
596
100
AcDbEntity
  8
BEZUGSACHSEN
100
AcDbLine
 62
7
  6
CONTINUOUS
 10
951.2181185433
 20
213.7739916646
 11
951.1734505991
 21
213.6408867562
  0
LINE
  5
597
100
AcDbEntity
  8
BEZUGSACHSEN
100
AcDbLine
 62
7
  6
CONTINUOUS
 10
951.7122271061
 20
215.1772284178
 11
951.4451141197
 21
214.447486223
  0
LINE
  5
598
100
AcDbEntity
  8
BEZUGSACHSEN
100
AcDbLine
 62
7
  6
CONTINUOUS
 10
952.0415620118
 20
216.0317608226
 11
951.7549687935
 21
215.2881397648
  0
LINE
  5
599
100
AcDbEntity
  8
BEZUGSACHSEN
100
AcDbLine
 62
7
  6
CONTINUOUS
 10
951.7549687935
 20
215.2881397648
 11
951.7122271061
 21
215.1772284178
  0
LINE
  5
59A
100
AcDbEntity
  8
BEZUGSACHSEN
100
AcDbLine
 62
7
  6
CONTINUOUS
 10
952.0415620118
 20
216.0317608226
 11
952.2845610172
 21
216.6400360145
  0
LINE
  5
59B
100
AcDbEntity
  8
BEZUGSACHSEN
100
AcDbLine
 62
7
  6
CONTINUOUS
 10
952.2845610172
 20
216.6400360145
 11
952.3713323127
 21
216.8572334118
  0
LINE
  5
59C
100
AcDbEntity
  8
BEZUGSACHSEN
100
AcDbLine
 62
7
  6
CONTINUOUS
 10
952.3713323127
 20
216.8572334118
 11
952.7736389201
 21
217.8641916099
  0
LINE
  5
59D
100
AcDbEntity
  8
BEZUGSACHSEN
100
AcDbLine
 62
7
  6
CONTINUOUS
 10
952.7736389201
 20
217.8641916099
 11
953.0197171136
 21
218.4800722721
  0
LINE
  5
59E
100
AcDbEntity
  8
BEZUGSACHSEN
100
AcDbLine
 62
7
  6
CONTINUOUS
 10
952.6606031444
 20
216.7416665089
 11
952.2685885646
 21
215.7623420206
  0
LINE
  5
59F
100
AcDbEntity
  8
BEZUGSACHSEN
100
AcDbLine
 62
7
  6
CONTINUOUS
 10
953.0197171136
 20
218.4800722721
 11
953.3427798913
 21
219.257747805
  0
LINE
  5
5A0
100
AcDbEntity
  8
BEZUGSACHSEN
100
AcDbLine
 62
7
  6
CONTINUOUS
 10
953.3427798913
 20
219.257747805
 11
953.4062614506
 21
219.4010888982
  0
LINE
  5
5A1
100
AcDbEntity
  8
BEZUGSACHSEN
100
AcDbLine
 62
7
  6
CONTINUOUS
 10
953.4062614506
 20
219.4010888982
 11
953.4699869979
 21
219.5448732371
  0
LINE
  5
5A2
100
AcDbEntity
  8
BEZUGSACHSEN
100
AcDbLine
 62
7
  6
CONTINUOUS
 10
953.4699869979
 20
219.5448732371
 11
953.533956481
 21
219.6891008361
  0
LINE
  5
5A3
100
AcDbEntity
  8
BEZUGSACHSEN
100
AcDbLine
 62
7
  6
CONTINUOUS
 10
953.533956481
 20
219.6891008361
 11
953.598169849
 21
219.833771709
  0
LINE
  5
5A4
100
AcDbEntity
  8
BEZUGSACHSEN
100
AcDbLine
 62
7
  6
CONTINUOUS
 10
951.5592273548
 20
213.659479849
 11
951.7570085028
 21
214.110712549
  0
LINE
  5
5A5
100
AcDbEntity
  8
BEZUGSACHSEN
100
AcDbLine
 62
7
  6
CONTINUOUS
 10
951.3034581317
 20
204.4520379383
 11
951.2859131175
 21
204.2954029389
  0
LINE
  5
5A6
100
AcDbEntity
  8
BEZUGSACHSEN
100
AcDbLine
 62
7
  6
CONTINUOUS
 10
951.2859131175
 20
204.2954029389
 11
951.3034618965
 21
204.2100493004
  0
LINE
  5
5A7
100
AcDbEntity
  8
BEZUGSACHSEN
100
AcDbLine
 62
7
  6
CONTINUOUS
 10
951.2330708821
 20
203.1736819471
 11
951.3034591424
 21
203.2115289586
  0
LINE
  5
5A8
100
AcDbEntity
  8
BEZUGSACHSEN
100
AcDbLine
 62
7
  6
CONTINUOUS
 10
951.2873908709
 20
208.7745875594
 11
951.3033375898
 21
208.7886400645
  0
LINE
  5
5A9
100
AcDbEntity
  8
BEZUGSACHSEN
100
AcDbLine
 62
7
  6
CONTINUOUS
 10
951.3080156074
 20
206.6667000486
 11
951.1005031487
 21
206.2164641022
  0
LINE
  5
5AA
100
AcDbEntity
  8
BEZUGSACHSEN
100
AcDbLine
 62
7
  6
CONTINUOUS
 10
952.483011118
 20
217.6909732549
 11
952.3936153922
 21
217.4484590699
  0
LINE
  5
5AB
100
AcDbEntity
  8
BEZUGSACHSEN
100
AcDbLine
 62
7
  6
CONTINUOUS
 10
952.3936153922
 20
217.4484590699
 11
952.1963015589
 21
216.9126681284
  0
LINE
  5
5AC
100
AcDbEntity
  8
BEZUGSACHSEN
100
AcDbLine
 62
7
  6
CONTINUOUS
 10
952.1963015589
 20
216.9126681284
 11
951.892579409
 21
216.0864927576
  0
LINE
  5
5AD
100
AcDbEntity
  8
BEZUGSACHSEN
100
AcDbLine
 62
7
  6
CONTINUOUS
 10
951.892579409
 20
216.0864927576
 11
951.8324024348
 21
215.9225862252
  0
LINE
  5
5AE
100
AcDbEntity
  8
BEZUGSACHSEN
100
AcDbLine
 62
7
  6
CONTINUOUS
 10
951.8324024348
 20
215.9225862252
 11
951.7797958904
 21
215.7792397589
  0
LINE
  5
5AF
100
AcDbEntity
  8
BEZUGSACHSEN
100
AcDbLine
 62
7
  6
CONTINUOUS
 10
951.7797958904
 20
215.7792397589
 11
951.5772152252
 21
215.2266993663
  0
LINE
  5
5B0
100
AcDbEntity
  8
BEZUGSACHSEN
100
AcDbLine
 62
7
  6
CONTINUOUS
 10
951.5772152252
 20
215.2266993663
 11
951.4371518067
 21
214.8441666802
  0
LINE
  5
5B1
100
AcDbEntity
  8
BEZUGSACHSEN
100
AcDbLine
 62
7
  6
CONTINUOUS
 10
951.4371518067
 20
214.8441666802
 11
951.3101087158
 21
214.4968226731
  0
LINE
  5
5B2
100
AcDbEntity
  8
BEZUGSACHSEN
100
AcDbLine
 62
7
  6
CONTINUOUS
 10
951.3101087158
 20
214.4968226731
 11
951.1553493487
 21
214.0732089008
  0
LINE
  5
5B3
100
AcDbEntity
  8
BEZUGSACHSEN
100
AcDbLine
 62
7
  6
CONTINUOUS
 10
951.1553493487
 20
214.0732089008
 11
951.1005031487
 21
213.9229490175
  0
LINE
  5
5B4
100
AcDbEntity
  8
BEZUGSACHSEN
100
AcDbLine
 62
7
  6
CONTINUOUS
 10
952.6196642726
 20
217.9538334426
 11
952.6859918562
 21
218.1076423144
  0
LINE
  5
5B5
100
AcDbEntity
  8
BEZUGSACHSEN
100
AcDbLine
 62
7
  6
CONTINUOUS
 10
952.6859918562
 20
218.1076423144
 11
952.8672774245
 21
218.5271476274
  0
LINE
  5
5B6
100
AcDbEntity
  8
BEZUGSACHSEN
100
AcDbLine
 62
7
  6
CONTINUOUS
 10
952.8672774245
 20
218.5271476274
 11
952.8741614641
 21
218.5430526918
  0
LINE
  5
5B7
100
AcDbEntity
  8
BEZUGSACHSEN
100
AcDbLine
 62
7
  6
CONTINUOUS
 10
952.8741614641
 20
218.5430526918
 11
952.8869031055
 21
218.5724865563
  0
LINE
  5
5B8
100
AcDbEntity
  8
BEZUGSACHSEN
100
AcDbLine
 62
7
  6
CONTINUOUS
 10
952.8869031055
 20
218.5724865563
 11
952.9858049014
 21
218.8157311472
  0
LINE
  5
5B9
100
AcDbEntity
  8
BEZUGSACHSEN
100
AcDbLine
 62
7
  6
CONTINUOUS
 10
952.9858049014
 20
218.8157311472
 11
953.0850312548
 21
219.0597093635
  0
LINE
  5
5BA
100
AcDbEntity
  8
BEZUGSACHSEN
100
AcDbLine
 62
7
  6
CONTINUOUS
 10
953.346118437
 20
219.7341224226
 11
953.2807583885
 21
219.5652930579
  0
LINE
  5
5BB
100
AcDbEntity
  8
BEZUGSACHSEN
100
AcDbLine
 62
7
  6
CONTINUOUS
 10
953.2807583885
 20
219.5652930579
 11
953.150214794
 21
219.2280865297
  0
LINE
  5
5BC
100
AcDbEntity
  8
BEZUGSACHSEN
100
AcDbLine
 62
7
  6
CONTINUOUS
 10
953.150214794
 20
219.2280865297
 11
953.0850312548
 21
219.0597093635
  0
LINE
  5
5BD
100
AcDbEntity
  8
BEZUGSACHSEN
100
AcDbLine
 62
7
  6
CONTINUOUS
 10
953.5397028656
 20
220.2585184953
 11
953.4911597849
 21
220.1270719845
  0
LINE
  5
5BE
100
AcDbEntity
  8
BEZUGSACHSEN
100
AcDbLine
 62
7
  6
CONTINUOUS
 10
953.4911597849
 20
220.1270719845
 11
953.3943675416
 21
219.8648739586
  0
LINE
  5
5BF
100
AcDbEntity
  8
BEZUGSACHSEN
100
AcDbLine
 62
7
  6
CONTINUOUS
 10
953.3943675416
 20
219.8648739586
 11
953.346118437
 21
219.7341224226
  0
LINE
  5
5C0
100
AcDbEntity
  8
BEZUGSACHSEN
100
AcDbLine
 62
7
  6
CONTINUOUS
 10
953.7950892579
 20
220.9886905549
 11
953.6667365232
 21
220.6222480131
  0
LINE
  5
5C1
100
AcDbEntity
  8
BEZUGSACHSEN
100
AcDbLine
 62
7
  6
CONTINUOUS
 10
953.6667365232
 20
220.6222480131
 11
953.5965404905
 21
220.421390472
  0
LINE
  5
5C2
100
AcDbEntity
  8
BEZUGSACHSEN
100
AcDbLine
 62
7
  6
CONTINUOUS
 10
953.5965404905
 20
220.421390472
 11
953.5397028656
 21
220.2585184953
  0
LINE
  5
5C3
100
AcDbEntity
  8
BEZUGSACHSEN
100
AcDbLine
 62
7
  6
CONTINUOUS
 10
951.1005031487
 20
214.5117432668
 11
951.1218527078
 21
214.5669033094
  0
LINE
  5
5C4
100
AcDbEntity
  8
BEZUGSACHSEN
100
AcDbLine
 62
7
  6
CONTINUOUS
 10
951.1218527078
 20
214.5669033094
 11
951.4042255934
 21
215.2964424287
  0
LINE
  5
5C5
100
AcDbEntity
  8
BEZUGSACHSEN
100
AcDbLine
 62
7
  6
CONTINUOUS
 10
951.4042255934
 20
215.2964424287
 11
951.4146239023
 21
215.3233069289
  0
LINE
  5
5C6
100
AcDbEntity
  8
BEZUGSACHSEN
100
AcDbLine
 62
7
  6
CONTINUOUS
 10
951.4146239023
 20
215.3233069289
 11
951.7302596194
 21
216.1387468215
  0
LINE
  5
5C7
100
AcDbEntity
  8
BEZUGSACHSEN
100
AcDbLine
 62
7
  6
CONTINUOUS
 10
951.7302596194
 20
216.1387468215
 11
952.2573338807
 21
217.5003560858
  0
LINE
  5
5C8
100
AcDbEntity
  8
BEZUGSACHSEN
100
AcDbLine
 62
7
  6
CONTINUOUS
 10
952.2573338807
 20
217.5003560858
 11
952.3660737995
 21
217.7812561122
  0
LINE
  5
5C9
100
AcDbEntity
  8
BEZUGSACHSEN
100
AcDbLine
 62
7
  6
CONTINUOUS
 10
952.7576961039
 20
218.7928749922
 11
952.8017651583
 21
218.9067090041
  0
LINE
  5
5CA
100
AcDbEntity
  8
BEZUGSACHSEN
100
AcDbLine
 62
7
  6
CONTINUOUS
 10
952.8017651583
 20
218.9067090041
 11
952.9915241066
 21
219.3968655144
  0
LINE
  5
5CB
100
AcDbEntity
  8
BEZUGSACHSEN
100
AcDbLine
 62
7
  6
CONTINUOUS
 10
952.9915241066
 20
219.3968655144
 11
953.001218319
 21
219.4219058509
  0
LINE
  5
5CC
100
AcDbEntity
  8
BEZUGSACHSEN
100
AcDbLine
 62
7
  6
CONTINUOUS
 10
953.001218319
 20
219.4219058509
 11
953.1873629789
 21
219.9027158852
  0
LINE
  5
5CD
100
AcDbEntity
  8
BEZUGSACHSEN
100
AcDbLine
 62
7
  6
CONTINUOUS
 10
953.1873629789
 20
219.9027158852
 11
953.2176983316
 21
219.9810709135
  0
LINE
  5
5CE
100
AcDbEntity
  8
BEZUGSACHSEN
100
AcDbLine
 62
7
  6
CONTINUOUS
 10
953.2176983316
 20
219.9810709135
 11
953.2455810682
 21
220.0530907055
  0
LINE
  5
5CF
100
AcDbEntity
  8
BEZUGSACHSEN
100
AcDbLine
 62
7
  6
CONTINUOUS
 10
953.2455810682
 20
220.0530907055
 11
953.4185893442
 21
220.4999581551
  0
LINE
  5
5D0
100
AcDbEntity
  8
BEZUGSACHSEN
100
AcDbLine
 62
7
  6
CONTINUOUS
 10
953.4185893442
 20
220.4999581551
 11
953.4907841758
 21
220.6864296227
  0
LINE
  5
5D1
100
AcDbEntity
  8
BEZUGSACHSEN
100
AcDbLine
 62
7
  6
CONTINUOUS
 10
953.4907841758
 20
220.6864296227
 11
953.5320744615
 21
220.7930773571
  0
LINE
  5
5D2
100
AcDbEntity
  8
BEZUGSACHSEN
100
AcDbLine
 62
7
  6
CONTINUOUS
 10
953.5320744615
 20
220.7930773571
 11
953.7368274782
 21
221.3219226646
  0
LINE
  5
5D3
100
AcDbEntity
  8
BEZUGSACHSEN
100
AcDbLine
 62
7
  6
CONTINUOUS
 10
951.4426529133
 20
213.1024627328
 11
951.6139110058
 21
213.5013220816
  0
LINE
  5
5D4
100
AcDbEntity
  8
BEZUGSACHSEN
100
AcDbLine
 62
7
  6
CONTINUOUS
 10
951.1536784435
 20
212.5811623048
 11
951.1715197478
 21
212.6032969804
  0
LINE
  5
5D5
100
AcDbEntity
  8
BEZUGSACHSEN
100
AcDbLine
 62
7
  6
CONTINUOUS
 10
951.3543393413
 20
213.4474356082
 11
951.3544875846
 21
213.4388225403
  0
LINE
  5
5D6
100
AcDbEntity
  8
BEZUGSACHSEN
100
AcDbLine
 62
7
  6
CONTINUOUS
 10
951.4250559496
 20
214.1016229644
 11
951.4073240336
 21
214.0223750129
  0
LINE
  5
5D7
100
AcDbEntity
  8
BEZUGSACHSEN
100
AcDbLine
 62
7
  6
CONTINUOUS
 10
951.4560493419
 20
214.2028597976
 11
951.4250559496
 21
214.1016229644
  0
LINE
  5
5D8
100
AcDbEntity
  8
BEZUGSACHSEN
100
AcDbLine
 62
7
  6
CONTINUOUS
 10
951.7609184177
 20
215.1098736601
 11
951.5608332738
 21
214.5433523277
  0
LINE
  5
5D9
100
AcDbEntity
  8
BEZUGSACHSEN
100
AcDbLine
 62
7
  6
CONTINUOUS
 10
952.0243393742
 20
215.8011853169
 11
951.8923929473
 21
215.4549420023
  0
LINE
  5
5DA
100
AcDbEntity
  8
BEZUGSACHSEN
100
AcDbLine
 62
7
  6
CONTINUOUS
 10
951.8923929473
 20
215.4549420023
 11
951.8189695266
 21
215.2622426235
  0
LINE
  5
5DB
100
AcDbEntity
  8
BEZUGSACHSEN
100
AcDbLine
 62
7
  6
CONTINUOUS
 10
951.8189695266
 20
215.2622426235
 11
951.7609184177
 21
215.1098736601
  0
LINE
  5
5DC
100
AcDbEntity
  8
BEZUGSACHSEN
100
AcDbLine
 62
7
  6
CONTINUOUS
 10
952.0243393742
 20
215.8011853169
 11
952.0446212002
 21
215.851904469
  0
LINE
  5
5DD
100
AcDbEntity
  8
BEZUGSACHSEN
100
AcDbLine
 62
7
  6
CONTINUOUS
 10
952.0446212002
 20
215.851904469
 11
952.2678129276
 21
216.4100359138
  0
LINE
  5
5DE
100
AcDbEntity
  8
BEZUGSACHSEN
100
AcDbLine
 62
7
  6
CONTINUOUS
 10
952.2678129276
 20
216.4100359138
 11
952.4363025141
 21
216.831364763
  0
LINE
  5
5DF
100
AcDbEntity
  8
BEZUGSACHSEN
100
AcDbLine
 62
7
  6
CONTINUOUS
 10
952.4363025141
 20
216.831364763
 11
953.0034379209
 21
218.2494967664
  0
LINE
  5
5E0
100
AcDbEntity
  8
BEZUGSACHSEN
100
AcDbLine
 62
7
  6
CONTINUOUS
 10
953.0034379209
 20
218.2494967664
 11
953.2623957372
 21
218.863951094
  0
LINE
  5
5E1
100
AcDbEntity
  8
BEZUGSACHSEN
100
AcDbLine
 62
7
  6
CONTINUOUS
 10
953.2623957372
 20
218.863951094
 11
953.4272494958
 21
219.2183981792
  0
LINE
  5
5E2
100
AcDbEntity
  8
BEZUGSACHSEN
100
AcDbLine
 62
7
  6
CONTINUOUS
 10
953.4272494958
 20
219.2183981792
 11
953.4398046889
 21
219.245348845
  0
LINE
  5
5E3
100
AcDbEntity
  8
BEZUGSACHSEN
100
AcDbLine
 62
7
  6
CONTINUOUS
 10
953.4398046889
 20
219.245348845
 11
953.4544389727
 21
219.2767547071
  0
LINE
  5
5E4
100
AcDbEntity
  8
BEZUGSACHSEN
100
AcDbLine
 62
7
  6
CONTINUOUS
 10
953.5487438184
 20
219.4349916876
 11
953.5804546136
 21
219.4879084504
  0
SPLINE
  5
5E5
100
AcDbEntity
  8
0
100
AcDbSpline
 62
7
  6
CONTINUOUS
 70
0
 71
3
 72
13
 73
9
 74
0
 42
0.0000001
 43
0.0000001
 44
0.0000000001
 40
0.0
 40
0.0
 40
0.0
 40
0.0
 40
0.1163020077
 40
0.2340377015
 40
0.3543777481
 40
0.4780373202
 40
0.7344007909
 40
1.0
 40
1.0
 40
1.0
 40
1.0
 10
953.5535276505
 20
126.330607896
 30
0.0
 10
953.5535276505
 20
125.6646126547
 30
0.0
 10
953.7072903506
 20
124.3195728227
 30
0.0
 10
954.3874168291
 20
122.3908838406
 30
0.0
 10
955.4886777475
 20
120.6176067287
 30
0.0
 10
957.4770485036
 20
118.5304836309
 30
0.0
 10
960.7690823913
 20
116.6594933527
 30
0.0
 10
963.7825331348
 20
116.1548094015
 30
0.0
 10
965.3034682666
 20
116.1548094015
 30
0.0
  0
SPLINE
  5
5E6
100
AcDbEntity
  8
0
100
AcDbSpline
 62
7
  6
CONTINUOUS
 70
0
 71
3
 72
13
 73
9
 74
0
 42
0.0000001
 43
0.0000001
 44
0.0000000001
 40
0.0
 40
0.0
 40
0.0
 40
0.0
 40
0.2655992091
 40
0.5219626798
 40
0.6456222519
 40
0.7659622985
 40
0.8836979923
 40
1.0
 40
1.0
 40
1.0
 40
1.0
 10
965.3034682666
 20
116.1548094015
 30
0.0
 10
966.8244033984
 20
116.1548094015
 30
0.0
 10
969.8378541419
 20
116.6594933527
 30
0.0
 10
973.1298880297
 20
118.5304836309
 30
0.0
 10
975.1182587857
 20
120.6176067287
 30
0.0
 10
976.2195197041
 20
122.3908838406
 30
0.0
 10
976.8996461826
 20
124.3195728227
 30
0.0
 10
977.0534088827
 20
125.6646126547
 30
0.0
 10
977.0534088827
 20
126.330607896
 30
0.0
  0
SPLINE
  5
5E7
100
AcDbEntity
  8
0
100
AcDbSpline
 62
7
  6
CONTINUOUS
 70
0
 71
3
 72
9
 73
5
 74
0
 42
0.0000001
 43
0.0000001
 44
0.0000000001
 40
0.0
 40
0.0
 40
0.0
 40
0.0
 40
0.2447683318
 40
1.0
 40
1.0
 40
1.0
 40
1.0
 10
990.1476163326
 20
103.6012253686
 30
0.0
 10
990.4525533957
 20
104.06471767
 30
0.0
 10
991.6627013939
 20
105.9818465525
 30
0.0
 10
992.756736047
 20
107.9697701774
 30
0.0
 10
993.5503311839
 20
109.4865634974
 30
0.0
  0
SPLINE
  5
5E8
100
AcDbEntity
  8
0
100
AcDbSpline
 62
7
  6
CONTINUOUS
 70
0
 71
3
 72
10
 73
6
 74
0
 42
0.0000001
 43
0.0000001
 44
0.0000000001
 40
0.0
 40
0.0
 40
0.0
 40
0.0
 40
0.5052075927
 40
0.7611480144
 40
1.0
 40
1.0
 40
1.0
 40
1.0
 10
992.6128820965
 20
107.7411691066
 30
0.0
 10
993.0610271802
 20
106.4619846615
 30
0.0
 10
993.6765552404
 20
104.5090584667
 30
0.0
 10
994.192686705
 20
101.8733204085
 30
0.0
 10
994.3034682666
 20
100.5454614808
 30
0.0
 10
994.3034682666
 20
99.9046490548
 30
0.0
  0
SPLINE
  5
5E9
100
AcDbEntity
  8
BEZUGSACHSEN
100
AcDbSpline
 62
7
  6
CONTINUOUS
 70
0
 71
3
 72
9
 73
5
 74
0
 42
0.0000001
 43
0.0000001
 44
0.0000000001
 40
0.0
 40
0.0
 40
0.0
 40
0.0
 40
0.4996327638
 40
1.0
 40
1.0
 40
1.0
 40
1.0
 10
936.3034682666
 20
75.4886635641
 30
0.0
 10
936.3034682666
 20
75.0961458748
 30
0.0
 10
936.4073270596
 20
74.3071059728
 30
0.0
 10
936.7117558637
 20
73.5722210533
 30
0.0
 10
936.9068720892
 20
73.2309687982
 30
0.0
  0
SPLINE
  5
5EA
100
AcDbEntity
  8
0
100
AcDbSpline
 62
7
  6
CONTINUOUS
 70
0
 71
3
 72
9
 73
5
 74
0
 42
0.0000001
 43
0.0000001
 44
0.0000000001
 40
0.0
 40
0.0
 40
0.0
 40
0.0
 40
0.5512763368
 40
1.0
 40
1.0
 40
1.0
 40
1.0
 10
993.5503311839
 20
109.4865634974
 30
0.0
 10
993.7678762927
 20
109.9023560754
 30
0.0
 10
994.1170119771
 20
110.6803940016
 30
0.0
 10
994.3034682666
 20
111.5275092473
 30
0.0
 10
994.3034682666
 20
111.9094776963
 30
0.0
  0
SPLINE
  5
5EB
100
AcDbEntity
  8
BEZUGSACHSEN
100
AcDbSpline
 62
7
  6
CONTINUOUS
 70
0
 71
3
 72
9
 73
5
 74
0
 42
0.0000001
 43
0.0000001
 44
0.0000000001
 40
0.0
 40
0.0
 40
0.0
 40
0.0
 40
0.5028158989
 40
1.0
 40
1.0
 40
1.0
 40
1.0
 10
938.4150125382
 20
142.7160243072
 30
0.0
 10
937.7403570832
 20
141.7040411247
 30
0.0
 10
936.6732892284
 20
139.4909583195
 30
0.0
 10
936.3034682666
 20
137.0584010588
 30
0.0
 10
936.3034682666
 20
135.8557712959
 30
0.0
  0
SPLINE
  5
5EC
100
AcDbEntity
  8
BEZUGSACHSEN
100
AcDbSpline
 62
7
  6
CONTINUOUS
 70
0
 71
3
 72
9
 73
5
 74
0
 42
0.0000001
 43
0.0000001
 44
0.0000000001
 40
0.0
 40
0.0
 40
0.0
 40
0.0
 40
0.2437742581
 40
1.0
 40
1.0
 40
1.0
 40
1.0
 10
959.2336539732
 20
233.7374703382
 30
0.0
 10
959.2789110273
 20
233.8553402317
 30
0.0
 10
959.4749047973
 20
234.3348730606
 30
0.0
 10
959.7099350356
 20
234.7980638399
 30
0.0
 10
959.9040316987
 20
235.1382660973
 30
0.0
  0
SPLINE
  5
5ED
100
AcDbEntity
  8
RUNDUNGEN
100
AcDbSpline
 62
7
  6
CONTINUOUS
 70
0
 71
3
 72
9
 73
5
 74
0
 42
0.0000001
 43
0.0000001
 44
0.0000000001
 40
0.0
 40
0.0
 40
0.0
 40
0.0
 40
0.4996327638
 40
1.0
 40
1.0
 40
1.0
 40
1.0
 10
994.3034682666
 20
75.4886635641
 30
0.0
 10
994.3034682666
 20
75.0961458748
 30
0.0
 10
994.1996094737
 20
74.3071059728
 30
0.0
 10
993.8951806696
 20
73.5722210533
 30
0.0
 10
993.700064444
 20
73.2309687982
 30
0.0
  0
SPLINE
  5
5EE
100
AcDbEntity
  8
RUNDUNGEN
100
AcDbSpline
 62
7
  6
CONTINUOUS
 70
0
 71
3
 72
9
 73
5
 74
0
 42
0.0000001
 43
0.0000001
 44
0.0000000001
 40
0.0
 40
0.0
 40
0.0
 40
0.0
 40
0.5028158989
 40
1.0
 40
1.0
 40
1.0
 40
1.0
 10
992.1919239951
 20
142.7160243072
 30
0.0
 10
992.8665794501
 20
141.7040411247
 30
0.0
 10
993.9336473049
 20
139.4909583195
 30
0.0
 10
994.3034682666
 20
137.0584010588
 30
0.0
 10
994.3034682666
 20
135.8557712959
 30
0.0
  0
SPLINE
  5
5EF
100
AcDbEntity
  8
BEZUGSACHSEN
100
AcDbSpline
 62
7
  6
CONTINUOUS
 70
0
 71
3
 72
9
 73
5
 74
0
 42
0.0000001
 43
0.0000001
 44
0.0000000001
 40
0.0
 40
0.0
 40
0.0
 40
0.0
 40
0.5031800238
 40
1.0
 40
1.0
 40
1.0
 40
1.0
 10
983.3579710565
 20
96.4240429603
 30
0.0
 10
984.6914023005
 20
97.4184598285
 30
0.0
 10
987.1778387062
 20
99.6247832799
 30
0.0
 10
989.244922821
 20
102.2291668567
 30
0.0
 10
990.1476163326
 20
103.6012253686
 30
0.0
  0
SPLINE
  5
5F0
100
AcDbEntity
  8
BEZUGSACHSEN
100
AcDbSpline
 62
7
  6
CONTINUOUS
 70
0
 71
3
 72
15
 73
11
 74
0
 42
0.0000001
 43
0.0000001
 44
0.0000000001
 40
0.0
 40
0.0
 40
0.0
 40
0.0
 40
0.1183393621
 40
0.2416854509
 40
0.3695318259
 40
0.5
 40
0.6304681741
 40
0.7583145491
 40
0.8816606379
 40
1.0
 40
1.0
 40
1.0
 40
1.0
 10
986.6328337654
 20
99.2742592502
 30
0.0
 10
985.7319532155
 20
97.4520252621
 30
0.0
 10
983.2669794496
 20
94.0140863166
 30
0.0
 10
978.1569725716
 20
90.1141504448
 30
0.0
 10
971.9998330313
 20
87.6480413364
 30
0.0
 10
965.3034682666
 20
86.8061666941
 30
0.0
 10
958.607103502
 20
87.6480413364
 30
0.0
 10
952.4499639617
 20
90.1141504448
 30
0.0
 10
947.3399570837
 20
94.0140863166
 30
0.0
 10
944.8749833178
 20
97.4520252621
 30
0.0
 10
943.9741027678
 20
99.2742592502
 30
0.0
  0
SPLINE
  5
5F1
100
AcDbEntity
  8
0
100
AcDbSpline
 62
7
  6
CONTINUOUS
 70
0
 71
3
 72
9
 73
5
 74
0
 42
0.0000001
 43
0.0000001
 44
0.0000000001
 40
0.0
 40
0.0
 40
0.0
 40
0.0
 40
0.2437742581
 40
1.0
 40
1.0
 40
1.0
 40
1.0
 10
971.3732825601
 20
233.7374703382
 30
0.0
 10
971.3280255059
 20
233.8553402317
 30
0.0
 10
971.1320317359
 20
234.3348730606
 30
0.0
 10
970.8970014976
 20
234.7980638399
 30
0.0
 10
970.7029048346
 20
235.1382660973
 30
0.0
  0
SPLINE
  5
5F2
100
AcDbEntity
  8
BEZUGSACHSEN
100
AcDbSpline
 62
7
  6
CONTINUOUS
 70
0
 71
3
 72
9
 73
5
 74
0
 42
0.0000001
 43
0.0000001
 44
0.0000000001
 40
0.0
 40
0.0
 40
0.0
 40
0.0
 40
0.4968220354
 40
1.0
 40
1.0
 40
1.0
 40
1.0
 10
940.4593202007
 20
103.6012253686
 30
0.0
 10
941.3613756487
 20
102.2301366881
 30
0.0
 10
943.42681014
 20
99.6274963771
 30
0.0
 10
945.9110545428
 20
97.4223017741
 30
0.0
 10
947.2432925728
 20
96.4282746379
 30
0.0
  0
SPLINE
  5
5F3
100
AcDbEntity
  8
BEZUGSACHSEN
100
AcDbSpline
 62
7
  6
CONTINUOUS
 70
0
 71
3
 72
9
 73
5
 74
0
 42
0.0000001
 43
0.0000001
 44
0.0000000001
 40
0.0
 40
0.0
 40
0.0
 40
0.0
 40
0.2447683318
 40
1.0
 40
1.0
 40
1.0
 40
1.0
 10
940.4593202007
 20
103.6012253686
 30
0.0
 10
940.1543831376
 20
104.06471767
 30
0.0
 10
938.9442351393
 20
105.9818465525
 30
0.0
 10
937.8502004862
 20
107.9697701774
 30
0.0
 10
937.0566053494
 20
109.4865634974
 30
0.0
  0
LINE
  5
5F4
100
AcDbEntity
  8
BEZUGSACHSEN
100
AcDbLine
 62
7
  6
CONTINUOUS
 10
979.4072692859
 20
203.1853896669
 11
979.3738656512
 21
203.1736819471
  0
LINE
  5
5F5
100
AcDbEntity
  8
BEZUGSACHSEN
100
AcDbLine
 62
7
  6
CONTINUOUS
 10
979.5762579585
 20
203.2458277848
 11
979.5931654583
 21
203.34928341
  0
SPLINE
  5
5F6
100
AcDbEntity
  8
BEZUGSACHSEN
100
AcDbSpline
 62
7
  6
CONTINUOUS
 70
0
 71
3
 72
10
 73
6
 74
0
 42
0.0000001
 43
0.0000001
 44
0.0000000001
 40
0.0
 40
0.0
 40
0.0
 40
0.0
 40
0.5052075927
 40
0.7611480144
 40
1.0
 40
1.0
 40
1.0
 40
1.0
 10
937.9940544368
 20
107.7411691066
 30
0.0
 10
937.545909353
 20
106.4619846615
 30
0.0
 10
936.9303812929
 20
104.5090584667
 30
0.0
 10
936.4142498283
 20
101.8733204085
 30
0.0
 10
936.3034682666
 20
100.5454614808
 30
0.0
 10
936.3034682666
 20
99.9046490548
 30
0.0
  0
SPLINE
  5
5F7
100
AcDbEntity
  8
BEZUGSACHSEN
100
AcDbSpline
 62
7
  6
CONTINUOUS
 70
0
 71
3
 72
9
 73
5
 74
0
 42
0.0000001
 43
0.0000001
 44
0.0000000001
 40
0.0
 40
0.0
 40
0.0
 40
0.0
 40
0.5512763368
 40
1.0
 40
1.0
 40
1.0
 40
1.0
 10
937.0566053494
 20
109.4865634974
 30
0.0
 10
936.8390602406
 20
109.9023560754
 30
0.0
 10
936.4899245562
 20
110.6803940016
 30
0.0
 10
936.3034682666
 20
111.5275092473
 30
0.0
 10
936.3034682666
 20
111.9094776963
 30
0.0
  0
LINE
  5
5F8
100
AcDbEntity
  8
BEZUGSACHSEN
100
AcDbLine
 62
7
  6
CONTINUOUS
 10
979.3034780149
 20
205.4067845607
 11
979.3285235445
 21
205.3257120471
  0
LINE
  5
5F9
100
AcDbEntity
  8
BEZUGSACHSEN
100
AcDbLine
 62
7
  6
CONTINUOUS
 10
979.3285235445
 20
205.3257120471
 11
979.378506924
 21
205.1637077935
  0
LINE
  5
5FA
100
AcDbEntity
  8
BEZUGSACHSEN
100
AcDbLine
 62
7
  6
CONTINUOUS
 10
979.5064333846
 20
208.9318901332
 11
979.4740634781
 21
209.0021131523
  0
LINE
  5
5FB
100
AcDbEntity
  8
BEZUGSACHSEN
100
AcDbLine
 62
7
  6
CONTINUOUS
 10
979.6379052508
 20
212.4594979377
 11
979.638933344
 21
212.5459689743
  0
LINE
  5
5FC
100
AcDbEntity
  8
BEZUGSACHSEN
100
AcDbLine
 62
7
  6
CONTINUOUS
 10
979.6386380907
 20
212.7189006039
 11
979.6380893591
 21
212.7611507636
  0
LINE
  5
5FD
100
AcDbEntity
  8
BEZUGSACHSEN
100
AcDbLine
 62
7
  6
CONTINUOUS
 10
979.6380893591
 20
212.7611507636
 11
979.6373144137
 21
212.8053611963
  0
LINE
  5
5FE
100
AcDbEntity
  8
BEZUGSACHSEN
100
AcDbLine
 62
7
  6
CONTINUOUS
 10
979.6373144137
 20
212.8053611963
 11
979.6212494934
 21
212.8946837601
  0
LINE
  5
5FF
100
AcDbEntity
  8
BEZUGSACHSEN
100
AcDbLine
 62
7
  6
CONTINUOUS
 10
979.5879232709
 20
213.0723673484
 11
979.5706526478
 21
213.1607279202
  0
LINE
  5
600
100
AcDbEntity
  8
BEZUGSACHSEN
100
AcDbLine
 62
7
  6
CONTINUOUS
 10
979.5064333846
 20
214.5751668001
 11
979.4913103352
 21
214.6142853801
  0
LINE
  5
601
100
AcDbEntity
  8
BEZUGSACHSEN
100
AcDbLine
 62
7
  6
CONTINUOUS
 10
979.4913103352
 20
214.6142853801
 11
979.4819837254
 21
214.6384103023
  0
LINE
  5
602
100
AcDbEntity
  8
BEZUGSACHSEN
100
AcDbLine
 62
7
  6
CONTINUOUS
 10
979.4819837254
 20
214.6384103023
 11
979.1906957689
 21
215.3918444413
  0
LINE
  5
603
100
AcDbEntity
  8
BEZUGSACHSEN
100
AcDbLine
 62
7
  6
CONTINUOUS
 10
979.1906957689
 20
215.3918444413
 11
979.0208275939
 21
215.8311896633
  0
LINE
  5
604
100
AcDbEntity
  8
BEZUGSACHSEN
100
AcDbLine
 62
7
  6
CONTINUOUS
 10
979.0208275939
 20
215.8311896633
 11
978.9150693441
 21
216.1047111537
  0
LINE
  5
605
100
AcDbEntity
  8
BEZUGSACHSEN
100
AcDbLine
 62
7
  6
CONTINUOUS
 10
978.9150693441
 20
216.1047111537
 11
978.5824295997
 21
216.9649633191
  0
LINE
  5
606
100
AcDbEntity
  8
BEZUGSACHSEN
100
AcDbLine
 62
7
  6
CONTINUOUS
 10
978.5824295997
 20
216.9649633191
 11
978.530886788
 21
217.0982534612
  0
LINE
  5
607
100
AcDbEntity
  8
BEZUGSACHSEN
100
AcDbLine
 62
7
  6
CONTINUOUS
 10
978.530886788
 20
217.0982534612
 11
978.3720479222
 21
217.5090012285
  0
LINE
  5
608
100
AcDbEntity
  8
BEZUGSACHSEN
100
AcDbLine
 62
7
  6
CONTINUOUS
 10
978.3720479222
 20
217.5090012285
 11
978.2633923335
 21
217.7899687655
  0
LINE
  5
609
100
AcDbEntity
  8
BEZUGSACHSEN
100
AcDbLine
 62
7
  6
CONTINUOUS
 10
978.2633923335
 20
217.7899687655
 11
977.6083173518
 21
219.4837453895
  0
LINE
  5
60A
100
AcDbEntity
  8
BEZUGSACHSEN
100
AcDbLine
 62
7
  6
CONTINUOUS
 10
977.6083173518
 20
219.4837453895
 11
977.5380138129
 21
219.6655090511
  0
LINE
  5
60B
100
AcDbEntity
  8
BEZUGSACHSEN
100
AcDbLine
 62
7
  6
CONTINUOUS
 10
977.5380138129
 20
219.6655090511
 11
977.2915265116
 21
220.3027591204
  0
LINE
  5
60C
100
AcDbEntity
  8
BEZUGSACHSEN
100
AcDbLine
 62
7
  6
CONTINUOUS
 10
977.2915265116
 20
220.3027591204
 11
977.2185862443
 21
220.491327265
  0
LINE
  5
60D
100
AcDbEntity
  8
BEZUGSACHSEN
100
AcDbLine
 62
7
  6
CONTINUOUS
 10
977.2185862443
 20
220.491327265
 11
977.0837831714
 21
220.8398183292
  0
LINE
  5
60E
100
AcDbEntity
  8
BEZUGSACHSEN
100
AcDbLine
 62
7
  6
CONTINUOUS
 10
977.0837831714
 20
220.8398183292
 11
977.0475615386
 21
220.9334564016
  0
LINE
  5
60F
100
AcDbEntity
  8
BEZUGSACHSEN
100
AcDbLine
 62
7
  6
CONTINUOUS
 10
977.0475615386
 20
220.9334564016
 11
977.0351580201
 21
220.965521107
  0
LINE
  5
610
100
AcDbEntity
  8
BEZUGSACHSEN
100
AcDbLine
 62
7
  6
CONTINUOUS
 10
977.0351580201
 20
220.965521107
 11
976.8191893251
 21
221.5238157962
  0
LINE
  5
611
100
AcDbEntity
  8
BEZUGSACHSEN
100
AcDbLine
 62
7
  6
CONTINUOUS
 10
976.8191893251
 20
221.5238157962
 11
976.7204237758
 21
221.7791241936
  0
LINE
  5
612
100
AcDbEntity
  8
BEZUGSACHSEN
100
AcDbLine
 62
7
  6
CONTINUOUS
 10
976.7204237758
 20
221.7791241936
 11
976.6939901688
 21
221.8474541185
  0
LINE
  5
613
100
AcDbEntity
  8
BEZUGSACHSEN
100
AcDbLine
 62
7
  6
CONTINUOUS
 10
976.6939901688
 20
221.8474541185
 11
976.5280262218
 21
222.2764573438
  0
LINE
  5
614
100
AcDbEntity
  8
BEZUGSACHSEN
100
AcDbLine
 62
7
  6
CONTINUOUS
 10
978.0081352731
 20
214.0952436034
 11
978.087276167
 21
213.9385854807
  0
LINE
  5
615
100
AcDbEntity
  8
BEZUGSACHSEN
100
AcDbLine
 62
7
  6
CONTINUOUS
 10
978.087276167
 20
213.9385854807
 11
978.3034831823
 21
213.5102093573
  0
LINE
  5
616
100
AcDbEntity
  8
BEZUGSACHSEN
100
AcDbLine
 62
7
  6
CONTINUOUS
 10
978.3034831823
 20
213.5102093573
 11
978.3128158923
 21
213.4917048519
  0
LINE
  5
617
100
AcDbEntity
  8
BEZUGSACHSEN
100
AcDbLine
 62
7
  6
CONTINUOUS
 10
978.3128158923
 20
213.4917048519
 11
978.3903297037
 21
213.3379700545
  0
LINE
  5
618
100
AcDbEntity
  8
BEZUGSACHSEN
100
AcDbLine
 62
7
  6
CONTINUOUS
 10
978.3903297037
 20
213.3379700545
 11
978.4621082352
 21
213.1955399214
  0
SPLINE
  5
619
100
AcDbEntity
  8
BEZUGSACHSEN
100
AcDbSpline
 62
7
  6
CONTINUOUS
 70
0
 71
3
 72
8
 73
4
 74
0
 42
0.0000001
 43
0.0000001
 44
0.0000000001
 40
0.0
 40
0.0
 40
0.0
 40
0.0
 40
1.0
 40
1.0
 40
1.0
 40
1.0
 10
977.8732138681
 20
214.6416247528
 30
0.0
 10
977.7847331326
 20
214.9052362708
 30
0.0
 10
977.6960630902
 20
215.1687843172
 30
0.0
 10
977.6072124628
 20
215.4322713928
 30
0.0
  0
LINE
  5
61A
100
AcDbEntity
  8
BEZUGSACHSEN
100
AcDbLine
 62
7
  6
CONTINUOUS
 10
979.1631170152
 20
214.4873981903
 11
979.0127052976
 21
214.8742905015
  0
LINE
  5
61B
100
AcDbEntity
  8
BEZUGSACHSEN
100
AcDbLine
 62
7
  6
CONTINUOUS
 10
979.0127052976
 20
214.8742905015
 11
978.6822004982
 21
215.7243827489
  0
LINE
  5
61C
100
AcDbEntity
  8
BEZUGSACHSEN
100
AcDbLine
 62
7
  6
CONTINUOUS
 10
978.6822004982
 20
215.7243827489
 11
978.6000283608
 21
215.9357297678
  0
LINE
  5
61D
100
AcDbEntity
  8
BEZUGSACHSEN
100
AcDbLine
 62
7
  6
CONTINUOUS
 10
978.6000283608
 20
215.9357297678
 11
976.879537095
 21
220.3601805793
  0
LINE
  5
61E
100
AcDbEntity
  8
BEZUGSACHSEN
100
AcDbLine
 62
7
  6
CONTINUOUS
 10
977.6072124628
 20
215.4322713928
 11
977.4094525955
 21
215.9497273716
  0
LINE
  5
61F
100
AcDbEntity
  8
BEZUGSACHSEN
100
AcDbLine
 62
7
  6
CONTINUOUS
 10
977.1482767976
 20
216.5591049738
 11
977.4094525955
 21
215.9497273716
  0
LINE
  5
620
100
AcDbEntity
  8
BEZUGSACHSEN
100
AcDbLine
 62
7
  6
CONTINUOUS
 10
976.9542069761
 20
216.9557147582
 11
977.0003007852
 21
216.8615500936
  0
LINE
  5
621
100
AcDbEntity
  8
BEZUGSACHSEN
100
AcDbLine
 62
7
  6
CONTINUOUS
 10
977.0003007852
 20
216.8615500936
 11
977.0999028922
 21
216.6580001321
  0
LINE
  5
622
100
AcDbEntity
  8
BEZUGSACHSEN
100
AcDbLine
 62
7
  6
CONTINUOUS
 10
977.0999028922
 20
216.6580001321
 11
977.1482767976
 21
216.5591049738
  0
LINE
  5
623
100
AcDbEntity
  8
BEZUGSACHSEN
100
AcDbLine
 62
7
  6
CONTINUOUS
 10
979.4851152252
 20
209.2015917989
 11
978.8920511306
 21
210.5867028204
  0
LINE
  5
624
100
AcDbEntity
  8
BEZUGSACHSEN
100
AcDbLine
 62
7
  6
CONTINUOUS
 10
978.8920511306
 20
210.5867028204
 11
978.5845895813
 21
211.3047201875
  0
LINE
  5
625
100
AcDbEntity
  8
BEZUGSACHSEN
100
AcDbLine
 62
7
  6
CONTINUOUS
 10
978.5845895813
 20
211.3047201875
 11
978.1151953409
 21
212.4008223969
  0
LINE
  5
626
100
AcDbEntity
  8
BEZUGSACHSEN
100
AcDbLine
 62
7
  6
CONTINUOUS
 10
977.723727529
 20
213.3148881601
 11
977.200838069
 21
214.5357315248
  0
LINE
  5
627
100
AcDbEntity
  8
BEZUGSACHSEN
100
AcDbLine
 62
7
  6
CONTINUOUS
 10
977.200838069
 20
214.5357315248
 11
976.7449546087
 21
215.6000529948
  0
LINE
  5
628
100
AcDbEntity
  8
BEZUGSACHSEN
100
AcDbLine
 62
7
  6
CONTINUOUS
 10
976.4653351089
 20
220.6627981504
 11
976.5545915815
 21
220.4417235903
  0
LINE
  5
629
100
AcDbEntity
  8
BEZUGSACHSEN
100
AcDbLine
 62
7
  6
CONTINUOUS
 10
976.5545915815
 20
220.4417235903
 11
976.9044277874
 21
219.5752190899
  0
LINE
  5
62A
100
AcDbEntity
  8
BEZUGSACHSEN
100
AcDbLine
 62
7
  6
CONTINUOUS
 10
976.9044277874
 20
219.5752190899
 11
978.4892901737
 21
215.6493820191
  0
LINE
  5
62B
100
AcDbEntity
  8
BEZUGSACHSEN
100
AcDbLine
 62
7
  6
CONTINUOUS
 10
978.7455481766
 20
213.777232941
 11
978.921249625
 21
213.4262573737
  0
LINE
  5
62C
100
AcDbEntity
  8
BEZUGSACHSEN
100
AcDbLine
 62
7
  6
CONTINUOUS
 10
978.921249625
 20
213.4262573737
 11
978.9460925785
 21
213.3765643201
  0
LINE
  5
62D
100
AcDbEntity
  8
BEZUGSACHSEN
100
AcDbLine
 62
7
  6
CONTINUOUS
 10
978.4819401526
 20
214.3818751909
 11
978.679819729
 21
213.9280148694
  0
LINE
  5
62E
100
AcDbEntity
  8
BEZUGSACHSEN
100
AcDbLine
 62
7
  6
CONTINUOUS
 10
978.679819729
 20
213.9280148694
 11
978.7455481766
 21
213.777232941
  0
LINE
  5
62F
100
AcDbEntity
  8
BEZUGSACHSEN
100
AcDbLine
 62
7
  6
CONTINUOUS
 10
978.4819401526
 20
214.3818751909
 11
978.3065723658
 21
214.8164899741
  0
LINE
  5
630
100
AcDbEntity
  8
BEZUGSACHSEN
100
AcDbLine
 62
7
  6
CONTINUOUS
 10
978.3065723658
 20
214.8164899741
 11
977.9949602653
 21
215.5887322528
  0
LINE
  5
631
100
AcDbEntity
  8
BEZUGSACHSEN
100
AcDbLine
 62
7
  6
CONTINUOUS
 10
977.9949602653
 20
215.5887322528
 11
977.9818891411
 21
215.6211245841
  0
LINE
  5
632
100
AcDbEntity
  8
BEZUGSACHSEN
100
AcDbLine
 62
7
  6
CONTINUOUS
 10
977.9818891411
 20
215.6211245841
 11
977.787694719
 21
216.1023624816
  0
LINE
  5
633
100
AcDbEntity
  8
BEZUGSACHSEN
100
AcDbLine
 62
7
  6
CONTINUOUS
 10
977.787694719
 20
216.1023624816
 11
977.5396468112
 21
216.7170377871
  0
LINE
  5
634
100
AcDbEntity
  8
BEZUGSACHSEN
100
AcDbLine
 62
7
  6
CONTINUOUS
 10
977.5396468112
 20
216.7170377871
 11
976.5444138234
 21
219.1830860514
  0
LINE
  5
635
100
AcDbEntity
  8
BEZUGSACHSEN
100
AcDbLine
 62
7
  6
CONTINUOUS
 10
976.5444138234
 20
219.1830860514
 11
976.4587679641
 21
219.3952913222
  0
LINE
  5
636
100
AcDbEntity
  8
BEZUGSACHSEN
100
AcDbLine
 62
7
  6
CONTINUOUS
 10
979.5064333846
 20
212.629407352
 11
979.517070453
 21
212.5687142016
  0
LINE
  5
637
100
AcDbEntity
  8
BEZUGSACHSEN
100
AcDbLine
 62
7
  6
CONTINUOUS
 10
976.5742720154
 20
221.7225856814
 11
976.6379176609
 21
221.6001727177
  0
LINE
  5
638
100
AcDbEntity
  8
BEZUGSACHSEN
100
AcDbLine
 62
7
  6
CONTINUOUS
 10
976.6379176609
 20
221.6001727177
 11
976.70083446
 21
221.4780304626
  0
LINE
  5
639
100
AcDbEntity
  8
BEZUGSACHSEN
100
AcDbLine
 62
7
  6
CONTINUOUS
 10
979.3496316245
 20
213.2512301472
 11
979.2836202396
 21
213.4537421761
  0
LINE
  5
63A
100
AcDbEntity
  8
BEZUGSACHSEN
100
AcDbLine
 62
7
  6
CONTINUOUS
 10
979.2836202396
 20
213.4537421761
 11
979.2738567609
 21
213.4836544904
  0
SPLINE
  5
63B
100
AcDbEntity
  8
BEZUGSACHSEN
100
AcDbSpline
 62
7
  6
CONTINUOUS
 70
0
 71
3
 72
8
 73
4
 74
0
 42
0.0000001
 43
0.0000001
 44
0.0000000001
 40
0.0
 40
0.0
 40
0.0
 40
0.0
 40
1.0
 40
1.0
 40
1.0
 40
1.0
 10
979.2738567609
 20
213.4836544904
 30
0.0
 10
979.2103433149
 20
213.6782066401
 30
0.0
 10
979.1466364016
 20
213.8726957294
 30
0.0
 10
979.0827432529
 20
214.0671235112
 30
0.0
  0
LINE
  5
63C
100
AcDbEntity
  8
BEZUGSACHSEN
100
AcDbLine
 62
7
  6
CONTINUOUS
 10
976.9556070644
 20
220.8978877257
 11
977.0202068829
 21
220.7407781411
  0
LINE
  5
63D
100
AcDbEntity
  8
BEZUGSACHSEN
100
AcDbLine
 62
7
  6
CONTINUOUS
 10
977.0202068829
 20
220.7407781411
 11
977.0845719965
 21
220.5841318329
  0
LINE
  5
63E
100
AcDbEntity
  8
BEZUGSACHSEN
100
AcDbLine
 62
7
  6
CONTINUOUS
 10
977.0845719965
 20
220.5841318329
 11
977.1487023423
 21
220.427948782
  0
LINE
  5
63F
100
AcDbEntity
  8
BEZUGSACHSEN
100
AcDbLine
 62
7
  6
CONTINUOUS
 10
977.1487023423
 20
220.427948782
 11
977.2125978563
 21
220.2722289694
  0
LINE
  5
640
100
AcDbEntity
  8
BEZUGSACHSEN
100
AcDbLine
 62
7
  6
CONTINUOUS
 10
979.0827432529
 20
214.0671235112
 11
978.8178055313
 21
214.7985163155
  0
LINE
  5
641
100
AcDbEntity
  8
BEZUGSACHSEN
100
AcDbLine
 62
7
  6
CONTINUOUS
 10
977.2125978563
 20
220.2722289694
 11
977.5366264378
 21
219.4560177139
  0
LINE
  5
642
100
AcDbEntity
  8
BEZUGSACHSEN
100
AcDbLine
 62
7
  6
CONTINUOUS
 10
977.5366264378
 20
219.4560177139
 11
977.5843204666
 21
219.3334018559
  0
LINE
  5
643
100
AcDbEntity
  8
BEZUGSACHSEN
100
AcDbLine
 62
7
  6
CONTINUOUS
 10
977.5843204666
 20
219.3334018559
 11
978.5155713677
 21
216.9391110932
  0
LINE
  5
644
100
AcDbEntity
  8
BEZUGSACHSEN
100
AcDbLine
 62
7
  6
CONTINUOUS
 10
978.8178055313
 20
214.7985163155
 11
978.4892901737
 21
215.6493820191
  0
LINE
  5
645
100
AcDbEntity
  8
BEZUGSACHSEN
100
AcDbLine
 62
7
  6
CONTINUOUS
 10
978.8443973848
 20
216.0773842883
 11
978.5155713677
 21
216.9391110932
  0
LINE
  5
646
100
AcDbEntity
  8
BEZUGSACHSEN
100
AcDbLine
 62
7
  6
CONTINUOUS
 10
979.1101221442
 20
215.3606928548
 11
978.8443973848
 21
216.0773842883
  0
LINE
  5
647
100
AcDbEntity
  8
BEZUGSACHSEN
100
AcDbLine
 62
7
  6
CONTINUOUS
 10
979.5477402189
 20
214.0315708695
 11
979.5639450768
 21
213.9610503423
  0
LINE
  5
648
100
AcDbEntity
  8
BEZUGSACHSEN
100
AcDbLine
 62
7
  6
CONTINUOUS
 10
979.5639450768
 20
213.9610503423
 11
979.5797594263
 21
213.890281256
  0
LINE
  5
649
100
AcDbEntity
  8
BEZUGSACHSEN
100
AcDbLine
 62
7
  6
CONTINUOUS
 10
979.378718224
 20
214.5984854606
 11
979.3122777251
 21
214.7876732163
  0
LINE
  5
64A
100
AcDbEntity
  8
BEZUGSACHSEN
100
AcDbLine
 62
7
  6
CONTINUOUS
 10
979.5064333846
 20
214.1964345595
 11
979.4747957801
 21
214.2967179083
  0
LINE
  5
64B
100
AcDbEntity
  8
BEZUGSACHSEN
100
AcDbLine
 62
7
  6
CONTINUOUS
 10
979.5064333846
 20
214.1964345595
 11
979.514141391
 21
214.1718655992
  0
SPLINE
  5
64C
100
AcDbEntity
  8
0
100
AcDbSpline
 62
7
  6
CONTINUOUS
 70
0
 71
3
 72
9
 73
5
 74
0
 42
0.0000001
 43
0.0000001
 44
0.0000000001
 40
0.0
 40
0.0
 40
0.0
 40
0.0
 40
0.5639620897
 40
1.0
 40
1.0
 40
1.0
 40
1.0
 10
994.3034682666
 20
82.0678494319
 30
0.0
 10
994.3034682666
 20
81.6303638329
 30
0.0
 10
994.2191419263
 20
80.8444745522
 30
0.0
 10
993.804754641
 20
80.1428303261
 30
0.0
 10
993.5503311839
 20
79.9199359064
 30
0.0
  0
SPLINE
  5
64D
100
AcDbEntity
  8
BEZUGSACHSEN
100
AcDbSpline
 62
7
  6
CONTINUOUS
 70
0
 71
3
 72
9
 73
5
 74
0
 42
0.0000001
 43
0.0000001
 44
0.0000000001
 40
0.0
 40
0.0
 40
0.0
 40
0.0
 40
0.2564945911
 40
1.0
 40
1.0
 40
1.0
 40
1.0
 10
958.9328643675
 20
140.2942243191
 30
0.0
 10
958.7714286059
 20
140.0686338939
 30
0.0
 10
958.1257450041
 20
139.2009344606
 30
0.0
 10
957.4221648097
 20
138.3759985115
 30
0.0
 10
956.8670634736
 20
137.7942243191
 30
0.0
  0
SPLINE
  5
64E
100
AcDbEntity
  8
RUNDUNGEN
100
AcDbSpline
 62
7
  6
CONTINUOUS
 70
0
 71
3
 72
9
 73
5
 74
0
 42
0.0000001
 43
0.0000001
 44
0.0000000001
 40
0.0
 40
0.0
 40
0.0
 40
0.0
 40
0.2564945911
 40
1.0
 40
1.0
 40
1.0
 40
1.0
 10
971.6740721657
 20
140.2942243191
 30
0.0
 10
971.8355079273
 20
140.0686338939
 30
0.0
 10
972.4811915292
 20
139.2009344606
 30
0.0
 10
973.1847717236
 20
138.3759985115
 30
0.0
 10
973.7398730596
 20
137.7942243191
 30
0.0
  0
SPLINE
  5
64F
100
AcDbEntity
  8
BEZUGSACHSEN
100
AcDbSpline
 62
7
  6
CONTINUOUS
 70
0
 71
3
 72
9
 73
5
 74
0
 42
0.0000001
 43
0.0000001
 44
0.0000000001
 40
0.0
 40
0.0
 40
0.0
 40
0.0
 40
0.2211324241
 40
1.0
 40
1.0
 40
1.0
 40
1.0
 10
937.0566053494
 20
79.9199359064
 30
0.0
 10
937.3314322992
 20
79.6791664657
 30
0.0
 10
938.5521770032
 20
78.5653330262
 30
0.0
 10
939.6621757925
 20
77.3309567224
 30
0.0
 10
940.4593202007
 20
76.3206482356
 30
0.0
  0
SPLINE
  5
650
100
AcDbEntity
  8
0
100
AcDbSpline
 62
7
  6
CONTINUOUS
 70
0
 71
3
 72
13
 73
9
 74
0
 42
0.0000001
 43
0.0000001
 44
0.0000000001
 40
0.0
 40
0.0
 40
0.0
 40
0.0
 40
0.2655992091
 40
0.5219626798
 40
0.6456222519
 40
0.7659622985
 40
0.8836979923
 40
1.0
 40
1.0
 40
1.0
 40
1.0
 10
965.3034682666
 20
136.5064063905
 30
0.0
 10
963.7825331348
 20
136.5064063905
 30
0.0
 10
960.7690823913
 20
136.0017224393
 30
0.0
 10
957.4770485036
 20
134.1307321612
 30
0.0
 10
955.4886777475
 20
132.0436090633
 30
0.0
 10
954.3874168291
 20
130.2703319515
 30
0.0
 10
953.7072903506
 20
128.3416429694
 30
0.0
 10
953.5535276505
 20
126.9966031373
 30
0.0
 10
953.5535276505
 20
126.330607896
 30
0.0
  0
SPLINE
  5
651
100
AcDbEntity
  8
BEZUGSACHSEN
100
AcDbSpline
 62
7
  6
CONTINUOUS
 70
0
 71
3
 72
11
 73
7
 74
0
 42
0.0000001
 43
0.0000001
 44
0.0000000001
 40
0.0
 40
0.0
 40
0.0
 40
0.0
 40
0.248450336
 40
0.4999977512
 40
0.7515463706
 40
1.0
 40
1.0
 40
1.0
 40
1.0
 10
947.2432925728
 20
96.4282746379
 30
0.0
 10
949.7998323757
 20
94.5207551994
 30
0.0
 10
955.6152682842
 20
91.5063590868
 30
0.0
 10
965.2997975625
 20
89.9594781469
 30
0.0
 10
974.9847340656
 20
91.5040776691
 30
0.0
 10
980.8009373585
 20
94.5171149102
 30
0.0
 10
983.3579710565
 20
96.4240429603
 30
0.0
  0
SPLINE
  5
652
100
AcDbEntity
  8
0
100
AcDbSpline
 62
7
  6
CONTINUOUS
 70
0
 71
3
 72
13
 73
9
 74
0
 42
0.0000001
 43
0.0000001
 44
0.0000000001
 40
0.0
 40
0.0
 40
0.0
 40
0.0
 40
0.1163020077
 40
0.2340377015
 40
0.3543777481
 40
0.4780373202
 40
0.7344007909
 40
1.0
 40
1.0
 40
1.0
 40
1.0
 10
977.0534088827
 20
126.330607896
 30
0.0
 10
977.0534088827
 20
126.9966031373
 30
0.0
 10
976.8996461826
 20
128.3416429694
 30
0.0
 10
976.2195197041
 20
130.2703319515
 30
0.0
 10
975.1182587857
 20
132.0436090633
 30
0.0
 10
973.1298880297
 20
134.1307321612
 30
0.0
 10
969.8378541419
 20
136.0017224393
 30
0.0
 10
966.8244033984
 20
136.5064063905
 30
0.0
 10
965.3034682666
 20
136.5064063905
 30
0.0
  0
SPLINE
  5
653
100
AcDbEntity
  8
BEZUGSACHSEN
100
AcDbSpline
 62
7
  6
CONTINUOUS
 70
0
 71
3
 72
9
 73
5
 74
0
 42
0.0000001
 43
0.0000001
 44
0.0000000001
 40
0.0
 40
0.0
 40
0.0
 40
0.0
 40
0.5639620897
 40
1.0
 40
1.0
 40
1.0
 40
1.0
 10
936.3034682666
 20
82.0678494319
 30
0.0
 10
936.3034682666
 20
81.6303638329
 30
0.0
 10
936.387794607
 20
80.8444745522
 30
0.0
 10
936.8021818922
 20
80.1428303261
 30
0.0
 10
937.0566053494
 20
79.9199359064
 30
0.0
  0
SPLINE
  5
654
100
AcDbEntity
  8
0
100
AcDbSpline
 62
7
  6
CONTINUOUS
 70
0
 71
3
 72
9
 73
5
 74
0
 42
0.0000001
 43
0.0000001
 44
0.0000000001
 40
0.0
 40
0.0
 40
0.0
 40
0.0
 40
0.2211324241
 40
1.0
 40
1.0
 40
1.0
 40
1.0
 10
993.5503311839
 20
79.9199359064
 30
0.0
 10
993.2755042341
 20
79.6791664657
 30
0.0
 10
992.05475953
 20
78.5653330262
 30
0.0
 10
990.9447607408
 20
77.3309567224
 30
0.0
 10
990.1476163326
 20
76.3206482356
 30
0.0
  0
SPLINE
  5
655
100
AcDbEntity
  8
0
100
AcDbSpline
 62
7
  6
CONTINUOUS
 70
0
 71
3
 72
9
 73
5
 74
0
 42
0.0000001
 43
0.0000001
 44
0.0000000001
 40
0.0
 40
0.0
 40
0.0
 40
0.0
 40
0.5001317675
 40
1.0
 40
1.0
 40
1.0
 40
1.0
 10
970.7029048346
 20
219.2794565155
 30
0.0
 10
971.3793504022
 20
214.3408582571
 30
0.0
 10
972.1961083748
 20
204.3797652494
 30
0.0
 10
971.7142768861
 20
194.3943551978
 30
0.0
 10
971.1830863801
 20
189.4406707876
 30
0.0
  0
SPLINE
  5
656
100
AcDbEntity
  8
0
100
AcDbSpline
 62
7
  6
CONTINUOUS
 70
0
 71
3
 72
11
 73
7
 74
0
 42
0.0000001
 43
0.0000001
 44
0.0000000001
 40
0.0
 40
0.0
 40
0.0
 40
0.0
 40
0.2522188936
 40
0.5000000008
 40
0.747781108
 40
1.0
 40
1.0
 40
1.0
 40
1.0
 10
970.7029048346
 20
235.1382660973
 30
0.0
 10
971.0813125022
 20
233.8407479532
 30
0.0
 10
971.6783275799
 20
231.2192147732
 30
0.0
 10
971.9921669373
 20
227.2088612927
 30
0.0
 10
971.6783275906
 20
223.1985078187
 30
0.0
 10
971.0813124997
 20
220.5769746509
 30
0.0
 10
970.7029048346
 20
219.2794565155
 30
0.0
  0
SPLINE
  5
657
100
AcDbEntity
  8
BEZUGSACHSEN
100
AcDbSpline
 62
7
  6
CONTINUOUS
 70
0
 71
3
 72
11
 73
7
 74
0
 42
0.0000001
 43
0.0000001
 44
0.0000000001
 40
0.0
 40
0.0
 40
0.0
 40
0.0
 40
0.2522188936
 40
0.5000000008
 40
0.747781108
 40
1.0
 40
1.0
 40
1.0
 40
1.0
 10
959.9040316987
 20
235.1382660973
 30
0.0
 10
959.525624031
 20
233.8407479532
 30
0.0
 10
958.9286089534
 20
231.2192147732
 30
0.0
 10
958.614769596
 20
227.2088612927
 30
0.0
 10
958.9286089427
 20
223.1985078187
 30
0.0
 10
959.5256240336
 20
220.5769746509
 30
0.0
 10
959.9040316987
 20
219.2794565155
 30
0.0
  0
SPLINE
  5
658
100
AcDbEntity
  8
BEZUGSACHSEN
100
AcDbSpline
 62
7
  6
CONTINUOUS
 70
0
 71
3
 72
9
 73
5
 74
0
 42
0.0000001
 43
0.0000001
 44
0.0000000001
 40
0.0
 40
0.0
 40
0.0
 40
0.0
 40
0.5001317675
 40
1.0
 40
1.0
 40
1.0
 40
1.0
 10
959.9040316987
 20
219.2794565155
 30
0.0
 10
959.227586131
 20
214.3408582571
 30
0.0
 10
958.4108281584
 20
204.3797652494
 30
0.0
 10
958.8926596471
 20
194.3943551978
 30
0.0
 10
959.4238501532
 20
189.4406707876
 30
0.0
  0
SPLINE
  5
659
100
AcDbEntity
  8
0
100
AcDbSpline
 62
7
  6
CONTINUOUS
 70
0
 71
3
 72
11
 73
7
 74
0
 42
0.0000001
 43
0.0000001
 44
0.0000000001
 40
0.0
 40
0.0
 40
0.0
 40
0.0
 40
0.2645787108
 40
0.5214179276
 40
0.7661306967
 40
1.0
 40
1.0
 40
1.0
 40
1.0
 10
965.3034682666
 20
135.0064063905
 30
0.0
 10
963.9205783804
 20
135.0064063905
 30
0.0
 10
961.1757701735
 20
134.5869044018
 30
0.0
 10
957.5383678069
 20
132.7517373152
 30
0.0
 10
954.8284485803
 20
129.911245011
 30
0.0
 10
953.8813496118
 20
127.5106363157
 30
0.0
 10
953.6775876314
 20
126.3053596704
 30
0.0
  0
SPLINE
  5
65A
100
AcDbEntity
  8
0
100
AcDbSpline
 62
7
  6
CONTINUOUS
 70
0
 71
3
 72
11
 73
7
 74
0
 42
0.0000001
 43
0.0000001
 44
0.0000000001
 40
0.0
 40
0.0
 40
0.0
 40
0.0
 40
0.2645787108
 40
0.5214179276
 40
0.7661306967
 40
1.0
 40
1.0
 40
1.0
 40
1.0
 10
965.3034682666
 20
135.0064063905
 30
0.0
 10
966.6863581528
 20
135.0064063905
 30
0.0
 10
969.4311663597
 20
134.5869044018
 30
0.0
 10
973.0685687263
 20
132.7517373152
 30
0.0
 10
975.7784879529
 20
129.911245011
 30
0.0
 10
976.7255869215
 20
127.5106363157
 30
0.0
 10
976.9293489018
 20
126.3053596704
 30
0.0
  0
LINE
  5
65B
100
AcDbEntity
  8
BEZUGSACHSEN
100
AcDbLine
 62
7
  6
CONTINUOUS
 10
978.1405991372
 20
213.4280160002
 11
978.5490011356
 21
212.6195680794
  0
SPLINE
  5
65C
100
AcDbEntity
  8
BEZUGSACHSEN
100
AcDbSpline
 62
7
  6
CONTINUOUS
 70
0
 71
3
 72
8
 73
4
 74
0
 42
0.0000001
 43
0.0000001
 44
0.0000000001
 40
0.0
 40
0.0
 40
0.0
 40
0.0
 40
1.0
 40
1.0
 40
1.0
 40
1.0
 10
978.5490011356
 20
212.6195680794
 30
0.0
 10
978.7575537123
 20
212.2062697681
 30
0.0
 10
978.9658159607
 20
211.7928247949
 30
0.0
 10
979.1737518928
 20
211.3792158981
 30
0.0
  0
LINE
  5
65D
100
AcDbEntity
  8
BEZUGSACHSEN
100
AcDbLine
 62
7
  6
CONTINUOUS
 10
979.1737518928
 20
211.3792158981
 11
979.3367002936
 21
211.0549238904
  0
LINE
  5
65E
100
AcDbEntity
  8
BEZUGSACHSEN
100
AcDbLine
 62
7
  6
CONTINUOUS
 10
979.3367002936
 20
211.0549238904
 11
979.4471114526
 21
210.8349938289
  0
LINE
  5
65F
100
AcDbEntity
  8
BEZUGSACHSEN
100
AcDbLine
 62
7
  6
CONTINUOUS
 10
979.4471114526
 20
210.8349938289
 11
979.5087370372
 21
210.7121706121
  0
LINE
  5
660
100
AcDbEntity
  8
BEZUGSACHSEN
100
AcDbLine
 62
7
  6
CONTINUOUS
 10
979.4637213838
 20
208.8390528699
 11
979.3359752938
 21
209.1378168371
  0
LINE
  5
661
100
AcDbEntity
  8
BEZUGSACHSEN
100
AcDbLine
 62
7
  6
CONTINUOUS
 10
979.3359752938
 20
209.1378168371
 11
977.9674397203
 21
212.3376189757
  0
LINE
  5
662
100
AcDbEntity
  8
BEZUGSACHSEN
100
AcDbLine
 62
7
  6
CONTINUOUS
 10
977.9674397203
 20
212.3376189757
 11
977.9539797556
 21
212.3690830637
  0
LINE
  5
663
100
AcDbEntity
  8
BEZUGSACHSEN
100
AcDbLine
 62
7
  6
CONTINUOUS
 10
977.9539797556
 20
212.3690830637
 11
977.5763305561
 21
213.2518281925
  0
LINE
  5
664
100
AcDbEntity
  8
BEZUGSACHSEN
100
AcDbLine
 62
7
  6
CONTINUOUS
 10
977.5763305561
 20
213.2518281925
 11
977.441021913
 21
213.5680859542
  0
LINE
  5
665
100
AcDbEntity
  8
BEZUGSACHSEN
100
AcDbLine
 62
7
  6
CONTINUOUS
 10
977.441021913
 20
213.5680859542
 11
976.5983876094
 21
215.5373311244
  0
LINE
  5
666
100
AcDbEntity
  8
BEZUGSACHSEN
100
AcDbLine
 62
7
  6
CONTINUOUS
 10
976.5983876094
 20
215.5373311244
 11
976.4007150428
 21
215.9992355352
  0
SPLINE
  5
667
100
AcDbEntity
  8
0
100
AcDbSpline
 62
7
  6
CONTINUOUS
 70
0
 71
3
 72
8
 73
4
 74
0
 42
0.0000001
 43
0.0000001
 44
0.0000000001
 40
0.0
 40
0.0
 40
0.0
 40
0.0
 40
1.0
 40
1.0
 40
1.0
 40
1.0
 10
975.7013997394
 20
215.9992355352
 30
0.0
 10
976.6365899516
 20
213.8158453813
 30
0.0
 10
977.5716317807
 20
211.6323916571
 30
0.0
 10
978.5064333846
 20
209.4488350954
 30
0.0
  0
LINE
  5
668
100
AcDbEntity
  8
BEZUGSACHSEN
100
AcDbLine
 62
7
  6
CONTINUOUS
 10
978.98951672
 20
215.5597319112
 11
978.7909175381
 21
216.1086294682
  0
LINE
  5
669
100
AcDbEntity
  8
BEZUGSACHSEN
100
AcDbLine
 62
7
  6
CONTINUOUS
 10
978.7909175381
 20
216.1086294682
 11
978.5281320386
 21
216.8025625141
  0
LINE
  5
66A
100
AcDbEntity
  8
BEZUGSACHSEN
100
AcDbLine
 62
7
  6
CONTINUOUS
 10
977.5485006071
 20
219.3194691347
 11
978.4803251744
 21
216.9253928179
  0
LINE
  5
66B
100
AcDbEntity
  8
BEZUGSACHSEN
100
AcDbLine
 62
7
  6
CONTINUOUS
 10
978.4803251744
 20
216.9253928179
 11
978.5281320386
 21
216.8025625141
  0
LINE
  5
66C
100
AcDbEntity
  8
BEZUGSACHSEN
100
AcDbLine
 62
7
  6
CONTINUOUS
 10
976.8328017254
 20
216.7770180497
 11
976.9298858477
 21
216.6389867572
  0
LINE
  5
66D
100
AcDbEntity
  8
BEZUGSACHSEN
100
AcDbLine
 62
7
  6
CONTINUOUS
 10
976.9298858477
 20
216.6389867572
 11
976.9620316411
 21
216.5931758292
  0
LINE
  5
66E
100
AcDbEntity
  8
BEZUGSACHSEN
100
AcDbLine
 62
7
  6
CONTINUOUS
 10
976.9620316411
 20
216.5931758292
 11
977.0597350056
 21
216.394539944
  0
LINE
  5
66F
100
AcDbEntity
  8
BEZUGSACHSEN
100
AcDbLine
 62
7
  6
CONTINUOUS
 10
977.0597350056
 20
216.394539944
 11
977.1570708983
 21
216.1965660448
  0
LINE
  5
670
100
AcDbEntity
  8
BEZUGSACHSEN
100
AcDbLine
 62
7
  6
CONTINUOUS
 10
977.1570708983
 20
216.1965660448
 11
977.3530484092
 21
215.7395327364
  0
LINE
  5
671
100
AcDbEntity
  8
BEZUGSACHSEN
100
AcDbLine
 62
7
  6
CONTINUOUS
 10
977.5499946012
 20
215.2220767576
 11
977.3530484092
 21
215.7395327364
  0
LINE
  5
672
100
AcDbEntity
  8
BEZUGSACHSEN
100
AcDbLine
 62
7
  6
CONTINUOUS
 10
977.6821497153
 20
214.7965418026
 11
977.5499946012
 21
215.2220767576
  0
LINE
  5
673
100
AcDbEntity
  8
BEZUGSACHSEN
100
AcDbLine
 62
7
  6
CONTINUOUS
 10
977.2886878924
 20
219.9678861612
 11
977.5485006071
 21
219.3194691347
  0
LINE
  5
674
100
AcDbEntity
  8
BEZUGSACHSEN
100
AcDbLine
 62
7
  6
CONTINUOUS
 10
976.4742741166
 20
220.4092967848
 11
976.8242318512
 21
219.5429125715
  0
LINE
  5
675
100
AcDbEntity
  8
BEZUGSACHSEN
100
AcDbLine
 62
7
  6
CONTINUOUS
 10
976.8242318512
 20
219.5429125715
 11
978.4098623524
 21
215.6173001097
  0
LINE
  5
676
100
AcDbEntity
  8
BEZUGSACHSEN
100
AcDbLine
 62
7
  6
CONTINUOUS
 10
978.4098623524
 20
215.6173001097
 11
978.4992958423
 21
215.3958806535
  0
LINE
  5
677
100
AcDbEntity
  8
0
100
AcDbLine
 62
7
  6
CONTINUOUS
 10
976.1261252793
 20
219.3952915715
 11
976.0687235434
 21
219.5374479436
  0
LINE
  5
678
100
AcDbEntity
  8
0
100
AcDbLine
 62
7
  6
CONTINUOUS
 10
976.0687235434
 20
219.5374479436
 11
975.7166730269
 21
220.4092967848
  0
LINE
  5
679
100
AcDbEntity
  8
BEZUGSACHSEN
100
AcDbLine
 62
7
  6
CONTINUOUS
 10
978.7617080298
 20
214.7067380289
 11
978.4992958423
 21
215.3958806535
  0
LINE
  5
67A
100
AcDbEntity
  8
BEZUGSACHSEN
100
AcDbLine
 62
7
  6
CONTINUOUS
 10
978.9594737807
 20
214.137068417
 11
978.7617080298
 21
214.7067380289
  0
LINE
  5
67B
100
AcDbEntity
  8
BEZUGSACHSEN
100
AcDbLine
 62
7
  6
CONTINUOUS
 10
979.1565869618
 20
213.3561473927
 11
979.1244288584
 21
213.5215046008
  0
LINE
  5
67C
100
AcDbEntity
  8
BEZUGSACHSEN
100
AcDbLine
 62
7
  6
CONTINUOUS
 10
979.1244288584
 20
213.5215046008
 11
979.1081002781
 21
213.6041868091
  0
LINE
  5
67D
100
AcDbEntity
  8
BEZUGSACHSEN
100
AcDbLine
 62
7
  6
CONTINUOUS
 10
979.1081002781
 20
213.6041868091
 11
979.0916059782
 21
213.6868714628
  0
LINE
  5
67E
100
AcDbEntity
  8
BEZUGSACHSEN
100
AcDbLine
 62
7
  6
CONTINUOUS
 10
979.1560830683
 20
213.313896278
 11
979.1565869618
 21
213.3561473927
  0
LINE
  5
67F
100
AcDbEntity
  8
BEZUGSACHSEN
100
AcDbLine
 62
7
  6
CONTINUOUS
 10
979.136083093
 20
213.1853273631
 11
979.1535764644
 21
213.1871464017
  0
LINE
  5
680
100
AcDbEntity
  8
BEZUGSACHSEN
100
AcDbLine
 62
7
  6
CONTINUOUS
 10
977.0951269675
 20
220.4257516285
 11
977.2405466687
 21
220.0819064355
  0
LINE
  5
681
100
AcDbEntity
  8
BEZUGSACHSEN
100
AcDbLine
 62
7
  6
CONTINUOUS
 10
977.2405466687
 20
220.0819064355
 11
977.2886878924
 21
219.9678861612
  0
LINE
  5
682
100
AcDbEntity
  8
BEZUGSACHSEN
100
AcDbLine
 62
7
  6
CONTINUOUS
 10
977.0632930949
 20
220.4924000609
 11
977.0805904264
 21
220.4562078683
  0
LINE
  5
683
100
AcDbEntity
  8
BEZUGSACHSEN
100
AcDbLine
 62
7
  6
CONTINUOUS
 10
977.0805904264
 20
220.4562078683
 11
977.0951269675
 21
220.4257516285
  0
LINE
  5
684
100
AcDbEntity
  8
BEZUGSACHSEN
100
AcDbLine
 62
7
  6
CONTINUOUS
 10
978.4632785999
 20
214.1283737044
 11
978.4111553514
 21
214.2576937269
  0
LINE
  5
685
100
AcDbEntity
  8
BEZUGSACHSEN
100
AcDbLine
 62
7
  6
CONTINUOUS
 10
978.4111553514
 20
214.2576937269
 11
978.3779909915
 21
214.3399749552
  0
LINE
  5
686
100
AcDbEntity
  8
BEZUGSACHSEN
100
AcDbLine
 62
7
  6
CONTINUOUS
 10
978.3779909915
 20
214.3399749552
 11
978.2028482029
 21
214.7744941829
  0
LINE
  5
687
100
AcDbEntity
  8
BEZUGSACHSEN
100
AcDbLine
 62
7
  6
CONTINUOUS
 10
978.2028482029
 20
214.7744941829
 11
977.9646743514
 21
215.3653571775
  0
LINE
  5
688
100
AcDbEntity
  8
BEZUGSACHSEN
100
AcDbLine
 62
7
  6
CONTINUOUS
 10
977.9646743514
 20
215.3653571775
 11
977.891501633
 21
215.5468770957
  0
LINE
  5
689
100
AcDbEntity
  8
BEZUGSACHSEN
100
AcDbLine
 62
7
  6
CONTINUOUS
 10
977.891501633
 20
215.5468770957
 11
977.6844173056
 21
216.0605739887
  0
LINE
  5
68A
100
AcDbEntity
  8
BEZUGSACHSEN
100
AcDbLine
 62
7
  6
CONTINUOUS
 10
977.6844173056
 20
216.0605739887
 11
977.4616063005
 21
216.6132535835
  0
LINE
  5
68B
100
AcDbEntity
  8
BEZUGSACHSEN
100
AcDbLine
 62
7
  6
CONTINUOUS
 10
977.4616063005
 20
216.6132535835
 11
977.4365752175
 21
216.6753409992
  0
LINE
  5
68C
100
AcDbEntity
  8
BEZUGSACHSEN
100
AcDbLine
 62
7
  6
CONTINUOUS
 10
977.4365752175
 20
216.6753409992
 11
977.2718974109
 21
217.0838008788
  0
LINE
  5
68D
100
AcDbEntity
  8
BEZUGSACHSEN
100
AcDbLine
 62
7
  6
CONTINUOUS
 10
977.2718974109
 20
217.0838008788
 11
977.0875323095
 21
217.5410740252
  0
LINE
  5
68E
100
AcDbEntity
  8
BEZUGSACHSEN
100
AcDbLine
 62
7
  6
CONTINUOUS
 10
977.0875323095
 20
217.5410740252
 11
976.4420915444
 21
219.1417898357
  0
LINE
  5
68F
100
AcDbEntity
  8
0
100
AcDbLine
 62
7
  6
CONTINUOUS
 10
975.7040030799
 20
219.1417898357
 11
976.3264826314
 21
217.5991634866
  0
LINE
  5
690
100
AcDbEntity
  8
BEZUGSACHSEN
100
AcDbLine
 62
7
  6
CONTINUOUS
 10
978.4632785999
 20
214.1283737044
 11
978.6347295891
 21
213.729590822
  0
LINE
  5
691
100
AcDbEntity
  8
BEZUGSACHSEN
100
AcDbLine
 62
7
  6
CONTINUOUS
 10
978.6347295891
 20
213.729590822
 11
978.7927537714
 21
213.3620086171
  0
LINE
  5
692
100
AcDbEntity
  8
BEZUGSACHSEN
100
AcDbLine
 62
7
  6
CONTINUOUS
 10
978.7927537714
 20
213.3620086171
 11
978.8599491213
 21
213.2208407261
  0
LINE
  5
693
100
AcDbEntity
  8
BEZUGSACHSEN
100
AcDbLine
 62
7
  6
CONTINUOUS
 10
978.8599491213
 20
213.2208407261
 11
979.0602796821
 21
212.799616683
  0
SPLINE
  5
694
100
AcDbEntity
  8
BEZUGSACHSEN
100
AcDbSpline
 62
7
  6
CONTINUOUS
 70
0
 71
3
 72
15
 73
11
 74
0
 42
0.0000001
 43
0.0000001
 44
0.0000000001
 40
0.0
 40
0.0
 40
0.0
 40
0.0
 40
0.115701175
 40
0.2385572968
 40
0.367525689
 40
0.5
 40
0.632474311
 40
0.7614427032
 40
0.884298825
 40
1.0
 40
1.0
 40
1.0
 40
1.0
 10
990.1476163326
 20
76.3206482356
 30
0.0
 10
988.8126663821
 20
74.6287198341
 30
0.0
 10
985.5501240672
 20
71.5235630293
 30
0.0
 10
979.5452863429
 20
68.1200436119
 30
0.0
 10
972.6531773785
 20
65.999233047
 30
0.0
 10
965.3034682666
 20
65.2801398638
 30
0.0
 10
957.9537591547
 20
65.999233047
 30
0.0
 10
951.0616501903
 20
68.1200436119
 30
0.0
 10
945.0568124661
 20
71.5235630293
 30
0.0
 10
941.7942701511
 20
74.6287198341
 30
0.0
 10
940.4593202007
 20
76.3206482356
 30
0.0
  0
SPLINE
  5
695
100
AcDbEntity
  8
BEZUGSACHSEN
100
AcDbSpline
 62
7
  6
CONTINUOUS
 70
0
 71
3
 72
19
 73
15
 74
0
 42
0.0000001
 43
0.0000001
 44
0.0000000001
 40
0.0
 40
0.0
 40
0.0
 40
0.0
 40
0.0581529382
 40
0.1170186733
 40
0.1771895919
 40
0.2390194491
 40
0.3672020887
 40
0.5
 40
0.6327979113
 40
0.7609805509
 40
0.8228104081
 40
0.8829813267
 40
0.9418470618
 40
1.0
 40
1.0
 40
1.0
 40
1.0
 10
942.1017194709
 20
95.9319878691
 30
0.0
 10
942.1017194709
 20
94.6168568163
 30
0.0
 10
942.4053123391
 20
91.9609046954
 30
0.0
 10
943.7484151648
 20
88.1525191058
 30
0.0
 10
945.9230870243
 20
84.6509633434
 30
0.0
 10
949.8485844352
 20
80.5297310731
 30
0.0
 10
956.3563267203
 20
76.8352871063
 30
0.0
 10
965.3034682666
 20
75.3315703066
 30
0.0
 10
974.2506098129
 20
76.8352871063
 30
0.0
 10
980.7583520981
 20
80.5297310731
 30
0.0
 10
984.683849509
 20
84.6509633434
 30
0.0
 10
986.8585213685
 20
88.1525191058
 30
0.0
 10
988.2016241941
 20
91.9609046954
 30
0.0
 10
988.5052170624
 20
94.6168568163
 30
0.0
 10
988.5052170624
 20
95.9319878691
 30
0.0
  0
LINE
  5
696
100
AcDbEntity
  8
BEZUGSACHSEN
100
AcDbLine
 62
7
  6
CONTINUOUS
 10
979.5064333846
 20
213.4130350186
 11
979.3550275273
 21
213.8030282541
  0
LINE
  5
697
100
AcDbEntity
  8
BEZUGSACHSEN
100
AcDbLine
 62
7
  6
CONTINUOUS
 10
979.3550275273
 20
213.8030282541
 11
979.2302574229
 21
214.1243962574
  0
LINE
  5
698
100
AcDbEntity
  8
BEZUGSACHSEN
100
AcDbLine
 62
7
  6
CONTINUOUS
 10
979.2302574229
 20
214.1243962574
 11
979.0989842564
 21
214.4624983536
  0
LINE
  5
699
100
AcDbEntity
  8
BEZUGSACHSEN
100
AcDbLine
 62
7
  6
CONTINUOUS
 10
979.0989842564
 20
214.4624983536
 11
979.0122721043
 21
214.685822159
  0
LINE
  5
69A
100
AcDbEntity
  8
BEZUGSACHSEN
100
AcDbLine
 62
7
  6
CONTINUOUS
 10
979.0122721043
 20
214.685822159
 11
978.9487676866
 21
214.8493710406
  0
LINE
  5
69B
100
AcDbEntity
  8
BEZUGSACHSEN
100
AcDbLine
 62
7
  6
CONTINUOUS
 10
978.9487676866
 20
214.8493710406
 11
978.6186104183
 21
215.6995991583
  0
LINE
  5
69C
100
AcDbEntity
  8
BEZUGSACHSEN
100
AcDbLine
 62
7
  6
CONTINUOUS
 10
978.6186104183
 20
215.6995991583
 11
978.5133371114
 21
215.9706818239
  0
LINE
  5
69D
100
AcDbEntity
  8
BEZUGSACHSEN
100
AcDbLine
 62
7
  6
CONTINUOUS
 10
978.5133371114
 20
215.9706818239
 11
976.8176022693
 21
220.3361162404
  0
LINE
  5
69E
100
AcDbEntity
  8
BEZUGSACHSEN
100
AcDbLine
 62
7
  6
CONTINUOUS
 10
976.8176022693
 20
220.3361162404
 11
976.6823711526
 21
220.6841667026
  0
LINE
  5
69F
100
AcDbEntity
  8
BEZUGSACHSEN
100
AcDbLine
 62
7
  6
CONTINUOUS
 10
976.6823711526
 20
220.6841667026
 11
976.6611172991
 21
220.7388677015
  0
LINE
  5
6A0
100
AcDbEntity
  8
BEZUGSACHSEN
100
AcDbLine
 62
7
  6
CONTINUOUS
 10
976.6611172991
 20
220.7388677015
 11
976.4701318335
 21
221.2303945544
  0
LINE
  5
6A1
100
AcDbEntity
  8
0
100
AcDbLine
 62
7
  6
CONTINUOUS
 10
975.6986560637
 20
221.2303945544
 11
975.8910693614
 21
220.7355320805
  0
LINE
  5
6A2
100
AcDbEntity
  8
0
100
AcDbLine
 62
7
  6
CONTINUOUS
 10
975.8910693614
 20
220.7355320805
 11
975.919348899
 21
220.6627994627
  0
SPLINE
  5
6A3
100
AcDbEntity
  8
KONSTRUKTIONSELEMENTE
100
AcDbSpline
 62
7
  6
CONTINUOUS
 70
0
 71
3
 72
11
 73
7
 74
0
 42
0.0000001
 43
0.0000001
 44
0.0000000001
 40
0.0
 40
0.0
 40
0.0
 40
0.0
 40
0.3553660481
 40
0.4919554141
 40
0.6464733594
 40
1.0
 40
1.0
 40
1.0
 40
1.0
 10
723.052961329
 20
6.8447619268
 30
0.0
 10
722.5280244242
 20
7.2989819993
 30
0.0
 10
721.3139353053
 20
7.0391153122
 30
0.0
 10
720.2132039747
 20
6.5101803713
 30
0.0
 10
719.1202426992
 20
5.8594124595
 30
0.0
 10
718.3381233582
 20
5.2491032117
 30
0.0
 10
717.8160948513
 20
4.7970132633
 30
0.0
  0
SPLINE
  5
6A4
100
AcDbEntity
  8
KONSTRUKTIONSELEMENTE
100
AcDbSpline
 62
7
  6
CONTINUOUS
 70
0
 71
3
 72
9
 73
5
 74
0
 42
0.0000001
 43
0.0000001
 44
0.0000000001
 40
0.0
 40
0.0
 40
0.0
 40
0.0
 40
0.5610739026
 40
1.0
 40
1.0
 40
1.0
 40
1.0
 10
719.1999618947
 20
23.2444859778
 30
0.0
 10
719.4185347217
 20
23.7059662829
 30
0.0
 10
719.759750492
 20
24.5517680565
 30
0.0
 10
719.9374151949
 20
25.4583946243
 30
0.0
 10
719.9374151949
 20
25.8578549273
 30
0.0
  0
SPLINE
  5
6A5
100
AcDbEntity
  8
KONSTRUKTIONSELEMENTE
100
AcDbSpline
 62
7
  6
CONTINUOUS
 70
0
 71
3
 72
9
 73
5
 74
0
 42
0.0000001
 43
0.0000001
 44
0.0000000001
 40
0.0
 40
0.0
 40
0.0
 40
0.0
 40
0.5486732816
 40
1.0
 40
1.0
 40
1.0
 40
1.0
 10
719.9374151949
 20
-3.6855280534
 30
0.0
 10
719.9374151949
 20
-3.971787852
 30
0.0
 10
719.9940532055
 20
-4.5018984618
 30
0.0
 10
720.2842554236
 20
-4.9673235826
 30
0.0
 10
720.4623094693
 20
-5.1214124883
 30
0.0
  0
SPLINE
  5
6A6
100
AcDbEntity
  8
KONSTRUKTIONSELEMENTE
100
AcDbSpline
 62
7
  6
CONTINUOUS
 70
0
 71
3
 72
8
 73
4
 74
0
 42
0.0000001
 43
0.0000001
 44
0.0000000001
 40
0.0
 40
0.0
 40
0.0
 40
0.0
 40
1.0
 40
1.0
 40
1.0
 40
1.0
 10
802.7110288734
 20
110.0478336153
 30
0.0
 10
802.710408856
 20
110.0730632073
 30
0.0
 10
802.7020550261
 20
110.0994829301
 30
0.0
 10
802.6867434034
 20
110.1195446085
 30
0.0
  0
SPLINE
  5
6A7
100
AcDbEntity
  8
KONSTRUKTIONSELEMENTE
100
AcDbSpline
 62
7
  6
CONTINUOUS
 70
0
 71
3
 72
9
 73
5
 74
0
 42
0.0000001
 43
0.0000001
 44
0.0000000001
 40
0.0
 40
0.0
 40
0.0
 40
0.0
 40
0.3358800569
 40
1.0
 40
1.0
 40
1.0
 40
1.0
 10
796.6594799547
 20
42.0236290824
 30
0.0
 10
796.6477244773
 20
41.9878656722
 30
0.0
 10
796.6184699339
 20
41.8842661619
 30
0.0
 10
796.6210675526
 20
41.7443094417
 30
0.0
 10
796.6773392684
 20
41.6955843912
 30
0.0
  0
SPLINE
  5
6A8
100
AcDbEntity
  8
KONSTRUKTIONSELEMENTE
100
AcDbSpline
 62
7
  6
CONTINUOUS
 70
0
 71
3
 72
11
 73
7
 74
0
 42
0.0000001
 43
0.0000001
 44
0.0000000001
 40
0.0
 40
0.0
 40
0.0
 40
0.0
 40
0.3553660481
 40
0.4919554141
 40
0.6464733594
 40
1.0
 40
1.0
 40
1.0
 40
1.0
 10
722.3458545478
 20
5.4571343625
 30
0.0
 10
721.820917643
 20
5.911354435
 30
0.0
 10
720.6068285241
 20
5.6514877479
 30
0.0
 10
719.5060971935
 20
5.122552807
 30
0.0
 10
718.413135918
 20
4.4717848952
 30
0.0
 10
717.631016577
 20
3.8614756474
 30
0.0
 10
717.1089880701
 20
3.409385699
 30
0.0
  0
SPLINE
  5
6A9
100
AcDbEntity
  8
KONSTRUKTIONSELEMENTE
100
AcDbSpline
 62
7
  6
CONTINUOUS
 70
0
 71
3
 72
10
 73
6
 74
0
 42
0.0000001
 43
0.0000001
 44
0.0000000001
 40
0.0
 40
0.0
 40
0.0
 40
0.0
 40
0.1889346049
 40
0.5351285558
 40
1.0
 40
1.0
 40
1.0
 40
1.0
 10
694.6389085077
 20
-15.1171795938
 30
0.0
 10
694.6839572766
 20
-15.156192166
 30
0.0
 10
694.8411301379
 20
-15.2341705916
 30
0.0
 10
695.1678039732
 20
-15.2171100592
 30
0.0
 10
695.4089037975
 20
-15.1280347676
 30
0.0
 10
695.542231244
 20
-15.0670116954
 30
0.0
  0
SPLINE
  5
6AA
100
AcDbEntity
  8
KONSTRUKTIONSELEMENTE
100
AcDbSpline
 62
7
  6
CONTINUOUS
 70
0
 71
3
 72
9
 73
5
 74
0
 42
0.0000001
 43
0.0000001
 44
0.0000000001
 40
0.0
 40
0.0
 40
0.0
 40
0.0
 40
0.2183282735
 40
1.0
 40
1.0
 40
1.0
 40
1.0
 10
695.542231244
 20
-15.0670116954
 30
0.0
 10
695.6271373498
 20
-15.0281507439
 30
0.0
 10
696.0063632092
 20
-14.8291297829
 30
0.0
 10
696.3501745506
 20
-14.5682741614
 30
0.0
 10
696.6028914157
 20
-14.3494149362
 30
0.0
  0
SPLINE
  5
6AB
100
AcDbEntity
  8
KONSTRUKTIONSELEMENTE
100
AcDbSpline
 62
7
  6
CONTINUOUS
 70
0
 71
3
 72
12
 73
8
 74
0
 42
0.0000001
 43
0.0000001
 44
0.0000000001
 40
0.0
 40
0.0
 40
0.0
 40
0.0
 40
0.1697156635
 40
0.2699021624
 40
0.3843804761
 40
0.6607333466
 40
1.0
 40
1.0
 40
1.0
 40
1.0
 10
723.9978433752
 20
-8.1832746668
 30
0.0
 10
724.1988464547
 20
-8.3572237868
 30
0.0
 10
724.6183718025
 20
-8.5222687678
 30
0.0
 10
725.2209752701
 20
-8.5391564006
 30
0.0
 10
725.9860714232
 20
-8.4294080159
 30
0.0
 10
727.0682766926
 20
-8.0307384445
 30
0.0
 10
727.9106108569
 20
-7.5565408067
 30
0.0
 10
728.3589367904
 20
-7.2712833516
 30
0.0
  0
SPLINE
  5
6AC
100
AcDbEntity
  8
BEZUGSACHSEN
100
AcDbSpline
 62
7
  6
CONTINUOUS
 70
0
 71
3
 72
11
 73
7
 74
0
 42
0.0000001
 43
0.0000001
 44
0.0000000001
 40
0.0
 40
0.0
 40
0.0
 40
0.0
 40
0.3535562221
 40
0.5080995014
 40
0.6446654509
 40
1.0
 40
1.0
 40
1.0
 40
1.0
 10
821.0536849046
 20
101.5033888749
 30
0.0
 10
821.412632897
 20
101.814246955
 30
0.0
 10
821.950428086
 20
102.2339154457
 30
0.0
 10
822.7019542079
 20
102.6813266319
 30
0.0
 10
823.4587349735
 20
103.0449377778
 30
0.0
 10
824.2935335092
 20
103.2233406144
 30
0.0
 10
824.6542765607
 20
102.9109069774
 30
0.0
  0
SPLINE
  5
6AD
100
AcDbEntity
  8
BEZUGSACHSEN
100
AcDbSpline
 62
7
  6
CONTINUOUS
 70
0
 71
3
 72
11
 73
7
 74
0
 42
0.0000001
 43
0.0000001
 44
0.0000000001
 40
0.0
 40
0.0
 40
0.0
 40
0.0
 40
0.3056053985
 40
0.5702081931
 40
0.798568005
 40
1.0
 40
1.0
 40
1.0
 40
1.0
 10
827.8741559588
 20
102.5636404853
 30
0.0
 10
827.9858013332
 20
103.1240177723
 30
0.0
 10
828.1392320543
 20
104.1824239722
 30
0.0
 10
828.1315930821
 20
105.6828275194
 30
0.0
 10
827.8643411238
 20
106.9643777681
 30
0.0
 10
827.4880430006
 20
107.6911520389
 30
0.0
 10
827.2595459859
 20
107.9905346533
 30
0.0
  0
SPLINE
  5
6AE
100
AcDbEntity
  8
KONSTRUKTIONSELEMENTE
100
AcDbSpline
 62
7
  6
CONTINUOUS
 70
0
 71
3
 72
12
 73
8
 74
0
 42
0.0000001
 43
0.0000001
 44
0.0000000001
 40
0.0
 40
0.0
 40
0.0
 40
0.0
 40
0.2432152874
 40
0.5144977653
 40
0.7780221334
 40
0.8960482216
 40
1.0
 40
1.0
 40
1.0
 40
1.0
 10
801.9940013843
 20
39.5806820508
 30
0.0
 10
802.9723263592
 20
40.203163312
 30
0.0
 10
804.8929096943
 20
41.7538601395
 30
0.0
 10
807.429965722
 20
44.4703905922
 30
0.0
 10
809.2457352158
 20
47.0150208804
 30
0.0
 10
810.344130305
 20
49.0552857358
 30
0.0
 10
810.7493058913
 20
50.0363975929
 30
0.0
 10
810.9040666261
 20
50.5072225093
 30
0.0
  0
SPLINE
  5
6AF
100
AcDbEntity
  8
KONSTRUKTIONSELEMENTE
100
AcDbSpline
 62
7
  6
CONTINUOUS
 70
0
 71
3
 72
9
 73
5
 74
0
 42
0.0000001
 43
0.0000001
 44
0.0000000001
 40
0.0
 40
0.0
 40
0.0
 40
0.0
 40
0.5148567739
 40
1.0
 40
1.0
 40
1.0
 40
1.0
 10
729.3641620921
 20
-6.6316861527
 30
0.0
 10
729.5705120039
 20
-6.5003913819
 30
0.0
 10
729.9123482846
 20
-6.1617402559
 30
0.0
 10
730.1832031049
 20
-5.7579710771
 30
0.0
 10
730.2551686163
 20
-5.5390321068
 30
0.0
  0
SPLINE
  5
6B0
100
AcDbEntity
  8
KONSTRUKTIONSELEMENTE
100
AcDbSpline
 62
7
  6
CONTINUOUS
 70
0
 71
3
 72
9
 73
5
 74
0
 42
0.0000001
 43
0.0000001
 44
0.0000000001
 40
0.0
 40
0.0
 40
0.0
 40
0.0
 40
0.3784231441
 40
1.0
 40
1.0
 40
1.0
 40
1.0
 10
800.2128731743
 20
38.6337222127
 30
0.0
 10
800.2570888354
 20
38.5954363654
 30
0.0
 10
800.436950417
 20
38.5953407738
 30
0.0
 10
800.5679513599
 20
38.6733256606
 30
0.0
 10
800.6490043603
 20
38.7248974545
 30
0.0
  0
SPLINE
  5
6B1
100
AcDbEntity
  8
KONSTRUKTIONSELEMENTE
100
AcDbSpline
 62
7
  6
CONTINUOUS
 70
0
 71
3
 72
9
 73
5
 74
0
 42
0.0000001
 43
0.0000001
 44
0.0000000001
 40
0.0
 40
0.0
 40
0.0
 40
0.0
 40
0.4403350876
 40
1.0
 40
1.0
 40
1.0
 40
1.0
 10
789.7435891595
 20
97.443855331
 30
0.0
 10
790.0742069213
 20
97.5616008813
 30
0.0
 10
790.7573997413
 20
98.0004164253
 30
0.0
 10
791.3392289568
 20
98.5466578503
 30
0.0
 10
791.6399179966
 20
98.8761463825
 30
0.0
  0
SPLINE
  5
6B2
100
AcDbEntity
  8
BEZUGSACHSEN
100
AcDbSpline
 62
7
  6
CONTINUOUS
 70
0
 71
3
 72
16
 73
12
 74
0
 42
0.0000001
 43
0.0000001
 44
0.0000000001
 40
0.0
 40
0.0
 40
0.0
 40
0.0
 40
0.0604291654
 40
0.097261643
 40
0.1400692863
 40
0.2446933878
 40
0.3732481893
 40
0.5206284323
 40
0.6797017749
 40
0.8423291972
 40
1.0
 40
1.0
 40
1.0
 40
1.0
 10
817.4530932485
 20
94.5958707724
 30
0.0
 10
817.3273632835
 20
94.7047634318
 30
0.0
 10
817.196328806
 20
94.9625671289
 30
0.0
 10
817.1556411321
 20
95.3459644071
 30
0.0
 10
817.1889971468
 20
95.8547692351
 30
0.0
 10
817.3956406693
 20
96.592154621
 30
0.0
 10
817.8303282299
 20
97.5475604349
 30
0.0
 10
818.4490365645
 20
98.5753974457
 30
0.0
 10
819.2161492771
 20
99.6159563953
 30
0.0
 10
820.0879529462
 20
100.6083636523
 30
0.0
 10
820.7256228631
 20
101.219278813
 30
0.0
 10
821.0536849046
 20
101.5033888749
 30
0.0
  0
SPLINE
  5
6B3
100
AcDbEntity
  8
KONSTRUKTIONSELEMENTE
100
AcDbSpline
 62
7
  6
CONTINUOUS
 70
0
 71
3
 72
9
 73
5
 74
0
 42
0.0000001
 43
0.0000001
 44
0.0000000001
 40
0.0
 40
0.0
 40
0.0
 40
0.0
 40
0.2933152047
 40
1.0
 40
1.0
 40
1.0
 40
1.0
 10
692.3602507286
 20
-12.8494149362
 30
0.0
 10
692.3602507286
 20
-12.894960741
 30
0.0
 10
692.3688646388
 20
-13.0487998244
 30
0.0
 10
692.4346366394
 20
-13.2082256433
 30
0.0
 10
692.5175881642
 20
-13.2800622867
 30
0.0
  0
SPLINE
  5
6B4
100
AcDbEntity
  8
KONSTRUKTIONSELEMENTE
100
AcDbSpline
 62
7
  6
CONTINUOUS
 70
0
 71
3
 72
11
 73
7
 74
0
 42
0.0000001
 43
0.0000001
 44
0.0000000001
 40
0.0
 40
0.0
 40
0.0
 40
0.0
 40
0.2857886869
 40
0.5710293088
 40
0.8184092914
 40
1.0
 40
1.0
 40
1.0
 40
1.0
 10
694.4815710722
 20
0.5877023709
 30
0.0
 10
694.191300069
 20
0.3363203082
 30
0.0
 10
693.651192535
 20
-0.2124014552
 30
0.0
 10
692.9860809847
 20
-1.0941182735
 30
0.0
 10
692.5284220346
 20
-1.9372990254
 30
0.0
 10
692.3602507286
 20
-2.5054253624
 30
0.0
 10
692.3602507286
 20
-2.7494149362
 30
0.0
  0
SPLINE
  5
6B5
100
AcDbEntity
  8
KONSTRUKTIONSELEMENTE
100
AcDbSpline
 62
7
  6
CONTINUOUS
 70
0
 71
3
 72
12
 73
8
 74
0
 42
0.0000001
 43
0.0000001
 44
0.0000000001
 40
0.0
 40
0.0
 40
0.0
 40
0.0
 40
0.1039480157
 40
0.221979869
 40
0.485503704
 40
0.756782708
 40
1.0
 40
1.0
 40
1.0
 40
1.0
 10
732.6587567508
 20
1.7733471175
 30
0.0
 10
732.8135119002
 20
2.2441550412
 30
0.0
 10
733.2186903679
 20
3.2252758296
 30
0.0
 10
734.3170801964
 20
5.2655521826
 30
0.0
 10
736.1328617729
 20
7.8101849904
 30
0.0
 10
738.6699083475
 20
10.526711117
 30
0.0
 10
740.5904888511
 20
12.0774011185
 30
0.0
 10
741.5688219927
 20
12.6998875759
 30
0.0
  0
SPLINE
  5
6B6
100
AcDbEntity
  8
KONSTRUKTIONSELEMENTE
100
AcDbSpline
 62
7
  6
CONTINUOUS
 70
0
 71
3
 72
9
 73
5
 74
0
 42
0.0000001
 43
0.0000001
 44
0.0000000001
 40
0.0
 40
0.0
 40
0.0
 40
0.0
 40
0.2360356965
 40
1.0
 40
1.0
 40
1.0
 40
1.0
 10
720.6445219761
 20
26.4988512405
 30
0.0
 10
720.6305710281
 20
26.4348484966
 30
0.0
 10
720.5664781179
 20
26.1647826797
 30
0.0
 10
720.4841000167
 20
25.8992275232
 30
0.0
 10
720.4137909923
 20
25.6992063754
 30
0.0
  0
SPLINE
  5
6B7
100
AcDbEntity
  8
KONSTRUKTIONSELEMENTE
100
AcDbSpline
 62
7
  6
CONTINUOUS
 70
0
 71
3
 72
11
 73
7
 74
0
 42
0.0000001
 43
0.0000001
 44
0.0000000001
 40
0.0
 40
0.0
 40
0.0
 40
0.0
 40
0.2213121297
 40
0.4741101391
 40
0.7402525423
 40
1.0
 40
1.0
 40
1.0
 40
1.0
 10
720.2996668381
 20
25.3929525727
 30
0.0
 10
720.0631070776
 20
24.7912674893
 30
0.0
 10
719.4324039853
 20
23.5510660969
 30
0.0
 10
718.2232251039
 20
21.7538823049
 30
0.0
 10
716.7621641288
 20
20.005362622
 30
0.0
 10
715.6606850267
 20
18.9293530851
 30
0.0
 10
715.0870869967
 20
18.4326026196
 30
0.0
  0
SPLINE
  5
6B8
100
AcDbEntity
  8
KONSTRUKTIONSELEMENTE
100
AcDbSpline
 62
7
  6
CONTINUOUS
 70
0
 71
3
 72
13
 73
9
 74
0
 42
0.0000001
 43
0.0000001
 44
0.0000000001
 40
0.0
 40
0.0
 40
0.0
 40
0.0
 40
0.3387082209
 40
0.6145850421
 40
0.7288715786
 40
0.8288717439
 40
0.9176159119
 40
1.0
 40
1.0
 40
1.0
 40
1.0
 10
798.0586969977
 20
48.6428406231
 30
0.0
 10
798.5071027174
 20
48.9281488439
 30
0.0
 10
799.3493404458
 20
49.4026463854
 30
0.0
 10
800.4324156294
 20
49.800585019
 30
0.0
 10
801.1965069323
 20
49.9113925692
 30
0.0
 10
801.6749999016
 20
49.8954149274
 30
0.0
 10
802.0901294678
 20
49.7831862909
 30
0.0
 10
802.3224991684
 20
49.6390632719
 30
0.0
 10
802.4202078408
 20
49.5544221422
 30
0.0
  0
SPLINE
  5
6B9
100
AcDbEntity
  8
KONSTRUKTIONSELEMENTE
100
AcDbSpline
 62
7
  6
CONTINUOUS
 70
0
 71
3
 72
11
 73
7
 74
0
 42
0.0000001
 43
0.0000001
 44
0.0000000001
 40
0.0
 40
0.0
 40
0.0
 40
0.0
 40
0.1943604335
 40
0.4358518854
 40
0.7105147149
 40
1.0
 40
1.0
 40
1.0
 40
1.0
 10
719.9926481228
 20
27.4067096078
 30
0.0
 10
720.0885447936
 20
28.0290966622
 30
0.0
 10
720.5237089298
 20
29.3878886804
 30
0.0
 10
721.5699854438
 20
31.4431600099
 30
0.0
 10
723.024882253
 20
33.6172938319
 30
0.0
 10
724.1911501935
 20
35.0290166904
 30
0.0
 10
724.8234028845
 20
35.7218254847
 30
0.0
  0
SPLINE
  5
6BA
100
AcDbEntity
  8
KONSTRUKTIONSELEMENTE
100
AcDbSpline
 62
7
  6
CONTINUOUS
 70
0
 71
3
 72
13
 73
9
 74
0
 42
0.0000001
 43
0.0000001
 44
0.0000000001
 40
0.0
 40
0.0
 40
0.0
 40
0.0
 40
0.3442017304
 40
0.639278175
 40
0.7587825572
 40
0.8568962178
 40
0.935063035
 40
1.0
 40
1.0
 40
1.0
 40
1.0
 10
783.9995447231
 20
99.1785543096
 30
0.0
 10
784.2428591452
 20
99.4451729793
 30
0.0
 10
784.7262900949
 20
99.9121800357
 30
0.0
 10
785.3765503366
 20
100.3802370704
 30
0.0
 10
785.8646761066
 20
100.6098772297
 30
0.0
 10
786.1655234701
 20
100.6929455415
 30
0.0
 10
786.4230130263
 20
100.6970865044
 30
0.0
 10
786.5665323514
 20
100.6325159504
 30
0.0
 10
786.6181745868
 20
100.5881275733
 30
0.0
  0
SPLINE
  5
6BB
100
AcDbEntity
  8
KONSTRUKTIONSELEMENTE
100
AcDbSpline
 62
7
  6
CONTINUOUS
 70
0
 71
3
 72
14
 73
10
 74
0
 42
0.0000001
 43
0.0000001
 44
0.0000000001
 40
0.0
 40
0.0
 40
0.0
 40
0.0
 40
0.3441519859
 40
0.5001803068
 40
0.6395256825
 40
0.7589756986
 40
0.8570248581
 40
0.9351117401
 40
1.0
 40
1.0
 40
1.0
 40
1.0
 10
803.2656437473
 20
121.6771327342
 30
0.0
 10
804.0770560984
 20
122.5662608006
 30
0.0
 10
805.3392285067
 20
123.7890500384
 30
0.0
 10
807.1191631411
 20
125.1473350777
 30
0.0
 10
808.3518867101
 20
125.9174467222
 30
0.0
 10
809.4857003417
 20
126.4493122854
 30
0.0
 10
810.4886085023
 20
126.725630243
 30
0.0
 10
811.3467449195
 20
126.7383494231
 30
0.0
 10
811.8247959463
 20
126.5224395005
 30
0.0
 10
811.9965060752
 20
126.3740330818
 30
0.0
  0
SPLINE
  5
6BC
100
AcDbEntity
  8
BEZUGSACHSEN
100
AcDbSpline
 62
7
  6
CONTINUOUS
 70
0
 71
3
 72
9
 73
5
 74
0
 42
0.0000001
 43
0.0000001
 44
0.0000000001
 40
0.0
 40
0.0
 40
0.0
 40
0.0
 40
0.4282025445
 40
1.0
 40
1.0
 40
1.0
 40
1.0
 10
824.6542765607
 20
102.9109069774
 30
0.0
 10
824.786706868
 20
102.7962112614
 30
0.0
 10
824.9770923183
 20
102.3974683978
 30
0.0
 10
824.9477875126
 20
101.9807969346
 30
0.0
 10
824.9119706825
 20
101.7496109817
 30
0.0
  0
SPLINE
  5
6BD
100
AcDbEntity
  8
KONSTRUKTIONSELEMENTE
100
AcDbSpline
 62
7
  6
CONTINUOUS
 70
0
 71
3
 72
10
 73
6
 74
0
 42
0.0000001
 43
0.0000001
 44
0.0000000001
 40
0.0
 40
0.0
 40
0.0
 40
0.0
 40
0.1702020269
 40
0.4025143755
 40
1.0
 40
1.0
 40
1.0
 40
1.0
 10
788.752114154
 20
92.5788297216
 30
0.0
 10
788.9121002403
 20
92.5743824703
 30
0.0
 10
789.2885673483
 20
92.6779269669
 30
0.0
 10
790.1087993459
 20
93.1388961568
 30
0.0
 10
790.6925146652
 20
93.6763881891
 30
0.0
 10
791.0712442923
 20
94.0913919052
 30
0.0
  0
SPLINE
  5
6BE
100
AcDbEntity
  8
KONSTRUKTIONSELEMENTE
100
AcDbSpline
 62
7
  6
CONTINUOUS
 70
0
 71
3
 72
12
 73
8
 74
0
 42
0.0000001
 43
0.0000001
 44
0.0000000001
 40
0.0
 40
0.0
 40
0.0
 40
0.0
 40
0.2855672817
 40
0.5706138983
 40
0.8178266478
 40
0.9180835819
 40
1.0
 40
1.0
 40
1.0
 40
1.0
 10
717.8160948513
 20
13.8970132633
 30
0.0
 10
718.5901126237
 20
14.5673323171
 30
0.0
 10
720.0316744692
 20
16.0316864237
 30
0.0
 10
721.7998851976
 20
18.3781960634
 30
0.0
 10
722.8955905828
 20
20.3833458082
 30
0.0
 10
723.3761557479
 20
21.8497160827
 30
0.0
 10
723.4729491008
 20
22.5022734629
 30
0.0
 10
723.4729491008
 20
22.7959927488
 30
0.0
  0
SPLINE
  5
6BF
100
AcDbEntity
  8
KONSTRUKTIONSELEMENTE
100
AcDbSpline
 62
7
  6
CONTINUOUS
 70
0
 71
3
 72
14
 73
10
 74
0
 42
0.0000001
 43
0.0000001
 44
0.0000000001
 40
0.0
 40
0.0
 40
0.0
 40
0.0
 40
0.0648882599
 40
0.1429751419
 40
0.2410243014
 40
0.3604743175
 40
0.4998196932
 40
0.6558480141
 40
1.0
 40
1.0
 40
1.0
 40
1.0
 10
815.5320399811
 20
123.3121709034
 30
0.0
 10
815.3603298522
 20
123.4605773221
 30
0.0
 10
814.8822788254
 20
123.6764872446
 30
0.0
 10
814.0241424082
 20
123.6637680645
 30
0.0
 10
813.0212342477
 20
123.3874501069
 30
0.0
 10
811.8874206161
 20
122.8555845437
 30
0.0
 10
810.6546970471
 20
122.0854728992
 30
0.0
 10
808.8747624127
 20
120.72718786
 30
0.0
 10
807.6125900043
 20
119.5043986221
 30
0.0
 10
806.8011776532
 20
118.6152705557
 30
0.0
  0
SPLINE
  5
6C0
100
AcDbEntity
  8
KONSTRUKTIONSELEMENTE
100
AcDbSpline
 62
7
  6
CONTINUOUS
 70
0
 71
3
 72
13
 73
9
 74
0
 42
0.0000001
 43
0.0000001
 44
0.0000000001
 40
0.0
 40
0.0
 40
0.0
 40
0.0
 40
0.064936965
 40
0.1431037822
 40
0.2412174428
 40
0.360721825
 40
0.6557982696
 40
1.0
 40
1.0
 40
1.0
 40
1.0
 10
789.1597212098
 20
92.0694462058
 30
0.0
 10
789.2113634453
 20
92.0250578286
 30
0.0
 10
789.3548827704
 20
91.9604872746
 30
0.0
 10
789.6123723265
 20
91.9646282376
 30
0.0
 10
789.91321969
 20
92.0476965493
 30
0.0
 10
790.4013454601
 20
92.2773367087
 30
0.0
 10
791.0516057017
 20
92.7453937433
 30
0.0
 10
791.5350366514
 20
93.2124007998
 30
0.0
 10
791.7783510735
 20
93.4790194695
 30
0.0
  0
SPLINE
  5
6C1
100
AcDbEntity
  8
KONSTRUKTIONSELEMENTE
100
AcDbSpline
 62
7
  6
CONTINUOUS
 70
0
 71
3
 72
9
 73
5
 74
0
 42
0.0000001
 43
0.0000001
 44
0.0000000001
 40
0.0
 40
0.0
 40
0.0
 40
0.0
 40
0.3358800569
 40
1.0
 40
1.0
 40
1.0
 40
1.0
 10
800.1950138606
 20
38.9617669039
 30
0.0
 10
800.1832583832
 20
38.9260034937
 30
0.0
 10
800.1540038398
 20
38.8224039835
 30
0.0
 10
800.1566014586
 20
38.6824472632
 30
0.0
 10
800.2128731743
 20
38.6337222127
 30
0.0
  0
SPLINE
  5
6C2
100
AcDbEntity
  8
KONSTRUKTIONSELEMENTE
100
AcDbSpline
 62
7
  6
CONTINUOUS
 70
0
 71
3
 72
13
 73
9
 74
0
 42
0.0000001
 43
0.0000001
 44
0.0000000001
 40
0.0
 40
0.0
 40
0.0
 40
0.0
 40
0.064936965
 40
0.1431037822
 40
0.2412174428
 40
0.360721825
 40
0.6557982696
 40
1.0
 40
1.0
 40
1.0
 40
1.0
 10
791.1426084765
 20
95.6294558117
 30
0.0
 10
791.1942507119
 20
95.5850674345
 30
0.0
 10
791.337770037
 20
95.5204968805
 30
0.0
 10
791.5952595931
 20
95.5246378435
 30
0.0
 10
791.8961069567
 20
95.6077061552
 30
0.0
 10
792.3842327267
 20
95.8373463146
 30
0.0
 10
793.0344929684
 20
96.3054033492
 30
0.0
 10
793.5179239181
 20
96.7724104057
 30
0.0
 10
793.7612383402
 20
97.0390290754
 30
0.0
  0
SPLINE
  5
6C3
100
AcDbEntity
  8
KONSTRUKTIONSELEMENTE
100
AcDbSpline
 62
7
  6
CONTINUOUS
 70
0
 71
3
 72
11
 73
7
 74
0
 42
0.0000001
 43
0.0000001
 44
0.0000000001
 40
0.0
 40
0.0
 40
0.0
 40
0.0
 40
0.2894852851
 40
0.5641481146
 40
0.8056395665
 40
1.0
 40
1.0
 40
1.0
 40
1.0
 10
728.3589367904
 20
32.6599633063
 30
0.0
 10
727.7266840994
 20
31.9671545119
 30
0.0
 10
726.560416159
 20
30.5554316534
 30
0.0
 10
725.1055193497
 20
28.3812978314
 30
0.0
 10
724.0592428358
 20
26.3260265019
 30
0.0
 10
723.6240786995
 20
24.9672344837
 30
0.0
 10
723.5281820287
 20
24.3448474294
 30
0.0
  0
SPLINE
  5
6C4
100
AcDbEntity
  8
KONSTRUKTIONSELEMENTE
100
AcDbSpline
 62
7
  6
CONTINUOUS
 70
0
 71
3
 72
11
 73
7
 74
0
 42
0.0000001
 43
0.0000001
 44
0.0000000001
 40
0.0
 40
0.0
 40
0.0
 40
0.0
 40
0.18436948
 40
0.4023889958
 40
0.6725775155
 40
1.0
 40
1.0
 40
1.0
 40
1.0
 10
802.4202078408
 20
49.5544221422
 30
0.0
 10
802.5804160631
 20
49.4156401426
 30
0.0
 10
802.8484169274
 20
49.0139024392
 30
0.0
 10
802.9790301536
 20
48.238058534
 30
0.0
 10
802.8946570548
 20
47.2980953533
 30
0.0
 10
802.7161449194
 20
46.6317441816
 30
0.0
 10
802.5986019951
 20
46.2741461282
 30
0.0
  0
SPLINE
  5
6C5
100
AcDbEntity
  8
BEZUGSACHSEN
100
AcDbSpline
 62
7
  6
CONTINUOUS
 70
0
 71
3
 72
12
 73
8
 74
0
 42
0.0000001
 43
0.0000001
 44
0.0000000001
 40
0.0
 40
0.0
 40
0.0
 40
0.0
 40
0.3466871926
 40
0.6291022929
 40
0.744070615
 40
0.8421286506
 40
1.0
 40
1.0
 40
1.0
 40
1.0
 10
820.5146250197
 20
95.5631719301
 30
0.0
 10
820.2037457265
 20
95.3247101873
 30
0.0
 10
819.6159176566
 20
94.9218634085
 30
0.0
 10
818.8528042528
 20
94.5534812788
 30
0.0
 10
818.3064790658
 20
94.4173880978
 30
0.0
 10
817.8888623275
 20
94.3864047599
 30
0.0
 10
817.5879591752
 20
94.4790656064
 30
0.0
 10
817.4530932485
 20
94.5958707724
 30
0.0
  0
SPLINE
  5
6C6
100
AcDbEntity
  8
KONSTRUKTIONSELEMENTE
100
AcDbSpline
 62
7
  6
CONTINUOUS
 70
0
 71
3
 72
9
 73
5
 74
0
 42
0.0000001
 43
0.0000001
 44
0.0000000001
 40
0.0
 40
0.0
 40
0.0
 40
0.0
 40
0.5486732816
 40
1.0
 40
1.0
 40
1.0
 40
1.0
 10
723.4729491008
 20
-6.7473902319
 30
0.0
 10
723.4729491008
 20
-7.0336500305
 30
0.0
 10
723.5295871115
 20
-7.5637606403
 30
0.0
 10
723.8197893295
 20
-8.0291857611
 30
0.0
 10
723.9978433752
 20
-8.1832746668
 30
0.0
  0
SPLINE
  5
6C7
100
AcDbEntity
  8
KONSTRUKTIONSELEMENTE
100
AcDbSpline
 62
7
  6
CONTINUOUS
 70
0
 71
3
 72
9
 73
5
 74
0
 42
0.0000001
 43
0.0000001
 44
0.0000000001
 40
0.0
 40
0.0
 40
0.0
 40
0.0
 40
0.5486311305
 40
1.0
 40
1.0
 40
1.0
 40
1.0
 10
723.4729491008
 20
5.6959927488
 30
0.0
 10
723.4729491008
 20
5.9249978034
 30
0.0
 10
723.427595328
 20
6.3491021753
 30
0.0
 10
723.195435553
 20
6.7214811062
 30
0.0
 10
723.052961329
 20
6.8447619268
 30
0.0
  0
SPLINE
  5
6C8
100
AcDbEntity
  8
KONSTRUKTIONSELEMENTE
100
AcDbSpline
 62
7
  6
CONTINUOUS
 70
0
 71
3
 72
10
 73
6
 74
0
 42
0.0000001
 43
0.0000001
 44
0.0000000001
 40
0.0
 40
0.0
 40
0.0
 40
0.0
 40
0.6126827105
 40
0.8437825825
 40
1.0
 40
1.0
 40
1.0
 40
1.0
 10
801.9398596848
 20
109.3499935154
 30
0.0
 10
802.1349861937
 20
109.4476700508
 30
0.0
 10
802.3968130925
 20
109.6083416783
 30
0.0
 10
802.6455211201
 20
109.8597895773
 30
0.0
 10
802.7123957476
 20
109.9922131145
 30
0.0
 10
802.7110288734
 20
110.0478336153
 30
0.0
  0
SPLINE
  5
6C9
100
AcDbEntity
  8
KONSTRUKTIONSELEMENTE
100
AcDbSpline
 62
7
  6
CONTINUOUS
 70
0
 71
3
 72
11
 73
7
 74
0
 42
0.0000001
 43
0.0000001
 44
0.0000000001
 40
0.0
 40
0.0
 40
0.0
 40
0.0
 40
0.3096642997
 40
0.6044971845
 40
0.8457688763
 40
1.0
 40
1.0
 40
1.0
 40
1.0
 10
803.2327529037
 20
108.2303151436
 30
0.0
 10
803.2812291774
 20
108.3568117129
 30
0.0
 10
803.362566285
 20
108.6084633376
 30
0.0
 10
803.4396540674
 20
108.973365281
 30
0.0
 10
803.4609852627
 20
109.2701223202
 30
0.0
 10
803.4347851624
 20
109.4535381213
 30
0.0
 10
803.3938501846
 20
109.5071721728
 30
0.0
  0
SPLINE
  5
6CA
100
AcDbEntity
  8
KONSTRUKTIONSELEMENTE
100
AcDbSpline
 62
7
  6
CONTINUOUS
 70
0
 71
3
 72
13
 73
9
 74
0
 42
0.0000001
 43
0.0000001
 44
0.0000000001
 40
0.0
 40
0.0
 40
0.0
 40
0.0
 40
0.3442017304
 40
0.639278175
 40
0.7587825572
 40
0.8568962178
 40
0.935063035
 40
1.0
 40
1.0
 40
1.0
 40
1.0
 10
786.1208650667
 20
97.3414370025
 30
0.0
 10
786.3641794887
 20
97.6080556722
 30
0.0
 10
786.8476104384
 20
98.0750627286
 30
0.0
 10
787.4978706801
 20
98.5431197633
 30
0.0
 10
787.9859964501
 20
98.7727599227
 30
0.0
 10
788.2868438137
 20
98.8558282344
 30
0.0
 10
788.5443333698
 20
98.8599691974
 30
0.0
 10
788.6878526949
 20
98.7953986434
 30
0.0
 10
788.7394949303
 20
98.7510102662
 30
0.0
  0
SPLINE
  5
6CB
100
AcDbEntity
  8
KONSTRUKTIONSELEMENTE
100
AcDbSpline
 62
7
  6
CONTINUOUS
 70
0
 71
3
 72
9
 73
5
 74
0
 42
0.0000001
 43
0.0000001
 44
0.0000000001
 40
0.0
 40
0.0
 40
0.0
 40
0.0
 40
0.2933152047
 40
1.0
 40
1.0
 40
1.0
 40
1.0
 10
694.4815710722
 20
-14.6865322433
 30
0.0
 10
694.4815710722
 20
-14.7320780481
 30
0.0
 10
694.4901849824
 20
-14.8859171315
 30
0.0
 10
694.555956983
 20
-15.0453429504
 30
0.0
 10
694.6389085077
 20
-15.1171795938
 30
0.0
  0
SPLINE
  5
6CC
100
AcDbEntity
  8
KONSTRUKTIONSELEMENTE
100
AcDbSpline
 62
7
  6
CONTINUOUS
 70
0
 71
3
 72
11
 73
7
 74
0
 42
0.0000001
 43
0.0000001
 44
0.0000000001
 40
0.0
 40
0.0
 40
0.0
 40
0.0
 40
0.2857886869
 40
0.5710293088
 40
0.8184092914
 40
1.0
 40
1.0
 40
1.0
 40
1.0
 10
696.6028914157
 20
-1.2494149362
 30
0.0
 10
696.3126204126
 20
-1.5007969989
 30
0.0
 10
695.7725128786
 20
-2.0495187623
 30
0.0
 10
695.1074013282
 20
-2.9312355806
 30
0.0
 10
694.6497423782
 20
-3.7744163325
 30
0.0
 10
694.4815710722
 20
-4.3425426695
 30
0.0
 10
694.4815710722
 20
-4.5865322433
 30
0.0
  0
SPLINE
  5
6CD
100
AcDbEntity
  8
KONSTRUKTIONSELEMENTE
100
AcDbSpline
 62
7
  6
CONTINUOUS
 70
0
 71
3
 72
11
 73
7
 74
0
 42
0.0000001
 43
0.0000001
 44
0.0000000001
 40
0.0
 40
0.0
 40
0.0
 40
0.0
 40
0.2020277968
 40
0.4526504625
 40
0.7280626071
 40
1.0
 40
1.0
 40
1.0
 40
1.0
 10
722.7658423196
 20
24.6617339334
 30
0.0
 10
722.6235921615
 20
24.009133087
 30
0.0
 10
722.0609448266
 20
22.6043401831
 30
0.0
 10
720.8146317035
 20
20.5399908847
 30
0.0
 10
719.1730150281
 20
18.4659922078
 30
0.0
 10
717.8880272153
 20
17.1840533892
 30
0.0
 10
717.2084073403
 20
16.5954853126
 30
0.0
  0
SPLINE
  5
6CE
100
AcDbEntity
  8
KONSTRUKTIONSELEMENTE
100
AcDbSpline
 62
7
  6
CONTINUOUS
 70
0
 71
3
 72
12
 73
8
 74
0
 42
0.0000001
 43
0.0000001
 44
0.0000000001
 40
0.0
 40
0.0
 40
0.0
 40
0.0
 40
0.285581653
 40
0.5706156379
 40
0.817816411
 40
0.9180971044
 40
1.0
 40
1.0
 40
1.0
 40
1.0
 10
717.1089880701
 20
14.509385699
 30
0.0
 10
717.8830440786
 20
15.1797378663
 30
0.0
 10
719.3246024768
 20
16.6441076854
 30
0.0
 10
721.0927726536
 20
18.9905783627
 30
0.0
 10
722.1885615086
 20
20.995707132
 30
0.0
 10
722.6689432695
 20
22.462117898
 30
0.0
 10
722.7658423196
 20
23.1146946571
 30
0.0
 10
722.7658423196
 20
23.4083651845
 30
0.0
  0
SPLINE
  5
6CF
100
AcDbEntity
  8
KONSTRUKTIONSELEMENTE
100
AcDbSpline
 62
7
  6
CONTINUOUS
 70
0
 71
3
 72
9
 73
5
 74
0
 42
0.0000001
 43
0.0000001
 44
0.0000000001
 40
0.0
 40
0.0
 40
0.0
 40
0.0
 40
0.5486311305
 40
1.0
 40
1.0
 40
1.0
 40
1.0
 10
722.7658423196
 20
4.3083651845
 30
0.0
 10
722.7658423196
 20
4.5373702391
 30
0.0
 10
722.7204885468
 20
4.961474611
 30
0.0
 10
722.4883287718
 20
5.3338535419
 30
0.0
 10
722.3458545478
 20
5.4571343625
 30
0.0
  0
SPLINE
  5
6D0
100
AcDbEntity
  8
KONSTRUKTIONSELEMENTE
100
AcDbSpline
 62
7
  6
CONTINUOUS
 70
0
 71
3
 72
9
 73
5
 74
0
 42
0.0000001
 43
0.0000001
 44
0.0000000001
 40
0.0
 40
0.0
 40
0.0
 40
0.0
 40
0.2763905897
 40
1.0
 40
1.0
 40
1.0
 40
1.0
 10
722.7658423196
 20
6.3083651845
 30
0.0
 10
722.7658423196
 20
6.3809232543
 30
0.0
 10
722.7557450787
 20
6.642879912
 30
0.0
 10
722.7002737602
 20
6.9064507462
 30
0.0
 10
722.6221419785
 20
7.0796009016
 30
0.0
  0
SPLINE
  5
6D1
100
AcDbEntity
  8
0
100
AcDbSpline
 62
7
  6
CONTINUOUS
 70
0
 71
3
 72
13
 73
9
 74
0
 42
0.0000001
 43
0.0000001
 44
0.0000000001
 40
0.0
 40
0.0
 40
0.0
 40
0.0
 40
0.1129038768
 40
0.2273247729
 40
0.3446452176
 40
0.4659585647
 40
0.7227300464
 40
1.0
 40
1.0
 40
1.0
 40
1.0
 10
927.8034682666
 20
309.0116412948
 30
0.0
 10
927.8034682666
 20
310.1298983653
 30
0.0
 10
927.9608308076
 20
312.3845339677
 30
0.0
 10
928.6693855476
 20
315.7341700211
 30
0.0
 10
929.8556563546
 20
319.0353209973
 30
0.0
 10
932.1191638973
 20
323.4031306943
 30
0.0
 10
936.2217213036
 20
328.5259061473
 30
0.0
 10
940.4569831786
 20
331.7828894135
 30
0.0
 10
942.8002655778
 20
333.2149374868
 30
0.0
  0
SPLINE
  5
6D2
100
AcDbEntity
  8
0
100
AcDbSpline
 62
7
  6
CONTINUOUS
 70
0
 71
3
 72
13
 73
9
 74
0
 42
0.0000001
 43
0.0000001
 44
0.0000000001
 40
0.0
 40
0.0
 40
0.0
 40
0.0
 40
0.2772734929
 40
0.5340464042
 40
0.6553593935
 40
0.7726787551
 40
0.8870981001
 40
1.0
 40
1.0
 40
1.0
 40
1.0
 10
987.8039771949
 20
333.2165843786
 30
0.0
 10
990.1476488253
 20
331.7845487301
 30
0.0
 10
994.3836569064
 20
328.5275179749
 30
0.0
 10
998.486978661
 20
323.4043887318
 30
0.0
 10
1000.7509077096
 20
319.0362092345
 30
0.0
 10
1001.9373952562
 20
315.7347712564
 30
0.0
 10
1002.6460771224
 20
312.3848367832
 30
0.0
 10
1002.8034682666
 20
310.1299971112
 30
0.0
 10
1002.8034682666
 20
309.0116412948
 30
0.0
  0
SPLINE
  5
6D3
100
AcDbEntity
  8
0
100
AcDbSpline
 62
7
  6
CONTINUOUS
 70
0
 71
3
 72
15
 73
11
 74
0
 42
0.0000001
 43
0.0000001
 44
0.0000000001
 40
0.0
 40
0.0
 40
0.0
 40
0.0
 40
0.1214606989
 40
0.2433436596
 40
0.3660465723
 40
0.4899111688
 40
0.6151884108
 40
0.7420042109
 40
0.8703347782
 40
1.0
 40
1.0
 40
1.0
 40
1.0
 10
895.8034682666
 20
309.0116412948
 30
0.0
 10
895.8034682666
 20
312.2797505049
 30
0.0
 10
896.379082964
 20
318.8415938628
 30
0.0
 10
898.938987621
 20
328.4005678318
 30
0.0
 10
903.1129482062
 20
337.4453380989
 30
0.0
 10
908.7735454335
 20
345.7488971985
 30
0.0
 10
915.7598996542
 20
353.1220645539
 30
0.0
 10
923.8884654971
 20
359.4077364238
 30
0.0
 10
932.9557573207
 20
364.4790149239
 30
0.0
 10
939.4621753539
 20
366.9760964114
 30
0.0
 10
942.7983425577
 20
367.9969659037
 30
0.0
  0
SPLINE
  5
6D4
100
AcDbEntity
  8
0
100
AcDbSpline
 62
7
  6
CONTINUOUS
 70
0
 71
3
 72
15
 73
11
 74
0
 42
0.0000001
 43
0.0000001
 44
0.0000000001
 40
0.0
 40
0.0
 40
0.0
 40
0.0
 40
0.1296653729
 40
0.25799597
 40
0.3848116966
 40
0.5100888109
 40
0.6339532478
 40
0.756656062
 40
0.8785390617
 40
1.0
 40
1.0
 40
1.0
 40
1.0
 10
987.8070044877
 20
367.9974543829
 30
0.0
 10
991.1432678289
 20
366.9766402424
 30
0.0
 10
997.6498733014
 20
364.4796304062
 30
0.0
 10
1006.7174519168
 20
359.408421407
 30
0.0
 10
1014.8462873191
 20
353.1227577463
 30
0.0
 10
1021.8328816631
 20
345.7495422748
 30
0.0
 10
1027.493688147
 20
337.4458871318
 30
0.0
 10
1031.6678149422
 20
328.4009727633
 30
0.0
 10
1034.2278280705
 20
318.8418103651
 30
0.0
 10
1034.8034682666
 20
312.2798240809
 30
0.0
 10
1034.8034682666
 20
309.0116412948
 30
0.0
  0
SPLINE
  5
6D5
100
AcDbEntity
  8
0
100
AcDbSpline
 62
7
  6
CONTINUOUS
 70
0
 71
3
 72
16
 73
12
 74
0
 42
0.0000001
 43
0.0000001
 44
0.0000000001
 40
0.0
 40
0.0
 40
0.0
 40
0.0
 40
0.1209747472
 40
0.2424561178
 40
0.36491347
 40
0.4887337791
 40
0.6141702502
 40
0.741296763
 40
0.8055114269
 40
0.870082311
 40
1.0
 40
1.0
 40
1.0
 40
1.0
 10
1034.8034682666
 20
226.7392279353
 30
0.0
 10
1034.8034682666
 20
223.1518081086
 30
0.0
 10
1034.108709997
 20
215.9431196094
 30
0.0
 10
1031.0265502574
 20
205.5058627058
 30
0.0
 10
1026.0236514861
 20
195.7454951308
 30
0.0
 10
1019.2813913789
 20
186.9522731997
 30
0.0
 10
1011.026765995
 20
179.3618020047
 30
0.0
 10
1003.1187878951
 20
174.2093102775
 30
0.0
 10
996.3063706635
 20
170.8497853154
 30
0.0
 10
989.1760092511
 20
168.0035542053
 30
0.0
 10
983.5792116696
 20
166.4931272495
 30
0.0
 10
979.7946844296
 20
165.7720124206
 30
0.0
  0
SPLINE
  5
6D6
100
AcDbEntity
  8
0
100
AcDbSpline
 62
7
  6
CONTINUOUS
 70
0
 71
3
 72
12
 73
8
 74
0
 42
0.0000001
 43
0.0000001
 44
0.0000000001
 40
0.0
 40
0.0
 40
0.0
 40
0.0
 40
0.254664832
 40
0.5065650208
 40
0.6313604577
 40
0.7552422344
 40
1.0
 40
1.0
 40
1.0
 40
1.0
 10
950.8130839312
 20
165.7718561643
 30
0.0
 10
946.6269365579
 20
166.5694474171
 30
0.0
 10
938.4158824167
 20
168.8546455898
 30
0.0
 10
928.8203400969
 20
173.407818026
 30
0.0
 10
921.7906365123
 20
177.9828940575
 30
0.0
 10
915.3012187566
 20
183.1006125354
 30
0.0
 10
911.0009312924
 20
187.5915195109
 30
0.0
 10
908.4721232053
 20
190.8132677552
 30
0.0
  0
SPLINE
  5
6D7
100
AcDbEntity
  8
0
100
AcDbSpline
 62
7
  6
CONTINUOUS
 70
0
 71
3
 72
11
 73
7
 74
0
 42
0.0000001
 43
0.0000001
 44
0.0000000001
 40
0.0
 40
0.0
 40
0.0
 40
0.0
 40
0.2517609803
 40
0.5020314297
 40
0.7512754028
 40
1.0
 40
1.0
 40
1.0
 40
1.0
 10
903.8487389246
 20
197.5838677124
 30
0.0
 10
902.5469228776
 20
199.795800963
 30
0.0
 10
900.2300476041
 20
204.3782629555
 30
0.0
 10
897.6922098602
 20
211.6275442294
 30
0.0
 10
896.1488173281
 20
219.120398969
 30
0.0
 10
895.8034682666
 20
224.2035945171
 30
0.0
 10
895.8034682666
 20
226.7392279353
 30
0.0
  0
SPLINE
  5
6D8
100
AcDbEntity
  8
0
100
AcDbSpline
 62
7
  6
CONTINUOUS
 70
0
 71
3
 72
14
 73
10
 74
0
 42
0.0000001
 43
0.0000001
 44
0.0000000001
 40
0.0
 40
0.0
 40
0.0
 40
0.0
 40
0.108843705
 40
0.2199895274
 40
0.3354196788
 40
0.4564742804
 40
0.5837968944
 40
0.7173719971
 40
1.0
 40
1.0
 40
1.0
 40
1.0
 10
1002.8034682666
 20
226.7392279353
 30
0.0
 10
1002.8034682666
 20
225.3216573548
 30
0.0
 10
1002.5488920742
 20
222.4502903548
 30
0.0
 10
1001.4029315706
 20
218.2131736166
 30
0.0
 10
999.4853602559
 20
214.0879067205
 30
0.0
 10
996.7990697467
 20
210.1602803281
 30
0.0
 10
993.3674982207
 20
206.5303669563
 30
0.0
 10
987.7771104887
 20
202.1566334857
 30
0.0
 10
982.8042480857
 20
199.7781006367
 30
0.0
 10
979.3078538841
 20
198.6272699663
 30
0.0
  0
SPLINE
  5
6D9
100
AcDbEntity
  8
0
100
AcDbSpline
 62
7
  6
CONTINUOUS
 70
0
 71
3
 72
9
 73
5
 74
0
 42
0.0000001
 43
0.0000001
 44
0.0000000001
 40
0.0
 40
0.0
 40
0.0
 40
0.0
 40
0.5185997082
 40
1.0
 40
1.0
 40
1.0
 40
1.0
 10
951.3001862339
 20
198.6269091568
 30
0.0
 10
948.0642729937
 20
199.6918959588
 30
0.0
 10
942.0399999178
 20
202.4979717088
 30
0.0
 10
936.9322619519
 20
206.777192822
 30
0.0
 10
934.8350677042
 20
209.1440277819
 30
0.0
  0
SPLINE
  5
6DA
100
AcDbEntity
  8
0
100
AcDbSpline
 62
7
  6
CONTINUOUS
 70
0
 71
3
 72
9
 73
5
 74
0
 42
0.0000001
 43
0.0000001
 44
0.0000000001
 40
0.0
 40
0.0
 40
0.0
 40
0.0
 40
0.5078858038
 40
1.0
 40
1.0
 40
1.0
 40
1.0
 10
930.1244037658
 20
216.3082478836
 30
0.0
 10
929.3659429393
 20
217.9623335149
 30
0.0
 10
928.2007243619
 20
221.3826707065
 30
0.0
 10
927.8034682666
 20
224.9760481467
 30
0.0
 10
927.8034682666
 20
226.7392279353
 30
0.0
  0
ELLIPSE
  5
6DB
100
AcDbEntity
  8
KONSTRUKTIONSELEMENTE
100
AcDbEllipse
 62
7
  6
CONTINUOUS
 10
66.2091235841
 20
108.7140987708
 30
0.0
 11
-0.4626046483
 21
1.0147305368
 31
0.0
 40
0.8040646284
 41
-2.1902533329
 42
-0.7310952967
  0
ELLIPSE
  5
6DC
100
AcDbEntity
  8
KONSTRUKTIONSELEMENTE
100
AcDbEllipse
 62
7
  6
CONTINUOUS
 10
54.3601002905
 20
113.4594673513
 30
0.0
 11
2.9261369388
 21
-0.9316255364
 31
0.0
 40
0.0330294486
 41
-2.4948218116
 42
-1.2638623942
  0
ELLIPSE
  5
6DD
100
AcDbEntity
  8
BEZUGSACHSEN
100
AcDbEllipse
 62
7
  6
CONTINUOUS
 10
559.8532813809
 20
30.505350011
 30
0.0
 11
-56.291651246
 21
97.5
 31
0.0
 40
0.5773502692
 41
-0.3854704199
 42
-0.1739528877
  0
ELLIPSE
  5
6DE
100
AcDbEntity
  8
BEZUGSACHSEN
100
AcDbEllipse
 62
7
  6
CONTINUOUS
 10
559.8532813809
 20
30.505350011
 30
0.0
 11
-56.291651246
 21
97.5
 31
0.0
 40
0.5773502692
 41
0.1739528877
 42
0.3854704199
  0
ELLIPSE
  5
6DF
100
AcDbEntity
  8
0
100
AcDbEllipse
 62
7
  6
CONTINUOUS
 10
75.7619168935
 20
30.505350011
 30
0.0
 11
56.291651246
 21
97.5
 31
0.0
 40
0.5773502692
 41
-0.3854704199
 42
-0.1739528877
  0
ELLIPSE
  5
6E0
100
AcDbEntity
  8
0
100
AcDbEllipse
 62
7
  6
CONTINUOUS
 10
75.7619168935
 20
30.505350011
 30
0.0
 11
56.291651246
 21
97.5
 31
0.0
 40
0.5773502692
 41
0.1739528877
 42
0.3854704199
  0
ELLIPSE
  5
6E1
100
AcDbEntity
  8
RUNDUNGEN
100
AcDbEllipse
 62
7
  6
CONTINUOUS
 10
975.6591932348
 20
148.954478357
 30
0.0
 11
2.2032319715
 21
9.9413056896
 31
0.0
 40
0.4910374012
 41
-4.2884226498
 42
-3.5567923356
  0
ELLIPSE
  5
6E2
100
AcDbEntity
  8
BEZUGSACHSEN
100
AcDbEllipse
 62
7
  6
CONTINUOUS
 10
954.9477432984
 20
148.954478357
 30
0.0
 11
2.2032319715
 21
-9.9413056896
 31
0.0
 40
0.4910374012
 41
0.415199682
 42
1.1468299962
  0
ELLIPSE
  5
6E3
100
AcDbEntity
  8
BEZUGSACHSEN
100
AcDbEllipse
 62
7
  6
CONTINUOUS
 10
981.1629639801
 20
152.2727546914
 30
0.0
 11
20.5954881973
 21
-7.1928156342
 31
0.0
 40
0.8562580526
 41
-2.8042158116
 42
-2.7044240522
  0
ELLIPSE
  5
6E4
100
AcDbEntity
  8
RUNDUNGEN
100
AcDbEllipse
 62
7
  6
CONTINUOUS
 10
949.4439725532
 20
152.2727546914
 30
0.0
 11
20.5954881973
 21
7.1928156342
 31
0.0
 40
0.8562580526
 41
-0.4371686013
 42
-0.3373768419
  0
ELLIPSE
  5
6E5
100
AcDbEntity
  8
KONSTRUKTIONSELEMENTE
100
AcDbEllipse
 62
7
  6
CONTINUOUS
 10
799.8515684429
 20
117.7460744012
 30
0.0
 11
-0.2430492675
 21
4.1378033915
 31
0.0
 40
0.1492557162
 41
-4.590401093
 42
-3.3594416756
  0
ELLIPSE
  5
6E6
100
AcDbEntity
  8
KONSTRUKTIONSELEMENTE
100
AcDbEllipse
 62
7
  6
CONTINUOUS
 10
804.8013159112
 20
113.4594673513
 30
0.0
 11
4.1900705083
 21
0.2461193709
 31
0.0
 40
0.2156790275
 41
2.055044837
 42
3.2860042543
  0
ELLIPSE
  5
6E7
100
AcDbEntity
  8
KONSTRUKTIONSELEMENTE
100
AcDbEllipse
 62
7
  6
CONTINUOUS
 10
805.2020042546
 20
108.7140987708
 30
0.0
 11
0.939343066
 21
1.0548029601
 31
0.0
 40
0.2506297473
 41
-1.6193024691
 42
-0.0485061423
  0
ENDSEC
  0
SECTION
  2
OBJECTS
  0
DICTIONARY
  5
C
100
AcDbDictionary
280
0
281
1
  3
ACAD_GROUP
350
D
  3
ACAD_MLINESTYLE
350
17
  3
ACAD_LAYOUT
350
1A
  3
ACAD_PLOTSETTINGS
350
19
  3
ACAD_PLOTSTYLENAME
350
E
  0
DICTIONARY
  5
D
102
{ACAD_REACTORS
330
C
102
}
100
AcDbDictionary
280
0
281
1
  0
ACDBDICTIONARYWDFLT
  5
E
102
{ACAD_REACTORS
330
C
102
}
100
AcDbDictionary
281
1
  3
Normal
350
F
100
AcDbDictionaryWithDefault
340
F
  0
DICTIONARY
  5
17
102
{ACAD_REACTORS
330
C
102
}
100
AcDbDictionary
280
0
281
1
  3
Standard
350
18
  0
DICTIONARY
  5
19
102
{ACAD_REACTORS
330
C
102
}
100
AcDbDictionary
281
1
  0
DICTIONARY
  5
1A
102
{ACAD_REACTORS
330
C
102
}
100
AcDbDictionary
281
1
  3
Model
350
6E8
  3
Layout1
350
6E9
  0
ACDBPLACEHOLDER
  5
F
102
{ACAD_REACTORS
330
E
102
}
  0
MLINESTYLE
  5
18
102
{ACAD_REACTORS
330
17
102
}
100
AcDbMlineStyle
  2
STANDARD
 70
0
  3

 62
256
 51
90.0
 52
90.0
 71
2
 49
0.5
 62
256
  6
BYLAYER
 49
-0.5
 62
256
  6
BYLAYER
  0
LAYOUT
  5
6E8
102
{ACAD_REACTORS
330
1A
102
}
100
AcDbPlotSettings
  1

  2
none_device
  4
ISO_A0_(1189.00_x_841.00_MM)
  6

 40
0.0
 41
0.0
 42
0.0
 43
0.0
 44
1189.0
 45
841.0
 46
0.0
 47
0.0
 48
0.0
 49
0.0
140
0.0
141
0.0
142
1.0
143
1.0
 70
1024
 72
1
 73
0
 74
0
  7

 75
0
147
1.0
148
0.0
149
0.0
100
AcDbLayout
  1
Model
 70
0
 71
0
 10
0.0
 20
0.0
 11
1189.0
 21
841.0
 12
0.0
 22
0.0
 32
0.0
 14
0.0
 24
0.0
 34
0.0
 15
0.0
 25
0.0
 35
0.0
146
0.0
 13
0.0
 23
0.0
 33
0.0
 16
1.0
 26
0.0
 36
0.0
 17
0.0
 27
1.0
 37
0.0
 76
0
330
20A
345
0
346
0
  0
LAYOUT
  5
6E9
102
{ACAD_REACTORS
330
1A
102
}
100
AcDbPlotSettings
  1

  2
none_device
  4
ISO_A0_(1189.00_x_841.00_MM)
  6

 40
0.0
 41
0.0
 42
0.0
 43
0.0
 44
1189.0
 45
841.0
 46
0.0
 47
0.0
 48
0.0
 49
0.0
140
0.0
141
0.0
142
1.0
143
1.0
 70
0
 72
1
 73
0
 74
0
  7

 75
0
147
1.0
148
0.0
149
0.0
100
AcDbLayout
  1
Layout1
 70
0
 71
1
 10
0.0
 20
0.0
 11
1189.0
 21
841.0
 12
0.0
 22
0.0
 32
0.0
 14
0.0
 24
0.0
 34
0.0
 15
0.0
 25
0.0
 35
0.0
146
0.0
 13
0.0
 23
0.0
 33
0.0
 16
1.0
 26
0.0
 36
0.0
 17
0.0
 27
1.0
 37
0.0
 76
0
330
20B
345
0
346
0
  0
ENDSEC
  0
EOF
