999
DXF file: VSAK-2-16_250_7994081_M32395-P-3.dxf
999
Pro/ENGINEER 2010140 by Parametric Technology Corporation
  0
SECTION
  2
HEADER
  9
$ACADVER
  1
AC1015
  9
$DWGCODEPAGE
  3
ANSI_1252
  9
$EXTMAX
 10
1189.0
 20
841.0
 30
0.0
  9
$EXTMIN
 10
0.0
 20
0.0
 30
0.0
  9
$LIMMIN
 10
0.0
 20
0.0
  9
$LIMMAX
 10
1189.0
 20
841.0
  9
$VIEWCTR
 10
594.5
 20
420.5
  9
$VIEWSIZE
 40
841.0
  9
$CLAYER
  8
0
  9
$LTSCALE
 40
65.395
  9
$CELTYPE
  6
BYLAYER
  9
$DIMSCALE
 40
1.0
  9
$DIMASZ
 40
3.5
  9
$DIMEXO
 40
7.43125
  9
$DIMDLI
 40
45.182
  9
$DIMEXE
 40
21.402
  9
$DIMCEN
 40
10.701
  9
$DIMLFAC
 40
1.0
  9
$DIMBLK
  1
_FILLED
  9
$DIMTXT
 40
3.5
  9
$DIMTOL
 70
1
  9
$DIMLIM
 70
0
  9
$DIMTFAC
 40
1.0
  9
$DIMTP
 40
0.005
  9
$DIMTM
 40
0.005
  9
$PDMODE
 70
3
  9
$PDSIZE
 40
0.3125
  9
$HANDSEED
  5
620
  9
$TILEMODE
 70
1
  9
$MEASUREMENT
 70
1
  9
$INSUNITS
 70
4
  0
ENDSEC
  0
SECTION
  2
CLASSES
  0
CLASS
  1
ACDBDICTIONARYWDFLT
  2
AcDbDictionaryWithDefault
  3
AutoCAD 2000
 90
0
280
0
281
0
  0
CLASS
  1
ACDBPLACEHOLDER
  2
AcDbPlaceHolder
  3
AutoCAD 2000
 90
0
280
0
281
0
  0
CLASS
  1
LAYOUT
  2
AcDbLayout
  3
AutoCAD 2000
 90
0
280
0
281
0
  0
ENDSEC
  0
SECTION
  2
TABLES
  0
TABLE
  2
VPORT
  5
8
100
AcDbSymbolTable
 70
2
  0
VPORT
  5
1F4
100
AcDbSymbolTableRecord
100
AcDbViewportTableRecord
  2
*ACTIVE
 70
0
 10
0.0
 20
0.0
 11
1.0
 21
1.0
 12
594.5
 22
420.5
 13
0.0
 23
0.0
 14
1.0
 24
1.0
 15
0.0
 25
0.0
 16
0.0
 26
0.0
 36
1.0
 17
0.0
 27
0.0
 37
0.0
 40
841.0
 41
1.4137931034
 42
50.0
 43
0.0
 44
0.0
 50
0.0
 51
0.0
 71
0
 72
100
 73
1
 74
1
 75
0
 76
0
 77
0
 78
0
  0
ENDTAB
  0
TABLE
  2
LTYPE
  5
5
100
AcDbSymbolTable
 70
6
  0
LTYPE
  5
14
100
AcDbSymbolTableRecord
100
AcDbLinetypeTableRecord
  2
BYBLOCK
 70
0
  3

 72
65
 73
0
 40
0.0
  0
LTYPE
  5
15
100
AcDbSymbolTableRecord
100
AcDbLinetypeTableRecord
  2
BYLAYER
 70
0
  3

 72
65
 73
0
 40
0.0
  0
LTYPE
  5
16
100
AcDbSymbolTableRecord
100
AcDbLinetypeTableRecord
  2
CONTINUOUS
 70
64
  3
Solid line
 72
65
 73
0
 40
0.0
  0
LTYPE
  5
1F5
100
AcDbSymbolTableRecord
100
AcDbLinetypeTableRecord
  2
CENTER
 70
64
  3
____ _ ____ _ ____ _ ____ _ ____ _ ____ _ ____
 72
65
 73
4
 40
0.6
 49
0.375
 74
0
 49
-0.075
 74
0
 49
0.075
 74
0
 49
-0.075
 74
0
  0
LTYPE
  5
1F6
100
AcDbSymbolTableRecord
100
AcDbLinetypeTableRecord
  2
HIDDEN
 70
64
  3
- - - - - - - - - - - - - - - - - - - -
 72
65
 73
2
 40
0.2
 49
0.1
 74
0
 49
-0.1
 74
0
  0
LTYPE
  5
1F7
100
AcDbSymbolTableRecord
100
AcDbLinetypeTableRecord
  2
PHANTOM
 70
64
  3
_____ _ _ _____ _ _ _____ _ _ _____
 72
65
 73
6
 40
0.8
 49
0.45
 74
0
 49
-0.05
 74
0
 49
0.1
 74
0
 49
-0.05
 74
0
 49
0.1
 74
0
 49
-0.05
 74
0
  0
LTYPE
  5
1F8
100
AcDbSymbolTableRecord
100
AcDbLinetypeTableRecord
  2
DOT
 70
64
  3
. . . . . . . . . . . . . . . . . . . .
 72
65
 73
2
 40
0.2
 49
0.1
 74
0
 49
-0.1
 74
0
  0
LTYPE
  5
1F9
100
AcDbSymbolTableRecord
100
AcDbLinetypeTableRecord
  2
DASHED
 70
64
  3
- - - - - - - - - - - - - - - - - - - -
 72
65
 73
2
 40
0.2
 49
0.1
 74
0
 49
-0.1
 74
0
  0
ENDTAB
  0
TABLE
  2
LAYER
  5
2
100
AcDbSymbolTable
 70
36
  0
LAYER
  5
10
100
AcDbSymbolTableRecord
100
AcDbLayerTableRecord
  2
0
 70
0
 62
7
  6
CONTINUOUS
370
-3
390
F
  0
LAYER
  5
1FA
100
AcDbSymbolTableRecord
100
AcDbLayerTableRecord
  2
DEFAULT_1
 70
0
 62
7
  6
CENTER
370
-3
390
F
  0
LAYER
  5
1FB
100
AcDbSymbolTableRecord
100
AcDbLayerTableRecord
  2
DEFAULT_2
 70
0
 62
8
  6
HIDDEN
370
-3
390
F
  0
LAYER
  5
1FC
100
AcDbSymbolTableRecord
100
AcDbLayerTableRecord
  2
DEFAULT_3
 70
0
 62
7
  6
PHANTOM
370
-3
390
F
  0
LAYER
  5
1FD
100
AcDbSymbolTableRecord
100
AcDbLayerTableRecord
  2
AUSFORMSCHRAEGEN
 70
0
 62
7
  6
CONTINUOUS
370
-3
390
F
  0
LAYER
  5
1FE
100
AcDbSymbolTableRecord
100
AcDbLayerTableRecord
  2
BEZUGSACHSEN
 70
0
 62
7
  6
CONTINUOUS
370
-3
390
F
  0
LAYER
  5
1FF
100
AcDbSymbolTableRecord
100
AcDbLayerTableRecord
  2
BEZUGSEBENEN
 70
0
 62
7
  6
CONTINUOUS
370
-3
390
F
  0
LAYER
  5
200
100
AcDbSymbolTableRecord
100
AcDbLayerTableRecord
  2
BG_STARTBEZUEGE
 70
0
 62
7
  6
CONTINUOUS
370
-3
390
F
  0
LAYER
  5
201
100
AcDbSymbolTableRecord
100
AcDbLayerTableRecord
  2
FASEN
 70
0
 62
7
  6
CONTINUOUS
370
-3
390
F
  0
LAYER
  5
202
100
AcDbSymbolTableRecord
100
AcDbLayerTableRecord
  2
FLAECHEN
 70
0
 62
7
  6
CONTINUOUS
370
-3
390
F
  0
LAYER
  5
203
100
AcDbSymbolTableRecord
100
AcDbLayerTableRecord
  2
HILFEN
 70
0
 62
7
  6
CONTINUOUS
370
-3
390
F
  0
LAYER
  5
204
100
AcDbSymbolTableRecord
100
AcDbLayerTableRecord
  2
KONSTRUKTIONSELEMENTE
 70
0
 62
7
  6
CONTINUOUS
370
-3
390
F
  0
LAYER
  5
205
100
AcDbSymbolTableRecord
100
AcDbLayerTableRecord
  2
NORM
 70
0
 62
7
  6
CONTINUOUS
370
-3
390
F
  0
LAYER
  5
206
100
AcDbSymbolTableRecord
100
AcDbLayerTableRecord
  2
PLATZIERUNG
 70
0
 62
7
  6
CONTINUOUS
370
-3
390
F
  0
LAYER
  5
207
100
AcDbSymbolTableRecord
100
AcDbLayerTableRecord
  2
PLAZIERUNG
 70
0
 62
7
  6
CONTINUOUS
370
-3
390
F
  0
LAYER
  5
208
100
AcDbSymbolTableRecord
100
AcDbLayerTableRecord
  2
RUNDUNGEN
 70
0
 62
7
  6
CONTINUOUS
370
-3
390
F
  0
LAYER
  5
209
100
AcDbSymbolTableRecord
100
AcDbLayerTableRecord
  2
TEIL_STARTBEZUEGE
 70
0
 62
7
  6
CONTINUOUS
370
-3
390
F
  0
LAYER
  5
20A
100
AcDbSymbolTableRecord
100
AcDbLayerTableRecord
  2
T_STARTBEZUEGE
 70
0
 62
7
  6
CONTINUOUS
370
-3
390
F
  0
ENDTAB
  0
TABLE
  2
STYLE
  5
3
100
AcDbSymbolTable
 70
1
  0
STYLE
  5
11
100
AcDbSymbolTableRecord
100
AcDbTextStyleTableRecord
  2
STANDARD
 70
0
 40
0.0
 41
0.7
 50
0.0
 71
0
 42
0.2
  3
txt
  4

  0
STYLE
  5
20B
100
AcDbSymbolTableRecord
100
AcDbTextStyleTableRecord
  2
TEXTSTYLE_1
 70
0
 40
0.0
 41
0.8
 50
0.0
 71
0
 42
0.2
  3
gdt
  4

  0
ENDTAB
  0
TABLE
  2
VIEW
  5
6
100
AcDbSymbolTable
 70
0
  0
ENDTAB
  0
TABLE
  2
UCS
  5
7
100
AcDbSymbolTable
 70
0
  0
ENDTAB
  0
TABLE
  2
APPID
  5
9
100
AcDbSymbolTable
 70
1
  0
APPID
  5
20C
100
AcDbSymbolTableRecord
100
AcDbRegAppTableRecord
  2
ACAD
 70
0
  0
ENDTAB
  0
TABLE
  2
BLOCK_RECORD
  5
1
100
AcDbSymbolTable
 70
0
  0
BLOCK_RECORD
  5
20D
100
AcDbSymbolTableRecord
100
AcDbBlockTableRecord
  2
*Model_Space
  0
BLOCK_RECORD
  5
20E
100
AcDbSymbolTableRecord
100
AcDbBlockTableRecord
  2
*Paper_Space
  0
ENDTAB
  0
TABLE
  2
DIMSTYLE
  5
A
100
AcDbSymbolTable
 70
1
100
AcDbDimStyleTable
 71
0
  0
DIMSTYLE
105
20F
100
AcDbSymbolTableRecord
100
AcDbDimStyleTableRecord
  2
STANDARD
 70
0
  3

  4

 40
1.0
 41
3.5
 42
0.0625
 43
0.38
 44
0.18
 45
0.0
 46
0.0
 47
0.005
 48
0.005
140
3.5
141
0.09
142
0.0
143
25.4
144
1.0
145
0.0
146
1.0
147
0.09
 71
1.0
 72
0.0
 73
0
 74
0
 75
0
 76
0
 77
1
 78
8
170
0
171
2
172
0
173
0
174
0
175
0
176
0
177
0
178
5
270
2
271
3
272
3
273
2
274
2
275
0
280
0
281
0
282
0
283
1
284
8
285
0
286
0
287
3
288
0
340
11
  0
ENDTAB
  0
ENDSEC
  0
SECTION
  2
BLOCKS
  0
BLOCK
  5
20
100
AcDbEntity
  8
0
100
AcDbBlockBegin
  2
*Model_Space
 70
0
 10
0.0
 20
0.0
 30
0.0
  3
*Model_Space
  1

  0
ENDBLK
  5
21
100
AcDbEntity
  8
0
100
AcDbBlockEnd
  0
BLOCK
  5
1C
100
AcDbEntity
  8
0
100
AcDbBlockBegin
  2
*Paper_Space
 70
0
 10
0.0
 20
0.0
 30
0.0
  3
*Paper_Space
  1

  0
ENDBLK
  5
1D
100
AcDbEntity
  8
0
100
AcDbBlockEnd
  0
ENDSEC
  0
SECTION
  2
ENTITIES
  0
MTEXT
  5
210
100
AcDbEntity
  8
0
100
AcDbMText
 62
5
  6
CONTINUOUS
  7
STANDARD
 71
1
 72
1
 10
172.5116352643
 20
519.8152440776
 30
0.0
 11
0.0
 21
1.0
 31
0.0
 44
0.9
  1
RUD
 40
8.0
 41
21.3333333333
  0
MTEXT
  5
211
100
AcDbEntity
  8
0
100
AcDbMText
 62
5
  6
CONTINUOUS
  7
STANDARD
 71
1
 72
1
 10
462.7502077616
 20
487.8188914254
 30
0.0
 11
0.0
 21
1.0
 31
0.0
 44
0.9
  1
VSAK 2-16/250
 40
8.0
 41
81.1428571429
  0
MTEXT
  5
212
100
AcDbEntity
  8
0
100
AcDbMText
 62
5
  6
CONTINUOUS
  7
STANDARD
 71
1
 72
1
 10
863.9965250991
 20
477.9019873094
 30
0.0
 11
0.0
 21
1.0
 31
0.0
 44
0.9
  1
RUD VSAK 2-16/250
 40
8.0
 41
107.2380952381
  0
LINE
  5
213
100
AcDbEntity
  8
0
100
AcDbLine
 62
7
  6
CONTINUOUS
 10
0.0
 20
0.0
 11
0.0
 21
841.0
  0
LINE
  5
214
100
AcDbEntity
  8
0
100
AcDbLine
 62
7
  6
CONTINUOUS
 10
0.0
 20
0.0
 11
1189.0
 21
0.0
  0
LINE
  5
215
100
AcDbEntity
  8
0
100
AcDbLine
 62
7
  6
CONTINUOUS
 10
0.0
 20
841.0
 11
1189.0
 21
841.0
  0
LINE
  5
216
100
AcDbEntity
  8
0
100
AcDbLine
 62
7
  6
CONTINUOUS
 10
1189.0
 20
0.0
 11
1189.0
 21
841.0
  0
LINE
  5
217
100
AcDbEntity
  8
KONSTRUKTIONSELEMENTE
100
AcDbLine
 62
7
  6
CONTINUOUS
 10
87.0357603731
 20
37.088287709
 11
99.6450902522
 21
29.808287709
  0
LINE
  5
218
100
AcDbEntity
  8
KONSTRUKTIONSELEMENTE
100
AcDbLine
 62
7
  6
CONTINUOUS
 10
86.6257827626
 20
37.9781856576
 11
87.3186030856
 21
37.5781856576
  0
LINE
  5
219
100
AcDbEntity
  8
KONSTRUKTIONSELEMENTE
100
AcDbLine
 62
7
  6
CONTINUOUS
 10
99.9279329647
 20
30.2981856576
 11
100.6207532877
 21
29.8981856576
  0
LINE
  5
21A
100
AcDbEntity
  8
KONSTRUKTIONSELEMENTE
100
AcDbLine
 62
7
  6
CONTINUOUS
 10
92.8069062879
 20
59.8842056513
 11
92.4170400146
 21
60.1092950491
  0
LINE
  5
21B
100
AcDbEntity
  8
KONSTRUKTIONSELEMENTE
100
AcDbLine
 62
7
  6
CONTINUOUS
 10
116.5013613354
 20
46.2042056513
 11
134.1491243375
 21
36.0152649314
  0
LINE
  5
21C
100
AcDbEntity
  8
KONSTRUKTIONSELEMENTE
100
AcDbLine
 62
7
  6
CONTINUOUS
 10
141.4084694718
 20
37.0252920091
 11
134.9598695063
 21
43.7792521619
  0
LINE
  5
21D
100
AcDbEntity
  8
KONSTRUKTIONSELEMENTE
100
AcDbLine
 62
7
  6
CONTINUOUS
 10
158.7685084445
 20
93.776673716
 11
155.1975089036
 21
95.8383912623
  0
LINE
  5
21E
100
AcDbEntity
  8
KONSTRUKTIONSELEMENTE
100
AcDbLine
 62
7
  6
CONTINUOUS
 10
116.4432981391
 20
118.2131452794
 11
112.8722985982
 21
120.2748628256
  0
LINE
  5
21F
100
AcDbEntity
  8
KONSTRUKTIONSELEMENTE
100
AcDbLine
 62
7
  6
CONTINUOUS
 10
143.1762364248
 20
40.0871541876
 11
136.7276364593
 21
46.8411143403
  0
LINE
  5
220
100
AcDbEntity
  8
KONSTRUKTIONSELEMENTE
100
AcDbLine
 62
7
  6
CONTINUOUS
 10
88.6740464439
 20
118.3230786069
 11
98.4022290143
 21
115.9560908078
  0
LINE
  5
221
100
AcDbEntity
  8
KONSTRUKTIONSELEMENTE
100
AcDbLine
 62
7
  6
CONTINUOUS
 10
88.9568891564
 20
118.8129765554
 11
98.6850717267
 21
116.4459887564
  0
LINE
  5
222
100
AcDbEntity
  8
KONSTRUKTIONSELEMENTE
100
AcDbLine
 62
7
  6
CONTINUOUS
 10
91.1865812999
 20
120.6894688444
 11
98.6697986617
 21
118.8687089989
  0
LINE
  5
223
100
AcDbEntity
  8
KONSTRUKTIONSELEMENTE
100
AcDbLine
 62
7
  6
CONTINUOUS
 10
92.3886628279
 20
122.7715351257
 11
99.8718801897
 21
120.9507752803
  0
LINE
  5
224
100
AcDbEntity
  8
KONSTRUKTIONSELEMENTE
100
AcDbLine
 62
7
  6
CONTINUOUS
 10
91.5386801364
 20
132.8716689132
 11
98.9696697621
 21
131.0636167255
  0
LINE
  5
225
100
AcDbEntity
  8
KONSTRUKTIONSELEMENTE
100
AcDbLine
 62
7
  6
CONTINUOUS
 10
98.3052450514
 20
131.340364348
 11
88.6084621423
 21
133.699712219
  0
LINE
  5
226
100
AcDbEntity
  8
0
100
AcDbLine
 62
7
  6
CONTINUOUS
 10
149.9414270747
 20
113.88409852
 11
134.6993799681
 21
122.68409852
  0
LINE
  5
227
100
AcDbEntity
  8
KONSTRUKTIONSELEMENTE
100
AcDbLine
 62
7
  6
CONTINUOUS
 10
110.2860276377
 20
137.7989319008
 11
96.0010967159
 21
141.2746332415
  0
LINE
  5
228
100
AcDbEntity
  8
KONSTRUKTIONSELEMENTE
100
AcDbLine
 62
7
  6
CONTINUOUS
 10
112.0537945907
 20
140.8607940793
 11
97.7688636689
 21
144.33649542
  0
LINE
  5
229
100
AcDbEntity
  8
0
100
AcDbLine
 62
7
  6
CONTINUOUS
 10
159.4414270747
 20
130.3385811919
 11
144.1993799681
 21
139.1385811919
  0
LINE
  5
22A
100
AcDbEntity
  8
KONSTRUKTIONSELEMENTE
100
AcDbLine
 62
7
  6
CONTINUOUS
 10
188.7887124941
 20
74.4065335945
 11
195.2373124596
 21
67.6525734417
  0
LINE
  5
22B
100
AcDbEntity
  8
KONSTRUKTIONSELEMENTE
100
AcDbLine
 62
7
  6
CONTINUOUS
 10
175.2379329216
 20
100.2989319008
 11
197.6893202623
 21
76.7844052927
  0
LINE
  5
22C
100
AcDbEntity
  8
KONSTRUKTIONSELEMENTE
100
AcDbLine
 62
7
  6
CONTINUOUS
 10
199.4570872153
 20
79.8462674711
 11
177.0056998745
 21
103.3607940793
  0
LINE
  5
22D
100
AcDbEntity
  8
BEZUGSACHSEN
100
AcDbLine
 62
7
  6
CONTINUOUS
 10
214.6067777501
 20
179.3244060732
 11
213.809366007
 21
179.351516744
  0
LINE
  5
22E
100
AcDbEntity
  8
BEZUGSACHSEN
100
AcDbLine
 62
7
  6
CONTINUOUS
 10
214.4688725744
 20
179.9644873011
 11
213.9904256626
 21
179.980753699
  0
LINE
  5
22F
100
AcDbEntity
  8
BEZUGSACHSEN
100
AcDbLine
 62
7
  6
CONTINUOUS
 10
214.0983120259
 20
183.1540375162
 11
214.5767589377
 21
183.1377711182
  0
LINE
  5
230
100
AcDbEntity
  8
BEZUGSACHSEN
100
AcDbLine
 62
7
  6
CONTINUOUS
 10
215.8569331815
 20
183.2213293533
 11
216.1758977894
 21
183.210485088
  0
LINE
  5
231
100
AcDbEntity
  8
BEZUGSACHSEN
100
AcDbLine
 62
7
  6
CONTINUOUS
 10
215.0810988159
 20
183.8830932937
 11
216.1974749435
 21
183.8451383651
  0
LINE
  5
232
100
AcDbEntity
  8
BEZUGSACHSEN
100
AcDbLine
 62
7
  6
CONTINUOUS
 10
216.1974749435
 20
183.8451383651
 11
217.3095356798
 21
183.6802539433
  0
LINE
  5
233
100
AcDbEntity
  8
BEZUGSACHSEN
100
AcDbLine
 62
7
  6
CONTINUOUS
 10
216.1758977894
 20
183.210485088
 11
217.1284760242
 21
183.0510169883
  0
LINE
  5
234
100
AcDbEntity
  8
BEZUGSACHSEN
100
AcDbLine
 62
7
  6
CONTINUOUS
 10
210.2994321972
 20
194.2517094323
 11
211.0879234422
 21
194.0424557257
  0
LINE
  5
235
100
AcDbEntity
  8
BEZUGSACHSEN
100
AcDbLine
 62
7
  6
CONTINUOUS
 10
213.5162941421
 20
180.1239495903
 11
213.9904256626
 21
179.980753699
  0
LINE
  5
236
100
AcDbEntity
  8
BEZUGSACHSEN
100
AcDbLine
 62
7
  6
CONTINUOUS
 10
214.5767589377
 20
183.1377711182
 11
215.0508906816
 21
182.9945752194
  0
LINE
  5
237
100
AcDbEntity
  8
BEZUGSACHSEN
100
AcDbLine
 62
7
  6
CONTINUOUS
 10
217.1284760242
 20
183.0510169883
 11
217.6026079915
 21
182.9078210818
  0
LINE
  5
238
100
AcDbEntity
  8
BEZUGSACHSEN
100
AcDbLine
 62
7
  6
CONTINUOUS
 10
213.0205853557
 20
179.6324922082
 11
213.809366007
 21
179.351516744
  0
LINE
  5
239
100
AcDbEntity
  8
BEZUGSACHSEN
100
AcDbLine
 62
7
  6
CONTINUOUS
 10
217.3095356798
 20
183.6802539433
 11
218.0983166661
 21
183.3992784677
  0
LINE
  5
23A
100
AcDbEntity
  8
0
100
AcDbLine
 62
7
  6
CONTINUOUS
 10
470.4284911661
 20
98.4191028128
 11
483.5882583115
 21
93.629339282
  0
LINE
  5
23B
100
AcDbEntity
  8
BEZUGSACHSEN
100
AcDbLine
 62
7
  6
CONTINUOUS
 10
173.3917027514
 20
214.9857563987
 11
173.9409977372
 21
214.7444791955
  0
LINE
  5
23C
100
AcDbEntity
  8
BEZUGSACHSEN
100
AcDbLine
 62
7
  6
CONTINUOUS
 10
210.0226431563
 20
201.9183785173
 11
210.5719085112
 21
201.677032393
  0
LINE
  5
23D
100
AcDbEntity
  8
BEZUGSACHSEN
100
AcDbLine
 62
7
  6
CONTINUOUS
 10
168.1594613504
 20
220.7471017063
 11
168.793508879
 21
220.4551376166
  0
LINE
  5
23E
100
AcDbEntity
  8
BEZUGSACHSEN
100
AcDbLine
 62
7
  6
CONTINUOUS
 10
210.6293345532
 20
195.0894721213
 11
211.0745349622
 21
194.868509259
  0
LINE
  5
23F
100
AcDbEntity
  8
BEZUGSACHSEN
100
AcDbLine
 62
7
  6
CONTINUOUS
 10
214.1414768987
 20
199.400836962
 11
214.5866772054
 21
199.1798740549
  0
LINE
  5
240
100
AcDbEntity
  8
BEZUGSACHSEN
100
AcDbLine
 62
7
  6
CONTINUOUS
 10
216.7107966328
 20
186.9944015436
 11
217.8930943402
 21
186.3382026673
  0
LINE
  5
241
100
AcDbEntity
  8
BEZUGSACHSEN
100
AcDbLine
 62
7
  6
CONTINUOUS
 10
217.9819953138
 20
187.1116677424
 11
219.1642925761
 21
186.455468825
  0
LINE
  5
242
100
AcDbEntity
  8
BEZUGSACHSEN
100
AcDbLine
 62
7
  6
CONTINUOUS
 10
213.0464780987
 20
180.3940807892
 11
213.5162941421
 21
180.1239495903
  0
LINE
  5
243
100
AcDbEntity
  8
BEZUGSACHSEN
100
AcDbLine
 62
7
  6
CONTINUOUS
 10
217.6026079915
 20
182.9078210818
 11
218.0724239231
 21
182.6376898867
  0
LINE
  5
244
100
AcDbEntity
  8
BEZUGSACHSEN
100
AcDbLine
 62
7
  6
CONTINUOUS
 10
173.5026999297
 20
215.9700862269
 11
173.926360333
 21
215.7102019191
  0
LINE
  5
245
100
AcDbEntity
  8
BEZUGSACHSEN
100
AcDbLine
 62
7
  6
CONTINUOUS
 10
212.3956024556
 20
180.0349750312
 11
213.0205853557
 21
179.6324922082
  0
LINE
  5
246
100
AcDbEntity
  8
BEZUGSACHSEN
100
AcDbLine
 62
7
  6
CONTINUOUS
 10
218.0983166661
 20
183.3992784677
 11
218.7232995104
 21
182.9967956466
  0
LINE
  5
247
100
AcDbEntity
  8
BEZUGSACHSEN
100
AcDbLine
 62
7
  6
CONTINUOUS
 10
168.2932237207
 20
219.9503344751
 11
168.6356628321
 21
219.7287213432
  0
LINE
  5
248
100
AcDbEntity
  8
BEZUGSACHSEN
100
AcDbLine
 62
7
  6
CONTINUOUS
 10
209.8032759762
 20
194.5890110279
 11
210.2994321972
 21
194.2517094323
  0
LINE
  5
249
100
AcDbEntity
  8
BEZUGSACHSEN
100
AcDbLine
 62
7
  6
CONTINUOUS
 10
215.0508906816
 20
182.9945752194
 11
215.3612243093
 21
182.7298661569
  0
LINE
  5
24A
100
AcDbEntity
  8
BEZUGSACHSEN
100
AcDbLine
 62
7
  6
CONTINUOUS
 10
168.793508879
 20
220.4551376166
 11
169.3579977236
 21
219.971455571
  0
LINE
  5
24B
100
AcDbEntity
  8
BEZUGSACHSEN
100
AcDbLine
 62
7
  6
CONTINUOUS
 10
172.7956511549
 20
215.5427389193
 11
173.3917027514
 21
214.9857563987
  0
LINE
  5
24C
100
AcDbEntity
  8
0
100
AcDbLine
 62
7
  6
CONTINUOUS
 10
111.9026830922
 20
121.6596172778
 11
109.7338134102
 21
133.9598884743
  0
LINE
  5
24D
100
AcDbEntity
  8
RUNDUNGEN
100
AcDbLine
 62
7
  6
CONTINUOUS
 10
109.7338134102
 20
133.9598884743
 11
109.4708564152
 21
135.4511916991
  0
LINE
  5
24E
100
AcDbEntity
  8
KONSTRUKTIONSELEMENTE
100
AcDbLine
 62
7
  6
CONTINUOUS
 10
88.5560620167
 20
137.0385924806
 11
88.5751533479
 21
134.0101921774
  0
LINE
  5
24F
100
AcDbEntity
  8
KONSTRUKTIONSELEMENTE
100
AcDbLine
 62
7
  6
CONTINUOUS
 10
88.6740464439
 20
118.3230786069
 11
89.003186531
 21
66.1125792114
  0
LINE
  5
250
100
AcDbEntity
  8
KONSTRUKTIONSELEMENTE
100
AcDbLine
 62
7
  6
CONTINUOUS
 10
88.9568891564
 20
118.8129765554
 11
88.9530708901
 21
119.4186566161
  0
LINE
  5
251
100
AcDbEntity
  8
KONSTRUKTIONSELEMENTE
100
AcDbLine
 62
7
  6
CONTINUOUS
 10
100.5664097917
 20
128.2244535257
 11
100.635739424
 21
117.2269030361
  0
LINE
  5
252
100
AcDbEntity
  8
BEZUGSACHSEN
100
AcDbLine
 62
7
  6
CONTINUOUS
 10
217.9688529511
 20
179.5913355629
 11
217.486090648
 21
179.4806724675
  0
LINE
  5
253
100
AcDbEntity
  8
BEZUGSACHSEN
100
AcDbLine
 62
7
  6
CONTINUOUS
 10
214.9516351009
 20
180.0751503889
 11
214.4688725744
 21
179.9644873011
  0
LINE
  5
254
100
AcDbEntity
  8
BEZUGSACHSEN
100
AcDbLine
 62
7
  6
CONTINUOUS
 10
214.0983120259
 20
183.1540375162
 11
213.6155497227
 21
183.0433744208
  0
LINE
  5
255
100
AcDbEntity
  8
0
100
AcDbLine
 62
7
  6
CONTINUOUS
 10
453.6570806386
 20
227.5322157336
 11
469.5261591236
 21
230.9052924932
  0
LINE
  5
256
100
AcDbEntity
  8
BEZUGSACHSEN
100
AcDbLine
 62
7
  6
CONTINUOUS
 10
219.234291382
 20
185.6966620196
 11
211.7660008556
 21
185.0077232609
  0
LINE
  5
257
100
AcDbEntity
  8
BEZUGSACHSEN
100
AcDbLine
 62
7
  6
CONTINUOUS
 10
211.6960020497
 20
185.7665300663
 11
217.8930943402
 21
186.3382026673
  0
LINE
  5
258
100
AcDbEntity
  8
BEZUGSACHSEN
100
AcDbLine
 62
7
  6
CONTINUOUS
 10
216.7107966328
 20
186.9944015436
 11
217.9819953138
 21
187.1116677424
  0
LINE
  5
259
100
AcDbEntity
  8
BEZUGSACHSEN
100
AcDbLine
 62
7
  6
CONTINUOUS
 10
215.0810988159
 20
183.8830932937
 11
213.9604070736
 21
183.7941187364
  0
LINE
  5
25A
100
AcDbEntity
  8
BEZUGSACHSEN
100
AcDbLine
 62
7
  6
CONTINUOUS
 10
210.5719085112
 20
201.677032393
 11
211.3140382018
 21
201.7199217776
  0
LINE
  5
25B
100
AcDbEntity
  8
BEZUGSACHSEN
100
AcDbLine
 62
7
  6
CONTINUOUS
 10
213.4415053758
 20
200.2034747568
 11
214.1280894826
 21
200.2268877878
  0
LINE
  5
25C
100
AcDbEntity
  8
BEZUGSACHSEN
100
AcDbLine
 62
7
  6
CONTINUOUS
 10
178.13012693
 20
215.1327657774
 11
181.1764744208
 21
215.0289940171
  0
LINE
  5
25D
100
AcDbEntity
  8
BEZUGSACHSEN
100
AcDbLine
 62
7
  6
CONTINUOUS
 10
178.9243096722
 20
216.0637146263
 11
181.2090702903
 21
215.9858858062
  0
LINE
  5
25E
100
AcDbEntity
  8
BEZUGSACHSEN
100
AcDbLine
 62
7
  6
CONTINUOUS
 10
167.8812259253
 20
219.980229651
 11
168.2932237207
 21
219.9503344751
  0
LINE
  5
25F
100
AcDbEntity
  8
BEZUGSACHSEN
100
AcDbLine
 62
7
  6
CONTINUOUS
 10
213.6010622205
 20
199.4414423681
 11
214.1414768987
 21
199.400836962
  0
LINE
  5
260
100
AcDbEntity
  8
BEZUGSACHSEN
100
AcDbLine
 62
7
  6
CONTINUOUS
 10
210.6117264221
 20
202.4712896717
 11
211.0184307167
 21
202.4401771631
  0
LINE
  5
261
100
AcDbEntity
  8
BEZUGSACHSEN
100
AcDbLine
 62
7
  6
CONTINUOUS
 10
173.9409977372
 20
214.7444791955
 11
174.592547929
 21
214.6796615476
  0
LINE
  5
262
100
AcDbEntity
  8
BEZUGSACHSEN
100
AcDbLine
 62
7
  6
CONTINUOUS
 10
173.926360333
 20
215.7102019191
 11
174.45227593
 21
215.6267772495
  0
LINE
  5
263
100
AcDbEntity
  8
0
100
AcDbLine
 62
7
  6
CONTINUOUS
 10
190.3837264041
 20
227.5322157336
 11
174.5146479191
 21
230.9052924932
  0
LINE
  5
264
100
AcDbEntity
  8
BEZUGSACHSEN
100
AcDbLine
 62
7
  6
CONTINUOUS
 10
214.1280894826
 20
200.2268877878
 11
214.9165806764
 21
200.0176340588
  0
LINE
  5
265
100
AcDbEntity
  8
BEZUGSACHSEN
100
AcDbLine
 62
7
  6
CONTINUOUS
 10
181.4318087326
 20
222.524646383
 11
182.0610322997
 21
222.3435453035
  0
LINE
  5
266
100
AcDbEntity
  8
BEZUGSACHSEN
100
AcDbLine
 62
7
  6
CONTINUOUS
 10
181.3992128669
 20
221.5677547057
 11
181.9015043202
 21
221.3909774826
  0
LINE
  5
267
100
AcDbEntity
  8
BEZUGSACHSEN
100
AcDbLine
 62
7
  6
CONTINUOUS
 10
210.2658140302
 20
202.6970783387
 11
210.6117264221
 21
202.4712896717
  0
LINE
  5
268
100
AcDbEntity
  8
BEZUGSACHSEN
100
AcDbLine
 62
7
  6
CONTINUOUS
 10
182.0610322997
 20
222.3435453035
 11
182.5578911087
 21
222.0072861342
  0
LINE
  5
269
100
AcDbEntity
  8
BEZUGSACHSEN
100
AcDbLine
 62
7
  6
CONTINUOUS
 10
214.9165806764
 20
200.0176340588
 11
215.4127356928
 21
199.6803351091
  0
LINE
  5
26A
100
AcDbEntity
  8
BEZUGSACHSEN
100
AcDbLine
 62
7
  6
CONTINUOUS
 10
181.9015043202
 20
221.3909774826
 11
182.2714324679
 21
221.0590421201
  0
LINE
  5
26B
100
AcDbEntity
  8
0
100
AcDbLine
 62
7
  6
CONTINUOUS
 10
223.7560963078
 20
202.4757290107
 11
212.9003869025
 21
214.5322157336
  0
LINE
  5
26C
100
AcDbEntity
  8
BEZUGSACHSEN
100
AcDbLine
 62
7
  6
CONTINUOUS
 10
210.2793493748
 20
195.4907896874
 11
210.6293345532
 21
195.0894721213
  0
LINE
  5
26D
100
AcDbEntity
  8
BEZUGSACHSEN
100
AcDbLine
 62
7
  6
CONTINUOUS
 10
214.5866772054
 20
199.1798740549
 11
214.9366647162
 21
198.7785511634
  0
LINE
  5
26E
100
AcDbEntity
  8
BEZUGSACHSEN
100
AcDbLine
 62
7
  6
CONTINUOUS
 10
212.7404598623
 20
180.7857193449
 11
213.0464780987
 21
180.3940807892
  0
LINE
  5
26F
100
AcDbEntity
  8
BEZUGSACHSEN
100
AcDbLine
 62
7
  6
CONTINUOUS
 10
215.3612243093
 20
182.7298661569
 11
215.6672425457
 21
182.3382276011
  0
LINE
  5
270
100
AcDbEntity
  8
BEZUGSACHSEN
100
AcDbLine
 62
7
  6
CONTINUOUS
 10
215.8569331815
 20
183.2213293533
 11
216.4689696543
 21
182.4380522417
  0
LINE
  5
271
100
AcDbEntity
  8
BEZUGSACHSEN
100
AcDbLine
 62
7
  6
CONTINUOUS
 10
218.0724239231
 20
182.6376898867
 11
218.3784421595
 21
182.246051331
  0
LINE
  5
272
100
AcDbEntity
  8
BEZUGSACHSEN
100
AcDbLine
 62
7
  6
CONTINUOUS
 10
209.4023372415
 20
195.1066619683
 11
209.8032759762
 21
194.5890110279
  0
LINE
  5
273
100
AcDbEntity
  8
BEZUGSACHSEN
100
AcDbLine
 62
7
  6
CONTINUOUS
 10
215.4127356928
 20
199.6803351091
 11
215.8136767472
 21
199.1626788377
  0
LINE
  5
274
100
AcDbEntity
  8
BEZUGSACHSEN
100
AcDbLine
 62
7
  6
CONTINUOUS
 10
182.5578911087
 20
222.0072861342
 11
183.0438846292
 21
221.3520630725
  0
LINE
  5
275
100
AcDbEntity
  8
BEZUGSACHSEN
100
AcDbLine
 62
7
  6
CONTINUOUS
 10
173.1812947529
 20
216.4064299516
 11
173.5026999297
 21
215.9700862269
  0
LINE
  5
276
100
AcDbEntity
  8
BEZUGSACHSEN
100
AcDbLine
 62
7
  6
CONTINUOUS
 10
169.328559536
 20
217.2680686151
 11
171.5811600589
 21
214.1531368657
  0
LINE
  5
277
100
AcDbEntity
  8
BEZUGSACHSEN
100
AcDbLine
 62
7
  6
CONTINUOUS
 10
168.7078851718
 20
216.7228097496
 11
170.7384357892
 21
213.8699468561
  0
LINE
  5
278
100
AcDbEntity
  8
BEZUGSACHSEN
100
AcDbLine
 62
7
  6
CONTINUOUS
 10
211.9387328536
 20
180.6859005181
 11
212.3956024556
 21
180.0349750312
  0
LINE
  5
279
100
AcDbEntity
  8
BEZUGSACHSEN
100
AcDbLine
 62
7
  6
CONTINUOUS
 10
218.7232995104
 20
182.9967956466
 11
219.1801692681
 21
182.3458759715
  0
LINE
  5
27A
100
AcDbEntity
  8
BEZUGSACHSEN
100
AcDbLine
 62
7
  6
CONTINUOUS
 10
207.1275378902
 20
199.648279589
 11
207.6264967068
 21
198.9124691521
  0
LINE
  5
27B
100
AcDbEntity
  8
BEZUGSACHSEN
100
AcDbLine
 62
7
  6
CONTINUOUS
 10
168.6356628321
 20
219.7287213432
 11
168.908542915
 21
219.3153901395
  0
LINE
  5
27C
100
AcDbEntity
  8
BEZUGSACHSEN
100
AcDbLine
 62
7
  6
CONTINUOUS
 10
169.3579977236
 20
219.971455571
 11
169.6308778065
 21
219.5581243674
  0
LINE
  5
27D
100
AcDbEntity
  8
BEZUGSACHSEN
100
AcDbLine
 62
7
  6
CONTINUOUS
 10
172.4508676574
 20
216.1369354064
 11
172.7956511549
 21
215.5427389193
  0
LINE
  5
27E
100
AcDbEntity
  8
RUNDUNGEN
100
AcDbLine
 62
7
  6
CONTINUOUS
 10
122.8444508794
 20
160.3546065957
 11
122.8444508794
 21
166.989876678
  0
LINE
  5
27F
100
AcDbEntity
  8
BEZUGSACHSEN
100
AcDbLine
 62
7
  6
CONTINUOUS
 10
215.41282025
 20
179.5511602071
 11
214.6067777501
 21
179.3244060732
  0
LINE
  5
280
100
AcDbEntity
  8
BEZUGSACHSEN
100
AcDbLine
 62
7
  6
CONTINUOUS
 10
213.9604070736
 20
183.7941187364
 11
213.154364462
 21
183.5673646063
  0
LINE
  5
281
100
AcDbEntity
  8
BEZUGSACHSEN
100
AcDbLine
 62
7
  6
CONTINUOUS
 10
212.6597080637
 20
199.9997015622
 11
213.4415053758
 21
200.2034747568
  0
LINE
  5
282
100
AcDbEntity
  8
BEZUGSACHSEN
100
AcDbLine
 62
7
  6
CONTINUOUS
 10
211.0879234422
 20
194.0424557257
 11
211.7235517754
 21
194.1822075068
  0
LINE
  5
283
100
AcDbEntity
  8
BEZUGSACHSEN
100
AcDbLine
 62
7
  6
CONTINUOUS
 10
212.9654339897
 20
199.3016906318
 11
213.6010622205
 21
199.4414423681
  0
LINE
  5
284
100
AcDbEntity
  8
BEZUGSACHSEN
100
AcDbLine
 62
7
  6
CONTINUOUS
 10
211.0745349622
 20
194.868509259
 11
211.5639945212
 21
194.9442397162
  0
LINE
  5
285
100
AcDbEntity
  8
BEZUGSACHSEN
100
AcDbLine
 62
7
  6
CONTINUOUS
 10
174.592547929
 20
214.6796615476
 11
175.0950855811
 21
214.754089583
  0
LINE
  5
286
100
AcDbEntity
  8
BEZUGSACHSEN
100
AcDbLine
 62
7
  6
CONTINUOUS
 10
174.45227593
 20
215.6267772495
 11
174.9548135821
 21
215.701205285
  0
LINE
  5
287
100
AcDbEntity
  8
BEZUGSACHSEN
100
AcDbLine
 62
7
  6
CONTINUOUS
 10
167.506685143
 20
220.6960854344
 11
168.1594613504
 21
220.7471017063
  0
LINE
  5
288
100
AcDbEntity
  8
BEZUGSACHSEN
100
AcDbLine
 62
7
  6
CONTINUOUS
 10
179.1144522488
 20
221.6455835258
 11
181.3992128669
 21
221.5677547057
  0
LINE
  5
289
100
AcDbEntity
  8
BEZUGSACHSEN
100
AcDbLine
 62
7
  6
CONTINUOUS
 10
178.3854612418
 20
222.6284181432
 11
181.4318087326
 21
222.524646383
  0
LINE
  5
28A
100
AcDbEntity
  8
0
100
AcDbLine
 62
7
  6
CONTINUOUS
 10
449.8019860045
 20
125.7703178482
 11
455.5482984567
 21
122.4526828071
  0
LINE
  5
28B
100
AcDbEntity
  8
BEZUGSACHSEN
100
AcDbLine
 62
7
  6
CONTINUOUS
 10
208.1190591488
 20
204.1569271484
 11
209.3308183726
 21
202.3699558513
  0
LINE
  5
28C
100
AcDbEntity
  8
BEZUGSACHSEN
100
AcDbLine
 62
7
  6
CONTINUOUS
 10
208.9114937462
 20
204.6942832515
 11
210.2658140302
 21
202.6970783387
  0
LINE
  5
28D
100
AcDbEntity
  8
BEZUGSACHSEN
100
AcDbLine
 62
7
  6
CONTINUOUS
 10
210.8925806095
 20
206.0376737601
 11
212.2469008936
 21
204.0404688473
  0
LINE
  5
28E
100
AcDbEntity
  8
BEZUGSACHSEN
100
AcDbLine
 62
7
  6
CONTINUOUS
 10
211.125262856
 20
207.1161665476
 11
212.8359825279
 21
204.5933824077
  0
LINE
  5
28F
100
AcDbEntity
  8
BEZUGSACHSEN
100
AcDbLine
 62
7
  6
CONTINUOUS
 10
182.2714324679
 20
221.0590421201
 11
182.508997295
 21
220.5719481715
  0
LINE
  5
290
100
AcDbEntity
  8
BEZUGSACHSEN
100
AcDbLine
 62
7
  6
CONTINUOUS
 10
208.9437483525
 20
196.1536783639
 11
209.4023372415
 21
195.1066619683
  0
LINE
  5
291
100
AcDbEntity
  8
BEZUGSACHSEN
100
AcDbLine
 62
7
  6
CONTINUOUS
 10
209.8207604858
 20
196.537806083
 11
210.2793493748
 21
195.4907896874
  0
LINE
  5
292
100
AcDbEntity
  8
BEZUGSACHSEN
100
AcDbLine
 62
7
  6
CONTINUOUS
 10
212.2747552115
 20
196.5034264339
 11
212.7333441005
 21
195.4564100383
  0
LINE
  5
293
100
AcDbEntity
  8
BEZUGSACHSEN
100
AcDbLine
 62
7
  6
CONTINUOUS
 10
213.1517672424
 20
196.8875541081
 11
213.9160820575
 21
195.1425267822
  0
LINE
  5
294
100
AcDbEntity
  8
BEZUGSACHSEN
100
AcDbLine
 62
7
  6
CONTINUOUS
 10
214.9258741779
 20
196.4167292239
 11
215.2316001039
 21
195.7187182936
  0
LINE
  5
295
100
AcDbEntity
  8
BEZUGSACHSEN
100
AcDbLine
 62
7
  6
CONTINUOUS
 10
183.0438846292
 20
221.3520630725
 11
183.2760168272
 21
220.7054876244
  0
LINE
  5
296
100
AcDbEntity
  8
BEZUGSACHSEN
100
AcDbLine
 62
7
  6
CONTINUOUS
 10
172.962146224
 20
217.0192334169
 11
173.1812947529
 21
216.4064299516
  0
LINE
  5
297
100
AcDbEntity
  8
BEZUGSACHSEN
100
AcDbLine
 62
7
  6
CONTINUOUS
 10
167.0063722981
 20
212.6158200508
 11
164.6173455772
 21
219.7251485231
  0
LINE
  5
298
100
AcDbEntity
  8
BEZUGSACHSEN
100
AcDbLine
 62
7
  6
CONTINUOUS
 10
167.7287071896
 20
212.8585542786
 11
166.6612697034
 21
216.03506279
  0
LINE
  5
299
100
AcDbEntity
  8
BEZUGSACHSEN
100
AcDbLine
 62
7
  6
CONTINUOUS
 10
166.3562876051
 20
216.9426365294
 11
165.5938322172
 21
219.2115713015
  0
LINE
  5
29A
100
AcDbEntity
  8
BEZUGSACHSEN
100
AcDbLine
 62
7
  6
CONTINUOUS
 10
168.908542915
 20
219.3153901395
 11
169.0610341065
 21
218.8616028461
  0
LINE
  5
29B
100
AcDbEntity
  8
BEZUGSACHSEN
100
AcDbLine
 62
7
  6
CONTINUOUS
 10
169.6308778065
 20
219.5581243674
 11
169.8341993477
 21
218.9530747841
  0
LINE
  5
29C
100
AcDbEntity
  8
BEZUGSACHSEN
100
AcDbLine
 62
7
  6
CONTINUOUS
 10
172.2083397458
 20
216.9075913637
 11
172.4508676574
 21
216.1369354064
  0
LINE
  5
29D
100
AcDbEntity
  8
BEZUGSACHSEN
100
AcDbLine
 62
7
  6
CONTINUOUS
 10
169.0931361219
 20
218.3673603104
 11
169.0610341065
 21
218.8616028461
  0
LINE
  5
29E
100
AcDbEntity
  8
BEZUGSACHSEN
100
AcDbLine
 62
7
  6
CONTINUOUS
 10
169.866301363
 20
218.4588322484
 11
169.8341993477
 21
218.9530747841
  0
LINE
  5
29F
100
AcDbEntity
  8
0
100
AcDbLine
 62
7
  6
CONTINUOUS
 10
157.0204035214
 20
639.5336286401
 11
157.0204035214
 21
429.5336286401
  0
LINE
  5
2A0
100
AcDbEntity
  8
BEZUGSACHSEN
100
AcDbLine
 62
7
  6
CONTINUOUS
 10
181.2090702903
 20
215.9858858062
 11
181.7222270322
 21
216.1280724755
  0
LINE
  5
2A1
100
AcDbEntity
  8
BEZUGSACHSEN
100
AcDbLine
 62
7
  6
CONTINUOUS
 10
181.1764744208
 20
215.0289940171
 11
181.816563277
 21
215.1668568441
  0
LINE
  5
2A2
100
AcDbEntity
  8
BEZUGSACHSEN
100
AcDbLine
 62
7
  6
CONTINUOUS
 10
171.4836010707
 20
221.8010225826
 11
172.2374075489
 21
221.9126646357
  0
LINE
  5
2A3
100
AcDbEntity
  8
BEZUGSACHSEN
100
AcDbLine
 62
7
  6
CONTINUOUS
 10
175.2526320238
 20
222.3592326354
 11
176.0064381426
 21
222.4708746353
  0
LINE
  5
2A4
100
AcDbEntity
  8
BEZUGSACHSEN
100
AcDbLine
 62
7
  6
CONTINUOUS
 10
214.9366647162
 20
198.7785511634
 11
215.3952536053
 21
197.7315347678
  0
LINE
  5
2A5
100
AcDbEntity
  8
BEZUGSACHSEN
100
AcDbLine
 62
7
  6
CONTINUOUS
 10
215.8136767472
 20
199.1626788377
 11
216.2722656362
 21
198.1156624421
  0
LINE
  5
2A6
100
AcDbEntity
  8
BEZUGSACHSEN
100
AcDbLine
 62
7
  6
CONTINUOUS
 10
212.5939239299
 20
181.1719357681
 11
212.7404598623
 21
180.7857193449
  0
LINE
  5
2A7
100
AcDbEntity
  8
BEZUGSACHSEN
100
AcDbLine
 62
7
  6
CONTINUOUS
 10
215.6672425457
 20
182.3382276011
 11
215.8137784782
 21
181.952011178
  0
LINE
  5
2A8
100
AcDbEntity
  8
BEZUGSACHSEN
100
AcDbLine
 62
7
  6
CONTINUOUS
 10
218.3784421595
 20
182.246051331
 11
218.524978092
 21
181.8598349078
  0
LINE
  5
2A9
100
AcDbEntity
  8
BEZUGSACHSEN
100
AcDbLine
 62
7
  6
CONTINUOUS
 10
212.8359825279
 20
204.5933824077
 11
213.0603094828
 21
203.97824383
  0
LINE
  5
2AA
100
AcDbEntity
  8
BEZUGSACHSEN
100
AcDbLine
 62
7
  6
CONTINUOUS
 10
211.8008276898
 20
181.3259759284
 11
211.9387328536
 21
180.6859005181
  0
LINE
  5
2AB
100
AcDbEntity
  8
BEZUGSACHSEN
100
AcDbLine
 62
7
  6
CONTINUOUS
 10
182.508997295
 20
220.5719481715
 11
182.6141973791
 21
219.9296965798
  0
LINE
  5
2AC
100
AcDbEntity
  8
BEZUGSACHSEN
100
AcDbLine
 62
7
  6
CONTINUOUS
 10
172.2083397458
 20
216.9075913637
 11
171.4836010707
 21
221.8010225826
  0
LINE
  5
2AD
100
AcDbEntity
  8
BEZUGSACHSEN
100
AcDbLine
 62
7
  6
CONTINUOUS
 10
172.962146224
 20
217.0192334169
 11
172.2374075489
 21
221.9126646357
  0
LINE
  5
2AE
100
AcDbEntity
  8
BEZUGSACHSEN
100
AcDbLine
 62
7
  6
CONTINUOUS
 10
175.2526320238
 20
222.3592326354
 11
175.9773706989
 21
217.4658014165
  0
LINE
  5
2AF
100
AcDbEntity
  8
BEZUGSACHSEN
100
AcDbLine
 62
7
  6
CONTINUOUS
 10
176.0064381426
 20
222.4708746353
 11
176.7311768176
 21
217.5774434165
  0
LINE
  5
2B0
100
AcDbEntity
  8
BEZUGSACHSEN
100
AcDbLine
 62
7
  6
CONTINUOUS
 10
183.2760168272
 20
220.7054876244
 11
183.3757842518
 21
219.9037536397
  0
LINE
  5
2B1
100
AcDbEntity
  8
BEZUGSACHSEN
100
AcDbLine
 62
7
  6
CONTINUOUS
 10
209.7631103186
 20
197.0671715325
 11
209.8207604858
 21
196.537806083
  0
LINE
  5
2B2
100
AcDbEntity
  8
BEZUGSACHSEN
100
AcDbLine
 62
7
  6
CONTINUOUS
 10
215.3952536053
 20
197.7315347678
 11
215.45290144
 21
197.2021746436
  0
LINE
  5
2B3
100
AcDbEntity
  8
BEZUGSACHSEN
100
AcDbLine
 62
7
  6
CONTINUOUS
 10
211.6960020497
 20
185.7665300663
 11
211.7660008556
 21
185.0077232609
  0
LINE
  5
2B4
100
AcDbEntity
  8
BEZUGSACHSEN
100
AcDbLine
 62
7
  6
CONTINUOUS
 10
176.7224355437
 20
216.7695733882
 11
176.7311768176
 21
217.5774434165
  0
LINE
  5
2B5
100
AcDbEntity
  8
BEZUGSACHSEN
100
AcDbLine
 62
7
  6
CONTINUOUS
 10
178.13012693
 20
215.1327657774
 11
178.3854612418
 21
222.6284181432
  0
LINE
  5
2B6
100
AcDbEntity
  8
BEZUGSACHSEN
100
AcDbLine
 62
7
  6
CONTINUOUS
 10
178.9243096722
 20
216.0637146263
 11
179.1144522488
 21
221.6455835258
  0
LINE
  5
2B7
100
AcDbEntity
  8
BEZUGSACHSEN
100
AcDbLine
 62
7
  6
CONTINUOUS
 10
182.6141973791
 20
219.9296965798
 11
182.5327077072
 21
217.5374671631
  0
LINE
  5
2B8
100
AcDbEntity
  8
BEZUGSACHSEN
100
AcDbLine
 62
7
  6
CONTINUOUS
 10
183.3757842518
 20
219.9037536397
 11
183.2942945799
 21
217.511524223
  0
LINE
  5
2B9
100
AcDbEntity
  8
BEZUGSACHSEN
100
AcDbLine
 62
7
  6
CONTINUOUS
 10
175.9452507612
 20
216.8157839868
 11
175.9773706989
 21
217.4658014165
  0
LINE
  5
2BA
100
AcDbEntity
  8
BEZUGSACHSEN
100
AcDbLine
 62
7
  6
CONTINUOUS
 10
216.4689696543
 20
182.4380522417
 11
216.6068746065
 21
181.7979710214
  0
LINE
  5
2BB
100
AcDbEntity
  8
BEZUGSACHSEN
100
AcDbLine
 62
7
  6
CONTINUOUS
 10
219.1801692681
 20
182.3458759715
 11
219.3180742204
 21
181.7057947513
  0
LINE
  5
2BC
100
AcDbEntity
  8
BEZUGSACHSEN
100
AcDbLine
 62
7
  6
CONTINUOUS
 10
212.2469008936
 20
204.0404688473
 11
212.3286684197
 21
203.6355614793
  0
LINE
  5
2BD
100
AcDbEntity
  8
BEZUGSACHSEN
100
AcDbLine
 62
7
  6
CONTINUOUS
 10
208.8351446546
 20
196.799377199
 11
208.9437483525
 21
196.1536783639
  0
LINE
  5
2BE
100
AcDbEntity
  8
BEZUGSACHSEN
100
AcDbLine
 62
7
  6
CONTINUOUS
 10
216.2722656362
 20
198.1156624421
 11
216.3808670144
 21
197.469968938
  0
LINE
  5
2BF
100
AcDbEntity
  8
0
100
AcDbLine
 62
7
  6
CONTINUOUS
 10
226.8807251088
 20
172.7468718138
 11
223.7560963078
 21
202.4757290107
  0
LINE
  5
2C0
100
AcDbEntity
  8
BEZUGSACHSEN
100
AcDbLine
 62
7
  6
CONTINUOUS
 10
219.1642925761
 20
186.455468825
 11
219.234291382
 21
185.6966620196
  0
LINE
  5
2C1
100
AcDbEntity
  8
0
100
AcDbLine
 62
7
  6
CONTINUOUS
 10
197.0204035214
 20
639.5336286401
 11
197.0204035214
 21
429.5336286401
  0
LINE
  5
2C2
100
AcDbEntity
  8
BEZUGSACHSEN
100
AcDbLine
 62
7
  6
CONTINUOUS
 10
211.8224050415
 20
181.9606350161
 11
211.8008276898
 21
181.3259759284
  0
LINE
  5
2C3
100
AcDbEntity
  8
BEZUGSACHSEN
100
AcDbLine
 62
7
  6
CONTINUOUS
 10
212.6241320642
 20
182.0604538424
 11
212.5939239299
 21
181.1719357681
  0
LINE
  5
2C4
100
AcDbEntity
  8
BEZUGSACHSEN
100
AcDbLine
 62
7
  6
CONTINUOUS
 10
215.8137784782
 20
181.952011178
 11
215.7835703438
 21
181.0634931037
  0
LINE
  5
2C5
100
AcDbEntity
  8
BEZUGSACHSEN
100
AcDbLine
 62
7
  6
CONTINUOUS
 10
183.1402006972
 20
216.7184382988
 11
183.2942945799
 21
217.511524223
  0
LINE
  5
2C6
100
AcDbEntity
  8
BEZUGSACHSEN
100
AcDbLine
 62
7
  6
CONTINUOUS
 10
169.7084553161
 20
217.7324159749
 11
169.866301363
 21
218.4588322484
  0
LINE
  5
2C7
100
AcDbEntity
  8
0
100
AcDbLine
 62
7
  6
CONTINUOUS
 10
132.2600819339
 20
192.8591103901
 11
122.8444508794
 21
166.989876678
  0
LINE
  5
2C8
100
AcDbEntity
  8
0
100
AcDbLine
 62
7
  6
CONTINUOUS
 10
469.5261591236
 20
230.9052924932
 11
496.8344190821
 21
218.7468718138
  0
LINE
  5
2C9
100
AcDbEntity
  8
BEZUGSACHSEN
100
AcDbLine
 62
7
  6
CONTINUOUS
 10
216.6068746065
 20
181.7979710214
 11
216.5852972549
 21
181.1633119338
  0
LINE
  5
2CA
100
AcDbEntity
  8
BEZUGSACHSEN
100
AcDbLine
 62
7
  6
CONTINUOUS
 10
217.5076679997
 20
180.1153315551
 11
217.486090648
 21
179.4806724675
  0
LINE
  5
2CB
100
AcDbEntity
  8
BEZUGSACHSEN
100
AcDbLine
 62
7
  6
CONTINUOUS
 10
218.524978092
 20
181.8598349078
 11
218.499085349
 21
181.0982463269
  0
LINE
  5
2CC
100
AcDbEntity
  8
BEZUGSACHSEN
100
AcDbLine
 62
7
  6
CONTINUOUS
 10
219.3180742204
 20
181.7057947513
 11
219.3008124575
 21
181.1980709674
  0
LINE
  5
2CD
100
AcDbEntity
  8
BEZUGSACHSEN
100
AcDbLine
 62
7
  6
CONTINUOUS
 10
208.9236643638
 20
197.3927612817
 11
208.8351446546
 21
196.799377199
  0
LINE
  5
2CE
100
AcDbEntity
  8
BEZUGSACHSEN
100
AcDbLine
 62
7
  6
CONTINUOUS
 10
216.3808670144
 20
197.469968938
 11
216.2923485098
 21
196.8765822094
  0
LINE
  5
2CF
100
AcDbEntity
  8
BEZUGSACHSEN
100
AcDbLine
 62
7
  6
CONTINUOUS
 10
213.0603094828
 20
203.97824383
 11
212.9492126732
 21
203.2891009531
  0
LINE
  5
2D0
100
AcDbEntity
  8
BEZUGSACHSEN
100
AcDbLine
 62
7
  6
CONTINUOUS
 10
182.3840464688
 20
216.9038631851
 11
182.5327077072
 21
217.5374671631
  0
LINE
  5
2D1
100
AcDbEntity
  8
BEZUGSACHSEN
100
AcDbLine
 62
7
  6
CONTINUOUS
 10
176.5646817486
 20
216.1009489189
 11
176.7224355437
 21
216.7695733882
  0
LINE
  5
2D2
100
AcDbEntity
  8
BEZUGSACHSEN
100
AcDbLine
 62
7
  6
CONTINUOUS
 10
175.7641182859
 20
216.3050122266
 11
175.9452507612
 21
216.8157839868
  0
LINE
  5
2D3
100
AcDbEntity
  8
BEZUGSACHSEN
100
AcDbLine
 62
7
  6
CONTINUOUS
 10
168.9540184093
 20
217.9839242828
 11
169.0931361219
 21
218.3673603104
  0
LINE
  5
2D4
100
AcDbEntity
  8
0
100
AcDbLine
 62
7
  6
CONTINUOUS
 10
449.8019860045
 20
125.7703178482
 11
432.1063879606
 21
146.8591103901
  0
LINE
  5
2D5
100
AcDbEntity
  8
BEZUGSACHSEN
100
AcDbLine
 62
7
  6
CONTINUOUS
 10
212.0034647111
 20
182.5898719705
 11
211.8224050415
 21
181.9606350161
  0
LINE
  5
2D6
100
AcDbEntity
  8
BEZUGSACHSEN
100
AcDbLine
 62
7
  6
CONTINUOUS
 10
209.9025848016
 20
197.5442196007
 11
209.7631103186
 21
197.0671715325
  0
LINE
  5
2D7
100
AcDbEntity
  8
BEZUGSACHSEN
100
AcDbLine
 62
7
  6
CONTINUOUS
 10
215.45290144
 20
197.2021746436
 11
215.3134270594
 21
196.7251266204
  0
LINE
  5
2D8
100
AcDbEntity
  8
BEZUGSACHSEN
100
AcDbLine
 62
7
  6
CONTINUOUS
 10
212.3286684197
 20
203.6355614793
 11
212.2070829827
 21
203.2462115686
  0
LINE
  5
2D9
100
AcDbEntity
  8
BEZUGSACHSEN
100
AcDbLine
 62
7
  6
CONTINUOUS
 10
182.8646073412
 20
216.0891580654
 11
183.1402006972
 21
216.7184382988
  0
LINE
  5
2DA
100
AcDbEntity
  8
KONSTRUKTIONSELEMENTE
100
AcDbLine
 62
7
  6
CONTINUOUS
 10
89.1110761482
 20
139.2178326351
 11
90.8788431012
 21
142.2796948136
  0
LINE
  5
2DB
100
AcDbEntity
  8
KONSTRUKTIONSELEMENTE
100
AcDbLine
 62
7
  6
CONTINUOUS
 10
89.1195751296
 20
120.0724286624
 11
90.3216566576
 21
122.1544949438
  0
LINE
  5
2DC
100
AcDbEntity
  8
KONSTRUKTIONSELEMENTE
100
AcDbLine
 62
7
  6
CONTINUOUS
 10
88.6740464439
 20
118.3230786069
 11
88.9568891564
 21
118.8129765554
  0
LINE
  5
2DD
100
AcDbEntity
  8
0
100
AcDbLine
 62
7
  6
CONTINUOUS
 10
147.2063879606
 20
218.7468718138
 11
132.2600819339
 21
192.8591103901
  0
LINE
  5
2DE
100
AcDbEntity
  8
RUNDUNGEN
100
AcDbLine
 62
7
  6
CONTINUOUS
 10
109.7084211137
 20
136.7984880544
 11
130.273248797
 21
172.4178144508
  0
LINE
  5
2DF
100
AcDbEntity
  8
0
100
AcDbLine
 62
7
  6
CONTINUOUS
 10
432.1063879606
 20
146.8591103901
 11
417.1600819339
 21
172.7468718138
  0
LINE
  5
2E0
100
AcDbEntity
  8
BEZUGSACHSEN
100
AcDbLine
 62
7
  6
CONTINUOUS
 10
216.5852972549
 20
181.1633119338
 11
216.4042377968
 21
180.5340807893
  0
LINE
  5
2E1
100
AcDbEntity
  8
BEZUGSACHSEN
100
AcDbLine
 62
7
  6
CONTINUOUS
 10
219.3008124575
 20
181.1980709674
 11
219.1197528019
 21
180.5688340125
  0
LINE
  5
2E2
100
AcDbEntity
  8
BEZUGSACHSEN
100
AcDbLine
 62
7
  6
CONTINUOUS
 10
212.9492126732
 20
203.2891009531
 11
212.6347629007
 21
202.6155155336
  0
LINE
  5
2E3
100
AcDbEntity
  8
BEZUGSACHSEN
100
AcDbLine
 62
7
  6
CONTINUOUS
 10
182.1138857609
 20
216.4340650096
 11
182.3840464688
 21
216.9038631851
  0
LINE
  5
2E4
100
AcDbEntity
  8
KONSTRUKTIONSELEMENTE
100
AcDbLine
 62
7
  6
CONTINUOUS
 10
131.4973277518
 20
146.8422053058
 11
126.2982543389
 21
137.8371460025
  0
LINE
  5
2E5
100
AcDbEntity
  8
0
100
AcDbLine
 62
7
  6
CONTINUOUS
 10
254.7328738103
 20
338.9882084648
 11
171.791272734
 21
195.3291413396
  0
LINE
  5
2E6
100
AcDbEntity
  8
KONSTRUKTIONSELEMENTE
100
AcDbLine
 62
7
  6
CONTINUOUS
 10
93.8177950104
 20
55.2351162794
 11
85.3958499309
 21
40.6478795032
  0
LINE
  5
2E7
100
AcDbEntity
  8
0
100
AcDbLine
 62
7
  6
CONTINUOUS
 10
130.1826852854
 20
114.8609538473
 11
139.1605605931
 21
130.4110900243
  0
LINE
  5
2E8
100
AcDbEntity
  8
KONSTRUKTIONSELEMENTE
100
AcDbLine
 62
7
  6
CONTINUOUS
 10
139.1605605931
 20
130.4110900243
 11
150.0493799681
 21
149.2710784162
  0
LINE
  5
2E9
100
AcDbEntity
  8
KONSTRUKTIONSELEMENTE
100
AcDbLine
 62
7
  6
CONTINUOUS
 10
166.8456184424
 20
176.7630168298
 11
163.4853062313
 21
170.9427853508
  0
LINE
  5
2EA
100
AcDbEntity
  8
KONSTRUKTIONSELEMENTE
100
AcDbLine
 62
7
  6
CONTINUOUS
 10
151.2892692563
 20
149.8186296592
 11
145.9859683974
 21
140.6330431237
  0
LINE
  5
2EB
100
AcDbEntity
  8
KONSTRUKTIONSELEMENTE
100
AcDbLine
 62
7
  6
CONTINUOUS
 10
87.0357603731
 20
37.088287709
 11
96.0867271723
 21
52.7650220628
  0
LINE
  5
2EC
100
AcDbEntity
  8
KONSTRUKTIONSELEMENTE
100
AcDbLine
 62
7
  6
CONTINUOUS
 10
170.7427327594
 20
174.5130168298
 11
166.7016606265
 21
167.5136745785
  0
LINE
  5
2ED
100
AcDbEntity
  8
KONSTRUKTIONSELEMENTE
100
AcDbLine
 62
7
  6
CONTINUOUS
 10
155.1863835733
 20
147.5686296592
 11
149.8830827144
 21
138.3830431237
  0
LINE
  5
2EE
100
AcDbEntity
  8
KONSTRUKTIONSELEMENTE
100
AcDbLine
 62
7
  6
CONTINUOUS
 10
174.4801287108
 20
178.9863765055
 11
171.1202435497
 21
173.166884699
  0
LINE
  5
2EF
100
AcDbEntity
  8
KONSTRUKTIONSELEMENTE
100
AcDbLine
 62
7
  6
CONTINUOUS
 10
151.2376227317
 20
138.7291752545
 11
149.6553400119
 21
135.9885811919
  0
LINE
  5
2F0
100
AcDbEntity
  8
KONSTRUKTIONSELEMENTE
100
AcDbLine
 62
7
  6
CONTINUOUS
 10
159.9718812217
 20
153.3573547256
 11
155.8687890622
 21
146.2505906373
  0
LINE
  5
2F1
100
AcDbEntity
  8
BEZUGSACHSEN
100
AcDbLine
 62
7
  6
CONTINUOUS
 10
176.1556587597
 20
215.3951104339
 11
176.5646817486
 21
216.1009489189
  0
LINE
  5
2F2
100
AcDbEntity
  8
0
100
AcDbLine
 62
7
  6
CONTINUOUS
 10
448.8156531196
 20
134.9178141777
 11
469.3804806452
 21
99.2984880544
  0
LINE
  5
2F3
100
AcDbEntity
  8
0
100
AcDbLine
 62
7
  6
CONTINUOUS
 10
471.5768196761
 20
123.1900933494
 11
476.7758930889
 21
114.185034046
  0
LINE
  5
2F4
100
AcDbEntity
  8
0
100
AcDbLine
 62
7
  6
CONTINUOUS
 10
449.7620732722
 20
182.2785663881
 11
366.7620732722
 21
326.0387834163
  0
LINE
  5
2F5
100
AcDbEntity
  8
BEZUGSACHSEN
100
AcDbLine
 62
7
  6
CONTINUOUS
 10
212.7965607396
 20
182.4358260002
 11
212.6241320642
 21
182.0604538424
  0
LINE
  5
2F6
100
AcDbEntity
  8
BEZUGSACHSEN
100
AcDbLine
 62
7
  6
CONTINUOUS
 10
215.7835703438
 20
181.0634931037
 11
215.6111416684
 21
180.6881209459
  0
LINE
  5
2F7
100
AcDbEntity
  8
BEZUGSACHSEN
100
AcDbLine
 62
7
  6
CONTINUOUS
 10
218.499085349
 20
181.0982463269
 11
218.3266566735
 21
180.722874169
  0
LINE
  5
2F8
100
AcDbEntity
  8
BEZUGSACHSEN
100
AcDbLine
 62
7
  6
CONTINUOUS
 10
209.3045225958
 20
198.1141852654
 11
208.9236643638
 21
197.3927612817
  0
LINE
  5
2F9
100
AcDbEntity
  8
BEZUGSACHSEN
100
AcDbLine
 62
7
  6
CONTINUOUS
 10
216.2923485098
 20
196.8765822094
 11
215.911490329
 21
196.1551582481
  0
LINE
  5
2FA
100
AcDbEntity
  8
KONSTRUKTIONSELEMENTE
100
AcDbLine
 62
7
  6
CONTINUOUS
 10
163.8689955387
 20
151.1073547256
 11
159.7659033792
 21
144.0005906373
  0
LINE
  5
2FB
100
AcDbEntity
  8
KONSTRUKTIONSELEMENTE
100
AcDbLine
 62
7
  6
CONTINUOUS
 10
178.8102557297
 20
176.4863765055
 11
175.4503705686
 21
170.666884699
  0
LINE
  5
2FC
100
AcDbEntity
  8
KONSTRUKTIONSELEMENTE
100
AcDbLine
 62
7
  6
CONTINUOUS
 10
155.5677497506
 20
136.2291752545
 11
153.9854670308
 21
133.4885811919
  0
LINE
  5
2FD
100
AcDbEntity
  8
KONSTRUKTIONSELEMENTE
100
AcDbLine
 62
7
  6
CONTINUOUS
 10
155.9452605409
 20
134.8830431237
 11
161.2485613998
 21
144.0686296592
  0
LINE
  5
2FE
100
AcDbEntity
  8
KONSTRUKTIONSELEMENTE
100
AcDbLine
 62
7
  6
CONTINUOUS
 10
172.763838453
 20
164.0136745785
 11
176.8049105859
 21
171.0130168298
  0
LINE
  5
2FF
100
AcDbEntity
  8
KONSTRUKTIONSELEMENTE
100
AcDbLine
 62
7
  6
CONTINUOUS
 10
99.6450902522
 20
29.808287709
 11
108.6960570514
 21
45.4850220628
  0
LINE
  5
300
100
AcDbEntity
  8
KONSTRUKTIONSELEMENTE
100
AcDbLine
 62
7
  6
CONTINUOUS
 10
159.8423748579
 20
132.6330431237
 11
165.1456757168
 21
141.8186296592
  0
LINE
  5
301
100
AcDbEntity
  8
KONSTRUKTIONSELEMENTE
100
AcDbLine
 62
7
  6
CONTINUOUS
 10
177.3417126918
 20
162.9427853508
 11
180.7020249029
 21
168.7630168298
  0
LINE
  5
302
100
AcDbEntity
  8
0
100
AcDbLine
 62
7
  6
CONTINUOUS
 10
154.4026076997
 20
121.6110900243
 11
145.424732392
 21
106.0609538473
  0
LINE
  5
303
100
AcDbEntity
  8
KONSTRUKTIONSELEMENTE
100
AcDbLine
 62
7
  6
CONTINUOUS
 10
154.4026076997
 20
121.6110900243
 11
165.2914270747
 21
140.4710784162
  0
LINE
  5
304
100
AcDbEntity
  8
KONSTRUKTIONSELEMENTE
100
AcDbLine
 62
7
  6
CONTINUOUS
 10
103.5477423943
 20
30.1678795032
 11
111.750181056
 21
44.3749200114
  0
LINE
  5
305
100
AcDbEntity
  8
0
100
AcDbLine
 62
7
  6
CONTINUOUS
 10
277.2495343087
 20
325.9882084648
 11
194.3079332324
 21
182.3291413396
  0
LINE
  5
306
100
AcDbEntity
  8
KONSTRUKTIONSELEMENTE
100
AcDbLine
 62
7
  6
CONTINUOUS
 10
172.4639873666
 20
123.1900933494
 11
167.2649139538
 21
114.185034046
  0
LINE
  5
307
100
AcDbEntity
  8
BEZUGSACHSEN
100
AcDbLine
 62
7
  6
CONTINUOUS
 10
169.328559536
 20
217.2680686151
 11
169.7084553161
 21
217.7324159749
  0
LINE
  5
308
100
AcDbEntity
  8
BEZUGSACHSEN
100
AcDbLine
 62
7
  6
CONTINUOUS
 10
182.3351526646
 20
215.4685255016
 11
182.8646073412
 21
216.0891580654
  0
LINE
  5
309
100
AcDbEntity
  8
BEZUGSACHSEN
100
AcDbLine
 62
7
  6
CONTINUOUS
 10
175.4339725705
 20
215.933485919
 11
175.7641182859
 21
216.3050122266
  0
LINE
  5
30A
100
AcDbEntity
  8
0
100
AcDbLine
 62
7
  6
CONTINUOUS
 10
478.7493799681
 20
140.4710784162
 11
498.6160746507
 21
106.0609538473
  0
LINE
  5
30B
100
AcDbEntity
  8
0
100
AcDbLine
 62
7
  6
CONTINUOUS
 10
493.9914270747
 20
149.2710784162
 11
513.8581217573
 21
114.8609538473
  0
LINE
  5
30C
100
AcDbEntity
  8
0
100
AcDbLine
 62
7
  6
CONTINUOUS
 10
472.2787337706
 20
195.2785663881
 11
389.2787337706
 21
339.0387834163
  0
LINE
  5
30D
100
AcDbEntity
  8
RUNDUNGEN
100
AcDbLine
 62
7
  6
CONTINUOUS
 10
195.2251539231
 20
134.9178141777
 11
174.6603263975
 21
99.2984880544
  0
LINE
  5
30E
100
AcDbEntity
  8
KONSTRUKTIONSELEMENTE
100
AcDbLine
 62
7
  6
CONTINUOUS
 10
143.3426132956
 20
39.3876208728
 11
141.5748463426
 21
36.3257586943
  0
LINE
  5
30F
100
AcDbEntity
  8
0
100
AcDbLine
 62
7
  6
CONTINUOUS
 10
211.9344190821
 20
146.8591103901
 11
226.8807251088
 21
172.7468718138
  0
LINE
  5
310
100
AcDbEntity
  8
BEZUGSACHSEN
100
AcDbLine
 62
7
  6
CONTINUOUS
 10
210.2391825638
 20
197.9689528604
 11
209.9025848016
 21
197.5442196007
  0
LINE
  5
311
100
AcDbEntity
  8
BEZUGSACHSEN
100
AcDbLine
 62
7
  6
CONTINUOUS
 10
210.0226431563
 20
201.9183785173
 11
207.6264967068
 21
198.9124691521
  0
LINE
  5
312
100
AcDbEntity
  8
BEZUGSACHSEN
100
AcDbLine
 62
7
  6
CONTINUOUS
 10
209.3308183726
 20
202.3699558513
 11
207.1275378902
 21
199.648279589
  0
LINE
  5
313
100
AcDbEntity
  8
BEZUGSACHSEN
100
AcDbLine
 62
7
  6
CONTINUOUS
 10
168.6436813133
 20
217.711294879
 11
168.9540184093
 21
217.9839242828
  0
LINE
  5
314
100
AcDbEntity
  8
0
100
AcDbLine
 62
7
  6
CONTINUOUS
 10
512.5434792909
 20
146.8422053058
 11
517.7425527038
 21
137.8371460025
  0
LINE
  5
315
100
AcDbEntity
  8
0
100
AcDbLine
 62
7
  6
CONTINUOUS
 10
534.332385929
 20
136.7984880544
 11
513.7675582457
 21
172.4178144508
  0
LINE
  5
316
100
AcDbEntity
  8
0
100
AcDbLine
 62
7
  6
CONTINUOUS
 10
496.8344190821
 20
218.7468718138
 11
511.7807251088
 21
192.8591103901
  0
LINE
  5
317
100
AcDbEntity
  8
KONSTRUKTIONSELEMENTE
100
AcDbLine
 62
7
  6
CONTINUOUS
 10
201.1208559235
 20
72.8509343237
 11
199.3530889706
 21
69.7890721452
  0
LINE
  5
318
100
AcDbEntity
  8
BEZUGSACHSEN
100
AcDbLine
 62
7
  6
CONTINUOUS
 10
212.5034888189
 20
183.2082588483
 11
212.0034647111
 21
182.5898719705
  0
LINE
  5
319
100
AcDbEntity
  8
BEZUGSACHSEN
100
AcDbLine
 62
7
  6
CONTINUOUS
 10
216.4042377968
 20
180.5340807893
 11
215.9042135333
 21
179.9156880996
  0
LINE
  5
31A
100
AcDbEntity
  8
BEZUGSACHSEN
100
AcDbLine
 62
7
  6
CONTINUOUS
 10
219.1197528019
 20
180.5688340125
 11
218.6197285384
 21
179.9504413228
  0
LINE
  5
31B
100
AcDbEntity
  8
BEZUGSACHSEN
100
AcDbLine
 62
7
  6
CONTINUOUS
 10
212.2070829827
 20
203.2462115686
 11
211.8821462142
 21
202.8724167092
  0
LINE
  5
31C
100
AcDbEntity
  8
BEZUGSACHSEN
100
AcDbLine
 62
7
  6
CONTINUOUS
 10
212.6347629007
 20
202.6155155336
 11
212.3098261322
 21
202.2417206742
  0
LINE
  5
31D
100
AcDbEntity
  8
BEZUGSACHSEN
100
AcDbLine
 62
7
  6
CONTINUOUS
 10
213.128471719
 20
182.8057760254
 11
212.7965607396
 21
182.4358260002
  0
LINE
  5
31E
100
AcDbEntity
  8
BEZUGSACHSEN
100
AcDbLine
 62
7
  6
CONTINUOUS
 10
215.6111416684
 20
180.6881209459
 11
215.279230689
 21
180.3181709207
  0
LINE
  5
31F
100
AcDbEntity
  8
BEZUGSACHSEN
100
AcDbLine
 62
7
  6
CONTINUOUS
 10
218.3266566735
 20
180.722874169
 11
217.9947456941
 21
180.3529241439
  0
LINE
  5
320
100
AcDbEntity
  8
BEZUGSACHSEN
100
AcDbLine
 62
7
  6
CONTINUOUS
 10
209.7872879659
 20
198.6029425117
 11
209.3045225958
 21
198.1141852654
  0
LINE
  5
321
100
AcDbEntity
  8
BEZUGSACHSEN
100
AcDbLine
 62
7
  6
CONTINUOUS
 10
175.6998784413
 20
215.0049771599
 11
176.1556587597
 21
215.3951104339
  0
LINE
  5
322
100
AcDbEntity
  8
BEZUGSACHSEN
100
AcDbLine
 62
7
  6
CONTINUOUS
 10
181.7222270322
 20
216.1280724755
 11
182.1138857609
 21
216.4340650096
  0
LINE
  5
323
100
AcDbEntity
  8
0
100
AcDbLine
 62
7
  6
CONTINUOUS
 10
194.2388210382
 20
125.7703178482
 11
211.9344190821
 21
146.8591103901
  0
LINE
  5
324
100
AcDbEntity
  8
BEZUGSACHSEN
100
AcDbLine
 62
7
  6
CONTINUOUS
 10
215.3134270594
 20
196.7251266204
 11
214.9258741779
 21
196.4167292239
  0
LINE
  5
325
100
AcDbEntity
  8
BEZUGSACHSEN
100
AcDbLine
 62
7
  6
CONTINUOUS
 10
210.7729037076
 20
198.3413713565
 11
210.2391825638
 21
197.9689528604
  0
LINE
  5
326
100
AcDbEntity
  8
BEZUGSACHSEN
100
AcDbLine
 62
7
  6
CONTINUOUS
 10
207.0060227938
 20
204.322877619
 11
211.125262856
 21
207.1161665476
  0
LINE
  5
327
100
AcDbEntity
  8
BEZUGSACHSEN
100
AcDbLine
 62
7
  6
CONTINUOUS
 10
206.1324374556
 20
202.8097834284
 11
208.1190591488
 21
204.1569271484
  0
LINE
  5
328
100
AcDbEntity
  8
BEZUGSACHSEN
100
AcDbLine
 62
7
  6
CONTINUOUS
 10
208.9114937462
 20
204.6942832515
 11
210.8925806095
 21
206.0376737601
  0
LINE
  5
329
100
AcDbEntity
  8
BEZUGSACHSEN
100
AcDbLine
 62
7
  6
CONTINUOUS
 10
211.8821462142
 20
202.8724167092
 11
211.4859285455
 21
202.6037384068
  0
LINE
  5
32A
100
AcDbEntity
  8
BEZUGSACHSEN
100
AcDbLine
 62
7
  6
CONTINUOUS
 10
212.3098261322
 20
202.2417206742
 11
211.7815360306
 21
201.8834830213
  0
LINE
  5
32B
100
AcDbEntity
  8
BEZUGSACHSEN
100
AcDbLine
 62
7
  6
CONTINUOUS
 10
181.816563277
 20
215.1668568441
 11
182.3351526646
 21
215.4685255016
  0
LINE
  5
32C
100
AcDbEntity
  8
BEZUGSACHSEN
100
AcDbLine
 62
7
  6
CONTINUOUS
 10
174.9548135821
 20
215.701205285
 11
175.4339725705
 21
215.933485919
  0
LINE
  5
32D
100
AcDbEntity
  8
0
100
AcDbLine
 62
7
  6
CONTINUOUS
 10
174.5146479191
 20
230.9052924932
 11
147.2063879606
 21
218.7468718138
  0
LINE
  5
32E
100
AcDbEntity
  8
0
100
AcDbLine
 62
7
  6
CONTINUOUS
 10
511.7807251088
 20
192.8591103901
 11
521.1963561633
 21
166.989876678
  0
LINE
  5
32F
100
AcDbEntity
  8
0
100
AcDbLine
 62
7
  6
CONTINUOUS
 10
447.0204035214
 20
429.5336286401
 11
447.0204035214
 21
639.5336286401
  0
LINE
  5
330
100
AcDbEntity
  8
0
100
AcDbLine
 62
7
  6
CONTINUOUS
 10
417.1600819339
 20
172.7468718138
 11
420.2847107349
 21
202.4757290107
  0
LINE
  5
331
100
AcDbEntity
  8
BEZUGSACHSEN
100
AcDbLine
 62
7
  6
CONTINUOUS
 10
215.279230689
 20
180.3181709207
 11
214.9516351009
 21
180.0751503889
  0
LINE
  5
332
100
AcDbEntity
  8
BEZUGSACHSEN
100
AcDbLine
 62
7
  6
CONTINUOUS
 10
215.9042135333
 20
179.9156880996
 11
215.41282025
 21
179.5511602071
  0
LINE
  5
333
100
AcDbEntity
  8
BEZUGSACHSEN
100
AcDbLine
 62
7
  6
CONTINUOUS
 10
210.4671777816
 20
199.0393822868
 11
209.7872879659
 21
198.6029425117
  0
LINE
  5
334
100
AcDbEntity
  8
BEZUGSACHSEN
100
AcDbLine
 62
7
  6
CONTINUOUS
 10
215.911490329
 20
196.1551582481
 11
215.2316001039
 21
195.7187182936
  0
LINE
  5
335
100
AcDbEntity
  8
BEZUGSACHSEN
100
AcDbLine
 62
7
  6
CONTINUOUS
 10
175.0950855811
 20
214.754089583
 11
175.6998784413
 21
215.0049771599
  0
LINE
  5
336
100
AcDbEntity
  8
BEZUGSACHSEN
100
AcDbLine
 62
7
  6
CONTINUOUS
 10
164.6173455772
 20
219.7251485231
 11
167.506685143
 21
220.6960854344
  0
LINE
  5
337
100
AcDbEntity
  8
BEZUGSACHSEN
100
AcDbLine
 62
7
  6
CONTINUOUS
 10
165.5938322172
 20
219.2115713015
 11
167.8812259253
 21
219.980229651
  0
LINE
  5
338
100
AcDbEntity
  8
BEZUGSACHSEN
100
AcDbLine
 62
7
  6
CONTINUOUS
 10
166.3562876051
 20
216.9426365294
 11
168.6436813133
 21
217.711294879
  0
LINE
  5
339
100
AcDbEntity
  8
BEZUGSACHSEN
100
AcDbLine
 62
7
  6
CONTINUOUS
 10
166.6612697034
 20
216.03506279
 11
168.7078851718
 21
216.7228097496
  0
LINE
  5
33A
100
AcDbEntity
  8
BEZUGSACHSEN
100
AcDbLine
 62
7
  6
CONTINUOUS
 10
167.0063722981
 20
212.6158200508
 11
167.7287071896
 21
212.8585542786
  0
LINE
  5
33B
100
AcDbEntity
  8
BEZUGSACHSEN
100
AcDbLine
 62
7
  6
CONTINUOUS
 10
170.7384357892
 20
213.8699468561
 11
171.5811600589
 21
214.1531368657
  0
LINE
  5
33C
100
AcDbEntity
  8
0
100
AcDbLine
 62
7
  6
CONTINUOUS
 10
487.0204035214
 20
429.5336286401
 11
487.0204035214
 21
639.5336286401
  0
LINE
  5
33D
100
AcDbEntity
  8
BEZUGSACHSEN
100
AcDbLine
 62
7
  6
CONTINUOUS
 10
213.154364462
 20
183.5673646063
 11
212.5034888189
 21
183.2082588483
  0
LINE
  5
33E
100
AcDbEntity
  8
BEZUGSACHSEN
100
AcDbLine
 62
7
  6
CONTINUOUS
 10
218.6197285384
 20
179.9504413228
 11
217.9688529511
 21
179.5913355629
  0
LINE
  5
33F
100
AcDbEntity
  8
BEZUGSACHSEN
100
AcDbLine
 62
7
  6
CONTINUOUS
 10
213.6155497227
 20
183.0433744208
 11
213.128471719
 21
182.8057760254
  0
LINE
  5
340
100
AcDbEntity
  8
BEZUGSACHSEN
100
AcDbLine
 62
7
  6
CONTINUOUS
 10
217.9947456941
 20
180.3529241439
 11
217.5076679997
 21
180.1153315551
  0
LINE
  5
341
100
AcDbEntity
  8
BEZUGSACHSEN
100
AcDbLine
 62
7
  6
CONTINUOUS
 10
210.4671777816
 20
199.0393822868
 11
212.6597080637
 21
199.9997015622
  0
LINE
  5
342
100
AcDbEntity
  8
BEZUGSACHSEN
100
AcDbLine
 62
7
  6
CONTINUOUS
 10
210.7729037076
 20
198.3413713565
 11
212.9654339897
 21
199.3016906318
  0
LINE
  5
343
100
AcDbEntity
  8
BEZUGSACHSEN
100
AcDbLine
 62
7
  6
CONTINUOUS
 10
213.1517672424
 20
196.8875541081
 11
212.2747552115
 21
196.5034264339
  0
LINE
  5
344
100
AcDbEntity
  8
BEZUGSACHSEN
100
AcDbLine
 62
7
  6
CONTINUOUS
 10
212.7333441005
 20
195.4564100383
 11
211.5639945212
 21
194.9442397162
  0
LINE
  5
345
100
AcDbEntity
  8
BEZUGSACHSEN
100
AcDbLine
 62
7
  6
CONTINUOUS
 10
213.9160820575
 20
195.1425267822
 11
211.7235517754
 21
194.1822075068
  0
LINE
  5
346
100
AcDbEntity
  8
BEZUGSACHSEN
100
AcDbLine
 62
7
  6
CONTINUOUS
 10
211.0184307167
 20
202.4401771631
 11
211.4859285455
 21
202.6037384068
  0
LINE
  5
347
100
AcDbEntity
  8
BEZUGSACHSEN
100
AcDbLine
 62
7
  6
CONTINUOUS
 10
211.3140382018
 20
201.7199217776
 11
211.7815360306
 21
201.8834830213
  0
LINE
  5
348
100
AcDbEntity
  8
0
100
AcDbLine
 62
7
  6
CONTINUOUS
 10
521.1963561633
 20
160.3546065957
 11
521.1963561633
 21
166.989876678
  0
LINE
  5
349
100
AcDbEntity
  8
RUNDUNGEN
100
AcDbLine
 62
7
  6
CONTINUOUS
 10
188.492508586
 20
122.4526828071
 11
194.2388210382
 21
125.7703178482
  0
LINE
  5
34A
100
AcDbEntity
  8
0
100
AcDbLine
 62
7
  6
CONTINUOUS
 10
420.2847107349
 20
202.4757290107
 11
431.1404201402
 21
214.5322157336
  0
LINE
  5
34B
100
AcDbEntity
  8
KONSTRUKTIONSELEMENTE
100
AcDbLine
 62
7
  6
CONTINUOUS
 10
134.9058710671
 20
52.344861724
 11
178.2058450109
 21
76.9814768617
  0
LINE
  5
34C
100
AcDbEntity
  8
0
100
AcDbLine
 62
7
  6
CONTINUOUS
 10
532.1381239505
 20
121.6596172778
 11
534.5699506275
 21
135.4511916991
  0
LINE
  5
34D
100
AcDbEntity
  8
KONSTRUKTIONSELEMENTE
100
AcDbLine
 62
7
  6
CONTINUOUS
 10
140.259269402
 20
35.5117922346
 11
141.4138693157
 21
36.1687310529
  0
LINE
  5
34E
100
AcDbEntity
  8
KONSTRUKTIONSELEMENTE
100
AcDbLine
 62
7
  6
CONTINUOUS
 10
196.295599208
 20
67.395079115
 11
197.7433187015
 21
68.2187957306
  0
LINE
  5
34F
100
AcDbEntity
  8
RUNDUNGEN
100
AcDbLine
 62
7
  6
CONTINUOUS
 10
173.6123158766
 20
98.4191028128
 11
172.1893309017
 21
97.9011786382
  0
LINE
  5
350
100
AcDbEntity
  8
0
100
AcDbLine
 62
7
  6
CONTINUOUS
 10
172.1893309017
 20
97.9011786382
 11
160.4525487312
 21
93.629339282
  0
LINE
  5
351
100
AcDbEntity
  8
0
100
AcDbLine
 62
7
  6
CONTINUOUS
 10
499.8414270747
 20
139.1385811919
 11
484.5993799681
 21
130.3385811919
  0
LINE
  5
352
100
AcDbEntity
  8
0
100
AcDbLine
 62
7
  6
CONTINUOUS
 10
509.3414270747
 20
122.68409852
 11
494.0993799681
 21
113.88409852
  0
LINE
  5
353
100
AcDbEntity
  8
KONSTRUKTIONSELEMENTE
100
AcDbLine
 62
7
  6
CONTINUOUS
 10
485.2722985982
 20
93.776673716
 11
488.8432981391
 21
95.8383912623
  0
LINE
  5
354
100
AcDbEntity
  8
KONSTRUKTIONSELEMENTE
100
AcDbLine
 62
7
  6
CONTINUOUS
 10
527.5975089036
 20
118.2131452794
 11
531.1685084445
 21
120.2748628256
  0
LINE
  5
355
100
AcDbEntity
  8
KONSTRUKTIONSELEMENTE
100
AcDbLine
 62
7
  6
CONTINUOUS
 10
643.6780545456
 20
31.6357163141
 11
646.0822176017
 21
29.5536500328
  0
LINE
  5
356
100
AcDbEntity
  8
KONSTRUKTIONSELEMENTE
100
AcDbLine
 62
7
  6
CONTINUOUS
 10
646.5220155615
 20
29.808287709
 11
645.9563301365
 21
30.2981856576
  0
LINE
  5
357
100
AcDbEntity
  8
KONSTRUKTIONSELEMENTE
100
AcDbLine
 62
7
  6
CONTINUOUS
 10
642.9864816555
 20
32.8701498875
 11
643.5521670805
 21
32.3802519389
  0
LINE
  5
358
100
AcDbEntity
  8
KONSTRUKTIONSELEMENTE
100
AcDbLine
 62
7
  6
CONTINUOUS
 10
646.5220155615
 20
37.088287709
 11
645.9563301365
 21
37.5781856576
  0
LINE
  5
359
100
AcDbEntity
  8
KONSTRUKTIONSELEMENTE
100
AcDbLine
 62
7
  6
CONTINUOUS
 10
642.9864816555
 20
40.1501498875
 11
643.5521670805
 21
39.6602519389
  0
LINE
  5
35A
100
AcDbEntity
  8
KONSTRUKTIONSELEMENTE
100
AcDbLine
 62
7
  6
CONTINUOUS
 10
665.9286173164
 20
38.215788048
 11
669.4641512223
 21
35.1539258695
  0
LWPOLYLINE
  5
35B
100
AcDbEntity
  8
0
100
AcDbPolyline
 62
7
  6
CONTINUOUS
 90
14
 70
0
 10
869.0333719329
 20
93.5234698717
 10
870.4600323511
 20
93.5802652721
 10
871.900041485
 20
93.6817055139
 10
873.3454018783
 20
93.8294694577
 10
874.7880126217
 20
94.0250131323
 10
876.2196632768
 20
94.2695652111
 10
877.6320293497
 20
94.5641531513
 10
879.0170107044
 20
94.9097223378
 10
880.3647841598
 20
95.306625625
 10
881.6729444951
 20
95.7576506598
 10
882.9290497944
 20
96.2627115047
 10
884.1473108692
 20
96.8345537788
 10
885.3357465719
 20
97.490930153
 10
886.3447519317
 20
98.1488252517
  0
LINE
  5
35C
100
AcDbEntity
  8
KONSTRUKTIONSELEMENTE
100
AcDbLine
 62
7
  6
CONTINUOUS
 10
669.1494325594
 20
60.1092950491
 11
668.5837471345
 21
60.5991929977
  0
LINE
  5
35D
100
AcDbEntity
  8
KONSTRUKTIONSELEMENTE
100
AcDbLine
 62
7
  6
CONTINUOUS
 10
666.1795840785
 20
62.681259279
 11
665.6138986535
 21
63.1711572276
  0
LINE
  5
35E
100
AcDbEntity
  8
0
100
AcDbLine
 62
7
  6
CONTINUOUS
 10
867.8464380725
 20
93.5087249232
 11
869.0333719329
 21
93.5234698717
  0
LWPOLYLINE
  5
35F
100
AcDbEntity
  8
RUNDUNGEN
100
AcDbPolyline
 62
7
  6
CONTINUOUS
 90
15
 70
0
 10
867.8464380732
 20
93.508724923
 10
869.036034607
 20
93.5235029494
 10
870.4662703455
 20
93.5806084497
 10
871.9037216122
 20
93.6820225562
 10
873.3443343009
 20
93.8293428428
 10
874.7812287882
 20
94.0239768383
 10
876.2073553874
 20
94.2672376211
 10
877.615396658
 20
94.5603563381
 10
878.9980741839
 20
94.9045898699
 10
880.3464192075
 20
95.3007784601
 10
881.6575022105
 20
95.7519068105
 10
882.919568255
 20
96.2586002158
 10
884.1433744136
 20
96.8325554102
 10
885.3345479059
 20
97.4902094658
 10
886.3447484912
 20
98.1488228126
  0
LINE
  5
360
100
AcDbEntity
  8
KONSTRUKTIONSELEMENTE
100
AcDbLine
 62
7
  6
CONTINUOUS
 10
723.5556078412
 20
70.4092257781
 11
727.0911417472
 21
67.3473635997
  0
LINE
  5
361
100
AcDbEntity
  8
KONSTRUKTIONSELEMENTE
100
AcDbLine
 62
7
  6
CONTINUOUS
 10
717.6925511855
 20
118.3230786069
 11
720.5067709063
 21
115.9560908078
  0
LINE
  5
362
100
AcDbEntity
  8
KONSTRUKTIONSELEMENTE
100
AcDbLine
 62
7
  6
CONTINUOUS
 10
717.1268657606
 20
118.8129765554
 11
719.9410854813
 21
116.4459887564
  0
LINE
  5
363
100
AcDbEntity
  8
0
100
AcDbLine
 62
7
  6
CONTINUOUS
 10
862.0890566701
 20
166.989876678
 11
873.6038194756
 21
166.989876678
  0
LINE
  5
364
100
AcDbEntity
  8
KONSTRUKTIONSELEMENTE
100
AcDbLine
 62
7
  6
CONTINUOUS
 10
728.8925256568
 20
132.8744278728
 11
728.8958897016
 21
132.8716689132
  0
LINE
  5
365
100
AcDbEntity
  8
KONSTRUKTIONSELEMENTE
100
AcDbLine
 62
7
  6
CONTINUOUS
 10
719.8668018246
 20
120.6894688444
 11
722.0315862251
 21
118.8687089989
  0
LINE
  5
366
100
AcDbEntity
  8
KONSTRUKTIONSELEMENTE
100
AcDbLine
 62
7
  6
CONTINUOUS
 10
717.4626387685
 20
122.7715351257
 11
719.6274231691
 21
120.9507752803
  0
LINE
  5
367
100
AcDbEntity
  8
KONSTRUKTIONSELEMENTE
100
AcDbLine
 62
7
  6
CONTINUOUS
 10
728.8958897016
 20
132.8716689132
 11
731.0606741022
 21
131.0509090678
  0
LINE
  5
368
100
AcDbEntity
  8
KONSTRUKTIONSELEMENTE
100
AcDbLine
 62
7
  6
CONTINUOUS
 10
733.7814506294
 20
131.340364348
 11
730.9763143675
 21
133.699712219
  0
LINE
  5
369
100
AcDbEntity
  8
KONSTRUKTIONSELEMENTE
100
AcDbLine
 62
7
  6
CONTINUOUS
 10
717.6925511855
 20
118.3230786069
 11
717.1268657606
 21
118.8129765554
  0
LINE
  5
36A
100
AcDbEntity
  8
KONSTRUKTIONSELEMENTE
100
AcDbLine
 62
7
  6
CONTINUOUS
 10
714.1570172796
 20
121.3849407854
 11
714.7227027045
 21
120.8950428368
  0
LINE
  5
36B
100
AcDbEntity
  8
KONSTRUKTIONSELEMENTE
100
AcDbLine
 62
7
  6
CONTINUOUS
 10
719.8668018246
 20
120.6894688444
 11
717.4626387685
 21
122.7715351257
  0
LINE
  5
36C
100
AcDbEntity
  8
KONSTRUKTIONSELEMENTE
100
AcDbLine
 62
7
  6
CONTINUOUS
 10
722.0315862251
 20
118.8687089989
 11
719.6274231691
 21
120.9507752803
  0
LINE
  5
36D
100
AcDbEntity
  8
KONSTRUKTIONSELEMENTE
100
AcDbLine
 62
7
  6
CONTINUOUS
 10
728.1846022681
 20
133.4876205717
 11
728.8934838502
 21
132.8737111134
  0
LINE
  5
36E
100
AcDbEntity
  8
KONSTRUKTIONSELEMENTE
100
AcDbLine
 62
7
  6
CONTINUOUS
 10
731.0639596712
 20
131.0480578514
 11
731.0606741022
 21
131.0509090678
  0
LINE
  5
36F
100
AcDbEntity
  8
0
100
AcDbLine
 62
7
  6
CONTINUOUS
 10
862.3241542282
 20
192.8591103901
 11
873.3687219175
 21
192.8591103901
  0
LWPOLYLINE
  5
370
100
AcDbEntity
  8
RUNDUNGEN
100
AcDbPolyline
 62
7
  6
CONTINUOUS
 90
15
 70
0
 10
849.3481276545
 20
98.1488228126
 10
850.3583282399
 20
97.4902094658
 10
851.5495017321
 20
96.8325554102
 10
852.7733078907
 20
96.2586002158
 10
854.0353739352
 20
95.7519068105
 10
855.3464569382
 20
95.3007784601
 10
856.6948019618
 20
94.9045898699
 10
858.0774794878
 20
94.5603563381
 10
859.4855207583
 20
94.2672376211
 10
860.9116473575
 20
94.0239768383
 10
862.3485418448
 20
93.8293428428
 10
863.7891545335
 20
93.6820225562
 10
865.2266058002
 20
93.5806084497
 10
866.6568415387
 20
93.5235029494
 10
867.8464380725
 20
93.508724923
  0
LWPOLYLINE
  5
371
100
AcDbEntity
  8
0
100
AcDbPolyline
 62
7
  6
CONTINUOUS
 90
15
 70
0
 10
849.348124214
 20
98.1488252517
 10
850.3571295739
 20
97.490930153
 10
851.5455652765
 20
96.8345537788
 10
852.7638263513
 20
96.2627115047
 10
854.0199316506
 20
95.7576506598
 10
855.3280919859
 20
95.306625625
 10
856.6758654413
 20
94.9097223378
 10
858.060846796
 20
94.5641531513
 10
859.4732128689
 20
94.2695652111
 10
860.904863524
 20
94.0250131323
 10
862.3474742675
 20
93.8294694577
 10
863.7928346608
 20
93.6817055139
 10
865.2328437947
 20
93.5802652721
 10
866.661704854
 20
93.5233822641
 10
867.8464380732
 20
93.5087249232
  0
LINE
  5
372
100
AcDbEntity
  8
0
100
AcDbLine
 62
7
  6
CONTINUOUS
 10
849.3486468242
 20
98.1484548411
 11
848.6173791855
 21
98.6663790161
  0
LINE
  5
373
100
AcDbEntity
  8
KONSTRUKTIONSELEMENTE
100
AcDbLine
 62
7
  6
CONTINUOUS
 10
754.5552550842
 20
130.0692850477
 11
741.2327056915
 21
141.2746332415
  0
LINE
  5
374
100
AcDbEntity
  8
KONSTRUKTIONSELEMENTE
100
AcDbLine
 62
7
  6
CONTINUOUS
 10
751.0197211783
 20
133.1311472262
 11
737.6971717856
 21
144.33649542
  0
LINE
  5
375
100
AcDbEntity
  8
BEZUGSACHSEN
100
AcDbLine
 62
7
  6
CONTINUOUS
 10
751.0197211783
 20
133.1311472262
 11
754.5773820701
 21
130.0502078437
  0
LINE
  5
376
100
AcDbEntity
  8
BEZUGSACHSEN
100
AcDbLine
 62
7
  6
CONTINUOUS
 10
857.9884939351
 20
212.6158200508
 11
857.9554526792
 21
212.6158200508
  0
LINE
  5
377
100
AcDbEntity
  8
BEZUGSACHSEN
100
AcDbLine
 62
7
  6
CONTINUOUS
 10
877.1077961524
 20
212.6158200508
 11
877.7374234665
 21
212.6158200508
  0
LINE
  5
378
100
AcDbEntity
  8
BEZUGSACHSEN
100
AcDbLine
 62
7
  6
CONTINUOUS
 10
858.0347499442
 20
212.8585542786
 11
857.9443097964
 21
212.8585542786
  0
LINE
  5
379
100
AcDbEntity
  8
BEZUGSACHSEN
100
AcDbLine
 62
7
  6
CONTINUOUS
 10
858.270602371
 20
213.8699468561
 11
857.9450783033
 21
213.8699468561
  0
LINE
  5
37A
100
AcDbEntity
  8
BEZUGSACHSEN
100
AcDbLine
 62
7
  6
CONTINUOUS
 10
877.4877707542
 20
213.8699468561
 11
877.7477978424
 21
213.8699468561
  0
LINE
  5
37B
100
AcDbEntity
  8
BEZUGSACHSEN
100
AcDbLine
 62
7
  6
CONTINUOUS
 10
858.3398985255
 20
214.1531368657
 11
857.9589310035
 21
214.1531368657
  0
LINE
  5
37C
100
AcDbEntity
  8
BEZUGSACHSEN
100
AcDbLine
 62
7
  6
CONTINUOUS
 10
858.4687382955
 20
214.6796615476
 11
857.9390751733
 21
214.6796615476
  0
LINE
  5
37D
100
AcDbEntity
  8
BEZUGSACHSEN
100
AcDbLine
 62
7
  6
CONTINUOUS
 10
877.5859380273
 20
214.6796615476
 11
877.7538009724
 21
214.6796615476
  0
LINE
  5
37E
100
AcDbEntity
  8
BEZUGSACHSEN
100
AcDbLine
 62
7
  6
CONTINUOUS
 10
877.5677176601
 20
214.7444791955
 11
877.7124018811
 21
214.7444791955
  0
LINE
  5
37F
100
AcDbEntity
  8
BEZUGSACHSEN
100
AcDbLine
 62
7
  6
CONTINUOUS
 10
858.4869507199
 20
214.754089583
 11
857.9393793348
 21
214.754089583
  0
LINE
  5
380
100
AcDbEntity
  8
BEZUGSACHSEN
100
AcDbLine
 62
7
  6
CONTINUOUS
 10
877.4998095391
 20
214.9857563987
 11
877.6303058006
 21
214.9857563987
  0
LINE
  5
381
100
AcDbEntity
  8
BEZUGSACHSEN
100
AcDbLine
 62
7
  6
CONTINUOUS
 10
858.5483425194
 20
215.0049771599
 11
857.9815332426
 21
215.0049771599
  0
LINE
  5
382
100
AcDbEntity
  8
BEZUGSACHSEN
100
AcDbLine
 62
7
  6
CONTINUOUS
 10
858.5640065238
 20
215.0289940171
 11
857.9432687623
 21
215.0289940171
  0
LINE
  5
383
100
AcDbEntity
  8
BEZUGSACHSEN
100
AcDbLine
 62
7
  6
CONTINUOUS
 10
877.7113429031
 20
215.0289940171
 11
877.7496073834
 21
215.0289940171
  0
LINE
  5
384
100
AcDbEntity
  8
BEZUGSACHSEN
100
AcDbLine
 62
7
  6
CONTINUOUS
 10
877.6844499877
 20
215.1327657774
 11
877.7276133099
 21
215.1327657774
  0
LINE
  5
385
100
AcDbEntity
  8
BEZUGSACHSEN
100
AcDbLine
 62
7
  6
CONTINUOUS
 10
858.5879542261
 20
215.1668568441
 11
857.9865377126
 21
215.1668568441
  0
LINE
  5
386
100
AcDbEntity
  8
BEZUGSACHSEN
100
AcDbLine
 62
7
  6
CONTINUOUS
 10
858.661772077
 20
215.4685255016
 11
858.0700875061
 21
215.4685255016
  0
LINE
  5
387
100
AcDbEntity
  8
BEZUGSACHSEN
100
AcDbLine
 62
7
  6
CONTINUOUS
 10
877.3426329535
 20
215.5427389193
 11
877.468408529
 21
215.5427389193
  0
LINE
  5
388
100
AcDbEntity
  8
BEZUGSACHSEN
100
AcDbLine
 62
7
  6
CONTINUOUS
 10
877.478879323
 20
215.701205285
 11
877.519223128
 21
215.701205285
  0
LINE
  5
389
100
AcDbEntity
  8
BEZUGSACHSEN
100
AcDbLine
 62
7
  6
CONTINUOUS
 10
877.3983917987
 20
215.933485919
 11
877.4779974811
 21
215.933485919
  0
LINE
  5
38A
100
AcDbEntity
  8
BEZUGSACHSEN
100
AcDbLine
 62
7
  6
CONTINUOUS
 10
858.8136398992
 20
216.0891580654
 11
858.2333513984
 21
216.0891580654
  0
LINE
  5
38B
100
AcDbEntity
  8
BEZUGSACHSEN
100
AcDbLine
 62
7
  6
CONTINUOUS
 10
877.1744752882
 20
216.1369354064
 11
877.3088934657
 21
216.1369354064
  0
LINE
  5
38C
100
AcDbEntity
  8
BEZUGSACHSEN
100
AcDbLine
 62
7
  6
CONTINUOUS
 10
877.3068984101
 20
216.3050122266
 11
877.397081936
 21
216.3050122266
  0
LINE
  5
38D
100
AcDbEntity
  8
BEZUGSACHSEN
100
AcDbLine
 62
7
  6
CONTINUOUS
 10
858.9676237926
 20
216.7184382988
 11
858.3934689338
 21
216.7184382988
  0
LINE
  5
38E
100
AcDbEntity
  8
BEZUGSACHSEN
100
AcDbLine
 62
7
  6
CONTINUOUS
 10
877.1740748841
 20
216.8157839868
 11
877.2775698111
 21
216.8157839868
  0
LINE
  5
38F
100
AcDbEntity
  8
BEZUGSACHSEN
100
AcDbLine
 62
7
  6
CONTINUOUS
 10
876.9557498228
 20
216.9075913637
 11
877.1121046642
 21
216.9075913637
  0
LINE
  5
390
100
AcDbEntity
  8
BEZUGSACHSEN
100
AcDbLine
 62
7
  6
CONTINUOUS
 10
877.0114667306
 20
217.4658014165
 11
877.1201521559
 21
217.4658014165
  0
LINE
  5
391
100
AcDbEntity
  8
BEZUGSACHSEN
100
AcDbLine
 62
7
  6
CONTINUOUS
 10
859.1616906836
 20
217.511524223
 11
858.590459118
 21
217.511524223
  0
LINE
  5
392
100
AcDbEntity
  8
BEZUGSACHSEN
100
AcDbLine
 62
7
  6
CONTINUOUS
 10
876.4971033392
 20
217.711294879
 11
876.7009731599
 21
217.711294879
  0
LINE
  5
393
100
AcDbEntity
  8
BEZUGSACHSEN
100
AcDbLine
 62
7
  6
CONTINUOUS
 10
876.4267857462
 20
217.9839242828
 11
876.6592830123
 21
217.9839242828
  0
LINE
  5
394
100
AcDbEntity
  8
BEZUGSACHSEN
100
AcDbLine
 62
7
  6
CONTINUOUS
 10
876.3278864667
 20
218.3673603104
 11
876.5789473383
 21
218.3673603104
  0
LINE
  5
395
100
AcDbEntity
  8
0
100
AcDbLine
 62
7
  6
CONTINUOUS
 10
862.5039604539
 20
218.7468718138
 11
873.1889156919
 21
218.7468718138
  0
LINE
  5
396
100
AcDbEntity
  8
BEZUGSACHSEN
100
AcDbLine
 62
7
  6
CONTINUOUS
 10
876.2004046797
 20
218.8616028461
 11
876.4606131469
 21
218.8616028461
  0
LINE
  5
397
100
AcDbEntity
  8
BEZUGSACHSEN
100
AcDbLine
 62
7
  6
CONTINUOUS
 10
876.1101347116
 20
219.3153901395
 11
876.3435772701
 21
219.3153901395
  0
LINE
  5
398
100
AcDbEntity
  8
BEZUGSACHSEN
100
AcDbLine
 62
7
  6
CONTINUOUS
 10
875.2767088339
 20
219.7251485231
 11
875.905996989
 21
219.7251485231
  0
LINE
  5
399
100
AcDbEntity
  8
BEZUGSACHSEN
100
AcDbLine
 62
7
  6
CONTINUOUS
 10
876.1174549871
 20
219.7287213432
 11
876.227791659
 21
219.7287213432
  0
LINE
  5
39A
100
AcDbEntity
  8
BEZUGSACHSEN
100
AcDbLine
 62
7
  6
CONTINUOUS
 10
859.7470654977
 20
219.9037536397
 11
859.1746606247
 21
219.9037536397
  0
LINE
  5
39B
100
AcDbEntity
  8
BEZUGSACHSEN
100
AcDbLine
 62
7
  6
CONTINUOUS
 10
876.1154091752
 20
219.9503344751
 11
876.1519355986
 21
219.9503344751
  0
LINE
  5
39C
100
AcDbEntity
  8
BEZUGSACHSEN
100
AcDbLine
 62
7
  6
CONTINUOUS
 10
875.2933692311
 20
220.6960854344
 11
875.9208364017
 21
220.6960854344
  0
LINE
  5
39D
100
AcDbEntity
  8
BEZUGSACHSEN
100
AcDbLine
 62
7
  6
CONTINUOUS
 10
859.9432485557
 20
220.7054876244
 11
859.3673732237
 21
220.7054876244
  0
LINE
  5
39E
100
AcDbEntity
  8
BEZUGSACHSEN
100
AcDbLine
 62
7
  6
CONTINUOUS
 10
875.3286755553
 20
220.7471017063
 11
875.9557753755
 21
220.7471017063
  0
LINE
  5
39F
100
AcDbEntity
  8
BEZUGSACHSEN
100
AcDbLine
 62
7
  6
CONTINUOUS
 10
860.1014645613
 20
221.3520630725
 11
859.5194860041
 21
221.3520630725
  0
LINE
  5
3A0
100
AcDbEntity
  8
BEZUGSACHSEN
100
AcDbLine
 62
7
  6
CONTINUOUS
 10
875.2785420637
 20
221.8010225826
 11
875.9037407129
 21
221.8010225826
  0
LINE
  5
3A1
100
AcDbEntity
  8
BEZUGSACHSEN
100
AcDbLine
 62
7
  6
CONTINUOUS
 10
875.2874654154
 20
221.9126646357
 11
875.9122725893
 21
221.9126646357
  0
LINE
  5
3A2
100
AcDbEntity
  8
BEZUGSACHSEN
100
AcDbLine
 62
7
  6
CONTINUOUS
 10
860.2617966244
 20
222.0072861342
 11
859.6692326549
 21
222.0072861342
  0
LINE
  5
3A3
100
AcDbEntity
  8
BEZUGSACHSEN
100
AcDbLine
 62
7
  6
CONTINUOUS
 10
860.3440787197
 20
222.3435453035
 11
859.7426976523
 21
222.3435453035
  0
LINE
  5
3A4
100
AcDbEntity
  8
BEZUGSACHSEN
100
AcDbLine
 62
7
  6
CONTINUOUS
 10
875.287465412
 20
222.3592326354
 11
875.9107920169
 21
222.3592326354
  0
LINE
  5
3A5
100
AcDbEntity
  8
BEZUGSACHSEN
100
AcDbLine
 62
7
  6
CONTINUOUS
 10
875.2785420637
 20
222.4708746353
 11
875.9015218826
 21
222.4708746353
  0
LINE
  5
3A6
100
AcDbEntity
  8
BEZUGSACHSEN
100
AcDbLine
 62
7
  6
CONTINUOUS
 10
860.3990602628
 20
222.524646383
 11
859.7782778543
 21
222.524646383
  0
LINE
  5
3A7
100
AcDbEntity
  8
BEZUGSACHSEN
100
AcDbLine
 62
7
  6
CONTINUOUS
 10
860.418099259
 20
222.6284181432
 11
859.7961444204
 21
222.6284181432
  0
LINE
  5
3A8
100
AcDbEntity
  8
BEZUGSACHSEN
100
AcDbLine
 62
7
  6
CONTINUOUS
 10
875.2747768867
 20
222.6284181432
 11
875.8967317253
 21
222.6284181432
  0
LINE
  5
3A9
100
AcDbEntity
  8
0
100
AcDbLine
 62
7
  6
CONTINUOUS
 10
862.5039604539
 20
230.9052924932
 11
873.1889156919
 21
230.9052924932
  0
LINE
  5
3AA
100
AcDbEntity
  8
KONSTRUKTIONSELEMENTE
100
AcDbLine
 62
7
  6
CONTINUOUS
 10
642.9864816555
 20
40.1501498875
 11
642.9864816555
 21
32.8701498875
  0
LINE
  5
3AB
100
AcDbEntity
  8
KONSTRUKTIONSELEMENTE
100
AcDbLine
 62
7
  6
CONTINUOUS
 10
643.5521670805
 20
40.0602519389
 11
643.5521670805
 21
39.6602519389
  0
LINE
  5
3AC
100
AcDbEntity
  8
KONSTRUKTIONSELEMENTE
100
AcDbLine
 62
7
  6
CONTINUOUS
 10
643.5521670805
 20
32.3802519389
 11
643.5521670805
 21
31.9802519389
  0
LINE
  5
3AD
100
AcDbEntity
  8
KONSTRUKTIONSELEMENTE
100
AcDbLine
 62
7
  6
CONTINUOUS
 10
645.9563301365
 20
37.9781856576
 11
645.9563301365
 21
37.5781856576
  0
LINE
  5
3AE
100
AcDbEntity
  8
KONSTRUKTIONSELEMENTE
100
AcDbLine
 62
7
  6
CONTINUOUS
 10
645.9563301365
 20
30.2981856576
 11
645.9563301365
 21
29.8981856576
  0
LINE
  5
3AF
100
AcDbEntity
  8
KONSTRUKTIONSELEMENTE
100
AcDbLine
 62
7
  6
CONTINUOUS
 10
646.5220155615
 20
37.088287709
 11
646.5220155615
 21
29.808287709
  0
LINE
  5
3B0
100
AcDbEntity
  8
0
100
AcDbLine
 62
7
  6
CONTINUOUS
 10
848.1563466335
 20
99.1214715431
 11
846.3456817284
 21
101.6089585783
  0
LINE
  5
3B1
100
AcDbEntity
  8
KONSTRUKTIONSELEMENTE
100
AcDbLine
 62
7
  6
CONTINUOUS
 10
665.6138986535
 20
39.0771271099
 11
665.6138986535
 21
45.5245325086
  0
LINE
  5
3B2
100
AcDbEntity
  8
KONSTRUKTIONSELEMENTE
100
AcDbLine
 62
7
  6
CONTINUOUS
 10
665.6138986535
 20
62.9460678297
 11
665.6138986535
 21
63.1711572276
  0
LINE
  5
3B3
100
AcDbEntity
  8
KONSTRUKTIONSELEMENTE
100
AcDbLine
 62
7
  6
CONTINUOUS
 10
668.5837471345
 20
45.0941035998
 11
668.5837471345
 21
46.6941035998
  0
LINE
  5
3B4
100
AcDbEntity
  8
KONSTRUKTIONSELEMENTE
100
AcDbLine
 62
7
  6
CONTINUOUS
 10
668.5837471345
 20
60.3741035998
 11
668.5837471345
 21
60.5991929977
  0
LINE
  5
3B5
100
AcDbEntity
  8
KONSTRUKTIONSELEMENTE
100
AcDbLine
 62
7
  6
CONTINUOUS
 10
669.1494325594
 20
46.2042056513
 11
669.1494325594
 21
36.0152649314
  0
LINE
  5
3B6
100
AcDbEntity
  8
KONSTRUKTIONSELEMENTE
100
AcDbLine
 62
7
  6
CONTINUOUS
 10
669.1494325594
 20
59.8842056513
 11
669.1494325594
 21
60.1092950491
  0
LINE
  5
3B7
100
AcDbEntity
  8
KONSTRUKTIONSELEMENTE
100
AcDbLine
 62
7
  6
CONTINUOUS
 10
877.4444535348
 20
178.542481364
 11
881.2536241611
 21
174.72115814
  0
LINE
  5
3B8
100
AcDbEntity
  8
RUNDUNGEN
100
AcDbLine
 62
7
  6
CONTINUOUS
 10
877.4367838925
 20
178.5501754627
 11
877.4453368086
 21
178.5415872056
  0
LINE
  5
3B9
100
AcDbEntity
  8
RUNDUNGEN
100
AcDbLine
 62
7
  6
CONTINUOUS
 10
881.2536241465
 20
174.7211581546
 11
881.2569030811
 21
174.7178626553
  0
LINE
  5
3BA
100
AcDbEntity
  8
RUNDUNGEN
100
AcDbLine
 62
7
  6
CONTINUOUS
 10
888.9387418918
 20
157.3396513352
 11
879.0257111042
 21
172.2091975165
  0
LWPOLYLINE
  5
3BB
100
AcDbEntity
  8
RUNDUNGEN
100
AcDbPolyline
 62
7
  6
CONTINUOUS
 90
6
 70
0
 10
879.0256965146
 20
172.2092187416
 10
878.618484094
 20
172.843799057
 10
878.1404193203
 20
173.6585894488
 10
877.7086005229
 20
174.4769203808
 10
877.3226327835
 20
175.296938204
 10
877.1944367472
 20
175.5932220931
  0
LINE
  5
3BC
100
AcDbEntity
  8
RUNDUNGEN
100
AcDbLine
 62
7
  6
CONTINUOUS
 10
877.1944401861
 20
175.5932153599
 11
877.1942783758
 21
175.5935981931
  0
LINE
  5
3BD
100
AcDbEntity
  8
0
100
AcDbLine
 62
7
  6
CONTINUOUS
 10
809.3464380729
 20
228.1827222603
 11
809.3464380729
 21
293.1346275441
  0
LWPOLYLINE
  5
3BE
100
AcDbEntity
  8
RUNDUNGEN
100
AcDbPolyline
 62
7
  6
CONTINUOUS
 90
3
 70
0
 10
877.9454525436
 20
178.0398839916
 10
877.9248813342
 20
178.1002154592
 10
877.8772986005
 20
178.3066409146
  0
LINE
  5
3BF
100
AcDbEntity
  8
0
100
AcDbLine
 62
7
  6
CONTINUOUS
 10
835.3464380729
 20
228.1827222603
 11
835.3464380729
 21
293.1346275441
  0
LINE
  5
3C0
100
AcDbEntity
  8
KONSTRUKTIONSELEMENTE
100
AcDbLine
 62
7
  6
CONTINUOUS
 10
673.6538142343
 20
37.0252920091
 11
676.2786153201
 21
43.7792521619
  0
LINE
  5
3C1
100
AcDbEntity
  8
KONSTRUKTIONSELEMENTE
100
AcDbLine
 62
7
  6
CONTINUOUS
 10
873.5141652564
 20
229.8410681543
 11
875.2788458472
 21
222.6294138115
  0
LINE
  5
3C2
100
AcDbEntity
  8
RUNDUNGEN
100
AcDbLine
 62
7
  6
CONTINUOUS
 10
873.7477841506
 20
165.4193355367
 11
873.6038194756
 21
166.989876678
  0
LINE
  5
3C3
100
AcDbEntity
  8
0
100
AcDbLine
 62
7
  6
CONTINUOUS
 10
862.0353154687
 20
200.2042421784
 11
862.3241542282
 21
192.8591103901
  0
LINE
  5
3C4
100
AcDbEntity
  8
0
100
AcDbLine
 62
7
  6
CONTINUOUS
 10
845.3464380729
 20
123.1900933494
 11
845.3464380729
 21
110.1509117486
  0
LINE
  5
3C5
100
AcDbEntity
  8
0
100
AcDbLine
 62
7
  6
CONTINUOUS
 10
845.3464380729
 20
110.011339856
 11
845.3464380729
 21
104.6332854313
  0
LINE
  5
3C6
100
AcDbEntity
  8
0
100
AcDbLine
 62
7
  6
CONTINUOUS
 10
845.3464380729
 20
134.6156591139
 11
845.3464380729
 21
152.7661493276
  0
LINE
  5
3C7
100
AcDbEntity
  8
0
100
AcDbLine
 62
7
  6
CONTINUOUS
 10
847.8464380729
 20
784.4699499339
 11
847.8464380729
 21
284.5973073464
  0
LINE
  5
3C8
100
AcDbEntity
  8
0
100
AcDbLine
 62
7
  6
CONTINUOUS
 10
849.8906874575
 20
126.2270053399
 11
849.8906874575
 21
121.6110900243
  0
LINE
  5
3C9
100
AcDbEntity
  8
0
100
AcDbLine
 62
7
  6
CONTINUOUS
 10
852.8464380729
 20
170.9228833632
 11
852.8464380729
 21
166.4781070636
  0
LINE
  5
3CA
100
AcDbEntity
  8
0
100
AcDbLine
 62
7
  6
CONTINUOUS
 10
861.902741129
 20
164.4953063921
 11
861.902741129
 21
164.3157068932
  0
LINE
  5
3CB
100
AcDbEntity
  8
0
100
AcDbLine
 62
7
  6
CONTINUOUS
 10
857.846433956
 20
178.6579655832
 11
857.8464380729
 21
211.1603965855
  0
LINE
  5
3CC
100
AcDbEntity
  8
0
100
AcDbLine
 62
7
  6
CONTINUOUS
 10
862.3241542282
 20
192.8591103901
 11
862.0890566701
 21
166.989876678
  0
LWPOLYLINE
  5
3CD
100
AcDbEntity
  8
0
100
AcDbPolyline
 62
7
  6
CONTINUOUS
 90
3
 70
0
 10
857.8464301593
 20
178.6579655927
 10
857.844105845
 20
178.5656570672
 10
857.8172835583
 20
178.3165441829
  0
LINE
  5
3CE
100
AcDbEntity
  8
KONSTRUKTIONSELEMENTE
100
AcDbLine
 62
7
  6
CONTINUOUS
 10
852.8703034174
 20
171.4223851505
 11
852.8464732396
 21
170.9252596375
  0
LINE
  5
3CF
100
AcDbEntity
  8
KONSTRUKTIONSELEMENTE
100
AcDbLine
 62
7
  6
CONTINUOUS
 10
725.8021958526
 20
76.4923788813
 11
723.5567055919
 21
70.7144356202
  0
LINE
  5
3D0
100
AcDbEntity
  8
KONSTRUKTIONSELEMENTE
100
AcDbLine
 62
7
  6
CONTINUOUS
 10
729.7170405835
 20
74.4065335945
 11
727.0922394978
 21
67.6525734417
  0
LINE
  5
3D1
100
AcDbEntity
  8
KONSTRUKTIONSELEMENTE
100
AcDbLine
 62
7
  6
CONTINUOUS
 10
753.0136003304
 20
119.9794686646
 11
736.2266417651
 21
76.7844052927
  0
LWPOLYLINE
  5
3D2
100
AcDbEntity
  8
RUNDUNGEN
100
AcDbPolyline
 62
7
  6
CONTINUOUS
 90
3
 70
0
 10
877.8772986005
 20
178.3066409146
 10
877.8494112792
 20
178.5528877404
 10
877.8464449631
 20
178.6583856384
  0
LINE
  5
3D3
100
AcDbEntity
  8
0
100
AcDbLine
 62
7
  6
CONTINUOUS
 10
882.8464029056
 20
170.9252603594
 11
882.8225727283
 21
171.4223851505
  0
LWPOLYLINE
  5
3D4
100
AcDbEntity
  8
KONSTRUKTIONSELEMENTE
100
AcDbPolyline
 62
7
  6
CONTINUOUS
 90
9
 70
0
 10
882.8464029061
 20
170.9252596375
 10
882.8225701563
 20
171.4224388058
 10
882.7392763511
 20
171.9789507715
 10
882.5976850609
 20
172.5222819967
 10
882.3985578781
 20
173.0499212046
 10
882.1427810935
 20
173.5578447395
 10
881.8314369664
 20
174.0414872594
 10
881.4644290881
 20
174.4978792769
 10
881.256895939
 20
174.7178555511
  0
LINE
  5
3D5
100
AcDbEntity
  8
0
100
AcDbLine
 62
7
  6
CONTINUOUS
 10
873.3687219175
 20
192.8591103901
 11
873.6038194756
 21
166.989876678
  0
LINE
  5
3D6
100
AcDbEntity
  8
RUNDUNGEN
100
AcDbLine
 62
7
  6
CONTINUOUS
 10
882.84643732
 20
170.925259657
 11
882.8464380729
 21
170.9228833632
  0
LINE
  5
3D7
100
AcDbEntity
  8
RUNDUNGEN
100
AcDbLine
 62
7
  6
CONTINUOUS
 10
873.7901350168
 20
164.4953063921
 11
873.7901350168
 21
164.3157068932
  0
LINE
  5
3D8
100
AcDbEntity
  8
BEZUGSACHSEN
100
AcDbLine
 62
7
  6
CONTINUOUS
 10
877.8464380729
 20
211.1603965855
 11
877.8464380729
 21
193.4301960186
  0
LINE
  5
3D9
100
AcDbEntity
  8
RUNDUNGEN
100
AcDbLine
 62
7
  6
CONTINUOUS
 10
877.8464380729
 20
193.4301959937
 11
877.8464411651
 21
178.6583856294
  0
LINE
  5
3DA
100
AcDbEntity
  8
KONSTRUKTIONSELEMENTE
100
AcDbLine
 62
7
  6
CONTINUOUS
 10
877.8464380729
 20
193.4301960186
 11
877.8464380729
 21
178.6648999323
  0
LINE
  5
3DB
100
AcDbEntity
  8
KONSTRUKTIONSELEMENTE
100
AcDbLine
 62
7
  6
CONTINUOUS
 10
882.8464380729
 20
166.4781070636
 11
882.8464380729
 21
170.9228833632
  0
LINE
  5
3DC
100
AcDbEntity
  8
KONSTRUKTIONSELEMENTE
100
AcDbLine
 62
7
  6
CONTINUOUS
 10
885.8021886882
 20
126.2270053399
 11
885.8021886882
 21
121.6110900243
  0
LINE
  5
3DD
100
AcDbEntity
  8
0
100
AcDbLine
 62
7
  6
CONTINUOUS
 10
887.8464380729
 20
784.4699499339
 11
887.8464380729
 21
284.5973073464
  0
LINE
  5
3DE
100
AcDbEntity
  8
KONSTRUKTIONSELEMENTE
100
AcDbLine
 62
7
  6
CONTINUOUS
 10
890.3464380729
 20
140.1332854313
 11
890.3464380729
 21
134.6156591139
  0
LINE
  5
3DF
100
AcDbEntity
  8
KONSTRUKTIONSELEMENTE
100
AcDbLine
 62
7
  6
CONTINUOUS
 10
890.3464380729
 20
123.1900933494
 11
890.3464380729
 21
110.1509117486
  0
LINE
  5
3E0
100
AcDbEntity
  8
RUNDUNGEN
100
AcDbLine
 62
7
  6
CONTINUOUS
 10
890.3464380729
 20
110.011339856
 11
890.3464380729
 21
104.6332854313
  0
LINE
  5
3E1
100
AcDbEntity
  8
RUNDUNGEN
100
AcDbLine
 62
7
  6
CONTINUOUS
 10
890.3464380729
 20
134.6156591139
 11
890.3464380729
 21
152.7661493276
  0
LINE
  5
3E2
100
AcDbEntity
  8
0
100
AcDbLine
 62
7
  6
CONTINUOUS
 10
873.657560677
 20
200.2042421784
 11
873.3687219175
 21
192.8591103901
  0
LINE
  5
3E3
100
AcDbEntity
  8
0
100
AcDbLine
 62
7
  6
CONTINUOUS
 10
861.9450919951
 20
165.4193355367
 11
862.0890566701
 21
166.989876678
  0
LINE
  5
3E4
100
AcDbEntity
  8
0
100
AcDbLine
 62
7
  6
CONTINUOUS
 10
900.3464380729
 20
293.1346275441
 11
900.3464380729
 21
228.1827222603
  0
LWPOLYLINE
  5
3E5
100
AcDbEntity
  8
0
100
AcDbPolyline
 62
7
  6
CONTINUOUS
 90
3
 70
0
 10
857.8172835583
 20
178.3165441829
 10
857.7699327167
 20
178.1069663467
 10
857.7472307761
 20
178.0396905505
  0
LINE
  5
3E6
100
AcDbEntity
  8
BEZUGSACHSEN
100
AcDbLine
 62
7
  6
CONTINUOUS
 10
857.9474074671
 20
215.088990601
 11
858.167477609
 21
215.9883430409
  0
LINE
  5
3E7
100
AcDbEntity
  8
BEZUGSACHSEN
100
AcDbLine
 62
7
  6
CONTINUOUS
 10
859.5494522884
 20
221.6360074116
 11
859.784332385
 21
222.5958831406
  0
LINE
  5
3E8
100
AcDbEntity
  8
0
100
AcDbLine
 62
7
  6
CONTINUOUS
 10
858.0757015144
 20
213.0734527954
 11
862.1787108893
 21
229.8410681543
  0
LINE
  5
3E9
100
AcDbEntity
  8
BEZUGSACHSEN
100
AcDbLine
 62
7
  6
CONTINUOUS
 10
858.1871643514
 20
216.0637146263
 11
858.1810677811
 21
216.0438885174
  0
LINE
  5
3EA
100
AcDbEntity
  8
KONSTRUKTIONSELEMENTE
100
AcDbLine
 62
7
  6
CONTINUOUS
 10
730.3061355255
 20
140.100454659
 11
727.6930095957
 21
137.0720543558
  0
LINE
  5
3EB
100
AcDbEntity
  8
KONSTRUKTIONSELEMENTE
100
AcDbLine
 62
7
  6
CONTINUOUS
 10
714.1570172796
 20
121.3849407854
 11
669.1059685024
 21
69.1744413899
  0
LINE
  5
3EC
100
AcDbEntity
  8
KONSTRUKTIONSELEMENTE
100
AcDbLine
 62
7
  6
CONTINUOUS
 10
714.7227027045
 20
120.8950428368
 11
715.2453278905
 21
121.5007228974
  0
LINE
  5
3ED
100
AcDbEntity
  8
0
100
AcDbLine
 62
7
  6
CONTINUOUS
 10
926.3464380729
 20
293.1346275441
 11
926.3464380729
 21
228.1827222603
  0
LINE
  5
3EE
100
AcDbEntity
  8
0
100
AcDbLine
 62
7
  6
CONTINUOUS
 10
858.4984785445
 20
175.5933161113
 11
858.4985977699
 21
175.5935981931
  0
LWPOLYLINE
  5
3EF
100
AcDbEntity
  8
0
100
AcDbPolyline
 62
7
  6
CONTINUOUS
 90
6
 70
0
 10
858.4984819776
 20
175.5933228301
 10
858.406160201
 20
175.3785802032
 10
858.0149270705
 20
174.5386221742
 10
857.5754136916
 20
173.6999281473
 10
857.0871549509
 20
172.8645052929
 10
856.6671803236
 20
172.2092197803
  0
LINE
  5
3F0
100
AcDbEntity
  8
KONSTRUKTIONSELEMENTE
100
AcDbLine
 62
7
  6
CONTINUOUS
 10
717.1268657606
 20
118.8129765554
 11
717.6494909465
 21
119.4186566161
  0
LINE
  5
3F1
100
AcDbEntity
  8
KONSTRUKTIONSELEMENTE
100
AcDbLine
 62
7
  6
CONTINUOUS
 10
719.7165102109
 20
120.9006305938
 11
728.6780411656
 21
131.2863157042
  0
LINE
  5
3F2
100
AcDbEntity
  8
KONSTRUKTIONSELEMENTE
100
AcDbLine
 62
7
  6
CONTINUOUS
 10
733.8416694314
 20
137.0385924806
 11
731.2285435016
 21
134.0101921774
  0
LINE
  5
3F3
100
AcDbEntity
  8
KONSTRUKTIONSELEMENTE
100
AcDbLine
 62
7
  6
CONTINUOUS
 10
717.6925511855
 20
118.3230786069
 11
672.6415024083
 21
66.1125792114
  0
LINE
  5
3F4
100
AcDbEntity
  8
KONSTRUKTIONSELEMENTE
100
AcDbLine
 62
7
  6
CONTINUOUS
 10
722.1583963594
 20
117.7168009847
 11
724.2488971032
 21
120.1395212272
  0
LINE
  5
3F5
100
AcDbEntity
  8
KONSTRUKTIONSELEMENTE
100
AcDbLine
 62
7
  6
CONTINUOUS
 10
732.2135750716
 20
128.2244535257
 11
722.7240817843
 21
117.2269030361
  0
LINE
  5
3F6
100
AcDbEntity
  8
0
100
AcDbLine
 62
7
  6
CONTINUOUS
 10
856.6671650415
 20
172.2091975165
 11
846.7541342539
 21
157.3396513352
  0
LINE
  5
3F7
100
AcDbEntity
  8
KONSTRUKTIONSELEMENTE
100
AcDbLine
 62
7
  6
CONTINUOUS
 10
748.8300782191
 20
135.4610033103
 11
751.6585053439
 21
137.9104930531
  0
LINE
  5
3F8
100
AcDbEntity
  8
KONSTRUKTIONSELEMENTE
100
AcDbLine
 62
7
  6
CONTINUOUS
 10
802.9237469799
 20
182.307494641
 11
805.7521741046
 21
184.7569843838
  0
LINE
  5
3F9
100
AcDbEntity
  8
KONSTRUKTIONSELEMENTE
100
AcDbLine
 62
7
  6
CONTINUOUS
 10
806.1057274952
 20
185.0631706017
 11
808.93415462
 21
187.5126603444
  0
LINE
  5
3FA
100
AcDbEntity
  8
KONSTRUKTIONSELEMENTE
100
AcDbLine
 62
7
  6
CONTINUOUS
 10
772.1514887207
 20
155.3272183428
 11
782.7580904385
 21
164.5128048783
  0
LINE
  5
3FB
100
AcDbEntity
  8
KONSTRUKTIONSELEMENTE
100
AcDbLine
 62
7
  6
CONTINUOUS
 10
662.0931135142
 20
57.3171825608
 11
645.2492233553
 21
42.7299457846
  0
LINE
  5
3FC
100
AcDbEntity
  8
KONSTRUKTIONSELEMENTE
100
AcDbLine
 62
7
  6
CONTINUOUS
 10
642.9864816555
 20
40.1501498875
 11
643.7654685607
 21
40.8247723366
  0
LINE
  5
3FD
100
AcDbEntity
  8
KONSTRUKTIONSELEMENTE
100
AcDbLine
 62
7
  6
CONTINUOUS
 10
802.3803036164
 20
177.3388569583
 11
791.7737018986
 21
168.1532704229
  0
LINE
  5
3FE
100
AcDbEntity
  8
KONSTRUKTIONSELEMENTE
100
AcDbLine
 62
7
  6
CONTINUOUS
 10
771.2676052442
 20
150.3944697877
 11
760.6610035264
 21
141.2088832523
  0
LINE
  5
3FF
100
AcDbEntity
  8
KONSTRUKTIONSELEMENTE
100
AcDbLine
 62
7
  6
CONTINUOUS
 10
775.8856392724
 20
152.6081471323
 11
785.7040319566
 21
161.1111246212
  0
LINE
  5
400
100
AcDbEntity
  8
KONSTRUKTIONSELEMENTE
100
AcDbLine
 62
7
  6
CONTINUOUS
 10
752.3987288132
 20
131.9371671043
 11
754.9317736974
 21
134.130848323
  0
LINE
  5
401
100
AcDbEntity
  8
KONSTRUKTIONSELEMENTE
100
AcDbLine
 62
7
  6
CONTINUOUS
 10
807.3535436049
 20
179.5294327743
 11
809.0254424582
 21
180.9773396537
  0
LINE
  5
402
100
AcDbEntity
  8
KONSTRUKTIONSELEMENTE
100
AcDbLine
 62
7
  6
CONTINUOUS
 10
809.3789958488
 20
181.2835258716
 11
810.6434841098
 21
182.3786048284
  0
LINE
  5
403
100
AcDbEntity
  8
KONSTRUKTIONSELEMENTE
100
AcDbLine
 62
7
  6
CONTINUOUS
 10
664.4972765703
 20
55.2351162794
 11
647.6533864114
 21
40.6478795032
  0
LINE
  5
404
100
AcDbEntity
  8
KONSTRUKTIONSELEMENTE
100
AcDbLine
 62
7
  6
CONTINUOUS
 10
645.9563301365
 20
37.5781856576
 11
664.0582637349
 21
53.2549200114
  0
LWPOLYLINE
  5
405
100
AcDbEntity
  8
0
100
AcDbPolyline
 62
7
  6
CONTINUOUS
 90
9
 70
0
 10
854.4359803505
 20
174.7178556959
 10
854.2284316714
 20
174.4978620702
 10
853.8614078849
 20
174.0414438396
 10
853.5500467793
 20
173.5577602622
 10
853.2942630411
 20
173.0497953926
 10
853.0951418402
 20
172.5221271462
 10
852.9535682166
 20
171.9787964633
 10
852.8702963703
 20
171.422338059
 10
852.8464732401
 20
170.9252603594
  0
LINE
  5
406
100
AcDbEntity
  8
0
100
AcDbLine
 62
7
  6
CONTINUOUS
 10
854.4359732084
 20
174.7178628001
 11
858.2551935014
 21
178.5492736975
  0
LINE
  5
407
100
AcDbEntity
  8
KONSTRUKTIONSELEMENTE
100
AcDbLine
 62
7
  6
CONTINUOUS
 10
646.5220155615
 20
37.088287709
 11
664.6239491598
 21
52.7650220628
  0
LINE
  5
408
100
AcDbEntity
  8
KONSTRUKTIONSELEMENTE
100
AcDbLine
 62
7
  6
CONTINUOUS
 10
805.3262451346
 20
173.9371767012
 11
794.7196434168
 21
164.7515901658
  0
LINE
  5
409
100
AcDbEntity
  8
KONSTRUKTIONSELEMENTE
100
AcDbLine
 62
7
  6
CONTINUOUS
 10
774.2135467624
 20
146.9927895306
 11
763.6069450446
 21
137.8072029952
  0
LINE
  5
40A
100
AcDbEntity
  8
KONSTRUKTIONSELEMENTE
100
AcDbLine
 62
7
  6
CONTINUOUS
 10
817.0658826036
 20
180.4703773339
 11
811.0554749635
 21
175.2652116305
  0
LINE
  5
40B
100
AcDbEntity
  8
KONSTRUKTIONSELEMENTE
100
AcDbLine
 62
7
  6
CONTINUOUS
 10
759.7902333275
 20
130.8682100426
 11
753.7798256874
 21
125.6630443392
  0
LINE
  5
40C
100
AcDbEntity
  8
KONSTRUKTIONSELEMENTE
100
AcDbLine
 62
7
  6
CONTINUOUS
 10
790.8898184221
 20
157.4705218678
 11
780.2832167043
 21
148.2849353323
  0
LINE
  5
40D
100
AcDbEntity
  8
KONSTRUKTIONSELEMENTE
100
AcDbLine
 62
7
  6
CONTINUOUS
 10
765.4898158511
 20
133.6878169457
 11
774.2135467624
 21
141.2427895306
  0
LINE
  5
40E
100
AcDbEntity
  8
KONSTRUKTIONSELEMENTE
100
AcDbLine
 62
7
  6
CONTINUOUS
 10
796.2128420992
 20
160.2947381577
 11
805.3262451346
 21
168.1871767012
  0
LINE
  5
40F
100
AcDbEntity
  8
KONSTRUKTIONSELEMENTE
100
AcDbLine
 62
7
  6
CONTINUOUS
 10
646.5220155615
 20
29.808287709
 11
664.6239491598
 21
45.4850220628
  0
LINE
  5
410
100
AcDbEntity
  8
KONSTRUKTIONSELEMENTE
100
AcDbLine
 62
7
  6
CONTINUOUS
 10
647.6533864114
 20
30.1678795032
 11
664.0582637349
 21
44.3749200114
  0
LINE
  5
411
100
AcDbEntity
  8
KONSTRUKTIONSELEMENTE
100
AcDbLine
 62
7
  6
CONTINUOUS
 10
793.8357599403
 20
154.0688416107
 11
783.2291582225
 21
144.8832550753
  0
LINE
  5
412
100
AcDbEntity
  8
KONSTRUKTIONSELEMENTE
100
AcDbLine
 62
7
  6
CONTINUOUS
 10
820.3391509572
 20
176.6907326039
 11
814.3287433171
 21
171.4855669004
  0
LINE
  5
413
100
AcDbEntity
  8
KONSTRUKTIONSELEMENTE
100
AcDbLine
 62
7
  6
CONTINUOUS
 10
763.0635016811
 20
127.0885653125
 11
757.053094041
 21
121.8833996091
  0
LINE
  5
414
100
AcDbEntity
  8
RUNDUNGEN
100
AcDbLine
 62
7
  6
CONTINUOUS
 10
889.3471944173
 20
101.6089585783
 11
887.5365295122
 21
99.1214715431
  0
LINE
  5
415
100
AcDbEntity
  8
KONSTRUKTIONSELEMENTE
100
AcDbLine
 62
7
  6
CONTINUOUS
 10
683.6696515801
 20
52.344861724
 11
726.6555731246
 21
76.9814768617
  0
LINE
  5
416
100
AcDbEntity
  8
KONSTRUKTIONSELEMENTE
100
AcDbLine
 62
7
  6
CONTINUOUS
 10
671.7684849461
 20
35.5117922346
 11
672.9147106083
 21
36.1687310529
  0
LINE
  5
417
100
AcDbEntity
  8
KONSTRUKTIONSELEMENTE
100
AcDbLine
 62
7
  6
CONTINUOUS
 10
727.3983862437
 20
67.395079115
 11
728.835605505
 21
68.2187957306
  0
LINE
  5
418
100
AcDbEntity
  8
RUNDUNGEN
100
AcDbLine
 62
7
  6
CONTINUOUS
 10
887.0754969602
 20
98.6663790161
 11
886.3442293215
 21
98.1484548411
  0
ARC
  5
419
100
AcDbEntity
  8
KONSTRUKTIONSELEMENTE
100
AcDbCircle
 62
7
  6
CONTINUOUS
 10
110.1515841464
 20
62.566068943
 40
56.0
100
AcDbArc
 50
69.0410961486
 51
83.5499984999
  0
ARC
  5
41A
100
AcDbEntity
  8
KONSTRUKTIONSELEMENTE
100
AcDbCircle
 62
7
  6
CONTINUOUS
 10
110.1515841464
 20
62.566068943
 40
56.0
100
AcDbArc
 50
36.4500015001
 51
50.9589038514
  0
ARC
  5
41B
100
AcDbEntity
  8
BEZUGSACHSEN
100
AcDbCircle
 62
7
  6
CONTINUOUS
 10
179.5704035214
 20
182.802991102
 40
20.0
100
AcDbArc
 50
100.5823106118
 51
19.4176893882
  0
ARC
  5
41C
100
AcDbEntity
  8
0
100
AcDbCircle
 62
7
  6
CONTINUOUS
 10
266.0204035214
 20
332.5387834163
 40
13.0
100
AcDbArc
 50
330.0
 51
150.0
  0
ARC
  5
41D
100
AcDbEntity
  8
0
100
AcDbCircle
 62
7
  6
CONTINUOUS
 10
183.0204035214
 20
188.7785663881
 40
13.0
100
AcDbArc
 50
150.0
 51
330.0
  0
ARC
  5
41E
100
AcDbEntity
  8
KONSTRUKTIONSELEMENTE
100
AcDbCircle
 62
7
  6
CONTINUOUS
 10
157.6704035214
 20
144.8710784162
 40
8.8
100
AcDbArc
 50
330.0
 51
150.0
  0
ARC
  5
41F
100
AcDbEntity
  8
KONSTRUKTIONSELEMENTE
100
AcDbCircle
 62
7
  6
CONTINUOUS
 10
86.2507333122
 20
54.6592525586
 40
8.2295991091
100
AcDbArc
 50
41.4716087129
 51
47.9053340862
  0
ARC
  5
420
100
AcDbEntity
  8
BEZUGSACHSEN
100
AcDbCircle
 62
7
  6
CONTINUOUS
 10
146.1926569964
 20
124.9910382786
 40
7.7701622262
100
AcDbArc
 50
235.5729048645
 51
244.4270951355
  0
ARC
  5
421
100
AcDbEntity
  8
KONSTRUKTIONSELEMENTE
100
AcDbCircle
 62
7
  6
CONTINUOUS
 10
115.4668140668
 20
38.7552330626
 40
7.4828140795
100
AcDbArc
 50
81.2384503883
 51
82.1140025065
  0
ARC
  5
422
100
AcDbEntity
  8
KONSTRUKTIONSELEMENTE
100
AcDbCircle
 62
7
  6
CONTINUOUS
 10
115.4876118303
 20
38.9086489107
 40
7.3279955906
100
AcDbArc
 50
82.1105000658
 51
83.9508226432
  0
ARC
  5
423
100
AcDbEntity
  8
KONSTRUKTIONSELEMENTE
100
AcDbCircle
 62
7
  6
CONTINUOUS
 10
93.2413683554
 20
54.3966054295
 40
3.2805025748
100
AcDbArc
 50
339.1122156589
 51
339.8872067218
  0
ARC
  5
424
100
AcDbEntity
  8
KONSTRUKTIONSELEMENTE
100
AcDbCircle
 62
7
  6
CONTINUOUS
 10
93.2932626224
 20
54.375801764
 40
3.2246015936
100
AcDbArc
 50
330.0312035642
 51
339.1288137427
  0
CIRCLE
  5
425
100
AcDbEntity
  8
BEZUGSACHSEN
100
AcDbCircle
 62
7
  6
CONTINUOUS
 10
170.4530894235
 20
113.011339856
 40
3.0
  0
ARC
  5
426
100
AcDbEntity
  8
RUNDUNGEN
100
AcDbCircle
 62
7
  6
CONTINUOUS
 10
189.992508586
 20
119.8546065957
 40
3.0
100
AcDbArc
 50
120.0
 51
150.0
  0
ARC
  5
427
100
AcDbEntity
  8
RUNDUNGEN
100
AcDbCircle
 62
7
  6
CONTINUOUS
 10
119.8444508794
 20
160.3546065957
 40
3.0
100
AcDbArc
 50
330.0
 51
360.0
  0
ARC
  5
428
100
AcDbEntity
  8
KONSTRUKTIONSELEMENTE
100
AcDbCircle
 62
7
  6
CONTINUOUS
 10
153.4026862412
 20
137.4791752545
 40
2.5
100
AcDbArc
 50
330.0
 51
150.0
  0
ARC
  5
429
100
AcDbEntity
  8
KONSTRUKTIONSELEMENTE
100
AcDbCircle
 62
7
  6
CONTINUOUS
 10
173.2853070592
 20
171.916884699
 40
2.5
100
AcDbArc
 50
150.0
 51
330.0
  0
ARC
  5
42A
100
AcDbEntity
  8
KONSTRUKTIONSELEMENTE
100
AcDbCircle
 62
7
  6
CONTINUOUS
 10
157.8173462207
 20
145.1255906373
 40
2.25
100
AcDbArc
 50
150.0
 51
330.0
  0
ARC
  5
42B
100
AcDbEntity
  8
KONSTRUKTIONSELEMENTE
100
AcDbCircle
 62
7
  6
CONTINUOUS
 10
168.8706470796
 20
164.2704693162
 40
2.25
100
AcDbArc
 50
11.3031628639
 51
108.6968371361
  0
ARC
  5
42C
100
AcDbEntity
  8
0
100
AcDbCircle
 62
7
  6
CONTINUOUS
 10
113.8722984938
 20
122.006914225
 40
2.0
100
AcDbArc
 50
190.0000172178
 51
240.0000110674
  0
ARC
  5
42D
100
AcDbEntity
  8
0
100
AcDbCircle
 62
7
  6
CONTINUOUS
 10
159.7685094191
 20
95.5087248783
 40
2.0
100
AcDbArc
 50
239.9999809015
 51
289.9999702881
  0
ARC
  5
42E
100
AcDbEntity
  8
RUNDUNGEN
100
AcDbCircle
 62
7
  6
CONTINUOUS
 10
172.92827559
 20
100.2984880544
 40
2.0
100
AcDbArc
 50
290.0
 51
329.9999999998
  0
ARC
  5
42F
100
AcDbEntity
  8
RUNDUNGEN
100
AcDbCircle
 62
7
  6
CONTINUOUS
 10
111.4404719213
 20
135.7984880544
 40
2.0
100
AcDbArc
 50
150.0
 51
190.0
  0
ARC
  5
430
100
AcDbEntity
  8
0
100
AcDbCircle
 62
7
  6
CONTINUOUS
 10
111.4404719213
 20
135.7984880544
 40
2.0
100
AcDbArc
 50
150.0
 51
190.0
  0
ARC
  5
431
100
AcDbEntity
  8
0
100
AcDbCircle
 62
7
  6
CONTINUOUS
 10
172.92827559
 20
100.2984880544
 40
2.0
100
AcDbArc
 50
290.0
 51
329.9999999998
  0
ARC
  5
432
100
AcDbEntity
  8
KONSTRUKTIONSELEMENTE
100
AcDbCircle
 62
7
  6
CONTINUOUS
 10
99.6609991505
 20
117.7070643007
 40
1.2681615075
100
AcDbArc
 50
311.2144804733
 51
316.8145490438
  0
ARC
  5
433
100
AcDbEntity
  8
KONSTRUKTIONSELEMENTE
100
AcDbCircle
 62
7
  6
CONTINUOUS
 10
533.8892228964
 20
62.566068943
 40
56.0
100
AcDbArc
 50
96.4500015001
 51
110.9589038514
  0
ARC
  5
434
100
AcDbEntity
  8
KONSTRUKTIONSELEMENTE
100
AcDbCircle
 62
7
  6
CONTINUOUS
 10
533.8892228964
 20
62.566068943
 40
56.0
100
AcDbArc
 50
129.0410961486
 51
143.5499984999
  0
ARC
  5
435
100
AcDbEntity
  8
0
100
AcDbCircle
 62
7
  6
CONTINUOUS
 10
464.4704035214
 20
182.802991102
 40
20.0
100
AcDbArc
 50
160.5823106118
 51
79.4176893882
  0
ARC
  5
436
100
AcDbEntity
  8
0
100
AcDbCircle
 62
7
  6
CONTINUOUS
 10
378.0204035214
 20
332.5387834163
 40
13.0
100
AcDbArc
 50
30.0
 51
210.0
  0
ARC
  5
437
100
AcDbEntity
  8
0
100
AcDbCircle
 62
7
  6
CONTINUOUS
 10
461.0204035214
 20
188.7785663881
 40
13.0
100
AcDbArc
 50
210.0
 51
30.0
  0
ARC
  5
438
100
AcDbEntity
  8
0
100
AcDbCircle
 62
7
  6
CONTINUOUS
 10
486.3704035214
 20
144.8710784162
 40
8.8
100
AcDbArc
 50
30.0
 51
210.0
  0
ARC
  5
439
100
AcDbEntity
  8
0
100
AcDbCircle
 62
7
  6
CONTINUOUS
 10
454.0482984567
 20
119.8546065957
 40
3.0
100
AcDbArc
 50
30.0
 51
60.0
  0
ARC
  5
43A
100
AcDbEntity
  8
0
100
AcDbCircle
 62
7
  6
CONTINUOUS
 10
524.1963561633
 20
160.3546065957
 40
3.0
100
AcDbArc
 50
180.0
 51
210.0
  0
CIRCLE
  5
43B
100
AcDbEntity
  8
BEZUGSACHSEN
100
AcDbCircle
 62
7
  6
CONTINUOUS
 10
473.5877176192
 20
113.011339856
 40
3.0
  0
ARC
  5
43C
100
AcDbEntity
  8
0
100
AcDbCircle
 62
7
  6
CONTINUOUS
 10
471.1125314527
 20
100.2984880544
 40
2.0
100
AcDbArc
 50
210.0000000002
 51
250.0
  0
ARC
  5
43D
100
AcDbEntity
  8
0
100
AcDbCircle
 62
7
  6
CONTINUOUS
 10
532.6003351214
 20
135.7984880544
 40
2.0
100
AcDbArc
 50
350.0
 51
30.0
  0
ARC
  5
43E
100
AcDbEntity
  8
0
100
AcDbCircle
 62
7
  6
CONTINUOUS
 10
530.1685085489
 20
122.006914225
 40
2.0
100
AcDbArc
 50
299.9999889326
 51
349.9999827822
  0
ARC
  5
43F
100
AcDbEntity
  8
0
100
AcDbCircle
 62
7
  6
CONTINUOUS
 10
484.2722976236
 20
95.5087248783
 40
2.0
100
AcDbArc
 50
250.0000297119
 51
300.0000190985
  0
ARC
  5
440
100
AcDbEntity
  8
RUNDUNGEN
100
AcDbCircle
 62
7
  6
CONTINUOUS
 10
471.1125314527
 20
100.2984880544
 40
2.0
100
AcDbArc
 50
210.0000000002
 51
250.0
  0
ARC
  5
441
100
AcDbEntity
  8
0
100
AcDbCircle
 62
7
  6
CONTINUOUS
 10
322.0204035214
 20
429.5336286401
 40
165.0
100
AcDbArc
 50
180.0
 51
235.4807496956
  0
ARC
  5
442
100
AcDbEntity
  8
0
100
AcDbCircle
 62
7
  6
CONTINUOUS
 10
322.0204035214
 20
429.5336286401
 40
165.0
100
AcDbArc
 50
244.5191638093
 51
295.4808361907
  0
ARC
  5
443
100
AcDbEntity
  8
0
100
AcDbCircle
 62
7
  6
CONTINUOUS
 10
322.0204035214
 20
429.5336286401
 40
165.0
100
AcDbArc
 50
304.5192503044
 51
360.0
  0
ARC
  5
444
100
AcDbEntity
  8
0
100
AcDbCircle
 62
7
  6
CONTINUOUS
 10
322.0204035214
 20
639.5336286401
 40
165.0
100
AcDbArc
 50
0.0
 51
180.0
  0
ARC
  5
445
100
AcDbEntity
  8
0
100
AcDbCircle
 62
7
  6
CONTINUOUS
 10
322.0204035214
 20
639.5336286401
 40
125.0
100
AcDbArc
 50
0.0
 51
180.0
  0
ARC
  5
446
100
AcDbEntity
  8
0
100
AcDbCircle
 62
7
  6
CONTINUOUS
 10
322.0204035214
 20
429.5336286401
 40
125.0
100
AcDbArc
 50
180.0
 51
234.0304003129
  0
ARC
  5
447
100
AcDbEntity
  8
0
100
AcDbCircle
 62
7
  6
CONTINUOUS
 10
322.0204035214
 20
429.5336286401
 40
125.0
100
AcDbArc
 50
245.9702077021
 51
294.0297922979
  0
ARC
  5
448
100
AcDbEntity
  8
0
100
AcDbCircle
 62
7
  6
CONTINUOUS
 10
322.0204035214
 20
429.5336286401
 40
125.0
100
AcDbArc
 50
305.9695996871
 51
360.0
  0
ARC
  5
449
100
AcDbEntity
  8
BEZUGSACHSEN
100
AcDbCircle
 62
7
  6
CONTINUOUS
 10
119.9230530577
 20
1.541386058
 40
787.0712196133
100
AcDbArc
 50
15.6720180444
 51
15.8197896934
  0
ARC
  5
44A
100
AcDbEntity
  8
BEZUGSACHSEN
100
AcDbCircle
 62
7
  6
CONTINUOUS
 10
677.1717065668
 20
157.0207772975
 40
208.6710061532
100
AcDbArc
 50
16.1278519374
 51
16.2871148444
  0
ARC
  5
44B
100
AcDbEntity
  8
KONSTRUKTIONSELEMENTE
100
AcDbCircle
 62
7
  6
CONTINUOUS
 10
658.0658496622
 20
66.1324442462
 40
8.817219735
100
AcDbArc
 50
335.651521189
 51
336.9574765809
  0
ARC
  5
44C
100
AcDbEntity
  8
0
100
AcDbCircle
 62
7
  6
CONTINUOUS
 10
869.952735742
 20
143.7380892713
 40
6.8957629367
100
AcDbArc
 50
12.5082153214
 51
13.7904469125
  0
ARC
  5
44D
100
AcDbEntity
  8
0
100
AcDbCircle
 62
7
  6
CONTINUOUS
 10
865.7401404048
 20
143.738089271
 40
6.8957629378
100
AcDbArc
 50
166.2095530876
 51
167.4917846784
  0
ARC
  5
44E
100
AcDbEntity
  8
KONSTRUKTIONSELEMENTE
100
AcDbCircle
 62
7
  6
CONTINUOUS
 10
732.7639772601
 20
132.6947848511
 40
6.6988955336
100
AcDbArc
 50
139.1991736219
 51
142.621075077
  0
ARC
  5
44F
100
AcDbEntity
  8
KONSTRUKTIONSELEMENTE
100
AcDbCircle
 62
7
  6
CONTINUOUS
 10
736.299511166
 20
129.6329226726
 40
6.6988955336
100
AcDbArc
 50
139.1991736219
 51
142.621075077
  0
ARC
  5
450
100
AcDbEntity
  8
KONSTRUKTIONSELEMENTE
100
AcDbCircle
 62
7
  6
CONTINUOUS
 10
776.2851807878
 20
150.1067962709
 40
6.5947824563
100
AcDbArc
 50
180.0290752758
 51
188.778086953
  0
ARC
  5
451
100
AcDbEntity
  8
KONSTRUKTIONSELEMENTE
100
AcDbCircle
 62
7
  6
CONTINUOUS
 10
746.1253969363
 20
129.726743527
 40
6.2119582838
100
AcDbArc
 50
34.453142093
 51
34.9773455115
  0
ARC
  5
452
100
AcDbEntity
  8
0
100
AcDbCircle
 62
7
  6
CONTINUOUS
 10
850.7062338921
 20
104.7831701983
 40
5.3935178298
100
AcDbArc
 50
213.3585546603
 51
216.0522962765
  0
ARC
  5
453
100
AcDbEntity
  8
RUNDUNGEN
100
AcDbCircle
 62
7
  6
CONTINUOUS
 10
884.9866422536
 20
104.7831701984
 40
5.3935178299
100
AcDbArc
 50
323.9477037235
 51
326.6414453397
  0
ARC
  5
454
100
AcDbEntity
  8
KONSTRUKTIONSELEMENTE
100
AcDbCircle
 62
7
  6
CONTINUOUS
 10
777.4444628527
 20
151.0580981894
 40
3.635198805
100
AcDbArc
 50
238.8071952044
 51
240.6860889462
  0
ARC
  5
455
100
AcDbEntity
  8
KONSTRUKTIONSELEMENTE
100
AcDbCircle
 62
7
  6
CONTINUOUS
 10
787.8476698937
 20
158.6326135763
 40
3.2769193772
100
AcDbArc
 50
125.8441677694
 51
130.856180551
  0
ARC
  5
456
100
AcDbEntity
  8
KONSTRUKTIONSELEMENTE
100
AcDbCircle
 62
7
  6
CONTINUOUS
 10
789.4257871194
 20
159.1962605579
 40
2.3870910771
100
AcDbArc
 50
23.4715892295
 51
29.1872445594
  0
ARC
  5
457
100
AcDbEntity
  8
KONSTRUKTIONSELEMENTE
100
AcDbCircle
 62
7
  6
CONTINUOUS
 10
758.4863911932
 20
132.4032516522
 40
2.1406419653
100
AcDbArc
 50
21.3128499486
 51
27.3434746478
  0
ARC
  5
458
100
AcDbEntity
  8
KONSTRUKTIONSELEMENTE
100
AcDbCircle
 62
7
  6
CONTINUOUS
 10
758.5613364798
 20
132.4334486613
 40
2.0598469896
100
AcDbArc
 50
18.6815072047
 51
21.2880328927
  0
ARC
  5
459
100
AcDbEntity
  8
0
100
AcDbCircle
 62
7
  6
CONTINUOUS
 10
849.7827143894
 20
100.3079340161
 40
2.0131481011
100
AcDbArc
 50
216.1113762981
 51
234.6240687316
  0
ARC
  5
45A
100
AcDbEntity
  8
BEZUGSACHSEN
100
AcDbCircle
 62
7
  6
CONTINUOUS
 10
741.4061798237
 20
193.1294872858
 40
137.5812106844
100
AcDbArc
 50
10.1048285804
 51
10.3013136094
  0
ARC
  5
45B
100
AcDbEntity
  8
BEZUGSACHSEN
100
AcDbCircle
 62
7
  6
CONTINUOUS
 10
791.1811165337
 20
196.8697406307
 40
88.410219316
100
AcDbArc
 50
11.8368763123
 51
12.0953251561
  0
ARC
  5
45C
100
AcDbEntity
  8
BEZUGSACHSEN
100
AcDbCircle
 62
7
  6
CONTINUOUS
 10
796.0090442193
 20
205.5114883071
 40
81.6089619867
100
AcDbArc
 50
8.5974313024
 51
8.7910632532
  0
ARC
  5
45D
100
AcDbEntity
  8
BEZUGSACHSEN
100
AcDbCircle
 62
7
  6
CONTINUOUS
 10
804.1257516956
 20
193.1347619286
 40
76.7484972067
100
AcDbArc
 50
17.1064727541
 51
17.3095783696
  0
ARC
  5
45E
100
AcDbEntity
  8
KONSTRUKTIONSELEMENTE
100
AcDbCircle
 62
7
  6
CONTINUOUS
 10
792.736394128
 20
228.1095942288
 40
61.4979562948
100
AcDbArc
 50
310.9160305483
 51
314.5539672013
  0
ARC
  5
45F
100
AcDbEntity
  8
KONSTRUKTIONSELEMENTE
100
AcDbCircle
 62
7
  6
CONTINUOUS
 10
793.6859394081
 20
227.0364154456
 40
53.0650820606
100
AcDbArc
 50
310.9031853114
 51
313.0579202974
  0
ARC
  5
460
100
AcDbEntity
  8
KONSTRUKTIONSELEMENTE
100
AcDbCircle
 62
7
  6
CONTINUOUS
 10
807.2307042588
 20
176.8999549218
 40
6.8544496741
100
AcDbArc
 50
180.0468621101
 51
190.0347873196
  0
ARC
  5
461
100
AcDbEntity
  8
KONSTRUKTIONSELEMENTE
100
AcDbCircle
 62
7
  6
CONTINUOUS
 10
808.4089477327
 20
177.9055092269
 40
3.4480880967
100
AcDbArc
 50
240.3855846734
 51
242.1133696712
  0
ARC
  5
462
100
AcDbEntity
  8
BEZUGSACHSEN
100
AcDbCircle
 62
7
  6
CONTINUOUS
 10
819.2635141225
 20
198.8432341573
 40
60.7765736084
100
AcDbArc
 50
20.8299732226
 51
21.1247537386
  0
ARC
  5
463
100
AcDbEntity
  8
BEZUGSACHSEN
100
AcDbCircle
 62
7
  6
CONTINUOUS
 10
842.5853038747
 20
202.9268694121
 40
37.0616906703
100
AcDbArc
 50
18.5941907834
 51
18.9881966908
  0
ARC
  5
464
100
AcDbEntity
  8
BEZUGSACHSEN
100
AcDbCircle
 62
7
  6
CONTINUOUS
 10
856.1656231252
 20
211.2557522812
 40
21.8694930883
100
AcDbArc
 50
9.3713786519
 51
9.8713388107
  0
ARC
  5
465
100
AcDbEntity
  8
BEZUGSACHSEN
100
AcDbCircle
 62
7
  6
CONTINUOUS
 10
879.4687860274
 20
211.2657229141
 40
21.8101823595
100
AcDbArc
 50
170.1281348791
 51
170.7964636834
  0
ARC
  5
466
100
AcDbEntity
  8
BEZUGSACHSEN
100
AcDbCircle
 62
7
  6
CONTINUOUS
 10
879.3089291389
 20
217.4049757757
 40
20.1985271912
100
AcDbArc
 50
168.1064990848
 51
168.6184771333
  0
ARC
  5
467
100
AcDbEntity
  8
BEZUGSACHSEN
100
AcDbCircle
 62
7
  6
CONTINUOUS
 10
859.3615963887
 20
220.4635884021
 40
16.560872099
100
AcDbArc
 50
357.4443664031
 51
0.804398237
  0
ARC
  5
468
100
AcDbEntity
  8
KONSTRUKTIONSELEMENTE
100
AcDbCircle
 62
7
  6
CONTINUOUS
 10
858.7646192386
 20
220.4940924052
 40
16.5299841953
100
AcDbArc
 50
357.3337455373
 51
0.700160144
  0
ARC
  5
469
100
AcDbEntity
  8
BEZUGSACHSEN
100
AcDbCircle
 62
7
  6
CONTINUOUS
 10
859.9083892669
 20
219.707093474
 40
16.2093213207
100
AcDbArc
 50
358.2481837108
 51
0.9655117914
  0
ARC
  5
46A
100
AcDbEntity
  8
BEZUGSACHSEN
100
AcDbCircle
 62
7
  6
CONTINUOUS
 10
861.4854812496
 20
217.4381627025
 40
15.2179432006
100
AcDbArc
 50
358.1340068396
 51
1.0284018719
  0
ARC
  5
46B
100
AcDbEntity
  8
BEZUGSACHSEN
100
AcDbCircle
 62
7
  6
CONTINUOUS
 10
862.1165526123
 20
216.5306184318
 40
14.8211583769
100
AcDbArc
 50
358.0839190111
 51
0.7429959064
  0
ARC
  5
46C
100
AcDbEntity
  8
BEZUGSACHSEN
100
AcDbCircle
 62
7
  6
CONTINUOUS
 10
873.3559920144
 20
219.7630417036
 40
13.8557129813
100
AcDbArc
 50
168.5032923282
 51
169.2664985977
  0
ARC
  5
46D
100
AcDbEntity
  8
BEZUGSACHSEN
100
AcDbCircle
 62
7
  6
CONTINUOUS
 10
871.4805036057
 20
213.3497733207
 40
13.5454168863
100
AcDbArc
 50
176.5998559684
 51
177.7991760087
  0
ARC
  5
46E
100
AcDbEntity
  8
BEZUGSACHSEN
100
AcDbCircle
 62
7
  6
CONTINUOUS
 10
864.21237254
 20
213.3497733207
 40
13.5454168863
100
AcDbArc
 50
2.2008239913
 51
3.4001440316
  0
ARC
  5
46F
100
AcDbEntity
  8
BEZUGSACHSEN
100
AcDbCircle
 62
7
  6
CONTINUOUS
 10
871.4642529021
 20
213.3575737546
 40
13.5291493457
100
AcDbArc
 50
182.1138207741
 51
183.1428936214
  0
ARC
  5
470
100
AcDbEntity
  8
BEZUGSACHSEN
100
AcDbCircle
 62
7
  6
CONTINUOUS
 10
864.2286232436
 20
213.3575737546
 40
13.5291493457
100
AcDbArc
 50
356.8571063786
 51
357.8861792259
  0
ARC
  5
471
100
AcDbEntity
  8
BEZUGSACHSEN
100
AcDbCircle
 62
7
  6
CONTINUOUS
 10
870.0247866116
 20
212.5560395997
 40
12.3337578638
100
AcDbArc
 50
163.1651327656
 51
163.8539916814
  0
ARC
  5
472
100
AcDbEntity
  8
0
100
AcDbCircle
 62
7
  6
CONTINUOUS
 10
865.8464380729
 20
211.1719656568
 40
8.0
100
AcDbArc
 50
166.25
 51
180.0
  0
ARC
  5
473
100
AcDbEntity
  8
BEZUGSACHSEN
100
AcDbCircle
 62
7
  6
CONTINUOUS
 10
869.8464380729
 20
211.1719656568
 40
8.0
100
AcDbArc
 50
0.0
 51
10.3676640748
  0
ARC
  5
474
100
AcDbEntity
  8
BEZUGSACHSEN
100
AcDbCircle
 62
7
  6
CONTINUOUS
 10
864.9348448025
 20
212.910373775
 40
7.3055244341
100
AcDbArc
 50
162.0086431293
 51
163.1418951876
  0
ARC
  5
475
100
AcDbEntity
  8
BEZUGSACHSEN
100
AcDbCircle
 62
7
  6
CONTINUOUS
 10
872.9069639798
 20
213.4314429303
 40
5.1083414564
100
AcDbArc
 50
25.4520008681
 51
26.4928339422
  0
ARC
  5
476
100
AcDbEntity
  8
BEZUGSACHSEN
100
AcDbCircle
 62
7
  6
CONTINUOUS
 10
873.7414165286
 20
217.0423840509
 40
3.7771388453
100
AcDbArc
 50
50.3432750977
 51
51.0592708865
  0
ARC
  5
477
100
AcDbEntity
  8
BEZUGSACHSEN
100
AcDbCircle
 62
7
  6
CONTINUOUS
 10
872.3720460217
 20
222.1216006063
 40
3.546715692
100
AcDbArc
 50
3.8417287611
 51
5.6515427936
  0
ARC
  5
478
100
AcDbEntity
  8
BEZUGSACHSEN
100
AcDbCircle
 62
7
  6
CONTINUOUS
 10
872.3795999371
 20
222.1264904755
 40
3.5391379681
100
AcDbArc
 50
354.7234829769
 51
356.5362232297
  0
ARC
  5
479
100
AcDbEntity
  8
KONSTRUKTIONSELEMENTE
100
AcDbCircle
 62
7
  6
CONTINUOUS
 10
871.7604730445
 20
222.1335039675
 40
3.5342083402
100
AcDbArc
 50
3.6619542847
 51
5.477717043
  0
ARC
  5
47A
100
AcDbEntity
  8
KONSTRUKTIONSELEMENTE
100
AcDbCircle
 62
7
  6
CONTINUOUS
 10
871.760473052
 20
222.1383932498
 40
3.5342083326
100
AcDbArc
 50
354.5222829559
 51
356.3380465829
  0
ARC
  5
47B
100
AcDbEntity
  8
BEZUGSACHSEN
100
AcDbCircle
 62
7
  6
CONTINUOUS
 10
874.5964462405
 20
215.6523895158
 40
2.9231845158
100
AcDbArc
 50
359.4979812155
 51
0.9568563144
  0
ARC
  5
47C
100
AcDbEntity
  8
BEZUGSACHSEN
100
AcDbCircle
 62
7
  6
CONTINUOUS
 10
860.7781760464
 20
214.7052737707
 40
2.8392163978
100
AcDbArc
 50
179.0148416159
 51
180.5168652148
  0
ARC
  5
47D
100
AcDbEntity
  8
BEZUGSACHSEN
100
AcDbCircle
 62
7
  6
CONTINUOUS
 10
874.9147000993
 20
214.7052737707
 40
2.8392163978
100
AcDbArc
 50
359.4831347852
 51
0.9851583841
  0
ARC
  5
47E
100
AcDbEntity
  8
BEZUGSACHSEN
100
AcDbCircle
 62
7
  6
CONTINUOUS
 10
875.7728912775
 20
213.460082347
 40
2.3262365842
100
AcDbArc
 50
31.6192040159
 51
33.5136128033
  0
ARC
  5
47F
100
AcDbEntity
  8
KONSTRUKTIONSELEMENTE
100
AcDbCircle
 62
7
  6
CONTINUOUS
 10
873.7803874139
 20
221.7808849077
 40
1.8616938192
100
AcDbArc
 50
324.3596891375
 51
326.2691884974
  0
ARC
  5
480
100
AcDbEntity
  8
BEZUGSACHSEN
100
AcDbCircle
 62
7
  6
CONTINUOUS
 10
874.4162159586
 20
221.7640111814
 40
1.8450875531
100
AcDbArc
 50
324.6342309463
 51
326.5544482803
  0
ARC
  5
481
100
AcDbEntity
  8
BEZUGSACHSEN
100
AcDbCircle
 62
7
  6
CONTINUOUS
 10
858.3355608532
 20
216.0052652034
 40
0.1592250947
100
AcDbArc
 50
179.9708002296
 51
186.9908420405
  0
ARC
  5
482
100
AcDbEntity
  8
0
100
AcDbCircle
 62
7
  6
CONTINUOUS
 10
867.8464380729
 20
284.5336286401
 40
20.0
100
AcDbArc
 50
180.0
 51
360.0
  0
ARC
  5
483
100
AcDbEntity
  8
BEZUGSACHSEN
100
AcDbCircle
 62
7
  6
CONTINUOUS
 10
1111.9533058967
 20
149.013677828
 40
262.4365358704
100
AcDbArc
 50
165.1916039714
 51
165.3317118774
  0
ARC
  5
484
100
AcDbEntity
  8
BEZUGSACHSEN
100
AcDbCircle
 62
7
  6
CONTINUOUS
 10
1108.1146054837
 20
164.8819544489
 40
254.9282385304
100
AcDbArc
 50
167.0509818549
 51
167.1941060374
  0
ARC
  5
485
100
AcDbEntity
  8
RUNDUNGEN
100
AcDbCircle
 62
7
  6
CONTINUOUS
 10
885.0213073772
 20
104.7604524449
 40
5.352071967
100
AcDbArc
 50
326.6405178837
 51
329.8387757758
  0
ARC
  5
486
100
AcDbEntity
  8
RUNDUNGEN
100
AcDbCircle
 62
7
  6
CONTINUOUS
 10
885.9101617564
 20
100.3079340161
 40
2.0131481011
100
AcDbArc
 50
305.3759312684
 51
323.8886237019
  0
ARC
  5
487
100
AcDbEntity
  8
BEZUGSACHSEN
100
AcDbCircle
 62
7
  6
CONTINUOUS
 10
960.1605454779
 20
189.1250176125
 40
105.4567171912
100
AcDbArc
 50
164.9916523699
 51
165.1208694642
  0
ARC
  5
488
100
AcDbEntity
  8
BEZUGSACHSEN
100
AcDbCircle
 62
7
  6
CONTINUOUS
 10
930.7326975251
 20
206.6576865927
 40
72.7023125178
100
AcDbArc
 50
167.5401979308
 51
167.8114506633
  0
ARC
  5
489
100
AcDbEntity
  8
BEZUGSACHSEN
100
AcDbCircle
 62
7
  6
CONTINUOUS
 10
911.8766451663
 20
200.4039208671
 40
55.8756472896
100
AcDbArc
 50
164.3589695837
 51
164.6799506588
  0
ARC
  5
48A
100
AcDbEntity
  8
0
100
AcDbCircle
 62
7
  6
CONTINUOUS
 10
867.8464380729
 20
784.5336286401
 40
20.0
100
AcDbArc
 50
0.0
 51
180.0
  0
SPLINE
  5
48B
100
AcDbEntity
  8
KONSTRUKTIONSELEMENTE
100
AcDbSpline
 62
7
  6
CONTINUOUS
 70
0
 71
3
 72
10
 73
6
 74
0
 42
0.0000001
 43
0.0000001
 44
0.0000000001
 40
0.0
 40
0.0
 40
0.0
 40
0.0
 40
0.3116645009
 40
0.6060899939
 40
1.0
 40
1.0
 40
1.0
 40
1.0
 10
161.2485613998
 20
144.0686296592
 30
0.0
 10
161.347138823
 20
144.2393707647
 30
0.0
 10
161.3703974265
 20
144.6547129606
 30
0.0
 10
161.1912838662
 20
145.2591177132
 30
0.0
 10
160.9772837337
 20
145.6452612353
 30
0.0
 10
160.8364308186
 20
145.8508147766
 30
0.0
  0
SPLINE
  5
48C
100
AcDbEntity
  8
KONSTRUKTIONSELEMENTE
100
AcDbSpline
 62
7
  6
CONTINUOUS
 70
0
 71
3
 72
10
 73
6
 74
0
 42
0.0000001
 43
0.0000001
 44
0.0000000001
 40
0.0
 40
0.0
 40
0.0
 40
0.0
 40
0.3939255147
 40
0.6883533687
 40
1.0
 40
1.0
 40
1.0
 40
1.0
 10
156.9361325573
 20
148.102782271
 30
0.0
 10
156.6876482495
 20
148.1220106369
 30
0.0
 10
156.2461673072
 20
148.1142682576
 30
0.0
 10
155.6330724605
 20
147.9672398685
 30
0.0
 10
155.2849692252
 20
147.7393850172
 30
0.0
 10
155.1863835733
 20
147.5686296592
 30
0.0
  0
SPLINE
  5
48D
100
AcDbEntity
  8
KONSTRUKTIONSELEMENTE
100
AcDbSpline
 62
7
  6
CONTINUOUS
 70
0
 71
3
 72
13
 73
9
 74
0
 42
0.0000001
 43
0.0000001
 44
0.0000000001
 40
0.0
 40
0.0
 40
0.0
 40
0.0
 40
0.1194785188
 40
0.2392741704
 40
0.3602835725
 40
0.4830059608
 40
0.7355440041
 40
1.0
 40
1.0
 40
1.0
 40
1.0
 10
165.1456757168
 20
141.8186296592
 30
0.0
 10
165.3249955224
 20
142.1292206733
 30
0.0
 10
165.6193482154
 20
142.7912454592
 30
0.0
 10
165.8464785552
 20
143.855799203
 30
0.0
 10
165.8614622319
 20
144.9537206227
 30
0.0
 10
165.6072634233
 20
146.4288265025
 30
0.0
 10
164.8031424399
 20
148.2086853892
 30
0.0
 10
163.7851415699
 20
149.4055630451
 30
0.0
 10
163.2024740794
 20
149.9446810528
 30
0.0
  0
SPLINE
  5
48E
100
AcDbEntity
  8
KONSTRUKTIONSELEMENTE
100
AcDbSpline
 62
7
  6
CONTINUOUS
 70
0
 71
3
 72
13
 73
9
 74
0
 42
0.0000001
 43
0.0000001
 44
0.0000000001
 40
0.0
 40
0.0
 40
0.0
 40
0.0
 40
0.2644681654
 40
0.5169944072
 40
0.6397129492
 40
0.760706397
 40
0.8805228501
 40
1.0
 40
1.0
 40
1.0
 40
1.0
 10
159.3001340449
 20
152.1981960433
 30
0.0
 10
158.5417462354
 20
152.4334244784
 30
0.0
 10
156.995943187
 20
152.7169967552
 30
0.0
 10
155.0520141908
 20
152.5237137816
 30
0.0
 10
153.6471648635
 20
152.0063872884
 30
0.0
 10
152.7034900335
 20
151.4445280525
 30
0.0
 10
151.8949627859
 20
150.7153464536
 30
0.0
 10
151.4686263914
 20
150.12928533
 30
0.0
 10
151.2892692563
 20
149.8186296592
 30
0.0
  0
SPLINE
  5
48F
100
AcDbEntity
  8
KONSTRUKTIONSELEMENTE
100
AcDbSpline
 62
7
  6
CONTINUOUS
 70
0
 71
3
 72
9
 73
5
 74
0
 42
0.0000001
 43
0.0000001
 44
0.0000000001
 40
0.0
 40
0.0
 40
0.0
 40
0.0
 40
0.4991894641
 40
1.0
 40
1.0
 40
1.0
 40
1.0
 10
145.9859683974
 20
140.6330431237
 30
0.0
 10
145.7984792522
 20
140.3083023984
 30
0.0
 10
145.4937623247
 20
139.6141819464
 30
0.0
 10
145.3462594885
 20
138.8712555543
 30
0.0
 10
145.3107962623
 20
138.4967348094
 30
0.0
  0
SPLINE
  5
490
100
AcDbEntity
  8
KONSTRUKTIONSELEMENTE
100
AcDbSpline
 62
7
  6
CONTINUOUS
 70
0
 71
3
 72
9
 73
5
 74
0
 42
0.0000001
 43
0.0000001
 44
0.0000000001
 40
0.0
 40
0.0
 40
0.0
 40
0.0
 40
0.5008476774
 40
1.0
 40
1.0
 40
1.0
 40
1.0
 10
158.3299050283
 20
130.9801460325
 30
0.0
 10
158.6365271203
 20
131.1981487023
 30
0.0
 10
159.2061067951
 20
131.6974095297
 30
0.0
 10
159.6549010863
 20
132.3083290261
 30
0.0
 10
159.8423748579
 20
132.6330431237
 30
0.0
  0
SPLINE
  5
491
100
AcDbEntity
  8
KONSTRUKTIONSELEMENTE
100
AcDbSpline
 62
7
  6
CONTINUOUS
 70
0
 71
3
 72
10
 73
6
 74
0
 42
0.0000001
 43
0.0000001
 44
0.0000000001
 40
0.0
 40
0.0
 40
0.0
 40
0.0
 40
0.3192646009
 40
0.6086079864
 40
1.0
 40
1.0
 40
1.0
 40
1.0
 10
149.8830827144
 20
138.3830431237
 30
0.0
 10
149.7972128268
 20
138.2343121156
 30
0.0
 10
149.7597764982
 20
137.8854389193
 30
0.0
 10
149.8798976301
 20
137.3618827934
 30
0.0
 10
150.0360326413
 20
137.0257409001
 30
0.0
 10
150.1416564169
 20
136.8436140439
 30
0.0
  0
SPLINE
  5
492
100
AcDbEntity
  8
KONSTRUKTIONSELEMENTE
100
AcDbSpline
 62
7
  6
CONTINUOUS
 70
0
 71
3
 72
10
 73
6
 74
0
 42
0.0000001
 43
0.0000001
 44
0.0000000001
 40
0.0
 40
0.0
 40
0.0
 40
0.0
 40
0.3914026107
 40
0.6807340322
 40
1.0
 40
1.0
 40
1.0
 40
1.0
 10
154.4828945073
 20
134.3372596522
 30
0.0
 10
154.6934254418
 20
134.3368554403
 30
0.0
 10
155.0625681579
 20
134.3697502183
 30
0.0
 10
155.5760273616
 20
134.5274462376
 30
0.0
 10
155.8593956481
 20
134.7343207668
 30
0.0
 10
155.9452605409
 20
134.8830431237
 30
0.0
  0
SPLINE
  5
493
100
AcDbEntity
  8
KONSTRUKTIONSELEMENTE
100
AcDbSpline
 62
7
  6
CONTINUOUS
 70
0
 71
3
 72
10
 73
6
 74
0
 42
0.0000001
 43
0.0000001
 44
0.0000000001
 40
0.0
 40
0.0
 40
0.0
 40
0.0
 40
0.3192646009
 40
0.6086079864
 40
1.0
 40
1.0
 40
1.0
 40
1.0
 10
176.8049105859
 20
171.0130168298
 30
0.0
 10
176.8907804735
 20
171.161747838
 30
0.0
 10
176.9282168021
 20
171.5106210342
 30
0.0
 10
176.8080956702
 20
172.0341771601
 30
0.0
 10
176.6519606591
 20
172.3703190534
 30
0.0
 10
176.5463368835
 20
172.5524459096
 30
0.0
  0
SPLINE
  5
494
100
AcDbEntity
  8
KONSTRUKTIONSELEMENTE
100
AcDbSpline
 62
7
  6
CONTINUOUS
 70
0
 71
3
 72
10
 73
6
 74
0
 42
0.0000001
 43
0.0000001
 44
0.0000000001
 40
0.0
 40
0.0
 40
0.0
 40
0.0
 40
0.3914026107
 40
0.6807340322
 40
1.0
 40
1.0
 40
1.0
 40
1.0
 10
172.205098793
 20
175.0588003014
 30
0.0
 10
171.9945678585
 20
175.0592045132
 30
0.0
 10
171.6254251424
 20
175.0263097352
 30
0.0
 10
171.1119659387
 20
174.8686137159
 30
0.0
 10
170.8285976522
 20
174.6617391867
 30
0.0
 10
170.7427327594
 20
174.5130168298
 30
0.0
  0
SPLINE
  5
495
100
AcDbEntity
  8
KONSTRUKTIONSELEMENTE
100
AcDbSpline
 62
7
  6
CONTINUOUS
 70
0
 71
3
 72
11
 73
7
 74
0
 42
0.0000001
 43
0.0000001
 44
0.0000000001
 40
0.0
 40
0.0
 40
0.0
 40
0.0
 40
0.24010058
 40
0.4841137023
 40
0.7364993782
 40
1.0
 40
1.0
 40
1.0
 40
1.0
 10
180.7020249029
 20
168.7630168298
 30
0.0
 10
181.0305249429
 20
169.3319955894
 30
0.0
 10
181.4702651833
 20
170.6223768114
 30
0.0
 10
181.383404302
 20
172.6746446207
 30
0.0
 10
180.6396461001
 20
174.6474614596
 30
0.0
 10
179.7995576746
 20
175.8028155326
 30
0.0
 10
179.3120019139
 20
176.3340169001
 30
0.0
  0
SPLINE
  5
496
100
AcDbEntity
  8
KONSTRUKTIONSELEMENTE
100
AcDbSpline
 62
7
  6
CONTINUOUS
 70
0
 71
3
 72
11
 73
7
 74
0
 42
0.0000001
 43
0.0000001
 44
0.0000000001
 40
0.0
 40
0.0
 40
0.0
 40
0.0
 40
0.2634705937
 40
0.5158307568
 40
0.7598429114
 40
1.0
 40
1.0
 40
1.0
 40
1.0
 10
174.0826233831
 20
179.347979286
 30
0.0
 10
173.3799258035
 20
179.5032218922
 30
0.0
 10
171.9618340238
 20
179.6506477965
 30
0.0
 10
169.8858894842
 20
179.3063155509
 30
0.0
 10
168.0692630676
 20
178.3556118304
 30
0.0
 10
167.1736001149
 20
177.3310977506
 30
0.0
 10
166.8456184424
 20
176.7630168298
 30
0.0
  0
SPLINE
  5
497
100
AcDbEntity
  8
KONSTRUKTIONSELEMENTE
100
AcDbSpline
 62
7
  6
CONTINUOUS
 70
0
 71
3
 72
9
 73
5
 74
0
 42
0.0000001
 43
0.0000001
 44
0.0000000001
 40
0.0
 40
0.0
 40
0.0
 40
0.0
 40
0.231295784
 40
1.0
 40
1.0
 40
1.0
 40
1.0
 10
168.8648113481
 20
199.6987489646
 30
0.0
 10
168.9374365059
 20
199.2222241828
 30
0.0
 10
169.3684622261
 20
197.1800049322
 30
0.0
 10
170.2343327792
 20
195.2429092606
 30
0.0
 10
171.0512916238
 20
193.8648708866
 30
0.0
  0
SPLINE
  5
498
100
AcDbEntity
  8
KONSTRUKTIONSELEMENTE
100
AcDbSpline
 62
7
  6
CONTINUOUS
 70
0
 71
3
 72
9
 73
5
 74
0
 42
0.0000001
 43
0.0000001
 44
0.0000000001
 40
0.0
 40
0.0
 40
0.0
 40
0.0
 40
0.2693689048
 40
1.0
 40
1.0
 40
1.0
 40
1.0
 10
193.4099680145
 20
180.9561569753
 30
0.0
 10
193.9712851085
 20
180.9496811394
 30
0.0
 10
196.053466144
 20
181.0106809911
 30
0.0
 10
198.1382768876
 20
181.4259103844
 30
0.0
 10
199.5564845349
 20
181.9800038274
 30
0.0
  0
SPLINE
  5
499
100
AcDbEntity
  8
KONSTRUKTIONSELEMENTE
100
AcDbSpline
 62
7
  6
CONTINUOUS
 70
0
 71
3
 72
9
 73
5
 74
0
 42
0.0000001
 43
0.0000001
 44
0.0000000001
 40
0.0
 40
0.0
 40
0.0
 40
0.0
 40
0.4853819776
 40
1.0
 40
1.0
 40
1.0
 40
1.0
 10
163.1332606781
 20
194.1993729103
 30
0.0
 10
163.9714976365
 20
192.0051584248
 30
0.0
 10
166.3772703329
 20
187.7309780399
 30
0.0
 10
169.7203410061
 20
184.171135894
 30
0.0
 10
171.6059582744
 20
182.5443843823
 30
0.0
  0
SPLINE
  5
49A
100
AcDbEntity
  8
KONSTRUKTIONSELEMENTE
100
AcDbSpline
 62
7
  6
CONTINUOUS
 70
0
 71
3
 72
9
 73
5
 74
0
 42
0.0000001
 43
0.0000001
 44
0.0000000001
 40
0.0
 40
0.0
 40
0.0
 40
0.0
 40
0.5146328688
 40
1.0
 40
1.0
 40
1.0
 40
1.0
 10
183.308030104
 20
175.7834788634
 30
0.0
 10
185.6626227098
 20
174.9612030538
 30
0.0
 10
190.4234899473
 20
173.8418606173
 30
0.0
 10
195.3352222349
 20
173.8944555428
 30
0.0
 10
197.6578906906
 20
174.2660934494
 30
0.0
  0
SPLINE
  5
49B
100
AcDbEntity
  8
KONSTRUKTIONSELEMENTE
100
AcDbSpline
 62
7
  6
CONTINUOUS
 70
0
 71
3
 72
12
 73
8
 74
0
 42
0.0000001
 43
0.0000001
 44
0.0000000001
 40
0.0
 40
0.0
 40
0.0
 40
0.0
 40
0.1038096184
 40
0.2125411153
 40
0.4501979882
 40
0.7163641136
 40
1.0
 40
1.0
 40
1.0
 40
1.0
 10
96.3218176645
 20
53.2685410708
 30
0.0
 10
96.4177056831
 20
53.53038318
 30
0.0
 10
96.545177517
 20
54.0939707094
 30
0.0
 10
96.5271347178
 20
55.3123595122
 30
0.0
 10
95.9690851625
 20
56.9059415991
 30
0.0
 10
94.6594947164
 20
58.5997738638
 30
0.0
 10
93.4667189088
 20
59.5032626569
 30
0.0
 10
92.8069062879
 20
59.8842056513
 30
0.0
  0
SPLINE
  5
49C
100
AcDbEntity
  8
KONSTRUKTIONSELEMENTE
100
AcDbSpline
 62
7
  6
CONTINUOUS
 70
0
 71
3
 72
9
 73
5
 74
0
 42
0.0000001
 43
0.0000001
 44
0.0000000001
 40
0.0
 40
0.0
 40
0.0
 40
0.0
 40
0.2454868499
 40
1.0
 40
1.0
 40
1.0
 40
1.0
 10
100.4692331814
 20
116.5731321407
 30
0.0
 10
100.4970262921
 20
116.6212670785
 30
0.0
 10
100.5967868277
 20
116.8250676776
 30
0.0
 10
100.6368163653
 20
117.0560710944
 30
0.0
 10
100.635739424
 20
117.2269030361
 30
0.0
  0
SPLINE
  5
49D
100
AcDbEntity
  8
KONSTRUKTIONSELEMENTE
100
AcDbSpline
 62
7
  6
CONTINUOUS
 70
0
 71
3
 72
11
 73
7
 74
0
 42
0.0000001
 43
0.0000001
 44
0.0000000001
 40
0.0
 40
0.0
 40
0.0
 40
0.0
 40
0.2187337062
 40
0.4541366386
 40
0.7148275965
 40
1.0
 40
1.0
 40
1.0
 40
1.0
 10
90.3216586608
 20
122.1544937929
 30
0.0
 10
90.4055479366
 20
122.2997817792
 30
0.0
 10
90.6479693607
 20
122.5658771747
 30
0.0
 10
91.1542706214
 20
122.8035059433
 30
0.0
 10
91.7565865629
 20
122.8789554608
 30
0.0
 10
92.1761373406
 20
122.8232452197
 30
0.0
 10
92.3886628279
 20
122.7715351257
 30
0.0
  0
SPLINE
  5
49E
100
AcDbEntity
  8
KONSTRUKTIONSELEMENTE
100
AcDbSpline
 62
7
  6
CONTINUOUS
 70
0
 71
3
 72
11
 73
7
 74
0
 42
0.0000001
 43
0.0000001
 44
0.0000000001
 40
0.0
 40
0.0
 40
0.0
 40
0.0
 40
0.2187528453
 40
0.4541377748
 40
0.7148402389
 40
1.0
 40
1.0
 40
1.0
 40
1.0
 10
90.8788823688
 20
142.2797635355
 30
0.0
 10
91.1585520664
 20
142.7640883672
 30
0.0
 10
91.9665763238
 20
143.6511095405
 30
0.0
 10
93.6543092349
 20
144.4431844111
 30
0.0
 10
95.6619877382
 20
144.6944893819
 30
0.0
 10
97.0604796009
 20
144.5088540732
 30
0.0
 10
97.7688636689
 20
144.33649542
 30
0.0
  0
SPLINE
  5
49F
100
AcDbEntity
  8
KONSTRUKTIONSELEMENTE
100
AcDbSpline
 62
7
  6
CONTINUOUS
 70
0
 71
3
 72
9
 73
5
 74
0
 42
0.0000001
 43
0.0000001
 44
0.0000000001
 40
0.0
 40
0.0
 40
0.0
 40
0.0
 40
0.4910898138
 40
1.0
 40
1.0
 40
1.0
 40
1.0
 10
89.1110759808
 20
139.2178323246
 30
0.0
 10
88.9253483179
 20
138.8961809681
 30
0.0
 10
88.6386451838
 20
138.1843625416
 30
0.0
 10
88.5536356176
 20
137.4234848517
 30
0.0
 10
88.5560620167
 20
137.0385924806
 30
0.0
  0
SPLINE
  5
4A0
100
AcDbEntity
  8
KONSTRUKTIONSELEMENTE
100
AcDbSpline
 62
7
  6
CONTINUOUS
 70
0
 71
3
 72
9
 73
5
 74
0
 42
0.0000001
 43
0.0000001
 44
0.0000000001
 40
0.0
 40
0.0
 40
0.0
 40
0.0
 40
0.4910906792
 40
1.0
 40
1.0
 40
1.0
 40
1.0
 10
133.296060917
 20
50.7745169416
 30
0.0
 10
133.4817564975
 20
51.0962024557
 30
0.0
 10
133.9548656798
 20
51.700432322
 30
0.0
 10
134.5713202589
 20
52.1545105816
 30
0.0
 10
134.9058710671
 20
52.344861724
 30
0.0
  0
SPLINE
  5
4A1
100
AcDbEntity
  8
KONSTRUKTIONSELEMENTE
100
AcDbSpline
 62
7
  6
CONTINUOUS
 70
0
 71
3
 72
11
 73
7
 74
0
 42
0.0000001
 43
0.0000001
 44
0.0000000001
 40
0.0
 40
0.0
 40
0.0
 40
0.0
 40
0.2239782306
 40
0.4651644091
 40
0.7245589301
 40
1.0
 40
1.0
 40
1.0
 40
1.0
 10
134.526903735
 20
52.1042125645
 30
0.0
 10
134.4884380693
 20
51.6681026762
 30
0.0
 10
134.5392174304
 20
50.7479762798
 30
0.0
 10
134.9570661268
 20
49.383275134
 30
0.0
 10
135.6923919944
 20
48.0460745115
 30
0.0
 10
136.3558378657
 20
47.2305186916
 30
0.0
 10
136.7276364593
 20
46.8411143403
 30
0.0
  0
SPLINE
  5
4A2
100
AcDbEntity
  8
KONSTRUKTIONSELEMENTE
100
AcDbSpline
 62
7
  6
CONTINUOUS
 70
0
 71
3
 72
11
 73
7
 74
0
 42
0.0000001
 43
0.0000001
 44
0.0000000001
 40
0.0
 40
0.0
 40
0.0
 40
0.0
 40
0.2094829334
 40
0.4446557434
 40
0.7120095299
 40
1.0
 40
1.0
 40
1.0
 40
1.0
 10
85.3958499309
 20
40.6478795032
 30
0.0
 10
85.283401061
 20
40.4531123473
 30
0.0
 10
85.168377718
 20
39.9617662993
 30
0.0
 10
85.3761289062
 20
39.2031308046
 30
0.0
 10
85.8788584035
 20
38.5027652437
 30
0.0
 10
86.3580230749
 20
38.1327767853
 30
0.0
 10
86.6257827626
 20
37.9781856576
 30
0.0
  0
SPLINE
  5
4A3
100
AcDbEntity
  8
KONSTRUKTIONSELEMENTE
100
AcDbSpline
 62
7
  6
CONTINUOUS
 70
0
 71
3
 72
9
 73
5
 74
0
 42
0.0000001
 43
0.0000001
 44
0.0000000001
 40
0.0
 40
0.0
 40
0.0
 40
0.0
 40
0.4517053273
 40
1.0
 40
1.0
 40
1.0
 40
1.0
 10
143.3426132956
 20
39.3876208728
 30
0.0
 10
143.3996034046
 20
39.4863446135
 30
0.0
 10
143.4187149957
 20
39.7663424072
 30
0.0
 10
143.271788597
 20
39.9870773388
 30
0.0
 10
143.1762364248
 20
40.0871541876
 30
0.0
  0
SPLINE
  5
4A4
100
AcDbEntity
  8
KONSTRUKTIONSELEMENTE
100
AcDbSpline
 62
7
  6
CONTINUOUS
 70
0
 71
3
 72
9
 73
5
 74
0
 42
0.0000001
 43
0.0000001
 44
0.0000000001
 40
0.0
 40
0.0
 40
0.0
 40
0.0
 40
0.5089312496
 40
1.0
 40
1.0
 40
1.0
 40
1.0
 10
197.7433187015
 20
68.2187957306
 30
0.0
 10
198.0779190894
 20
68.4091750826
 30
0.0
 10
198.6944528063
 20
68.8633013319
 30
0.0
 10
199.1675256588
 20
69.4676546087
 30
0.0
 10
199.3532429962
 20
69.789353487
 30
0.0
  0
SPLINE
  5
4A5
100
AcDbEntity
  8
KONSTRUKTIONSELEMENTE
100
AcDbSpline
 62
7
  6
CONTINUOUS
 70
0
 71
3
 72
9
 73
5
 74
0
 42
0.0000001
 43
0.0000001
 44
0.0000000001
 40
0.0
 40
0.0
 40
0.0
 40
0.0
 40
0.5358983849
 40
1.0
 40
1.0
 40
1.0
 40
1.0
 10
195.2373124596
 20
67.6525734417
 30
0.0
 10
195.378255793
 20
67.5049560267
 30
0.0
 10
195.7199954445
 20
67.3001583126
 30
0.0
 10
196.1419717507
 20
67.3076688883
 30
0.0
 10
196.295599208
 20
67.395079115
 30
0.0
  0
SPLINE
  5
4A6
100
AcDbEntity
  8
KONSTRUKTIONSELEMENTE
100
AcDbSpline
 62
7
  6
CONTINUOUS
 70
0
 71
3
 72
9
 73
5
 74
0
 42
0.0000001
 43
0.0000001
 44
0.0000000001
 40
0.0
 40
0.0
 40
0.0
 40
0.0
 40
0.2586509047
 40
1.0
 40
1.0
 40
1.0
 40
1.0
 10
141.4138693157
 20
36.1687310529
 30
0.0
 10
141.4308319969
 20
36.1783823993
 30
0.0
 10
141.4941556835
 20
36.219474639
 30
0.0
 10
141.5468805376
 20
36.2773136409
 30
0.0
 10
141.5748463426
 20
36.3257586943
 30
0.0
  0
SPLINE
  5
4A7
100
AcDbEntity
  8
KONSTRUKTIONSELEMENTE
100
AcDbSpline
 62
7
  6
CONTINUOUS
 70
0
 71
3
 72
11
 73
7
 74
0
 42
0.0000001
 43
0.0000001
 44
0.0000000001
 40
0.0
 40
0.0
 40
0.0
 40
0.0
 40
0.2745288198
 40
0.5376308219
 40
0.7805434542
 40
1.0
 40
1.0
 40
1.0
 40
1.0
 10
134.1491243375
 20
36.0152649314
 30
0.0
 10
134.6546703627
 20
35.7233877977
 30
0.0
 10
135.7066676021
 20
35.251586522
 30
0.0
 10
137.3442508531
 20
34.9066213515
 30
0.0
 10
138.9026224147
 20
34.9576193283
 30
0.0
 10
139.8536763687
 20
35.2810198218
 30
0.0
 10
140.259269402
 20
35.5117922346
 30
0.0
  0
SPLINE
  5
4A8
100
AcDbEntity
  8
KONSTRUKTIONSELEMENTE
100
AcDbSpline
 62
7
  6
CONTINUOUS
 70
0
 71
3
 72
12
 73
8
 74
0
 42
0.0000001
 43
0.0000001
 44
0.0000000001
 40
0.0
 40
0.0
 40
0.0
 40
0.0
 40
0.2874378001
 40
0.5543027143
 40
0.7890463209
 40
0.896415877
 40
1.0
 40
1.0
 40
1.0
 40
1.0
 10
116.5013613354
 20
46.2042056513
 30
0.0
 10
115.787368318
 20
46.6164297121
 30
0.0
 10
114.2934465428
 20
47.2285711577
 30
0.0
 10
112.0081132323
 20
47.4604074832
 30
0.0
 10
110.2630485137
 20
46.9924122154
 30
0.0
 10
109.2234690918
 20
46.2258227446
 30
0.0
 10
108.8446104699
 20
45.7423241313
 30
0.0
 10
108.6960570514
 20
45.4850220628
 30
0.0
  0
SPLINE
  5
4A9
100
AcDbEntity
  8
KONSTRUKTIONSELEMENTE
100
AcDbSpline
 62
7
  6
CONTINUOUS
 70
0
 71
3
 72
11
 73
7
 74
0
 42
0.0000001
 43
0.0000001
 44
0.0000000001
 40
0.0
 40
0.0
 40
0.0
 40
0.0
 40
0.2187538164
 40
0.4541436435
 40
0.7148565427
 40
1.0
 40
1.0
 40
1.0
 40
1.0
 10
201.1210099492
 20
72.8512156655
 30
0.0
 10
201.4006214059
 20
73.3355575868
 30
0.0
 10
201.7647081934
 20
74.4788599115
 30
0.0
 10
201.6067009532
 20
76.3364802875
 30
0.0
 10
200.8204916573
 20
78.2007615481
 30
0.0
 10
199.9605023105
 20
79.3190141896
 30
0.0
 10
199.4570872153
 20
79.8462674711
 30
0.0
  0
SPLINE
  5
4AA
100
AcDbEntity
  8
KONSTRUKTIONSELEMENTE
100
AcDbSpline
 62
7
  6
CONTINUOUS
 70
0
 71
3
 72
9
 73
5
 74
0
 42
0.0000001
 43
0.0000001
 44
0.0000000001
 40
0.0
 40
0.0
 40
0.0
 40
0.0
 40
0.2578752243
 40
1.0
 40
1.0
 40
1.0
 40
1.0
 10
99.8718801897
 20
120.9507752803
 30
0.0
 10
99.9343480508
 20
120.9355760729
 30
0.0
 10
100.1783565064
 20
120.8844515053
 30
0.0
 10
100.4294927247
 20
120.8648652178
 30
0.0
 10
100.6143569957
 20
120.872396935
 30
0.0
  0
SPLINE
  5
4AB
100
AcDbEntity
  8
KONSTRUKTIONSELEMENTE
100
AcDbSpline
 62
7
  6
CONTINUOUS
 70
0
 71
3
 72
11
 73
7
 74
0
 42
0.0000001
 43
0.0000001
 44
0.0000000001
 40
0.0
 40
0.0
 40
0.0
 40
0.0
 40
0.2879904701
 40
0.5553442566
 40
0.7905170666
 40
1.0
 40
1.0
 40
1.0
 40
1.0
 10
100.6207532877
 20
29.8981856576
 30
0.0
 10
100.8885129754
 20
29.7435945298
 30
0.0
 10
101.4485147152
 20
29.513619981
 30
0.0
 10
102.3064138315
 20
29.4284262455
 30
0.0
 10
103.0672870363
 20
29.6278261862
 30
0.0
 10
103.4352935243
 20
29.9731123473
 30
0.0
 10
103.5477423943
 20
30.1678795032
 30
0.0
  0
SPLINE
  5
4AC
100
AcDbEntity
  8
KONSTRUKTIONSELEMENTE
100
AcDbSpline
 62
7
  6
CONTINUOUS
 70
0
 71
3
 72
11
 73
7
 74
0
 42
0.0000001
 43
0.0000001
 44
0.0000000001
 40
0.0
 40
0.0
 40
0.0
 40
0.0
 40
0.2809363762
 40
0.5390132064
 40
0.7759685789
 40
1.0
 40
1.0
 40
1.0
 40
1.0
 10
116.2598508782
 20
46.1958408409
 30
0.0
 10
115.7824592161
 20
46.2463925268
 30
0.0
 10
114.8526955354
 20
46.2526733141
 30
0.0
 10
113.548157441
 20
45.9423637113
 30
0.0
 10
112.4656118919
 20
45.3205552027
 30
0.0
 10
111.9415921532
 20
44.7064537568
 30
0.0
 10
111.750181056
 20
44.3749200114
 30
0.0
  0
SPLINE
  5
4AD
100
AcDbEntity
  8
KONSTRUKTIONSELEMENTE
100
AcDbSpline
 62
7
  6
CONTINUOUS
 70
0
 71
3
 72
11
 73
7
 74
0
 42
0.0000001
 43
0.0000001
 44
0.0000000001
 40
0.0
 40
0.0
 40
0.0
 40
0.0
 40
0.2764757917
 40
0.5326342242
 40
0.7713875913
 40
1.0
 40
1.0
 40
1.0
 40
1.0
 10
93.5643749465
 20
59.3927383836
 30
0.0
 10
93.7613531429
 20
59.0437683798
 30
0.0
 10
94.0794708771
 20
58.3333062703
 30
0.0
 10
94.3000721787
 20
57.2262262713
 30
0.0
 10
94.2305244253
 20
56.1664382617
 30
0.0
 10
93.9834708043
 20
55.522075172
 30
0.0
 10
93.8177950104
 20
55.2351162794
 30
0.0
  0
SPLINE
  5
4AE
100
AcDbEntity
  8
KONSTRUKTIONSELEMENTE
100
AcDbSpline
 62
7
  6
CONTINUOUS
 70
0
 71
3
 72
9
 73
5
 74
0
 42
0.0000001
 43
0.0000001
 44
0.0000000001
 40
0.0
 40
0.0
 40
0.0
 40
0.0
 40
0.2584251542
 40
1.0
 40
1.0
 40
1.0
 40
1.0
 10
88.9530708901
 20
119.4186566161
 30
0.0
 10
88.9527021304
 20
119.4771518551
 30
0.0
 10
88.9645501919
 20
119.703299673
 30
0.0
 10
89.0356413034
 20
119.9270588991
 30
0.0
 10
89.1195771327
 20
120.0724275115
 30
0.0
  0
SPLINE
  5
4AF
100
AcDbEntity
  8
KONSTRUKTIONSELEMENTE
100
AcDbSpline
 62
7
  6
CONTINUOUS
 70
0
 71
3
 72
8
 73
4
 74
0
 42
0.0000001
 43
0.0000001
 44
0.0000000001
 40
0.0
 40
0.0
 40
0.0
 40
0.0
 40
1.0
 40
1.0
 40
1.0
 40
1.0
 10
88.5751533479
 20
134.0101921774
 30
0.0
 10
88.5758095107
 20
133.9061070598
 30
0.0
 10
88.5875844795
 20
133.8016841046
 30
0.0
 10
88.6084621423
 20
133.699712219
 30
0.0
  0
SPLINE
  5
4B0
100
AcDbEntity
  8
KONSTRUKTIONSELEMENTE
100
AcDbSpline
 62
7
  6
CONTINUOUS
 70
0
 71
3
 72
9
 73
5
 74
0
 42
0.0000001
 43
0.0000001
 44
0.0000000001
 40
0.0
 40
0.0
 40
0.0
 40
0.0
 40
0.4654013423
 40
1.0
 40
1.0
 40
1.0
 40
1.0
 10
89.003186531
 20
66.1125792114
 30
0.0
 10
89.0091958368
 20
65.1593411428
 30
0.0
 10
89.6261529663
 20
63.1134642936
 30
0.0
 10
90.9552365521
 20
61.5002459751
 30
0.0
 10
91.7675071266
 20
60.765929902
 30
0.0
  0
SPLINE
  5
4B1
100
AcDbEntity
  8
KONSTRUKTIONSELEMENTE
100
AcDbSpline
 62
7
  6
CONTINUOUS
 70
0
 71
3
 72
11
 73
7
 74
0
 42
0.0000001
 43
0.0000001
 44
0.0000000001
 40
0.0
 40
0.0
 40
0.0
 40
0.0
 40
0.2180723574
 40
0.4659823302
 40
0.7329881953
 40
1.0
 40
1.0
 40
1.0
 40
1.0
 10
178.2058450109
 20
76.9814768617
 30
0.0
 10
178.9373835134
 20
77.3977041918
 30
0.0
 10
180.7367767533
 20
77.8812172894
 30
0.0
 10
183.5942775326
 20
77.5893902519
 30
0.0
 10
186.4215342705
 20
76.43304061
 30
0.0
 10
188.0770511762
 20
75.1518941704
 30
0.0
 10
188.7887124941
 20
74.4065335945
 30
0.0
  0
SPLINE
  5
4B2
100
AcDbEntity
  8
KONSTRUKTIONSELEMENTE
100
AcDbSpline
 62
7
  6
CONTINUOUS
 70
0
 71
3
 72
11
 73
7
 74
0
 42
0.0000001
 43
0.0000001
 44
0.0000000001
 40
0.0
 40
0.0
 40
0.0
 40
0.0
 40
0.2187538164
 40
0.4541436435
 40
0.7148565427
 40
1.0
 40
1.0
 40
1.0
 40
1.0
 10
199.3532429962
 20
69.789353487
 30
0.0
 10
199.632854453
 20
70.2736954084
 30
0.0
 10
199.9969412404
 20
71.416997733
 30
0.0
 10
199.8389340003
 20
73.274618109
 30
0.0
 10
199.0527247043
 20
75.1388993697
 30
0.0
 10
198.1927353575
 20
76.2571520111
 30
0.0
 10
197.6893202623
 20
76.7844052927
 30
0.0
  0
SPLINE
  5
4B3
100
AcDbEntity
  8
KONSTRUKTIONSELEMENTE
100
AcDbSpline
 62
7
  6
CONTINUOUS
 70
0
 71
3
 72
9
 73
5
 74
0
 42
0.0000001
 43
0.0000001
 44
0.0000000001
 40
0.0
 40
0.0
 40
0.0
 40
0.0
 40
0.5394801424
 40
1.0
 40
1.0
 40
1.0
 40
1.0
 10
98.6850717267
 20
116.4459887564
 30
0.0
 10
99.0151945801
 20
116.3656657608
 30
0.0
 10
99.6597386927
 20
116.3118767908
 30
0.0
 10
100.2784397775
 20
116.5619458064
 30
0.0
 10
100.4965648952
 20
116.7530918193
 30
0.0
  0
SPLINE
  5
4B4
100
AcDbEntity
  8
KONSTRUKTIONSELEMENTE
100
AcDbSpline
 62
7
  6
CONTINUOUS
 70
0
 71
3
 72
11
 73
7
 74
0
 42
0.0000001
 43
0.0000001
 44
0.0000000001
 40
0.0
 40
0.0
 40
0.0
 40
0.0
 40
0.2819831575
 40
0.5426850885
 40
0.7803647343
 40
1.0
 40
1.0
 40
1.0
 40
1.0
 10
98.6697986617
 20
118.8687089989
 30
0.0
 10
98.8621446221
 20
118.8219088348
 30
0.0
 10
99.2425964098
 20
118.7675828846
 30
0.0
 10
99.7938786883
 20
118.8151546332
 30
0.0
 10
100.2728606182
 20
118.9941481087
 30
0.0
 10
100.5263527249
 20
119.2040297521
 30
0.0
 10
100.6242031894
 20
119.3231905227
 30
0.0
  0
SPLINE
  5
4B5
100
AcDbEntity
  8
KONSTRUKTIONSELEMENTE
100
AcDbSpline
 62
7
  6
CONTINUOUS
 70
0
 71
3
 72
9
 73
5
 74
0
 42
0.0000001
 43
0.0000001
 44
0.0000000001
 40
0.0
 40
0.0
 40
0.0
 40
0.0
 40
0.4517053273
 40
1.0
 40
1.0
 40
1.0
 40
1.0
 10
141.5748463426
 20
36.3257586943
 30
0.0
 10
141.6318364516
 20
36.424482435
 30
0.0
 10
141.6509480428
 20
36.7044802287
 30
0.0
 10
141.504021644
 20
36.9252151603
 30
0.0
 10
141.4084694718
 20
37.0252920091
 30
0.0
  0
SPLINE
  5
4B6
100
AcDbEntity
  8
KONSTRUKTIONSELEMENTE
100
AcDbSpline
 62
7
  6
CONTINUOUS
 70
0
 71
3
 72
11
 73
7
 74
0
 42
0.0000001
 43
0.0000001
 44
0.0000000001
 40
0.0
 40
0.0
 40
0.0
 40
0.0
 40
0.2187337062
 40
0.4541366386
 40
0.7148275965
 40
1.0
 40
1.0
 40
1.0
 40
1.0
 10
89.1195771327
 20
120.0724275115
 30
0.0
 10
89.2034664086
 20
120.2177154978
 30
0.0
 10
89.4458878327
 20
120.4838108933
 30
0.0
 10
89.9521890934
 20
120.721439662
 30
0.0
 10
90.5545050349
 20
120.7968891794
 30
0.0
 10
90.9740558126
 20
120.7411789384
 30
0.0
 10
91.1865812999
 20
120.6894688444
 30
0.0
  0
SPLINE
  5
4B7
100
AcDbEntity
  8
KONSTRUKTIONSELEMENTE
100
AcDbSpline
 62
7
  6
CONTINUOUS
 70
0
 71
3
 72
11
 73
7
 74
0
 42
0.0000001
 43
0.0000001
 44
0.0000000001
 40
0.0
 40
0.0
 40
0.0
 40
0.0
 40
0.2851724035
 40
0.5458633614
 40
0.7812662938
 40
1.0
 40
1.0
 40
1.0
 40
1.0
 10
98.4022290143
 20
115.9560908078
 30
0.0
 10
98.6147545016
 20
115.9043807138
 30
0.0
 10
99.0343052793
 20
115.8486704728
 30
0.0
 10
99.6366212207
 20
115.9241199902
 30
0.0
 10
100.1429224815
 20
116.1617487589
 30
0.0
 10
100.3853439056
 20
116.4278441544
 30
0.0
 10
100.4692331814
 20
116.5731321407
 30
0.0
  0
SPLINE
  5
4B8
100
AcDbEntity
  8
KONSTRUKTIONSELEMENTE
100
AcDbSpline
 62
7
  6
CONTINUOUS
 70
0
 71
3
 72
11
 73
7
 74
0
 42
0.0000001
 43
0.0000001
 44
0.0000000001
 40
0.0
 40
0.0
 40
0.0
 40
0.0
 40
0.2851562407
 40
0.5458562973
 40
0.7812472715
 40
1.0
 40
1.0
 40
1.0
 40
1.0
 10
96.0010967159
 20
141.2746332415
 30
0.0
 10
95.292714265
 20
141.4469915012
 30
0.0
 10
93.8942236137
 20
141.6326259933
 30
0.0
 10
91.8865244014
 20
141.381321949
 30
0.0
 10
90.1987680804
 20
140.5892223202
 30
0.0
 10
89.3907399062
 20
139.7021666429
 30
0.0
 10
89.1110759808
 20
139.2178323246
 30
0.0
  0
SPLINE
  5
4B9
100
AcDbEntity
  8
KONSTRUKTIONSELEMENTE
100
AcDbSpline
 62
7
  6
CONTINUOUS
 70
0
 71
3
 72
11
 73
7
 74
0
 42
0.0000001
 43
0.0000001
 44
0.0000000001
 40
0.0
 40
0.0
 40
0.0
 40
0.0
 40
0.2851597611
 40
0.5458622252
 40
0.7812471547
 40
1.0
 40
1.0
 40
1.0
 40
1.0
 10
134.9598695063
 20
43.7792521619
 30
0.0
 10
134.4564105001
 20
44.3065514338
 30
0.0
 10
133.5963996755
 20
45.4248632595
 30
0.0
 10
132.8101969126
 20
47.2892163314
 30
0.0
 10
132.6522874168
 20
49.1468733425
 30
0.0
 10
133.0164581578
 20
50.290153463
 30
0.0
 10
133.296060917
 20
50.7745169416
 30
0.0
  0
LINE
  5
4BA
100
AcDbEntity
  8
0
100
AcDbLine
 62
7
  6
CONTINUOUS
 10
488.8468157189
 20
95.8404624637
 11
483.0585775319
 21
104.6245158132
  0
LINE
  5
4BB
100
AcDbEntity
  8
0
100
AcDbLine
 62
7
  6
CONTINUOUS
 10
522.8808621453
 20
127.6159225545
 11
527.5939564007
 21
118.2111345666
  0
SPLINE
  5
4BC
100
AcDbEntity
  8
0
100
AcDbSpline
 62
7
  6
CONTINUOUS
 70
0
 71
3
 72
9
 73
5
 74
0
 42
0.0000001
 43
0.0000001
 44
0.0000000001
 40
0.0
 40
0.0
 40
0.0
 40
0.0
 40
0.5187552106
 40
1.0
 40
1.0
 40
1.0
 40
1.0
 10
478.1666441391
 20
110.1509117486
 30
0.0
 10
478.2589216295
 20
109.5904785473
 30
0.0
 10
478.6370102816
 20
108.5236908047
 30
0.0
 10
479.4573525261
 20
107.7310532395
 30
0.0
 10
479.9113289755
 20
107.4635853251
 30
0.0
  0
SPLINE
  5
4BD
100
AcDbEntity
  8
0
100
AcDbSpline
 62
7
  6
CONTINUOUS
 70
0
 71
3
 72
9
 73
5
 74
0
 42
0.0000001
 43
0.0000001
 44
0.0000000001
 40
0.0
 40
0.0
 40
0.0
 40
0.0
 40
0.4812541925
 40
1.0
 40
1.0
 40
1.0
 40
1.0
 10
521.995780103
 20
131.7610545123
 30
0.0
 10
521.9911342292
 20
132.287953811
 30
0.0
 10
521.7148530247
 20
133.3947094378
 30
0.0
 10
520.980032177
 20
134.2555344527
 30
0.0
 10
520.5408295702
 20
134.6156591139
 30
0.0
  0
SPLINE
  5
4BE
100
AcDbEntity
  8
0
100
AcDbSpline
 62
7
  6
CONTINUOUS
 70
0
 71
3
 72
11
 73
7
 74
0
 42
0.0000001
 43
0.0000001
 44
0.0000000001
 40
0.0
 40
0.0
 40
0.0
 40
0.0
 40
0.2452487878
 40
0.492735829
 40
0.7443459021
 40
1.0
 40
1.0
 40
1.0
 40
1.0
 10
471.777788757
 20
129.0796255942
 30
0.0
 10
471.5609499159
 20
128.6286947811
 30
0.0
 10
471.1863121246
 20
127.6908537396
 30
0.0
 10
470.8845851837
 20
126.1914017718
 30
0.0
 10
470.9508047188
 20
124.6343395592
 30
0.0
 10
471.3160264219
 20
123.6418005159
 30
0.0
 10
471.5768196761
 20
123.1900933494
 30
0.0
  0
SPLINE
  5
4BF
100
AcDbEntity
  8
0
100
AcDbSpline
 62
7
  6
CONTINUOUS
 70
0
 71
3
 72
11
 73
7
 74
0
 42
0.0000001
 43
0.0000001
 44
0.0000000001
 40
0.0
 40
0.0
 40
0.0
 40
0.0
 40
0.2556575941
 40
0.5072684484
 40
0.7547532783
 40
1.0
 40
1.0
 40
1.0
 40
1.0
 10
512.5434792909
 20
146.8422053058
 30
0.0
 10
512.2826824697
 20
147.2939186507
 30
0.0
 10
511.6057217412
 20
148.1064855902
 30
0.0
 10
510.2903684603
 20
148.9423605058
 30
0.0
 10
508.8409473602
 20
149.4307770428
 30
0.0
 10
507.8414429677
 20
149.5752499545
 30
0.0
 10
507.3425102101
 20
149.6129270988
 30
0.0
  0
SPLINE
  5
4C0
100
AcDbEntity
  8
0
100
AcDbSpline
 62
7
  6
CONTINUOUS
 70
0
 71
3
 72
9
 73
5
 74
0
 42
0.0000001
 43
0.0000001
 44
0.0000000001
 40
0.0
 40
0.0
 40
0.0
 40
0.0
 40
0.4949126613
 40
1.0
 40
1.0
 40
1.0
 40
1.0
 10
522.8808621453
 20
127.6159225545
 30
0.0
 10
522.5646729955
 20
128.2448066782
 30
0.0
 10
522.1175140709
 20
129.6166394538
 30
0.0
 10
522.0021139836
 20
131.0427144687
 30
0.0
 10
521.995780103
 20
131.7610545123
 30
0.0
  0
SPLINE
  5
4C1
100
AcDbEntity
  8
0
100
AcDbSpline
 62
7
  6
CONTINUOUS
 70
0
 71
3
 72
9
 73
5
 74
0
 42
0.0000001
 43
0.0000001
 44
0.0000000001
 40
0.0
 40
0.0
 40
0.0
 40
0.0
 40
0.5050884231
 40
1.0
 40
1.0
 40
1.0
 40
1.0
 10
479.9113289755
 20
107.4635853251
 30
0.0
 10
480.5302640721
 20
107.0989292298
 30
0.0
 10
481.7075803585
 20
106.2859511645
 30
0.0
 10
482.6720433381
 20
105.2127844047
 30
0.0
 10
483.0585775319
 20
104.6245158132
 30
0.0
  0
SPLINE
  5
4C2
100
AcDbEntity
  8
0
100
AcDbSpline
 62
7
  6
CONTINUOUS
 70
0
 71
3
 72
9
 73
5
 74
0
 42
0.0000001
 43
0.0000001
 44
0.0000000001
 40
0.0
 40
0.0
 40
0.0
 40
0.0
 40
0.5001118291
 40
1.0
 40
1.0
 40
1.0
 40
1.0
 10
520.5408295702
 20
134.6156591139
 30
0.0
 10
519.9884667029
 20
135.0685696555
 30
0.0
 10
518.9449941641
 20
136.05383063
 30
0.0
 10
518.0995458512
 20
137.2188157332
 30
0.0
 10
517.7425527038
 20
137.8371460025
 30
0.0
  0
SPLINE
  5
4C3
100
AcDbEntity
  8
0
100
AcDbSpline
 62
7
  6
CONTINUOUS
 70
0
 71
3
 72
9
 73
5
 74
0
 42
0.0000001
 43
0.0000001
 44
0.0000000001
 40
0.0
 40
0.0
 40
0.0
 40
0.0
 40
0.4998905156
 40
1.0
 40
1.0
 40
1.0
 40
1.0
 10
476.7758930889
 20
114.185034046
 30
0.0
 10
477.1328879187
 20
113.5667008627
 30
0.0
 10
477.7190709288
 20
112.2520285901
 30
0.0
 10
478.0505940797
 20
110.855724006
 30
0.0
 10
478.1666441391
 20
110.1509117486
 30
0.0
  0
SPLINE
  5
4C4
100
AcDbEntity
  8
KONSTRUKTIONSELEMENTE
100
AcDbSpline
 62
7
  6
CONTINUOUS
 70
0
 71
3
 72
9
 73
5
 74
0
 42
0.0000001
 43
0.0000001
 44
0.0000000001
 40
0.0
 40
0.0
 40
0.0
 40
0.0
 40
0.5050884231
 40
1.0
 40
1.0
 40
1.0
 40
1.0
 10
164.1294780672
 20
107.4635853251
 30
0.0
 10
163.5105429706
 20
107.0989292298
 30
0.0
 10
162.3332266842
 20
106.2859511645
 30
0.0
 10
161.3687637046
 20
105.2127844047
 30
0.0
 10
160.9822295108
 20
104.6245158132
 30
0.0
  0
SPLINE
  5
4C5
100
AcDbEntity
  8
KONSTRUKTIONSELEMENTE
100
AcDbSpline
 62
7
  6
CONTINUOUS
 70
0
 71
3
 72
9
 73
5
 74
0
 42
0.0000001
 43
0.0000001
 44
0.0000000001
 40
0.0
 40
0.0
 40
0.0
 40
0.0
 40
0.5001118291
 40
1.0
 40
1.0
 40
1.0
 40
1.0
 10
123.4999774725
 20
134.6156591139
 30
0.0
 10
124.0523403399
 20
135.0685696555
 30
0.0
 10
125.0958128786
 20
136.05383063
 30
0.0
 10
125.9412611915
 20
137.2188157332
 30
0.0
 10
126.2982543389
 20
137.8371460025
 30
0.0
  0
SPLINE
  5
4C6
100
AcDbEntity
  8
KONSTRUKTIONSELEMENTE
100
AcDbSpline
 62
7
  6
CONTINUOUS
 70
0
 71
3
 72
9
 73
5
 74
0
 42
0.0000001
 43
0.0000001
 44
0.0000000001
 40
0.0
 40
0.0
 40
0.0
 40
0.0
 40
0.4998905156
 40
1.0
 40
1.0
 40
1.0
 40
1.0
 10
167.2649139538
 20
114.185034046
 30
0.0
 10
166.907919124
 20
113.5667008627
 30
0.0
 10
166.3217361139
 20
112.2520285901
 30
0.0
 10
165.990212963
 20
110.855724006
 30
0.0
 10
165.8741629036
 20
110.1509117486
 30
0.0
  0
SPLINE
  5
4C7
100
AcDbEntity
  8
KONSTRUKTIONSELEMENTE
100
AcDbSpline
 62
7
  6
CONTINUOUS
 70
0
 71
3
 72
11
 73
7
 74
0
 42
0.0000001
 43
0.0000001
 44
0.0000000001
 40
0.0
 40
0.0
 40
0.0
 40
0.0
 40
0.2556575941
 40
0.5072684484
 40
0.7547532783
 40
1.0
 40
1.0
 40
1.0
 40
1.0
 10
131.4973277518
 20
146.8422053058
 30
0.0
 10
131.758124573
 20
147.2939186507
 30
0.0
 10
132.4350853016
 20
148.1064855902
 30
0.0
 10
133.7504385824
 20
148.9423605058
 30
0.0
 10
135.1998596825
 20
149.4307770428
 30
0.0
 10
136.199364075
 20
149.5752499545
 30
0.0
 10
136.6982968326
 20
149.6129270988
 30
0.0
  0
LINE
  5
4C8
100
AcDbEntity
  8
0
100
AcDbLine
 62
7
  6
CONTINUOUS
 10
160.9822295108
 20
104.6245158132
 11
155.1939913238
 21
95.8404624637
  0
SPLINE
  5
4C9
100
AcDbEntity
  8
KONSTRUKTIONSELEMENTE
100
AcDbSpline
 62
7
  6
CONTINUOUS
 70
0
 71
3
 72
11
 73
7
 74
0
 42
0.0000001
 43
0.0000001
 44
0.0000000001
 40
0.0
 40
0.0
 40
0.0
 40
0.0
 40
0.2452487878
 40
0.492735829
 40
0.7443459021
 40
1.0
 40
1.0
 40
1.0
 40
1.0
 10
172.2630182857
 20
129.0796255942
 30
0.0
 10
172.4798571268
 20
128.6286947811
 30
0.0
 10
172.8544949181
 20
127.6908537396
 30
0.0
 10
173.156221859
 20
126.1914017718
 30
0.0
 10
173.0900023239
 20
124.6343395592
 30
0.0
 10
172.7247806208
 20
123.6418005159
 30
0.0
 10
172.4639873666
 20
123.1900933494
 30
0.0
  0
LINE
  5
4CA
100
AcDbEntity
  8
0
100
AcDbLine
 62
7
  6
CONTINUOUS
 10
116.446850642
 20
118.2111345666
 11
121.1599448974
 21
127.6159225545
  0
SPLINE
  5
4CB
100
AcDbEntity
  8
KONSTRUKTIONSELEMENTE
100
AcDbSpline
 62
7
  6
CONTINUOUS
 70
0
 71
3
 72
9
 73
5
 74
0
 42
0.0000001
 43
0.0000001
 44
0.0000000001
 40
0.0
 40
0.0
 40
0.0
 40
0.0
 40
0.4812541925
 40
1.0
 40
1.0
 40
1.0
 40
1.0
 10
122.0450269397
 20
131.7610545123
 30
0.0
 10
122.0496728135
 20
132.287953811
 30
0.0
 10
122.325954018
 20
133.3947094378
 30
0.0
 10
123.0607748657
 20
134.2555344527
 30
0.0
 10
123.4999774725
 20
134.6156591139
 30
0.0
  0
SPLINE
  5
4CC
100
AcDbEntity
  8
KONSTRUKTIONSELEMENTE
100
AcDbSpline
 62
7
  6
CONTINUOUS
 70
0
 71
3
 72
9
 73
5
 74
0
 42
0.0000001
 43
0.0000001
 44
0.0000000001
 40
0.0
 40
0.0
 40
0.0
 40
0.0
 40
0.5187552106
 40
1.0
 40
1.0
 40
1.0
 40
1.0
 10
165.8741629036
 20
110.1509117486
 30
0.0
 10
165.7818854132
 20
109.5904785473
 30
0.0
 10
165.4037967611
 20
108.5236908047
 30
0.0
 10
164.5834545166
 20
107.7310532395
 30
0.0
 10
164.1294780672
 20
107.4635853251
 30
0.0
  0
SPLINE
  5
4CD
100
AcDbEntity
  8
KONSTRUKTIONSELEMENTE
100
AcDbSpline
 62
7
  6
CONTINUOUS
 70
0
 71
3
 72
9
 73
5
 74
0
 42
0.0000001
 43
0.0000001
 44
0.0000000001
 40
0.0
 40
0.0
 40
0.0
 40
0.0
 40
0.4949126613
 40
1.0
 40
1.0
 40
1.0
 40
1.0
 10
121.1599448974
 20
127.6159225545
 30
0.0
 10
121.4761340472
 20
128.2448066782
 30
0.0
 10
121.9232929719
 20
129.6166394538
 30
0.0
 10
122.0386930592
 20
131.0427144687
 30
0.0
 10
122.0450269397
 20
131.7610545123
 30
0.0
  0
SPLINE
  5
4CE
100
AcDbEntity
  8
KONSTRUKTIONSELEMENTE
100
AcDbSpline
 62
7
  6
CONTINUOUS
 70
0
 71
3
 72
9
 73
5
 74
0
 42
0.0000001
 43
0.0000001
 44
0.0000000001
 40
0.0
 40
0.0
 40
0.0
 40
0.0
 40
0.272606519
 40
1.0
 40
1.0
 40
1.0
 40
1.0
 10
805.9894178247
 20
184.8515188875
 30
0.0
 10
805.9942076571
 20
184.873295776
 30
0.0
 10
806.0162742631
 20
184.9519322148
 30
0.0
 10
806.062178021
 20
185.0252676639
 30
0.0
 10
806.1071953228
 20
185.0641677902
 30
0.0
  0
SPLINE
  5
4CF
100
AcDbEntity
  8
KONSTRUKTIONSELEMENTE
100
AcDbSpline
 62
7
  6
CONTINUOUS
 70
0
 71
3
 72
9
 73
5
 74
0
 42
0.0000001
 43
0.0000001
 44
0.0000000001
 40
0.0
 40
0.0
 40
0.0
 40
0.0
 40
0.546991612
 40
1.0
 40
1.0
 40
1.0
 40
1.0
 10
809.1565752344
 20
181.3362309295
 30
0.0
 10
809.1565752344
 20
181.264645491
 30
0.0
 10
809.1416700154
 20
181.1317567946
 30
0.0
 10
809.068832822
 20
181.0151051017
 30
0.0
 10
809.0239746306
 20
180.9763424651
 30
0.0
  0
SPLINE
  5
4D0
100
AcDbEntity
  8
KONSTRUKTIONSELEMENTE
100
AcDbSpline
 62
7
  6
CONTINUOUS
 70
0
 71
3
 72
9
 73
5
 74
0
 42
0.0000001
 43
0.0000001
 44
0.0000000001
 40
0.0
 40
0.0
 40
0.0
 40
0.0
 40
0.2337213641
 40
1.0
 40
1.0
 40
1.0
 40
1.0
 10
809.3775280212
 20
181.282528683
 30
0.0
 10
809.3620235082
 20
181.2691310006
 30
0.0
 10
809.2898811372
 20
181.2182655968
 30
0.0
 10
809.1991391758
 20
181.1995005997
 30
0.0
 10
809.1319934156
 20
181.1972847765
 30
0.0
  0
SPLINE
  5
4D1
100
AcDbEntity
  8
KONSTRUKTIONSELEMENTE
100
AcDbSpline
 62
7
  6
CONTINUOUS
 70
0
 71
3
 72
9
 73
5
 74
0
 42
0.0000001
 43
0.0000001
 44
0.0000000001
 40
0.0
 40
0.0
 40
0.0
 40
0.0
 40
0.4743754937
 40
1.0
 40
1.0
 40
1.0
 40
1.0
 10
817.887207557
 20
182.1047916006
 30
0.0
 10
817.8869799421
 20
181.9139789797
 30
0.0
 10
817.822915372
 20
181.5094778962
 30
0.0
 10
817.6370454512
 20
181.1450377534
 30
0.0
 10
817.517118668
 20
180.9709142096
 30
0.0
  0
SPLINE
  5
4D2
100
AcDbEntity
  8
KONSTRUKTIONSELEMENTE
100
AcDbSpline
 62
7
  6
CONTINUOUS
 70
0
 71
3
 72
9
 73
5
 74
0
 42
0.0000001
 43
0.0000001
 44
0.0000000001
 40
0.0
 40
0.0
 40
0.0
 40
0.0
 40
0.237985559
 40
1.0
 40
1.0
 40
1.0
 40
1.0
 10
817.517118668
 20
180.9709142096
 30
0.0
 10
817.4867493071
 20
180.9268204666
 30
0.0
 10
817.3530389864
 20
180.7457915641
 30
0.0
 10
817.1954732949
 20
180.5826061647
 30
0.0
 10
817.0658826036
 20
180.4703773339
 30
0.0
  0
SPLINE
  5
4D3
100
AcDbEntity
  8
KONSTRUKTIONSELEMENTE
100
AcDbSpline
 62
7
  6
CONTINUOUS
 70
0
 71
3
 72
9
 73
5
 74
0
 42
0.0000001
 43
0.0000001
 44
0.0000000001
 40
0.0
 40
0.0
 40
0.0
 40
0.0
 40
0.4964115318
 40
1.0
 40
1.0
 40
1.0
 40
1.0
 10
808.93415462
 20
187.5126603444
 30
0.0
 10
809.4290620447
 20
187.9412627468
 30
0.0
 10
810.5368513461
 20
188.6831665332
 30
0.0
 10
811.7846454728
 20
189.1481023753
 30
0.0
 10
812.4288581642
 20
189.3096790757
 30
0.0
  0
SPLINE
  5
4D4
100
AcDbEntity
  8
KONSTRUKTIONSELEMENTE
100
AcDbSpline
 62
7
  6
CONTINUOUS
 70
0
 71
3
 72
11
 73
7
 74
0
 42
0.0000001
 43
0.0000001
 44
0.0000000001
 40
0.0
 40
0.0
 40
0.0
 40
0.0
 40
0.2543126619
 40
0.5051065546
 40
0.7532499832
 40
1.0
 40
1.0
 40
1.0
 40
1.0
 10
819.5772535541
 20
188.0964993368
 30
0.0
 10
820.0764155957
 20
187.7587332527
 30
0.0
 10
820.997668095
 20
186.9754799497
 30
0.0
 10
822.0615133039
 20
185.521084732
 30
0.0
 10
822.7330503417
 20
183.8669373127
 30
0.0
 10
822.8863745999
 20
182.6886567708
 30
0.0
 10
822.8866410597
 20
182.1038785639
 30
0.0
  0
SPLINE
  5
4D5
100
AcDbEntity
  8
KONSTRUKTIONSELEMENTE
100
AcDbSpline
 62
7
  6
CONTINUOUS
 70
0
 71
3
 72
11
 73
7
 74
0
 42
0.0000001
 43
0.0000001
 44
0.0000000001
 40
0.0
 40
0.0
 40
0.0
 40
0.0
 40
0.2474803687
 40
0.4959793074
 40
0.7466457809
 40
1.0
 40
1.0
 40
1.0
 40
1.0
 10
822.8866410597
 20
182.1038785639
 30
0.0
 10
822.8868725889
 20
181.5957595844
 30
0.0
 10
822.7717807178
 20
180.5738275281
 30
0.0
 10
822.2646261047
 20
179.114543603
 30
0.0
 10
821.4499346539
 20
177.7884196217
 30
0.0
 10
820.7323693508
 20
177.0312697219
 30
0.0
 10
820.3391509572
 20
176.6907326039
 30
0.0
  0
SPLINE
  5
4D6
100
AcDbEntity
  8
KONSTRUKTIONSELEMENTE
100
AcDbSpline
 62
7
  6
CONTINUOUS
 70
0
 71
3
 72
9
 73
5
 74
0
 42
0.0000001
 43
0.0000001
 44
0.0000000001
 40
0.0
 40
0.0
 40
0.0
 40
0.0
 40
0.2619033554
 40
1.0
 40
1.0
 40
1.0
 40
1.0
 10
817.7342914442
 20
182.8376589554
 30
0.0
 10
817.7598011598
 20
182.7772151457
 30
0.0
 10
817.846691064
 20
182.5421874922
 30
0.0
 10
817.8874281093
 20
182.2896835777
 30
0.0
 10
817.887207557
 20
182.1047916006
 30
0.0
  0
SPLINE
  5
4D7
100
AcDbEntity
  8
KONSTRUKTIONSELEMENTE
100
AcDbSpline
 62
7
  6
CONTINUOUS
 70
0
 71
3
 72
9
 73
5
 74
0
 42
0.0000001
 43
0.0000001
 44
0.0000000001
 40
0.0
 40
0.0
 40
0.0
 40
0.0
 40
0.4872963705
 40
1.0
 40
1.0
 40
1.0
 40
1.0
 10
811.0554749635
 20
175.2652116305
 30
0.0
 10
810.5076567626
 20
174.7907871519
 30
0.0
 10
809.023603894
 20
174.2228325307
 30
0.0
 10
807.4701097846
 20
174.501157406
 30
0.0
 10
806.796195626
 20
174.8578310672
 30
0.0
  0
SPLINE
  5
4D8
100
AcDbEntity
  8
KONSTRUKTIONSELEMENTE
100
AcDbSpline
 62
7
  6
CONTINUOUS
 70
0
 71
3
 72
11
 73
7
 74
0
 42
0.0000001
 43
0.0000001
 44
0.0000000001
 40
0.0
 40
0.0
 40
0.0
 40
0.0
 40
0.2474803687
 40
0.4959793074
 40
0.7466457809
 40
1.0
 40
1.0
 40
1.0
 40
1.0
 10
800.3762568774
 20
176.894348681
 30
0.0
 10
800.3760253482
 20
177.4024676605
 30
0.0
 10
800.4911172192
 20
178.4243997168
 30
0.0
 10
800.9982718324
 20
179.8836836419
 30
0.0
 10
801.8129632831
 20
181.2098076232
 30
0.0
 10
802.5305285863
 20
181.9669575229
 30
0.0
 10
802.9237469799
 20
182.307494641
 30
0.0
  0
SPLINE
  5
4D9
100
AcDbEntity
  8
KONSTRUKTIONSELEMENTE
100
AcDbSpline
 62
7
  6
CONTINUOUS
 70
0
 71
3
 72
11
 73
7
 74
0
 42
0.0000001
 43
0.0000001
 44
0.0000000001
 40
0.0
 40
0.0
 40
0.0
 40
0.0
 40
0.2479799116
 40
0.5004054033
 40
0.7525977831
 40
1.0
 40
1.0
 40
1.0
 40
1.0
 10
814.3287433171
 20
171.4855669004
 30
0.0
 10
813.541233811
 20
170.8035636625
 30
0.0
 10
811.6629735693
 20
169.7352539949
 30
0.0
 10
808.4782970516
 20
169.2325665664
 30
0.0
 10
805.3132674866
 20
169.8359148552
 30
0.0
 10
803.4746394873
 20
170.9660883413
 30
0.0
 10
802.7137440273
 20
171.6741045791
 30
0.0
  0
SPLINE
  5
4DA
100
AcDbEntity
  8
KONSTRUKTIONSELEMENTE
100
AcDbSpline
 62
7
  6
CONTINUOUS
 70
0
 71
3
 72
9
 73
5
 74
0
 42
0.0000001
 43
0.0000001
 44
0.0000000001
 40
0.0
 40
0.0
 40
0.0
 40
0.0
 40
0.2330082413
 40
1.0
 40
1.0
 40
1.0
 40
1.0
 10
805.7536419322
 20
184.7579815724
 30
0.0
 10
805.7695356201
 20
184.7717155467
 30
0.0
 10
805.8438843914
 20
184.8238450492
 30
0.0
 10
805.9376023651
 20
184.8420148855
 30
0.0
 10
806.0067316401
 20
184.8434271026
 30
0.0
  0
SPLINE
  5
4DB
100
AcDbEntity
  8
KONSTRUKTIONSELEMENTE
100
AcDbSpline
 62
7
  6
CONTINUOUS
 70
0
 71
3
 72
15
 73
11
 74
0
 42
0.0000001
 43
0.0000001
 44
0.0000000001
 40
0.0
 40
0.0
 40
0.0
 40
0.0
 40
0.082699247
 40
0.1957940838
 40
0.333737466
 40
0.4862052534
 40
0.6408263759
 40
0.7848058501
 40
0.9071588123
 40
1.0
 40
1.0
 40
1.0
 40
1.0
 10
806.0067316401
 20
184.8434271026
 30
0.0
 10
806.1430557509
 20
184.8462120187
 30
0.0
 10
806.4633300913
 20
184.7551142218
 30
0.0
 10
806.9418143602
 20
184.482607468
 30
0.0
 10
807.465786869
 20
184.0681407842
 30
0.0
 10
807.9848043121
 20
183.5477296326
 30
0.0
 10
808.4525162774
 20
182.9678365815
 30
0.0
 10
808.8268788181
 20
182.3806709852
 30
0.0
 10
809.0736524824
 20
181.8415015036
 30
0.0
 10
809.1565752344
 20
181.4893052744
 30
0.0
 10
809.1565752344
 20
181.3362309295
 30
0.0
  0
SPLINE
  5
4DC
100
AcDbEntity
  8
KONSTRUKTIONSELEMENTE
100
AcDbSpline
 62
7
  6
CONTINUOUS
 70
0
 71
3
 72
19
 73
15
 74
0
 42
0.0000001
 43
0.0000001
 44
0.0000000001
 40
0.0
 40
0.0
 40
0.0
 40
0.0
 40
0.0298938292
 40
0.0650835855
 40
0.108466288
 40
0.1609985436
 40
0.2222349321
 40
0.2911550146
 40
0.4456854225
 40
0.6095823449
 40
0.7660354067
 40
0.8997960834
 40
0.9545408033
 40
1.0
 40
1.0
 40
1.0
 40
1.0
 10
806.1071953228
 20
185.0641677902
 30
0.0
 10
806.1465549741
 20
185.0981790558
 30
0.0
 10
806.2531915107
 20
185.1490505275
 30
0.0
 10
806.445025375
 20
185.1547477978
 30
0.0
 10
806.6689574723
 20
185.1037950693
 30
0.0
 10
806.9219513136
 20
184.9975143885
 30
0.0
 10
807.1986933719
 20
184.8399270122
 30
0.0
 10
807.6043345203
 20
184.5545560687
 30
0.0
 10
808.1080557306
 20
184.1032316063
 30
0.0
 10
808.6546019204
 20
183.4809124023
 30
0.0
 10
809.1028485246
 20
182.8282663575
 30
0.0
 10
809.3722971639
 20
182.2872573041
 30
0.0
 10
809.4871371803
 20
181.8957776299
 30
0.0
 10
809.510128625
 20
181.7215214232
 30
0.0
 10
809.510128625
 20
181.6424171474
 30
0.0
  0
SPLINE
  5
4DD
100
AcDbEntity
  8
KONSTRUKTIONSELEMENTE
100
AcDbSpline
 62
7
  6
CONTINUOUS
 70
0
 71
3
 72
9
 73
5
 74
0
 42
0.0000001
 43
0.0000001
 44
0.0000000001
 40
0.0
 40
0.0
 40
0.0
 40
0.0
 40
0.546991612
 40
1.0
 40
1.0
 40
1.0
 40
1.0
 10
809.510128625
 20
181.6424171474
 30
0.0
 10
809.510128625
 20
181.5708317088
 30
0.0
 10
809.495223406
 20
181.4379430124
 30
0.0
 10
809.4223862125
 20
181.3212913196
 30
0.0
 10
809.3775280212
 20
181.282528683
 30
0.0
  0
SPLINE
  5
4DE
100
AcDbEntity
  8
KONSTRUKTIONSELEMENTE
100
AcDbSpline
 62
7
  6
CONTINUOUS
 70
0
 71
3
 72
9
 73
5
 74
0
 42
0.0000001
 43
0.0000001
 44
0.0000000001
 40
0.0
 40
0.0
 40
0.0
 40
0.0
 40
0.272606519
 40
1.0
 40
1.0
 40
1.0
 40
1.0
 10
748.7137685486
 20
135.2493515961
 30
0.0
 10
748.718558381
 20
135.2711284846
 30
0.0
 10
748.740624987
 20
135.3497649235
 30
0.0
 10
748.7865287449
 20
135.4231003726
 30
0.0
 10
748.8315460467
 20
135.4620004989
 30
0.0
  0
SPLINE
  5
4DF
100
AcDbEntity
  8
KONSTRUKTIONSELEMENTE
100
AcDbSpline
 62
7
  6
CONTINUOUS
 70
0
 71
3
 72
9
 73
5
 74
0
 42
0.0000001
 43
0.0000001
 44
0.0000000001
 40
0.0
 40
0.0
 40
0.0
 40
0.0
 40
0.4536677411
 40
1.0
 40
1.0
 40
1.0
 40
1.0
 10
760.6115582809
 20
132.5026243092
 30
0.0
 10
760.6112204525
 20
132.2194182062
 30
0.0
 10
760.4582205509
 20
131.5894740827
 30
0.0
 10
760.0480451557
 20
131.0914816352
 30
0.0
 10
759.7902333275
 20
130.8682100426
 30
0.0
  0
SPLINE
  5
4E0
100
AcDbEntity
  8
KONSTRUKTIONSELEMENTE
100
AcDbSpline
 62
7
  6
CONTINUOUS
 70
0
 71
3
 72
11
 73
7
 74
0
 42
0.0000001
 43
0.0000001
 44
0.0000000001
 40
0.0
 40
0.0
 40
0.0
 40
0.0
 40
0.2461844042
 40
0.4959427175
 40
0.7478763938
 40
1.0
 40
1.0
 40
1.0
 40
1.0
 10
751.6585053439
 20
137.9104930531
 30
0.0
 10
752.1569728913
 20
138.3421786121
 30
0.0
 10
753.2741837391
 20
139.088721032
 30
0.0
 10
755.1687242803
 20
139.7896086865
 30
0.0
 10
757.1869042515
 20
140.0528579387
 30
0.0
 10
758.5444163681
 20
139.9274733407
 30
0.0
 10
759.2057090158
 20
139.7905514158
 30
0.0
  0
SPLINE
  5
4E1
100
AcDbEntity
  8
KONSTRUKTIONSELEMENTE
100
AcDbSpline
 62
7
  6
CONTINUOUS
 70
0
 71
3
 72
11
 73
7
 74
0
 42
0.0000001
 43
0.0000001
 44
0.0000000001
 40
0.0
 40
0.0
 40
0.0
 40
0.0
 40
0.2529889227
 40
0.5034781976
 40
0.7521869369
 40
1.0
 40
1.0
 40
1.0
 40
1.0
 10
763.3909142595
 20
137.6104109307
 30
0.0
 10
763.7367383931
 20
137.2749511867
 30
0.0
 10
764.3646914577
 20
136.5413557417
 30
0.0
 10
765.07225666
 20
135.2853211633
 30
0.0
 10
765.5114201948
 20
133.9220985637
 30
0.0
 10
765.61077674
 20
132.9736504256
 30
0.0
 10
765.6109917835
 20
132.5017112726
 30
0.0
  0
SPLINE
  5
4E2
100
AcDbEntity
  8
KONSTRUKTIONSELEMENTE
100
AcDbSpline
 62
7
  6
CONTINUOUS
 70
0
 71
3
 72
11
 73
7
 74
0
 42
0.0000001
 43
0.0000001
 44
0.0000000001
 40
0.0
 40
0.0
 40
0.0
 40
0.0
 40
0.2474803687
 40
0.4959793074
 40
0.7466457809
 40
1.0
 40
1.0
 40
1.0
 40
1.0
 10
765.6109917835
 20
132.5017112726
 30
0.0
 10
765.6112233128
 20
131.993592293
 30
0.0
 10
765.4961314417
 20
130.9716602367
 30
0.0
 10
764.9889768286
 20
129.5123763116
 30
0.0
 10
764.1742853778
 20
128.1862523303
 30
0.0
 10
763.4567200746
 20
127.4291024306
 30
0.0
 10
763.0635016811
 20
127.0885653125
 30
0.0
  0
SPLINE
  5
4E3
100
AcDbEntity
  8
KONSTRUKTIONSELEMENTE
100
AcDbSpline
 62
7
  6
CONTINUOUS
 70
0
 71
3
 72
9
 73
5
 74
0
 42
0.0000001
 43
0.0000001
 44
0.0000000001
 40
0.0
 40
0.0
 40
0.0
 40
0.0
 40
0.2350561603
 40
1.0
 40
1.0
 40
1.0
 40
1.0
 10
754.9317736974
 20
134.130848323
 30
0.0
 10
755.010996583
 20
134.1994573544
 30
0.0
 10
755.3637491034
 20
134.472953684
 30
0.0
 10
755.7727055717
 20
134.6715865529
 30
0.0
 10
756.0965805054
 20
134.7784754704
 30
0.0
  0
SPLINE
  5
4E4
100
AcDbEntity
  8
KONSTRUKTIONSELEMENTE
100
AcDbSpline
 62
7
  6
CONTINUOUS
 70
0
 71
3
 72
9
 73
5
 74
0
 42
0.0000001
 43
0.0000001
 44
0.0000000001
 40
0.0
 40
0.0
 40
0.0
 40
0.0
 40
0.2578415756
 40
1.0
 40
1.0
 40
1.0
 40
1.0
 10
760.5126577725
 20
133.0932325904
 30
0.0
 10
760.529181034
 20
133.0443508275
 30
0.0
 10
760.5861320079
 20
132.8524464452
 30
0.0
 10
760.6117354456
 20
132.6511438789
 30
0.0
 10
760.6115582809
 20
132.5026243092
 30
0.0
  0
SPLINE
  5
4E5
100
AcDbEntity
  8
KONSTRUKTIONSELEMENTE
100
AcDbSpline
 62
7
  6
CONTINUOUS
 70
0
 71
3
 72
9
 73
5
 74
0
 42
0.0000001
 43
0.0000001
 44
0.0000000001
 40
0.0
 40
0.0
 40
0.0
 40
0.0
 40
0.4873854536
 40
1.0
 40
1.0
 40
1.0
 40
1.0
 10
753.7798256874
 20
125.6630443392
 30
0.0
 10
753.2311471671
 20
125.187874802
 30
0.0
 10
751.7445078021
 20
124.619751167
 30
0.0
 10
750.1888818094
 20
124.9003435957
 30
0.0
 10
749.5148150507
 20
125.2587039271
 30
0.0
  0
SPLINE
  5
4E6
100
AcDbEntity
  8
KONSTRUKTIONSELEMENTE
100
AcDbSpline
 62
7
  6
CONTINUOUS
 70
0
 71
3
 72
11
 73
7
 74
0
 42
0.0000001
 43
0.0000001
 44
0.0000000001
 40
0.0
 40
0.0
 40
0.0
 40
0.0
 40
0.2475783257
 40
0.4995440458
 40
0.7518013576
 40
1.0
 40
1.0
 40
1.0
 40
1.0
 10
757.053094041
 20
121.8833996091
 30
0.0
 10
756.30523078
 20
121.2357310265
 30
0.0
 10
754.5363381707
 20
120.2064021046
 30
0.0
 10
751.529556311
 20
119.6490360346
 30
0.0
 10
748.5013828719
 20
120.0905497588
 30
0.0
 10
746.6894136124
 20
121.0479532048
 30
0.0
 10
745.9124183504
 20
121.6643648095
 30
0.0
  0
SPLINE
  5
4E7
100
AcDbEntity
  8
KONSTRUKTIONSELEMENTE
100
AcDbSpline
 62
7
  6
CONTINUOUS
 70
0
 71
3
 72
9
 73
5
 74
0
 42
0.0000001
 43
0.0000001
 44
0.0000000001
 40
0.0
 40
0.0
 40
0.0
 40
0.0
 40
0.2341519833
 40
1.0
 40
1.0
 40
1.0
 40
1.0
 10
748.556547888
 20
135.2055606339
 30
0.0
 10
748.5692866163
 20
135.2112703058
 30
0.0
 10
748.6251774327
 20
135.2323590775
 30
0.0
 10
748.6854332003
 20
135.2403272609
 30
0.0
 10
748.731082364
 20
135.2412598112
 30
0.0
  0
SPLINE
  5
4E8
100
AcDbEntity
  8
KONSTRUKTIONSELEMENTE
100
AcDbSpline
 62
7
  6
CONTINUOUS
 70
0
 71
3
 72
12
 73
8
 74
0
 42
0.0000001
 43
0.0000001
 44
0.0000000001
 40
0.0
 40
0.0
 40
0.0
 40
0.0
 40
0.0752716352
 40
0.1695706026
 40
0.4105482434
 40
0.6997859249
 40
1.0
 40
1.0
 40
1.0
 40
1.0
 10
748.731082364
 20
135.2412598112
 30
0.0
 10
748.8123125759
 20
135.242919234
 30
0.0
 10
748.9956488777
 20
135.2116444618
 30
0.0
 10
749.4080676581
 20
135.0456032339
 30
0.0
 10
749.9709560774
 20
134.6629511543
 30
0.0
 10
750.6258159226
 20
134.0484486101
 30
0.0
 10
751.0295860113
 20
133.5532834479
 30
0.0
 10
751.2153436725
 20
133.287764159
 30
0.0
  0
SPLINE
  5
4E9
100
AcDbEntity
  8
KONSTRUKTIONSELEMENTE
100
AcDbSpline
 62
7
  6
CONTINUOUS
 70
0
 71
3
 72
9
 73
5
 74
0
 42
0.0000001
 43
0.0000001
 44
0.0000000001
 40
0.0
 40
0.0
 40
0.0
 40
0.0
 40
0.2622844894
 40
1.0
 40
1.0
 40
1.0
 40
1.0
 10
751.247710238
 20
133.2410474635
 30
0.0
 10
751.2835882552
 20
133.1887517655
 30
0.0
 10
751.4172529993
 20
132.987271779
 30
0.0
 10
751.5386526397
 20
132.7774127994
 30
0.0
 10
751.6180297596
 20
132.6176693313
 30
0.0
  0
SPLINE
  5
4EA
100
AcDbEntity
  8
KONSTRUKTIONSELEMENTE
100
AcDbSpline
 62
7
  6
CONTINUOUS
 70
0
 71
3
 72
18
 73
14
 74
0
 42
0.0000001
 43
0.0000001
 44
0.0000000001
 40
0.0
 40
0.0
 40
0.0
 40
0.0
 40
0.0297694375
 40
0.0647100049
 40
0.10768043
 40
0.1596584826
 40
0.2202475627
 40
0.2884715706
 40
0.4417489812
 40
0.6049919065
 40
0.7618480026
 40
0.8972863474
 40
1.0
 40
1.0
 40
1.0
 40
1.0
 10
748.8315460467
 20
135.4620004989
 30
0.0
 10
748.8704318217
 20
135.4956022808
 30
0.0
 10
748.9753586695
 20
135.5461054778
 30
0.0
 10
749.1642350163
 20
135.5529379155
 30
0.0
 10
749.384665132
 20
135.5042844269
 30
0.0
 10
749.6337099373
 20
135.4014272487
 30
0.0
 10
749.906276912
 20
135.2482332999
 30
0.0
 10
750.3065892533
 20
134.969933882
 30
0.0
 10
750.8053772576
 20
134.5277610162
 30
0.0
 10
751.34923645
 20
133.9158612236
 30
0.0
 10
751.8013860843
 20
133.2690431901
 30
0.0
 10
752.1115150368
 20
132.6608502795
 30
0.0
 10
752.225790786
 20
132.2574695719
 30
0.0
 10
752.2335797459
 20
132.080321096
 30
0.0
  0
SPLINE
  5
4EB
100
AcDbEntity
  8
KONSTRUKTIONSELEMENTE
100
AcDbSpline
 62
7
  6
CONTINUOUS
 70
0
 71
3
 72
9
 73
5
 74
0
 42
0.0000001
 43
0.0000001
 44
0.0000000001
 40
0.0
 40
0.0
 40
0.0
 40
0.0
 40
0.244567645
 40
1.0
 40
1.0
 40
1.0
 40
1.0
 10
805.3262451346
 20
168.1871767012
 30
0.0
 10
805.4523453609
 20
168.2963827006
 30
0.0
 10
805.9606686708
 20
168.7512713248
 30
0.0
 10
806.4411990257
 20
169.2370327598
 30
0.0
 10
806.7880420197
 20
169.6180825841
 30
0.0
  0
SPLINE
  5
4EC
100
AcDbEntity
  8
KONSTRUKTIONSELEMENTE
100
AcDbSpline
 62
7
  6
CONTINUOUS
 70
0
 71
3
 72
11
 73
7
 74
0
 42
0.0000001
 43
0.0000001
 44
0.0000000001
 40
0.0
 40
0.0
 40
0.0
 40
0.0
 40
0.2456161378
 40
0.487829233
 40
0.7390911012
 40
1.0
 40
1.0
 40
1.0
 40
1.0
 10
809.8895118266
 20
174.6193311657
 30
0.0
 10
810.000047547
 20
174.9717565121
 30
0.0
 10
810.1703935374
 20
175.689646756
 30
0.0
 10
810.1909866126
 20
176.8126290687
 30
0.0
 10
809.8720275811
 20
177.9231918605
 30
0.0
 10
809.387409144
 20
178.5526994534
 30
0.0
 10
809.0909155544
 20
178.8096628742
 30
0.0
  0
SPLINE
  5
4ED
100
AcDbEntity
  8
KONSTRUKTIONSELEMENTE
100
AcDbSpline
 62
7
  6
CONTINUOUS
 70
0
 71
3
 72
23
 73
19
 74
0
 42
0.0000001
 43
0.0000001
 44
0.0000000001
 40
0.0
 40
0.0
 40
0.0
 40
0.0
 40
0.0399693647
 40
0.0656737883
 40
0.0749885225
 40
0.0817696905
 40
0.0908566531
 40
0.1035947661
 40
0.1198800888
 40
0.1395419735
 40
0.1623868192
 40
0.1882221418
 40
0.2481028199
 40
0.3177476512
 40
0.3960861991
 40
0.5751467152
 40
0.7783544951
 40
1.0
 40
1.0
 40
1.0
 40
1.0
 10
806.9128603269
 20
175.0633903221
 30
0.0
 10
806.9429714832
 20
175.0605641776
 30
0.0
 10
806.9994119218
 20
175.0592705627
 30
0.0
 10
807.0386395264
 20
175.0582335448
 30
0.0
 10
807.092815745
 20
175.0651140143
 30
0.0
 10
807.0635335027
 20
175.059248704
 30
0.0
 10
807.0462967701
 20
175.0543186324
 30
0.0
 10
807.0171266453
 20
175.0457285384
 30
0.0
 10
806.9828937938
 20
175.0338207439
 30
0.0
 10
806.941058787
 20
175.0180647616
 30
0.0
 10
806.893232591
 20
174.9985694326
 30
0.0
 10
806.8178699677
 20
174.9657985711
 30
0.0
 10
806.7117485108
 20
174.9151602104
 30
0.0
 10
806.5729083069
 20
174.841145392
 30
0.0
 10
806.3591613478
 20
174.7163550681
 30
0.0
 10
806.0675501233
 20
174.5249852098
 30
0.0
 10
805.7009243223
 20
174.2518750664
 30
0.0
 10
805.4530233394
 20
174.0469698473
 30
0.0
 10
805.3262451346
 20
173.9371767012
 30
0.0
  0
SPLINE
  5
4EE
100
AcDbEntity
  8
KONSTRUKTIONSELEMENTE
100
AcDbSpline
 62
7
  6
CONTINUOUS
 70
0
 71
3
 72
13
 73
9
 74
0
 42
0.0000001
 43
0.0000001
 44
0.0000000001
 40
0.0
 40
0.0
 40
0.0
 40
0.0
 40
0.1263256967
 40
0.2494053695
 40
0.4831671239
 40
0.6019464337
 40
0.7268262858
 40
1.0
 40
1.0
 40
1.0
 40
1.0
 10
809.0909155544
 20
178.8096628742
 30
0.0
 10
808.8530413525
 20
179.0158223689
 30
0.0
 10
808.3134823987
 20
179.3486122724
 30
0.0
 10
807.1311219665
 20
179.6482577548
 30
0.0
 10
805.9165680601
 20
179.4687672176
 30
0.0
 10
804.8161703469
 20
179.0162942828
 30
0.0
 10
803.6877562737
 20
178.3895572552
 30
0.0
 10
802.8948612809
 20
177.7844769675
 30
0.0
 10
802.3803036164
 20
177.3388569583
 30
0.0
  0
SPLINE
  5
4EF
100
AcDbEntity
  8
KONSTRUKTIONSELEMENTE
100
AcDbSpline
 62
7
  6
CONTINUOUS
 70
0
 71
3
 72
9
 73
5
 74
0
 42
0.0000001
 43
0.0000001
 44
0.0000000001
 40
0.0
 40
0.0
 40
0.0
 40
0.0
 40
0.5091378895
 40
1.0
 40
1.0
 40
1.0
 40
1.0
 10
788.0090314788
 20
157.5307842499
 30
0.0
 10
788.2990102106
 20
157.27946709
 30
0.0
 10
788.9732307686
 20
156.8959157621
 30
0.0
 10
789.7336292658
 20
156.7808356029
 30
0.0
 10
790.1035831532
 20
156.7816942982
 30
0.0
  0
SPLINE
  5
4F0
100
AcDbEntity
  8
KONSTRUKTIONSELEMENTE
100
AcDbSpline
 62
7
  6
CONTINUOUS
 70
0
 71
3
 72
14
 73
10
 74
0
 42
0.0000001
 43
0.0000001
 44
0.0000000001
 40
0.0
 40
0.0
 40
0.0
 40
0.0
 40
0.3076593044
 40
0.4655740208
 40
0.6174499256
 40
0.7563299601
 40
0.8741882754
 40
0.9604979356
 40
1.0
 40
1.0
 40
1.0
 40
1.0
 10
794.7196434168
 20
164.7515901658
 30
0.0
 10
794.2693820181
 20
164.3616523562
 30
0.0
 10
793.6326915123
 20
163.7182998812
 30
0.0
 10
792.8748287908
 20
162.793320714
 30
0.0
 10
792.3697625565
 20
162.0855653299
 30
0.0
 10
791.9582094059
 20
161.4092732941
 30
0.0
 10
791.6603705089
 20
160.8140035271
 30
0.0
 10
791.4966823389
 20
160.3713329342
 30
0.0
 10
791.437736695
 20
160.1332022132
 30
0.0
 10
791.4314548921
 20
160.0569831769
 30
0.0
  0
SPLINE
  5
4F1
100
AcDbEntity
  8
KONSTRUKTIONSELEMENTE
100
AcDbSpline
 62
7
  6
CONTINUOUS
 70
0
 71
3
 72
16
 73
12
 74
0
 42
0.0000001
 43
0.0000001
 44
0.0000000001
 40
0.0
 40
0.0
 40
0.0
 40
0.0
 40
0.1382503286
 40
0.2794921658
 40
0.416953146
 40
0.5450742214
 40
0.6617427928
 40
0.7711235094
 40
0.8823527807
 40
0.9406882304
 40
1.0
 40
1.0
 40
1.0
 40
1.0
 10
791.7737018986
 20
168.1532704229
 30
0.0
 10
791.338875693
 20
167.7766998827
 30
0.0
 10
790.5009492359
 20
166.9670053725
 30
0.0
 10
789.3710069112
 20
165.6475381811
 30
0.0
 10
788.3955053825
 20
164.260747766
 30
0.0
 10
787.6235047183
 20
162.8659851782
 30
0.0
 10
787.0917452657
 20
161.4849142138
 30
0.0
 10
786.85524514
 20
160.0879512182
 30
0.0
 10
787.0409454946
 20
158.9092598082
 30
0.0
 10
787.4914204217
 20
158.061103292
 30
0.0
 10
787.8225434677
 20
157.6924086457
 30
0.0
 10
788.0090314788
 20
157.5307842499
 30
0.0
  0
SPLINE
  5
4F2
100
AcDbEntity
  8
KONSTRUKTIONSELEMENTE
100
AcDbSpline
 62
7
  6
CONTINUOUS
 70
0
 71
3
 72
9
 73
5
 74
0
 42
0.0000001
 43
0.0000001
 44
0.0000000001
 40
0.0
 40
0.0
 40
0.0
 40
0.0
 40
0.2442277043
 40
1.0
 40
1.0
 40
1.0
 40
1.0
 10
774.2135467624
 20
141.2427895306
 30
0.0
 10
774.369295827
 20
141.3776721772
 30
0.0
 10
774.9958925804
 20
141.9427095989
 30
0.0
 10
775.580455614
 20
142.5540373247
 30
0.0
 10
775.9970971226
 20
143.0366645286
 30
0.0
  0
SPLINE
  5
4F3
100
AcDbEntity
  8
KONSTRUKTIONSELEMENTE
100
AcDbSpline
 62
7
  6
CONTINUOUS
 70
0
 71
3
 72
11
 73
7
 74
0
 42
0.0000001
 43
0.0000001
 44
0.0000000001
 40
0.0
 40
0.0
 40
0.0
 40
0.0
 40
0.2471730376
 40
0.4889706441
 40
0.7394164903
 40
1.0
 40
1.0
 40
1.0
 40
1.0
 10
778.7199740638
 20
147.5010691229
 30
0.0
 10
778.8444289839
 20
147.8671238668
 30
0.0
 10
779.040094899
 20
148.6109814199
 30
0.0
 10
779.0921547278
 20
149.7786756604
 30
0.0
 10
778.7851733412
 20
150.9393617453
 30
0.0
 10
778.2862423941
 20
151.5983181203
 30
0.0
 10
777.9782171822
 20
151.8652757036
 30
0.0
  0
SPLINE
  5
4F4
100
AcDbEntity
  8
KONSTRUKTIONSELEMENTE
100
AcDbSpline
 62
7
  6
CONTINUOUS
 70
0
 71
3
 72
23
 73
19
 74
0
 42
0.0000001
 43
0.0000001
 44
0.0000000001
 40
0.0
 40
0.0
 40
0.0
 40
0.0
 40
0.0399693647
 40
0.0656737883
 40
0.0749885225
 40
0.0817696905
 40
0.0908566531
 40
0.1035947661
 40
0.1198800888
 40
0.1395419735
 40
0.1623868192
 40
0.1882221418
 40
0.2481028199
 40
0.3177476512
 40
0.3960861991
 40
0.5751467152
 40
0.7783544951
 40
1.0
 40
1.0
 40
1.0
 40
1.0
 10
775.8001619547
 20
148.1190031514
 30
0.0
 10
775.830273111
 20
148.116177007
 30
0.0
 10
775.8867135496
 20
148.1148833921
 30
0.0
 10
775.9259411541
 20
148.1138463742
 30
0.0
 10
775.9801173728
 20
148.1207268437
 30
0.0
 10
775.9508351305
 20
148.1148615334
 30
0.0
 10
775.9335983979
 20
148.1099314618
 30
0.0
 10
775.9044282731
 20
148.1013413678
 30
0.0
 10
775.8701954216
 20
148.0894335733
 30
0.0
 10
775.8283604148
 20
148.073677591
 30
0.0
 10
775.7805342188
 20
148.054182262
 30
0.0
 10
775.7051715954
 20
148.0214114005
 30
0.0
 10
775.5990501386
 20
147.9707730397
 30
0.0
 10
775.4602099347
 20
147.8967582213
 30
0.0
 10
775.2464629756
 20
147.7719678975
 30
0.0
 10
774.9548517511
 20
147.5805980392
 30
0.0
 10
774.5882259501
 20
147.3074878958
 30
0.0
 10
774.3403249672
 20
147.1025826766
 30
0.0
 10
774.2135467624
 20
146.9927895306
 30
0.0
  0
SPLINE
  5
4F5
100
AcDbEntity
  8
KONSTRUKTIONSELEMENTE
100
AcDbSpline
 62
7
  6
CONTINUOUS
 70
0
 71
3
 72
13
 73
9
 74
0
 42
0.0000001
 43
0.0000001
 44
0.0000000001
 40
0.0
 40
0.0
 40
0.0
 40
0.0
 40
0.1263256967
 40
0.2494053695
 40
0.4831671239
 40
0.6019464337
 40
0.7268262858
 40
1.0
 40
1.0
 40
1.0
 40
1.0
 10
777.9782171822
 20
151.8652757036
 30
0.0
 10
777.7403429803
 20
152.0714351983
 30
0.0
 10
777.2007840265
 20
152.4042251018
 30
0.0
 10
776.0184235942
 20
152.7038705842
 30
0.0
 10
774.8038696879
 20
152.524380047
 30
0.0
 10
773.7034719747
 20
152.0719071122
 30
0.0
 10
772.5750579014
 20
151.4451700846
 30
0.0
 10
771.7821629087
 20
150.8400897969
 30
0.0
 10
771.2676052442
 20
150.3944697877
 30
0.0
  0
SPLINE
  5
4F6
100
AcDbEntity
  8
KONSTRUKTIONSELEMENTE
100
AcDbSpline
 62
7
  6
CONTINUOUS
 70
0
 71
3
 72
9
 73
5
 74
0
 42
0.0000001
 43
0.0000001
 44
0.0000000001
 40
0.0
 40
0.0
 40
0.0
 40
0.0
 40
0.5068172679
 40
1.0
 40
1.0
 40
1.0
 40
1.0
 10
756.8963331066
 20
130.5863970793
 30
0.0
 10
757.1400886903
 20
130.3751403412
 30
0.0
 10
757.694094055
 20
130.0362456018
 30
0.0
 10
758.3226070374
 20
129.8846997307
 30
0.0
 10
758.63499166
 20
129.8540536012
 30
0.0
  0
SPLINE
  5
4F7
100
AcDbEntity
  8
KONSTRUKTIONSELEMENTE
100
AcDbSpline
 62
7
  6
CONTINUOUS
 70
0
 71
3
 72
14
 73
10
 74
0
 42
0.0000001
 43
0.0000001
 44
0.0000000001
 40
0.0
 40
0.0
 40
0.0
 40
0.0
 40
0.3076593044
 40
0.4655740208
 40
0.6174499256
 40
0.7563299601
 40
0.8741882754
 40
0.9604979356
 40
1.0
 40
1.0
 40
1.0
 40
1.0
 10
763.6069450446
 20
137.8072029952
 30
0.0
 10
763.1566836459
 20
137.4172651856
 30
0.0
 10
762.5199931401
 20
136.7739127106
 30
0.0
 10
761.7621304186
 20
135.8489335434
 30
0.0
 10
761.2570641843
 20
135.1411781593
 30
0.0
 10
760.8455110337
 20
134.4648861235
 30
0.0
 10
760.5476721367
 20
133.8696163565
 30
0.0
 10
760.3839839667
 20
133.4269457636
 30
0.0
 10
760.3250383227
 20
133.1888150426
 30
0.0
 10
760.3187565199
 20
133.1125960063
 30
0.0
  0
SPLINE
  5
4F8
100
AcDbEntity
  8
KONSTRUKTIONSELEMENTE
100
AcDbSpline
 62
7
  6
CONTINUOUS
 70
0
 71
3
 72
16
 73
12
 74
0
 42
0.0000001
 43
0.0000001
 44
0.0000000001
 40
0.0
 40
0.0
 40
0.0
 40
0.0
 40
0.1382503286
 40
0.2794921658
 40
0.416953146
 40
0.5450742214
 40
0.6617427928
 40
0.7711235094
 40
0.8823527807
 40
0.9406882304
 40
1.0
 40
1.0
 40
1.0
 40
1.0
 10
760.6610035264
 20
141.2088832523
 30
0.0
 10
760.2261773208
 20
140.832312712
 30
0.0
 10
759.3882508636
 20
140.0226182019
 30
0.0
 10
758.258308539
 20
138.7031510105
 30
0.0
 10
757.2828070103
 20
137.3163605954
 30
0.0
 10
756.5108063461
 20
135.9215980076
 30
0.0
 10
755.9790468935
 20
134.5405270432
 30
0.0
 10
755.7425467678
 20
133.1435640476
 30
0.0
 10
755.9282471224
 20
131.9648726375
 30
0.0
 10
756.3787220495
 20
131.1167161214
 30
0.0
 10
756.7098450955
 20
130.7480214751
 30
0.0
 10
756.8963331066
 20
130.5863970793
 30
0.0
  0
SPLINE
  5
4F9
100
AcDbEntity
  8
KONSTRUKTIONSELEMENTE
100
AcDbSpline
 62
7
  6
CONTINUOUS
 70
0
 71
3
 72
11
 73
7
 74
0
 42
0.0000001
 43
0.0000001
 44
0.0000000001
 40
0.0
 40
0.0
 40
0.0
 40
0.0
 40
0.247258039
 40
0.4956520534
 40
0.7463451021
 40
1.0
 40
1.0
 40
1.0
 40
1.0
 10
769.6903991806
 20
150.1034496874
 30
0.0
 10
769.6902037138
 20
150.5934549668
 30
0.0
 10
769.8012795133
 20
151.5792052683
 30
0.0
 10
770.291191023
 20
152.9869797355
 30
0.0
 10
771.0782307379
 20
154.2670686122
 30
0.0
 10
771.7714965911
 20
154.9981355054
 30
0.0
 10
772.1514887207
 20
155.3272183428
 30
0.0
  0
SPLINE
  5
4FA
100
AcDbEntity
  8
KONSTRUKTIONSELEMENTE
100
AcDbSpline
 62
7
  6
CONTINUOUS
 70
0
 71
3
 72
11
 73
7
 74
0
 42
0.0000001
 43
0.0000001
 44
0.0000000001
 40
0.0
 40
0.0
 40
0.0
 40
0.0
 40
0.247258039
 40
0.4956520534
 40
0.7463451021
 40
1.0
 40
1.0
 40
1.0
 40
1.0
 10
796.2968494803
 20
159.2926102661
 30
0.0
 10
796.2970449471
 20
158.8026049867
 30
0.0
 10
796.1859691476
 20
157.8168546852
 30
0.0
 10
795.696057638
 20
156.409080218
 30
0.0
 10
794.909017923
 20
155.1289913413
 30
0.0
 10
794.2157520698
 20
154.3979244481
 30
0.0
 10
793.8357599403
 20
154.0688416107
 30
0.0
  0
SPLINE
  5
4FB
100
AcDbEntity
  8
KONSTRUKTIONSELEMENTE
100
AcDbSpline
 62
7
  6
CONTINUOUS
 70
0
 71
3
 72
9
 73
5
 74
0
 42
0.0000001
 43
0.0000001
 44
0.0000000001
 40
0.0
 40
0.0
 40
0.0
 40
0.0
 40
0.2390508737
 40
1.0
 40
1.0
 40
1.0
 40
1.0
 10
785.9287625043
 20
161.2889258764
 30
0.0
 10
786.0244069722
 20
161.3581074673
 30
0.0
 10
786.4392510492
 20
161.6268598608
 30
0.0
 10
786.908100807
 20
161.8096279985
 30
0.0
 10
787.2731842125
 20
161.8985350441
 30
0.0
  0
SPLINE
  5
4FC
100
AcDbEntity
  8
KONSTRUKTIONSELEMENTE
100
AcDbSpline
 62
7
  6
CONTINUOUS
 70
0
 71
3
 72
9
 73
5
 74
0
 42
0.0000001
 43
0.0000001
 44
0.0000000001
 40
0.0
 40
0.0
 40
0.0
 40
0.0
 40
0.2598514407
 40
1.0
 40
1.0
 40
1.0
 40
1.0
 10
791.615364757
 20
160.147025292
 30
0.0
 10
791.645646119
 20
160.0771895418
 30
0.0
 10
791.7489498414
 20
159.8029457911
 30
0.0
 10
791.797400169
 20
159.5076311457
 30
0.0
 10
791.797412395
 20
159.2908194293
 30
0.0
  0
SPLINE
  5
4FD
100
AcDbEntity
  8
KONSTRUKTIONSELEMENTE
100
AcDbSpline
 62
7
  6
CONTINUOUS
 70
0
 71
3
 72
9
 73
5
 74
0
 42
0.0000001
 43
0.0000001
 44
0.0000000001
 40
0.0
 40
0.0
 40
0.0
 40
0.0
 40
0.4614411915
 40
1.0
 40
1.0
 40
1.0
 40
1.0
 10
791.797412395
 20
159.2908194293
 30
0.0
 10
791.7974304557
 20
158.9705372471
 30
0.0
 10
791.6259366343
 20
158.2700770157
 30
0.0
 10
791.172391335
 20
157.7152371888
 30
0.0
 10
790.8898184221
 20
157.4705218678
 30
0.0
  0
SPLINE
  5
4FE
100
AcDbEntity
  8
KONSTRUKTIONSELEMENTE
100
AcDbSpline
 62
7
  6
CONTINUOUS
 70
0
 71
3
 72
9
 73
5
 74
0
 42
0.0000001
 43
0.0000001
 44
0.0000000001
 40
0.0
 40
0.0
 40
0.0
 40
0.0
 40
0.4898470903
 40
1.0
 40
1.0
 40
1.0
 40
1.0
 10
780.2832167043
 20
148.2849353323
 30
0.0
 10
779.6855077751
 20
147.7673042156
 30
0.0
 10
778.068888084
 20
147.1547605931
 30
0.0
 10
776.3826992229
 20
147.485186348
 30
0.0
 10
775.6646907101
 20
147.8883850364
 30
0.0
  0
SPLINE
  5
4FF
100
AcDbEntity
  8
KONSTRUKTIONSELEMENTE
100
AcDbSpline
 62
7
  6
CONTINUOUS
 70
0
 71
3
 72
11
 73
7
 74
0
 42
0.0000001
 43
0.0000001
 44
0.0000000001
 40
0.0
 40
0.0
 40
0.0
 40
0.0
 40
0.245958326
 40
0.4956468363
 40
0.7476883331
 40
1.0
 40
1.0
 40
1.0
 40
1.0
 10
782.7580904385
 20
164.5128048783
 30
0.0
 10
783.2357843919
 20
164.9264999772
 30
0.0
 10
784.3055341074
 20
165.6434409036
 30
0.0
 10
786.1192565528
 20
166.3227140381
 30
0.0
 10
788.0535058402
 20
166.5885438186
 30
0.0
 10
789.3571917094
 20
166.4809874805
 30
0.0
 10
789.9934195292
 20
166.3567047953
 30
0.0
  0
SPLINE
  5
500
100
AcDbEntity
  8
KONSTRUKTIONSELEMENTE
100
AcDbSpline
 62
7
  6
CONTINUOUS
 70
0
 71
3
 72
11
 73
7
 74
0
 42
0.0000001
 43
0.0000001
 44
0.0000000001
 40
0.0
 40
0.0
 40
0.0
 40
0.0
 40
0.2532343944
 40
0.50377714
 40
0.752387739
 40
1.0
 40
1.0
 40
1.0
 40
1.0
 10
794.1524695641
 20
164.2224727286
 30
0.0
 10
794.4865932169
 20
163.8984109435
 30
0.0
 10
795.0931851865
 20
163.1901182863
 30
0.0
 10
795.7768748993
 20
161.9778484749
 30
0.0
 10
796.2008474932
 20
160.6626001852
 30
0.0
 10
796.2966679263
 20
159.7477381388
 30
0.0
 10
796.2968494803
 20
159.2926102661
 30
0.0
  0
SPLINE
  5
501
100
AcDbEntity
  8
KONSTRUKTIONSELEMENTE
100
AcDbSpline
 62
7
  6
CONTINUOUS
 70
0
 71
3
 72
11
 73
7
 74
0
 42
0.0000001
 43
0.0000001
 44
0.0000000001
 40
0.0
 40
0.0
 40
0.0
 40
0.0
 40
0.2478292773
 40
0.5003854856
 40
0.75271631
 40
1.0
 40
1.0
 40
1.0
 40
1.0
 10
783.2291582225
 20
144.8832550753
 30
0.0
 10
782.466495629
 20
144.2227698948
 30
0.0
 10
780.6466848304
 20
143.1875886721
 30
0.0
 10
777.5610123432
 20
142.697322421
 30
0.0
 10
774.4925069099
 20
143.275202089
 30
0.0
 10
772.7072651261
 20
144.3643054176
 30
0.0
 10
771.9679289261
 20
145.0475331276
 30
0.0
  0
SPLINE
  5
502
100
AcDbEntity
  8
KONSTRUKTIONSELEMENTE
100
AcDbSpline
 62
7
  6
CONTINUOUS
 70
0
 71
3
 72
13
 73
9
 74
0
 42
0.0000001
 43
0.0000001
 44
0.0000000001
 40
0.0
 40
0.0
 40
0.0
 40
0.0
 40
0.2665971548
 40
0.5131427383
 40
0.6335745049
 40
0.7544506304
 40
0.8766334311
 40
1.0
 40
1.0
 40
1.0
 40
1.0
 10
850.1805901762
 20
206.0768010554
 30
0.0
 10
850.4450748683
 20
207.0268345897
 30
0.0
 10
850.8393699144
 20
208.8915067246
 30
0.0
 10
850.8831500439
 20
211.2580259129
 30
0.0
 10
850.5423423937
 20
213.0369140761
 30
0.0
 10
850.0733884203
 20
214.3047090857
 30
0.0
 10
849.3693726364
 20
215.4729009195
 30
0.0
 10
848.7447930629
 20
216.1435283188
 30
0.0
 10
848.3999463881
 20
216.4424073569
 30
0.0
  0
SPLINE
  5
503
100
AcDbEntity
  8
KONSTRUKTIONSELEMENTE
100
AcDbSpline
 62
7
  6
CONTINUOUS
 70
0
 71
3
 72
28
 73
24
 74
0
 42
0.0000001
 43
0.0000001
 44
0.0000000001
 40
0.0
 40
0.0
 40
0.0
 40
0.0
 40
0.0044216638
 40
0.0080104777
 40
0.0103976033
 40
0.0124217601
 40
0.017249958
 40
0.0252249085
 40
0.0363156015
 40
0.0504805427
 40
0.0677032156
 40
0.0878948529
 40
0.1109247027
 40
0.1366675804
 40
0.1650045482
 40
0.228968168
 40
0.3018822888
 40
0.382928656
 40
0.4713335725
 40
0.5663951627
 40
0.6674336089
 40
0.7738222441
 40
1.0
 40
1.0
 40
1.0
 40
1.0
 10
843.8195573417
 20
211.1549427096
 30
0.0
 10
843.8336314546
 20
211.1424095078
 30
0.0
 10
843.8627471546
 20
211.1194437832
 30
0.0
 10
843.8877932366
 20
211.0957866261
 30
0.0
 10
843.9422280011
 20
211.0732388581
 30
0.0
 10
843.8825561092
 20
211.0917273216
 30
0.0
 10
843.8336279083
 20
211.0961230309
 30
0.0
 10
843.7247718193
 20
211.1090547437
 30
0.0
 10
843.5863669116
 20
211.1122580598
 30
0.0
 10
843.4040219264
 20
211.1071852762
 30
0.0
 10
843.1854975805
 20
211.0860522559
 30
0.0
 10
842.9305178598
 20
211.0475296717
 30
0.0
 10
842.6423240622
 20
210.9893908092
 30
0.0
 10
842.3233567665
 20
210.9096771926
 30
0.0
 10
841.8407925609
 20
210.7669262928
 30
0.0
 10
841.1777195283
 20
210.5279289059
 30
0.0
 10
840.3258625019
 20
210.1563992433
 30
0.0
 10
839.4029659685
 20
209.691291979
 30
0.0
 10
838.4221448
 20
209.1346008196
 30
0.0
 10
837.3942668013
 20
208.4906370343
 30
0.0
 10
836.3293623425
 20
207.7633380949
 30
0.0
 10
834.8413881033
 20
206.6668017242
 30
0.0
 10
833.7433358513
 20
205.7685045941
 30
0.0
 10
833.014619908
 20
205.1374180752
 30
0.0
  0
SPLINE
  5
504
100
AcDbEntity
  8
KONSTRUKTIONSELEMENTE
100
AcDbSpline
 62
7
  6
CONTINUOUS
 70
0
 71
3
 72
9
 73
5
 74
0
 42
0.0000001
 43
0.0000001
 44
0.0000000001
 40
0.0
 40
0.0
 40
0.0
 40
0.0
 40
0.2961788403
 40
1.0
 40
1.0
 40
1.0
 40
1.0
 10
843.8400276598
 20
210.4715617224
 30
0.0
 10
843.8395614161
 20
210.5213835474
 30
0.0
 10
843.8352750544
 20
210.6895351842
 30
0.0
 10
843.8197683806
 20
210.8575845484
 30
0.0
 10
843.8003373037
 20
210.9743778945
 30
0.0
  0
SPLINE
  5
505
100
AcDbEntity
  8
KONSTRUKTIONSELEMENTE
100
AcDbSpline
 62
7
  6
CONTINUOUS
 70
0
 71
3
 72
9
 73
5
 74
0
 42
0.0000001
 43
0.0000001
 44
0.0000000001
 40
0.0
 40
0.0
 40
0.0
 40
0.0
 40
0.2825936743
 40
1.0
 40
1.0
 40
1.0
 40
1.0
 10
843.8003373037
 20
210.9743778945
 30
0.0
 10
843.7981251437
 20
210.9876744077
 30
0.0
 10
843.7898844409
 20
211.0346551705
 30
0.0
 10
843.7800951111
 20
211.0813738923
 30
0.0
 10
843.7719612084
 20
211.1146122841
 30
0.0
  0
SPLINE
  5
506
100
AcDbEntity
  8
KONSTRUKTIONSELEMENTE
100
AcDbSpline
 62
7
  6
CONTINUOUS
 70
0
 71
3
 72
18
 73
14
 74
0
 42
0.0000001
 43
0.0000001
 44
0.0000000001
 40
0.0
 40
0.0
 40
0.0
 40
0.0
 40
0.1457407034
 40
0.2955554009
 40
0.4424898558
 40
0.5800060154
 40
0.7031699944
 40
0.7587228036
 40
0.8104826438
 40
0.8592107064
 40
0.9061586451
 40
0.9527675816
 40
1.0
 40
1.0
 40
1.0
 40
1.0
 10
828.4320442131
 20
210.4289206973
 30
0.0
 10
826.9531092481
 20
209.1481254471
 30
0.0
 10
824.0822994081
 20
206.3998607952
 30
0.0
 10
820.1564321584
 20
201.9334181341
 30
0.0
 10
816.6905250056
 20
197.2359084806
 30
0.0
 10
813.8632113723
 20
192.5415971122
 30
0.0
 10
812.0910583945
 20
188.6676753223
 30
0.0
 10
811.1545782137
 20
185.7148314789
 30
0.0
 10
810.720553772
 20
183.6612688299
 30
0.0
 10
810.5537245431
 20
181.6826823189
 30
0.0
 10
810.7040744759
 20
179.7675117425
 30
0.0
 10
811.2460143791
 20
177.9398962136
 30
0.0
 10
811.9144989032
 20
176.848687452
 30
0.0
 10
812.3215170347
 20
176.3625157818
 30
0.0
  0
SPLINE
  5
507
100
AcDbEntity
  8
KONSTRUKTIONSELEMENTE
100
AcDbSpline
 62
7
  6
CONTINUOUS
 70
0
 71
3
 72
9
 73
5
 74
0
 42
0.0000001
 43
0.0000001
 44
0.0000000001
 40
0.0
 40
0.0
 40
0.0
 40
0.0
 40
0.4689766639
 40
1.0
 40
1.0
 40
1.0
 40
1.0
 10
822.842427787
 20
182.8338605927
 30
0.0
 10
823.7777516753
 20
183.3823852851
 30
0.0
 10
825.7014483561
 20
184.6732412682
 30
0.0
 10
827.5039469826
 20
186.1251649185
 30
0.0
 10
828.4320442131
 20
186.9289206973
 30
0.0
  0
SPLINE
  5
508
100
AcDbEntity
  8
KONSTRUKTIONSELEMENTE
100
AcDbSpline
 62
7
  6
CONTINUOUS
 70
0
 71
3
 72
15
 73
11
 74
0
 42
0.0000001
 43
0.0000001
 44
0.0000000001
 40
0.0
 40
0.0
 40
0.0
 40
0.0
 40
0.1081196166
 40
0.2144958106
 40
0.3220220015
 40
0.4358573556
 40
0.5598537041
 40
0.6955823644
 40
0.842808117
 40
1.0
 40
1.0
 40
1.0
 40
1.0
 10
848.3999463881
 20
216.4424073569
 30
0.0
 10
847.787736812
 20
216.9730101513
 30
0.0
 10
846.3550392788
 20
217.7959741662
 30
0.0
 10
843.9414960536
 20
218.2135276351
 30
0.0
 10
841.4762586724
 20
217.9760630913
 30
0.0
 10
838.9841830064
 20
217.2399151276
 30
0.0
 10
836.4280511515
 20
216.0833660152
 30
0.0
 10
833.7924724261
 20
214.5411156765
 30
0.0
 10
831.0925928555
 20
212.6416400188
 30
0.0
 10
829.3224151899
 20
211.200004582
 30
0.0
 10
828.4320442131
 20
210.4289206973
 30
0.0
  0
SPLINE
  5
509
100
AcDbEntity
  8
KONSTRUKTIONSELEMENTE
100
AcDbSpline
 62
7
  6
CONTINUOUS
 70
0
 71
3
 72
17
 73
13
 74
0
 42
0.0000001
 43
0.0000001
 44
0.0000000001
 40
0.0
 40
0.0
 40
0.0
 40
0.0
 40
0.1500825534
 40
0.3058430505
 40
0.4609169782
 40
0.6089258496
 40
0.7435535449
 40
0.858438101
 40
0.906402335
 40
0.946753188
 40
0.9783533962
 40
1.0
 40
1.0
 40
1.0
 40
1.0
 10
833.014619908
 20
205.1374180752
 30
0.0
 10
831.914009479
 20
204.184261484
 30
0.0
 10
829.752696463
 20
202.1463468214
 30
0.0
 10
826.7300916189
 20
198.8464393563
 30
0.0
 10
823.9622590052
 20
195.3553580488
 30
0.0
 10
821.5761234828
 20
191.8373776513
 30
0.0
 10
819.6840164911
 20
188.4718478187
 30
0.0
 10
818.5273239222
 20
185.8188919651
 30
0.0
 10
817.9422048478
 20
183.9345631808
 30
0.0
 10
817.6937275227
 20
182.7960485731
 30
0.0
 10
817.5954832335
 20
181.8917597074
 30
0.0
 10
817.6070442542
 20
181.3725679381
 30
0.0
 10
817.6353805362
 20
181.1644919529
 30
0.0
  0
SPLINE
  5
50A
100
AcDbEntity
  8
KONSTRUKTIONSELEMENTE
100
AcDbSpline
 62
7
  6
CONTINUOUS
 70
0
 71
3
 72
12
 73
8
 74
0
 42
0.0000001
 43
0.0000001
 44
0.0000000001
 40
0.0
 40
0.0
 40
0.0
 40
0.0
 40
0.2074073851
 40
0.3191585276
 40
0.4387146187
 40
0.7035090349
 40
1.0
 40
1.0
 40
1.0
 40
1.0
 10
817.2222204991
 20
173.9761254161
 30
0.0
 10
818.4581733276
 20
173.8897203888
 30
0.0
 10
820.3909870236
 20
174.1662302535
 30
0.0
 10
822.8703543109
 20
175.0124969537
 30
0.0
 10
825.5700037301
 20
176.248552136
 30
0.0
 10
829.0401177763
 20
178.3955420966
 30
0.0
 10
831.6757795032
 20
180.477948273
 30
0.0
 10
833.014619908
 20
181.6374180752
 30
0.0
  0
SPLINE
  5
50B
100
AcDbEntity
  8
BEZUGSACHSEN
100
AcDbSpline
 62
7
  6
CONTINUOUS
 70
0
 71
3
 72
8
 73
4
 74
0
 42
0.0000001
 43
0.0000001
 44
0.0000000001
 40
0.0
 40
0.0
 40
0.0
 40
0.0
 40
1.0
 40
1.0
 40
1.0
 40
1.0
 10
859.5485281812
 20
221.6322306976
 30
0.0
 10
859.5434064802
 20
221.6113037809
 30
0.0
 10
859.5417692098
 20
221.5891817312
 30
0.0
 10
859.5440164835
 20
221.5677547057
 30
0.0
  0
LINE
  5
50C
100
AcDbEntity
  8
BEZUGSACHSEN
100
AcDbLine
 62
7
  6
CONTINUOUS
 10
858.1068468954
 20
214.6796783982
 11
858.0945463318
 21
214.6359487648
  0
LINE
  5
50D
100
AcDbEntity
  8
BEZUGSACHSEN
100
AcDbLine
 62
7
  6
CONTINUOUS
 10
858.0945463318
 20
214.6359487648
 11
857.9589310035
 21
214.1531368657
  0
LINE
  5
50E
100
AcDbEntity
  8
BEZUGSACHSEN
100
AcDbLine
 62
7
  6
CONTINUOUS
 10
857.9443097964
 20
212.8585542786
 11
858.0044580504
 21
213.0918232424
  0
LINE
  5
50F
100
AcDbEntity
  8
BEZUGSACHSEN
100
AcDbLine
 62
7
  6
CONTINUOUS
 10
858.0044580504
 20
213.0918232424
 11
858.1888916193
 21
213.8070750808
  0
LINE
  5
510
100
AcDbEntity
  8
BEZUGSACHSEN
100
AcDbLine
 62
7
  6
CONTINUOUS
 10
858.1888916193
 20
213.8070750808
 11
858.2051041412
 21
213.8699471458
  0
LINE
  5
511
100
AcDbEntity
  8
BEZUGSACHSEN
100
AcDbLine
 62
7
  6
CONTINUOUS
 10
857.9815332426
 20
215.0049771599
 11
857.9865701743
 21
215.0289949577
  0
SPLINE
  5
512
100
AcDbEntity
  8
BEZUGSACHSEN
100
AcDbSpline
 62
7
  6
CONTINUOUS
 70
0
 71
3
 72
8
 73
4
 74
0
 42
0.0000001
 43
0.0000001
 44
0.0000000001
 40
0.0
 40
0.0
 40
0.0
 40
0.0
 40
1.0
 40
1.0
 40
1.0
 40
1.0
 10
859.7961444204
 20
222.6284181432
 30
0.0
 10
859.7906580965
 20
222.6161226006
 30
0.0
 10
859.7861533699
 20
222.6033190763
 30
0.0
 10
859.7829519163
 20
222.5902412014
 30
0.0
  0
LINE
  5
513
100
AcDbEntity
  8
BEZUGSACHSEN
100
AcDbLine
 62
7
  6
CONTINUOUS
 10
859.5076087009
 20
221.3909774826
 11
859.4699232583
 21
221.2247141488
  0
LINE
  5
514
100
AcDbEntity
  8
BEZUGSACHSEN
100
AcDbLine
 62
7
  6
CONTINUOUS
 10
859.4699232583
 20
221.2247141488
 11
859.4326139293
 21
221.0590421201
  0
LINE
  5
515
100
AcDbEntity
  8
BEZUGSACHSEN
100
AcDbLine
 62
7
  6
CONTINUOUS
 10
859.4326139293
 20
221.0590421201
 11
859.3181474407
 21
220.5719481715
  0
LINE
  5
516
100
AcDbEntity
  8
BEZUGSACHSEN
100
AcDbLine
 62
7
  6
CONTINUOUS
 10
859.3181474407
 20
220.5719481715
 11
859.1635940422
 21
219.9296965798
  0
LINE
  5
517
100
AcDbEntity
  8
BEZUGSACHSEN
100
AcDbLine
 62
7
  6
CONTINUOUS
 10
859.1635940422
 20
219.9296965798
 11
858.5786371717
 21
217.5374671631
  0
LINE
  5
518
100
AcDbEntity
  8
BEZUGSACHSEN
100
AcDbLine
 62
7
  6
CONTINUOUS
 10
858.4210603859
 20
216.9038631851
 11
858.5786371717
 21
217.5374671631
  0
LINE
  5
519
100
AcDbEntity
  8
BEZUGSACHSEN
100
AcDbLine
 62
7
  6
CONTINUOUS
 10
858.3011564604
 20
216.4340650096
 11
858.4210603859
 21
216.9038631851
  0
LINE
  5
51A
100
AcDbEntity
  8
BEZUGSACHSEN
100
AcDbLine
 62
7
  6
CONTINUOUS
 10
858.2196112983
 20
216.1280724755
 11
858.2398264474
 21
216.2042759672
  0
LINE
  5
51B
100
AcDbEntity
  8
BEZUGSACHSEN
100
AcDbLine
 62
7
  6
CONTINUOUS
 10
858.1871643514
 20
216.0637146263
 11
858.2038436706
 21
216.1319281257
  0
LINE
  5
51C
100
AcDbEntity
  8
BEZUGSACHSEN
100
AcDbLine
 62
7
  6
CONTINUOUS
 10
858.2038436706
 20
216.1319281257
 11
858.2790443152
 21
216.4394720808
  0
LINE
  5
51D
100
AcDbEntity
  8
BEZUGSACHSEN
100
AcDbLine
 62
7
  6
CONTINUOUS
 10
858.2790443152
 20
216.4394720808
 11
858.3942063177
 21
216.9104297962
  0
LINE
  5
51E
100
AcDbEntity
  8
BEZUGSACHSEN
100
AcDbLine
 62
7
  6
CONTINUOUS
 10
858.3942063177
 20
216.9104297962
 11
858.5230273659
 21
217.4372271032
  0
LINE
  5
51F
100
AcDbEntity
  8
BEZUGSACHSEN
100
AcDbLine
 62
7
  6
CONTINUOUS
 10
858.5230273659
 20
217.4372271032
 11
858.5492950037
 21
217.5446428324
  0
LINE
  5
520
100
AcDbEntity
  8
BEZUGSACHSEN
100
AcDbLine
 62
7
  6
CONTINUOUS
 10
858.5492950037
 20
217.5446428324
 11
859.1343380761
 21
219.936851797
  0
LINE
  5
521
100
AcDbEntity
  8
BEZUGSACHSEN
100
AcDbLine
 62
7
  6
CONTINUOUS
 10
859.1343380761
 20
219.936851797
 11
859.2055869848
 21
220.2281609669
  0
LINE
  5
522
100
AcDbEntity
  8
BEZUGSACHSEN
100
AcDbLine
 62
7
  6
CONTINUOUS
 10
859.2055869848
 20
220.2281609669
 11
859.2912799045
 21
220.5785198085
  0
LINE
  5
523
100
AcDbEntity
  8
BEZUGSACHSEN
100
AcDbLine
 62
7
  6
CONTINUOUS
 10
859.2912799045
 20
220.5785198085
 11
859.4101552774
 21
221.0645353703
  0
LINE
  5
524
100
AcDbEntity
  8
BEZUGSACHSEN
100
AcDbLine
 62
7
  6
CONTINUOUS
 10
859.4101552774
 20
221.0645353703
 11
859.4909959142
 21
221.3950408696
  0
LINE
  5
525
100
AcDbEntity
  8
BEZUGSACHSEN
100
AcDbLine
 62
7
  6
CONTINUOUS
 10
859.4909959142
 20
221.3950408696
 11
859.533849976
 21
221.570241372
  0
LINE
  5
526
100
AcDbEntity
  8
BEZUGSACHSEN
100
AcDbLine
 62
7
  6
CONTINUOUS
 10
859.533849976
 20
221.570241372
 11
859.5464187097
 21
221.6216259042
  0
LINE
  5
527
100
AcDbEntity
  8
BEZUGSACHSEN
100
AcDbLine
 62
7
  6
CONTINUOUS
 10
859.5464187097
 20
221.6216259042
 11
859.5522787909
 21
221.6455835258
  0
SPLINE
  5
528
100
AcDbEntity
  8
BEZUGSACHSEN
100
AcDbSpline
 62
7
  6
CONTINUOUS
 70
0
 71
3
 72
8
 73
4
 74
0
 42
0.0000001
 43
0.0000001
 44
0.0000000001
 40
0.0
 40
0.0
 40
0.0
 40
0.0
 40
1.0
 40
1.0
 40
1.0
 40
1.0
 10
859.7829519163
 20
222.5902412014
 30
0.0
 10
859.7777397272
 20
222.5689495107
 30
0.0
 10
859.776045693
 20
222.5464528146
 30
0.0
 10
859.7782778543
 20
222.524646383
 30
0.0
  0
SPLINE
  5
529
100
AcDbEntity
  8
BEZUGSACHSEN
100
AcDbSpline
 62
7
  6
CONTINUOUS
 70
0
 71
3
 72
8
 73
4
 74
0
 42
0.0000001
 43
0.0000001
 44
0.0000000001
 40
0.0
 40
0.0
 40
0.0
 40
0.0
 40
1.0
 40
1.0
 40
1.0
 40
1.0
 10
858.1810695956
 20
216.0438885169
 30
0.0
 10
858.177992062
 20
216.0313157652
 30
0.0
 10
858.1763460718
 20
216.0182902745
 30
0.0
 10
858.1763357792
 20
216.0053463496
 30
0.0
  0
LINE
  5
52A
100
AcDbEntity
  8
BEZUGSACHSEN
100
AcDbLine
 62
7
  6
CONTINUOUS
 10
858.2333513984
 20
216.0891580654
 11
858.3934689338
 21
216.7184382988
  0
LINE
  5
52B
100
AcDbEntity
  8
BEZUGSACHSEN
100
AcDbLine
 62
7
  6
CONTINUOUS
 10
858.3934689338
 20
216.7184382988
 11
858.590459118
 21
217.511524223
  0
LINE
  5
52C
100
AcDbEntity
  8
BEZUGSACHSEN
100
AcDbLine
 62
7
  6
CONTINUOUS
 10
859.1746606247
 20
219.9037536397
 11
858.590459118
 21
217.511524223
  0
LINE
  5
52D
100
AcDbEntity
  8
BEZUGSACHSEN
100
AcDbLine
 62
7
  6
CONTINUOUS
 10
859.3673732237
 20
220.7054876244
 11
859.1746606247
 21
219.9037536397
  0
LINE
  5
52E
100
AcDbEntity
  8
BEZUGSACHSEN
100
AcDbLine
 62
7
  6
CONTINUOUS
 10
859.5194860041
 20
221.3520630725
 11
859.3673732237
 21
220.7054876244
  0
LINE
  5
52F
100
AcDbEntity
  8
BEZUGSACHSEN
100
AcDbLine
 62
7
  6
CONTINUOUS
 10
859.5273095398
 20
221.3864949347
 11
859.5194860041
 21
221.3520630725
  0
SPLINE
  5
530
100
AcDbEntity
  8
KONSTRUKTIONSELEMENTE
100
AcDbSpline
 62
7
  6
CONTINUOUS
 70
0
 71
3
 72
9
 73
5
 74
0
 42
0.0000001
 43
0.0000001
 44
0.0000000001
 40
0.0
 40
0.0
 40
0.0
 40
0.0
 40
0.2416832593
 40
1.0
 40
1.0
 40
1.0
 40
1.0
 10
886.8801664229
 20
127.6159225545
 30
0.0
 10
887.1058246817
 20
127.9362757518
 30
0.0
 10
888.0132553887
 20
129.2803331608
 30
0.0
 10
888.8306503338
 20
130.6831674791
 30
0.0
 10
889.4220989662
 20
131.7610545123
 30
0.0
  0
SPLINE
  5
531
100
AcDbEntity
  8
0
100
AcDbSpline
 62
7
  6
CONTINUOUS
 70
0
 71
3
 72
13
 73
9
 74
0
 42
0.0000001
 43
0.0000001
 44
0.0000000001
 40
0.0
 40
0.0
 40
0.0
 40
0.0
 40
0.1163023557
 40
0.2340384021
 40
0.3543786332
 40
0.4780387852
 40
0.7344041874
 40
1.0
 40
1.0
 40
1.0
 40
1.0
 10
876.8464380729
 20
145.261339856
 30
0.0
 10
876.8464380729
 20
144.7512129827
 30
0.0
 10
876.7286616206
 20
143.720963564
 30
0.0
 10
876.2077041431
 20
142.2436648563
 30
0.0
 10
875.3641792642
 20
140.8854027975
 30
0.0
 10
873.8411432553
 20
139.2867562525
 30
0.0
 10
871.3195678876
 20
137.853686581
 30
0.0
 10
869.011397807
 20
137.4671112219
 30
0.0
 10
867.8464380729
 20
137.4671112219
 30
0.0
  0
SPLINE
  5
532
100
AcDbEntity
  8
BEZUGSACHSEN
100
AcDbSpline
 62
7
  6
CONTINUOUS
 70
0
 71
3
 72
8
 73
4
 74
0
 42
0.0000001
 43
0.0000001
 44
0.0000000001
 40
0.0
 40
0.0
 40
0.0
 40
0.0
 40
1.0
 40
1.0
 40
1.0
 40
1.0
 10
877.7462286037
 20
215.0858848898
 30
0.0
 10
877.7507454231
 20
215.0674326312
 30
0.0
 10
877.7519835251
 20
215.0478418673
 30
0.0
 10
877.7496073834
 20
215.0289940171
 30
0.0
  0
SPLINE
  5
533
100
AcDbEntity
  8
0
100
AcDbSpline
 62
7
  6
CONTINUOUS
 70
0
 71
3
 72
13
 73
9
 74
0
 42
0.0000001
 43
0.0000001
 44
0.0000000001
 40
0.0
 40
0.0
 40
0.0
 40
0.0
 40
0.2655958126
 40
0.5219612148
 40
0.6456213668
 40
0.7659615979
 40
0.8836976443
 40
1.0
 40
1.0
 40
1.0
 40
1.0
 10
867.8464380729
 20
137.4671112219
 30
0.0
 10
866.6814783387
 20
137.4671112219
 30
0.0
 10
864.3733082581
 20
137.853686581
 30
0.0
 10
861.8517328904
 20
139.2867562525
 30
0.0
 10
860.3286968815
 20
140.8854027975
 30
0.0
 10
859.4851720026
 20
142.2436648563
 30
0.0
 10
858.9642145252
 20
143.720963564
 30
0.0
 10
858.8464380729
 20
144.7512129827
 30
0.0
 10
858.8464380729
 20
145.261339856
 30
0.0
  0
SPLINE
  5
534
100
AcDbEntity
  8
KONSTRUKTIONSELEMENTE
100
AcDbSpline
 62
7
  6
CONTINUOUS
 70
0
 71
3
 72
10
 73
6
 74
0
 42
0.0000001
 43
0.0000001
 44
0.0000000001
 40
0.0
 40
0.0
 40
0.0
 40
0.0
 40
0.49868292
 40
0.7574988817
 40
1.0
 40
1.0
 40
1.0
 40
1.0
 10
889.0066921107
 20
129.0796255942
 30
0.0
 10
889.3491692089
 20
128.131421372
 30
0.0
 10
889.8297929104
 20
126.6734046742
 30
0.0
 10
890.2503735206
 20
124.6939029577
 30
0.0
 10
890.3464380729
 20
123.6803434527
 30
0.0
 10
890.3464380729
 20
123.1900933494
 30
0.0
  0
SPLINE
  5
535
100
AcDbEntity
  8
KONSTRUKTIONSELEMENTE
100
AcDbSpline
 62
7
  6
CONTINUOUS
 70
0
 71
3
 72
9
 73
5
 74
0
 42
0.0000001
 43
0.0000001
 44
0.0000000001
 40
0.0
 40
0.0
 40
0.0
 40
0.0
 40
0.5561687675
 40
1.0
 40
1.0
 40
1.0
 40
1.0
 10
889.4220989662
 20
131.7610545123
 30
0.0
 10
889.6915845767
 20
132.2521792344
 30
0.0
 10
890.1205122145
 20
133.1662747489
 30
0.0
 10
890.3464380729
 20
134.1686095092
 30
0.0
 10
890.3464380729
 20
134.6156591139
 30
0.0
  0
SPLINE
  5
536
100
AcDbEntity
  8
0
100
AcDbSpline
 62
7
  6
CONTINUOUS
 70
0
 71
3
 72
9
 73
5
 74
0
 42
0.0000001
 43
0.0000001
 44
0.0000000001
 40
0.0
 40
0.0
 40
0.0
 40
0.0
 40
0.4983025356
 40
1.0
 40
1.0
 40
1.0
 40
1.0
 10
845.3464380729
 20
104.6332854313
 30
0.0
 10
845.3464380729
 20
104.1392307413
 30
0.0
 10
845.4956605099
 20
103.1422448748
 30
0.0
 10
845.9278110213
 20
102.2328758618
 30
0.0
 10
846.2013205657
 20
101.8174003989
 30
0.0
  0
SPLINE
  5
537
100
AcDbEntity
  8
0
100
AcDbSpline
 62
7
  6
CONTINUOUS
 70
0
 71
3
 72
9
 73
5
 74
0
 42
0.0000001
 43
0.0000001
 44
0.0000000001
 40
0.0
 40
0.0
 40
0.0
 40
0.0
 40
0.5028158989
 40
1.0
 40
1.0
 40
1.0
 40
1.0
 10
846.7541342539
 20
157.3396513352
 30
0.0
 10
846.3043639505
 20
156.6649958801
 30
0.0
 10
845.5929853807
 20
155.1896073433
 30
0.0
 10
845.3464380729
 20
153.5679025028
 30
0.0
 10
845.3464380729
 20
152.7661493276
 30
0.0
  0
SPLINE
  5
538
100
AcDbEntity
  8
0
100
AcDbSpline
 62
7
  6
CONTINUOUS
 70
0
 71
3
 72
9
 73
5
 74
0
 42
0.0000001
 43
0.0000001
 44
0.0000000001
 40
0.0
 40
0.0
 40
0.0
 40
0.0
 40
0.2471530034
 40
1.0
 40
1.0
 40
1.0
 40
1.0
 10
862.1763545514
 20
229.8314360863
 30
0.0
 10
862.1983513889
 20
229.9213036991
 30
0.0
 10
862.2926872953
 20
230.2835990203
 30
0.0
 10
862.4076356481
 20
230.6404403562
 30
0.0
 10
862.5039604539
 20
230.9052924932
 30
0.0
  0
SPLINE
  5
539
100
AcDbEntity
  8
RUNDUNGEN
100
AcDbSpline
 62
7
  6
CONTINUOUS
 70
0
 71
3
 72
9
 73
5
 74
0
 42
0.0000001
 43
0.0000001
 44
0.0000000001
 40
0.0
 40
0.0
 40
0.0
 40
0.0
 40
0.4986194922
 40
1.0
 40
1.0
 40
1.0
 40
1.0
 10
890.3464380729
 20
104.6332854313
 30
0.0
 10
890.3464380729
 20
104.1881078072
 30
0.0
 10
890.22572821
 20
103.2912589982
 30
0.0
 10
889.8736803211
 20
102.4584349796
 30
0.0
 10
889.648789243
 20
102.0713845912
 30
0.0
  0
SPLINE
  5
53A
100
AcDbEntity
  8
RUNDUNGEN
100
AcDbSpline
 62
7
  6
CONTINUOUS
 70
0
 71
3
 72
9
 73
5
 74
0
 42
0.0000001
 43
0.0000001
 44
0.0000000001
 40
0.0
 40
0.0
 40
0.0
 40
0.0
 40
0.5028158989
 40
1.0
 40
1.0
 40
1.0
 40
1.0
 10
888.9387418918
 20
157.3396513352
 30
0.0
 10
889.3885121952
 20
156.6649958801
 30
0.0
 10
890.099890765
 20
155.1896073433
 30
0.0
 10
890.3464380729
 20
153.5679025028
 30
0.0
 10
890.3464380729
 20
152.7661493276
 30
0.0
  0
SPLINE
  5
53B
100
AcDbEntity
  8
0
100
AcDbSpline
 62
7
  6
CONTINUOUS
 70
0
 71
3
 72
15
 73
11
 74
0
 42
0.0000001
 43
0.0000001
 44
0.0000000001
 40
0.0
 40
0.0
 40
0.0
 40
0.0
 40
0.1180141179
 40
0.2411952901
 40
0.3691785965
 40
0.5
 40
0.6308214035
 40
0.7588047099
 40
0.8819858821
 40
1.0
 40
1.0
 40
1.0
 40
1.0
 10
851.0166795328
 20
124.9911242452
 30
0.0
 10
851.6593934293
 20
123.4945360293
 30
0.0
 10
853.5142468676
 20
120.6462813175
 30
0.0
 10
857.5291541949
 20
117.3942879613
 30
0.0
 10
862.4532035207
 20
115.329855726
 30
0.0
 10
867.8464380729
 20
114.6239318785
 30
0.0
 10
873.2396726251
 20
115.329855726
 30
0.0
 10
878.1637219509
 20
117.3942879613
 30
0.0
 10
882.1786292782
 20
120.6462813175
 30
0.0
 10
884.0334827165
 20
123.4945360293
 30
0.0
 10
884.6761966129
 20
124.9911242452
 30
0.0
  0
SPLINE
  5
53C
100
AcDbEntity
  8
0
100
AcDbSpline
 62
7
  6
CONTINUOUS
 70
0
 71
3
 72
9
 73
5
 74
0
 42
0.0000001
 43
0.0000001
 44
0.0000000001
 40
0.0
 40
0.0
 40
0.0
 40
0.0
 40
0.5046288536
 40
1.0
 40
1.0
 40
1.0
 40
1.0
 10
881.9986416789
 20
122.6980623986
 30
0.0
 10
882.9457196672
 20
123.3842701095
 30
0.0
 10
884.718285653
 20
124.8949051873
 30
0.0
 10
886.219008323
 20
126.6773169286
 30
0.0
 10
886.8801664229
 20
127.6159225545
 30
0.0
  0
SPLINE
  5
53D
100
AcDbEntity
  8
0
100
AcDbSpline
 62
7
  6
CONTINUOUS
 70
0
 71
3
 72
9
 73
5
 74
0
 42
0.0000001
 43
0.0000001
 44
0.0000000001
 40
0.0
 40
0.0
 40
0.0
 40
0.0
 40
0.4953708979
 40
1.0
 40
1.0
 40
1.0
 40
1.0
 10
848.8127097228
 20
127.6159225545
 30
0.0
 10
849.4739049161
 20
126.6772642695
 30
0.0
 10
850.9747220161
 20
124.8947578284
 30
0.0
 10
852.7474099788
 20
123.3840607992
 30
0.0
 10
853.6945542251
 20
122.6978307214
 30
0.0
  0
SPLINE
  5
53E
100
AcDbEntity
  8
0
100
AcDbSpline
 62
7
  6
CONTINUOUS
 70
0
 71
3
 72
9
 73
5
 74
0
 42
0.0000001
 43
0.0000001
 44
0.0000000001
 40
0.0
 40
0.0
 40
0.0
 40
0.0
 40
0.2471530034
 40
1.0
 40
1.0
 40
1.0
 40
1.0
 10
873.5165215944
 20
229.8314360863
 30
0.0
 10
873.4945247568
 20
229.9213036991
 30
0.0
 10
873.4001888504
 20
230.2835990203
 30
0.0
 10
873.2852404976
 20
230.6404403562
 30
0.0
 10
873.1889156919
 20
230.9052924932
 30
0.0
  0
SPLINE
  5
53F
100
AcDbEntity
  8
0
100
AcDbSpline
 62
7
  6
CONTINUOUS
 70
0
 71
3
 72
9
 73
5
 74
0
 42
0.0000001
 43
0.0000001
 44
0.0000000001
 40
0.0
 40
0.0
 40
0.0
 40
0.0
 40
0.2416832593
 40
1.0
 40
1.0
 40
1.0
 40
1.0
 10
848.8127097228
 20
127.6159225545
 30
0.0
 10
848.5870514641
 20
127.9362757518
 30
0.0
 10
847.679620757
 20
129.2803331608
 30
0.0
 10
846.8622258119
 20
130.6831674791
 30
0.0
 10
846.2707771795
 20
131.7610545123
 30
0.0
  0
SPLINE
  5
540
100
AcDbEntity
  8
0
100
AcDbSpline
 62
7
  6
CONTINUOUS
 70
0
 71
3
 72
10
 73
6
 74
0
 42
0.0000001
 43
0.0000001
 44
0.0000000001
 40
0.0
 40
0.0
 40
0.0
 40
0.0
 40
0.49868292
 40
0.7574988817
 40
1.0
 40
1.0
 40
1.0
 40
1.0
 10
846.686184035
 20
129.0796255942
 30
0.0
 10
846.3437069368
 20
128.131421372
 30
0.0
 10
845.8630832353
 20
126.6734046742
 30
0.0
 10
845.4425026251
 20
124.6939029577
 30
0.0
 10
845.3464380729
 20
123.6803434527
 30
0.0
 10
845.3464380729
 20
123.1900933494
 30
0.0
  0
SPLINE
  5
541
100
AcDbEntity
  8
0
100
AcDbSpline
 62
7
  6
CONTINUOUS
 70
0
 71
3
 72
9
 73
5
 74
0
 42
0.0000001
 43
0.0000001
 44
0.0000000001
 40
0.0
 40
0.0
 40
0.0
 40
0.0
 40
0.5561687675
 40
1.0
 40
1.0
 40
1.0
 40
1.0
 10
846.2707771795
 20
131.7610545123
 30
0.0
 10
846.001291569
 20
132.2521792344
 30
0.0
 10
845.5723639312
 20
133.1662747489
 30
0.0
 10
845.3464380729
 20
134.1686095092
 30
0.0
 10
845.3464380729
 20
134.6156591139
 30
0.0
  0
LINE
  5
542
100
AcDbEntity
  8
BEZUGSACHSEN
100
AcDbLine
 62
7
  6
CONTINUOUS
 10
876.8532854582
 20
217.2680686151
 11
876.9675262148
 21
216.8664868762
  0
LINE
  5
543
100
AcDbEntity
  8
BEZUGSACHSEN
100
AcDbLine
 62
7
  6
CONTINUOUS
 10
876.9675262148
 20
216.8664868762
 11
877.0029835504
 21
216.7417098031
  0
LINE
  5
544
100
AcDbEntity
  8
BEZUGSACHSEN
100
AcDbLine
 62
7
  6
CONTINUOUS
 10
877.0029835504
 20
216.7417098031
 11
877.0813609338
 21
216.4656569547
  0
LINE
  5
545
100
AcDbEntity
  8
BEZUGSACHSEN
100
AcDbLine
 62
7
  6
CONTINUOUS
 10
877.0813609338
 20
216.4656569547
 11
877.1830780083
 21
216.106899026
  0
LINE
  5
546
100
AcDbEntity
  8
BEZUGSACHSEN
100
AcDbLine
 62
7
  6
CONTINUOUS
 10
876.7697104857
 20
217.7324159749
 11
876.6085269634
 21
218.4588322484
  0
LINE
  5
547
100
AcDbEntity
  8
BEZUGSACHSEN
100
AcDbLine
 62
7
  6
CONTINUOUS
 10
876.6085269634
 20
218.4588322484
 11
876.4896786483
 21
218.9530747841
  0
LINE
  5
548
100
AcDbEntity
  8
BEZUGSACHSEN
100
AcDbLine
 62
7
  6
CONTINUOUS
 10
876.3337976415
 20
219.5581243674
 11
876.4896786483
 21
218.9530747841
  0
LINE
  5
549
100
AcDbEntity
  8
BEZUGSACHSEN
100
AcDbLine
 62
7
  6
CONTINUOUS
 10
876.218744739
 20
219.971455571
 11
876.247618543
 21
219.8677774833
  0
LINE
  5
54A
100
AcDbEntity
  8
BEZUGSACHSEN
100
AcDbLine
 62
7
  6
CONTINUOUS
 10
876.247618543
 20
219.8677774833
 11
876.3337976415
 21
219.5581243674
  0
SPLINE
  5
54B
100
AcDbEntity
  8
BEZUGSACHSEN
100
AcDbSpline
 62
7
  6
CONTINUOUS
 70
0
 71
3
 72
8
 73
4
 74
0
 42
0.0000001
 43
0.0000001
 44
0.0000000001
 40
0.0
 40
0.0
 40
0.0
 40
0.0
 40
1.0
 40
1.0
 40
1.0
 40
1.0
 10
876.0677175625
 20
220.4551376166
 30
0.0
 10
876.1143252459
 20
220.3063980699
 30
0.0
 10
876.1607969328
 20
220.1576158337
 30
0.0
 10
876.2071261475
 20
220.0087893146
 30
0.0
  0
LINE
  5
54C
100
AcDbEntity
  8
BEZUGSACHSEN
100
AcDbLine
 62
7
  6
CONTINUOUS
 10
876.2071261475
 20
220.0087893146
 11
876.218744739
 21
219.971455571
  0
LINE
  5
54D
100
AcDbEntity
  8
BEZUGSACHSEN
100
AcDbLine
 62
7
  6
CONTINUOUS
 10
877.7485663493
 20
212.8585542786
 11
877.6884180953
 21
213.0918232424
  0
LINE
  5
54E
100
AcDbEntity
  8
BEZUGSACHSEN
100
AcDbLine
 62
7
  6
CONTINUOUS
 10
877.6884180953
 20
213.0918232424
 11
876.9294240503
 21
216.03506279
  0
LINE
  5
54F
100
AcDbEntity
  8
BEZUGSACHSEN
100
AcDbLine
 62
7
  6
CONTINUOUS
 10
876.695354657
 20
216.9426365294
 11
876.1101347116
 21
219.2115713015
  0
LINE
  5
550
100
AcDbEntity
  8
BEZUGSACHSEN
100
AcDbLine
 62
7
  6
CONTINUOUS
 10
875.9280383264
 20
222.3634910926
 11
876.0320558825
 21
221.9422415409
  0
LINE
  5
551
100
AcDbEntity
  8
BEZUGSACHSEN
100
AcDbLine
 62
7
  6
CONTINUOUS
 10
876.0320558825
 20
221.9422415409
 11
876.3801816855
 21
220.5322813043
  0
LINE
  5
552
100
AcDbEntity
  8
BEZUGSACHSEN
100
AcDbLine
 62
7
  6
CONTINUOUS
 10
876.3801816855
 20
220.5322813043
 11
876.5014098816
 21
220.0412422594
  0
LINE
  5
553
100
AcDbEntity
  8
BEZUGSACHSEN
100
AcDbLine
 62
7
  6
CONTINUOUS
 10
876.5014098816
 20
220.0412422594
 11
876.6041982327
 21
219.6248742163
  0
LINE
  5
554
100
AcDbEntity
  8
BEZUGSACHSEN
100
AcDbLine
 62
7
  6
CONTINUOUS
 10
876.6041982327
 20
219.6248742163
 11
876.7539322366
 21
219.0183072134
  0
LINE
  5
555
100
AcDbEntity
  8
BEZUGSACHSEN
100
AcDbLine
 62
7
  6
CONTINUOUS
 10
876.7539322366
 20
219.0183072134
 11
876.8757517134
 21
218.5247892044
  0
LINE
  5
556
100
AcDbEntity
  8
BEZUGSACHSEN
100
AcDbLine
 62
7
  6
CONTINUOUS
 10
876.8757517134
 20
218.5247892044
 11
877.0540061774
 21
217.8025864227
  0
LINE
  5
557
100
AcDbEntity
  8
BEZUGSACHSEN
100
AcDbLine
 62
7
  6
CONTINUOUS
 10
877.0540061774
 20
217.8025864227
 11
877.1095727273
 21
217.5774434165
  0
LINE
  5
558
100
AcDbEntity
  8
BEZUGSACHSEN
100
AcDbLine
 62
7
  6
CONTINUOUS
 10
877.2791479802
 20
216.4064299516
 11
877.3983917987
 21
215.9700862269
  0
LINE
  5
559
100
AcDbEntity
  8
BEZUGSACHSEN
100
AcDbLine
 62
7
  6
CONTINUOUS
 10
877.1218421226
 20
217.0192334169
 11
877.2791479802
 21
216.4064299516
  0
LINE
  5
55A
100
AcDbEntity
  8
BEZUGSACHSEN
100
AcDbLine
 62
7
  6
CONTINUOUS
 10
877.1218421226
 20
217.0192334169
 11
877.0484200782
 21
217.3162987981
  0
LINE
  5
55B
100
AcDbEntity
  8
BEZUGSACHSEN
100
AcDbLine
 62
7
  6
CONTINUOUS
 10
877.0484200782
 20
217.3162987981
 11
876.9354468302
 21
217.7733799687
  0
LINE
  5
55C
100
AcDbEntity
  8
BEZUGSACHSEN
100
AcDbLine
 62
7
  6
CONTINUOUS
 10
876.9354468302
 20
217.7733799687
 11
876.8231837324
 21
218.2275783106
  0
LINE
  5
55D
100
AcDbEntity
  8
BEZUGSACHSEN
100
AcDbLine
 62
7
  6
CONTINUOUS
 10
876.8231837324
 20
218.2275783106
 11
876.7569560697
 21
218.4955203727
  0
LINE
  5
55E
100
AcDbEntity
  8
BEZUGSACHSEN
100
AcDbLine
 62
7
  6
CONTINUOUS
 10
876.7569560697
 20
218.4955203727
 11
876.6349822927
 21
218.9889903677
  0
LINE
  5
55F
100
AcDbEntity
  8
BEZUGSACHSEN
100
AcDbLine
 62
7
  6
CONTINUOUS
 10
876.6349822927
 20
218.9889903677
 11
876.5220352768
 21
219.4459316334
  0
LINE
  5
560
100
AcDbEntity
  8
BEZUGSACHSEN
100
AcDbLine
 62
7
  6
CONTINUOUS
 10
876.5220352768
 20
219.4459316334
 11
876.4850607527
 21
219.5955148488
  0
LINE
  5
561
100
AcDbEntity
  8
BEZUGSACHSEN
100
AcDbLine
 62
7
  6
CONTINUOUS
 10
876.4850607527
 20
219.5955148488
 11
876.3821490516
 21
220.0118472123
  0
LINE
  5
562
100
AcDbEntity
  8
BEZUGSACHSEN
100
AcDbLine
 62
7
  6
CONTINUOUS
 10
876.3821490516
 20
220.0118472123
 11
876.2607754229
 21
220.5028592765
  0
LINE
  5
563
100
AcDbEntity
  8
BEZUGSACHSEN
100
AcDbLine
 62
7
  6
CONTINUOUS
 10
876.2607754229
 20
220.5028592765
 11
876.2183979061
 21
220.6742936637
  0
LINE
  5
564
100
AcDbEntity
  8
BEZUGSACHSEN
100
AcDbLine
 62
7
  6
CONTINUOUS
 10
876.2183979061
 20
220.6742936637
 11
876.1863127215
 21
220.8040906399
  0
LINE
  5
565
100
AcDbEntity
  8
BEZUGSACHSEN
100
AcDbLine
 62
7
  6
CONTINUOUS
 10
876.1863127215
 20
220.8040906399
 11
875.9377903042
 21
221.8094396544
  0
LINE
  5
566
100
AcDbEntity
  8
BEZUGSACHSEN
100
AcDbLine
 62
7
  6
CONTINUOUS
 10
875.9377903042
 20
221.8094396544
 11
875.9122725893
 21
221.9126646357
  0
LINE
  5
567
100
AcDbEntity
  8
BEZUGSACHSEN
100
AcDbLine
 62
7
  6
CONTINUOUS
 10
877.7534968109
 20
214.754089583
 11
877.7432377759
 21
214.8168299166
  0
LINE
  5
568
100
AcDbEntity
  8
BEZUGSACHSEN
100
AcDbLine
 62
7
  6
CONTINUOUS
 10
877.3064459257
 20
216.7695733882
 11
877.238671618
 21
217.0477033871
  0
LINE
  5
569
100
AcDbEntity
  8
BEZUGSACHSEN
100
AcDbLine
 62
7
  6
CONTINUOUS
 10
877.238671618
 20
217.0477033871
 11
877.2082158082
 21
217.1726807796
  0
LINE
  5
56A
100
AcDbEntity
  8
BEZUGSACHSEN
100
AcDbLine
 62
7
  6
CONTINUOUS
 10
877.2082158082
 20
217.1726807796
 11
877.1095727273
 21
217.5774434165
  0
LINE
  5
56B
100
AcDbEntity
  8
BEZUGSACHSEN
100
AcDbLine
 62
7
  6
CONTINUOUS
 10
877.628658738
 20
215.3951104339
 11
877.5885550918
 21
215.5700313008
  0
LINE
  5
56C
100
AcDbEntity
  8
BEZUGSACHSEN
100
AcDbLine
 62
7
  6
CONTINUOUS
 10
877.5885550918
 20
215.5700313008
 11
877.5481120693
 21
215.7459780321
  0
LINE
  5
56D
100
AcDbEntity
  8
BEZUGSACHSEN
100
AcDbLine
 62
7
  6
CONTINUOUS
 10
877.5481120693
 20
215.7459780321
 11
877.5073294236
 21
215.9229505853
  0
LINE
  5
56E
100
AcDbEntity
  8
BEZUGSACHSEN
100
AcDbLine
 62
7
  6
CONTINUOUS
 10
877.5073294236
 20
215.9229505853
 11
877.491483526
 21
215.9915922229
  0
LINE
  5
56F
100
AcDbEntity
  8
BEZUGSACHSEN
100
AcDbLine
 62
7
  6
CONTINUOUS
 10
877.491483526
 20
215.9915922229
 11
877.4662069148
 21
216.1009489189
  0
LINE
  5
570
100
AcDbEntity
  8
BEZUGSACHSEN
100
AcDbLine
 62
7
  6
CONTINUOUS
 10
877.4662069148
 20
216.1009489189
 11
877.4265050845
 21
216.2672369152
  0
LINE
  5
571
100
AcDbEntity
  8
BEZUGSACHSEN
100
AcDbLine
 62
7
  6
CONTINUOUS
 10
877.4265050845
 20
216.2672369152
 11
877.3466245102
 21
216.6015491318
  0
LINE
  5
572
100
AcDbEntity
  8
BEZUGSACHSEN
100
AcDbLine
 62
7
  6
CONTINUOUS
 10
877.3466245102
 20
216.6015491318
 11
877.3064459257
 21
216.7695733882
  0
SPLINE
  5
573
100
AcDbEntity
  8
KONSTRUKTIONSELEMENTE
100
AcDbSpline
 62
7
  6
CONTINUOUS
 70
0
 71
3
 72
9
 73
5
 74
0
 42
0.0000001
 43
0.0000001
 44
0.0000000001
 40
0.0
 40
0.0
 40
0.0
 40
0.0
 40
0.5554031296
 40
1.0
 40
1.0
 40
1.0
 40
1.0
 10
890.3464380729
 20
110.1509117486
 30
0.0
 10
890.3464380729
 20
109.6137403148
 30
0.0
 10
890.2395733656
 20
108.6355221258
 30
0.0
 10
889.7377411221
 20
107.7555993415
 30
0.0
 10
889.4220989662
 20
107.4635853251
 30
0.0
  0
SPLINE
  5
574
100
AcDbEntity
  8
0
100
AcDbSpline
 62
7
  6
CONTINUOUS
 70
0
 71
3
 72
9
 73
5
 74
0
 42
0.0000001
 43
0.0000001
 44
0.0000000001
 40
0.0
 40
0.0
 40
0.0
 40
0.0
 40
0.492993526
 40
1.0
 40
1.0
 40
1.0
 40
1.0
 10
861.787938687
 20
115.7743064652
 30
0.0
 10
862.6457209334
 20
115.159251145
 30
0.0
 10
864.6074089614
 20
114.2025379437
 30
0.0
 10
866.760934778
 20
113.88409852
 30
0.0
 10
867.8464380729
 20
113.88409852
 30
0.0
  0
SPLINE
  5
575
100
AcDbEntity
  8
0
100
AcDbSpline
 62
7
  6
CONTINUOUS
 70
0
 71
3
 72
9
 73
5
 74
0
 42
0.0000001
 43
0.0000001
 44
0.0000000001
 40
0.0
 40
0.0
 40
0.0
 40
0.0
 40
0.5554031296
 40
1.0
 40
1.0
 40
1.0
 40
1.0
 10
845.3464380729
 20
110.1509117486
 30
0.0
 10
845.3464380729
 20
109.6137403148
 30
0.0
 10
845.4533027801
 20
108.6355221258
 30
0.0
 10
845.9551350236
 20
107.7555993415
 30
0.0
 10
846.2707771795
 20
107.4635853251
 30
0.0
  0
SPLINE
  5
576
100
AcDbEntity
  8
0
100
AcDbSpline
 62
7
  6
CONTINUOUS
 70
0
 71
3
 72
9
 73
5
 74
0
 42
0.0000001
 43
0.0000001
 44
0.0000000001
 40
0.0
 40
0.0
 40
0.0
 40
0.0
 40
0.5001041094
 40
1.0
 40
1.0
 40
1.0
 40
1.0
 10
873.1889156919
 20
218.7468718138
 30
0.0
 10
873.4580107089
 20
215.6649421924
 30
0.0
 10
873.8220030887
 20
209.4852569032
 30
0.0
 10
873.7790705025
 20
203.2942211102
 30
0.0
 10
873.657560677
 20
200.2042421784
 30
0.0
  0
SPLINE
  5
577
100
AcDbEntity
  8
0
100
AcDbSpline
 62
7
  6
CONTINUOUS
 70
0
 71
3
 72
9
 73
5
 74
0
 42
0.0000001
 43
0.0000001
 44
0.0000000001
 40
0.0
 40
0.0
 40
0.0
 40
0.0
 40
0.5000000002
 40
1.0
 40
1.0
 40
1.0
 40
1.0
 10
873.1889156919
 20
230.9052924932
 30
0.0
 10
873.5609736374
 20
228.9040011668
 30
0.0
 10
873.9753885528
 20
224.8260821527
 30
0.0
 10
873.5609736371
 20
220.7481631386
 30
0.0
 10
873.1889156919
 20
218.7468718138
 30
0.0
  0
SPLINE
  5
578
100
AcDbEntity
  8
KONSTRUKTIONSELEMENTE
100
AcDbSpline
 62
7
  6
CONTINUOUS
 70
0
 71
3
 72
9
 73
5
 74
0
 42
0.0000001
 43
0.0000001
 44
0.0000000001
 40
0.0
 40
0.0
 40
0.0
 40
0.0
 40
0.2218049703
 40
1.0
 40
1.0
 40
1.0
 40
1.0
 10
889.4220989662
 20
107.4635853251
 30
0.0
 10
889.2151300315
 20
107.2721095391
 30
0.0
 10
888.3008894048
 20
106.388499342
 30
0.0
 10
887.4752405783
 20
105.4147483621
 30
0.0
 10
886.8801664229
 20
104.6245158132
 30
0.0
  0
SPLINE
  5
579
100
AcDbEntity
  8
0
100
AcDbSpline
 62
7
  6
CONTINUOUS
 70
0
 71
3
 72
9
 73
5
 74
0
 42
0.0000001
 43
0.0000001
 44
0.0000000001
 40
0.0
 40
0.0
 40
0.0
 40
0.0
 40
0.5000000002
 40
1.0
 40
1.0
 40
1.0
 40
1.0
 10
862.5039604539
 20
230.9052924932
 30
0.0
 10
862.1319025083
 20
228.9040011668
 30
0.0
 10
861.7174875929
 20
224.8260821527
 30
0.0
 10
862.1319025086
 20
220.7481631386
 30
0.0
 10
862.5039604539
 20
218.7468718138
 30
0.0
  0
SPLINE
  5
57A
100
AcDbEntity
  8
0
100
AcDbSpline
 62
7
  6
CONTINUOUS
 70
0
 71
3
 72
9
 73
5
 74
0
 42
0.0000001
 43
0.0000001
 44
0.0000000001
 40
0.0
 40
0.0
 40
0.0
 40
0.0
 40
0.5001041094
 40
1.0
 40
1.0
 40
1.0
 40
1.0
 10
862.5039604539
 20
218.7468718138
 30
0.0
 10
862.2348654368
 20
215.6649421924
 30
0.0
 10
861.870873057
 20
209.4852569032
 30
0.0
 10
861.9138056432
 20
203.2942211102
 30
0.0
 10
862.0353154687
 20
200.2042421784
 30
0.0
  0
SPLINE
  5
57B
100
AcDbEntity
  8
0
100
AcDbSpline
 62
7
  6
CONTINUOUS
 70
0
 71
3
 72
11
 73
7
 74
0
 42
0.0000001
 43
0.0000001
 44
0.0000000001
 40
0.0
 40
0.0
 40
0.0
 40
0.0
 40
0.2472941613
 40
0.5000002815
 40
0.7527062463
 40
1.0
 40
1.0
 40
1.0
 40
1.0
 10
853.6945542251
 20
122.6978307214
 30
0.0
 10
855.7009642278
 20
121.2441356822
 30
0.0
 10
860.2791028773
 20
118.9726126515
 30
0.0
 10
867.8466454057
 20
117.8262433264
 30
0.0
 10
875.4141653886
 20
118.9727353825
 30
0.0
 10
879.9922607899
 20
121.2443341379
 30
0.0
 10
881.9986416789
 20
122.6980623986
 30
0.0
  0
SPLINE
  5
57C
100
AcDbEntity
  8
0
100
AcDbSpline
 62
7
  6
CONTINUOUS
 70
0
 71
3
 72
19
 73
15
 74
0
 42
0.0000001
 43
0.0000001
 44
0.0000000001
 40
0.0
 40
0.0
 40
0.0
 40
0.0
 40
0.0581529382
 40
0.1170186733
 40
0.1771895919
 40
0.2390194491
 40
0.3672020887
 40
0.5
 40
0.6327979113
 40
0.7609805509
 40
0.8228104081
 40
0.8829813267
 40
0.9418470618
 40
1.0
 40
1.0
 40
1.0
 40
1.0
 10
885.8021886882
 20
121.6110900243
 30
0.0
 10
885.8021886882
 20
120.5933147946
 30
0.0
 10
885.5672392506
 20
118.5378829239
 30
0.0
 10
884.5278167657
 20
115.5905869034
 30
0.0
 10
882.8448459723
 20
112.8807453915
 30
0.0
 10
879.8069175311
 20
109.691338441
 30
0.0
 10
874.7705989945
 20
106.8322214359
 30
0.0
 10
867.8464380729
 20
105.6685003695
 30
0.0
 10
860.9222771512
 20
106.8322214359
 30
0.0
 10
855.8859586146
 20
109.691338441
 30
0.0
 10
852.8480301735
 20
112.8807453915
 30
0.0
 10
851.16505938
 20
115.5905869034
 30
0.0
 10
850.1256368951
 20
118.5378829239
 30
0.0
 10
849.8906874575
 20
120.5933147946
 30
0.0
 10
849.8906874575
 20
121.6110900243
 30
0.0
  0
SPLINE
  5
57D
100
AcDbEntity
  8
0
100
AcDbSpline
 62
7
  6
CONTINUOUS
 70
0
 71
3
 72
9
 73
5
 74
0
 42
0.0000001
 43
0.0000001
 44
0.0000000001
 40
0.0
 40
0.0
 40
0.0
 40
0.0
 40
0.507006474
 40
1.0
 40
1.0
 40
1.0
 40
1.0
 10
867.8464380729
 20
113.88409852
 30
0.0
 10
868.9319413677
 20
113.88409852
 30
0.0
 10
871.0854671843
 20
114.2025379437
 30
0.0
 10
873.0471552124
 20
115.159251145
 30
0.0
 10
873.9049374588
 20
115.7743064652
 30
0.0
  0
SPLINE
  5
57E
100
AcDbEntity
  8
0
100
AcDbSpline
 62
7
  6
CONTINUOUS
 70
0
 71
3
 72
15
 73
11
 74
0
 42
0.0000001
 43
0.0000001
 44
0.0000000001
 40
0.0
 40
0.0
 40
0.0
 40
0.0
 40
0.1182637916
 40
0.2418061731
 40
0.3696902963
 40
0.5
 40
0.6303097037
 40
0.7581938269
 40
0.8817362084
 40
1.0
 40
1.0
 40
1.0
 40
1.0
 10
886.8801664229
 20
104.6245158132
 30
0.0
 10
885.8527305062
 20
103.2601256847
 30
0.0
 10
883.3583220555
 20
100.7508391519
 30
0.0
 10
878.7472124104
 20
97.9690263214
 30
0.0
 10
873.4677887892
 20
96.2322221603
 30
0.0
 10
867.8464380729
 20
95.6427424383
 30
0.0
 10
862.2250873565
 20
96.2322221603
 30
0.0
 10
856.9456637353
 20
97.9690263214
 30
0.0
 10
852.3345540903
 20
100.7508391519
 30
0.0
 10
849.8401456395
 20
103.2601256847
 30
0.0
 10
848.8127097228
 20
104.6245158132
 30
0.0
  0
SPLINE
  5
57F
100
AcDbEntity
  8
RUNDUNGEN
100
AcDbSpline
 62
7
  6
CONTINUOUS
 70
0
 71
3
 72
9
 73
5
 74
0
 42
0.0000001
 43
0.0000001
 44
0.0000000001
 40
0.0
 40
0.0
 40
0.0
 40
0.0
 40
0.256123281
 40
1.0
 40
1.0
 40
1.0
 40
1.0
 10
874.816888537
 20
160.3546065957
 30
0.0
 10
874.9209786158
 20
160.2188119597
 30
0.0
 10
875.3374299783
 20
159.6964154875
 30
0.0
 10
875.7893557012
 20
159.2021431793
 30
0.0
 10
876.14455
 20
158.8546065957
 30
0.0
  0
SPLINE
  5
580
100
AcDbEntity
  8
0
100
AcDbSpline
 62
7
  6
CONTINUOUS
 70
0
 71
3
 72
9
 73
5
 74
0
 42
0.0000001
 43
0.0000001
 44
0.0000000001
 40
0.0
 40
0.0
 40
0.0
 40
0.0
 40
0.256123281
 40
1.0
 40
1.0
 40
1.0
 40
1.0
 10
860.8759876087
 20
160.3546065957
 30
0.0
 10
860.7718975299
 20
160.2188119597
 30
0.0
 10
860.3554461674
 20
159.6964154875
 30
0.0
 10
859.9035204445
 20
159.2021431793
 30
0.0
 10
859.5483261457
 20
158.8546065957
 30
0.0
  0
LINE
  5
581
100
AcDbEntity
  8
BEZUGSACHSEN
100
AcDbLine
 62
7
  6
CONTINUOUS
 10
876.9364648296
 20
216.7228097496
 11
877.1175454293
 21
216.0887804757
  0
LINE
  5
582
100
AcDbEntity
  8
BEZUGSACHSEN
100
AcDbLine
 62
7
  6
CONTINUOUS
 10
877.1175454293
 20
216.0887804757
 11
877.1454970529
 21
215.9907842936
  0
SPLINE
  5
583
100
AcDbEntity
  8
BEZUGSACHSEN
100
AcDbSpline
 62
7
  6
CONTINUOUS
 70
0
 71
3
 72
8
 73
4
 74
0
 42
0.0000001
 43
0.0000001
 44
0.0000000001
 40
0.0
 40
0.0
 40
0.0
 40
0.0
 40
1.0
 40
1.0
 40
1.0
 40
1.0
 10
877.1454970529
 20
215.9907842936
 30
0.0
 10
877.3217882908
 20
215.3726107682
 30
0.0
 10
877.4975299709
 20
214.7542801335
 30
0.0
 10
877.6726035151
 20
214.1357606414
 30
0.0
  0
LINE
  5
584
100
AcDbEntity
  8
BEZUGSACHSEN
100
AcDbLine
 62
7
  6
CONTINUOUS
 10
877.6726035151
 20
214.1357606414
 11
877.7477978424
 21
213.8699468561
  0
SPLINE
  5
585
100
AcDbEntity
  8
0
100
AcDbSpline
 62
7
  6
CONTINUOUS
 70
0
 71
3
 72
13
 73
9
 74
0
 42
0.0000001
 43
0.0000001
 44
0.0000000001
 40
0.0
 40
0.0
 40
0.0
 40
0.0
 40
0.2655958126
 40
0.5219612148
 40
0.6456213668
 40
0.7659615979
 40
0.8836976443
 40
1.0
 40
1.0
 40
1.0
 40
1.0
 10
867.8464380729
 20
153.05556849
 30
0.0
 10
869.011397807
 20
153.05556849
 30
0.0
 10
871.3195678876
 20
152.6689931309
 30
0.0
 10
873.8411432553
 20
151.2359234595
 30
0.0
 10
875.3641792642
 20
149.6372769144
 30
0.0
 10
876.2077041431
 20
148.2790148556
 30
0.0
 10
876.7286616206
 20
146.8017161479
 30
0.0
 10
876.8464380729
 20
145.7714667292
 30
0.0
 10
876.8464380729
 20
145.261339856
 30
0.0
  0
SPLINE
  5
586
100
AcDbEntity
  8
0
100
AcDbSpline
 62
7
  6
CONTINUOUS
 70
0
 71
3
 72
13
 73
9
 74
0
 42
0.0000001
 43
0.0000001
 44
0.0000000001
 40
0.0
 40
0.0
 40
0.0
 40
0.0
 40
0.1163023557
 40
0.2340384021
 40
0.3543786332
 40
0.4780387852
 40
0.7344041874
 40
1.0
 40
1.0
 40
1.0
 40
1.0
 10
858.8464380729
 20
145.261339856
 30
0.0
 10
858.8464380729
 20
145.7714667292
 30
0.0
 10
858.9642145252
 20
146.8017161479
 30
0.0
 10
859.4851720026
 20
148.2790148556
 30
0.0
 10
860.3286968815
 20
149.6372769144
 30
0.0
 10
861.8517328904
 20
151.2359234595
 30
0.0
 10
864.3733082581
 20
152.6689931309
 30
0.0
 10
866.6814783387
 20
153.05556849
 30
0.0
 10
867.8464380729
 20
153.05556849
 30
0.0
  0
SPLINE
  5
587
100
AcDbEntity
  8
0
100
AcDbSpline
 62
7
  6
CONTINUOUS
 70
0
 71
3
 72
11
 73
7
 74
0
 42
0.0000001
 43
0.0000001
 44
0.0000000001
 40
0.0
 40
0.0
 40
0.0
 40
0.0
 40
0.2637230516
 40
0.5203575064
 40
0.7656085373
 40
1.0
 40
1.0
 40
1.0
 40
1.0
 10
867.8464380729
 20
151.55556849
 30
0.0
 10
868.8589222338
 20
151.55556849
 30
0.0
 10
870.8696476696
 20
151.2618143931
 30
0.0
 10
873.5632196535
 20
149.9741559522
 30
0.0
 10
875.6320519225
 20
147.9703473828
 30
0.0
 10
876.4352233731
 20
146.2557791039
 30
0.0
 10
876.6497216767
 20
145.3818428627
 30
0.0
  0
LINE
  5
588
100
AcDbEntity
  8
BEZUGSACHSEN
100
AcDbLine
 62
7
  6
CONTINUOUS
 10
877.7374234665
 20
212.6158200508
 11
877.6795013484
 21
212.8407692068
  0
LINE
  5
589
100
AcDbEntity
  8
BEZUGSACHSEN
100
AcDbLine
 62
7
  6
CONTINUOUS
 10
877.6795013484
 20
212.8407692068
 11
876.8613136548
 21
216.017517935
  0
LINE
  5
58A
100
AcDbEntity
  8
BEZUGSACHSEN
100
AcDbLine
 62
7
  6
CONTINUOUS
 10
876.8613136548
 20
216.017517935
 11
876.8368530275
 21
216.1124695888
  0
LINE
  5
58B
100
AcDbEntity
  8
BEZUGSACHSEN
100
AcDbLine
 62
7
  6
CONTINUOUS
 10
876.8368530275
 20
216.1124695888
 11
876.6956027549
 21
216.660756118
  0
LINE
  5
58C
100
AcDbEntity
  8
BEZUGSACHSEN
100
AcDbLine
 62
7
  6
CONTINUOUS
 10
876.6956027549
 20
216.660756118
 11
876.6274857219
 21
216.9251512864
  0
LINE
  5
58D
100
AcDbEntity
  8
BEZUGSACHSEN
100
AcDbLine
 62
7
  6
CONTINUOUS
 10
876.6274857219
 20
216.9251512864
 11
876.0428180522
 21
219.1942239582
  0
LINE
  5
58E
100
AcDbEntity
  8
BEZUGSACHSEN
100
AcDbLine
 62
7
  6
CONTINUOUS
 10
876.0428180522
 20
219.1942239582
 11
875.905996989
 21
219.7251485231
  0
SPLINE
  5
58F
100
AcDbEntity
  8
KONSTRUKTIONSELEMENTE
100
AcDbSpline
 62
7
  6
CONTINUOUS
 70
0
 71
3
 72
8
 73
4
 74
0
 42
0.0000001
 43
0.0000001
 44
0.0000000001
 40
0.0
 40
0.0
 40
0.0
 40
0.0
 40
1.0
 40
1.0
 40
1.0
 40
1.0
 10
875.2767088339
 20
219.7251485231
 30
0.0
 10
875.8873152922
 20
217.3554352288
 30
0.0
 10
876.4977341999
 20
214.9856735817
 30
0.0
 10
877.1077961524
 20
212.6158200508
 30
0.0
  0
SPLINE
  5
590
100
AcDbEntity
  8
0
100
AcDbSpline
 62
7
  6
CONTINUOUS
 70
0
 71
3
 72
11
 73
7
 74
0
 42
0.0000001
 43
0.0000001
 44
0.0000000001
 40
0.0
 40
0.0
 40
0.0
 40
0.0
 40
0.2637230516
 40
0.5203575064
 40
0.7656085373
 40
1.0
 40
1.0
 40
1.0
 40
1.0
 10
867.8464380729
 20
151.55556849
 30
0.0
 10
866.8339539119
 20
151.55556849
 30
0.0
 10
864.8232284761
 20
151.2618143931
 30
0.0
 10
862.1296564922
 20
149.9741559522
 30
0.0
 10
860.0608242232
 20
147.9703473828
 30
0.0
 10
859.2576527726
 20
146.2557791039
 30
0.0
 10
859.043154469
 20
145.3818428627
 30
0.0
  0
LINE
  5
591
100
AcDbEntity
  8
BEZUGSACHSEN
100
AcDbLine
 62
7
  6
CONTINUOUS
 10
876.1519355986
 20
219.9503344751
 11
876.1900195565
 21
219.8392344201
  0
LINE
  5
592
100
AcDbEntity
  8
BEZUGSACHSEN
100
AcDbLine
 62
7
  6
CONTINUOUS
 10
876.1900195565
 20
219.8392344201
 11
876.2089445635
 21
219.7839045067
  0
LINE
  5
593
100
AcDbEntity
  8
BEZUGSACHSEN
100
AcDbLine
 62
7
  6
CONTINUOUS
 10
876.2089445635
 20
219.7839045067
 11
876.227791659
 21
219.7287213432
  0
LINE
  5
594
100
AcDbEntity
  8
BEZUGSACHSEN
100
AcDbLine
 62
7
  6
CONTINUOUS
 10
876.227791659
 20
219.7287213432
 11
876.3435772701
 21
219.3153901395
  0
LINE
  5
595
100
AcDbEntity
  8
BEZUGSACHSEN
100
AcDbLine
 62
7
  6
CONTINUOUS
 10
876.3435772701
 20
219.3153901395
 11
876.4606131469
 21
218.8616028461
  0
LINE
  5
596
100
AcDbEntity
  8
BEZUGSACHSEN
100
AcDbLine
 62
7
  6
CONTINUOUS
 10
876.5789473383
 20
218.3673603104
 11
876.4606131469
 21
218.8616028461
  0
LINE
  5
597
100
AcDbEntity
  8
BEZUGSACHSEN
100
AcDbLine
 62
7
  6
CONTINUOUS
 10
876.6592830123
 20
217.9839242828
 11
876.5789473383
 21
218.3673603104
  0
LINE
  5
598
100
AcDbEntity
  8
BEZUGSACHSEN
100
AcDbLine
 62
7
  6
CONTINUOUS
 10
875.9107920169
 20
222.3592326354
 11
876.0148988474
 21
221.9380299221
  0
LINE
  5
599
100
AcDbEntity
  8
BEZUGSACHSEN
100
AcDbLine
 62
7
  6
CONTINUOUS
 10
876.0148988474
 20
221.9380299221
 11
876.3633461517
 21
220.528201328
  0
LINE
  5
59A
100
AcDbEntity
  8
BEZUGSACHSEN
100
AcDbLine
 62
7
  6
CONTINUOUS
 10
876.3633461517
 20
220.528201328
 11
876.4846983089
 21
220.0371851953
  0
LINE
  5
59B
100
AcDbEntity
  8
BEZUGSACHSEN
100
AcDbLine
 62
7
  6
CONTINUOUS
 10
876.4846983089
 20
220.0371851953
 11
876.5875923679
 21
219.6208451387
  0
LINE
  5
59C
100
AcDbEntity
  8
BEZUGSACHSEN
100
AcDbLine
 62
7
  6
CONTINUOUS
 10
876.5875923679
 20
219.6208451387
 11
876.7374857856
 21
219.0143158276
  0
LINE
  5
59D
100
AcDbEntity
  8
BEZUGSACHSEN
100
AcDbLine
 62
7
  6
CONTINUOUS
 10
876.7374857856
 20
219.0143158276
 11
876.8215989141
 21
218.6739515762
  0
LINE
  5
59E
100
AcDbEntity
  8
BEZUGSACHSEN
100
AcDbLine
 62
7
  6
CONTINUOUS
 10
876.8215989141
 20
218.6739515762
 11
876.85943728
 21
218.5208363437
  0
LINE
  5
59F
100
AcDbEntity
  8
BEZUGSACHSEN
100
AcDbLine
 62
7
  6
CONTINUOUS
 10
876.85943728
 20
218.5208363437
 11
877.0378925981
 21
217.798688215
  0
LINE
  5
5A0
100
AcDbEntity
  8
BEZUGSACHSEN
100
AcDbLine
 62
7
  6
CONTINUOUS
 10
877.0378925981
 20
217.798688215
 11
877.0935433479
 21
217.5734822861
  0
LINE
  5
5A1
100
AcDbEntity
  8
BEZUGSACHSEN
100
AcDbLine
 62
7
  6
CONTINUOUS
 10
877.0935433479
 20
217.5734822861
 11
877.1201521559
 21
217.4658014165
  0
LINE
  5
5A2
100
AcDbEntity
  8
KONSTRUKTIONSELEMENTE
100
AcDbLine
 62
7
  6
CONTINUOUS
 10
875.3978498008
 20
221.9126649752
 11
875.3914938896
 21
221.9383784583
  0
LINE
  5
5A3
100
AcDbEntity
  8
KONSTRUKTIONSELEMENTE
100
AcDbLine
 62
7
  6
CONTINUOUS
 10
875.3914938896
 20
221.9383784583
 11
875.287465412
 21
222.3592326354
  0
LINE
  5
5A4
100
AcDbEntity
  8
BEZUGSACHSEN
100
AcDbLine
 62
7
  6
CONTINUOUS
 10
877.2775698111
 20
216.8157839868
 11
877.1990350085
 21
217.140109497
  0
LINE
  5
5A5
100
AcDbEntity
  8
BEZUGSACHSEN
100
AcDbLine
 62
7
  6
CONTINUOUS
 10
877.1990350085
 20
217.140109497
 11
877.1596370731
 21
217.3027846519
  0
LINE
  5
5A6
100
AcDbEntity
  8
BEZUGSACHSEN
100
AcDbLine
 62
7
  6
CONTINUOUS
 10
877.1596370731
 20
217.3027846519
 11
877.1201521559
 21
217.4658014165
  0
LINE
  5
5A7
100
AcDbEntity
  8
BEZUGSACHSEN
100
AcDbLine
 62
7
  6
CONTINUOUS
 10
877.397081936
 20
216.3050122266
 11
877.3673891197
 21
216.4320723917
  0
LINE
  5
5A8
100
AcDbEntity
  8
BEZUGSACHSEN
100
AcDbLine
 62
7
  6
CONTINUOUS
 10
877.3673891197
 20
216.4320723917
 11
877.3076330373
 21
216.6874582677
  0
LINE
  5
5A9
100
AcDbEntity
  8
BEZUGSACHSEN
100
AcDbLine
 62
7
  6
CONTINUOUS
 10
877.3076330373
 20
216.6874582677
 11
877.2775698111
 21
216.8157839868
  0
LINE
  5
5AA
100
AcDbEntity
  8
BEZUGSACHSEN
100
AcDbLine
 62
7
  6
CONTINUOUS
 10
877.4779974811
 20
215.933485919
 11
877.437766146
 21
216.1187839396
  0
LINE
  5
5AB
100
AcDbEntity
  8
BEZUGSACHSEN
100
AcDbLine
 62
7
  6
CONTINUOUS
 10
877.437766146
 20
216.1187839396
 11
877.4174806545
 21
216.2117818003
  0
LINE
  5
5AC
100
AcDbEntity
  8
BEZUGSACHSEN
100
AcDbLine
 62
7
  6
CONTINUOUS
 10
877.4174806545
 20
216.2117818003
 11
877.397081936
 21
216.3050122266
  0
LINE
  5
5AD
100
AcDbEntity
  8
BEZUGSACHSEN
100
AcDbLine
 62
7
  6
CONTINUOUS
 10
877.519223128
 20
215.701205285
 11
877.4988430194
 21
215.8173508313
  0
LINE
  5
5AE
100
AcDbEntity
  8
BEZUGSACHSEN
100
AcDbLine
 62
7
  6
CONTINUOUS
 10
877.4988430194
 20
215.8173508313
 11
877.4884782011
 21
215.8754196747
  0
LINE
  5
5AF
100
AcDbEntity
  8
BEZUGSACHSEN
100
AcDbLine
 62
7
  6
CONTINUOUS
 10
877.4884782011
 20
215.8754196747
 11
877.4779974811
 21
215.933485919
  0
SPLINE
  5
5B0
100
AcDbEntity
  8
BEZUGSACHSEN
100
AcDbSpline
 62
7
  6
CONTINUOUS
 70
0
 71
3
 72
8
 73
4
 74
0
 42
0.0000001
 43
0.0000001
 44
0.0000000001
 40
0.0
 40
0.0
 40
0.0
 40
0.0
 40
1.0
 40
1.0
 40
1.0
 40
1.0
 10
877.7276133099
 20
215.1327657774
 30
0.0
 10
877.735705204
 20
215.1180271733
 30
0.0
 10
877.7422308714
 20
215.1022165564
 30
0.0
 10
877.7462286037
 20
215.0858848898
 30
0.0
  0
SPLINE
  5
5B1
100
AcDbEntity
  8
0
100
AcDbSpline
 62
7
  6
CONTINUOUS
 70
0
 71
3
 72
9
 73
5
 74
0
 42
0.0000001
 43
0.0000001
 44
0.0000000001
 40
0.0
 40
0.0
 40
0.0
 40
0.0
 40
0.2218049703
 40
1.0
 40
1.0
 40
1.0
 40
1.0
 10
846.2707771795
 20
107.4635853251
 30
0.0
 10
846.4777461143
 20
107.2721095391
 30
0.0
 10
847.3919867409
 20
106.388499342
 30
0.0
 10
848.2176355674
 20
105.4147483621
 30
0.0
 10
848.8127097228
 20
104.6245158132
 30
0.0
  0
LINE
  5
5B2
100
AcDbEntity
  8
BEZUGSACHSEN
100
AcDbLine
 62
7
  6
CONTINUOUS
 10
877.1121046642
 20
216.9075913637
 11
877.0866857294
 21
217.010553558
  0
LINE
  5
5B3
100
AcDbEntity
  8
BEZUGSACHSEN
100
AcDbLine
 62
7
  6
CONTINUOUS
 10
877.0866857294
 20
217.010553558
 11
877.0133532456
 21
217.3075881305
  0
LINE
  5
5B4
100
AcDbEntity
  8
BEZUGSACHSEN
100
AcDbLine
 62
7
  6
CONTINUOUS
 10
877.0133532456
 20
217.3075881305
 11
876.9004944803
 21
217.7647055404
  0
LINE
  5
5B5
100
AcDbEntity
  8
BEZUGSACHSEN
100
AcDbLine
 62
7
  6
CONTINUOUS
 10
876.9004944803
 20
217.7647055404
 11
876.7221801146
 21
218.4868956426
  0
LINE
  5
5B6
100
AcDbEntity
  8
BEZUGSACHSEN
100
AcDbLine
 62
7
  6
CONTINUOUS
 10
876.7221801146
 20
218.4868956426
 11
876.6003236486
 21
218.9803954045
  0
LINE
  5
5B7
100
AcDbEntity
  8
BEZUGSACHSEN
100
AcDbLine
 62
7
  6
CONTINUOUS
 10
876.6003236486
 20
218.9803954045
 11
876.5140592326
 21
219.3297385957
  0
LINE
  5
5B8
100
AcDbEntity
  8
BEZUGSACHSEN
100
AcDbLine
 62
7
  6
CONTINUOUS
 10
876.5140592326
 20
219.3297385957
 11
876.4505422977
 21
219.5869544592
  0
LINE
  5
5B9
100
AcDbEntity
  8
BEZUGSACHSEN
100
AcDbLine
 62
7
  6
CONTINUOUS
 10
876.4505422977
 20
219.5869544592
 11
876.3477248963
 21
220.0033072163
  0
LINE
  5
5BA
100
AcDbEntity
  8
BEZUGSACHSEN
100
AcDbLine
 62
7
  6
CONTINUOUS
 10
876.3477248963
 20
220.0033072163
 11
876.2264607139
 21
220.4943392552
  0
LINE
  5
5BB
100
AcDbEntity
  8
BEZUGSACHSEN
100
AcDbLine
 62
7
  6
CONTINUOUS
 10
876.2264607139
 20
220.4943392552
 11
876.2104330199
 21
220.5592382317
  0
LINE
  5
5BC
100
AcDbEntity
  8
BEZUGSACHSEN
100
AcDbLine
 62
7
  6
CONTINUOUS
 10
876.2104330199
 20
220.5592382317
 11
876.1520642425
 21
220.7955807379
  0
LINE
  5
5BD
100
AcDbEntity
  8
BEZUGSACHSEN
100
AcDbLine
 62
7
  6
CONTINUOUS
 10
876.1520642425
 20
220.7955807379
 11
875.9037407129
 21
221.8010225826
  0
LINE
  5
5BE
100
AcDbEntity
  8
KONSTRUKTIONSELEMENTE
100
AcDbLine
 62
7
  6
CONTINUOUS
 10
875.2785420637
 20
221.8010225826
 11
875.5267289126
 21
220.7960104876
  0
LINE
  5
5BF
100
AcDbEntity
  8
KONSTRUKTIONSELEMENTE
100
AcDbLine
 62
7
  6
CONTINUOUS
 10
875.5267289126
 20
220.7960104876
 11
875.5388062686
 21
220.7471019571
  0
LINE
  5
5C0
100
AcDbEntity
  8
BEZUGSACHSEN
100
AcDbLine
 62
7
  6
CONTINUOUS
 10
877.1121046642
 20
216.9075913637
 11
877.3088934657
 21
216.1369354064
  0
LINE
  5
5C1
100
AcDbEntity
  8
BEZUGSACHSEN
100
AcDbLine
 62
7
  6
CONTINUOUS
 10
877.3088934657
 20
216.1369354064
 11
877.468408529
 21
215.5427389193
  0
LINE
  5
5C2
100
AcDbEntity
  8
KONSTRUKTIONSELEMENTE
100
AcDbLine
 62
7
  6
CONTINUOUS
 10
875.2747768867
 20
222.6284181432
 11
875.3113146471
 21
222.478881861
  0
LINE
  5
5C3
100
AcDbEntity
  8
BEZUGSACHSEN
100
AcDbLine
 62
7
  6
CONTINUOUS
 10
877.7276133099
 20
215.1327657774
 11
877.6616032081
 21
215.4031539052
  0
LINE
  5
5C4
100
AcDbEntity
  8
BEZUGSACHSEN
100
AcDbLine
 62
7
  6
CONTINUOUS
 10
877.6616032081
 20
215.4031539052
 11
877.6020857192
 21
215.6469362236
  0
LINE
  5
5C5
100
AcDbEntity
  8
BEZUGSACHSEN
100
AcDbLine
 62
7
  6
CONTINUOUS
 10
877.6020857192
 20
215.6469362236
 11
877.5805772956
 21
215.7350317256
  0
LINE
  5
5C6
100
AcDbEntity
  8
BEZUGSACHSEN
100
AcDbLine
 62
7
  6
CONTINUOUS
 10
877.5805772956
 20
215.7350317256
 11
877.5161665605
 21
215.998841221
  0
LINE
  5
5C7
100
AcDbEntity
  8
BEZUGSACHSEN
100
AcDbLine
 62
7
  6
CONTINUOUS
 10
877.5161665605
 20
215.998841221
 11
877.489827456
 21
216.1067159301
  0
LINE
  5
5C8
100
AcDbEntity
  8
BEZUGSACHSEN
100
AcDbLine
 62
7
  6
CONTINUOUS
 10
877.489827456
 20
216.1067159301
 11
877.4312023616
 21
216.3468145894
  0
LINE
  5
5C9
100
AcDbEntity
  8
BEZUGSACHSEN
100
AcDbLine
 62
7
  6
CONTINUOUS
 10
877.4312023616
 20
216.3468145894
 11
877.4089083504
 21
216.4381170933
  0
LINE
  5
5CA
100
AcDbEntity
  8
BEZUGSACHSEN
100
AcDbLine
 62
7
  6
CONTINUOUS
 10
877.4089083504
 20
216.4381170933
 11
877.3267601168
 21
216.7745340583
  0
LINE
  5
5CB
100
AcDbEntity
  8
BEZUGSACHSEN
100
AcDbLine
 62
7
  6
CONTINUOUS
 10
877.3267601168
 20
216.7745340583
 11
877.2588358863
 21
217.0526869333
  0
LINE
  5
5CC
100
AcDbEntity
  8
BEZUGSACHSEN
100
AcDbLine
 62
7
  6
CONTINUOUS
 10
877.2588358863
 20
217.0526869333
 11
877.1863741872
 21
217.3494080098
  0
LINE
  5
5CD
100
AcDbEntity
  8
BEZUGSACHSEN
100
AcDbLine
 62
7
  6
CONTINUOUS
 10
877.1863741872
 20
217.3494080098
 11
877.1312735094
 21
217.5750292834
  0
LINE
  5
5CE
100
AcDbEntity
  8
BEZUGSACHSEN
100
AcDbLine
 62
7
  6
CONTINUOUS
 10
877.1312735094
 20
217.5750292834
 11
877.0746461335
 21
217.8068942813
  0
LINE
  5
5CF
100
AcDbEntity
  8
BEZUGSACHSEN
100
AcDbLine
 62
7
  6
CONTINUOUS
 10
877.0746461335
 20
217.8068942813
 11
876.8981389227
 21
218.5295678556
  0
LINE
  5
5D0
100
AcDbEntity
  8
BEZUGSACHSEN
100
AcDbLine
 62
7
  6
CONTINUOUS
 10
876.8981389227
 20
218.5295678556
 11
876.7775172316
 21
219.0233888049
  0
LINE
  5
5D1
100
AcDbEntity
  8
BEZUGSACHSEN
100
AcDbLine
 62
7
  6
CONTINUOUS
 10
876.7775172316
 20
219.0233888049
 11
876.6292611707
 21
219.630301031
  0
LINE
  5
5D2
100
AcDbEntity
  8
BEZUGSACHSEN
100
AcDbLine
 62
7
  6
CONTINUOUS
 10
876.6292611707
 20
219.630301031
 11
876.0626539307
 21
221.9494108624
  0
LINE
  5
5D3
100
AcDbEntity
  8
BEZUGSACHSEN
100
AcDbLine
 62
7
  6
CONTINUOUS
 10
876.0626539307
 20
221.9494108624
 11
875.9333306961
 21
222.4786472341
  0
LINE
  5
5D4
100
AcDbEntity
  8
BEZUGSACHSEN
100
AcDbLine
 62
7
  6
CONTINUOUS
 10
875.9333306961
 20
222.4786472341
 11
875.8967317253
 21
222.6284181432
  0
SPLINE
  5
5D5
100
AcDbEntity
  8
KONSTRUKTIONSELEMENTE
100
AcDbSpline
 62
7
  6
CONTINUOUS
 70
0
 71
3
 72
11
 73
7
 74
0
 42
0.0000001
 43
0.0000001
 44
0.0000000001
 40
0.0
 40
0.0
 40
0.0
 40
0.0
 40
0.3553660481
 40
0.4919554141
 40
0.6464733594
 40
1.0
 40
1.0
 40
1.0
 40
1.0
 10
668.813442342
 20
47.1232209936
 30
0.0
 10
668.3934928181
 20
47.4865970516
 30
0.0
 10
667.422221523
 20
47.278703702
 30
0.0
 10
666.5416364585
 20
46.8555557492
 30
0.0
 10
665.6672674382
 20
46.3349414198
 30
0.0
 10
665.0415719653
 20
45.8466940215
 30
0.0
 10
664.6239491598
 20
45.4850220628
 30
0.0
  0
SPLINE
  5
5D6
100
AcDbEntity
  8
KONSTRUKTIONSELEMENTE
100
AcDbSpline
 62
7
  6
CONTINUOUS
 70
0
 71
3
 72
10
 73
6
 74
0
 42
0.0000001
 43
0.0000001
 44
0.0000000001
 40
0.0
 40
0.0
 40
0.0
 40
0.0
 40
0.5724578226
 40
0.8061405623
 40
1.0
 40
1.0
 40
1.0
 40
1.0
 10
664.5217123772
 20
59.9154485529
 30
0.0
 10
664.8376371891
 20
60.4491556849
 30
0.0
 10
665.2381321973
 20
61.233796689
 30
0.0
 10
665.5519518494
 20
62.2730288977
 30
0.0
 10
665.6138986535
 20
62.7360397639
 30
0.0
 10
665.6138986535
 20
62.9460678297
 30
0.0
  0
SPLINE
  5
5D7
100
AcDbEntity
  8
KONSTRUKTIONSELEMENTE
100
AcDbSpline
 62
7
  6
CONTINUOUS
 70
0
 71
3
 72
9
 73
5
 74
0
 42
0.0000001
 43
0.0000001
 44
0.0000000001
 40
0.0
 40
0.0
 40
0.0
 40
0.0
 40
0.5487176208
 40
1.0
 40
1.0
 40
1.0
 40
1.0
 10
665.6138986535
 20
39.0771271099
 30
0.0
 10
665.6138986535
 20
38.9053960205
 30
0.0
 10
665.647842813
 20
38.5873918725
 30
0.0
 10
665.8219080192
 20
38.3082076865
 30
0.0
 10
665.9286756942
 20
38.2157493416
 30
0.0
  0
SPLINE
  5
5D8
100
AcDbEntity
  8
KONSTRUKTIONSELEMENTE
100
AcDbSpline
 62
7
  6
CONTINUOUS
 70
0
 71
3
 72
11
 73
7
 74
0
 42
0.0000001
 43
0.0000001
 44
0.0000000001
 40
0.0
 40
0.0
 40
0.0
 40
0.0
 40
0.3553660481
 40
0.4919554141
 40
0.6464733594
 40
1.0
 40
1.0
 40
1.0
 40
1.0
 10
668.247756917
 20
46.0131189422
 30
0.0
 10
667.8278073932
 20
46.3764950002
 30
0.0
 10
666.8565360981
 20
46.1686016505
 30
0.0
 10
665.9759510336
 20
45.7454536977
 30
0.0
 10
665.1015820132
 20
45.2248393684
 30
0.0
 10
664.4758865404
 20
44.7365919701
 30
0.0
 10
664.0582637349
 20
44.3749200114
 30
0.0
  0
SPLINE
  5
5D9
100
AcDbEntity
  8
KONSTRUKTIONSELEMENTE
100
AcDbSpline
 62
7
  6
CONTINUOUS
 70
0
 71
3
 72
9
 73
5
 74
0
 42
0.0000001
 43
0.0000001
 44
0.0000000001
 40
0.0
 40
0.0
 40
0.0
 40
0.0
 40
0.3430740591
 40
1.0
 40
1.0
 40
1.0
 40
1.0
 10
723.5567055919
 20
70.7144356202
 30
0.0
 10
723.5437617181
 20
70.681129322
 30
0.0
 10
723.5117850257
 20
70.587378898
 30
0.0
 10
723.5038897426
 20
70.4540109199
 30
0.0
 10
723.5556143251
 20
70.4092202028
 30
0.0
  0
SPLINE
  5
5DA
100
AcDbEntity
  8
KONSTRUKTIONSELEMENTE
100
AcDbSpline
 62
7
  6
CONTINUOUS
 70
0
 71
3
 72
10
 73
6
 74
0
 42
0.0000001
 43
0.0000001
 44
0.0000000001
 40
0.0
 40
0.0
 40
0.0
 40
0.0
 40
0.1889346049
 40
0.5351285558
 40
1.0
 40
1.0
 40
1.0
 40
1.0
 10
646.0822000849
 20
29.5536677772
 30
0.0
 10
646.1182391001
 20
29.5224577194
 30
0.0
 10
646.2439773891
 20
29.4600749789
 30
0.0
 10
646.5053164573
 20
29.4737234048
 30
0.0
 10
646.6981963168
 20
29.5449836381
 30
0.0
 10
646.8048582739
 20
29.5938020958
 30
0.0
  0
SPLINE
  5
5DB
100
AcDbEntity
  8
KONSTRUKTIONSELEMENTE
100
AcDbSpline
 62
7
  6
CONTINUOUS
 70
0
 71
3
 72
9
 73
5
 74
0
 42
0.0000001
 43
0.0000001
 44
0.0000000001
 40
0.0
 40
0.0
 40
0.0
 40
0.0
 40
0.2183282735
 40
1.0
 40
1.0
 40
1.0
 40
1.0
 10
646.8048582739
 20
29.5938020958
 30
0.0
 10
646.8727831586
 20
29.624890857
 30
0.0
 10
647.1761638461
 20
29.7841076259
 30
0.0
 10
647.4512129193
 20
29.9927921231
 30
0.0
 10
647.6533864114
 20
30.1678795032
 30
0.0
  0
SPLINE
  5
5DC
100
AcDbEntity
  8
KONSTRUKTIONSELEMENTE
100
AcDbSpline
 62
7
  6
CONTINUOUS
 70
0
 71
3
 72
11
 73
7
 74
0
 42
0.0000001
 43
0.0000001
 44
0.0000000001
 40
0.0
 40
0.0
 40
0.0
 40
0.0
 40
0.1762655922
 40
0.3918218634
 40
0.6654417773
 40
1.0
 40
1.0
 40
1.0
 40
1.0
 10
669.4642096001
 20
35.1538871631
 30
0.0
 10
669.5732060526
 20
35.0594987484
 30
0.0
 10
669.8834125619
 20
34.9260737218
 30
0.0
 10
670.4371476157
 20
34.9518867924
 30
0.0
 10
671.0849277911
 20
35.1510582783
 30
0.0
 10
671.531048412
 20
35.375709715
 30
0.0
 10
671.7684849461
 20
35.5117922346
 30
0.0
  0
SPLINE
  5
5DD
100
AcDbEntity
  8
BEZUGSACHSEN
100
AcDbSpline
 62
7
  6
CONTINUOUS
 70
0
 71
3
 72
11
 73
7
 74
0
 42
0.0000001
 43
0.0000001
 44
0.0000000001
 40
0.0
 40
0.0
 40
0.0
 40
0.0
 40
0.3535738114
 40
0.5081078864
 40
0.644684834
 40
1.0
 40
1.0
 40
1.0
 40
1.0
 10
748.3453920523
 20
124.3799184492
 30
0.0
 10
748.7043819565
 20
124.6908128259
 30
0.0
 10
749.2422289711
 20
125.110507905
 30
0.0
 10
749.9938330188
 20
125.5579543025
 30
0.0
 10
750.7506556888
 20
125.9215503315
 30
0.0
 10
751.5855522012
 20
126.0998105597
 30
0.0
 10
751.9462375157
 20
125.7873011922
 30
0.0
  0
SPLINE
  5
5DE
100
AcDbEntity
  8
BEZUGSACHSEN
100
AcDbSpline
 62
7
  6
CONTINUOUS
 70
0
 71
3
 72
11
 73
7
 74
0
 42
0.0000001
 43
0.0000001
 44
0.0000000001
 40
0.0
 40
0.0
 40
0.0
 40
0.0
 40
0.3015881397
 40
0.562494249
 40
0.7907344083
 40
1.0
 40
1.0
 40
1.0
 40
1.0
 10
755.3762573899
 20
127.0451819618
 30
0.0
 10
755.4111607981
 20
127.3674715708
 30
0.0
 10
755.4390705059
 20
127.9741380895
 30
0.0
 10
755.3265321473
 20
128.8225770284
 30
0.0
 10
755.0506564925
 20
129.5304882403
 30
0.0
 10
754.747473752
 20
129.9030150963
 30
0.0
 10
754.5774753461
 20
130.0503155425
 30
0.0
  0
SPLINE
  5
5DF
100
AcDbEntity
  8
KONSTRUKTIONSELEMENTE
100
AcDbSpline
 62
7
  6
CONTINUOUS
 70
0
 71
3
 72
11
 73
7
 74
0
 42
0.0000001
 43
0.0000001
 44
0.0000000001
 40
0.0
 40
0.0
 40
0.0
 40
0.0
 40
0.2331265941
 40
0.50089325
 40
0.7681870742
 40
1.0
 40
1.0
 40
1.0
 40
1.0
 10
728.835605505
 20
68.2187957306
 30
0.0
 10
729.6090272239
 20
68.6620686102
 30
0.0
 10
731.1483415947
 20
69.8252054083
 30
0.0
 10
733.2152613877
 20
71.9227158066
 30
0.0
 10
734.9847115227
 20
74.2702040001
 30
0.0
 10
735.9055467664
 20
75.958185417
 30
0.0
 10
736.2266417651
 20
76.7844052927
 30
0.0
  0
SPLINE
  5
5E0
100
AcDbEntity
  8
KONSTRUKTIONSELEMENTE
100
AcDbSpline
 62
7
  6
CONTINUOUS
 70
0
 71
3
 72
9
 73
5
 74
0
 42
0.0000001
 43
0.0000001
 44
0.0000000001
 40
0.0
 40
0.0
 40
0.0
 40
0.0
 40
0.5009052378
 40
1.0
 40
1.0
 40
1.0
 40
1.0
 10
672.9147106083
 20
36.1687310529
 30
0.0
 10
673.0803504561
 20
36.2636645808
 30
0.0
 10
673.3617927608
 20
36.5304826079
 30
0.0
 10
673.5849071919
 20
36.8479850804
 30
0.0
 10
673.6538142343
 20
37.0252920091
 30
0.0
  0
SPLINE
  5
5E1
100
AcDbEntity
  8
KONSTRUKTIONSELEMENTE
100
AcDbSpline
 62
7
  6
CONTINUOUS
 70
0
 71
3
 72
10
 73
6
 74
0
 42
0.0000001
 43
0.0000001
 44
0.0000000001
 40
0.0
 40
0.0
 40
0.0
 40
0.0
 40
0.1766801589
 40
0.5204210617
 40
1.0
 40
1.0
 40
1.0
 40
1.0
 10
727.091148231
 20
67.3473580243
 30
0.0
 10
727.1056813363
 20
67.3347731338
 30
0.0
 10
727.1605658651
 20
67.311479382
 30
0.0
 10
727.2722777592
 20
67.3304199084
 30
0.0
 10
727.3531115837
 20
67.3691307502
 30
0.0
 10
727.3983862437
 20
67.395079115
 30
0.0
  0
SPLINE
  5
5E2
100
AcDbEntity
  8
BEZUGSACHSEN
100
AcDbSpline
 62
7
  6
CONTINUOUS
 70
0
 71
3
 72
16
 73
12
 74
0
 42
0.0000001
 43
0.0000001
 44
0.0000000001
 40
0.0
 40
0.0
 40
0.0
 40
0.0
 40
0.0604334772
 40
0.097276284
 40
0.1400808722
 40
0.2447119951
 40
0.3732710367
 40
0.5206468688
 40
0.6797229206
 40
0.8423271151
 40
1.0
 40
1.0
 40
1.0
 40
1.0
 10
744.7445465889
 20
117.4725357062
 30
0.0
 10
744.6188327349
 20
117.5814582362
 30
0.0
 10
744.4878580191
 20
117.8393620204
 30
0.0
 10
744.4474230026
 20
118.2227962057
 30
0.0
 10
744.4806483858
 20
118.7316249448
 30
0.0
 10
744.6874766718
 20
119.4689908377
 30
0.0
 10
745.1221622781
 20
120.4243631594
 30
0.0
 10
745.7408846799
 20
121.4521718703
 30
0.0
 10
746.5079815139
 20
122.4926097728
 30
0.0
 10
747.3797091589
 20
123.4849685276
 30
0.0
 10
748.0173345293
 20
124.0958123004
 30
0.0
 10
748.3453920523
 20
124.3799184492
 30
0.0
  0
SPLINE
  5
5E3
100
AcDbEntity
  8
KONSTRUKTIONSELEMENTE
100
AcDbSpline
 62
7
  6
CONTINUOUS
 70
0
 71
3
 72
11
 73
7
 74
0
 42
0.0000001
 43
0.0000001
 44
0.0000000001
 40
0.0
 40
0.0
 40
0.0
 40
0.0
 40
0.2318159308
 40
0.4991068565
 40
0.7668705892
 40
1.0
 40
1.0
 40
1.0
 40
1.0
 10
676.2786153201
 20
43.7792521619
 30
0.0
 10
676.5997145171
 20
44.6054828403
 30
0.0
 10
677.5205486244
 20
46.2934659023
 30
0.0
 10
679.2899959402
 20
48.6409429313
 30
0.0
 10
681.356904831
 20
50.7384481691
 30
0.0
 10
682.8962204303
 20
51.9015834392
 30
0.0
 10
683.6696515801
 20
52.344861724
 30
0.0
  0
SPLINE
  5
5E4
100
AcDbEntity
  8
KONSTRUKTIONSELEMENTE
100
AcDbSpline
 62
7
  6
CONTINUOUS
 70
0
 71
3
 72
11
 73
7
 74
0
 42
0.0000001
 43
0.0000001
 44
0.0000000001
 40
0.0
 40
0.0
 40
0.0
 40
0.0
 40
0.3345488636
 40
0.6081861897
 40
0.8237370673
 40
1.0
 40
1.0
 40
1.0
 40
1.0
 10
726.6555731246
 20
76.9814768617
 30
0.0
 10
726.9721475292
 20
77.162915842
 30
0.0
 10
727.566985479
 20
77.4624508664
 30
0.0
 10
728.4306961757
 20
77.7280354989
 30
0.0
 10
729.1690227741
 20
77.7624246645
 30
0.0
 10
729.5826243715
 20
77.5845348978
 30
0.0
 10
729.7279534808
 20
77.4586875659
 30
0.0
  0
SPLINE
  5
5E5
100
AcDbEntity
  8
KONSTRUKTIONSELEMENTE
100
AcDbSpline
 62
7
  6
CONTINUOUS
 70
0
 71
3
 72
10
 73
6
 74
0
 42
0.0000001
 43
0.0000001
 44
0.0000000001
 40
0.0
 40
0.0
 40
0.0
 40
0.0
 40
0.211465274
 40
0.455099238
 40
1.0
 40
1.0
 40
1.0
 40
1.0
 10
665.8577946732
 20
63.8277920805
 30
0.0
 10
665.9901985083
 20
64.2508808736
 30
0.0
 10
666.3541235619
 20
65.1368855662
 30
0.0
 10
667.3656853077
 20
66.9756367633
 30
0.0
 10
668.3596855959
 20
68.3095602319
 30
0.0
 10
669.1059685024
 20
69.1744413899
 30
0.0
  0
SPLINE
  5
5E6
100
AcDbEntity
  8
KONSTRUKTIONSELEMENTE
100
AcDbSpline
 62
7
  6
CONTINUOUS
 70
0
 71
3
 72
15
 73
11
 74
0
 42
0.0000001
 43
0.0000001
 44
0.0000000001
 40
0.0
 40
0.0
 40
0.0
 40
0.0
 40
0.1734175635
 40
0.3411812013
 40
0.4977777796
 40
0.638361735
 40
0.7591568897
 40
0.8581149583
 40
0.9362062349
 40
1.0
 40
1.0
 40
1.0
 40
1.0
 10
730.3061355255
 20
140.100454659
 30
0.0
 10
730.6463530881
 20
140.4947391281
 30
0.0
 10
731.3425194302
 20
141.2478027209
 30
0.0
 10
732.4331048089
 20
142.2719971337
 30
0.0
 10
733.5234085343
 20
143.1468737713
 30
0.0
 10
734.5723163786
 20
143.8400895891
 30
0.0
 10
735.5419977992
 20
144.3283971111
 30
0.0
 10
736.4014849641
 20
144.5943352619
 30
0.0
 10
737.1365543668
 20
144.6319562108
 30
0.0
 10
737.5505607451
 20
144.4598072358
 30
0.0
 10
737.6971717856
 20
144.33649542
 30
0.0
  0
SPLINE
  5
5E7
100
AcDbEntity
  8
KONSTRUKTIONSELEMENTE
100
AcDbSpline
 62
7
  6
CONTINUOUS
 70
0
 71
3
 72
9
 73
5
 74
0
 42
0.0000001
 43
0.0000001
 44
0.0000000001
 40
0.0
 40
0.0
 40
0.0
 40
0.0
 40
0.2612895939
 40
1.0
 40
1.0
 40
1.0
 40
1.0
 10
665.6138986535
 20
63.1711572276
 30
0.0
 10
665.63777385
 20
63.2273143476
 30
0.0
 10
665.7268127147
 20
63.4432113149
 30
0.0
 10
665.8062697819
 20
63.6631472724
 30
0.0
 10
665.8577946732
 20
63.8277920805
 30
0.0
  0
SPLINE
  5
5E8
100
AcDbEntity
  8
KONSTRUKTIONSELEMENTE
100
AcDbSpline
 62
7
  6
CONTINUOUS
 70
0
 71
3
 72
9
 73
5
 74
0
 42
0.0000001
 43
0.0000001
 44
0.0000000001
 40
0.0
 40
0.0
 40
0.0
 40
0.0
 40
0.2933152047
 40
1.0
 40
1.0
 40
1.0
 40
1.0
 10
643.5521670805
 20
31.9802519389
 30
0.0
 10
643.5521670805
 20
31.9438152951
 30
0.0
 10
643.5590582087
 20
31.8207440284
 30
0.0
 10
643.6116758091
 20
31.6932033732
 30
0.0
 10
643.6780370289
 20
31.6357340585
 30
0.0
  0
SPLINE
  5
5E9
100
AcDbEntity
  8
KONSTRUKTIONSELEMENTE
100
AcDbSpline
 62
7
  6
CONTINUOUS
 70
0
 71
3
 72
11
 73
7
 74
0
 42
0.0000001
 43
0.0000001
 44
0.0000000001
 40
0.0
 40
0.0
 40
0.0
 40
0.0
 40
0.2857886869
 40
0.5710293088
 40
0.8184092914
 40
1.0
 40
1.0
 40
1.0
 40
1.0
 10
645.2492233553
 20
42.7299457846
 30
0.0
 10
645.0170065528
 20
42.5288401344
 30
0.0
 10
644.5849205256
 20
42.0898627237
 30
0.0
 10
644.0528312853
 20
41.3844892691
 30
0.0
 10
643.6867041253
 20
40.7099446675
 30
0.0
 10
643.5521670805
 20
40.2554435979
 30
0.0
 10
643.5521670805
 20
40.0602519389
 30
0.0
  0
SPLINE
  5
5EA
100
AcDbEntity
  8
KONSTRUKTIONSELEMENTE
100
AcDbSpline
 62
7
  6
CONTINUOUS
 70
0
 71
3
 72
10
 73
6
 74
0
 42
0.0000001
 43
0.0000001
 44
0.0000000001
 40
0.0
 40
0.0
 40
0.0
 40
0.0
 40
0.228039625
 40
0.4815269147
 40
1.0
 40
1.0
 40
1.0
 40
1.0
 10
666.0988196895
 20
62.4972336065
 30
0.0
 10
665.89248429
 20
62.0410745143
 30
0.0
 10
665.3812856567
 20
61.11143302
 30
0.0
 10
664.1191084563
 20
59.3131059513
 30
0.0
 10
662.9535828915
 20
58.0623709006
 30
0.0
 10
662.0931135142
 20
57.3171825608
 30
0.0
  0
SPLINE
  5
5EB
100
AcDbEntity
  8
KONSTRUKTIONSELEMENTE
100
AcDbSpline
 62
7
  6
CONTINUOUS
 70
0
 71
3
 72
13
 73
9
 74
0
 42
0.0000001
 43
0.0000001
 44
0.0000000001
 40
0.0
 40
0.0
 40
0.0
 40
0.0
 40
0.3411732759
 40
0.6381656729
 40
0.7590285837
 40
0.8580298777
 40
0.9361873915
 40
1.0
 40
1.0
 40
1.0
 40
1.0
 10
715.2453278905
 20
121.5007228974
 30
0.0
 10
715.4460131443
 20
121.7333007754
 30
0.0
 10
715.8506038189
 20
122.1436443685
 30
0.0
 10
716.3992304705
 20
122.5588115968
 30
0.0
 10
716.8160596247
 20
122.7691106723
 30
0.0
 10
717.0739382761
 20
122.8489077702
 30
0.0
 10
717.2944399801
 20
122.8601053929
 30
0.0
 10
717.4186672213
 20
122.8085187752
 30
0.0
 10
717.4626387685
 20
122.7715351257
 30
0.0
  0
SPLINE
  5
5EC
100
AcDbEntity
  8
KONSTRUKTIONSELEMENTE
100
AcDbSpline
 62
7
  6
CONTINUOUS
 70
0
 71
3
 72
13
 73
9
 74
0
 42
0.0000001
 43
0.0000001
 44
0.0000000001
 40
0.0
 40
0.0
 40
0.0
 40
0.0
 40
0.0638126085
 40
0.1419701223
 40
0.2409714163
 40
0.3618343271
 40
0.6588267241
 40
1.0
 40
1.0
 40
1.0
 40
1.0
 10
719.6274231691
 20
120.9507752803
 30
0.0
 10
719.6713947163
 20
120.9137916308
 30
0.0
 10
719.7956219575
 20
120.8622050131
 30
0.0
 10
720.0161236615
 20
120.8734026358
 30
0.0
 10
720.274002313
 20
120.9531997337
 30
0.0
 10
720.6908314671
 20
121.1634988092
 30
0.0
 10
721.2394581188
 20
121.5786660376
 30
0.0
 10
721.6440487933
 20
121.9890096306
 30
0.0
 10
721.8447340471
 20
122.2215875086
 30
0.0
  0
SPLINE
  5
5ED
100
AcDbEntity
  8
BEZUGSACHSEN
100
AcDbSpline
 62
7
  6
CONTINUOUS
 70
0
 71
3
 72
11
 73
7
 74
0
 42
0.0000001
 43
0.0000001
 44
0.0000000001
 40
0.0
 40
0.0
 40
0.0
 40
0.0
 40
0.3535738114
 40
0.5081078864
 40
0.644684834
 40
1.0
 40
1.0
 40
1.0
 40
1.0
 10
748.3453920523
 20
118.8799184492
 30
0.0
 10
747.9864021482
 20
118.5690240725
 30
0.0
 10
747.4485551336
 20
118.1493289933
 30
0.0
 10
746.6969510859
 20
117.7018825958
 30
0.0
 10
745.9401284158
 20
117.3382865668
 30
0.0
 10
745.1052319034
 20
117.1600263387
 30
0.0
 10
744.7445465889
 20
117.4725357062
 30
0.0
  0
SPLINE
  5
5EE
100
AcDbEntity
  8
KONSTRUKTIONSELEMENTE
100
AcDbSpline
 62
7
  6
CONTINUOUS
 70
0
 71
3
 72
9
 73
5
 74
0
 42
0.0000001
 43
0.0000001
 44
0.0000000001
 40
0.0
 40
0.0
 40
0.0
 40
0.0
 40
0.5487176208
 40
1.0
 40
1.0
 40
1.0
 40
1.0
 10
669.1494325594
 20
36.0152649314
 30
0.0
 10
669.1494325594
 20
35.843533842
 30
0.0
 10
669.183376719
 20
35.525529694
 30
0.0
 10
669.3574419251
 20
35.246345508
 30
0.0
 10
669.4642096001
 20
35.1538871631
 30
0.0
  0
SPLINE
  5
5EF
100
AcDbEntity
  8
BEZUGSACHSEN
100
AcDbSpline
 62
7
  6
CONTINUOUS
 70
0
 71
3
 72
9
 73
5
 74
0
 42
0.0000001
 43
0.0000001
 44
0.0000000001
 40
0.0
 40
0.0
 40
0.0
 40
0.0
 40
0.4460938812
 40
1.0
 40
1.0
 40
1.0
 40
1.0
 10
751.9462375157
 20
125.7873011922
 30
0.0
 10
752.0515317048
 20
125.6960709172
 30
0.0
 10
752.2191517173
 20
125.4115083045
 30
0.0
 10
752.239509679
 20
125.0929311357
 30
0.0
 10
752.2329399266
 20
124.9200660298
 30
0.0
  0
SPLINE
  5
5F0
100
AcDbEntity
  8
BEZUGSACHSEN
100
AcDbSpline
 62
7
  6
CONTINUOUS
 70
0
 71
3
 72
9
 73
5
 74
0
 42
0.0000001
 43
0.0000001
 44
0.0000000001
 40
0.0
 40
0.0
 40
0.0
 40
0.0
 40
0.2554587855
 40
1.0
 40
1.0
 40
1.0
 40
1.0
 10
749.5113794164
 20
120.0161904189
 30
0.0
 10
749.4175491231
 20
119.9140772277
 30
0.0
 10
749.0448418008
 20
119.5193793559
 30
0.0
 10
748.6509210124
 20
119.1445142902
 30
0.0
 10
748.3453920523
 20
118.8799184492
 30
0.0
  0
SPLINE
  5
5F1
100
AcDbEntity
  8
KONSTRUKTIONSELEMENTE
100
AcDbSpline
 62
7
  6
CONTINUOUS
 70
0
 71
3
 72
9
 73
5
 74
0
 42
0.0000001
 43
0.0000001
 44
0.0000000001
 40
0.0
 40
0.0
 40
0.0
 40
0.0
 40
0.5486311305
 40
1.0
 40
1.0
 40
1.0
 40
1.0
 10
669.1494325594
 20
46.2042056513
 30
0.0
 10
669.1494325594
 20
46.3874096949
 30
0.0
 10
669.1131495412
 20
46.7266931924
 30
0.0
 10
668.9274217212
 20
47.0245963372
 30
0.0
 10
668.813442342
 20
47.1232209936
 30
0.0
  0
SPLINE
  5
5F2
100
AcDbEntity
  8
KONSTRUKTIONSELEMENTE
100
AcDbSpline
 62
7
  6
CONTINUOUS
 70
0
 71
3
 72
11
 73
7
 74
0
 42
0.0000001
 43
0.0000001
 44
0.0000000001
 40
0.0
 40
0.0
 40
0.0
 40
0.0
 40
0.177146351
 40
0.3929380096
 40
0.6661844842
 40
1.0
 40
1.0
 40
1.0
 40
1.0
 10
729.7279534808
 20
77.4586875659
 30
0.0
 10
729.8713017117
 20
77.3345555701
 30
0.0
 10
730.1042745938
 20
76.9581413052
 30
0.0
 10
730.1801126721
 20
76.2359286055
 30
0.0
 10
730.0495658286
 20
75.3596229236
 30
0.0
 10
729.8464788277
 20
74.7395953066
 30
0.0
 10
729.7170405835
 20
74.4065335945
 30
0.0
  0
SPLINE
  5
5F3
100
AcDbEntity
  8
KONSTRUKTIONSELEMENTE
100
AcDbSpline
 62
7
  6
CONTINUOUS
 70
0
 71
3
 72
12
 73
8
 74
0
 42
0.0000001
 43
0.0000001
 44
0.0000000001
 40
0.0
 40
0.0
 40
0.0
 40
0.0
 40
0.2855672817
 40
0.5706138983
 40
0.8178266478
 40
0.9180835819
 40
1.0
 40
1.0
 40
1.0
 40
1.0
 10
664.6239491598
 20
52.7650220628
 30
0.0
 10
665.2431633777
 20
53.3012773059
 30
0.0
 10
666.3964128541
 20
54.4727605911
 30
0.0
 10
667.8109814368
 20
56.3499683029
 30
0.0
 10
668.687545745
 20
57.9540880988
 30
0.0
 10
669.0719978771
 20
59.1271843184
 30
0.0
 10
669.1494325594
 20
59.6492302225
 30
0.0
 10
669.1494325594
 20
59.8842056513
 30
0.0
  0
SPLINE
  5
5F4
100
AcDbEntity
  8
KONSTRUKTIONSELEMENTE
100
AcDbSpline
 62
7
  6
CONTINUOUS
 70
0
 71
3
 72
13
 73
9
 74
0
 42
0.0000001
 43
0.0000001
 44
0.0000000001
 40
0.0
 40
0.0
 40
0.0
 40
0.0
 40
0.0638126085
 40
0.1419701223
 40
0.2409714163
 40
0.3618343271
 40
0.6588267241
 40
1.0
 40
1.0
 40
1.0
 40
1.0
 10
720.5067709063
 20
115.9560908078
 30
0.0
 10
720.5507424535
 20
115.9191071583
 30
0.0
 10
720.6749696947
 20
115.8675205407
 30
0.0
 10
720.8954713987
 20
115.8787181634
 30
0.0
 10
721.1533500502
 20
115.9585152612
 30
0.0
 10
721.5701792043
 20
116.1688143367
 30
0.0
 10
722.1188058559
 20
116.5839815651
 30
0.0
 10
722.5233965305
 20
116.9943251582
 30
0.0
 10
722.7240817843
 20
117.2269030361
 30
0.0
  0
SPLINE
  5
5F5
100
AcDbEntity
  8
KONSTRUKTIONSELEMENTE
100
AcDbSpline
 62
7
  6
CONTINUOUS
 70
0
 71
3
 72
10
 73
6
 74
0
 42
0.0000001
 43
0.0000001
 44
0.0000000001
 40
0.0
 40
0.0
 40
0.0
 40
0.0
 40
0.544900762
 40
0.788534726
 40
1.0
 40
1.0
 40
1.0
 40
1.0
 10
672.6415024083
 20
66.1125792114
 30
0.0
 10
671.8952195019
 20
65.2476980534
 30
0.0
 10
670.9012192137
 20
63.9137745848
 30
0.0
 10
669.8896574678
 20
62.0750233877
 30
0.0
 10
669.5257324143
 20
61.1890186951
 30
0.0
 10
669.3933285791
 20
60.765929902
 30
0.0
  0
SPLINE
  5
5F6
100
AcDbEntity
  8
KONSTRUKTIONSELEMENTE
100
AcDbSpline
 62
7
  6
CONTINUOUS
 70
0
 71
3
 72
15
 73
11
 74
0
 42
0.0000001
 43
0.0000001
 44
0.0000000001
 40
0.0
 40
0.0
 40
0.0
 40
0.0
 40
0.063793146
 40
0.1418832067
 40
0.2408400792
 40
0.3616382765
 40
0.5022263169
 40
0.6588223202
 40
0.826583973
 40
1.0
 40
1.0
 40
1.0
 40
1.0
 10
741.2327056915
 20
141.2746332415
 30
0.0
 10
741.0860960698
 20
141.3979438641
 30
0.0
 10
740.672096095
 20
141.5700924796
 30
0.0
 10
739.9370357346
 20
141.5324751179
 30
0.0
 10
739.0775451167
 20
141.2665418088
 30
0.0
 10
738.1078470297
 20
140.7782267261
 30
0.0
 10
737.0589236778
 20
140.0849985157
 30
0.0
 10
735.968618461
 20
139.210116393
 30
0.0
 10
734.8780426923
 20
138.185929743
 30
0.0
 10
734.1818839893
 20
137.4328734674
 30
0.0
 10
733.8416694314
 20
137.0385924806
 30
0.0
  0
SPLINE
  5
5F7
100
AcDbEntity
  8
KONSTRUKTIONSELEMENTE
100
AcDbSpline
 62
7
  6
CONTINUOUS
 70
0
 71
3
 72
9
 73
5
 74
0
 42
0.0000001
 43
0.0000001
 44
0.0000000001
 40
0.0
 40
0.0
 40
0.0
 40
0.0
 40
0.3430740591
 40
1.0
 40
1.0
 40
1.0
 40
1.0
 10
727.0922394978
 20
67.6525734417
 30
0.0
 10
727.079295624
 20
67.6192671436
 30
0.0
 10
727.0473189316
 20
67.5255167195
 30
0.0
 10
727.0394236485
 20
67.3921487414
 30
0.0
 10
727.091148231
 20
67.3473580243
 30
0.0
  0
SPLINE
  5
5F8
100
AcDbEntity
  8
KONSTRUKTIONSELEMENTE
100
AcDbSpline
 62
7
  6
CONTINUOUS
 70
0
 71
3
 72
9
 73
5
 74
0
 42
0.0000001
 43
0.0000001
 44
0.0000000001
 40
0.0
 40
0.0
 40
0.0
 40
0.0
 40
0.238545165
 40
1.0
 40
1.0
 40
1.0
 40
1.0
 10
669.3933285791
 20
60.765929902
 30
0.0
 10
669.3766898762
 20
60.7127618898
 30
0.0
 10
669.3037708874
 20
60.4908720726
 30
0.0
 10
669.2190110449
 20
60.2729513924
 30
0.0
 10
669.1494325594
 20
60.1092950491
 30
0.0
  0
SPLINE
  5
5F9
100
AcDbEntity
  8
KONSTRUKTIONSELEMENTE
100
AcDbSpline
 62
7
  6
CONTINUOUS
 70
0
 71
3
 72
11
 73
7
 74
0
 42
0.0000001
 43
0.0000001
 44
0.0000000001
 40
0.0
 40
0.0
 40
0.0
 40
0.0
 40
0.3303452579
 40
0.6216369567
 40
0.8495560534
 40
1.0
 40
1.0
 40
1.0
 40
1.0
 10
728.7321833582
 20
129.9087804914
 30
0.0
 10
728.9639877335
 20
130.0321205492
 30
0.0
 10
729.3895956231
 20
130.2834626895
 30
0.0
 10
729.9322320654
 20
130.6936404442
 30
0.0
 10
730.3010879192
 20
131.0699529573
 30
0.0
 10
730.4491799022
 20
131.3588734206
 30
0.0
 10
730.4443706683
 20
131.478357431
 30
0.0
  0
SPLINE
  5
5FA
100
AcDbEntity
  8
KONSTRUKTIONSELEMENTE
100
AcDbSpline
 62
7
  6
CONTINUOUS
 70
0
 71
3
 72
12
 73
8
 74
0
 42
0.0000001
 43
0.0000001
 44
0.0000000001
 40
0.0
 40
0.0
 40
0.0
 40
0.0
 40
0.3172902138
 40
0.6128133829
 40
0.849013026
 40
0.935325608
 40
1.0
 40
1.0
 40
1.0
 40
1.0
 10
730.8451775897
 20
128.0788738089
 30
0.0
 10
730.9540470793
 20
128.3842116325
 30
0.0
 10
731.1314279268
 20
128.9868433114
 30
0.0
 10
731.2774348
 20
129.842142684
 30
0.0
 10
731.2904481365
 20
130.4816267874
 30
0.0
 10
731.1969398305
 20
130.8676579697
 30
0.0
 10
731.1139397679
 20
131.0047859816
 30
0.0
 10
731.0640079876
 20
131.0480624121
 30
0.0
  0
SPLINE
  5
5FB
100
AcDbEntity
  8
KONSTRUKTIONSELEMENTE
100
AcDbSpline
 62
7
  6
CONTINUOUS
 70
0
 71
3
 72
13
 73
9
 74
0
 42
0.0000001
 43
0.0000001
 44
0.0000000001
 40
0.0
 40
0.0
 40
0.0
 40
0.0
 40
0.3411732759
 40
0.6381656729
 40
0.7590285837
 40
0.8580298777
 40
0.9361873915
 40
1.0
 40
1.0
 40
1.0
 40
1.0
 10
717.6494909465
 20
119.4186566161
 30
0.0
 10
717.8501762004
 20
119.651234494
 30
0.0
 10
718.2547668749
 20
120.0615780871
 30
0.0
 10
718.8033935265
 20
120.4767453154
 30
0.0
 10
719.2202226807
 20
120.6870443909
 30
0.0
 10
719.4781013322
 20
120.7668414888
 30
0.0
 10
719.6986030362
 20
120.7780391115
 30
0.0
 10
719.8228302774
 20
120.7264524938
 30
0.0
 10
719.8668018246
 20
120.6894688444
 30
0.0
  0
SPLINE
  5
5FC
100
AcDbEntity
  8
KONSTRUKTIONSELEMENTE
100
AcDbSpline
 62
7
  6
CONTINUOUS
 70
0
 71
3
 72
13
 73
9
 74
0
 42
0.0000001
 43
0.0000001
 44
0.0000000001
 40
0.0
 40
0.0
 40
0.0
 40
0.0
 40
0.0638126085
 40
0.1419701223
 40
0.2409714163
 40
0.3618343271
 40
0.6588267241
 40
1.0
 40
1.0
 40
1.0
 40
1.0
 10
722.0315862251
 20
118.8687089989
 30
0.0
 10
722.0755577723
 20
118.8317253495
 30
0.0
 10
722.1997850135
 20
118.7801387318
 30
0.0
 10
722.4202867175
 20
118.7913363545
 30
0.0
 10
722.678165369
 20
118.8711334524
 30
0.0
 10
723.0949945232
 20
119.0814325278
 30
0.0
 10
723.6436211748
 20
119.4965997562
 30
0.0
 10
724.0482118493
 20
119.9069433493
 30
0.0
 10
724.2488971032
 20
120.1395212272
 30
0.0
  0
SPLINE
  5
5FD
100
AcDbEntity
  8
KONSTRUKTIONSELEMENTE
100
AcDbSpline
 62
7
  6
CONTINUOUS
 70
0
 71
3
 72
13
 73
9
 74
0
 42
0.0000001
 43
0.0000001
 44
0.0000000001
 40
0.0
 40
0.0
 40
0.0
 40
0.0
 40
0.0637867596
 40
0.1419631615
 40
0.2409671538
 40
0.3618520483
 40
0.658806967
 40
1.0
 40
1.0
 40
1.0
 40
1.0
 10
719.9410854813
 20
116.4459887564
 30
0.0
 10
719.9850386838
 20
116.4090205363
 30
0.0
 10
720.1092991988
 20
116.3575594062
 30
0.0
 10
720.3297733598
 20
116.3685463054
 30
0.0
 10
720.5877070385
 20
116.4484022349
 30
0.0
 10
721.0044357363
 20
116.6588229882
 30
0.0
 10
721.5531658977
 20
117.0738316319
 30
0.0
 10
721.9577019173
 20
117.4842124584
 30
0.0
 10
722.1583963594
 20
117.7168009847
 30
0.0
  0
SPLINE
  5
5FE
100
AcDbEntity
  8
KONSTRUKTIONSELEMENTE
100
AcDbSpline
 62
7
  6
CONTINUOUS
 70
0
 71
3
 72
11
 73
7
 74
0
 42
0.0000001
 43
0.0000001
 44
0.0000000001
 40
0.0
 40
0.0
 40
0.0
 40
0.0
 40
0.2857886869
 40
0.5710293088
 40
0.8184092914
 40
1.0
 40
1.0
 40
1.0
 40
1.0
 10
647.6533864114
 20
40.6478795032
 30
0.0
 10
647.4211696088
 20
40.446773853
 30
0.0
 10
646.9890835816
 20
40.0077964423
 30
0.0
 10
646.4569943414
 20
39.3024229877
 30
0.0
 10
646.0908671813
 20
38.6278783862
 30
0.0
 10
645.9563301365
 20
38.1733773166
 30
0.0
 10
645.9563301365
 20
37.9781856576
 30
0.0
  0
SPLINE
  5
5FF
100
AcDbEntity
  8
KONSTRUKTIONSELEMENTE
100
AcDbSpline
 62
7
  6
CONTINUOUS
 70
0
 71
3
 72
10
 73
6
 74
0
 42
0.0000001
 43
0.0000001
 44
0.0000000001
 40
0.0
 40
0.0
 40
0.0
 40
0.0
 40
0.2250413928
 40
0.478308622
 40
1.0
 40
1.0
 40
1.0
 40
1.0
 10
668.5837471345
 20
60.5991929977
 30
0.0
 10
668.384565474
 20
60.1306955593
 30
0.0
 10
667.8754004659
 20
59.1709423428
 30
0.0
 10
666.5913949364
 20
57.306372442
 30
0.0
 10
665.3893875425
 20
56.0077070443
 30
0.0
 10
664.4972765703
 20
55.2351162794
 30
0.0
  0
SPLINE
  5
600
100
AcDbEntity
  8
KONSTRUKTIONSELEMENTE
100
AcDbSpline
 62
7
  6
CONTINUOUS
 70
0
 71
3
 72
12
 73
8
 74
0
 42
0.0000001
 43
0.0000001
 44
0.0000000001
 40
0.0
 40
0.0
 40
0.0
 40
0.0
 40
0.285581653
 40
0.5706156379
 40
0.817816411
 40
0.9180971044
 40
1.0
 40
1.0
 40
1.0
 40
1.0
 10
664.0582637349
 20
53.2549200114
 30
0.0
 10
664.6775085417
 20
53.7912017452
 30
0.0
 10
665.8307552602
 20
54.9626976005
 30
0.0
 10
667.2452914017
 20
56.8398741424
 30
0.0
 10
668.1219224857
 20
58.4439771577
 30
0.0
 10
668.5062278944
 20
59.6171057705
 30
0.0
 10
668.5837471345
 20
60.1391671778
 30
0.0
 10
668.5837471345
 20
60.3741035998
 30
0.0
  0
SPLINE
  5
601
100
AcDbEntity
  8
KONSTRUKTIONSELEMENTE
100
AcDbSpline
 62
7
  6
CONTINUOUS
 70
0
 71
3
 72
9
 73
5
 74
0
 42
0.0000001
 43
0.0000001
 44
0.0000000001
 40
0.0
 40
0.0
 40
0.0
 40
0.0
 40
0.2763905897
 40
1.0
 40
1.0
 40
1.0
 40
1.0
 10
668.5837471345
 20
46.6941035998
 30
0.0
 10
668.5837471345
 20
46.7521500556
 30
0.0
 10
668.5756693417
 20
46.9617153817
 30
0.0
 10
668.5312922869
 20
47.1725720492
 30
0.0
 10
668.4687868616
 20
47.3110921735
 30
0.0
  0
SPLINE
  5
602
100
AcDbEntity
  8
KONSTRUKTIONSELEMENTE
100
AcDbSpline
 62
7
  6
CONTINUOUS
 70
0
 71
3
 72
9
 73
5
 74
0
 42
0.0000001
 43
0.0000001
 44
0.0000000001
 40
0.0
 40
0.0
 40
0.0
 40
0.0
 40
0.5486311305
 40
1.0
 40
1.0
 40
1.0
 40
1.0
 10
668.5837471345
 20
45.0941035998
 30
0.0
 10
668.5837471345
 20
45.2773076435
 30
0.0
 10
668.5474641163
 20
45.616591141
 30
0.0
 10
668.3617362962
 20
45.9144942857
 30
0.0
 10
668.247756917
 20
46.0131189422
 30
0.0
  0
SPLINE
  5
603
100
AcDbEntity
  8
KONSTRUKTIONSELEMENTE
100
AcDbSpline
 62
7
  6
CONTINUOUS
 70
0
 71
3
 72
9
 73
5
 74
0
 42
0.0000001
 43
0.0000001
 44
0.0000000001
 40
0.0
 40
0.0
 40
0.0
 40
0.0
 40
0.2933152047
 40
1.0
 40
1.0
 40
1.0
 40
1.0
 10
645.9563301365
 20
29.8981856576
 30
0.0
 10
645.9563301365
 20
29.8617490137
 30
0.0
 10
645.9632212647
 20
29.738677747
 30
0.0
 10
646.0158388652
 20
29.6111370919
 30
0.0
 10
646.0822000849
 20
29.5536677772
 30
0.0
  0
SPLINE
  5
604
100
AcDbEntity
  8
0
100
AcDbSpline
 62
7
  6
CONTINUOUS
 70
0
 71
3
 72
11
 73
7
 74
0
 42
0.0000001
 43
0.0000001
 44
0.0000000001
 40
0.0
 40
0.0
 40
0.0
 40
0.0
 40
0.2287243425
 40
0.4678478566
 40
0.724280754
 40
1.0
 40
1.0
 40
1.0
 40
1.0
 10
835.3464380729
 20
293.1346275441
 30
0.0
 10
835.3464380729
 20
295.0576943069
 30
0.0
 10
835.8943179307
 20
299.0107552768
 30
0.0
 10
838.3374678093
 20
304.6622511299
 30
0.0
 10
842.3597823879
 20
309.8292117826
 30
0.0
 10
845.8915372201
 20
312.6488921714
 30
0.0
 10
847.845595132
 20
313.8961544736
 30
0.0
  0
SPLINE
  5
605
100
AcDbEntity
  8
0
100
AcDbSpline
 62
7
  6
CONTINUOUS
 70
0
 71
3
 72
11
 73
7
 74
0
 42
0.0000001
 43
0.0000001
 44
0.0000000001
 40
0.0
 40
0.0
 40
0.0
 40
0.0
 40
0.2757188236
 40
0.5321515445
 40
0.7712752274
 40
1.0
 40
1.0
 40
1.0
 40
1.0
 10
887.8484079682
 20
313.8954349537
 30
0.0
 10
889.802300876
 20
312.648147649
 30
0.0
 10
893.3337680402
 20
309.8285047713
 30
0.0
 10
897.3557078142
 20
304.661696557
 30
0.0
 10
899.7986168318
 20
299.0104532176
 30
0.0
 10
900.3464380729
 20
295.0575966514
 30
0.0
 10
900.3464380729
 20
293.1346275441
 30
0.0
  0
SPLINE
  5
606
100
AcDbEntity
  8
0
100
AcDbSpline
 62
7
  6
CONTINUOUS
 70
0
 71
3
 72
15
 73
11
 74
0
 42
0.0000001
 43
0.0000001
 44
0.0000000001
 40
0.0
 40
0.0
 40
0.0
 40
0.0
 40
0.1214462372
 40
0.2433143701
 40
0.3660030144
 40
0.4898542043
 40
0.6151203328
 40
0.7419344424
 40
0.8702827791
 40
1.0
 40
1.0
 40
1.0
 40
1.0
 10
809.3464380729
 20
293.1346275441
 30
0.0
 10
809.3464380729
 20
295.8383602199
 30
0.0
 10
809.8155867359
 20
301.2666737679
 30
0.0
 10
811.9027340681
 20
309.1818902035
 30
0.0
 10
815.3085069994
 20
316.6852157804
 30
0.0
 10
819.9322486077
 20
323.593844753
 30
0.0
 10
825.6465002048
 20
329.7545921057
 30
0.0
 10
832.305461083
 20
335.0393500627
 30
0.0
 10
839.7469566028
 20
339.3439114226
 30
0.0
 10
845.0968864495
 20
341.4979279397
 30
0.0
 10
847.8433721456
 20
342.390450926
 30
0.0
  0
SPLINE
  5
607
100
AcDbEntity
  8
0
100
AcDbSpline
 62
7
  6
CONTINUOUS
 70
0
 71
3
 72
15
 73
11
 74
0
 42
0.0000001
 43
0.0000001
 44
0.0000000001
 40
0.0
 40
0.0
 40
0.0
 40
0.0
 40
0.1297172973
 40
0.258065475
 40
0.3848793756
 40
0.5101453887
 40
0.6339960046
 40
0.7566846176
 40
0.8785531284
 40
1.0
 40
1.0
 40
1.0
 40
1.0
 10
887.8479867619
 20
342.3909440422
 30
0.0
 10
890.5945589747
 20
341.4984591501
 30
0.0
 10
895.9446730413
 20
339.3445370022
 30
0.0
 10
903.3864286959
 20
335.0400256003
 30
0.0
 10
910.04564805
 20
329.7552838778
 30
0.0
 10
915.76012011
 20
323.5944934441
 30
0.0
 10
920.3840680941
 20
316.6857826693
 30
0.0
 10
923.7900001331
 20
309.1823171179
 30
0.0
 10
925.8772633345
 20
301.2669051523
 30
0.0
 10
926.3464380729
 20
295.8384387651
 30
0.0
 10
926.3464380729
 20
293.1346275441
 30
0.0
  0
SPLINE
  5
608
100
AcDbEntity
  8
0
100
AcDbSpline
 62
7
  6
CONTINUOUS
 70
0
 71
3
 72
16
 73
12
 74
0
 42
0.0000001
 43
0.0000001
 44
0.0000000001
 40
0.0
 40
0.0
 40
0.0
 40
0.0
 40
0.1208128183
 40
0.2421587382
 40
0.3645306784
 40
0.4883285272
 40
0.6138075954
 40
0.7410315824
 40
0.8053095842
 40
0.8699486592
 40
1.0
 40
1.0
 40
1.0
 40
1.0
 10
926.3464380729
 20
228.1827222603
 30
0.0
 10
926.3464380729
 20
225.1348596586
 30
0.0
 10
925.7489801118
 20
219.0093167692
 30
0.0
 10
923.0992593488
 20
210.147048973
 30
0.0
 10
918.8004037203
 20
201.8712759637
 30
0.0
 10
913.0109325415
 20
194.432865006
 30
0.0
 10
905.9289921325
 20
188.0349967274
 30
0.0
 10
899.1521744236
 20
183.7173079638
 30
0.0
 10
893.3198242931
 20
180.9214459466
 30
0.0
 10
887.2193722135
 20
178.5691731402
 30
0.0
 10
882.436646183
 20
177.3434848064
 30
0.0
 10
879.2057760184
 20
176.7725281772
 30
0.0
  0
SPLINE
  5
609
100
AcDbEntity
  8
0
100
AcDbSpline
 62
7
  6
CONTINUOUS
 70
0
 71
3
 72
11
 73
7
 74
0
 42
0.0000001
 43
0.0000001
 44
0.0000000001
 40
0.0
 40
0.0
 40
0.0
 40
0.0
 40
0.2541396081
 40
0.50591276
 40
0.754634322
 40
1.0
 40
1.0
 40
1.0
 40
1.0
 10
856.4906448536
 20
176.7719028656
 30
0.0
 10
853.306588504
 20
177.3343848947
 30
0.0
 10
847.0414145581
 20
178.9318658784
 30
0.0
 10
838.17535471
 20
182.713026273
 30
0.0
 10
830.1082692307
 20
187.784618651
 30
0.0
 10
825.3810580727
 20
191.981377308
 30
0.0
 10
823.2340312427
 20
194.2475342201
 30
0.0
  0
SPLINE
  5
60A
100
AcDbEntity
  8
0
100
AcDbSpline
 62
7
  6
CONTINUOUS
 70
0
 71
3
 72
11
 73
7
 74
0
 42
0.0000001
 43
0.0000001
 44
0.0000000001
 40
0.0
 40
0.0
 40
0.0
 40
0.0
 40
0.252463789
 40
0.5028553177
 40
0.7517979874
 40
1.0
 40
1.0
 40
1.0
 40
1.0
 10
818.628495836
 20
199.8194968669
 30
0.0
 10
817.142492461
 20
201.8918655058
 30
0.0
 10
814.4825335576
 20
206.2452917998
 30
0.0
 10
811.544894669
 20
213.2797574923
 30
0.0
 10
809.7493107859
 20
220.6450586952
 30
0.0
 10
809.3464380729
 20
225.6756876167
 30
0.0
 10
809.3464380729
 20
228.1827222603
 30
0.0
  0
SPLINE
  5
60B
100
AcDbEntity
  8
0
100
AcDbSpline
 62
7
  6
CONTINUOUS
 70
0
 71
3
 72
14
 73
10
 74
0
 42
0.0000001
 43
0.0000001
 44
0.0000000001
 40
0.0
 40
0.0
 40
0.0
 40
0.0
 40
0.1086677764
 40
0.2197472256
 40
0.3352805906
 40
0.4565824674
 40
0.5841997824
 40
0.7179724441
 40
1.0
 40
1.0
 40
1.0
 40
1.0
 10
900.3464380729
 20
228.1827222603
 30
0.0
 10
900.3464380729
 20
226.8726601862
 30
0.0
 10
900.0978015401
 20
224.2170458064
 30
0.0
 10
898.9799121345
 20
220.3103747104
 30
0.0
 10
897.1137349778
 20
216.5293894827
 30
0.0
 10
894.5091920878
 20
212.9654475126
 30
0.0
 10
891.1993760294
 20
209.7214995853
 30
0.0
 10
885.8506436907
 20
205.905575123
 30
0.0
 10
881.1364362206
 20
203.9475726912
 30
0.0
 10
877.8503266917
 20
203.0748286153
 30
0.0
  0
SPLINE
  5
60C
100
AcDbEntity
  8
0
100
AcDbSpline
 62
7
  6
CONTINUOUS
 70
0
 71
3
 72
9
 73
5
 74
0
 42
0.0000001
 43
0.0000001
 44
0.0000000001
 40
0.0
 40
0.0
 40
0.0
 40
0.0
 40
0.5156635548
 40
1.0
 40
1.0
 40
1.0
 40
1.0
 10
857.8432548094
 20
203.0746383889
 30
0.0
 10
855.0444327612
 20
203.8179121877
 30
0.0
 10
849.759906152
 20
205.8878174334
 30
0.0
 10
845.1346874907
 20
209.1979356823
 30
0.0
 10
843.1637255771
 20
211.0722941406
 30
0.0
  0
SPLINE
  5
60D
100
AcDbEntity
  8
0
100
AcDbSpline
 62
7
  6
CONTINUOUS
 70
0
 71
3
 72
9
 73
5
 74
0
 42
0.0000001
 43
0.0000001
 44
0.0000000001
 40
0.0
 40
0.0
 40
0.0
 40
0.0
 40
0.5110275887
 40
1.0
 40
1.0
 40
1.0
 40
1.0
 10
838.4638383447
 20
216.9649990461
 30
0.0
 10
837.4556343158
 20
218.6932911767
 30
0.0
 10
835.8882144832
 20
222.3355500289
 30
0.0
 10
835.3464380729
 20
226.2682095799
 30
0.0
 10
835.3464380729
 20
228.1827222603
 30
0.0
  0
ELLIPSE
  5
60E
100
AcDbEntity
  8
KONSTRUKTIONSELEMENTE
100
AcDbEllipse
 62
7
  6
CONTINUOUS
 10
90.6786972002
 20
133.2190152495
 30
0.0
 11
2.4038349372
 21
-0.6359915542
 31
0.0
 40
0.0501436764
 41
-2.5950501555
 42
-1.191701908
  0
ELLIPSE
  5
60F
100
AcDbEntity
  8
KONSTRUKTIONSELEMENTE
100
AcDbEllipse
 62
7
  6
CONTINUOUS
 10
98.3214445832
 20
128.7706814794
 30
0.0
 11
-1.2408929864
 21
2.4502885391
 31
0.0
 40
0.7635480741
 41
4.1339676405
 42
5.7047639673
  0
ELLIPSE
  5
610
100
AcDbEntity
  8
0
100
AcDbEllipse
 62
7
  6
CONTINUOUS
 10
534.6798530175
 20
61.1966574033
 30
0.0
 11
-48.4974226119
 21
84.0
 31
0.0
 40
0.5773502692
 41
-0.3754229971
 42
-0.1577968958
  0
ELLIPSE
  5
611
100
AcDbEntity
  8
0
100
AcDbEllipse
 62
7
  6
CONTINUOUS
 10
534.6798530175
 20
61.1966574033
 30
0.0
 11
-48.4974226119
 21
84.0
 31
0.0
 40
0.5773502692
 41
0.1577968958
 42
0.3754229971
  0
ELLIPSE
  5
612
100
AcDbEntity
  8
KONSTRUKTIONSELEMENTE
100
AcDbEllipse
 62
7
  6
CONTINUOUS
 10
109.3609540253
 20
61.1966574033
 30
0.0
 11
48.4974226119
 21
84.0
 31
0.0
 40
0.5773502692
 41
-0.3754229971
 42
-0.1577968958
  0
ELLIPSE
  5
613
100
AcDbEntity
  8
KONSTRUKTIONSELEMENTE
100
AcDbEllipse
 62
7
  6
CONTINUOUS
 10
109.3609540253
 20
61.1966574033
 30
0.0
 11
48.4974226119
 21
84.0
 31
0.0
 40
0.5773502692
 41
0.1577968958
 42
0.3754229971
  0
ELLIPSE
  5
614
100
AcDbEntity
  8
KONSTRUKTIONSELEMENTE
100
AcDbEllipse
 62
7
  6
CONTINUOUS
 10
941.1064380729
 20
61.1966574033
 30
0.0
 11
-54.5019434102
 21
88.1859968906
 31
0.0
 40
0.1458980338
 41
0.5856606993
 42
0.6072468016
  0
ELLIPSE
  5
615
100
AcDbEntity
  8
0
100
AcDbEllipse
 62
7
  6
CONTINUOUS
 10
794.5864380729
 20
61.1966574033
 30
0.0
 11
54.5019434102
 21
88.1859968906
 31
0.0
 40
0.1458980338
 41
-0.6072468016
 42
-0.5856606993
  0
ELLIPSE
  5
616
100
AcDbEntity
  8
RUNDUNGEN
100
AcDbEllipse
 62
7
  6
CONTINUOUS
 10
863.4951006403
 20
164.9573209644
 30
0.0
 11
8.2036037258
 21
-6.516670099
 31
0.0
 40
0.9544778986
 41
0.6487319875
 42
0.7394683236
  0
ELLIPSE
  5
617
100
AcDbEntity
  8
0
100
AcDbEllipse
 62
7
  6
CONTINUOUS
 10
872.1977755054
 20
164.9573209644
 30
0.0
 11
-8.2036037258
 21
-6.516670099
 31
0.0
 40
0.9544778986
 41
-0.7394683236
 42
-0.6487319875
  0
ELLIPSE
  5
618
100
AcDbEntity
  8
0
100
AcDbEllipse
 62
7
  6
CONTINUOUS
 10
858.814230816
 20
165.5507590184
 30
0.0
 11
0.8455842962
 21
-5.9853056021
 31
0.0
 40
0.4962991648
 41
0.4535978239
 42
1.2934712985
  0
ELLIPSE
  5
619
100
AcDbEntity
  8
RUNDUNGEN
100
AcDbEllipse
 62
7
  6
CONTINUOUS
 10
876.8786453297
 20
165.5507590184
 30
0.0
 11
0.8455842962
 21
5.9853056021
 31
0.0
 40
0.4962991648
 41
-4.4350639521
 42
-3.5951904775
  0
ELLIPSE
  5
61A
100
AcDbEntity
  8
KONSTRUKTIONSELEMENTE
100
AcDbEllipse
 62
7
  6
CONTINUOUS
 10
728.0596022034
 20
136.7707753765
 30
0.0
 11
-0.2422125455
 21
3.33151288
 31
0.0
 40
0.1849816022
 41
1.560109889
 42
2.9583930575
  0
ELLIPSE
  5
61B
100
AcDbEntity
  8
KONSTRUKTIONSELEMENTE
100
AcDbEllipse
 62
7
  6
CONTINUOUS
 10
728.0286058455
 20
131.8325436578
 30
0.0
 11
2.2194852253
 21
2.5678289224
 31
0.0
 40
0.2500030374
 41
-1.5674289045
 42
-1.156926606
  0
ELLIPSE
  5
61C
100
AcDbEntity
  8
KONSTRUKTIONSELEMENTE
100
AcDbEllipse
 62
7
  6
CONTINUOUS
 10
732.1608215343
 20
133.2190152495
 30
0.0
 11
3.328609446
 21
0.2420014558
 31
0.0
 40
0.1803680139
 41
1.921481318
 42
3.3197644865
  0
ELLIPSE
  5
61D
100
AcDbEntity
  8
KONSTRUKTIONSELEMENTE
100
AcDbEllipse
 62
7
  6
CONTINUOUS
 10
731.5641397514
 20
128.7706814794
 30
0.0
 11
2.2194852253
 21
2.5678289224
 31
0.0
 40
0.2500030374
 41
-1.5674289045
 42
0.0033674223
  0
ENDSEC
  0
SECTION
  2
OBJECTS
  0
DICTIONARY
  5
C
100
AcDbDictionary
280
0
281
1
  3
ACAD_GROUP
350
D
  3
ACAD_MLINESTYLE
350
17
  3
ACAD_LAYOUT
350
1A
  3
ACAD_PLOTSETTINGS
350
19
  3
ACAD_PLOTSTYLENAME
350
E
  0
DICTIONARY
  5
D
102
{ACAD_REACTORS
330
C
102
}
100
AcDbDictionary
280
0
281
1
  0
ACDBDICTIONARYWDFLT
  5
E
102
{ACAD_REACTORS
330
C
102
}
100
AcDbDictionary
281
1
  3
Normal
350
F
100
AcDbDictionaryWithDefault
340
F
  0
DICTIONARY
  5
17
102
{ACAD_REACTORS
330
C
102
}
100
AcDbDictionary
280
0
281
1
  3
Standard
350
18
  0
DICTIONARY
  5
19
102
{ACAD_REACTORS
330
C
102
}
100
AcDbDictionary
281
1
  0
DICTIONARY
  5
1A
102
{ACAD_REACTORS
330
C
102
}
100
AcDbDictionary
281
1
  3
Model
350
61E
  3
Layout1
350
61F
  0
ACDBPLACEHOLDER
  5
F
102
{ACAD_REACTORS
330
E
102
}
  0
MLINESTYLE
  5
18
102
{ACAD_REACTORS
330
17
102
}
100
AcDbMlineStyle
  2
STANDARD
 70
0
  3

 62
256
 51
90.0
 52
90.0
 71
2
 49
0.5
 62
256
  6
BYLAYER
 49
-0.5
 62
256
  6
BYLAYER
  0
LAYOUT
  5
61E
102
{ACAD_REACTORS
330
1A
102
}
100
AcDbPlotSettings
  1

  2
none_device
  4
ISO_A0_(1189.00_x_841.00_MM)
  6

 40
0.0
 41
0.0
 42
0.0
 43
0.0
 44
1189.0
 45
841.0
 46
0.0
 47
0.0
 48
0.0
 49
0.0
140
0.0
141
0.0
142
1.0
143
1.0
 70
1024
 72
1
 73
0
 74
0
  7

 75
0
147
1.0
148
0.0
149
0.0
100
AcDbLayout
  1
Model
 70
0
 71
0
 10
0.0
 20
0.0
 11
1189.0
 21
841.0
 12
0.0
 22
0.0
 32
0.0
 14
0.0
 24
0.0
 34
0.0
 15
0.0
 25
0.0
 35
0.0
146
0.0
 13
0.0
 23
0.0
 33
0.0
 16
1.0
 26
0.0
 36
0.0
 17
0.0
 27
1.0
 37
0.0
 76
0
330
20D
345
0
346
0
  0
LAYOUT
  5
61F
102
{ACAD_REACTORS
330
1A
102
}
100
AcDbPlotSettings
  1

  2
none_device
  4
ISO_A0_(1189.00_x_841.00_MM)
  6

 40
0.0
 41
0.0
 42
0.0
 43
0.0
 44
1189.0
 45
841.0
 46
0.0
 47
0.0
 48
0.0
 49
0.0
140
0.0
141
0.0
142
1.0
143
1.0
 70
0
 72
1
 73
0
 74
0
  7

 75
0
147
1.0
148
0.0
149
0.0
100
AcDbLayout
  1
Layout1
 70
0
 71
1
 10
0.0
 20
0.0
 11
1189.0
 21
841.0
 12
0.0
 22
0.0
 32
0.0
 14
0.0
 24
0.0
 34
0.0
 15
0.0
 25
0.0
 35
0.0
146
0.0
 13
0.0
 23
0.0
 33
0.0
 16
1.0
 26
0.0
 36
0.0
 17
0.0
 27
1.0
 37
0.0
 76
0
330
20E
345
0
346
0
  0
ENDSEC
  0
EOF
