999
DXF file: VSAK-2-16_190_7994078_M32394-P-4.dxf
999
Pro/ENGINEER 2010140 by Parametric Technology Corporation
  0
SECTION
  2
HEADER
  9
$ACADVER
  1
AC1015
  9
$DWGCODEPAGE
  3
ANSI_1252
  9
$EXTMAX
 10
1189.0
 20
841.0
 30
0.0
  9
$EXTMIN
 10
0.0
 20
0.0
 30
0.0
  9
$LIMMIN
 10
0.0
 20
0.0
  9
$LIMMAX
 10
1189.0
 20
841.0
  9
$VIEWCTR
 10
594.5
 20
420.5
  9
$VIEWSIZE
 40
841.0
  9
$CLAYER
  8
0
  9
$LTSCALE
 40
65.395
  9
$CELTYPE
  6
BYLAYER
  9
$DIMSCALE
 40
1.0
  9
$DIMASZ
 40
3.5
  9
$DIMEXO
 40
7.43125
  9
$DIMDLI
 40
45.182
  9
$DIMEXE
 40
21.402
  9
$DIMCEN
 40
10.701
  9
$DIMLFAC
 40
1.0
  9
$DIMBLK
  1
_FILLED
  9
$DIMTXT
 40
3.5
  9
$DIMTOL
 70
1
  9
$DIMLIM
 70
0
  9
$DIMTFAC
 40
1.0
  9
$DIMTP
 40
0.005
  9
$DIMTM
 40
0.005
  9
$PDMODE
 70
3
  9
$PDSIZE
 40
0.3125
  9
$HANDSEED
  5
61E
  9
$TILEMODE
 70
1
  9
$MEASUREMENT
 70
1
  9
$INSUNITS
 70
4
  0
ENDSEC
  0
SECTION
  2
CLASSES
  0
CLASS
  1
ACDBDICTIONARYWDFLT
  2
AcDbDictionaryWithDefault
  3
AutoCAD 2000
 90
0
280
0
281
0
  0
CLASS
  1
ACDBPLACEHOLDER
  2
AcDbPlaceHolder
  3
AutoCAD 2000
 90
0
280
0
281
0
  0
CLASS
  1
LAYOUT
  2
AcDbLayout
  3
AutoCAD 2000
 90
0
280
0
281
0
  0
ENDSEC
  0
SECTION
  2
TABLES
  0
TABLE
  2
VPORT
  5
8
100
AcDbSymbolTable
 70
2
  0
VPORT
  5
1F4
100
AcDbSymbolTableRecord
100
AcDbViewportTableRecord
  2
*ACTIVE
 70
0
 10
0.0
 20
0.0
 11
1.0
 21
1.0
 12
594.5
 22
420.5
 13
0.0
 23
0.0
 14
1.0
 24
1.0
 15
0.0
 25
0.0
 16
0.0
 26
0.0
 36
1.0
 17
0.0
 27
0.0
 37
0.0
 40
841.0
 41
1.4137931034
 42
50.0
 43
0.0
 44
0.0
 50
0.0
 51
0.0
 71
0
 72
100
 73
1
 74
1
 75
0
 76
0
 77
0
 78
0
  0
ENDTAB
  0
TABLE
  2
LTYPE
  5
5
100
AcDbSymbolTable
 70
6
  0
LTYPE
  5
14
100
AcDbSymbolTableRecord
100
AcDbLinetypeTableRecord
  2
BYBLOCK
 70
0
  3

 72
65
 73
0
 40
0.0
  0
LTYPE
  5
15
100
AcDbSymbolTableRecord
100
AcDbLinetypeTableRecord
  2
BYLAYER
 70
0
  3

 72
65
 73
0
 40
0.0
  0
LTYPE
  5
16
100
AcDbSymbolTableRecord
100
AcDbLinetypeTableRecord
  2
CONTINUOUS
 70
64
  3
Solid line
 72
65
 73
0
 40
0.0
  0
LTYPE
  5
1F5
100
AcDbSymbolTableRecord
100
AcDbLinetypeTableRecord
  2
CENTER
 70
64
  3
____ _ ____ _ ____ _ ____ _ ____ _ ____ _ ____
 72
65
 73
4
 40
0.6
 49
0.375
 74
0
 49
-0.075
 74
0
 49
0.075
 74
0
 49
-0.075
 74
0
  0
LTYPE
  5
1F6
100
AcDbSymbolTableRecord
100
AcDbLinetypeTableRecord
  2
HIDDEN
 70
64
  3
- - - - - - - - - - - - - - - - - - - -
 72
65
 73
2
 40
0.2
 49
0.1
 74
0
 49
-0.1
 74
0
  0
LTYPE
  5
1F7
100
AcDbSymbolTableRecord
100
AcDbLinetypeTableRecord
  2
PHANTOM
 70
64
  3
_____ _ _ _____ _ _ _____ _ _ _____
 72
65
 73
6
 40
0.8
 49
0.45
 74
0
 49
-0.05
 74
0
 49
0.1
 74
0
 49
-0.05
 74
0
 49
0.1
 74
0
 49
-0.05
 74
0
  0
LTYPE
  5
1F8
100
AcDbSymbolTableRecord
100
AcDbLinetypeTableRecord
  2
DOT
 70
64
  3
. . . . . . . . . . . . . . . . . . . .
 72
65
 73
2
 40
0.2
 49
0.1
 74
0
 49
-0.1
 74
0
  0
LTYPE
  5
1F9
100
AcDbSymbolTableRecord
100
AcDbLinetypeTableRecord
  2
DASHED
 70
64
  3
- - - - - - - - - - - - - - - - - - - -
 72
65
 73
2
 40
0.2
 49
0.1
 74
0
 49
-0.1
 74
0
  0
ENDTAB
  0
TABLE
  2
LAYER
  5
2
100
AcDbSymbolTable
 70
36
  0
LAYER
  5
10
100
AcDbSymbolTableRecord
100
AcDbLayerTableRecord
  2
0
 70
0
 62
7
  6
CONTINUOUS
370
-3
390
F
  0
LAYER
  5
1FA
100
AcDbSymbolTableRecord
100
AcDbLayerTableRecord
  2
DEFAULT_1
 70
0
 62
7
  6
CENTER
370
-3
390
F
  0
LAYER
  5
1FB
100
AcDbSymbolTableRecord
100
AcDbLayerTableRecord
  2
DEFAULT_2
 70
0
 62
8
  6
HIDDEN
370
-3
390
F
  0
LAYER
  5
1FC
100
AcDbSymbolTableRecord
100
AcDbLayerTableRecord
  2
DEFAULT_3
 70
0
 62
7
  6
PHANTOM
370
-3
390
F
  0
LAYER
  5
1FD
100
AcDbSymbolTableRecord
100
AcDbLayerTableRecord
  2
AUSFORMSCHRAEGEN
 70
0
 62
7
  6
CONTINUOUS
370
-3
390
F
  0
LAYER
  5
1FE
100
AcDbSymbolTableRecord
100
AcDbLayerTableRecord
  2
BEZUGSACHSEN
 70
0
 62
7
  6
CONTINUOUS
370
-3
390
F
  0
LAYER
  5
1FF
100
AcDbSymbolTableRecord
100
AcDbLayerTableRecord
  2
BEZUGSEBENEN
 70
0
 62
7
  6
CONTINUOUS
370
-3
390
F
  0
LAYER
  5
200
100
AcDbSymbolTableRecord
100
AcDbLayerTableRecord
  2
BG_STARTBEZUEGE
 70
0
 62
7
  6
CONTINUOUS
370
-3
390
F
  0
LAYER
  5
201
100
AcDbSymbolTableRecord
100
AcDbLayerTableRecord
  2
FASEN
 70
0
 62
7
  6
CONTINUOUS
370
-3
390
F
  0
LAYER
  5
202
100
AcDbSymbolTableRecord
100
AcDbLayerTableRecord
  2
FLAECHEN
 70
0
 62
7
  6
CONTINUOUS
370
-3
390
F
  0
LAYER
  5
203
100
AcDbSymbolTableRecord
100
AcDbLayerTableRecord
  2
HILFEN
 70
0
 62
7
  6
CONTINUOUS
370
-3
390
F
  0
LAYER
  5
204
100
AcDbSymbolTableRecord
100
AcDbLayerTableRecord
  2
KONSTRUKTIONSELEMENTE
 70
0
 62
7
  6
CONTINUOUS
370
-3
390
F
  0
LAYER
  5
205
100
AcDbSymbolTableRecord
100
AcDbLayerTableRecord
  2
NORM
 70
0
 62
7
  6
CONTINUOUS
370
-3
390
F
  0
LAYER
  5
206
100
AcDbSymbolTableRecord
100
AcDbLayerTableRecord
  2
PLATZIERUNG
 70
0
 62
7
  6
CONTINUOUS
370
-3
390
F
  0
LAYER
  5
207
100
AcDbSymbolTableRecord
100
AcDbLayerTableRecord
  2
PLAZIERUNG
 70
0
 62
7
  6
CONTINUOUS
370
-3
390
F
  0
LAYER
  5
208
100
AcDbSymbolTableRecord
100
AcDbLayerTableRecord
  2
RUNDUNGEN
 70
0
 62
7
  6
CONTINUOUS
370
-3
390
F
  0
LAYER
  5
209
100
AcDbSymbolTableRecord
100
AcDbLayerTableRecord
  2
TEIL_STARTBEZUEGE
 70
0
 62
7
  6
CONTINUOUS
370
-3
390
F
  0
LAYER
  5
20A
100
AcDbSymbolTableRecord
100
AcDbLayerTableRecord
  2
T_STARTBEZUEGE
 70
0
 62
7
  6
CONTINUOUS
370
-3
390
F
  0
ENDTAB
  0
TABLE
  2
STYLE
  5
3
100
AcDbSymbolTable
 70
1
  0
STYLE
  5
11
100
AcDbSymbolTableRecord
100
AcDbTextStyleTableRecord
  2
STANDARD
 70
0
 40
0.0
 41
0.7
 50
0.0
 71
0
 42
0.2
  3
txt
  4

  0
STYLE
  5
20B
100
AcDbSymbolTableRecord
100
AcDbTextStyleTableRecord
  2
TEXTSTYLE_1
 70
0
 40
0.0
 41
0.8
 50
0.0
 71
0
 42
0.2
  3
gdt
  4

  0
ENDTAB
  0
TABLE
  2
VIEW
  5
6
100
AcDbSymbolTable
 70
0
  0
ENDTAB
  0
TABLE
  2
UCS
  5
7
100
AcDbSymbolTable
 70
0
  0
ENDTAB
  0
TABLE
  2
APPID
  5
9
100
AcDbSymbolTable
 70
1
  0
APPID
  5
20C
100
AcDbSymbolTableRecord
100
AcDbRegAppTableRecord
  2
ACAD
 70
0
  0
ENDTAB
  0
TABLE
  2
BLOCK_RECORD
  5
1
100
AcDbSymbolTable
 70
0
  0
BLOCK_RECORD
  5
20D
100
AcDbSymbolTableRecord
100
AcDbBlockTableRecord
  2
*Model_Space
  0
BLOCK_RECORD
  5
20E
100
AcDbSymbolTableRecord
100
AcDbBlockTableRecord
  2
*Paper_Space
  0
ENDTAB
  0
TABLE
  2
DIMSTYLE
  5
A
100
AcDbSymbolTable
 70
1
100
AcDbDimStyleTable
 71
0
  0
DIMSTYLE
105
20F
100
AcDbSymbolTableRecord
100
AcDbDimStyleTableRecord
  2
STANDARD
 70
0
  3

  4

 40
1.0
 41
3.5
 42
0.0625
 43
0.38
 44
0.18
 45
0.0
 46
0.0
 47
0.005
 48
0.005
140
3.5
141
0.09
142
0.0
143
25.4
144
1.0
145
0.0
146
1.0
147
0.09
 71
1.0
 72
0.0
 73
0
 74
0
 75
0
 76
0
 77
1
 78
8
170
0
171
2
172
0
173
0
174
0
175
0
176
0
177
0
178
5
270
2
271
3
272
3
273
2
274
2
275
0
280
0
281
0
282
0
283
1
284
8
285
0
286
0
287
3
288
0
340
11
  0
ENDTAB
  0
ENDSEC
  0
SECTION
  2
BLOCKS
  0
BLOCK
  5
20
100
AcDbEntity
  8
0
100
AcDbBlockBegin
  2
*Model_Space
 70
0
 10
0.0
 20
0.0
 30
0.0
  3
*Model_Space
  1

  0
ENDBLK
  5
21
100
AcDbEntity
  8
0
100
AcDbBlockEnd
  0
BLOCK
  5
1C
100
AcDbEntity
  8
0
100
AcDbBlockBegin
  2
*Paper_Space
 70
0
 10
0.0
 20
0.0
 30
0.0
  3
*Paper_Space
  1

  0
ENDBLK
  5
1D
100
AcDbEntity
  8
0
100
AcDbBlockEnd
  0
ENDSEC
  0
SECTION
  2
ENTITIES
  0
MTEXT
  5
210
100
AcDbEntity
  8
0
100
AcDbMText
 62
5
  6
CONTINUOUS
  7
STANDARD
 71
1
 72
1
 10
205.3629143097
 20
528.3574114588
 30
0.0
 11
0.0
 21
1.0
 31
0.0
 44
0.9
  1
RUD
 40
8.0
 41
21.3333333333
  0
MTEXT
  5
211
100
AcDbEntity
  8
0
100
AcDbMText
 62
5
  6
CONTINUOUS
  7
STANDARD
 71
1
 72
1
 10
430.9629215439
 20
499.8327879587
 30
0.0
 11
0.0
 21
1.0
 31
0.0
 44
0.9
  1
VSAK 2-16/190
 40
8.0
 41
80.0
  0
MTEXT
  5
212
100
AcDbEntity
  8
0
100
AcDbMText
 62
5
  6
CONTINUOUS
  7
STANDARD
 71
1
 72
1
 10
828.5565956692
 20
485.9284909608
 30
0.0
 11
0.0
 21
1.0
 31
0.0
 44
0.9
  1
RUD VSAK 2-16/190
 40
8.0
 41
106.0952380952
  0
LINE
  5
213
100
AcDbEntity
  8
0
100
AcDbLine
 62
7
  6
CONTINUOUS
 10
0.0
 20
0.0
 11
0.0
 21
841.0
  0
LINE
  5
214
100
AcDbEntity
  8
0
100
AcDbLine
 62
7
  6
CONTINUOUS
 10
0.0
 20
0.0
 11
1189.0
 21
0.0
  0
LINE
  5
215
100
AcDbEntity
  8
0
100
AcDbLine
 62
7
  6
CONTINUOUS
 10
0.0
 20
841.0
 11
1189.0
 21
841.0
  0
LINE
  5
216
100
AcDbEntity
  8
0
100
AcDbLine
 62
7
  6
CONTINUOUS
 10
1189.0
 20
0.0
 11
1189.0
 21
841.0
  0
LINE
  5
217
100
AcDbEntity
  8
KONSTRUKTIONSELEMENTE
100
AcDbLine
 62
7
  6
CONTINUOUS
 10
102.0357603731
 20
92.0786687658
 11
114.6450902522
 21
84.7986687658
  0
LINE
  5
218
100
AcDbEntity
  8
KONSTRUKTIONSELEMENTE
100
AcDbLine
 62
7
  6
CONTINUOUS
 10
101.6257827626
 20
92.9685667143
 11
102.3186030856
 21
92.5685667143
  0
LINE
  5
219
100
AcDbEntity
  8
KONSTRUKTIONSELEMENTE
100
AcDbLine
 62
7
  6
CONTINUOUS
 10
114.9279329647
 20
85.2885667143
 11
115.6207532877
 21
84.8885667143
  0
LINE
  5
21A
100
AcDbEntity
  8
KONSTRUKTIONSELEMENTE
100
AcDbLine
 62
7
  6
CONTINUOUS
 10
107.8069062879
 20
114.874586708
 11
107.4170400146
 21
115.0996761059
  0
LINE
  5
21B
100
AcDbEntity
  8
KONSTRUKTIONSELEMENTE
100
AcDbLine
 62
7
  6
CONTINUOUS
 10
131.5013613354
 20
101.194586708
 11
149.1491243375
 21
91.0056459882
  0
LINE
  5
21C
100
AcDbEntity
  8
KONSTRUKTIONSELEMENTE
100
AcDbLine
 62
7
  6
CONTINUOUS
 10
156.4084694718
 20
92.0156730659
 11
149.9598695063
 21
98.7696332186
  0
LINE
  5
21D
100
AcDbEntity
  8
KONSTRUKTIONSELEMENTE
100
AcDbLine
 62
7
  6
CONTINUOUS
 10
158.1762364248
 20
95.0775352443
 11
151.7276364593
 21
101.8314953971
  0
LINE
  5
21E
100
AcDbEntity
  8
KONSTRUKTIONSELEMENTE
100
AcDbLine
 62
7
  6
CONTINUOUS
 10
103.6740464439
 20
173.3134596636
 11
113.4022290143
 21
170.9464718646
  0
LINE
  5
21F
100
AcDbEntity
  8
KONSTRUKTIONSELEMENTE
100
AcDbLine
 62
7
  6
CONTINUOUS
 10
103.9568891564
 20
173.8033576122
 11
113.6850717267
 21
171.4363698132
  0
LINE
  5
220
100
AcDbEntity
  8
KONSTRUKTIONSELEMENTE
100
AcDbLine
 62
7
  6
CONTINUOUS
 10
173.7685084445
 20
148.7670547728
 11
170.1975089036
 21
150.828772319
  0
LINE
  5
221
100
AcDbEntity
  8
KONSTRUKTIONSELEMENTE
100
AcDbLine
 62
7
  6
CONTINUOUS
 10
131.4432981391
 20
173.2035263361
 11
127.8722985982
 21
175.2652438824
  0
LINE
  5
222
100
AcDbEntity
  8
0
100
AcDbLine
 62
7
  6
CONTINUOUS
 10
164.9414270747
 20
168.8744795768
 11
149.6993799681
 21
177.6744795768
  0
LINE
  5
223
100
AcDbEntity
  8
KONSTRUKTIONSELEMENTE
100
AcDbLine
 62
7
  6
CONTINUOUS
 10
106.1865812999
 20
175.6798499011
 11
113.6697986617
 21
173.8590900557
  0
LINE
  5
224
100
AcDbEntity
  8
KONSTRUKTIONSELEMENTE
100
AcDbLine
 62
7
  6
CONTINUOUS
 10
107.3886628279
 20
177.7619161825
 11
114.8718801897
 21
175.9411563371
  0
LINE
  5
225
100
AcDbEntity
  8
KONSTRUKTIONSELEMENTE
100
AcDbLine
 62
7
  6
CONTINUOUS
 10
106.5386801364
 20
187.86204997
 11
113.9696697621
 21
186.0539977823
  0
LINE
  5
226
100
AcDbEntity
  8
KONSTRUKTIONSELEMENTE
100
AcDbLine
 62
7
  6
CONTINUOUS
 10
113.3052450514
 20
186.3307454048
 11
103.6084621423
 21
188.6900932758
  0
LINE
  5
227
100
AcDbEntity
  8
KONSTRUKTIONSELEMENTE
100
AcDbLine
 62
7
  6
CONTINUOUS
 10
125.2860276377
 20
192.7893129576
 11
111.0010967159
 21
196.2650142983
  0
LINE
  5
228
100
AcDbEntity
  8
0
100
AcDbLine
 62
7
  6
CONTINUOUS
 10
174.4414270747
 20
185.3289622487
 11
159.1993799681
 21
194.1289622487
  0
LINE
  5
229
100
AcDbEntity
  8
KONSTRUKTIONSELEMENTE
100
AcDbLine
 62
7
  6
CONTINUOUS
 10
203.7887124941
 20
129.3969146513
 11
210.2373124596
 21
122.6429544985
  0
LINE
  5
22A
100
AcDbEntity
  8
KONSTRUKTIONSELEMENTE
100
AcDbLine
 62
7
  6
CONTINUOUS
 10
190.2379329216
 20
155.2893129576
 11
212.6893202623
 21
131.7747863494
  0
LINE
  5
22B
100
AcDbEntity
  8
KONSTRUKTIONSELEMENTE
100
AcDbLine
 62
7
  6
CONTINUOUS
 10
214.4570872153
 20
134.8366485279
 11
192.0056998745
 21
158.3511751361
  0
LINE
  5
22C
100
AcDbEntity
  8
KONSTRUKTIONSELEMENTE
100
AcDbLine
 62
7
  6
CONTINUOUS
 10
127.0537945907
 20
195.8511751361
 11
112.7688636689
 21
199.3268764767
  0
LINE
  5
22D
100
AcDbEntity
  8
KONSTRUKTIONSELEMENTE
100
AcDbLine
 62
7
  6
CONTINUOUS
 10
103.5560620167
 20
192.0289735373
 11
103.5751533479
 21
189.0005732341
  0
LINE
  5
22E
100
AcDbEntity
  8
KONSTRUKTIONSELEMENTE
100
AcDbLine
 62
7
  6
CONTINUOUS
 10
103.6740464439
 20
173.3134596636
 11
104.003186531
 21
121.1029602682
  0
LINE
  5
22F
100
AcDbEntity
  8
KONSTRUKTIONSELEMENTE
100
AcDbLine
 62
7
  6
CONTINUOUS
 10
103.9568891564
 20
173.8033576122
 11
103.9530708901
 21
174.4090376728
  0
LINE
  5
230
100
AcDbEntity
  8
0
100
AcDbLine
 62
7
  6
CONTINUOUS
 10
126.9026830922
 20
176.6499983346
 11
124.7338134102
 21
188.9502695311
  0
LINE
  5
231
100
AcDbEntity
  8
RUNDUNGEN
100
AcDbLine
 62
7
  6
CONTINUOUS
 10
124.7338134102
 20
188.9502695311
 11
124.4708564152
 21
190.4415727559
  0
LINE
  5
232
100
AcDbEntity
  8
KONSTRUKTIONSELEMENTE
100
AcDbLine
 62
7
  6
CONTINUOUS
 10
115.5664097917
 20
183.2148345825
 11
115.635739424
 21
172.2172840929
  0
LINE
  5
233
100
AcDbEntity
  8
BEZUGSACHSEN
100
AcDbLine
 62
7
  6
CONTINUOUS
 10
229.6067777501
 20
234.31478713
 11
228.809366007
 21
234.3418978008
  0
LINE
  5
234
100
AcDbEntity
  8
BEZUGSACHSEN
100
AcDbLine
 62
7
  6
CONTINUOUS
 10
229.4688725744
 20
234.9548683578
 11
228.9904256626
 21
234.9711347558
  0
LINE
  5
235
100
AcDbEntity
  8
BEZUGSACHSEN
100
AcDbLine
 62
7
  6
CONTINUOUS
 10
229.0983120259
 20
238.1444185729
 11
229.5767589377
 21
238.128152175
  0
LINE
  5
236
100
AcDbEntity
  8
BEZUGSACHSEN
100
AcDbLine
 62
7
  6
CONTINUOUS
 10
230.8569331815
 20
238.21171041
 11
231.1758977894
 21
238.2008661447
  0
LINE
  5
237
100
AcDbEntity
  8
BEZUGSACHSEN
100
AcDbLine
 62
7
  6
CONTINUOUS
 10
230.0810988159
 20
238.8734743504
 11
231.1974749435
 21
238.8355194219
  0
LINE
  5
238
100
AcDbEntity
  8
BEZUGSACHSEN
100
AcDbLine
 62
7
  6
CONTINUOUS
 10
231.1974749435
 20
238.8355194219
 11
232.3095356798
 21
238.670635
  0
LINE
  5
239
100
AcDbEntity
  8
BEZUGSACHSEN
100
AcDbLine
 62
7
  6
CONTINUOUS
 10
231.1758977894
 20
238.2008661447
 11
232.1284760242
 21
238.0413980451
  0
LINE
  5
23A
100
AcDbEntity
  8
BEZUGSACHSEN
100
AcDbLine
 62
7
  6
CONTINUOUS
 10
225.2994321972
 20
249.242090489
 11
226.0879234422
 21
249.0328367825
  0
LINE
  5
23B
100
AcDbEntity
  8
BEZUGSACHSEN
100
AcDbLine
 62
7
  6
CONTINUOUS
 10
228.5162941421
 20
235.114330647
 11
228.9904256626
 21
234.9711347558
  0
LINE
  5
23C
100
AcDbEntity
  8
BEZUGSACHSEN
100
AcDbLine
 62
7
  6
CONTINUOUS
 10
229.5767589377
 20
238.128152175
 11
230.0508906816
 21
237.9849562761
  0
LINE
  5
23D
100
AcDbEntity
  8
BEZUGSACHSEN
100
AcDbLine
 62
7
  6
CONTINUOUS
 10
232.1284760242
 20
238.0413980451
 11
232.6026079915
 21
237.8982021386
  0
LINE
  5
23E
100
AcDbEntity
  8
BEZUGSACHSEN
100
AcDbLine
 62
7
  6
CONTINUOUS
 10
228.0205853557
 20
234.622873265
 11
228.809366007
 21
234.3418978008
  0
LINE
  5
23F
100
AcDbEntity
  8
BEZUGSACHSEN
100
AcDbLine
 62
7
  6
CONTINUOUS
 10
232.3095356798
 20
238.670635
 11
233.0983166661
 21
238.3896595245
  0
LINE
  5
240
100
AcDbEntity
  8
0
100
AcDbLine
 62
7
  6
CONTINUOUS
 10
455.4284911661
 20
153.4094838696
 11
468.5882583115
 21
148.6197203388
  0
LINE
  5
241
100
AcDbEntity
  8
BEZUGSACHSEN
100
AcDbLine
 62
7
  6
CONTINUOUS
 10
188.3917027514
 20
269.9761374554
 11
188.9409977372
 21
269.7348602523
  0
LINE
  5
242
100
AcDbEntity
  8
BEZUGSACHSEN
100
AcDbLine
 62
7
  6
CONTINUOUS
 10
225.0226431563
 20
256.9087595741
 11
225.5719085112
 21
256.6674134498
  0
LINE
  5
243
100
AcDbEntity
  8
BEZUGSACHSEN
100
AcDbLine
 62
7
  6
CONTINUOUS
 10
183.1594613504
 20
275.7374827631
 11
183.793508879
 21
275.4455186734
  0
LINE
  5
244
100
AcDbEntity
  8
BEZUGSACHSEN
100
AcDbLine
 62
7
  6
CONTINUOUS
 10
225.6293345532
 20
250.0798531781
 11
226.0745349622
 21
249.8588903158
  0
LINE
  5
245
100
AcDbEntity
  8
BEZUGSACHSEN
100
AcDbLine
 62
7
  6
CONTINUOUS
 10
229.1414768987
 20
254.3912180187
 11
229.5866772054
 21
254.1702551116
  0
LINE
  5
246
100
AcDbEntity
  8
BEZUGSACHSEN
100
AcDbLine
 62
7
  6
CONTINUOUS
 10
231.7107966328
 20
241.9847826004
 11
232.8930943402
 21
241.328583724
  0
LINE
  5
247
100
AcDbEntity
  8
BEZUGSACHSEN
100
AcDbLine
 62
7
  6
CONTINUOUS
 10
232.9819953138
 20
242.1020487992
 11
234.1642925761
 21
241.4458498818
  0
LINE
  5
248
100
AcDbEntity
  8
BEZUGSACHSEN
100
AcDbLine
 62
7
  6
CONTINUOUS
 10
228.0464780987
 20
235.3844618459
 11
228.5162941421
 21
235.114330647
  0
LINE
  5
249
100
AcDbEntity
  8
BEZUGSACHSEN
100
AcDbLine
 62
7
  6
CONTINUOUS
 10
232.6026079915
 20
237.8982021386
 11
233.0724239231
 21
237.6280709435
  0
LINE
  5
24A
100
AcDbEntity
  8
BEZUGSACHSEN
100
AcDbLine
 62
7
  6
CONTINUOUS
 10
188.5026999297
 20
270.9604672836
 11
188.926360333
 21
270.7005829759
  0
LINE
  5
24B
100
AcDbEntity
  8
BEZUGSACHSEN
100
AcDbLine
 62
7
  6
CONTINUOUS
 10
227.3956024556
 20
235.0253560879
 11
228.0205853557
 21
234.622873265
  0
LINE
  5
24C
100
AcDbEntity
  8
BEZUGSACHSEN
100
AcDbLine
 62
7
  6
CONTINUOUS
 10
233.0983166661
 20
238.3896595245
 11
233.7232995104
 21
237.9871767034
  0
LINE
  5
24D
100
AcDbEntity
  8
BEZUGSACHSEN
100
AcDbLine
 62
7
  6
CONTINUOUS
 10
183.2932237207
 20
274.9407155318
 11
183.6356628321
 21
274.7191023999
  0
LINE
  5
24E
100
AcDbEntity
  8
BEZUGSACHSEN
100
AcDbLine
 62
7
  6
CONTINUOUS
 10
224.8032759762
 20
249.5793920846
 11
225.2994321972
 21
249.242090489
  0
LINE
  5
24F
100
AcDbEntity
  8
BEZUGSACHSEN
100
AcDbLine
 62
7
  6
CONTINUOUS
 10
230.0508906816
 20
237.9849562761
 11
230.3612243093
 21
237.7202472137
  0
LINE
  5
250
100
AcDbEntity
  8
BEZUGSACHSEN
100
AcDbLine
 62
7
  6
CONTINUOUS
 10
183.793508879
 20
275.4455186734
 11
184.3579977236
 21
274.9618366278
  0
LINE
  5
251
100
AcDbEntity
  8
BEZUGSACHSEN
100
AcDbLine
 62
7
  6
CONTINUOUS
 10
196.9015043202
 20
276.3813585393
 11
197.2714324679
 21
276.0494231769
  0
LINE
  5
252
100
AcDbEntity
  8
BEZUGSACHSEN
100
AcDbLine
 62
7
  6
CONTINUOUS
 10
187.7956511549
 20
270.533119976
 11
188.3917027514
 21
269.9761374554
  0
LINE
  5
253
100
AcDbEntity
  8
BEZUGSACHSEN
100
AcDbLine
 62
7
  6
CONTINUOUS
 10
188.1812947529
 20
271.3968110084
 11
188.5026999297
 21
270.9604672836
  0
LINE
  5
254
100
AcDbEntity
  8
BEZUGSACHSEN
100
AcDbLine
 62
7
  6
CONTINUOUS
 10
184.328559536
 20
272.2584496719
 11
186.5811600589
 21
269.1435179225
  0
LINE
  5
255
100
AcDbEntity
  8
BEZUGSACHSEN
100
AcDbLine
 62
7
  6
CONTINUOUS
 10
183.7078851718
 20
271.7131908064
 11
185.7384357892
 21
268.8603279128
  0
LINE
  5
256
100
AcDbEntity
  8
BEZUGSACHSEN
100
AcDbLine
 62
7
  6
CONTINUOUS
 10
183.6356628321
 20
274.7191023999
 11
183.908542915
 21
274.3057711963
  0
LINE
  5
257
100
AcDbEntity
  8
BEZUGSACHSEN
100
AcDbLine
 62
7
  6
CONTINUOUS
 10
184.3579977236
 20
274.9618366278
 11
184.6308778065
 21
274.5485054242
  0
LINE
  5
258
100
AcDbEntity
  8
RUNDUNGEN
100
AcDbLine
 62
7
  6
CONTINUOUS
 10
137.8444508794
 20
215.3449876525
 11
137.8444508794
 21
221.9802577348
  0
LINE
  5
259
100
AcDbEntity
  8
BEZUGSACHSEN
100
AcDbLine
 62
7
  6
CONTINUOUS
 10
230.41282025
 20
234.5415412639
 11
229.6067777501
 21
234.31478713
  0
LINE
  5
25A
100
AcDbEntity
  8
BEZUGSACHSEN
100
AcDbLine
 62
7
  6
CONTINUOUS
 10
232.9688529511
 20
234.5817166197
 11
232.486090648
 21
234.4710535243
  0
LINE
  5
25B
100
AcDbEntity
  8
BEZUGSACHSEN
100
AcDbLine
 62
7
  6
CONTINUOUS
 10
229.9516351009
 20
235.0655314456
 11
229.4688725744
 21
234.9548683578
  0
LINE
  5
25C
100
AcDbEntity
  8
BEZUGSACHSEN
100
AcDbLine
 62
7
  6
CONTINUOUS
 10
229.0983120259
 20
238.1444185729
 11
228.6155497227
 21
238.0337554775
  0
LINE
  5
25D
100
AcDbEntity
  8
0
100
AcDbLine
 62
7
  6
CONTINUOUS
 10
438.6570806386
 20
282.5225967903
 11
454.5261591236
 21
285.89567355
  0
LINE
  5
25E
100
AcDbEntity
  8
BEZUGSACHSEN
100
AcDbLine
 62
7
  6
CONTINUOUS
 10
234.234291382
 20
240.6870430763
 11
226.7660008556
 21
239.9981043176
  0
LINE
  5
25F
100
AcDbEntity
  8
BEZUGSACHSEN
100
AcDbLine
 62
7
  6
CONTINUOUS
 10
226.6960020497
 20
240.7569111231
 11
232.8930943402
 21
241.328583724
  0
LINE
  5
260
100
AcDbEntity
  8
BEZUGSACHSEN
100
AcDbLine
 62
7
  6
CONTINUOUS
 10
231.7107966328
 20
241.9847826004
 11
232.9819953138
 21
242.1020487992
  0
LINE
  5
261
100
AcDbEntity
  8
BEZUGSACHSEN
100
AcDbLine
 62
7
  6
CONTINUOUS
 10
230.0810988159
 20
238.8734743504
 11
228.9604070736
 21
238.7844997932
  0
LINE
  5
262
100
AcDbEntity
  8
BEZUGSACHSEN
100
AcDbLine
 62
7
  6
CONTINUOUS
 10
225.5719085112
 20
256.6674134498
 11
226.3140382018
 21
256.7103028343
  0
LINE
  5
263
100
AcDbEntity
  8
BEZUGSACHSEN
100
AcDbLine
 62
7
  6
CONTINUOUS
 10
228.4415053758
 20
255.1938558136
 11
229.1280894826
 21
255.2172688445
  0
LINE
  5
264
100
AcDbEntity
  8
BEZUGSACHSEN
100
AcDbLine
 62
7
  6
CONTINUOUS
 10
228.6010622205
 20
254.4318234248
 11
229.1414768987
 21
254.3912180187
  0
LINE
  5
265
100
AcDbEntity
  8
BEZUGSACHSEN
100
AcDbLine
 62
7
  6
CONTINUOUS
 10
225.6117264221
 20
257.4616707285
 11
226.0184307167
 21
257.4305582198
  0
LINE
  5
266
100
AcDbEntity
  8
BEZUGSACHSEN
100
AcDbLine
 62
7
  6
CONTINUOUS
 10
188.9409977372
 20
269.7348602523
 11
189.592547929
 21
269.6700426044
  0
LINE
  5
267
100
AcDbEntity
  8
BEZUGSACHSEN
100
AcDbLine
 62
7
  6
CONTINUOUS
 10
188.926360333
 20
270.7005829759
 11
189.45227593
 21
270.6171583063
  0
LINE
  5
268
100
AcDbEntity
  8
BEZUGSACHSEN
100
AcDbLine
 62
7
  6
CONTINUOUS
 10
229.1280894826
 20
255.2172688445
 11
229.9165806764
 21
255.0080151156
  0
LINE
  5
269
100
AcDbEntity
  8
BEZUGSACHSEN
100
AcDbLine
 62
7
  6
CONTINUOUS
 10
196.4318087326
 20
277.5150274397
 11
197.0610322997
 21
277.3339263603
  0
LINE
  5
26A
100
AcDbEntity
  8
BEZUGSACHSEN
100
AcDbLine
 62
7
  6
CONTINUOUS
 10
196.3992128669
 20
276.5581357624
 11
196.9015043202
 21
276.3813585393
  0
LINE
  5
26B
100
AcDbEntity
  8
BEZUGSACHSEN
100
AcDbLine
 62
7
  6
CONTINUOUS
 10
225.2658140302
 20
257.6874593955
 11
225.6117264221
 21
257.4616707285
  0
LINE
  5
26C
100
AcDbEntity
  8
BEZUGSACHSEN
100
AcDbLine
 62
7
  6
CONTINUOUS
 10
197.0610322997
 20
277.3339263603
 11
197.5578911087
 21
276.997667191
  0
LINE
  5
26D
100
AcDbEntity
  8
BEZUGSACHSEN
100
AcDbLine
 62
7
  6
CONTINUOUS
 10
229.9165806764
 20
255.0080151156
 11
230.4127356928
 21
254.6707161658
  0
LINE
  5
26E
100
AcDbEntity
  8
0
100
AcDbLine
 62
7
  6
CONTINUOUS
 10
238.7560963078
 20
257.4661100675
 11
227.9003869025
 21
269.5225967903
  0
LINE
  5
26F
100
AcDbEntity
  8
BEZUGSACHSEN
100
AcDbLine
 62
7
  6
CONTINUOUS
 10
225.2793493748
 20
250.4811707442
 11
225.6293345532
 21
250.0798531781
  0
LINE
  5
270
100
AcDbEntity
  8
BEZUGSACHSEN
100
AcDbLine
 62
7
  6
CONTINUOUS
 10
229.5866772054
 20
254.1702551116
 11
229.9366647162
 21
253.7689322202
  0
LINE
  5
271
100
AcDbEntity
  8
BEZUGSACHSEN
100
AcDbLine
 62
7
  6
CONTINUOUS
 10
227.7404598623
 20
235.7761004017
 11
228.0464780987
 21
235.3844618459
  0
LINE
  5
272
100
AcDbEntity
  8
BEZUGSACHSEN
100
AcDbLine
 62
7
  6
CONTINUOUS
 10
230.3612243093
 20
237.7202472137
 11
230.6672425457
 21
237.3286086579
  0
LINE
  5
273
100
AcDbEntity
  8
BEZUGSACHSEN
100
AcDbLine
 62
7
  6
CONTINUOUS
 10
230.8569331815
 20
238.21171041
 11
231.4689696543
 21
237.4284332985
  0
LINE
  5
274
100
AcDbEntity
  8
BEZUGSACHSEN
100
AcDbLine
 62
7
  6
CONTINUOUS
 10
233.0724239231
 20
237.6280709435
 11
233.3784421595
 21
237.2364323877
  0
LINE
  5
275
100
AcDbEntity
  8
BEZUGSACHSEN
100
AcDbLine
 62
7
  6
CONTINUOUS
 10
224.4023372415
 20
250.097043025
 11
224.8032759762
 21
249.5793920846
  0
LINE
  5
276
100
AcDbEntity
  8
BEZUGSACHSEN
100
AcDbLine
 62
7
  6
CONTINUOUS
 10
230.4127356928
 20
254.6707161658
 11
230.8136767472
 21
254.1530598944
  0
LINE
  5
277
100
AcDbEntity
  8
BEZUGSACHSEN
100
AcDbLine
 62
7
  6
CONTINUOUS
 10
197.5578911087
 20
276.997667191
 11
198.0438846292
 21
276.3424441292
  0
LINE
  5
278
100
AcDbEntity
  8
BEZUGSACHSEN
100
AcDbLine
 62
7
  6
CONTINUOUS
 10
226.9387328536
 20
235.6762815749
 11
227.3956024556
 21
235.0253560879
  0
LINE
  5
279
100
AcDbEntity
  8
BEZUGSACHSEN
100
AcDbLine
 62
7
  6
CONTINUOUS
 10
233.7232995104
 20
237.9871767034
 11
234.1801692681
 21
237.3362570283
  0
LINE
  5
27A
100
AcDbEntity
  8
BEZUGSACHSEN
100
AcDbLine
 62
7
  6
CONTINUOUS
 10
222.1275378902
 20
254.6386606458
 11
222.6264967068
 21
253.9028502089
  0
LINE
  5
27B
100
AcDbEntity
  8
BEZUGSACHSEN
100
AcDbLine
 62
7
  6
CONTINUOUS
 10
223.1190591488
 20
259.1473082052
 11
224.3308183726
 21
257.360336908
  0
LINE
  5
27C
100
AcDbEntity
  8
BEZUGSACHSEN
100
AcDbLine
 62
7
  6
CONTINUOUS
 10
223.9114937462
 20
259.6846643083
 11
225.2658140302
 21
257.6874593955
  0
LINE
  5
27D
100
AcDbEntity
  8
BEZUGSACHSEN
100
AcDbLine
 62
7
  6
CONTINUOUS
 10
225.8925806095
 20
261.0280548168
 11
227.2469008936
 21
259.0308499041
  0
LINE
  5
27E
100
AcDbEntity
  8
BEZUGSACHSEN
100
AcDbLine
 62
7
  6
CONTINUOUS
 10
226.125262856
 20
262.1065476044
 11
227.8359825279
 21
259.5837634644
  0
LINE
  5
27F
100
AcDbEntity
  8
BEZUGSACHSEN
100
AcDbLine
 62
7
  6
CONTINUOUS
 10
187.4508676574
 20
271.1273164631
 11
187.7956511549
 21
270.533119976
  0
LINE
  5
280
100
AcDbEntity
  8
BEZUGSACHSEN
100
AcDbLine
 62
7
  6
CONTINUOUS
 10
197.2714324679
 20
276.0494231769
 11
197.508997295
 21
275.5623292283
  0
LINE
  5
281
100
AcDbEntity
  8
BEZUGSACHSEN
100
AcDbLine
 62
7
  6
CONTINUOUS
 10
187.962146224
 20
272.0096144736
 11
188.1812947529
 21
271.3968110084
  0
LINE
  5
282
100
AcDbEntity
  8
BEZUGSACHSEN
100
AcDbLine
 62
7
  6
CONTINUOUS
 10
182.0063722981
 20
267.6062011076
 11
179.6173455772
 21
274.7155295798
  0
LINE
  5
283
100
AcDbEntity
  8
BEZUGSACHSEN
100
AcDbLine
 62
7
  6
CONTINUOUS
 10
182.7287071896
 20
267.8489353354
 11
181.6612697034
 21
271.0254438468
  0
LINE
  5
284
100
AcDbEntity
  8
BEZUGSACHSEN
100
AcDbLine
 62
7
  6
CONTINUOUS
 10
181.3562876051
 20
271.9330175861
 11
180.5938322172
 21
274.2019523582
  0
LINE
  5
285
100
AcDbEntity
  8
BEZUGSACHSEN
100
AcDbLine
 62
7
  6
CONTINUOUS
 10
183.908542915
 20
274.3057711963
 11
184.0610341065
 21
273.8519839029
  0
LINE
  5
286
100
AcDbEntity
  8
BEZUGSACHSEN
100
AcDbLine
 62
7
  6
CONTINUOUS
 10
184.6308778065
 20
274.5485054242
 11
184.8341993477
 21
273.9434558408
  0
LINE
  5
287
100
AcDbEntity
  8
BEZUGSACHSEN
100
AcDbLine
 62
7
  6
CONTINUOUS
 10
187.2083397458
 20
271.8979724205
 11
187.4508676574
 21
271.1273164631
  0
LINE
  5
288
100
AcDbEntity
  8
BEZUGSACHSEN
100
AcDbLine
 62
7
  6
CONTINUOUS
 10
184.0931361219
 20
273.3577413672
 11
184.0610341065
 21
273.8519839029
  0
LINE
  5
289
100
AcDbEntity
  8
BEZUGSACHSEN
100
AcDbLine
 62
7
  6
CONTINUOUS
 10
184.866301363
 20
273.4492133051
 11
184.8341993477
 21
273.9434558408
  0
LINE
  5
28A
100
AcDbEntity
  8
BEZUGSACHSEN
100
AcDbLine
 62
7
  6
CONTINUOUS
 10
228.9604070736
 20
238.7844997932
 11
228.154364462
 21
238.5577456631
  0
LINE
  5
28B
100
AcDbEntity
  8
BEZUGSACHSEN
100
AcDbLine
 62
7
  6
CONTINUOUS
 10
227.6597080637
 20
254.990082619
 11
228.4415053758
 21
255.1938558136
  0
LINE
  5
28C
100
AcDbEntity
  8
BEZUGSACHSEN
100
AcDbLine
 62
7
  6
CONTINUOUS
 10
226.0879234422
 20
249.0328367825
 11
226.7235517754
 21
249.1725885636
  0
LINE
  5
28D
100
AcDbEntity
  8
BEZUGSACHSEN
100
AcDbLine
 62
7
  6
CONTINUOUS
 10
227.9654339897
 20
254.2920716886
 11
228.6010622205
 21
254.4318234248
  0
LINE
  5
28E
100
AcDbEntity
  8
BEZUGSACHSEN
100
AcDbLine
 62
7
  6
CONTINUOUS
 10
226.0745349622
 20
249.8588903158
 11
226.5639945212
 21
249.934620773
  0
LINE
  5
28F
100
AcDbEntity
  8
BEZUGSACHSEN
100
AcDbLine
 62
7
  6
CONTINUOUS
 10
189.592547929
 20
269.6700426044
 11
190.0950855811
 21
269.7444706398
  0
LINE
  5
290
100
AcDbEntity
  8
BEZUGSACHSEN
100
AcDbLine
 62
7
  6
CONTINUOUS
 10
182.506685143
 20
275.6864664912
 11
183.1594613504
 21
275.7374827631
  0
LINE
  5
291
100
AcDbEntity
  8
BEZUGSACHSEN
100
AcDbLine
 62
7
  6
CONTINUOUS
 10
193.13012693
 20
270.1231468341
 11
196.1764744208
 21
270.0193750739
  0
LINE
  5
292
100
AcDbEntity
  8
BEZUGSACHSEN
100
AcDbLine
 62
7
  6
CONTINUOUS
 10
193.9243096722
 20
271.0540956831
 11
196.2090702903
 21
270.9762668629
  0
LINE
  5
293
100
AcDbEntity
  8
BEZUGSACHSEN
100
AcDbLine
 62
7
  6
CONTINUOUS
 10
194.1144522488
 20
276.6359645826
 11
196.3992128669
 21
276.5581357624
  0
LINE
  5
294
100
AcDbEntity
  8
BEZUGSACHSEN
100
AcDbLine
 62
7
  6
CONTINUOUS
 10
193.3854612418
 20
277.6187992
 11
196.4318087326
 21
277.5150274397
  0
LINE
  5
295
100
AcDbEntity
  8
BEZUGSACHSEN
100
AcDbLine
 62
7
  6
CONTINUOUS
 10
182.8812259253
 20
274.9706107078
 11
183.2932237207
 21
274.9407155318
  0
LINE
  5
296
100
AcDbEntity
  8
0
100
AcDbLine
 62
7
  6
CONTINUOUS
 10
205.3837264041
 20
282.5225967903
 11
189.5146479191
 21
285.89567355
  0
LINE
  5
297
100
AcDbEntity
  8
0
100
AcDbLine
 62
7
  6
CONTINUOUS
 10
434.8019860045
 20
180.760698905
 11
440.5482984567
 21
177.4430638638
  0
LINE
  5
298
100
AcDbEntity
  8
BEZUGSACHSEN
100
AcDbLine
 62
7
  6
CONTINUOUS
 10
223.9437483525
 20
251.1440594206
 11
224.4023372415
 21
250.097043025
  0
LINE
  5
299
100
AcDbEntity
  8
BEZUGSACHSEN
100
AcDbLine
 62
7
  6
CONTINUOUS
 10
224.8207604858
 20
251.5281871397
 11
225.2793493748
 21
250.4811707442
  0
LINE
  5
29A
100
AcDbEntity
  8
BEZUGSACHSEN
100
AcDbLine
 62
7
  6
CONTINUOUS
 10
227.2747552115
 20
251.4938074906
 11
227.7333441005
 21
250.446791095
  0
LINE
  5
29B
100
AcDbEntity
  8
BEZUGSACHSEN
100
AcDbLine
 62
7
  6
CONTINUOUS
 10
228.1517672424
 20
251.8779351649
 11
228.9160820575
 21
250.1329078389
  0
LINE
  5
29C
100
AcDbEntity
  8
BEZUGSACHSEN
100
AcDbLine
 62
7
  6
CONTINUOUS
 10
229.9258741779
 20
251.4071102807
 11
230.2316001039
 21
250.7090993503
  0
LINE
  5
29D
100
AcDbEntity
  8
BEZUGSACHSEN
100
AcDbLine
 62
7
  6
CONTINUOUS
 10
229.9366647162
 20
253.7689322202
 11
230.3952536053
 21
252.7219158246
  0
LINE
  5
29E
100
AcDbEntity
  8
BEZUGSACHSEN
100
AcDbLine
 62
7
  6
CONTINUOUS
 10
230.8136767472
 20
254.1530598944
 11
231.2722656362
 21
253.1060434988
  0
LINE
  5
29F
100
AcDbEntity
  8
BEZUGSACHSEN
100
AcDbLine
 62
7
  6
CONTINUOUS
 10
227.5939239299
 20
236.1623168248
 11
227.7404598623
 21
235.7761004017
  0
LINE
  5
2A0
100
AcDbEntity
  8
BEZUGSACHSEN
100
AcDbLine
 62
7
  6
CONTINUOUS
 10
230.6672425457
 20
237.3286086579
 11
230.8137784782
 21
236.9423922348
  0
LINE
  5
2A1
100
AcDbEntity
  8
BEZUGSACHSEN
100
AcDbLine
 62
7
  6
CONTINUOUS
 10
233.3784421595
 20
237.2364323877
 11
233.524978092
 21
236.8502159646
  0
LINE
  5
2A2
100
AcDbEntity
  8
BEZUGSACHSEN
100
AcDbLine
 62
7
  6
CONTINUOUS
 10
227.8359825279
 20
259.5837634644
 11
228.0603094828
 21
258.9686248867
  0
LINE
  5
2A3
100
AcDbEntity
  8
BEZUGSACHSEN
100
AcDbLine
 62
7
  6
CONTINUOUS
 10
198.0438846292
 20
276.3424441292
 11
198.2760168272
 21
275.6958686812
  0
LINE
  5
2A4
100
AcDbEntity
  8
BEZUGSACHSEN
100
AcDbLine
 62
7
  6
CONTINUOUS
 10
197.508997295
 20
275.5623292283
 11
197.6141973791
 21
274.9200776365
  0
LINE
  5
2A5
100
AcDbEntity
  8
BEZUGSACHSEN
100
AcDbLine
 62
7
  6
CONTINUOUS
 10
187.2083397458
 20
271.8979724205
 11
186.4836010707
 21
276.7914036393
  0
LINE
  5
2A6
100
AcDbEntity
  8
BEZUGSACHSEN
100
AcDbLine
 62
7
  6
CONTINUOUS
 10
187.962146224
 20
272.0096144736
 11
187.2374075489
 21
276.9030456925
  0
LINE
  5
2A7
100
AcDbEntity
  8
BEZUGSACHSEN
100
AcDbLine
 62
7
  6
CONTINUOUS
 10
190.2526320238
 20
277.3496136922
 11
190.9773706989
 21
272.4561824733
  0
LINE
  5
2A8
100
AcDbEntity
  8
BEZUGSACHSEN
100
AcDbLine
 62
7
  6
CONTINUOUS
 10
191.0064381426
 20
277.4612556921
 11
191.7311768176
 21
272.5678244732
  0
LINE
  5
2A9
100
AcDbEntity
  8
BEZUGSACHSEN
100
AcDbLine
 62
7
  6
CONTINUOUS
 10
198.2760168272
 20
275.6958686812
 11
198.3757842518
 21
274.8941346965
  0
LINE
  5
2AA
100
AcDbEntity
  8
BEZUGSACHSEN
100
AcDbLine
 62
7
  6
CONTINUOUS
 10
224.7631103186
 20
252.0575525893
 11
224.8207604858
 21
251.5281871397
  0
LINE
  5
2AB
100
AcDbEntity
  8
0
100
AcDbLine
 62
7
  6
CONTINUOUS
 10
191.0204035214
 20
618.5432475834
 11
191.0204035214
 21
458.5432475834
  0
LINE
  5
2AC
100
AcDbEntity
  8
BEZUGSACHSEN
100
AcDbLine
 62
7
  6
CONTINUOUS
 10
191.7224355437
 20
271.7599544449
 11
191.7311768176
 21
272.5678244732
  0
LINE
  5
2AD
100
AcDbEntity
  8
BEZUGSACHSEN
100
AcDbLine
 62
7
  6
CONTINUOUS
 10
193.13012693
 20
270.1231468341
 11
193.3854612418
 21
277.6187992
  0
LINE
  5
2AE
100
AcDbEntity
  8
BEZUGSACHSEN
100
AcDbLine
 62
7
  6
CONTINUOUS
 10
193.9243096722
 20
271.0540956831
 11
194.1144522488
 21
276.6359645826
  0
LINE
  5
2AF
100
AcDbEntity
  8
BEZUGSACHSEN
100
AcDbLine
 62
7
  6
CONTINUOUS
 10
197.6141973791
 20
274.9200776365
 11
197.5327077072
 21
272.5278482199
  0
LINE
  5
2B0
100
AcDbEntity
  8
BEZUGSACHSEN
100
AcDbLine
 62
7
  6
CONTINUOUS
 10
198.3757842518
 20
274.8941346965
 11
198.2942945799
 21
272.5019052798
  0
LINE
  5
2B1
100
AcDbEntity
  8
BEZUGSACHSEN
100
AcDbLine
 62
7
  6
CONTINUOUS
 10
190.9452507612
 20
271.8061650436
 11
190.9773706989
 21
272.4561824733
  0
LINE
  5
2B2
100
AcDbEntity
  8
BEZUGSACHSEN
100
AcDbLine
 62
7
  6
CONTINUOUS
 10
196.2090702903
 20
270.9762668629
 11
196.7222270322
 21
271.1184535323
  0
LINE
  5
2B3
100
AcDbEntity
  8
BEZUGSACHSEN
100
AcDbLine
 62
7
  6
CONTINUOUS
 10
196.1764744208
 20
270.0193750739
 11
196.816563277
 21
270.1572379009
  0
LINE
  5
2B4
100
AcDbEntity
  8
BEZUGSACHSEN
100
AcDbLine
 62
7
  6
CONTINUOUS
 10
189.45227593
 20
270.6171583063
 11
189.9548135821
 21
270.6915863417
  0
LINE
  5
2B5
100
AcDbEntity
  8
BEZUGSACHSEN
100
AcDbLine
 62
7
  6
CONTINUOUS
 10
186.4836010707
 20
276.7914036393
 11
187.2374075489
 21
276.9030456925
  0
LINE
  5
2B6
100
AcDbEntity
  8
BEZUGSACHSEN
100
AcDbLine
 62
7
  6
CONTINUOUS
 10
190.2526320238
 20
277.3496136922
 11
191.0064381426
 21
277.4612556921
  0
LINE
  5
2B7
100
AcDbEntity
  8
BEZUGSACHSEN
100
AcDbLine
 62
7
  6
CONTINUOUS
 10
226.8008276898
 20
236.3163569852
 11
226.9387328536
 21
235.6762815749
  0
LINE
  5
2B8
100
AcDbEntity
  8
BEZUGSACHSEN
100
AcDbLine
 62
7
  6
CONTINUOUS
 10
231.4689696543
 20
237.4284332985
 11
231.6068746065
 21
236.7883520782
  0
LINE
  5
2B9
100
AcDbEntity
  8
BEZUGSACHSEN
100
AcDbLine
 62
7
  6
CONTINUOUS
 10
234.1801692681
 20
237.3362570283
 11
234.3180742204
 21
236.696175808
  0
LINE
  5
2BA
100
AcDbEntity
  8
BEZUGSACHSEN
100
AcDbLine
 62
7
  6
CONTINUOUS
 10
227.2469008936
 20
259.0308499041
 11
227.3286684197
 21
258.6259425361
  0
LINE
  5
2BB
100
AcDbEntity
  8
BEZUGSACHSEN
100
AcDbLine
 62
7
  6
CONTINUOUS
 10
223.8351446546
 20
251.7897582557
 11
223.9437483525
 21
251.1440594206
  0
LINE
  5
2BC
100
AcDbEntity
  8
BEZUGSACHSEN
100
AcDbLine
 62
7
  6
CONTINUOUS
 10
231.2722656362
 20
253.1060434988
 11
231.3808670144
 21
252.4603499947
  0
LINE
  5
2BD
100
AcDbEntity
  8
BEZUGSACHSEN
100
AcDbLine
 62
7
  6
CONTINUOUS
 10
230.3952536053
 20
252.7219158246
 11
230.45290144
 21
252.1925557004
  0
LINE
  5
2BE
100
AcDbEntity
  8
0
100
AcDbLine
 62
7
  6
CONTINUOUS
 10
241.8807251088
 20
227.7372528706
 11
238.7560963078
 21
257.4661100675
  0
LINE
  5
2BF
100
AcDbEntity
  8
BEZUGSACHSEN
100
AcDbLine
 62
7
  6
CONTINUOUS
 10
226.6960020497
 20
240.7569111231
 11
226.7660008556
 21
239.9981043176
  0
LINE
  5
2C0
100
AcDbEntity
  8
BEZUGSACHSEN
100
AcDbLine
 62
7
  6
CONTINUOUS
 10
234.1642925761
 20
241.4458498818
 11
234.234291382
 21
240.6870430763
  0
LINE
  5
2C1
100
AcDbEntity
  8
0
100
AcDbLine
 62
7
  6
CONTINUOUS
 10
227.0204035214
 20
618.5432475834
 11
227.0204035214
 21
458.5432475834
  0
LINE
  5
2C2
100
AcDbEntity
  8
BEZUGSACHSEN
100
AcDbLine
 62
7
  6
CONTINUOUS
 10
226.8224050415
 20
236.9510160728
 11
226.8008276898
 21
236.3163569852
  0
LINE
  5
2C3
100
AcDbEntity
  8
BEZUGSACHSEN
100
AcDbLine
 62
7
  6
CONTINUOUS
 10
227.6241320642
 20
237.0508348991
 11
227.5939239299
 21
236.1623168248
  0
LINE
  5
2C4
100
AcDbEntity
  8
BEZUGSACHSEN
100
AcDbLine
 62
7
  6
CONTINUOUS
 10
198.1402006972
 20
271.7088193556
 11
198.2942945799
 21
272.5019052798
  0
LINE
  5
2C5
100
AcDbEntity
  8
BEZUGSACHSEN
100
AcDbLine
 62
7
  6
CONTINUOUS
 10
184.7084553161
 20
272.7227970316
 11
184.866301363
 21
273.4492133051
  0
LINE
  5
2C6
100
AcDbEntity
  8
BEZUGSACHSEN
100
AcDbLine
 62
7
  6
CONTINUOUS
 10
197.3840464688
 20
271.8942442418
 11
197.5327077072
 21
272.5278482199
  0
LINE
  5
2C7
100
AcDbEntity
  8
BEZUGSACHSEN
100
AcDbLine
 62
7
  6
CONTINUOUS
 10
191.5646817486
 20
271.0913299756
 11
191.7224355437
 21
271.7599544449
  0
LINE
  5
2C8
100
AcDbEntity
  8
0
100
AcDbLine
 62
7
  6
CONTINUOUS
 10
147.2600819339
 20
247.8494914468
 11
137.8444508794
 21
221.9802577348
  0
LINE
  5
2C9
100
AcDbEntity
  8
BEZUGSACHSEN
100
AcDbLine
 62
7
  6
CONTINUOUS
 10
230.8137784782
 20
236.9423922348
 11
230.7835703438
 21
236.0538741605
  0
LINE
  5
2CA
100
AcDbEntity
  8
BEZUGSACHSEN
100
AcDbLine
 62
7
  6
CONTINUOUS
 10
231.6068746065
 20
236.7883520782
 11
231.5852972549
 21
236.1536929906
  0
LINE
  5
2CB
100
AcDbEntity
  8
BEZUGSACHSEN
100
AcDbLine
 62
7
  6
CONTINUOUS
 10
232.5076679997
 20
235.1057126119
 11
232.486090648
 21
234.4710535243
  0
LINE
  5
2CC
100
AcDbEntity
  8
BEZUGSACHSEN
100
AcDbLine
 62
7
  6
CONTINUOUS
 10
233.524978092
 20
236.8502159646
 11
233.499085349
 21
236.0886273836
  0
LINE
  5
2CD
100
AcDbEntity
  8
BEZUGSACHSEN
100
AcDbLine
 62
7
  6
CONTINUOUS
 10
234.3180742204
 20
236.696175808
 11
234.3008124575
 21
236.1884520242
  0
LINE
  5
2CE
100
AcDbEntity
  8
BEZUGSACHSEN
100
AcDbLine
 62
7
  6
CONTINUOUS
 10
223.9236643638
 20
252.3831423385
 11
223.8351446546
 21
251.7897582557
  0
LINE
  5
2CF
100
AcDbEntity
  8
BEZUGSACHSEN
100
AcDbLine
 62
7
  6
CONTINUOUS
 10
231.3808670144
 20
252.4603499947
 11
231.2923485098
 21
251.8669632661
  0
LINE
  5
2D0
100
AcDbEntity
  8
BEZUGSACHSEN
100
AcDbLine
 62
7
  6
CONTINUOUS
 10
228.0603094828
 20
258.9686248867
 11
227.9492126732
 21
258.2794820099
  0
LINE
  5
2D1
100
AcDbEntity
  8
BEZUGSACHSEN
100
AcDbLine
 62
7
  6
CONTINUOUS
 10
190.7641182859
 20
271.2953932834
 11
190.9452507612
 21
271.8061650436
  0
LINE
  5
2D2
100
AcDbEntity
  8
BEZUGSACHSEN
100
AcDbLine
 62
7
  6
CONTINUOUS
 10
183.9540184093
 20
272.9743053395
 11
184.0931361219
 21
273.3577413672
  0
LINE
  5
2D3
100
AcDbEntity
  8
KONSTRUKTIONSELEMENTE
100
AcDbLine
 62
7
  6
CONTINUOUS
 10
104.1110761482
 20
194.2082136919
 11
105.8788431012
 21
197.2700758704
  0
LINE
  5
2D4
100
AcDbEntity
  8
KONSTRUKTIONSELEMENTE
100
AcDbLine
 62
7
  6
CONTINUOUS
 10
104.1195751296
 20
175.0628097192
 11
105.3216566576
 21
177.1448760006
  0
LINE
  5
2D5
100
AcDbEntity
  8
KONSTRUKTIONSELEMENTE
100
AcDbLine
 62
7
  6
CONTINUOUS
 10
103.6740464439
 20
173.3134596636
 11
103.9568891564
 21
173.8033576122
  0
LINE
  5
2D6
100
AcDbEntity
  8
0
100
AcDbLine
 62
7
  6
CONTINUOUS
 10
162.2063879606
 20
273.7372528706
 11
147.2600819339
 21
247.8494914468
  0
LINE
  5
2D7
100
AcDbEntity
  8
0
100
AcDbLine
 62
7
  6
CONTINUOUS
 10
454.5261591236
 20
285.89567355
 11
481.8344190821
 21
273.7372528706
  0
LINE
  5
2D8
100
AcDbEntity
  8
0
100
AcDbLine
 62
7
  6
CONTINUOUS
 10
434.8019860045
 20
180.760698905
 11
417.1063879606
 21
201.8494914468
  0
LINE
  5
2D9
100
AcDbEntity
  8
BEZUGSACHSEN
100
AcDbLine
 62
7
  6
CONTINUOUS
 10
227.0034647111
 20
237.5802530273
 11
226.8224050415
 21
236.9510160728
  0
LINE
  5
2DA
100
AcDbEntity
  8
BEZUGSACHSEN
100
AcDbLine
 62
7
  6
CONTINUOUS
 10
231.5852972549
 20
236.1536929906
 11
231.4042377968
 21
235.5244618461
  0
LINE
  5
2DB
100
AcDbEntity
  8
BEZUGSACHSEN
100
AcDbLine
 62
7
  6
CONTINUOUS
 10
224.9025848016
 20
252.5346006574
 11
224.7631103186
 21
252.0575525893
  0
LINE
  5
2DC
100
AcDbEntity
  8
BEZUGSACHSEN
100
AcDbLine
 62
7
  6
CONTINUOUS
 10
230.45290144
 20
252.1925557004
 11
230.3134270594
 21
251.7155076771
  0
LINE
  5
2DD
100
AcDbEntity
  8
BEZUGSACHSEN
100
AcDbLine
 62
7
  6
CONTINUOUS
 10
227.3286684197
 20
258.6259425361
 11
227.2070829827
 21
258.2365926253
  0
LINE
  5
2DE
100
AcDbEntity
  8
BEZUGSACHSEN
100
AcDbLine
 62
7
  6
CONTINUOUS
 10
197.8646073412
 20
271.0795391222
 11
198.1402006972
 21
271.7088193556
  0
LINE
  5
2DF
100
AcDbEntity
  8
BEZUGSACHSEN
100
AcDbLine
 62
7
  6
CONTINUOUS
 10
197.1138857609
 20
271.4244460664
 11
197.3840464688
 21
271.8942442418
  0
LINE
  5
2E0
100
AcDbEntity
  8
RUNDUNGEN
100
AcDbLine
 62
7
  6
CONTINUOUS
 10
124.7084211137
 20
191.7888691112
 11
145.273248797
 21
227.4081955075
  0
LINE
  5
2E1
100
AcDbEntity
  8
KONSTRUKTIONSELEMENTE
100
AcDbLine
 62
7
  6
CONTINUOUS
 10
146.4973277518
 20
201.8325863626
 11
141.2982543389
 21
192.8275270592
  0
LINE
  5
2E2
100
AcDbEntity
  8
0
100
AcDbLine
 62
7
  6
CONTINUOUS
 10
269.7328738103
 20
393.9785895216
 11
186.791272734
 21
250.3195223963
  0
LINE
  5
2E3
100
AcDbEntity
  8
BEZUGSACHSEN
100
AcDbLine
 62
7
  6
CONTINUOUS
 10
191.1556587597
 20
270.3854914906
 11
191.5646817486
 21
271.0913299756
  0
LINE
  5
2E4
100
AcDbEntity
  8
BEZUGSACHSEN
100
AcDbLine
 62
7
  6
CONTINUOUS
 10
234.3008124575
 20
236.1884520242
 11
234.1197528019
 21
235.5592150692
  0
LINE
  5
2E5
100
AcDbEntity
  8
BEZUGSACHSEN
100
AcDbLine
 62
7
  6
CONTINUOUS
 10
227.7965607396
 20
237.426207057
 11
227.6241320642
 21
237.0508348991
  0
LINE
  5
2E6
100
AcDbEntity
  8
BEZUGSACHSEN
100
AcDbLine
 62
7
  6
CONTINUOUS
 10
227.9492126732
 20
258.2794820099
 11
227.6347629007
 21
257.6058965903
  0
LINE
  5
2E7
100
AcDbEntity
  8
BEZUGSACHSEN
100
AcDbLine
 62
7
  6
CONTINUOUS
 10
224.3045225958
 20
253.1045663222
 11
223.9236643638
 21
252.3831423385
  0
LINE
  5
2E8
100
AcDbEntity
  8
KONSTRUKTIONSELEMENTE
100
AcDbLine
 62
7
  6
CONTINUOUS
 10
108.8177950104
 20
110.2254973362
 11
100.3958499309
 21
95.63826056
  0
LINE
  5
2E9
100
AcDbEntity
  8
0
100
AcDbLine
 62
7
  6
CONTINUOUS
 10
145.1826852854
 20
169.8513349041
 11
154.1605605931
 21
185.401471081
  0
LINE
  5
2EA
100
AcDbEntity
  8
KONSTRUKTIONSELEMENTE
100
AcDbLine
 62
7
  6
CONTINUOUS
 10
154.1605605931
 20
185.401471081
 11
165.0493799681
 21
204.261459473
  0
LINE
  5
2EB
100
AcDbEntity
  8
KONSTRUKTIONSELEMENTE
100
AcDbLine
 62
7
  6
CONTINUOUS
 10
181.8456184424
 20
231.7533978866
 11
178.4853062313
 21
225.9331664076
  0
LINE
  5
2EC
100
AcDbEntity
  8
KONSTRUKTIONSELEMENTE
100
AcDbLine
 62
7
  6
CONTINUOUS
 10
166.2892692563
 20
204.8090107159
 11
160.9859683974
 21
195.6234241805
  0
LINE
  5
2ED
100
AcDbEntity
  8
KONSTRUKTIONSELEMENTE
100
AcDbLine
 62
7
  6
CONTINUOUS
 10
102.0357603731
 20
92.0786687658
 11
111.0867271723
 21
107.7554031196
  0
LINE
  5
2EE
100
AcDbEntity
  8
KONSTRUKTIONSELEMENTE
100
AcDbLine
 62
7
  6
CONTINUOUS
 10
185.7427327594
 20
229.5033978866
 11
181.7016606265
 21
222.5040556353
  0
LINE
  5
2EF
100
AcDbEntity
  8
KONSTRUKTIONSELEMENTE
100
AcDbLine
 62
7
  6
CONTINUOUS
 10
170.1863835733
 20
202.5590107159
 11
164.8830827144
 21
193.3734241805
  0
LINE
  5
2F0
100
AcDbEntity
  8
KONSTRUKTIONSELEMENTE
100
AcDbLine
 62
7
  6
CONTINUOUS
 10
189.4801287108
 20
233.9767575623
 11
186.1202435497
 21
228.1572657557
  0
LINE
  5
2F1
100
AcDbEntity
  8
KONSTRUKTIONSELEMENTE
100
AcDbLine
 62
7
  6
CONTINUOUS
 10
166.2376227317
 20
193.7195563113
 11
164.6553400119
 21
190.9789622487
  0
LINE
  5
2F2
100
AcDbEntity
  8
KONSTRUKTIONSELEMENTE
100
AcDbLine
 62
7
  6
CONTINUOUS
 10
174.9718812217
 20
208.3477357824
 11
170.8687890622
 21
201.240971694
  0
LINE
  5
2F3
100
AcDbEntity
  8
KONSTRUKTIONSELEMENTE
100
AcDbLine
 62
7
  6
CONTINUOUS
 10
178.8689955387
 20
206.0977357824
 11
174.7659033792
 21
198.990971694
  0
LINE
  5
2F4
100
AcDbEntity
  8
KONSTRUKTIONSELEMENTE
100
AcDbLine
 62
7
  6
CONTINUOUS
 10
193.8102557297
 20
231.4767575623
 11
190.4503705686
 21
225.6572657557
  0
LINE
  5
2F5
100
AcDbEntity
  8
KONSTRUKTIONSELEMENTE
100
AcDbLine
 62
7
  6
CONTINUOUS
 10
170.5677497506
 20
191.2195563113
 11
168.9854670308
 21
188.4789622487
  0
LINE
  5
2F6
100
AcDbEntity
  8
KONSTRUKTIONSELEMENTE
100
AcDbLine
 62
7
  6
CONTINUOUS
 10
170.9452605409
 20
189.8734241805
 11
176.2485613998
 21
199.0590107159
  0
LINE
  5
2F7
100
AcDbEntity
  8
KONSTRUKTIONSELEMENTE
100
AcDbLine
 62
7
  6
CONTINUOUS
 10
187.763838453
 20
219.0040556353
 11
191.8049105859
 21
226.0033978866
  0
LINE
  5
2F8
100
AcDbEntity
  8
KONSTRUKTIONSELEMENTE
100
AcDbLine
 62
7
  6
CONTINUOUS
 10
114.6450902522
 20
84.7986687658
 11
123.6960570514
 21
100.4754031196
  0
LINE
  5
2F9
100
AcDbEntity
  8
KONSTRUKTIONSELEMENTE
100
AcDbLine
 62
7
  6
CONTINUOUS
 10
174.8423748579
 20
187.6234241805
 11
180.1456757168
 21
196.8090107159
  0
LINE
  5
2FA
100
AcDbEntity
  8
KONSTRUKTIONSELEMENTE
100
AcDbLine
 62
7
  6
CONTINUOUS
 10
192.3417126918
 20
217.9331664076
 11
195.7020249029
 21
223.7533978866
  0
LINE
  5
2FB
100
AcDbEntity
  8
0
100
AcDbLine
 62
7
  6
CONTINUOUS
 10
169.4026076997
 20
176.601471081
 11
160.424732392
 21
161.0513349041
  0
LINE
  5
2FC
100
AcDbEntity
  8
KONSTRUKTIONSELEMENTE
100
AcDbLine
 62
7
  6
CONTINUOUS
 10
169.4026076997
 20
176.601471081
 11
180.2914270747
 21
195.461459473
  0
LINE
  5
2FD
100
AcDbEntity
  8
KONSTRUKTIONSELEMENTE
100
AcDbLine
 62
7
  6
CONTINUOUS
 10
118.5477423943
 20
85.15826056
 11
126.750181056
 21
99.3653010681
  0
LINE
  5
2FE
100
AcDbEntity
  8
0
100
AcDbLine
 62
7
  6
CONTINUOUS
 10
292.2495343087
 20
380.9785895216
 11
209.3079332324
 21
237.3195223963
  0
LINE
  5
2FF
100
AcDbEntity
  8
BEZUGSACHSEN
100
AcDbLine
 62
7
  6
CONTINUOUS
 10
184.328559536
 20
272.2584496719
 11
184.7084553161
 21
272.7227970316
  0
LINE
  5
300
100
AcDbEntity
  8
0
100
AcDbLine
 62
7
  6
CONTINUOUS
 10
417.1063879606
 20
201.8494914468
 11
402.1600819339
 21
227.7372528706
  0
LINE
  5
301
100
AcDbEntity
  8
0
100
AcDbLine
 62
7
  6
CONTINUOUS
 10
433.8156531196
 20
189.9081952344
 11
454.3804806452
 21
154.2888691112
  0
LINE
  5
302
100
AcDbEntity
  8
BEZUGSACHSEN
100
AcDbLine
 62
7
  6
CONTINUOUS
 10
230.7835703438
 20
236.0538741605
 11
230.6111416684
 21
235.6785020027
  0
LINE
  5
303
100
AcDbEntity
  8
BEZUGSACHSEN
100
AcDbLine
 62
7
  6
CONTINUOUS
 10
233.499085349
 20
236.0886273836
 11
233.3266566735
 21
235.7132552258
  0
LINE
  5
304
100
AcDbEntity
  8
BEZUGSACHSEN
100
AcDbLine
 62
7
  6
CONTINUOUS
 10
231.2923485098
 20
251.8669632661
 11
230.911490329
 21
251.1455393048
  0
LINE
  5
305
100
AcDbEntity
  8
KONSTRUKTIONSELEMENTE
100
AcDbLine
 62
7
  6
CONTINUOUS
 10
187.4639873666
 20
178.1804744061
 11
182.2649139538
 21
169.1754151028
  0
LINE
  5
306
100
AcDbEntity
  8
RUNDUNGEN
100
AcDbLine
 62
7
  6
CONTINUOUS
 10
210.2251539231
 20
189.9081952344
 11
189.6603263975
 21
154.2888691112
  0
LINE
  5
307
100
AcDbEntity
  8
BEZUGSACHSEN
100
AcDbLine
 62
7
  6
CONTINUOUS
 10
197.3351526646
 20
270.4589065583
 11
197.8646073412
 21
271.0795391222
  0
LINE
  5
308
100
AcDbEntity
  8
BEZUGSACHSEN
100
AcDbLine
 62
7
  6
CONTINUOUS
 10
190.4339725705
 20
270.9238669757
 11
190.7641182859
 21
271.2953932834
  0
LINE
  5
309
100
AcDbEntity
  8
BEZUGSACHSEN
100
AcDbLine
 62
7
  6
CONTINUOUS
 10
183.6436813133
 20
272.7016759357
 11
183.9540184093
 21
272.9743053395
  0
LINE
  5
30A
100
AcDbEntity
  8
0
100
AcDbLine
 62
7
  6
CONTINUOUS
 10
456.5768196761
 20
178.1804744061
 11
461.7758930889
 21
169.1754151028
  0
LINE
  5
30B
100
AcDbEntity
  8
0
100
AcDbLine
 62
7
  6
CONTINUOUS
 10
434.7620732722
 20
237.2689474448
 11
351.7620732722
 21
381.029164473
  0
LINE
  5
30C
100
AcDbEntity
  8
0
100
AcDbLine
 62
7
  6
CONTINUOUS
 10
483.6160746507
 20
161.0513349041
 11
463.7493799681
 21
195.461459473
  0
LINE
  5
30D
100
AcDbEntity
  8
KONSTRUKTIONSELEMENTE
100
AcDbLine
 62
7
  6
CONTINUOUS
 10
158.3426132956
 20
94.3780019296
 11
156.5748463426
 21
91.3161397511
  0
LINE
  5
30E
100
AcDbEntity
  8
0
100
AcDbLine
 62
7
  6
CONTINUOUS
 10
226.9344190821
 20
201.8494914468
 11
241.8807251088
 21
227.7372528706
  0
LINE
  5
30F
100
AcDbEntity
  8
BEZUGSACHSEN
100
AcDbLine
 62
7
  6
CONTINUOUS
 10
225.2391825638
 20
252.9593339171
 11
224.9025848016
 21
252.5346006574
  0
LINE
  5
310
100
AcDbEntity
  8
BEZUGSACHSEN
100
AcDbLine
 62
7
  6
CONTINUOUS
 10
225.0226431563
 20
256.9087595741
 11
222.6264967068
 21
253.9028502089
  0
LINE
  5
311
100
AcDbEntity
  8
BEZUGSACHSEN
100
AcDbLine
 62
7
  6
CONTINUOUS
 10
227.5034888189
 20
238.1986399051
 11
227.0034647111
 21
237.5802530273
  0
LINE
  5
312
100
AcDbEntity
  8
BEZUGSACHSEN
100
AcDbLine
 62
7
  6
CONTINUOUS
 10
231.4042377968
 20
235.5244618461
 11
230.9042135333
 21
234.9060691564
  0
LINE
  5
313
100
AcDbEntity
  8
BEZUGSACHSEN
100
AcDbLine
 62
7
  6
CONTINUOUS
 10
234.1197528019
 20
235.5592150692
 11
233.6197285384
 21
234.9408223796
  0
LINE
  5
314
100
AcDbEntity
  8
BEZUGSACHSEN
100
AcDbLine
 62
7
  6
CONTINUOUS
 10
224.3308183726
 20
257.360336908
 11
222.1275378902
 21
254.6386606458
  0
LINE
  5
315
100
AcDbEntity
  8
BEZUGSACHSEN
100
AcDbLine
 62
7
  6
CONTINUOUS
 10
227.2070829827
 20
258.2365926253
 11
226.8821462142
 21
257.862797766
  0
LINE
  5
316
100
AcDbEntity
  8
BEZUGSACHSEN
100
AcDbLine
 62
7
  6
CONTINUOUS
 10
227.6347629007
 20
257.6058965903
 11
227.3098261322
 21
257.232101731
  0
LINE
  5
317
100
AcDbEntity
  8
BEZUGSACHSEN
100
AcDbLine
 62
7
  6
CONTINUOUS
 10
224.7872879659
 20
253.5933235685
 11
224.3045225958
 21
253.1045663222
  0
LINE
  5
318
100
AcDbEntity
  8
BEZUGSACHSEN
100
AcDbLine
 62
7
  6
CONTINUOUS
 10
190.6998784413
 20
269.9953582166
 11
191.1556587597
 21
270.3854914906
  0
LINE
  5
319
100
AcDbEntity
  8
BEZUGSACHSEN
100
AcDbLine
 62
7
  6
CONTINUOUS
 10
196.7222270322
 20
271.1184535323
 11
197.1138857609
 21
271.4244460664
  0
LINE
  5
31A
100
AcDbEntity
  8
0
100
AcDbLine
 62
7
  6
CONTINUOUS
 10
478.9914270747
 20
204.261459473
 11
498.8581217573
 21
169.8513349041
  0
LINE
  5
31B
100
AcDbEntity
  8
0
100
AcDbLine
 62
7
  6
CONTINUOUS
 10
457.2787337706
 20
250.2689474448
 11
374.2787337706
 21
394.029164473
  0
LINE
  5
31C
100
AcDbEntity
  8
0
100
AcDbLine
 62
7
  6
CONTINUOUS
 10
497.5434792909
 20
201.8325863626
 11
502.7425527038
 21
192.8275270592
  0
LINE
  5
31D
100
AcDbEntity
  8
KONSTRUKTIONSELEMENTE
100
AcDbLine
 62
7
  6
CONTINUOUS
 10
216.1208559235
 20
127.8413153805
 11
214.3530889706
 21
124.779453202
  0
LINE
  5
31E
100
AcDbEntity
  8
0
100
AcDbLine
 62
7
  6
CONTINUOUS
 10
209.2388210382
 20
180.760698905
 11
226.9344190821
 21
201.8494914468
  0
LINE
  5
31F
100
AcDbEntity
  8
BEZUGSACHSEN
100
AcDbLine
 62
7
  6
CONTINUOUS
 10
228.128471719
 20
237.7961570821
 11
227.7965607396
 21
237.426207057
  0
LINE
  5
320
100
AcDbEntity
  8
BEZUGSACHSEN
100
AcDbLine
 62
7
  6
CONTINUOUS
 10
230.6111416684
 20
235.6785020027
 11
230.279230689
 21
235.3085519775
  0
LINE
  5
321
100
AcDbEntity
  8
BEZUGSACHSEN
100
AcDbLine
 62
7
  6
CONTINUOUS
 10
233.3266566735
 20
235.7132552258
 11
232.9947456941
 21
235.3433052006
  0
LINE
  5
322
100
AcDbEntity
  8
BEZUGSACHSEN
100
AcDbLine
 62
7
  6
CONTINUOUS
 10
230.3134270594
 20
251.7155076771
 11
229.9258741779
 21
251.4071102807
  0
LINE
  5
323
100
AcDbEntity
  8
BEZUGSACHSEN
100
AcDbLine
 62
7
  6
CONTINUOUS
 10
222.0060227938
 20
259.3132586758
 11
226.125262856
 21
262.1065476044
  0
LINE
  5
324
100
AcDbEntity
  8
BEZUGSACHSEN
100
AcDbLine
 62
7
  6
CONTINUOUS
 10
221.1324374556
 20
257.8001644852
 11
223.1190591488
 21
259.1473082052
  0
LINE
  5
325
100
AcDbEntity
  8
BEZUGSACHSEN
100
AcDbLine
 62
7
  6
CONTINUOUS
 10
223.9114937462
 20
259.6846643083
 11
225.8925806095
 21
261.0280548168
  0
LINE
  5
326
100
AcDbEntity
  8
BEZUGSACHSEN
100
AcDbLine
 62
7
  6
CONTINUOUS
 10
196.816563277
 20
270.1572379009
 11
197.3351526646
 21
270.4589065583
  0
LINE
  5
327
100
AcDbEntity
  8
BEZUGSACHSEN
100
AcDbLine
 62
7
  6
CONTINUOUS
 10
189.9548135821
 20
270.6915863417
 11
190.4339725705
 21
270.9238669757
  0
LINE
  5
328
100
AcDbEntity
  8
0
100
AcDbLine
 62
7
  6
CONTINUOUS
 10
189.5146479191
 20
285.89567355
 11
162.2063879606
 21
273.7372528706
  0
LINE
  5
329
100
AcDbEntity
  8
0
100
AcDbLine
 62
7
  6
CONTINUOUS
 10
519.332385929
 20
191.7888691112
 11
498.7675582457
 21
227.4081955075
  0
LINE
  5
32A
100
AcDbEntity
  8
0
100
AcDbLine
 62
7
  6
CONTINUOUS
 10
481.8344190821
 20
273.7372528706
 11
496.7807251088
 21
247.8494914468
  0
LINE
  5
32B
100
AcDbEntity
  8
0
100
AcDbLine
 62
7
  6
CONTINUOUS
 10
417.0204035214
 20
458.5432475834
 11
417.0204035214
 21
618.5432475834
  0
LINE
  5
32C
100
AcDbEntity
  8
BEZUGSACHSEN
100
AcDbLine
 62
7
  6
CONTINUOUS
 10
230.279230689
 20
235.3085519775
 11
229.9516351009
 21
235.0655314456
  0
LINE
  5
32D
100
AcDbEntity
  8
BEZUGSACHSEN
100
AcDbLine
 62
7
  6
CONTINUOUS
 10
230.9042135333
 20
234.9060691564
 11
230.41282025
 21
234.5415412639
  0
LINE
  5
32E
100
AcDbEntity
  8
BEZUGSACHSEN
100
AcDbLine
 62
7
  6
CONTINUOUS
 10
225.7729037076
 20
253.3317524132
 11
225.2391825638
 21
252.9593339171
  0
LINE
  5
32F
100
AcDbEntity
  8
BEZUGSACHSEN
100
AcDbLine
 62
7
  6
CONTINUOUS
 10
226.8821462142
 20
257.862797766
 11
226.4859285455
 21
257.5941194636
  0
LINE
  5
330
100
AcDbEntity
  8
BEZUGSACHSEN
100
AcDbLine
 62
7
  6
CONTINUOUS
 10
227.3098261322
 20
257.232101731
 11
226.7815360306
 21
256.8738640781
  0
LINE
  5
331
100
AcDbEntity
  8
BEZUGSACHSEN
100
AcDbLine
 62
7
  6
CONTINUOUS
 10
225.4671777816
 20
254.0297633436
 11
224.7872879659
 21
253.5933235685
  0
LINE
  5
332
100
AcDbEntity
  8
BEZUGSACHSEN
100
AcDbLine
 62
7
  6
CONTINUOUS
 10
230.911490329
 20
251.1455393048
 11
230.2316001039
 21
250.7090993503
  0
LINE
  5
333
100
AcDbEntity
  8
BEZUGSACHSEN
100
AcDbLine
 62
7
  6
CONTINUOUS
 10
190.0950855811
 20
269.7444706398
 11
190.6998784413
 21
269.9953582166
  0
LINE
  5
334
100
AcDbEntity
  8
BEZUGSACHSEN
100
AcDbLine
 62
7
  6
CONTINUOUS
 10
179.6173455772
 20
274.7155295798
 11
182.506685143
 21
275.6864664912
  0
LINE
  5
335
100
AcDbEntity
  8
BEZUGSACHSEN
100
AcDbLine
 62
7
  6
CONTINUOUS
 10
180.5938322172
 20
274.2019523582
 11
182.8812259253
 21
274.9706107078
  0
LINE
  5
336
100
AcDbEntity
  8
BEZUGSACHSEN
100
AcDbLine
 62
7
  6
CONTINUOUS
 10
181.3562876051
 20
271.9330175861
 11
183.6436813133
 21
272.7016759357
  0
LINE
  5
337
100
AcDbEntity
  8
BEZUGSACHSEN
100
AcDbLine
 62
7
  6
CONTINUOUS
 10
181.6612697034
 20
271.0254438468
 11
183.7078851718
 21
271.7131908064
  0
LINE
  5
338
100
AcDbEntity
  8
BEZUGSACHSEN
100
AcDbLine
 62
7
  6
CONTINUOUS
 10
182.0063722981
 20
267.6062011076
 11
182.7287071896
 21
267.8489353354
  0
LINE
  5
339
100
AcDbEntity
  8
BEZUGSACHSEN
100
AcDbLine
 62
7
  6
CONTINUOUS
 10
185.7384357892
 20
268.8603279128
 11
186.5811600589
 21
269.1435179225
  0
LINE
  5
33A
100
AcDbEntity
  8
0
100
AcDbLine
 62
7
  6
CONTINUOUS
 10
402.1600819339
 20
227.7372528706
 11
405.2847107349
 21
257.4661100675
  0
LINE
  5
33B
100
AcDbEntity
  8
BEZUGSACHSEN
100
AcDbLine
 62
7
  6
CONTINUOUS
 10
228.154364462
 20
238.5577456631
 11
227.5034888189
 21
238.1986399051
  0
LINE
  5
33C
100
AcDbEntity
  8
BEZUGSACHSEN
100
AcDbLine
 62
7
  6
CONTINUOUS
 10
233.6197285384
 20
234.9408223796
 11
232.9688529511
 21
234.5817166197
  0
LINE
  5
33D
100
AcDbEntity
  8
BEZUGSACHSEN
100
AcDbLine
 62
7
  6
CONTINUOUS
 10
228.6155497227
 20
238.0337554775
 11
228.128471719
 21
237.7961570821
  0
LINE
  5
33E
100
AcDbEntity
  8
BEZUGSACHSEN
100
AcDbLine
 62
7
  6
CONTINUOUS
 10
232.9947456941
 20
235.3433052006
 11
232.5076679997
 21
235.1057126119
  0
LINE
  5
33F
100
AcDbEntity
  8
BEZUGSACHSEN
100
AcDbLine
 62
7
  6
CONTINUOUS
 10
225.4671777816
 20
254.0297633436
 11
227.6597080637
 21
254.990082619
  0
LINE
  5
340
100
AcDbEntity
  8
BEZUGSACHSEN
100
AcDbLine
 62
7
  6
CONTINUOUS
 10
225.7729037076
 20
253.3317524132
 11
227.9654339897
 21
254.2920716886
  0
LINE
  5
341
100
AcDbEntity
  8
BEZUGSACHSEN
100
AcDbLine
 62
7
  6
CONTINUOUS
 10
228.1517672424
 20
251.8779351649
 11
227.2747552115
 21
251.4938074906
  0
LINE
  5
342
100
AcDbEntity
  8
BEZUGSACHSEN
100
AcDbLine
 62
7
  6
CONTINUOUS
 10
227.7333441005
 20
250.446791095
 11
226.5639945212
 21
249.934620773
  0
LINE
  5
343
100
AcDbEntity
  8
BEZUGSACHSEN
100
AcDbLine
 62
7
  6
CONTINUOUS
 10
228.9160820575
 20
250.1329078389
 11
226.7235517754
 21
249.1725885636
  0
LINE
  5
344
100
AcDbEntity
  8
BEZUGSACHSEN
100
AcDbLine
 62
7
  6
CONTINUOUS
 10
226.0184307167
 20
257.4305582198
 11
226.4859285455
 21
257.5941194636
  0
LINE
  5
345
100
AcDbEntity
  8
BEZUGSACHSEN
100
AcDbLine
 62
7
  6
CONTINUOUS
 10
226.3140382018
 20
256.7103028343
 11
226.7815360306
 21
256.8738640781
  0
LINE
  5
346
100
AcDbEntity
  8
0
100
AcDbLine
 62
7
  6
CONTINUOUS
 10
496.7807251088
 20
247.8494914468
 11
506.1963561633
 21
221.9802577348
  0
LINE
  5
347
100
AcDbEntity
  8
0
100
AcDbLine
 62
7
  6
CONTINUOUS
 10
453.0204035214
 20
458.5432475834
 11
453.0204035214
 21
618.5432475834
  0
LINE
  5
348
100
AcDbEntity
  8
RUNDUNGEN
100
AcDbLine
 62
7
  6
CONTINUOUS
 10
203.492508586
 20
177.4430638638
 11
209.2388210382
 21
180.760698905
  0
LINE
  5
349
100
AcDbEntity
  8
0
100
AcDbLine
 62
7
  6
CONTINUOUS
 10
405.2847107349
 20
257.4661100675
 11
416.1404201402
 21
269.5225967903
  0
LINE
  5
34A
100
AcDbEntity
  8
0
100
AcDbLine
 62
7
  6
CONTINUOUS
 10
506.1963561633
 20
215.3449876525
 11
506.1963561633
 21
221.9802577348
  0
LINE
  5
34B
100
AcDbEntity
  8
KONSTRUKTIONSELEMENTE
100
AcDbLine
 62
7
  6
CONTINUOUS
 10
149.9058710671
 20
107.3352427807
 11
193.2058450109
 21
131.9718579185
  0
LINE
  5
34C
100
AcDbEntity
  8
KONSTRUKTIONSELEMENTE
100
AcDbLine
 62
7
  6
CONTINUOUS
 10
155.259269402
 20
90.5021732914
 11
156.4138693157
 21
91.1591121096
  0
LINE
  5
34D
100
AcDbEntity
  8
KONSTRUKTIONSELEMENTE
100
AcDbLine
 62
7
  6
CONTINUOUS
 10
211.295599208
 20
122.3854601718
 11
212.7433187015
 21
123.2091767873
  0
LINE
  5
34E
100
AcDbEntity
  8
RUNDUNGEN
100
AcDbLine
 62
7
  6
CONTINUOUS
 10
188.6123158766
 20
153.4094838696
 11
187.1893309017
 21
152.891559695
  0
LINE
  5
34F
100
AcDbEntity
  8
0
100
AcDbLine
 62
7
  6
CONTINUOUS
 10
187.1893309017
 20
152.891559695
 11
175.4525487312
 21
148.6197203388
  0
LINE
  5
350
100
AcDbEntity
  8
0
100
AcDbLine
 62
7
  6
CONTINUOUS
 10
517.1381239505
 20
176.6499983346
 11
519.5699506275
 21
190.4415727559
  0
LINE
  5
351
100
AcDbEntity
  8
0
100
AcDbLine
 62
7
  6
CONTINUOUS
 10
484.8414270747
 20
194.1289622487
 11
469.5993799681
 21
185.3289622487
  0
LINE
  5
352
100
AcDbEntity
  8
0
100
AcDbLine
 62
7
  6
CONTINUOUS
 10
494.3414270747
 20
177.6744795768
 11
479.0993799681
 21
168.8744795768
  0
LINE
  5
353
100
AcDbEntity
  8
KONSTRUKTIONSELEMENTE
100
AcDbLine
 62
7
  6
CONTINUOUS
 10
470.2722985982
 20
148.7670547728
 11
473.8432981391
 21
150.828772319
  0
LINE
  5
354
100
AcDbEntity
  8
KONSTRUKTIONSELEMENTE
100
AcDbLine
 62
7
  6
CONTINUOUS
 10
512.5975089036
 20
173.2035263361
 11
516.1685084445
 21
175.2652438824
  0
LINE
  5
355
100
AcDbEntity
  8
KONSTRUKTIONSELEMENTE
100
AcDbLine
 62
7
  6
CONTINUOUS
 10
607.7180498207
 20
86.6260973709
 11
610.1222128767
 21
84.5440310895
  0
LINE
  5
356
100
AcDbEntity
  8
KONSTRUKTIONSELEMENTE
100
AcDbLine
 62
7
  6
CONTINUOUS
 10
610.5620108365
 20
84.7986687658
 11
609.9963254115
 21
85.2885667143
  0
LINE
  5
357
100
AcDbEntity
  8
KONSTRUKTIONSELEMENTE
100
AcDbLine
 62
7
  6
CONTINUOUS
 10
607.0264769306
 20
87.8605309442
 11
607.5921623555
 21
87.3706329957
  0
LINE
  5
358
100
AcDbEntity
  8
KONSTRUKTIONSELEMENTE
100
AcDbLine
 62
7
  6
CONTINUOUS
 10
610.5620108365
 20
92.0786687658
 11
609.9963254115
 21
92.5685667143
  0
LINE
  5
359
100
AcDbEntity
  8
KONSTRUKTIONSELEMENTE
100
AcDbLine
 62
7
  6
CONTINUOUS
 10
607.0264769306
 20
95.1405309442
 11
607.5921623555
 21
94.6506329957
  0
LINE
  5
35A
100
AcDbEntity
  8
KONSTRUKTIONSELEMENTE
100
AcDbLine
 62
7
  6
CONTINUOUS
 10
629.9686125914
 20
93.2061691048
 11
633.5041464973
 21
90.1443069263
  0
LINE
  5
35B
100
AcDbEntity
  8
KONSTRUKTIONSELEMENTE
100
AcDbLine
 62
7
  6
CONTINUOUS
 10
633.1894278345
 20
115.0996761059
 11
632.6237424095
 21
115.5895740544
  0
LINE
  5
35C
100
AcDbEntity
  8
KONSTRUKTIONSELEMENTE
100
AcDbLine
 62
7
  6
CONTINUOUS
 10
630.2195793535
 20
117.6716403358
 11
629.6538939285
 21
118.1615382844
  0
LWPOLYLINE
  5
35D
100
AcDbEntity
  8
0
100
AcDbPolyline
 62
7
  6
CONTINUOUS
 90
14
 70
0
 10
833.073367208
 20
148.5138509285
 10
834.5000276261
 20
148.5706463289
 10
835.94003676
 20
148.6720865707
 10
837.3853971533
 20
148.8198505145
 10
838.8280078967
 20
149.0153941891
 10
840.2596585518
 20
149.2599462679
 10
841.6720246247
 20
149.554534208
 10
843.0570059794
 20
149.9001033945
 10
844.4047794348
 20
150.2970066817
 10
845.7129397701
 20
150.7480317166
 10
846.9690450694
 20
151.2530925615
 10
848.1873061443
 20
151.8249348356
 10
849.3757418469
 20
152.4813112097
 10
850.3847472068
 20
153.1392063084
  0
LINE
  5
35E
100
AcDbEntity
  8
0
100
AcDbLine
 62
7
  6
CONTINUOUS
 10
831.8864333476
 20
148.49910598
 11
833.073367208
 21
148.5138509285
  0
LWPOLYLINE
  5
35F
100
AcDbEntity
  8
RUNDUNGEN
100
AcDbPolyline
 62
7
  6
CONTINUOUS
 90
15
 70
0
 10
831.8864333482
 20
148.4991059798
 10
833.0760298821
 20
148.5138840061
 10
834.5062656205
 20
148.5709895065
 10
835.9437168873
 20
148.672403613
 10
837.3843295759
 20
148.8197238995
 10
838.8212240632
 20
149.0143578951
 10
840.2473506624
 20
149.2576186778
 10
841.655391933
 20
149.5507373949
 10
843.0380694589
 20
149.8949709267
 10
844.3864144825
 20
150.2911595169
 10
845.6974974855
 20
150.7422878672
 10
846.95956353
 20
151.2489812725
 10
848.1833696886
 20
151.822936467
 10
849.3745431809
 20
152.4805905226
 10
850.3847437662
 20
153.1392038693
  0
LINE
  5
360
100
AcDbEntity
  8
KONSTRUKTIONSELEMENTE
100
AcDbLine
 62
7
  6
CONTINUOUS
 10
687.5956031163
 20
125.3996068349
 11
691.1311370222
 21
122.3377446564
  0
LINE
  5
361
100
AcDbEntity
  8
KONSTRUKTIONSELEMENTE
100
AcDbLine
 62
7
  6
CONTINUOUS
 10
681.7325464605
 20
173.3134596636
 11
684.5467661813
 21
170.9464718646
  0
LINE
  5
362
100
AcDbEntity
  8
KONSTRUKTIONSELEMENTE
100
AcDbLine
 62
7
  6
CONTINUOUS
 10
681.1668610356
 20
173.8033576122
 11
683.9810807564
 21
171.4363698132
  0
LINE
  5
363
100
AcDbEntity
  8
KONSTRUKTIONSELEMENTE
100
AcDbLine
 62
7
  6
CONTINUOUS
 10
683.9067970996
 20
175.6798499011
 11
686.0715815002
 21
173.8590900557
  0
LINE
  5
364
100
AcDbEntity
  8
KONSTRUKTIONSELEMENTE
100
AcDbLine
 62
7
  6
CONTINUOUS
 10
681.5026340435
 20
177.7619161825
 11
683.6674184441
 21
175.9411563371
  0
LINE
  5
365
100
AcDbEntity
  8
KONSTRUKTIONSELEMENTE
100
AcDbLine
 62
7
  6
CONTINUOUS
 10
681.7325464605
 20
173.3134596636
 11
681.1668610356
 21
173.8033576122
  0
LINE
  5
366
100
AcDbEntity
  8
KONSTRUKTIONSELEMENTE
100
AcDbLine
 62
7
  6
CONTINUOUS
 10
678.1970125546
 20
176.3753218421
 11
678.7626979796
 21
175.8854238936
  0
LINE
  5
367
100
AcDbEntity
  8
KONSTRUKTIONSELEMENTE
100
AcDbLine
 62
7
  6
CONTINUOUS
 10
683.9067970996
 20
175.6798499011
 11
681.5026340435
 21
177.7619161825
  0
LINE
  5
368
100
AcDbEntity
  8
KONSTRUKTIONSELEMENTE
100
AcDbLine
 62
7
  6
CONTINUOUS
 10
686.0715815002
 20
173.8590900557
 11
683.6674184441
 21
175.9411563371
  0
LINE
  5
369
100
AcDbEntity
  8
0
100
AcDbLine
 62
7
  6
CONTINUOUS
 10
826.1290519451
 20
221.9802577348
 11
837.6438147507
 21
221.9802577348
  0
LINE
  5
36A
100
AcDbEntity
  8
KONSTRUKTIONSELEMENTE
100
AcDbLine
 62
7
  6
CONTINUOUS
 10
692.9325209319
 20
187.8648089296
 11
692.9358849766
 21
187.86204997
  0
LINE
  5
36B
100
AcDbEntity
  8
KONSTRUKTIONSELEMENTE
100
AcDbLine
 62
7
  6
CONTINUOUS
 10
692.9358849766
 20
187.86204997
 11
695.1006693772
 21
186.0412901246
  0
LINE
  5
36C
100
AcDbEntity
  8
KONSTRUKTIONSELEMENTE
100
AcDbLine
 62
7
  6
CONTINUOUS
 10
697.8214459045
 20
186.3307454048
 11
695.0163096425
 21
188.6900932758
  0
LINE
  5
36D
100
AcDbEntity
  8
KONSTRUKTIONSELEMENTE
100
AcDbLine
 62
7
  6
CONTINUOUS
 10
718.5952503593
 20
185.0596661045
 11
705.2727009665
 21
196.2650142983
  0
LINE
  5
36E
100
AcDbEntity
  8
KONSTRUKTIONSELEMENTE
100
AcDbLine
 62
7
  6
CONTINUOUS
 10
715.0597164533
 20
188.121528283
 11
701.7371670606
 21
199.3268764767
  0
LINE
  5
36F
100
AcDbEntity
  8
KONSTRUKTIONSELEMENTE
100
AcDbLine
 62
7
  6
CONTINUOUS
 10
692.2245975432
 20
188.4780016285
 11
692.9334791252
 21
187.8640921702
  0
LINE
  5
370
100
AcDbEntity
  8
BEZUGSACHSEN
100
AcDbLine
 62
7
  6
CONTINUOUS
 10
715.0597164533
 20
188.121528283
 11
718.6173773451
 21
185.0405889004
  0
LINE
  5
371
100
AcDbEntity
  8
KONSTRUKTIONSELEMENTE
100
AcDbLine
 62
7
  6
CONTINUOUS
 10
695.1039549462
 20
186.0384389081
 11
695.1006693772
 21
186.0412901246
  0
LINE
  5
372
100
AcDbEntity
  8
0
100
AcDbLine
 62
7
  6
CONTINUOUS
 10
826.3641495032
 20
247.8494914468
 11
837.4087171926
 21
247.8494914468
  0
LWPOLYLINE
  5
373
100
AcDbEntity
  8
RUNDUNGEN
100
AcDbPolyline
 62
7
  6
CONTINUOUS
 90
15
 70
0
 10
813.3881229296
 20
153.1392038693
 10
814.3983235149
 20
152.4805905226
 10
815.5894970071
 20
151.822936467
 10
816.8133031658
 20
151.2489812725
 10
818.0753692103
 20
150.7422878672
 10
819.3864522133
 20
150.2911595169
 10
820.7347972368
 20
149.8949709267
 10
822.1174747628
 20
149.5507373949
 10
823.5255160333
 20
149.2576186778
 10
824.9516426326
 20
149.0143578951
 10
826.3885371199
 20
148.8197238995
 10
827.8291498085
 20
148.672403613
 10
829.2666010753
 20
148.5709895065
 10
830.6968368137
 20
148.5138840061
 10
831.8864333476
 20
148.4991059798
  0
LWPOLYLINE
  5
374
100
AcDbEntity
  8
0
100
AcDbPolyline
 62
7
  6
CONTINUOUS
 90
15
 70
0
 10
813.388119489
 20
153.1392063084
 10
814.3971248489
 20
152.4813112097
 10
815.5855605515
 20
151.8249348356
 10
816.8038216264
 20
151.2530925615
 10
818.0599269257
 20
150.7480317166
 10
819.368087261
 20
150.2970066817
 10
820.7158607164
 20
149.9001033945
 10
822.1008420711
 20
149.554534208
 10
823.513208144
 20
149.2599462679
 10
824.9448587991
 20
149.0153941891
 10
826.3874695425
 20
148.8198505145
 10
827.8328299358
 20
148.6720865707
 10
829.2728390697
 20
148.5706463289
 10
830.701700129
 20
148.5137633209
 10
831.8864333482
 20
148.49910598
  0
LINE
  5
375
100
AcDbEntity
  8
0
100
AcDbLine
 62
7
  6
CONTINUOUS
 10
813.3886420993
 20
153.1388358978
 11
812.6573744605
 21
153.6567600729
  0
LINE
  5
376
100
AcDbEntity
  8
KONSTRUKTIONSELEMENTE
100
AcDbLine
 62
7
  6
CONTINUOUS
 10
607.0264769306
 20
95.1405309442
 11
607.0264769306
 21
87.8605309442
  0
LINE
  5
377
100
AcDbEntity
  8
BEZUGSACHSEN
100
AcDbLine
 62
7
  6
CONTINUOUS
 10
822.0284892101
 20
267.6062011076
 11
821.9954479543
 21
267.6062011076
  0
LINE
  5
378
100
AcDbEntity
  8
BEZUGSACHSEN
100
AcDbLine
 62
7
  6
CONTINUOUS
 10
841.1477914275
 20
267.6062011076
 11
841.7774187415
 21
267.6062011076
  0
LINE
  5
379
100
AcDbEntity
  8
BEZUGSACHSEN
100
AcDbLine
 62
7
  6
CONTINUOUS
 10
822.0747452193
 20
267.8489353354
 11
821.9843050714
 21
267.8489353354
  0
LINE
  5
37A
100
AcDbEntity
  8
BEZUGSACHSEN
100
AcDbLine
 62
7
  6
CONTINUOUS
 10
822.3105976461
 20
268.8603279128
 11
821.9850735784
 21
268.8603279128
  0
LINE
  5
37B
100
AcDbEntity
  8
BEZUGSACHSEN
100
AcDbLine
 62
7
  6
CONTINUOUS
 10
841.5277660292
 20
268.8603279128
 11
841.7877931174
 21
268.8603279128
  0
LINE
  5
37C
100
AcDbEntity
  8
BEZUGSACHSEN
100
AcDbLine
 62
7
  6
CONTINUOUS
 10
822.3798938006
 20
269.1435179225
 11
821.9989262785
 21
269.1435179225
  0
LINE
  5
37D
100
AcDbEntity
  8
BEZUGSACHSEN
100
AcDbLine
 62
7
  6
CONTINUOUS
 10
822.5087335705
 20
269.6700426044
 11
821.9790704484
 21
269.6700426044
  0
LINE
  5
37E
100
AcDbEntity
  8
BEZUGSACHSEN
100
AcDbLine
 62
7
  6
CONTINUOUS
 10
841.6259333023
 20
269.6700426044
 11
841.7937962474
 21
269.6700426044
  0
LINE
  5
37F
100
AcDbEntity
  8
BEZUGSACHSEN
100
AcDbLine
 62
7
  6
CONTINUOUS
 10
841.6077129351
 20
269.7348602523
 11
841.7523971561
 21
269.7348602523
  0
LINE
  5
380
100
AcDbEntity
  8
BEZUGSACHSEN
100
AcDbLine
 62
7
  6
CONTINUOUS
 10
822.5269459949
 20
269.7444706398
 11
821.9793746098
 21
269.7444706398
  0
LINE
  5
381
100
AcDbEntity
  8
BEZUGSACHSEN
100
AcDbLine
 62
7
  6
CONTINUOUS
 10
841.5398048141
 20
269.9761374554
 11
841.6703010756
 21
269.9761374554
  0
LINE
  5
382
100
AcDbEntity
  8
BEZUGSACHSEN
100
AcDbLine
 62
7
  6
CONTINUOUS
 10
822.5883377944
 20
269.9953582166
 11
822.0215285176
 21
269.9953582166
  0
LINE
  5
383
100
AcDbEntity
  8
BEZUGSACHSEN
100
AcDbLine
 62
7
  6
CONTINUOUS
 10
822.6040017988
 20
270.0193750739
 11
821.9832640373
 21
270.0193750739
  0
LINE
  5
384
100
AcDbEntity
  8
BEZUGSACHSEN
100
AcDbLine
 62
7
  6
CONTINUOUS
 10
841.7513381782
 20
270.0193750739
 11
841.7896026585
 21
270.0193750739
  0
LINE
  5
385
100
AcDbEntity
  8
BEZUGSACHSEN
100
AcDbLine
 62
7
  6
CONTINUOUS
 10
841.7244452627
 20
270.1231468341
 11
841.767608585
 21
270.1231468341
  0
LINE
  5
386
100
AcDbEntity
  8
BEZUGSACHSEN
100
AcDbLine
 62
7
  6
CONTINUOUS
 10
822.6279495011
 20
270.1572379009
 11
822.0265329876
 21
270.1572379009
  0
LINE
  5
387
100
AcDbEntity
  8
BEZUGSACHSEN
100
AcDbLine
 62
7
  6
CONTINUOUS
 10
822.701767352
 20
270.4589065583
 11
822.1100827811
 21
270.4589065583
  0
LINE
  5
388
100
AcDbEntity
  8
BEZUGSACHSEN
100
AcDbLine
 62
7
  6
CONTINUOUS
 10
841.3826282285
 20
270.533119976
 11
841.508403804
 21
270.533119976
  0
LINE
  5
389
100
AcDbEntity
  8
BEZUGSACHSEN
100
AcDbLine
 62
7
  6
CONTINUOUS
 10
841.518874598
 20
270.6915863417
 11
841.5592184031
 21
270.6915863417
  0
LINE
  5
38A
100
AcDbEntity
  8
BEZUGSACHSEN
100
AcDbLine
 62
7
  6
CONTINUOUS
 10
841.4383870737
 20
270.9238669757
 11
841.5179927562
 21
270.9238669757
  0
LINE
  5
38B
100
AcDbEntity
  8
BEZUGSACHSEN
100
AcDbLine
 62
7
  6
CONTINUOUS
 10
822.8536351742
 20
271.0795391222
 11
822.2733466735
 21
271.0795391222
  0
LINE
  5
38C
100
AcDbEntity
  8
BEZUGSACHSEN
100
AcDbLine
 62
7
  6
CONTINUOUS
 10
841.2144705632
 20
271.1273164631
 11
841.3488887407
 21
271.1273164631
  0
LINE
  5
38D
100
AcDbEntity
  8
BEZUGSACHSEN
100
AcDbLine
 62
7
  6
CONTINUOUS
 10
841.3468936851
 20
271.2953932834
 11
841.437077211
 21
271.2953932834
  0
LINE
  5
38E
100
AcDbEntity
  8
BEZUGSACHSEN
100
AcDbLine
 62
7
  6
CONTINUOUS
 10
823.0076190677
 20
271.7088193556
 11
822.4334642088
 21
271.7088193556
  0
LINE
  5
38F
100
AcDbEntity
  8
BEZUGSACHSEN
100
AcDbLine
 62
7
  6
CONTINUOUS
 10
841.2140701591
 20
271.8061650436
 11
841.3175650861
 21
271.8061650436
  0
LINE
  5
390
100
AcDbEntity
  8
BEZUGSACHSEN
100
AcDbLine
 62
7
  6
CONTINUOUS
 10
840.9957450979
 20
271.8979724205
 11
841.1520999393
 21
271.8979724205
  0
LINE
  5
391
100
AcDbEntity
  8
BEZUGSACHSEN
100
AcDbLine
 62
7
  6
CONTINUOUS
 10
841.0514620056
 20
272.4561824733
 11
841.1601474309
 21
272.4561824733
  0
LINE
  5
392
100
AcDbEntity
  8
BEZUGSACHSEN
100
AcDbLine
 62
7
  6
CONTINUOUS
 10
823.2016859587
 20
272.5019052798
 11
822.630454393
 21
272.5019052798
  0
LINE
  5
393
100
AcDbEntity
  8
BEZUGSACHSEN
100
AcDbLine
 62
7
  6
CONTINUOUS
 10
840.5370986142
 20
272.7016759357
 11
840.7409684349
 21
272.7016759357
  0
LINE
  5
394
100
AcDbEntity
  8
BEZUGSACHSEN
100
AcDbLine
 62
7
  6
CONTINUOUS
 10
840.4667810212
 20
272.9743053395
 11
840.6992782874
 21
272.9743053395
  0
LINE
  5
395
100
AcDbEntity
  8
BEZUGSACHSEN
100
AcDbLine
 62
7
  6
CONTINUOUS
 10
840.3678817417
 20
273.3577413672
 11
840.6189426133
 21
273.3577413672
  0
LINE
  5
396
100
AcDbEntity
  8
0
100
AcDbLine
 62
7
  6
CONTINUOUS
 10
826.5439557289
 20
273.7372528706
 11
837.2289109669
 21
273.7372528706
  0
LINE
  5
397
100
AcDbEntity
  8
BEZUGSACHSEN
100
AcDbLine
 62
7
  6
CONTINUOUS
 10
840.2403999547
 20
273.8519839029
 11
840.5006084219
 21
273.8519839029
  0
LINE
  5
398
100
AcDbEntity
  8
BEZUGSACHSEN
100
AcDbLine
 62
7
  6
CONTINUOUS
 10
840.1501299866
 20
274.3057711963
 11
840.3835725451
 21
274.3057711963
  0
LINE
  5
399
100
AcDbEntity
  8
BEZUGSACHSEN
100
AcDbLine
 62
7
  6
CONTINUOUS
 10
839.3167041089
 20
274.7155295798
 11
839.945992264
 21
274.7155295798
  0
LINE
  5
39A
100
AcDbEntity
  8
BEZUGSACHSEN
100
AcDbLine
 62
7
  6
CONTINUOUS
 10
840.1574502621
 20
274.7191023999
 11
840.267786934
 21
274.7191023999
  0
LINE
  5
39B
100
AcDbEntity
  8
BEZUGSACHSEN
100
AcDbLine
 62
7
  6
CONTINUOUS
 10
823.7870607728
 20
274.8941346965
 11
823.2146558998
 21
274.8941346965
  0
LINE
  5
39C
100
AcDbEntity
  8
BEZUGSACHSEN
100
AcDbLine
 62
7
  6
CONTINUOUS
 10
840.1554044502
 20
274.9407155318
 11
840.1919308736
 21
274.9407155318
  0
LINE
  5
39D
100
AcDbEntity
  8
KONSTRUKTIONSELEMENTE
100
AcDbLine
 62
7
  6
CONTINUOUS
 10
607.5921623555
 20
95.0506329957
 11
607.5921623555
 21
94.6506329957
  0
LINE
  5
39E
100
AcDbEntity
  8
KONSTRUKTIONSELEMENTE
100
AcDbLine
 62
7
  6
CONTINUOUS
 10
607.5921623555
 20
87.3706329957
 11
607.5921623555
 21
86.9706329957
  0
LINE
  5
39F
100
AcDbEntity
  8
KONSTRUKTIONSELEMENTE
100
AcDbLine
 62
7
  6
CONTINUOUS
 10
609.9963254115
 20
92.9685667143
 11
609.9963254115
 21
92.5685667143
  0
LINE
  5
3A0
100
AcDbEntity
  8
KONSTRUKTIONSELEMENTE
100
AcDbLine
 62
7
  6
CONTINUOUS
 10
609.9963254115
 20
85.2885667143
 11
609.9963254115
 21
84.8885667143
  0
LINE
  5
3A1
100
AcDbEntity
  8
KONSTRUKTIONSELEMENTE
100
AcDbLine
 62
7
  6
CONTINUOUS
 10
610.5620108365
 20
92.0786687658
 11
610.5620108365
 21
84.7986687658
  0
LINE
  5
3A2
100
AcDbEntity
  8
KONSTRUKTIONSELEMENTE
100
AcDbLine
 62
7
  6
CONTINUOUS
 10
629.6538939285
 20
94.0675081667
 11
629.6538939285
 21
100.5149135653
  0
LINE
  5
3A3
100
AcDbEntity
  8
KONSTRUKTIONSELEMENTE
100
AcDbLine
 62
7
  6
CONTINUOUS
 10
629.6538939285
 20
117.9364488865
 11
629.6538939285
 21
118.1615382844
  0
LINE
  5
3A4
100
AcDbEntity
  8
BEZUGSACHSEN
100
AcDbLine
 62
7
  6
CONTINUOUS
 10
839.3333645061
 20
275.6864664912
 11
839.9608316767
 21
275.6864664912
  0
LINE
  5
3A5
100
AcDbEntity
  8
BEZUGSACHSEN
100
AcDbLine
 62
7
  6
CONTINUOUS
 10
823.9832438307
 20
275.6958686812
 11
823.4073684988
 21
275.6958686812
  0
LINE
  5
3A6
100
AcDbEntity
  8
BEZUGSACHSEN
100
AcDbLine
 62
7
  6
CONTINUOUS
 10
839.3686708303
 20
275.7374827631
 11
839.9957706506
 21
275.7374827631
  0
LINE
  5
3A7
100
AcDbEntity
  8
BEZUGSACHSEN
100
AcDbLine
 62
7
  6
CONTINUOUS
 10
824.1414598363
 20
276.3424441292
 11
823.5594812791
 21
276.3424441292
  0
LINE
  5
3A8
100
AcDbEntity
  8
BEZUGSACHSEN
100
AcDbLine
 62
7
  6
CONTINUOUS
 10
839.3185373388
 20
276.7914036393
 11
839.943735988
 21
276.7914036393
  0
LINE
  5
3A9
100
AcDbEntity
  8
BEZUGSACHSEN
100
AcDbLine
 62
7
  6
CONTINUOUS
 10
839.3274606904
 20
276.9030456925
 11
839.9522678643
 21
276.9030456925
  0
LINE
  5
3AA
100
AcDbEntity
  8
BEZUGSACHSEN
100
AcDbLine
 62
7
  6
CONTINUOUS
 10
824.3017918995
 20
276.997667191
 11
823.70922793
 21
276.997667191
  0
LINE
  5
3AB
100
AcDbEntity
  8
BEZUGSACHSEN
100
AcDbLine
 62
7
  6
CONTINUOUS
 10
824.3840739947
 20
277.3339263603
 11
823.7826929273
 21
277.3339263603
  0
LINE
  5
3AC
100
AcDbEntity
  8
BEZUGSACHSEN
100
AcDbLine
 62
7
  6
CONTINUOUS
 10
839.327460687
 20
277.3496136922
 11
839.9507872919
 21
277.3496136922
  0
LINE
  5
3AD
100
AcDbEntity
  8
BEZUGSACHSEN
100
AcDbLine
 62
7
  6
CONTINUOUS
 10
839.3185373388
 20
277.4612556921
 11
839.9415171576
 21
277.4612556921
  0
LINE
  5
3AE
100
AcDbEntity
  8
BEZUGSACHSEN
100
AcDbLine
 62
7
  6
CONTINUOUS
 10
824.4390555378
 20
277.5150274397
 11
823.8182731293
 21
277.5150274397
  0
LINE
  5
3AF
100
AcDbEntity
  8
BEZUGSACHSEN
100
AcDbLine
 62
7
  6
CONTINUOUS
 10
824.4580945341
 20
277.6187992
 11
823.8361396954
 21
277.6187992
  0
LINE
  5
3B0
100
AcDbEntity
  8
BEZUGSACHSEN
100
AcDbLine
 62
7
  6
CONTINUOUS
 10
839.3147721617
 20
277.6187992
 11
839.9367270003
 21
277.6187992
  0
LINE
  5
3B1
100
AcDbEntity
  8
0
100
AcDbLine
 62
7
  6
CONTINUOUS
 10
826.5439557289
 20
285.89567355
 11
837.2289109669
 21
285.89567355
  0
LINE
  5
3B2
100
AcDbEntity
  8
KONSTRUKTIONSELEMENTE
100
AcDbLine
 62
7
  6
CONTINUOUS
 10
632.6237424095
 20
100.0844846566
 11
632.6237424095
 21
101.6844846566
  0
LINE
  5
3B3
100
AcDbEntity
  8
KONSTRUKTIONSELEMENTE
100
AcDbLine
 62
7
  6
CONTINUOUS
 10
632.6237424095
 20
115.3644846566
 11
632.6237424095
 21
115.5895740544
  0
LINE
  5
3B4
100
AcDbEntity
  8
KONSTRUKTIONSELEMENTE
100
AcDbLine
 62
7
  6
CONTINUOUS
 10
633.1894278345
 20
101.194586708
 11
633.1894278345
 21
91.0056459882
  0
LINE
  5
3B5
100
AcDbEntity
  8
KONSTRUKTIONSELEMENTE
100
AcDbLine
 62
7
  6
CONTINUOUS
 10
633.1894278345
 20
114.874586708
 11
633.1894278345
 21
115.0996761059
  0
LINE
  5
3B6
100
AcDbEntity
  8
0
100
AcDbLine
 62
7
  6
CONTINUOUS
 10
812.1963419085
 20
154.1118525999
 11
810.3856770035
 21
156.599339635
  0
LINE
  5
3B7
100
AcDbEntity
  8
KONSTRUKTIONSELEMENTE
100
AcDbLine
 62
7
  6
CONTINUOUS
 10
841.4844488098
 20
233.5328624208
 11
845.2936194361
 21
229.7115391968
  0
LINE
  5
3B8
100
AcDbEntity
  8
RUNDUNGEN
100
AcDbLine
 62
7
  6
CONTINUOUS
 10
841.4767791676
 20
233.5405565195
 11
841.4853320836
 21
233.5319682623
  0
LINE
  5
3B9
100
AcDbEntity
  8
RUNDUNGEN
100
AcDbLine
 62
7
  6
CONTINUOUS
 10
845.2936194215
 20
229.7115392114
 11
845.2968983561
 21
229.7082437121
  0
LINE
  5
3BA
100
AcDbEntity
  8
RUNDUNGEN
100
AcDbLine
 62
7
  6
CONTINUOUS
 10
852.9787371668
 20
212.3300323919
 11
843.0657063793
 21
227.1995785733
  0
LWPOLYLINE
  5
3BB
100
AcDbEntity
  8
RUNDUNGEN
100
AcDbPolyline
 62
7
  6
CONTINUOUS
 90
6
 70
0
 10
843.0656917896
 20
227.1995997984
 10
842.658479369
 20
227.8341801138
 10
842.1804145953
 20
228.6489705056
 10
841.7485957979
 20
229.4673014375
 10
841.3626280585
 20
230.2873192608
 10
841.2344320223
 20
230.5836031498
  0
LINE
  5
3BC
100
AcDbEntity
  8
0
100
AcDbLine
 62
7
  6
CONTINUOUS
 10
773.3864333479
 20
283.173103317
 11
773.3864333479
 21
348.1250086009
  0
LINE
  5
3BD
100
AcDbEntity
  8
KONSTRUKTIONSELEMENTE
100
AcDbLine
 62
7
  6
CONTINUOUS
 10
637.6938095094
 20
92.0156730659
 11
640.3186105951
 21
98.7696332186
  0
LINE
  5
3BE
100
AcDbEntity
  8
RUNDUNGEN
100
AcDbLine
 62
7
  6
CONTINUOUS
 10
841.2344354612
 20
230.5835964167
 11
841.2342736509
 21
230.5839792498
  0
LINE
  5
3BF
100
AcDbEntity
  8
0
100
AcDbLine
 62
7
  6
CONTINUOUS
 10
799.3864333479
 20
283.173103317
 11
799.3864333479
 21
348.1250086009
  0
LINE
  5
3C0
100
AcDbEntity
  8
KONSTRUKTIONSELEMENTE
100
AcDbLine
 62
7
  6
CONTINUOUS
 10
689.8421911277
 20
131.482759938
 11
687.5967008669
 21
125.704816677
  0
LWPOLYLINE
  5
3C1
100
AcDbEntity
  8
RUNDUNGEN
100
AcDbPolyline
 62
7
  6
CONTINUOUS
 90
3
 70
0
 10
841.9854478187
 20
233.0302650484
 10
841.9648766092
 20
233.090596516
 10
841.9172938755
 20
233.2970219713
  0
LINE
  5
3C2
100
AcDbEntity
  8
RUNDUNGEN
100
AcDbLine
 62
7
  6
CONTINUOUS
 10
837.7877794256
 20
220.4097165934
 11
837.6438147507
 21
221.9802577348
  0
LINE
  5
3C3
100
AcDbEntity
  8
0
100
AcDbLine
 62
7
  6
CONTINUOUS
 10
826.0753107437
 20
255.1946232351
 11
826.3641495032
 21
247.8494914468
  0
LINE
  5
3C4
100
AcDbEntity
  8
0
100
AcDbLine
 62
7
  6
CONTINUOUS
 10
809.3864333479
 20
178.1804744061
 11
809.3864333479
 21
165.1412928054
  0
LINE
  5
3C5
100
AcDbEntity
  8
0
100
AcDbLine
 62
7
  6
CONTINUOUS
 10
809.3864333479
 20
165.0017209127
 11
809.3864333479
 21
159.623666488
  0
LINE
  5
3C6
100
AcDbEntity
  8
0
100
AcDbLine
 62
7
  6
CONTINUOUS
 10
809.3864333479
 20
189.6060401707
 11
809.3864333479
 21
207.7565303843
  0
LINE
  5
3C7
100
AcDbEntity
  8
0
100
AcDbLine
 62
7
  6
CONTINUOUS
 10
813.8864333479
 20
731.4801442849
 11
813.8864333479
 21
345.6063508819
  0
LINE
  5
3C8
100
AcDbEntity
  8
0
100
AcDbLine
 62
7
  6
CONTINUOUS
 10
813.9306827325
 20
181.2173863967
 11
813.9306827325
 21
176.601471081
  0
LINE
  5
3C9
100
AcDbEntity
  8
0
100
AcDbLine
 62
7
  6
CONTINUOUS
 10
816.8864333479
 20
225.91326442
 11
816.8864333479
 21
221.4684881204
  0
LINE
  5
3CA
100
AcDbEntity
  8
0
100
AcDbLine
 62
7
  6
CONTINUOUS
 10
821.8864292311
 20
233.6483466399
 11
821.8864333479
 21
266.1507776423
  0
LINE
  5
3CB
100
AcDbEntity
  8
KONSTRUKTIONSELEMENTE
100
AcDbLine
 62
7
  6
CONTINUOUS
 10
693.7570358585
 20
129.3969146513
 11
691.1322347728
 21
122.6429544985
  0
LINE
  5
3CC
100
AcDbEntity
  8
KONSTRUKTIONSELEMENTE
100
AcDbLine
 62
7
  6
CONTINUOUS
 10
717.0535956054
 20
174.9698497214
 11
700.2666370402
 21
131.7747863494
  0
LINE
  5
3CD
100
AcDbEntity
  8
KONSTRUKTIONSELEMENTE
100
AcDbLine
 62
7
  6
CONTINUOUS
 10
837.5541605314
 20
284.8314492111
 11
839.3188411222
 21
277.6197948683
  0
LWPOLYLINE
  5
3CE
100
AcDbEntity
  8
RUNDUNGEN
100
AcDbPolyline
 62
7
  6
CONTINUOUS
 90
3
 70
0
 10
841.9172938755
 20
233.2970219713
 10
841.8894065542
 20
233.5432687972
 10
841.8864402382
 20
233.6487666951
  0
LINE
  5
3CF
100
AcDbEntity
  8
0
100
AcDbLine
 62
7
  6
CONTINUOUS
 10
846.8863981807
 20
225.9156414161
 11
846.8625680033
 21
226.4127662072
  0
LWPOLYLINE
  5
3D0
100
AcDbEntity
  8
KONSTRUKTIONSELEMENTE
100
AcDbPolyline
 62
7
  6
CONTINUOUS
 90
9
 70
0
 10
846.8863981811
 20
225.9156406943
 10
846.8625654313
 20
226.4128198625
 10
846.7792716261
 20
226.9693318283
 10
846.637680336
 20
227.5126630534
 10
846.4385531531
 20
228.0403022614
 10
846.1827763685
 20
228.5482257962
 10
845.8714322414
 20
229.0318683162
 10
845.5044243631
 20
229.4882603337
 10
845.296891214
 20
229.7082366079
  0
LINE
  5
3D1
100
AcDbEntity
  8
0
100
AcDbLine
 62
7
  6
CONTINUOUS
 10
837.4087171926
 20
247.8494914468
 11
837.6438147507
 21
221.9802577348
  0
LINE
  5
3D2
100
AcDbEntity
  8
RUNDUNGEN
100
AcDbLine
 62
7
  6
CONTINUOUS
 10
846.886432595
 20
225.9156407138
 11
846.8864333479
 21
225.91326442
  0
LINE
  5
3D3
100
AcDbEntity
  8
0
100
AcDbLine
 62
7
  6
CONTINUOUS
 10
825.942736404
 20
219.4856874489
 11
825.942736404
 21
219.3060879499
  0
LINE
  5
3D4
100
AcDbEntity
  8
RUNDUNGEN
100
AcDbLine
 62
7
  6
CONTINUOUS
 10
837.8301302918
 20
219.4856874489
 11
837.8301302918
 21
219.3060879499
  0
LINE
  5
3D5
100
AcDbEntity
  8
BEZUGSACHSEN
100
AcDbLine
 62
7
  6
CONTINUOUS
 10
841.8864333479
 20
266.1507776423
 11
841.8864333479
 21
248.4205770754
  0
LINE
  5
3D6
100
AcDbEntity
  8
RUNDUNGEN
100
AcDbLine
 62
7
  6
CONTINUOUS
 10
841.8864333479
 20
248.4205770505
 11
841.8864364401
 21
233.6487666862
  0
LINE
  5
3D7
100
AcDbEntity
  8
KONSTRUKTIONSELEMENTE
100
AcDbLine
 62
7
  6
CONTINUOUS
 10
841.8864333479
 20
248.4205770754
 11
841.8864333479
 21
233.6552809891
  0
LINE
  5
3D8
100
AcDbEntity
  8
KONSTRUKTIONSELEMENTE
100
AcDbLine
 62
7
  6
CONTINUOUS
 10
846.8864333479
 20
221.4684881204
 11
846.8864333479
 21
225.91326442
  0
LINE
  5
3D9
100
AcDbEntity
  8
0
100
AcDbLine
 62
7
  6
CONTINUOUS
 10
826.3641495032
 20
247.8494914468
 11
826.1290519451
 21
221.9802577348
  0
LWPOLYLINE
  5
3DA
100
AcDbEntity
  8
0
100
AcDbPolyline
 62
7
  6
CONTINUOUS
 90
3
 70
0
 10
821.8864254343
 20
233.6483466495
 10
821.88410112
 20
233.5560381239
 10
821.8572788333
 20
233.3069252397
  0
LINE
  5
3DB
100
AcDbEntity
  8
0
100
AcDbLine
 62
7
  6
CONTINUOUS
 10
837.6975559521
 20
255.1946232351
 11
837.4087171926
 21
247.8494914468
  0
LINE
  5
3DC
100
AcDbEntity
  8
KONSTRUKTIONSELEMENTE
100
AcDbLine
 62
7
  6
CONTINUOUS
 10
816.9102986924
 20
226.4127662072
 11
816.8864685147
 21
225.9156406943
  0
LINE
  5
3DD
100
AcDbEntity
  8
0
100
AcDbLine
 62
7
  6
CONTINUOUS
 10
825.9850872702
 20
220.4097165934
 11
826.1290519451
 21
221.9802577348
  0
LINE
  5
3DE
100
AcDbEntity
  8
KONSTRUKTIONSELEMENTE
100
AcDbLine
 62
7
  6
CONTINUOUS
 10
849.8421839632
 20
181.2173863967
 11
849.8421839632
 21
176.601471081
  0
LINE
  5
3DF
100
AcDbEntity
  8
0
100
AcDbLine
 62
7
  6
CONTINUOUS
 10
849.8864333479
 20
731.4801442849
 11
849.8864333479
 21
345.6063508819
  0
LINE
  5
3E0
100
AcDbEntity
  8
KONSTRUKTIONSELEMENTE
100
AcDbLine
 62
7
  6
CONTINUOUS
 10
854.3864333479
 20
195.123666488
 11
854.3864333479
 21
189.6060401707
  0
LINE
  5
3E1
100
AcDbEntity
  8
KONSTRUKTIONSELEMENTE
100
AcDbLine
 62
7
  6
CONTINUOUS
 10
854.3864333479
 20
178.1804744061
 11
854.3864333479
 21
165.1412928054
  0
LINE
  5
3E2
100
AcDbEntity
  8
RUNDUNGEN
100
AcDbLine
 62
7
  6
CONTINUOUS
 10
854.3864333479
 20
165.0017209127
 11
854.3864333479
 21
159.623666488
  0
LINE
  5
3E3
100
AcDbEntity
  8
RUNDUNGEN
100
AcDbLine
 62
7
  6
CONTINUOUS
 10
854.3864333479
 20
189.6060401707
 11
854.3864333479
 21
207.7565303843
  0
LINE
  5
3E4
100
AcDbEntity
  8
0
100
AcDbLine
 62
7
  6
CONTINUOUS
 10
864.3864333479
 20
348.1250086009
 11
864.3864333479
 21
283.173103317
  0
LWPOLYLINE
  5
3E5
100
AcDbEntity
  8
0
100
AcDbPolyline
 62
7
  6
CONTINUOUS
 90
3
 70
0
 10
821.8572788333
 20
233.3069252397
 10
821.8099279917
 20
233.0973474035
 10
821.7872260512
 20
233.0300716073
  0
LINE
  5
3E6
100
AcDbEntity
  8
BEZUGSACHSEN
100
AcDbLine
 62
7
  6
CONTINUOUS
 10
821.9874027421
 20
270.0793716578
 11
822.2074728841
 21
270.9787240977
  0
LINE
  5
3E7
100
AcDbEntity
  8
BEZUGSACHSEN
100
AcDbLine
 62
7
  6
CONTINUOUS
 10
823.5894475635
 20
276.6263884684
 11
823.82432766
 21
277.5862641973
  0
LINE
  5
3E8
100
AcDbEntity
  8
0
100
AcDbLine
 62
7
  6
CONTINUOUS
 10
822.1156967894
 20
268.0638338522
 11
826.2187061644
 21
284.8314492111
  0
LINE
  5
3E9
100
AcDbEntity
  8
BEZUGSACHSEN
100
AcDbLine
 62
7
  6
CONTINUOUS
 10
822.2271596264
 20
271.0540956831
 11
822.2210630561
 21
271.0342695742
  0
LINE
  5
3EA
100
AcDbEntity
  8
KONSTRUKTIONSELEMENTE
100
AcDbLine
 62
7
  6
CONTINUOUS
 10
694.3461308005
 20
195.0908357158
 11
691.7330048707
 21
192.0624354126
  0
LINE
  5
3EB
100
AcDbEntity
  8
KONSTRUKTIONSELEMENTE
100
AcDbLine
 62
7
  6
CONTINUOUS
 10
678.1970125546
 20
176.3753218421
 11
633.1459637774
 21
124.1648224467
  0
LINE
  5
3EC
100
AcDbEntity
  8
KONSTRUKTIONSELEMENTE
100
AcDbLine
 62
7
  6
CONTINUOUS
 10
678.7626979796
 20
175.8854238936
 11
679.2853231655
 21
176.4911039542
  0
LINE
  5
3ED
100
AcDbEntity
  8
KONSTRUKTIONSELEMENTE
100
AcDbLine
 62
7
  6
CONTINUOUS
 10
681.1668610356
 20
173.8033576122
 11
681.6894862216
 21
174.4090376728
  0
LINE
  5
3EE
100
AcDbEntity
  8
KONSTRUKTIONSELEMENTE
100
AcDbLine
 62
7
  6
CONTINUOUS
 10
683.7565054859
 20
175.8910116506
 11
692.7180364407
 21
186.276696761
  0
LINE
  5
3EF
100
AcDbEntity
  8
KONSTRUKTIONSELEMENTE
100
AcDbLine
 62
7
  6
CONTINUOUS
 10
697.8816647064
 20
192.0289735373
 11
695.2685387767
 21
189.0005732341
  0
LINE
  5
3F0
100
AcDbEntity
  8
KONSTRUKTIONSELEMENTE
100
AcDbLine
 62
7
  6
CONTINUOUS
 10
681.7325464605
 20
173.3134596636
 11
636.6814976834
 21
121.1029602682
  0
LINE
  5
3F1
100
AcDbEntity
  8
KONSTRUKTIONSELEMENTE
100
AcDbLine
 62
7
  6
CONTINUOUS
 10
686.1983916344
 20
172.7071820414
 11
688.2888923782
 21
175.129902284
  0
LINE
  5
3F2
100
AcDbEntity
  8
KONSTRUKTIONSELEMENTE
100
AcDbLine
 62
7
  6
CONTINUOUS
 10
696.2535703466
 20
183.2148345825
 11
686.7640770593
 21
172.2172840929
  0
LINE
  5
3F3
100
AcDbEntity
  8
0
100
AcDbLine
 62
7
  6
CONTINUOUS
 10
890.3864333479
 20
348.1250086009
 11
890.3864333479
 21
283.173103317
  0
LINE
  5
3F4
100
AcDbEntity
  8
0
100
AcDbLine
 62
7
  6
CONTINUOUS
 10
822.5384738195
 20
230.5836971681
 11
822.5385930449
 21
230.5839792498
  0
LWPOLYLINE
  5
3F5
100
AcDbEntity
  8
0
100
AcDbPolyline
 62
7
  6
CONTINUOUS
 90
6
 70
0
 10
822.5384772526
 20
230.5837038869
 10
822.446155476
 20
230.36896126
 10
822.0549223455
 20
229.5290032309
 10
821.6154089666
 20
228.690309204
 10
821.1271502259
 20
227.8548863497
 10
820.7071755986
 20
227.199600837
  0
LINE
  5
3F6
100
AcDbEntity
  8
KONSTRUKTIONSELEMENTE
100
AcDbLine
 62
7
  6
CONTINUOUS
 10
712.8700734941
 20
190.4513843671
 11
715.6985006189
 21
192.9008741099
  0
LINE
  5
3F7
100
AcDbEntity
  8
KONSTRUKTIONSELEMENTE
100
AcDbLine
 62
7
  6
CONTINUOUS
 10
766.9637422549
 20
237.2978756978
 11
769.7921693797
 21
239.7473654406
  0
LINE
  5
3F8
100
AcDbEntity
  8
KONSTRUKTIONSELEMENTE
100
AcDbLine
 62
7
  6
CONTINUOUS
 10
770.1457227703
 20
240.0535516584
 11
772.974149895
 21
242.5030414012
  0
LINE
  5
3F9
100
AcDbEntity
  8
0
100
AcDbLine
 62
7
  6
CONTINUOUS
 10
820.7071603165
 20
227.1995785733
 11
810.7941295289
 21
212.3300323919
  0
LINE
  5
3FA
100
AcDbEntity
  8
KONSTRUKTIONSELEMENTE
100
AcDbLine
 62
7
  6
CONTINUOUS
 10
736.1914839957
 20
210.3175993996
 11
746.7980857135
 21
219.503185935
  0
LINE
  5
3FB
100
AcDbEntity
  8
KONSTRUKTIONSELEMENTE
100
AcDbLine
 62
7
  6
CONTINUOUS
 10
626.1331087893
 20
112.3075636175
 11
609.2892186304
 21
97.7203268414
  0
LINE
  5
3FC
100
AcDbEntity
  8
KONSTRUKTIONSELEMENTE
100
AcDbLine
 62
7
  6
CONTINUOUS
 10
607.0264769306
 20
95.1405309442
 11
607.8054638357
 21
95.8151533933
  0
LINE
  5
3FD
100
AcDbEntity
  8
KONSTRUKTIONSELEMENTE
100
AcDbLine
 62
7
  6
CONTINUOUS
 10
766.4202988914
 20
232.3292380151
 11
755.8136971736
 21
223.1436514797
  0
LINE
  5
3FE
100
AcDbEntity
  8
KONSTRUKTIONSELEMENTE
100
AcDbLine
 62
7
  6
CONTINUOUS
 10
735.3076005192
 20
205.3848508445
 11
724.7009988014
 21
196.199264309
  0
LINE
  5
3FF
100
AcDbEntity
  8
KONSTRUKTIONSELEMENTE
100
AcDbLine
 62
7
  6
CONTINUOUS
 10
739.9256345475
 20
207.5985281891
 11
749.7440272317
 21
216.101505678
  0
LINE
  5
400
100
AcDbEntity
  8
KONSTRUKTIONSELEMENTE
100
AcDbLine
 62
7
  6
CONTINUOUS
 10
716.4387240882
 20
186.9275481611
 11
718.9717689724
 21
189.1212293798
  0
LINE
  5
401
100
AcDbEntity
  8
KONSTRUKTIONSELEMENTE
100
AcDbLine
 62
7
  6
CONTINUOUS
 10
771.39353888
 20
234.519813831
 11
773.0654377332
 21
235.9677207105
  0
LINE
  5
402
100
AcDbEntity
  8
KONSTRUKTIONSELEMENTE
100
AcDbLine
 62
7
  6
CONTINUOUS
 10
773.4189911238
 20
236.2739069283
 11
774.6834793848
 21
237.3689858851
  0
LINE
  5
403
100
AcDbEntity
  8
KONSTRUKTIONSELEMENTE
100
AcDbLine
 62
7
  6
CONTINUOUS
 10
628.5372718453
 20
110.2254973362
 11
611.6933816864
 21
95.63826056
  0
LINE
  5
404
100
AcDbEntity
  8
KONSTRUKTIONSELEMENTE
100
AcDbLine
 62
7
  6
CONTINUOUS
 10
609.9963254115
 20
92.5685667143
 11
628.0982590099
 21
108.2453010681
  0
LINE
  5
405
100
AcDbEntity
  8
KONSTRUKTIONSELEMENTE
100
AcDbLine
 62
7
  6
CONTINUOUS
 10
610.5620108365
 20
92.0786687658
 11
628.6639444349
 21
107.7554031196
  0
LINE
  5
406
100
AcDbEntity
  8
KONSTRUKTIONSELEMENTE
100
AcDbLine
 62
7
  6
CONTINUOUS
 10
769.3662404096
 20
228.927557758
 11
758.7596386918
 21
219.7419712226
  0
LINE
  5
407
100
AcDbEntity
  8
KONSTRUKTIONSELEMENTE
100
AcDbLine
 62
7
  6
CONTINUOUS
 10
738.2535420374
 20
201.9831705874
 11
727.6469403196
 21
192.797584052
  0
LINE
  5
408
100
AcDbEntity
  8
KONSTRUKTIONSELEMENTE
100
AcDbLine
 62
7
  6
CONTINUOUS
 10
781.1058778787
 20
235.4607583907
 11
775.0954702386
 21
230.2555926873
  0
LINE
  5
409
100
AcDbEntity
  8
KONSTRUKTIONSELEMENTE
100
AcDbLine
 62
7
  6
CONTINUOUS
 10
723.8302286025
 20
185.8585910994
 11
717.8198209625
 21
180.6534253959
  0
LINE
  5
40A
100
AcDbEntity
  8
KONSTRUKTIONSELEMENTE
100
AcDbLine
 62
7
  6
CONTINUOUS
 10
754.9298136971
 20
212.4609029245
 11
744.3232119793
 21
203.2753163891
  0
LINE
  5
40B
100
AcDbEntity
  8
KONSTRUKTIONSELEMENTE
100
AcDbLine
 62
7
  6
CONTINUOUS
 10
729.5298111262
 20
188.6781980025
 11
738.2535420374
 21
196.2331705874
  0
LINE
  5
40C
100
AcDbEntity
  8
KONSTRUKTIONSELEMENTE
100
AcDbLine
 62
7
  6
CONTINUOUS
 10
760.2528373742
 20
215.2851192145
 11
769.3662404096
 21
223.177557758
  0
LINE
  5
40D
100
AcDbEntity
  8
KONSTRUKTIONSELEMENTE
100
AcDbLine
 62
7
  6
CONTINUOUS
 10
610.5620108365
 20
84.7986687658
 11
628.6639444349
 21
100.4754031196
  0
LINE
  5
40E
100
AcDbEntity
  8
KONSTRUKTIONSELEMENTE
100
AcDbLine
 62
7
  6
CONTINUOUS
 10
611.6933816864
 20
85.15826056
 11
628.0982590099
 21
99.3653010681
  0
LINE
  5
40F
100
AcDbEntity
  8
KONSTRUKTIONSELEMENTE
100
AcDbLine
 62
7
  6
CONTINUOUS
 10
757.8757552153
 20
209.0592226675
 11
747.2691534975
 21
199.873636132
  0
LINE
  5
410
100
AcDbEntity
  8
KONSTRUKTIONSELEMENTE
100
AcDbLine
 62
7
  6
CONTINUOUS
 10
784.3791462322
 20
231.6811136606
 11
778.3687385921
 21
226.4759479572
  0
LINE
  5
411
100
AcDbEntity
  8
KONSTRUKTIONSELEMENTE
100
AcDbLine
 62
7
  6
CONTINUOUS
 10
727.1034969561
 20
182.0789463693
 11
721.093089316
 21
176.8737806658
  0
LWPOLYLINE
  5
412
100
AcDbEntity
  8
0
100
AcDbPolyline
 62
7
  6
CONTINUOUS
 90
9
 70
0
 10
818.4759756256
 20
229.7082367526
 10
818.2684269465
 20
229.488243127
 10
817.9014031599
 20
229.0318248964
 10
817.5900420543
 20
228.548141319
 10
817.3342583161
 20
228.0401764493
 10
817.1351371152
 20
227.512508203
 10
816.9935634917
 20
226.9691775201
 10
816.9102916454
 20
226.4127191158
 10
816.8864685151
 20
225.9156414161
  0
LINE
  5
413
100
AcDbEntity
  8
0
100
AcDbLine
 62
7
  6
CONTINUOUS
 10
818.4759684834
 20
229.7082438569
 11
822.2951887764
 21
233.5396547542
  0
LINE
  5
414
100
AcDbEntity
  8
KONSTRUKTIONSELEMENTE
100
AcDbLine
 62
7
  6
CONTINUOUS
 10
647.7096468552
 20
107.3352427807
 11
690.6955683996
 21
131.9718579185
  0
LINE
  5
415
100
AcDbEntity
  8
RUNDUNGEN
100
AcDbLine
 62
7
  6
CONTINUOUS
 10
853.3871896923
 20
156.599339635
 11
851.5765247872
 21
154.1118525999
  0
LINE
  5
416
100
AcDbEntity
  8
KONSTRUKTIONSELEMENTE
100
AcDbLine
 62
7
  6
CONTINUOUS
 10
635.8084802211
 20
90.5021732914
 11
636.9547058834
 21
91.1591121096
  0
LINE
  5
417
100
AcDbEntity
  8
KONSTRUKTIONSELEMENTE
100
AcDbLine
 62
7
  6
CONTINUOUS
 10
691.4383815187
 20
122.3854601718
 11
692.8756007801
 21
123.2091767873
  0
LINE
  5
418
100
AcDbEntity
  8
RUNDUNGEN
100
AcDbLine
 62
7
  6
CONTINUOUS
 10
851.1154922353
 20
153.6567600729
 11
850.3842245965
 21
153.1388358978
  0
ARC
  5
419
100
AcDbEntity
  8
KONSTRUKTIONSELEMENTE
100
AcDbCircle
 62
7
  6
CONTINUOUS
 10
125.1515841464
 20
117.5564499998
 40
56.0
100
AcDbArc
 50
69.0410961486
 51
83.5499984999
  0
ARC
  5
41A
100
AcDbEntity
  8
KONSTRUKTIONSELEMENTE
100
AcDbCircle
 62
7
  6
CONTINUOUS
 10
125.1515841464
 20
117.5564499998
 40
56.0
100
AcDbArc
 50
36.4500015001
 51
50.9589038514
  0
ARC
  5
41B
100
AcDbEntity
  8
BEZUGSACHSEN
100
AcDbCircle
 62
7
  6
CONTINUOUS
 10
194.5704035214
 20
237.7933721587
 40
20.0
100
AcDbArc
 50
100.5823106118
 51
19.4176893882
  0
ARC
  5
41C
100
AcDbEntity
  8
0
100
AcDbCircle
 62
7
  6
CONTINUOUS
 10
198.0204035214
 20
243.7689474448
 40
13.0
100
AcDbArc
 50
150.0
 51
330.0
  0
ARC
  5
41D
100
AcDbEntity
  8
KONSTRUKTIONSELEMENTE
100
AcDbCircle
 62
7
  6
CONTINUOUS
 10
172.6704035214
 20
199.861459473
 40
8.8
100
AcDbArc
 50
330.0
 51
150.0
  0
ARC
  5
41E
100
AcDbEntity
  8
KONSTRUKTIONSELEMENTE
100
AcDbCircle
 62
7
  6
CONTINUOUS
 10
101.2507333122
 20
109.6496336153
 40
8.2295991091
100
AcDbArc
 50
41.4716087129
 51
47.9053340862
  0
ARC
  5
41F
100
AcDbEntity
  8
BEZUGSACHSEN
100
AcDbCircle
 62
7
  6
CONTINUOUS
 10
161.1926569964
 20
179.9814193354
 40
7.7701622262
100
AcDbArc
 50
235.5729048645
 51
244.4270951355
  0
ARC
  5
420
100
AcDbEntity
  8
KONSTRUKTIONSELEMENTE
100
AcDbCircle
 62
7
  6
CONTINUOUS
 10
130.4668140669
 20
93.7456141202
 40
7.4828140786
100
AcDbArc
 50
81.2384503883
 51
82.1140025065
  0
ARC
  5
421
100
AcDbEntity
  8
KONSTRUKTIONSELEMENTE
100
AcDbCircle
 62
7
  6
CONTINUOUS
 10
130.4876118303
 20
93.8990299675
 40
7.3279955905
100
AcDbArc
 50
82.1105000658
 51
83.9508226432
  0
ARC
  5
422
100
AcDbEntity
  8
KONSTRUKTIONSELEMENTE
100
AcDbCircle
 62
7
  6
CONTINUOUS
 10
108.2413683553
 20
109.3869864863
 40
3.2805025749
100
AcDbArc
 50
339.1122156589
 51
339.8872067218
  0
ARC
  5
423
100
AcDbEntity
  8
KONSTRUKTIONSELEMENTE
100
AcDbCircle
 62
7
  6
CONTINUOUS
 10
108.2932626224
 20
109.3661828208
 40
3.2246015936
100
AcDbArc
 50
330.0312035642
 51
339.1288137427
  0
CIRCLE
  5
424
100
AcDbEntity
  8
BEZUGSACHSEN
100
AcDbCircle
 62
7
  6
CONTINUOUS
 10
185.4530894235
 20
168.0017209127
 40
3.0
  0
ARC
  5
425
100
AcDbEntity
  8
RUNDUNGEN
100
AcDbCircle
 62
7
  6
CONTINUOUS
 10
204.992508586
 20
174.8449876525
 40
3.0
100
AcDbArc
 50
120.0
 51
150.0
  0
ARC
  5
426
100
AcDbEntity
  8
RUNDUNGEN
100
AcDbCircle
 62
7
  6
CONTINUOUS
 10
134.8444508794
 20
215.3449876525
 40
3.0
100
AcDbArc
 50
330.0
 51
360.0
  0
ARC
  5
427
100
AcDbEntity
  8
KONSTRUKTIONSELEMENTE
100
AcDbCircle
 62
7
  6
CONTINUOUS
 10
168.4026862412
 20
192.4695563113
 40
2.5
100
AcDbArc
 50
330.0
 51
150.0
  0
ARC
  5
428
100
AcDbEntity
  8
KONSTRUKTIONSELEMENTE
100
AcDbCircle
 62
7
  6
CONTINUOUS
 10
188.2853070592
 20
226.9072657557
 40
2.5
100
AcDbArc
 50
150.0
 51
330.0
  0
ARC
  5
429
100
AcDbEntity
  8
KONSTRUKTIONSELEMENTE
100
AcDbCircle
 62
7
  6
CONTINUOUS
 10
172.8173462207
 20
200.115971694
 40
2.25
100
AcDbArc
 50
150.0
 51
330.0
  0
ARC
  5
42A
100
AcDbEntity
  8
KONSTRUKTIONSELEMENTE
100
AcDbCircle
 62
7
  6
CONTINUOUS
 10
183.8706470796
 20
219.260850373
 40
2.25
100
AcDbArc
 50
11.3031628639
 51
108.6968371361
  0
ARC
  5
42B
100
AcDbEntity
  8
0
100
AcDbCircle
 62
7
  6
CONTINUOUS
 10
128.8722984938
 20
176.9972952818
 40
2.0
100
AcDbArc
 50
190.0000172178
 51
240.0000110674
  0
ARC
  5
42C
100
AcDbEntity
  8
0
100
AcDbCircle
 62
7
  6
CONTINUOUS
 10
174.7685094191
 20
150.4991059351
 40
2.0
100
AcDbArc
 50
239.9999809015
 51
289.9999702881
  0
ARC
  5
42D
100
AcDbEntity
  8
RUNDUNGEN
100
AcDbCircle
 62
7
  6
CONTINUOUS
 10
187.92827559
 20
155.2888691112
 40
2.0
100
AcDbArc
 50
290.0
 51
329.9999999998
  0
ARC
  5
42E
100
AcDbEntity
  8
RUNDUNGEN
100
AcDbCircle
 62
7
  6
CONTINUOUS
 10
126.4404719213
 20
190.7888691112
 40
2.0
100
AcDbArc
 50
150.0
 51
190.0
  0
ARC
  5
42F
100
AcDbEntity
  8
KONSTRUKTIONSELEMENTE
100
AcDbCircle
 62
7
  6
CONTINUOUS
 10
114.6609991505
 20
172.6974453575
 40
1.2681615075
100
AcDbArc
 50
311.2144804733
 51
316.8145490438
  0
ARC
  5
430
100
AcDbEntity
  8
0
100
AcDbCircle
 62
7
  6
CONTINUOUS
 10
281.0204035214
 20
387.529164473
 40
13.0
100
AcDbArc
 50
330.0
 51
150.0
  0
ARC
  5
431
100
AcDbEntity
  8
KONSTRUKTIONSELEMENTE
100
AcDbCircle
 62
7
  6
CONTINUOUS
 10
518.8892228964
 20
117.5564499998
 40
56.0
100
AcDbArc
 50
96.4500015001
 51
110.9589038514
  0
ARC
  5
432
100
AcDbEntity
  8
KONSTRUKTIONSELEMENTE
100
AcDbCircle
 62
7
  6
CONTINUOUS
 10
518.8892228964
 20
117.5564499998
 40
56.0
100
AcDbArc
 50
129.0410961486
 51
143.5499984999
  0
ARC
  5
433
100
AcDbEntity
  8
0
100
AcDbCircle
 62
7
  6
CONTINUOUS
 10
449.4704035214
 20
237.7933721587
 40
20.0
100
AcDbArc
 50
160.5823106118
 51
79.4176893882
  0
ARC
  5
434
100
AcDbEntity
  8
0
100
AcDbCircle
 62
7
  6
CONTINUOUS
 10
446.0204035214
 20
243.7689474448
 40
13.0
100
AcDbArc
 50
210.0
 51
30.0
  0
ARC
  5
435
100
AcDbEntity
  8
0
100
AcDbCircle
 62
7
  6
CONTINUOUS
 10
471.3704035214
 20
199.861459473
 40
8.8
100
AcDbArc
 50
30.0
 51
210.0
  0
ARC
  5
436
100
AcDbEntity
  8
0
100
AcDbCircle
 62
7
  6
CONTINUOUS
 10
439.0482984567
 20
174.8449876525
 40
3.0
100
AcDbArc
 50
30.0
 51
60.0
  0
ARC
  5
437
100
AcDbEntity
  8
0
100
AcDbCircle
 62
7
  6
CONTINUOUS
 10
509.1963561633
 20
215.3449876525
 40
3.0
100
AcDbArc
 50
180.0
 51
210.0
  0
CIRCLE
  5
438
100
AcDbEntity
  8
BEZUGSACHSEN
100
AcDbCircle
 62
7
  6
CONTINUOUS
 10
458.5877176192
 20
168.0017209127
 40
3.0
  0
ARC
  5
439
100
AcDbEntity
  8
0
100
AcDbCircle
 62
7
  6
CONTINUOUS
 10
456.1125314527
 20
155.2888691112
 40
2.0
100
AcDbArc
 50
210.0000000002
 51
250.0
  0
ARC
  5
43A
100
AcDbEntity
  8
0
100
AcDbCircle
 62
7
  6
CONTINUOUS
 10
517.6003351214
 20
190.7888691112
 40
2.0
100
AcDbArc
 50
350.0
 51
30.0
  0
ARC
  5
43B
100
AcDbEntity
  8
0
100
AcDbCircle
 62
7
  6
CONTINUOUS
 10
515.1685085489
 20
176.9972952818
 40
2.0
100
AcDbArc
 50
299.9999889326
 51
349.9999827822
  0
ARC
  5
43C
100
AcDbEntity
  8
0
100
AcDbCircle
 62
7
  6
CONTINUOUS
 10
469.2722976236
 20
150.4991059351
 40
2.0
100
AcDbArc
 50
250.0000297119
 51
300.0000190985
  0
ARC
  5
43D
100
AcDbEntity
  8
RUNDUNGEN
100
AcDbCircle
 62
7
  6
CONTINUOUS
 10
456.1125314527
 20
155.2888691112
 40
2.0
100
AcDbArc
 50
210.0000000002
 51
250.0
  0
ARC
  5
43E
100
AcDbEntity
  8
0
100
AcDbCircle
 62
7
  6
CONTINUOUS
 10
322.0204035214
 20
458.5432475834
 40
131.0
100
AcDbArc
 50
180.0
 51
234.3038731181
  0
ARC
  5
43F
100
AcDbEntity
  8
0
100
AcDbCircle
 62
7
  6
CONTINUOUS
 10
322.0204035214
 20
458.5432475834
 40
131.0
100
AcDbArc
 50
245.6956276962
 51
294.3043723038
  0
ARC
  5
440
100
AcDbEntity
  8
0
100
AcDbCircle
 62
7
  6
CONTINUOUS
 10
322.0204035214
 20
458.5432475834
 40
131.0
100
AcDbArc
 50
305.6961268819
 51
360.0
  0
ARC
  5
441
100
AcDbEntity
  8
0
100
AcDbCircle
 62
7
  6
CONTINUOUS
 10
322.0204035214
 20
618.5432475834
 40
131.0
100
AcDbArc
 50
0.0
 51
180.0
  0
ARC
  5
442
100
AcDbEntity
  8
0
100
AcDbCircle
 62
7
  6
CONTINUOUS
 10
322.0204035214
 20
618.5432475834
 40
95.0
100
AcDbArc
 50
0.0
 51
180.0
  0
ARC
  5
443
100
AcDbEntity
  8
0
100
AcDbCircle
 62
7
  6
CONTINUOUS
 10
322.0204035214
 20
458.5432475834
 40
95.0
100
AcDbArc
 50
180.0
 51
232.1335889624
  0
ARC
  5
444
100
AcDbEntity
  8
0
100
AcDbCircle
 62
7
  6
CONTINUOUS
 10
322.0204035214
 20
458.5432475834
 40
95.0
100
AcDbArc
 50
247.8659353461
 51
292.1340646539
  0
ARC
  5
445
100
AcDbEntity
  8
0
100
AcDbCircle
 62
7
  6
CONTINUOUS
 10
322.0204035214
 20
458.5432475834
 40
95.0
100
AcDbArc
 50
307.8664110376
 51
360.0
  0
ARC
  5
446
100
AcDbEntity
  8
0
100
AcDbCircle
 62
7
  6
CONTINUOUS
 10
363.0204035214
 20
387.529164473
 40
13.0
100
AcDbArc
 50
30.0
 51
210.0
  0
ARC
  5
447
100
AcDbEntity
  8
BEZUGSACHSEN
100
AcDbCircle
 62
7
  6
CONTINUOUS
 10
83.9630482786
 20
56.5317670996
 40
787.0712196694
100
AcDbArc
 50
15.6720180444
 51
15.8197896934
  0
ARC
  5
448
100
AcDbEntity
  8
BEZUGSACHSEN
100
AcDbCircle
 62
7
  6
CONTINUOUS
 10
641.2117018418
 20
212.0111583543
 40
208.6710061532
100
AcDbArc
 50
16.1278519374
 51
16.2871148444
  0
ARC
  5
449
100
AcDbEntity
  8
KONSTRUKTIONSELEMENTE
100
AcDbCircle
 62
7
  6
CONTINUOUS
 10
622.1058449375
 20
121.1228253029
 40
8.8172197348
100
AcDbArc
 50
335.6515211889
 51
336.9574765809
  0
ARC
  5
44A
100
AcDbEntity
  8
0
100
AcDbCircle
 62
7
  6
CONTINUOUS
 10
833.992731017
 20
198.728470328
 40
6.8957629367
100
AcDbArc
 50
12.5082153215
 51
13.7904469126
  0
ARC
  5
44B
100
AcDbEntity
  8
0
100
AcDbCircle
 62
7
  6
CONTINUOUS
 10
829.7801356798
 20
198.7284703278
 40
6.8957629378
100
AcDbArc
 50
166.2095530876
 51
167.4917846784
  0
ARC
  5
44C
100
AcDbEntity
  8
KONSTRUKTIONSELEMENTE
100
AcDbCircle
 62
7
  6
CONTINUOUS
 10
771.2706995339
 20
231.8903359786
 40
6.8544496741
100
AcDbArc
 50
180.0468621101
 51
190.0347873196
  0
ARC
  5
44D
100
AcDbEntity
  8
KONSTRUKTIONSELEMENTE
100
AcDbCircle
 62
7
  6
CONTINUOUS
 10
696.8039725351
 20
187.6851659079
 40
6.6988955336
100
AcDbArc
 50
139.1991736219
 51
142.621075077
  0
ARC
  5
44E
100
AcDbEntity
  8
KONSTRUKTIONSELEMENTE
100
AcDbCircle
 62
7
  6
CONTINUOUS
 10
700.339506441
 20
184.6233037294
 40
6.6988955336
100
AcDbArc
 50
139.1991736219
 51
142.621075077
  0
ARC
  5
44F
100
AcDbEntity
  8
KONSTRUKTIONSELEMENTE
100
AcDbCircle
 62
7
  6
CONTINUOUS
 10
740.3251760628
 20
205.0971773277
 40
6.5947824563
100
AcDbArc
 50
180.0290752758
 51
188.778086953
  0
ARC
  5
450
100
AcDbEntity
  8
KONSTRUKTIONSELEMENTE
100
AcDbCircle
 62
7
  6
CONTINUOUS
 10
710.1653922113
 20
184.7171245838
 40
6.2119582838
100
AcDbArc
 50
34.453142093
 51
34.9773455115
  0
ARC
  5
451
100
AcDbEntity
  8
0
100
AcDbCircle
 62
7
  6
CONTINUOUS
 10
814.7462291673
 20
159.7735512552
 40
5.3935178301
100
AcDbArc
 50
213.3585546604
 51
216.0522962765
  0
ARC
  5
452
100
AcDbEntity
  8
RUNDUNGEN
100
AcDbCircle
 62
7
  6
CONTINUOUS
 10
849.0266375285
 20
159.7735512552
 40
5.3935178301
100
AcDbArc
 50
323.9477037235
 51
326.6414453396
  0
ARC
  5
453
100
AcDbEntity
  8
KONSTRUKTIONSELEMENTE
100
AcDbCircle
 62
7
  6
CONTINUOUS
 10
741.4844581275
 20
206.0484792457
 40
3.6351988045
100
AcDbArc
 50
238.8071952043
 51
240.6860889463
  0
ARC
  5
454
100
AcDbEntity
  8
KONSTRUKTIONSELEMENTE
100
AcDbCircle
 62
7
  6
CONTINUOUS
 10
772.448943008
 20
232.895890284
 40
3.4480880971
100
AcDbArc
 50
240.3855846735
 51
242.1133696711
  0
ARC
  5
455
100
AcDbEntity
  8
KONSTRUKTIONSELEMENTE
100
AcDbCircle
 62
7
  6
CONTINUOUS
 10
751.8876651688
 20
213.6229946331
 40
3.2769193773
100
AcDbArc
 50
125.8441677695
 51
130.856180551
  0
ARC
  5
456
100
AcDbEntity
  8
KONSTRUKTIONSELEMENTE
100
AcDbCircle
 62
7
  6
CONTINUOUS
 10
753.4657823945
 20
214.1866416147
 40
2.3870910771
100
AcDbArc
 50
23.4715892295
 51
29.1872445595
  0
ARC
  5
457
100
AcDbEntity
  8
KONSTRUKTIONSELEMENTE
100
AcDbCircle
 62
7
  6
CONTINUOUS
 10
722.5263864682
 20
187.393632709
 40
2.1406419653
100
AcDbArc
 50
21.3128499486
 51
27.3434746477
  0
ARC
  5
458
100
AcDbEntity
  8
KONSTRUKTIONSELEMENTE
100
AcDbCircle
 62
7
  6
CONTINUOUS
 10
722.6013317548
 20
187.4238297181
 40
2.0598469897
100
AcDbArc
 50
18.6815072047
 51
21.2880328927
  0
ARC
  5
459
100
AcDbEntity
  8
0
100
AcDbCircle
 62
7
  6
CONTINUOUS
 10
813.8227096644
 20
155.2983150729
 40
2.0131481011
100
AcDbArc
 50
216.1113762981
 51
234.6240687316
  0
ARC
  5
45A
100
AcDbEntity
  8
BEZUGSACHSEN
100
AcDbCircle
 62
7
  6
CONTINUOUS
 10
705.4461750987
 20
248.1198683425
 40
137.5812106844
100
AcDbArc
 50
10.1048285804
 51
10.3013136094
  0
ARC
  5
45B
100
AcDbEntity
  8
BEZUGSACHSEN
100
AcDbCircle
 62
7
  6
CONTINUOUS
 10
755.2211118047
 20
251.8601216866
 40
88.4102193202
100
AcDbArc
 50
11.8368763123
 51
12.0953251561
  0
ARC
  5
45C
100
AcDbEntity
  8
BEZUGSACHSEN
100
AcDbCircle
 62
7
  6
CONTINUOUS
 10
760.0490394978
 20
260.5018693644
 40
81.6089619831
100
AcDbArc
 50
8.5974313024
 51
8.7910632532
  0
ARC
  5
45D
100
AcDbEntity
  8
BEZUGSACHSEN
100
AcDbCircle
 62
7
  6
CONTINUOUS
 10
768.1657469767
 20
248.1251429873
 40
76.7484972004
100
AcDbArc
 50
17.1064727541
 51
17.3095783696
  0
ARC
  5
45E
100
AcDbEntity
  8
KONSTRUKTIONSELEMENTE
100
AcDbCircle
 62
7
  6
CONTINUOUS
 10
756.776389403
 20
283.0999752856
 40
61.4979562949
100
AcDbArc
 50
310.9160305483
 51
314.5539672013
  0
ARC
  5
45F
100
AcDbEntity
  8
KONSTRUKTIONSELEMENTE
100
AcDbCircle
 62
7
  6
CONTINUOUS
 10
757.7259346832
 20
282.0267965022
 40
53.0650820605
100
AcDbArc
 50
310.9031853114
 51
313.0579202974
  0
ARC
  5
460
100
AcDbEntity
  8
BEZUGSACHSEN
100
AcDbCircle
 62
7
  6
CONTINUOUS
 10
783.3035093976
 20
253.8336152141
 40
60.7765736084
100
AcDbArc
 50
20.8299732226
 51
21.1247537386
  0
ARC
  5
461
100
AcDbEntity
  8
BEZUGSACHSEN
100
AcDbCircle
 62
7
  6
CONTINUOUS
 10
806.6252991454
 20
257.9172504674
 40
37.0616906749
100
AcDbArc
 50
18.5941907834
 51
18.9881966908
  0
ARC
  5
462
100
AcDbEntity
  8
BEZUGSACHSEN
100
AcDbCircle
 62
7
  6
CONTINUOUS
 10
820.2056183988
 20
266.2461333377
 40
21.8694930898
100
AcDbArc
 50
9.371378652
 51
9.8713388108
  0
ARC
  5
463
100
AcDbEntity
  8
BEZUGSACHSEN
100
AcDbCircle
 62
7
  6
CONTINUOUS
 10
843.5087813022
 20
266.2561039709
 40
21.8101823593
100
AcDbArc
 50
170.1281348791
 51
170.7964636834
  0
ARC
  5
464
100
AcDbEntity
  8
BEZUGSACHSEN
100
AcDbCircle
 62
7
  6
CONTINUOUS
 10
843.3489244132
 20
272.3953568326
 40
20.1985271905
100
AcDbArc
 50
168.1064990848
 51
168.6184771333
  0
ARC
  5
465
100
AcDbEntity
  8
BEZUGSACHSEN
100
AcDbCircle
 62
7
  6
CONTINUOUS
 10
823.4015916637
 20
275.4539694589
 40
16.560872099
100
AcDbArc
 50
357.4443664031
 51
0.804398237
  0
ARC
  5
466
100
AcDbEntity
  8
KONSTRUKTIONSELEMENTE
100
AcDbCircle
 62
7
  6
CONTINUOUS
 10
822.8046145137
 20
275.4844734619
 40
16.5299841953
100
AcDbArc
 50
357.3337455373
 51
0.700160144
  0
ARC
  5
467
100
AcDbEntity
  8
BEZUGSACHSEN
100
AcDbCircle
 62
7
  6
CONTINUOUS
 10
823.948384542
 20
274.6974745307
 40
16.2093213207
100
AcDbArc
 50
358.2481837108
 51
0.9655117914
  0
ARC
  5
468
100
AcDbEntity
  8
BEZUGSACHSEN
100
AcDbCircle
 62
7
  6
CONTINUOUS
 10
825.5254765246
 20
272.4285437592
 40
15.2179432006
100
AcDbArc
 50
358.1340068396
 51
1.0284018719
  0
ARC
  5
469
100
AcDbEntity
  8
BEZUGSACHSEN
100
AcDbCircle
 62
7
  6
CONTINUOUS
 10
826.1565478873
 20
271.5209994886
 40
14.8211583769
100
AcDbArc
 50
358.0839190111
 51
0.7429959064
  0
ARC
  5
46A
100
AcDbEntity
  8
BEZUGSACHSEN
100
AcDbCircle
 62
7
  6
CONTINUOUS
 10
837.3959872896
 20
274.7534227603
 40
13.8557129815
100
AcDbArc
 50
168.5032923282
 51
169.2664985977
  0
ARC
  5
46B
100
AcDbEntity
  8
BEZUGSACHSEN
100
AcDbCircle
 62
7
  6
CONTINUOUS
 10
835.5204988808
 20
268.3401543775
 40
13.5454168863
100
AcDbArc
 50
176.5998559684
 51
177.7991760087
  0
ARC
  5
46C
100
AcDbEntity
  8
BEZUGSACHSEN
100
AcDbCircle
 62
7
  6
CONTINUOUS
 10
828.252367815
 20
268.3401543775
 40
13.5454168863
100
AcDbArc
 50
2.2008239913
 51
3.4001440316
  0
ARC
  5
46D
100
AcDbEntity
  8
BEZUGSACHSEN
100
AcDbCircle
 62
7
  6
CONTINUOUS
 10
835.5042481772
 20
268.3479548114
 40
13.5291493457
100
AcDbArc
 50
182.1138207741
 51
183.1428936214
  0
ARC
  5
46E
100
AcDbEntity
  8
BEZUGSACHSEN
100
AcDbCircle
 62
7
  6
CONTINUOUS
 10
828.2686185186
 20
268.3479548114
 40
13.5291493457
100
AcDbArc
 50
356.8571063786
 51
357.8861792259
  0
ARC
  5
46F
100
AcDbEntity
  8
BEZUGSACHSEN
100
AcDbCircle
 62
7
  6
CONTINUOUS
 10
834.0647818866
 20
267.5464206565
 40
12.3337578638
100
AcDbArc
 50
163.1651327656
 51
163.8539916814
  0
ARC
  5
470
100
AcDbEntity
  8
0
100
AcDbCircle
 62
7
  6
CONTINUOUS
 10
829.8864333479
 20
266.1623467136
 40
8.0
100
AcDbArc
 50
166.25
 51
180.0
  0
ARC
  5
471
100
AcDbEntity
  8
BEZUGSACHSEN
100
AcDbCircle
 62
7
  6
CONTINUOUS
 10
833.8864333479
 20
266.1623467136
 40
8.0
100
AcDbArc
 50
0.0
 51
10.3676640748
  0
ARC
  5
472
100
AcDbEntity
  8
BEZUGSACHSEN
100
AcDbCircle
 62
7
  6
CONTINUOUS
 10
828.9748400775
 20
267.9007548318
 40
7.3055244341
100
AcDbArc
 50
162.0086431293
 51
163.1418951876
  0
ARC
  5
473
100
AcDbEntity
  8
BEZUGSACHSEN
100
AcDbCircle
 62
7
  6
CONTINUOUS
 10
836.9469592545
 20
268.4218239869
 40
5.1083414567
100
AcDbArc
 50
25.4520008681
 51
26.4928339422
  0
ARC
  5
474
100
AcDbEntity
  8
BEZUGSACHSEN
100
AcDbCircle
 62
7
  6
CONTINUOUS
 10
837.7814118045
 20
272.0327651087
 40
3.7771388439
100
AcDbArc
 50
50.3432750976
 51
51.0592708867
  0
ARC
  5
475
100
AcDbEntity
  8
BEZUGSACHSEN
100
AcDbCircle
 62
7
  6
CONTINUOUS
 10
836.4120412967
 20
277.111981663
 40
3.546715692
100
AcDbArc
 50
3.8417287611
 51
5.6515427936
  0
ARC
  5
476
100
AcDbEntity
  8
BEZUGSACHSEN
100
AcDbCircle
 62
7
  6
CONTINUOUS
 10
836.4195952121
 20
277.1168715322
 40
3.5391379681
100
AcDbArc
 50
354.7234829769
 51
356.5362232297
  0
ARC
  5
477
100
AcDbEntity
  8
KONSTRUKTIONSELEMENTE
100
AcDbCircle
 62
7
  6
CONTINUOUS
 10
835.8004683195
 20
277.1238850242
 40
3.5342083402
100
AcDbArc
 50
3.6619542847
 51
5.477717043
  0
ARC
  5
478
100
AcDbEntity
  8
KONSTRUKTIONSELEMENTE
100
AcDbCircle
 62
7
  6
CONTINUOUS
 10
835.800468327
 20
277.1287743065
 40
3.5342083326
100
AcDbArc
 50
354.5222829559
 51
356.3380465829
  0
ARC
  5
479
100
AcDbEntity
  8
BEZUGSACHSEN
100
AcDbCircle
 62
7
  6
CONTINUOUS
 10
838.6364415155
 20
270.6427705726
 40
2.9231845158
100
AcDbArc
 50
359.4979812155
 51
0.9568563144
  0
ARC
  5
47A
100
AcDbEntity
  8
BEZUGSACHSEN
100
AcDbCircle
 62
7
  6
CONTINUOUS
 10
824.8181713214
 20
269.6956548275
 40
2.8392163978
100
AcDbArc
 50
179.0148416159
 51
180.5168652148
  0
ARC
  5
47B
100
AcDbEntity
  8
BEZUGSACHSEN
100
AcDbCircle
 62
7
  6
CONTINUOUS
 10
838.9546953743
 20
269.6956548275
 40
2.8392163978
100
AcDbArc
 50
359.4831347852
 51
0.9851583841
  0
ARC
  5
47C
100
AcDbEntity
  8
BEZUGSACHSEN
100
AcDbCircle
 62
7
  6
CONTINUOUS
 10
839.8128865528
 20
268.4504634039
 40
2.3262365839
100
AcDbArc
 50
31.6192040158
 51
33.5136128034
  0
ARC
  5
47D
100
AcDbEntity
  8
KONSTRUKTIONSELEMENTE
100
AcDbCircle
 62
7
  6
CONTINUOUS
 10
837.8203826893
 20
276.7712659642
 40
1.8616938187
100
AcDbArc
 50
324.3596891373
 51
326.2691884977
  0
ARC
  5
47E
100
AcDbEntity
  8
BEZUGSACHSEN
100
AcDbCircle
 62
7
  6
CONTINUOUS
 10
838.4562112335
 20
276.7543922383
 40
1.8450875533
100
AcDbArc
 50
324.6342309464
 51
326.5544482802
  0
ARC
  5
47F
100
AcDbEntity
  8
BEZUGSACHSEN
100
AcDbCircle
 62
7
  6
CONTINUOUS
 10
822.3755561282
 20
270.9956462601
 40
0.1592250946
100
AcDbArc
 50
179.9708002295
 51
186.9908420406
  0
ARC
  5
480
100
AcDbEntity
  8
0
100
AcDbCircle
 62
7
  6
CONTINUOUS
 10
831.8864333479
 20
345.5432475834
 40
18.0
100
AcDbArc
 50
180.0
 51
360.0
  0
ARC
  5
481
100
AcDbEntity
  8
BEZUGSACHSEN
100
AcDbCircle
 62
7
  6
CONTINUOUS
 10
1075.9933011606
 20
204.0040588877
 40
262.4365358589
100
AcDbArc
 50
165.1916039714
 51
165.3317118774
  0
ARC
  5
482
100
AcDbEntity
  8
BEZUGSACHSEN
100
AcDbCircle
 62
7
  6
CONTINUOUS
 10
1072.154600667
 20
219.8723355267
 40
254.9282384362
100
AcDbArc
 50
167.0509818549
 51
167.1941060375
  0
ARC
  5
483
100
AcDbEntity
  8
RUNDUNGEN
100
AcDbCircle
 62
7
  6
CONTINUOUS
 10
849.0613026524
 20
159.7508335016
 40
5.3520719668
100
AcDbArc
 50
326.6405178837
 51
329.8387757759
  0
ARC
  5
484
100
AcDbEntity
  8
RUNDUNGEN
100
AcDbCircle
 62
7
  6
CONTINUOUS
 10
849.9501570314
 20
155.2983150729
 40
2.0131481011
100
AcDbArc
 50
305.3759312684
 51
323.8886237019
  0
ARC
  5
485
100
AcDbEntity
  8
BEZUGSACHSEN
100
AcDbCircle
 62
7
  6
CONTINUOUS
 10
924.2005407728
 20
244.115398664
 40
105.4567172118
100
AcDbArc
 50
164.9916523699
 51
165.1208694642
  0
ARC
  5
486
100
AcDbEntity
  8
BEZUGSACHSEN
100
AcDbCircle
 62
7
  6
CONTINUOUS
 10
894.7726927976
 20
261.64806765
 40
72.7023125153
100
AcDbArc
 50
167.5401979308
 51
167.8114506633
  0
ARC
  5
487
100
AcDbEntity
  8
BEZUGSACHSEN
100
AcDbCircle
 62
7
  6
CONTINUOUS
 10
875.9166404413
 20
255.3943019238
 40
55.8756472896
100
AcDbArc
 50
164.3589695837
 51
164.6799506588
  0
ARC
  5
488
100
AcDbEntity
  8
0
100
AcDbCircle
 62
7
  6
CONTINUOUS
 10
831.8864333479
 20
731.5432475834
 40
18.0
100
AcDbArc
 50
0.0
 51
180.0
  0
SPLINE
  5
489
100
AcDbEntity
  8
KONSTRUKTIONSELEMENTE
100
AcDbSpline
 62
7
  6
CONTINUOUS
 70
0
 71
3
 72
10
 73
6
 74
0
 42
0.0000001
 43
0.0000001
 44
0.0000000001
 40
0.0
 40
0.0
 40
0.0
 40
0.0
 40
0.3116645009
 40
0.6060899939
 40
1.0
 40
1.0
 40
1.0
 40
1.0
 10
176.2485613998
 20
199.0590107159
 30
0.0
 10
176.347138823
 20
199.2297518214
 30
0.0
 10
176.3703974265
 20
199.6450940174
 30
0.0
 10
176.1912838662
 20
200.24949877
 30
0.0
 10
175.9772837337
 20
200.6356422921
 30
0.0
 10
175.8364308186
 20
200.8411958334
 30
0.0
  0
SPLINE
  5
48A
100
AcDbEntity
  8
KONSTRUKTIONSELEMENTE
100
AcDbSpline
 62
7
  6
CONTINUOUS
 70
0
 71
3
 72
10
 73
6
 74
0
 42
0.0000001
 43
0.0000001
 44
0.0000000001
 40
0.0
 40
0.0
 40
0.0
 40
0.0
 40
0.3939255147
 40
0.6883533687
 40
1.0
 40
1.0
 40
1.0
 40
1.0
 10
171.9361325573
 20
203.0931633278
 30
0.0
 10
171.6876482495
 20
203.1123916936
 30
0.0
 10
171.2461673072
 20
203.1046493143
 30
0.0
 10
170.6330724605
 20
202.9576209253
 30
0.0
 10
170.2849692252
 20
202.729766074
 30
0.0
 10
170.1863835733
 20
202.5590107159
 30
0.0
  0
SPLINE
  5
48B
100
AcDbEntity
  8
KONSTRUKTIONSELEMENTE
100
AcDbSpline
 62
7
  6
CONTINUOUS
 70
0
 71
3
 72
13
 73
9
 74
0
 42
0.0000001
 43
0.0000001
 44
0.0000000001
 40
0.0
 40
0.0
 40
0.0
 40
0.0
 40
0.1194785188
 40
0.2392741704
 40
0.3602835725
 40
0.4830059608
 40
0.7355440041
 40
1.0
 40
1.0
 40
1.0
 40
1.0
 10
180.1456757168
 20
196.8090107159
 30
0.0
 10
180.3249955224
 20
197.1196017301
 30
0.0
 10
180.6193482154
 20
197.781626516
 30
0.0
 10
180.8464785552
 20
198.8461802597
 30
0.0
 10
180.8614622319
 20
199.9441016795
 30
0.0
 10
180.6072634233
 20
201.4192075592
 30
0.0
 10
179.8031424399
 20
203.1990664459
 30
0.0
 10
178.7851415699
 20
204.3959441019
 30
0.0
 10
178.2024740794
 20
204.9350621096
 30
0.0
  0
SPLINE
  5
48C
100
AcDbEntity
  8
KONSTRUKTIONSELEMENTE
100
AcDbSpline
 62
7
  6
CONTINUOUS
 70
0
 71
3
 72
13
 73
9
 74
0
 42
0.0000001
 43
0.0000001
 44
0.0000000001
 40
0.0
 40
0.0
 40
0.0
 40
0.0
 40
0.2644681654
 40
0.5169944072
 40
0.6397129492
 40
0.760706397
 40
0.8805228501
 40
1.0
 40
1.0
 40
1.0
 40
1.0
 10
174.3001340449
 20
207.1885771001
 30
0.0
 10
173.5417462354
 20
207.4238055352
 30
0.0
 10
171.995943187
 20
207.707377812
 30
0.0
 10
170.0520141908
 20
207.5140948384
 30
0.0
 10
168.6471648635
 20
206.9967683451
 30
0.0
 10
167.7034900335
 20
206.4349091093
 30
0.0
 10
166.8949627859
 20
205.7057275104
 30
0.0
 10
166.4686263914
 20
205.1196663867
 30
0.0
 10
166.2892692563
 20
204.8090107159
 30
0.0
  0
SPLINE
  5
48D
100
AcDbEntity
  8
KONSTRUKTIONSELEMENTE
100
AcDbSpline
 62
7
  6
CONTINUOUS
 70
0
 71
3
 72
9
 73
5
 74
0
 42
0.0000001
 43
0.0000001
 44
0.0000000001
 40
0.0
 40
0.0
 40
0.0
 40
0.0
 40
0.4991894641
 40
1.0
 40
1.0
 40
1.0
 40
1.0
 10
160.9859683974
 20
195.6234241805
 30
0.0
 10
160.7984792522
 20
195.2986834551
 30
0.0
 10
160.4937623247
 20
194.6045630032
 30
0.0
 10
160.3462594885
 20
193.8616366111
 30
0.0
 10
160.3107962623
 20
193.4871158661
 30
0.0
  0
SPLINE
  5
48E
100
AcDbEntity
  8
KONSTRUKTIONSELEMENTE
100
AcDbSpline
 62
7
  6
CONTINUOUS
 70
0
 71
3
 72
9
 73
5
 74
0
 42
0.0000001
 43
0.0000001
 44
0.0000000001
 40
0.0
 40
0.0
 40
0.0
 40
0.0
 40
0.5008476774
 40
1.0
 40
1.0
 40
1.0
 40
1.0
 10
173.3299050283
 20
185.9705270893
 30
0.0
 10
173.6365271203
 20
186.188529759
 30
0.0
 10
174.2061067951
 20
186.6877905865
 30
0.0
 10
174.6549010863
 20
187.2987100829
 30
0.0
 10
174.8423748579
 20
187.6234241805
 30
0.0
  0
SPLINE
  5
48F
100
AcDbEntity
  8
KONSTRUKTIONSELEMENTE
100
AcDbSpline
 62
7
  6
CONTINUOUS
 70
0
 71
3
 72
10
 73
6
 74
0
 42
0.0000001
 43
0.0000001
 44
0.0000000001
 40
0.0
 40
0.0
 40
0.0
 40
0.0
 40
0.3192646009
 40
0.6086079864
 40
1.0
 40
1.0
 40
1.0
 40
1.0
 10
164.8830827144
 20
193.3734241805
 30
0.0
 10
164.7972128268
 20
193.2246931723
 30
0.0
 10
164.7597764982
 20
192.8758199761
 30
0.0
 10
164.8798976301
 20
192.3522638502
 30
0.0
 10
165.0360326413
 20
192.0161219569
 30
0.0
 10
165.1416564169
 20
191.8339951006
 30
0.0
  0
SPLINE
  5
490
100
AcDbEntity
  8
KONSTRUKTIONSELEMENTE
100
AcDbSpline
 62
7
  6
CONTINUOUS
 70
0
 71
3
 72
10
 73
6
 74
0
 42
0.0000001
 43
0.0000001
 44
0.0000000001
 40
0.0
 40
0.0
 40
0.0
 40
0.0
 40
0.3914026107
 40
0.6807340322
 40
1.0
 40
1.0
 40
1.0
 40
1.0
 10
169.4828945073
 20
189.3276407089
 30
0.0
 10
169.6934254418
 20
189.3272364971
 30
0.0
 10
170.0625681579
 20
189.3601312751
 30
0.0
 10
170.5760273616
 20
189.5178272944
 30
0.0
 10
170.8593956481
 20
189.7247018236
 30
0.0
 10
170.9452605409
 20
189.8734241805
 30
0.0
  0
SPLINE
  5
491
100
AcDbEntity
  8
KONSTRUKTIONSELEMENTE
100
AcDbSpline
 62
7
  6
CONTINUOUS
 70
0
 71
3
 72
10
 73
6
 74
0
 42
0.0000001
 43
0.0000001
 44
0.0000000001
 40
0.0
 40
0.0
 40
0.0
 40
0.0
 40
0.3192646009
 40
0.6086079864
 40
1.0
 40
1.0
 40
1.0
 40
1.0
 10
191.8049105859
 20
226.0033978866
 30
0.0
 10
191.8907804735
 20
226.1521288947
 30
0.0
 10
191.9282168021
 20
226.501002091
 30
0.0
 10
191.8080956702
 20
227.0245582168
 30
0.0
 10
191.6519606591
 20
227.3607001101
 30
0.0
 10
191.5463368835
 20
227.5428269664
 30
0.0
  0
SPLINE
  5
492
100
AcDbEntity
  8
KONSTRUKTIONSELEMENTE
100
AcDbSpline
 62
7
  6
CONTINUOUS
 70
0
 71
3
 72
10
 73
6
 74
0
 42
0.0000001
 43
0.0000001
 44
0.0000000001
 40
0.0
 40
0.0
 40
0.0
 40
0.0
 40
0.3914026107
 40
0.6807340322
 40
1.0
 40
1.0
 40
1.0
 40
1.0
 10
187.205098793
 20
230.0491813581
 30
0.0
 10
186.9945678585
 20
230.04958557
 30
0.0
 10
186.6254251424
 20
230.0166907919
 30
0.0
 10
186.1119659387
 20
229.8589947727
 30
0.0
 10
185.8285976522
 20
229.6521202435
 30
0.0
 10
185.7427327594
 20
229.5033978866
 30
0.0
  0
SPLINE
  5
493
100
AcDbEntity
  8
KONSTRUKTIONSELEMENTE
100
AcDbSpline
 62
7
  6
CONTINUOUS
 70
0
 71
3
 72
11
 73
7
 74
0
 42
0.0000001
 43
0.0000001
 44
0.0000000001
 40
0.0
 40
0.0
 40
0.0
 40
0.0
 40
0.24010058
 40
0.4841137023
 40
0.7364993782
 40
1.0
 40
1.0
 40
1.0
 40
1.0
 10
195.7020249029
 20
223.7533978866
 30
0.0
 10
196.0305249429
 20
224.3223766461
 30
0.0
 10
196.4702651833
 20
225.6127578682
 30
0.0
 10
196.383404302
 20
227.6650256774
 30
0.0
 10
195.6396461001
 20
229.6378425163
 30
0.0
 10
194.7995576746
 20
230.7931965893
 30
0.0
 10
194.3120019139
 20
231.3243979569
 30
0.0
  0
SPLINE
  5
494
100
AcDbEntity
  8
KONSTRUKTIONSELEMENTE
100
AcDbSpline
 62
7
  6
CONTINUOUS
 70
0
 71
3
 72
11
 73
7
 74
0
 42
0.0000001
 43
0.0000001
 44
0.0000000001
 40
0.0
 40
0.0
 40
0.0
 40
0.0
 40
0.2634705937
 40
0.5158307568
 40
0.7598429114
 40
1.0
 40
1.0
 40
1.0
 40
1.0
 10
189.0826233831
 20
234.3383603428
 30
0.0
 10
188.3799258035
 20
234.4936029489
 30
0.0
 10
186.9618340238
 20
234.6410288533
 30
0.0
 10
184.8858894842
 20
234.2966966076
 30
0.0
 10
183.0692630676
 20
233.3459928872
 30
0.0
 10
182.1736001149
 20
232.3214788074
 30
0.0
 10
181.8456184424
 20
231.7533978866
 30
0.0
  0
SPLINE
  5
495
100
AcDbEntity
  8
KONSTRUKTIONSELEMENTE
100
AcDbSpline
 62
7
  6
CONTINUOUS
 70
0
 71
3
 72
9
 73
5
 74
0
 42
0.0000001
 43
0.0000001
 44
0.0000000001
 40
0.0
 40
0.0
 40
0.0
 40
0.0
 40
0.231295784
 40
1.0
 40
1.0
 40
1.0
 40
1.0
 10
183.8648113481
 20
254.6891300214
 30
0.0
 10
183.9374365059
 20
254.2126052395
 30
0.0
 10
184.3684622261
 20
252.170385989
 30
0.0
 10
185.2343327792
 20
250.2332903174
 30
0.0
 10
186.0512916238
 20
248.8552519434
 30
0.0
  0
SPLINE
  5
496
100
AcDbEntity
  8
KONSTRUKTIONSELEMENTE
100
AcDbSpline
 62
7
  6
CONTINUOUS
 70
0
 71
3
 72
9
 73
5
 74
0
 42
0.0000001
 43
0.0000001
 44
0.0000000001
 40
0.0
 40
0.0
 40
0.0
 40
0.0
 40
0.2693689048
 40
1.0
 40
1.0
 40
1.0
 40
1.0
 10
208.4099680145
 20
235.9465380321
 30
0.0
 10
208.9712851085
 20
235.9400621962
 30
0.0
 10
211.053466144
 20
236.0010620478
 30
0.0
 10
213.1382768876
 20
236.4162914412
 30
0.0
 10
214.5564845349
 20
236.9703848842
 30
0.0
  0
SPLINE
  5
497
100
AcDbEntity
  8
KONSTRUKTIONSELEMENTE
100
AcDbSpline
 62
7
  6
CONTINUOUS
 70
0
 71
3
 72
9
 73
5
 74
0
 42
0.0000001
 43
0.0000001
 44
0.0000000001
 40
0.0
 40
0.0
 40
0.0
 40
0.0
 40
0.4853819776
 40
1.0
 40
1.0
 40
1.0
 40
1.0
 10
178.1332606781
 20
249.1897539671
 30
0.0
 10
178.9714976365
 20
246.9955394816
 30
0.0
 10
181.3772703329
 20
242.7213590967
 30
0.0
 10
184.7203410061
 20
239.1615169507
 30
0.0
 10
186.6059582744
 20
237.534765439
 30
0.0
  0
SPLINE
  5
498
100
AcDbEntity
  8
KONSTRUKTIONSELEMENTE
100
AcDbSpline
 62
7
  6
CONTINUOUS
 70
0
 71
3
 72
9
 73
5
 74
0
 42
0.0000001
 43
0.0000001
 44
0.0000000001
 40
0.0
 40
0.0
 40
0.0
 40
0.0
 40
0.5146328688
 40
1.0
 40
1.0
 40
1.0
 40
1.0
 10
198.308030104
 20
230.7738599202
 30
0.0
 10
200.6626227098
 20
229.9515841105
 30
0.0
 10
205.4234899473
 20
228.832241674
 30
0.0
 10
210.3352222349
 20
228.8848365996
 30
0.0
 10
212.6578906906
 20
229.2564745062
 30
0.0
  0
SPLINE
  5
499
100
AcDbEntity
  8
KONSTRUKTIONSELEMENTE
100
AcDbSpline
 62
7
  6
CONTINUOUS
 70
0
 71
3
 72
12
 73
8
 74
0
 42
0.0000001
 43
0.0000001
 44
0.0000000001
 40
0.0
 40
0.0
 40
0.0
 40
0.0
 40
0.1038096184
 40
0.2125411153
 40
0.4501979882
 40
0.7163641136
 40
1.0
 40
1.0
 40
1.0
 40
1.0
 10
111.3218176645
 20
108.2589221276
 30
0.0
 10
111.4177056831
 20
108.5207642367
 30
0.0
 10
111.545177517
 20
109.0843517661
 30
0.0
 10
111.5271347178
 20
110.302740569
 30
0.0
 10
110.9690851625
 20
111.8963226559
 30
0.0
 10
109.6594947164
 20
113.5901549206
 30
0.0
 10
108.4667189088
 20
114.4936437137
 30
0.0
 10
107.8069062879
 20
114.874586708
 30
0.0
  0
SPLINE
  5
49A
100
AcDbEntity
  8
KONSTRUKTIONSELEMENTE
100
AcDbSpline
 62
7
  6
CONTINUOUS
 70
0
 71
3
 72
9
 73
5
 74
0
 42
0.0000001
 43
0.0000001
 44
0.0000000001
 40
0.0
 40
0.0
 40
0.0
 40
0.0
 40
0.2454868499
 40
1.0
 40
1.0
 40
1.0
 40
1.0
 10
115.4692331814
 20
171.5635131974
 30
0.0
 10
115.4970262921
 20
171.6116481353
 30
0.0
 10
115.5967868277
 20
171.8154487344
 30
0.0
 10
115.6368163653
 20
172.0464521512
 30
0.0
 10
115.635739424
 20
172.2172840929
 30
0.0
  0
SPLINE
  5
49B
100
AcDbEntity
  8
KONSTRUKTIONSELEMENTE
100
AcDbSpline
 62
7
  6
CONTINUOUS
 70
0
 71
3
 72
11
 73
7
 74
0
 42
0.0000001
 43
0.0000001
 44
0.0000000001
 40
0.0
 40
0.0
 40
0.0
 40
0.0
 40
0.2187337062
 40
0.4541366386
 40
0.7148275965
 40
1.0
 40
1.0
 40
1.0
 40
1.0
 10
105.3216586608
 20
177.1448748496
 30
0.0
 10
105.4055479366
 20
177.2901628359
 30
0.0
 10
105.6479693607
 20
177.5562582314
 30
0.0
 10
106.1542706214
 20
177.7938870001
 30
0.0
 10
106.7565865629
 20
177.8693365176
 30
0.0
 10
107.1761373406
 20
177.8136262765
 30
0.0
 10
107.3886628279
 20
177.7619161825
 30
0.0
  0
SPLINE
  5
49C
100
AcDbEntity
  8
KONSTRUKTIONSELEMENTE
100
AcDbSpline
 62
7
  6
CONTINUOUS
 70
0
 71
3
 72
11
 73
7
 74
0
 42
0.0000001
 43
0.0000001
 44
0.0000000001
 40
0.0
 40
0.0
 40
0.0
 40
0.0
 40
0.2187528453
 40
0.4541377748
 40
0.7148402389
 40
1.0
 40
1.0
 40
1.0
 40
1.0
 10
105.8788823688
 20
197.2701445923
 30
0.0
 10
106.1585520664
 20
197.754469424
 30
0.0
 10
106.9665763238
 20
198.6414905973
 30
0.0
 10
108.6543092349
 20
199.4335654679
 30
0.0
 10
110.6619877382
 20
199.6848704387
 30
0.0
 10
112.0604796009
 20
199.49923513
 30
0.0
 10
112.7688636689
 20
199.3268764767
 30
0.0
  0
SPLINE
  5
49D
100
AcDbEntity
  8
KONSTRUKTIONSELEMENTE
100
AcDbSpline
 62
7
  6
CONTINUOUS
 70
0
 71
3
 72
9
 73
5
 74
0
 42
0.0000001
 43
0.0000001
 44
0.0000000001
 40
0.0
 40
0.0
 40
0.0
 40
0.0
 40
0.4910898138
 40
1.0
 40
1.0
 40
1.0
 40
1.0
 10
104.1110759808
 20
194.2082133814
 30
0.0
 10
103.9253483179
 20
193.8865620249
 30
0.0
 10
103.6386451838
 20
193.1747435984
 30
0.0
 10
103.5536356176
 20
192.4138659085
 30
0.0
 10
103.5560620167
 20
192.0289735373
 30
0.0
  0
SPLINE
  5
49E
100
AcDbEntity
  8
KONSTRUKTIONSELEMENTE
100
AcDbSpline
 62
7
  6
CONTINUOUS
 70
0
 71
3
 72
9
 73
5
 74
0
 42
0.0000001
 43
0.0000001
 44
0.0000000001
 40
0.0
 40
0.0
 40
0.0
 40
0.0
 40
0.4910906792
 40
1.0
 40
1.0
 40
1.0
 40
1.0
 10
148.296060917
 20
105.7648979984
 30
0.0
 10
148.4817564975
 20
106.0865835125
 30
0.0
 10
148.9548656798
 20
106.6908133788
 30
0.0
 10
149.5713202589
 20
107.1448916383
 30
0.0
 10
149.9058710671
 20
107.3352427807
 30
0.0
  0
SPLINE
  5
49F
100
AcDbEntity
  8
KONSTRUKTIONSELEMENTE
100
AcDbSpline
 62
7
  6
CONTINUOUS
 70
0
 71
3
 72
11
 73
7
 74
0
 42
0.0000001
 43
0.0000001
 44
0.0000000001
 40
0.0
 40
0.0
 40
0.0
 40
0.0
 40
0.2239782306
 40
0.4651644091
 40
0.7245589301
 40
1.0
 40
1.0
 40
1.0
 40
1.0
 10
149.526903735
 20
107.0945936213
 30
0.0
 10
149.4884380693
 20
106.6584837329
 30
0.0
 10
149.5392174304
 20
105.7383573365
 30
0.0
 10
149.9570661268
 20
104.3736561908
 30
0.0
 10
150.6923919944
 20
103.0364555683
 30
0.0
 10
151.3558378657
 20
102.2208997483
 30
0.0
 10
151.7276364593
 20
101.8314953971
 30
0.0
  0
SPLINE
  5
4A0
100
AcDbEntity
  8
KONSTRUKTIONSELEMENTE
100
AcDbSpline
 62
7
  6
CONTINUOUS
 70
0
 71
3
 72
11
 73
7
 74
0
 42
0.0000001
 43
0.0000001
 44
0.0000000001
 40
0.0
 40
0.0
 40
0.0
 40
0.0
 40
0.2094829334
 40
0.4446557434
 40
0.7120095299
 40
1.0
 40
1.0
 40
1.0
 40
1.0
 10
100.3958499309
 20
95.63826056
 30
0.0
 10
100.283401061
 20
95.4434934041
 30
0.0
 10
100.168377718
 20
94.9521473561
 30
0.0
 10
100.3761289062
 20
94.1935118614
 30
0.0
 10
100.8788584035
 20
93.4931463005
 30
0.0
 10
101.3580230749
 20
93.1231578421
 30
0.0
 10
101.6257827626
 20
92.9685667143
 30
0.0
  0
SPLINE
  5
4A1
100
AcDbEntity
  8
KONSTRUKTIONSELEMENTE
100
AcDbSpline
 62
7
  6
CONTINUOUS
 70
0
 71
3
 72
9
 73
5
 74
0
 42
0.0000001
 43
0.0000001
 44
0.0000000001
 40
0.0
 40
0.0
 40
0.0
 40
0.0
 40
0.4517053273
 40
1.0
 40
1.0
 40
1.0
 40
1.0
 10
158.3426132956
 20
94.3780019296
 30
0.0
 10
158.3996034046
 20
94.4767256702
 30
0.0
 10
158.4187149957
 20
94.756723464
 30
0.0
 10
158.271788597
 20
94.9774583956
 30
0.0
 10
158.1762364248
 20
95.0775352443
 30
0.0
  0
SPLINE
  5
4A2
100
AcDbEntity
  8
KONSTRUKTIONSELEMENTE
100
AcDbSpline
 62
7
  6
CONTINUOUS
 70
0
 71
3
 72
9
 73
5
 74
0
 42
0.0000001
 43
0.0000001
 44
0.0000000001
 40
0.0
 40
0.0
 40
0.0
 40
0.0
 40
0.5089312496
 40
1.0
 40
1.0
 40
1.0
 40
1.0
 10
212.7433187015
 20
123.2091767873
 30
0.0
 10
213.0779190894
 20
123.3995561393
 30
0.0
 10
213.6944528063
 20
123.8536823886
 30
0.0
 10
214.1675256588
 20
124.4580356654
 30
0.0
 10
214.3532429962
 20
124.7797345438
 30
0.0
  0
SPLINE
  5
4A3
100
AcDbEntity
  8
KONSTRUKTIONSELEMENTE
100
AcDbSpline
 62
7
  6
CONTINUOUS
 70
0
 71
3
 72
9
 73
5
 74
0
 42
0.0000001
 43
0.0000001
 44
0.0000000001
 40
0.0
 40
0.0
 40
0.0
 40
0.0
 40
0.5358983849
 40
1.0
 40
1.0
 40
1.0
 40
1.0
 10
210.2373124596
 20
122.6429544985
 30
0.0
 10
210.378255793
 20
122.4953370835
 30
0.0
 10
210.7199954445
 20
122.2905393693
 30
0.0
 10
211.1419717507
 20
122.2980499451
 30
0.0
 10
211.295599208
 20
122.3854601718
 30
0.0
  0
SPLINE
  5
4A4
100
AcDbEntity
  8
KONSTRUKTIONSELEMENTE
100
AcDbSpline
 62
7
  6
CONTINUOUS
 70
0
 71
3
 72
9
 73
5
 74
0
 42
0.0000001
 43
0.0000001
 44
0.0000000001
 40
0.0
 40
0.0
 40
0.0
 40
0.0
 40
0.2586509047
 40
1.0
 40
1.0
 40
1.0
 40
1.0
 10
156.4138693157
 20
91.1591121096
 30
0.0
 10
156.4308319969
 20
91.1687634561
 30
0.0
 10
156.4941556835
 20
91.2098556957
 30
0.0
 10
156.5468805376
 20
91.2676946976
 30
0.0
 10
156.5748463426
 20
91.3161397511
 30
0.0
  0
SPLINE
  5
4A5
100
AcDbEntity
  8
KONSTRUKTIONSELEMENTE
100
AcDbSpline
 62
7
  6
CONTINUOUS
 70
0
 71
3
 72
11
 73
7
 74
0
 42
0.0000001
 43
0.0000001
 44
0.0000000001
 40
0.0
 40
0.0
 40
0.0
 40
0.0
 40
0.2745288198
 40
0.5376308219
 40
0.7805434542
 40
1.0
 40
1.0
 40
1.0
 40
1.0
 10
149.1491243375
 20
91.0056459882
 30
0.0
 10
149.6546703627
 20
90.7137688545
 30
0.0
 10
150.7066676021
 20
90.2419675788
 30
0.0
 10
152.3442508531
 20
89.8970024083
 30
0.0
 10
153.9026224147
 20
89.9480003851
 30
0.0
 10
154.8536763687
 20
90.2714008785
 30
0.0
 10
155.259269402
 20
90.5021732914
 30
0.0
  0
SPLINE
  5
4A6
100
AcDbEntity
  8
KONSTRUKTIONSELEMENTE
100
AcDbSpline
 62
7
  6
CONTINUOUS
 70
0
 71
3
 72
12
 73
8
 74
0
 42
0.0000001
 43
0.0000001
 44
0.0000000001
 40
0.0
 40
0.0
 40
0.0
 40
0.0
 40
0.2874378001
 40
0.5543027143
 40
0.7890463209
 40
0.896415877
 40
1.0
 40
1.0
 40
1.0
 40
1.0
 10
131.5013613354
 20
101.194586708
 30
0.0
 10
130.787368318
 20
101.6068107688
 30
0.0
 10
129.2934465428
 20
102.2189522145
 30
0.0
 10
127.0081132323
 20
102.45078854
 30
0.0
 10
125.2630485137
 20
101.9827932721
 30
0.0
 10
124.2234690918
 20
101.2162038014
 30
0.0
 10
123.8446104699
 20
100.732705188
 30
0.0
 10
123.6960570514
 20
100.4754031196
 30
0.0
  0
SPLINE
  5
4A7
100
AcDbEntity
  8
KONSTRUKTIONSELEMENTE
100
AcDbSpline
 62
7
  6
CONTINUOUS
 70
0
 71
3
 72
11
 73
7
 74
0
 42
0.0000001
 43
0.0000001
 44
0.0000000001
 40
0.0
 40
0.0
 40
0.0
 40
0.0
 40
0.2187538164
 40
0.4541436435
 40
0.7148565427
 40
1.0
 40
1.0
 40
1.0
 40
1.0
 10
216.1210099492
 20
127.8415967223
 30
0.0
 10
216.4006214059
 20
128.3259386436
 30
0.0
 10
216.7647081934
 20
129.4692409682
 30
0.0
 10
216.6067009532
 20
131.3268613443
 30
0.0
 10
215.8204916573
 20
133.1911426049
 30
0.0
 10
214.9605023105
 20
134.3093952464
 30
0.0
 10
214.4570872153
 20
134.8366485279
 30
0.0
  0
SPLINE
  5
4A8
100
AcDbEntity
  8
KONSTRUKTIONSELEMENTE
100
AcDbSpline
 62
7
  6
CONTINUOUS
 70
0
 71
3
 72
9
 73
5
 74
0
 42
0.0000001
 43
0.0000001
 44
0.0000000001
 40
0.0
 40
0.0
 40
0.0
 40
0.0
 40
0.2578752243
 40
1.0
 40
1.0
 40
1.0
 40
1.0
 10
114.8718801897
 20
175.9411563371
 30
0.0
 10
114.9343480508
 20
175.9259571296
 30
0.0
 10
115.1783565064
 20
175.8748325621
 30
0.0
 10
115.4294927247
 20
175.8552462746
 30
0.0
 10
115.6143569957
 20
175.8627779918
 30
0.0
  0
SPLINE
  5
4A9
100
AcDbEntity
  8
KONSTRUKTIONSELEMENTE
100
AcDbSpline
 62
7
  6
CONTINUOUS
 70
0
 71
3
 72
11
 73
7
 74
0
 42
0.0000001
 43
0.0000001
 44
0.0000000001
 40
0.0
 40
0.0
 40
0.0
 40
0.0
 40
0.2879904701
 40
0.5553442566
 40
0.7905170666
 40
1.0
 40
1.0
 40
1.0
 40
1.0
 10
115.6207532877
 20
84.8885667143
 30
0.0
 10
115.8885129754
 20
84.7339755866
 30
0.0
 10
116.4485147152
 20
84.5040010377
 30
0.0
 10
117.3064138315
 20
84.4188073023
 30
0.0
 10
118.0672870363
 20
84.618207243
 30
0.0
 10
118.4352935243
 20
84.9634934041
 30
0.0
 10
118.5477423943
 20
85.15826056
 30
0.0
  0
SPLINE
  5
4AA
100
AcDbEntity
  8
KONSTRUKTIONSELEMENTE
100
AcDbSpline
 62
7
  6
CONTINUOUS
 70
0
 71
3
 72
11
 73
7
 74
0
 42
0.0000001
 43
0.0000001
 44
0.0000000001
 40
0.0
 40
0.0
 40
0.0
 40
0.0
 40
0.2809363762
 40
0.5390132064
 40
0.7759685789
 40
1.0
 40
1.0
 40
1.0
 40
1.0
 10
131.2598508782
 20
101.1862218977
 30
0.0
 10
130.7824592161
 20
101.2367735835
 30
0.0
 10
129.8526955354
 20
101.2430543708
 30
0.0
 10
128.548157441
 20
100.9327447681
 30
0.0
 10
127.4656118919
 20
100.3109362595
 30
0.0
 10
126.9415921532
 20
99.6968348135
 30
0.0
 10
126.750181056
 20
99.3653010681
 30
0.0
  0
SPLINE
  5
4AB
100
AcDbEntity
  8
KONSTRUKTIONSELEMENTE
100
AcDbSpline
 62
7
  6
CONTINUOUS
 70
0
 71
3
 72
11
 73
7
 74
0
 42
0.0000001
 43
0.0000001
 44
0.0000000001
 40
0.0
 40
0.0
 40
0.0
 40
0.0
 40
0.2764757917
 40
0.5326342242
 40
0.7713875913
 40
1.0
 40
1.0
 40
1.0
 40
1.0
 10
108.5643749465
 20
114.3831194403
 30
0.0
 10
108.7613531429
 20
114.0341494365
 30
0.0
 10
109.0794708771
 20
113.3236873271
 30
0.0
 10
109.3000721787
 20
112.2166073281
 30
0.0
 10
109.2305244253
 20
111.1568193184
 30
0.0
 10
108.9834708043
 20
110.5124562288
 30
0.0
 10
108.8177950104
 20
110.2254973362
 30
0.0
  0
SPLINE
  5
4AC
100
AcDbEntity
  8
KONSTRUKTIONSELEMENTE
100
AcDbSpline
 62
7
  6
CONTINUOUS
 70
0
 71
3
 72
9
 73
5
 74
0
 42
0.0000001
 43
0.0000001
 44
0.0000000001
 40
0.0
 40
0.0
 40
0.0
 40
0.0
 40
0.2584251542
 40
1.0
 40
1.0
 40
1.0
 40
1.0
 10
103.9530708901
 20
174.4090376728
 30
0.0
 10
103.9527021304
 20
174.4675329119
 30
0.0
 10
103.9645501919
 20
174.6936807298
 30
0.0
 10
104.0356413034
 20
174.9174399559
 30
0.0
 10
104.1195771327
 20
175.0628085683
 30
0.0
  0
SPLINE
  5
4AD
100
AcDbEntity
  8
KONSTRUKTIONSELEMENTE
100
AcDbSpline
 62
7
  6
CONTINUOUS
 70
0
 71
3
 72
8
 73
4
 74
0
 42
0.0000001
 43
0.0000001
 44
0.0000000001
 40
0.0
 40
0.0
 40
0.0
 40
0.0
 40
1.0
 40
1.0
 40
1.0
 40
1.0
 10
103.5751533479
 20
189.0005732341
 30
0.0
 10
103.5758095107
 20
188.8964881165
 30
0.0
 10
103.5875844795
 20
188.7920651614
 30
0.0
 10
103.6084621423
 20
188.6900932758
 30
0.0
  0
SPLINE
  5
4AE
100
AcDbEntity
  8
KONSTRUKTIONSELEMENTE
100
AcDbSpline
 62
7
  6
CONTINUOUS
 70
0
 71
3
 72
9
 73
5
 74
0
 42
0.0000001
 43
0.0000001
 44
0.0000000001
 40
0.0
 40
0.0
 40
0.0
 40
0.0
 40
0.4654013423
 40
1.0
 40
1.0
 40
1.0
 40
1.0
 10
104.003186531
 20
121.1029602682
 30
0.0
 10
104.0091958368
 20
120.1497221996
 30
0.0
 10
104.6261529663
 20
118.1038453504
 30
0.0
 10
105.9552365521
 20
116.4906270318
 30
0.0
 10
106.7675071266
 20
115.7563109588
 30
0.0
  0
SPLINE
  5
4AF
100
AcDbEntity
  8
KONSTRUKTIONSELEMENTE
100
AcDbSpline
 62
7
  6
CONTINUOUS
 70
0
 71
3
 72
11
 73
7
 74
0
 42
0.0000001
 43
0.0000001
 44
0.0000000001
 40
0.0
 40
0.0
 40
0.0
 40
0.0
 40
0.2180723574
 40
0.4659823302
 40
0.7329881953
 40
1.0
 40
1.0
 40
1.0
 40
1.0
 10
193.2058450109
 20
131.9718579185
 30
0.0
 10
193.9373835134
 20
132.3880852486
 30
0.0
 10
195.7367767533
 20
132.8715983462
 30
0.0
 10
198.5942775326
 20
132.5797713087
 30
0.0
 10
201.4215342705
 20
131.4234216668
 30
0.0
 10
203.0770511762
 20
130.1422752271
 30
0.0
 10
203.7887124941
 20
129.3969146513
 30
0.0
  0
SPLINE
  5
4B0
100
AcDbEntity
  8
KONSTRUKTIONSELEMENTE
100
AcDbSpline
 62
7
  6
CONTINUOUS
 70
0
 71
3
 72
11
 73
7
 74
0
 42
0.0000001
 43
0.0000001
 44
0.0000000001
 40
0.0
 40
0.0
 40
0.0
 40
0.0
 40
0.2187538164
 40
0.4541436435
 40
0.7148565427
 40
1.0
 40
1.0
 40
1.0
 40
1.0
 10
214.3532429962
 20
124.7797345438
 30
0.0
 10
214.632854453
 20
125.2640764651
 30
0.0
 10
214.9969412404
 20
126.4073787897
 30
0.0
 10
214.8389340003
 20
128.2649991658
 30
0.0
 10
214.0527247043
 20
130.1292804264
 30
0.0
 10
213.1927353575
 20
131.2475330679
 30
0.0
 10
212.6893202623
 20
131.7747863494
 30
0.0
  0
SPLINE
  5
4B1
100
AcDbEntity
  8
KONSTRUKTIONSELEMENTE
100
AcDbSpline
 62
7
  6
CONTINUOUS
 70
0
 71
3
 72
9
 73
5
 74
0
 42
0.0000001
 43
0.0000001
 44
0.0000000001
 40
0.0
 40
0.0
 40
0.0
 40
0.0
 40
0.5394801424
 40
1.0
 40
1.0
 40
1.0
 40
1.0
 10
113.6850717267
 20
171.4363698132
 30
0.0
 10
114.0151945801
 20
171.3560468175
 30
0.0
 10
114.6597386927
 20
171.3022578476
 30
0.0
 10
115.2784397775
 20
171.5523268631
 30
0.0
 10
115.4965648952
 20
171.743472876
 30
0.0
  0
SPLINE
  5
4B2
100
AcDbEntity
  8
KONSTRUKTIONSELEMENTE
100
AcDbSpline
 62
7
  6
CONTINUOUS
 70
0
 71
3
 72
11
 73
7
 74
0
 42
0.0000001
 43
0.0000001
 44
0.0000000001
 40
0.0
 40
0.0
 40
0.0
 40
0.0
 40
0.2819831575
 40
0.5426850885
 40
0.7803647343
 40
1.0
 40
1.0
 40
1.0
 40
1.0
 10
113.6697986617
 20
173.8590900557
 30
0.0
 10
113.8621446221
 20
173.8122898915
 30
0.0
 10
114.2425964098
 20
173.7579639414
 30
0.0
 10
114.7938786883
 20
173.8055356899
 30
0.0
 10
115.2728606182
 20
173.9845291654
 30
0.0
 10
115.5263527249
 20
174.1944108088
 30
0.0
 10
115.6242031894
 20
174.3135715795
 30
0.0
  0
SPLINE
  5
4B3
100
AcDbEntity
  8
KONSTRUKTIONSELEMENTE
100
AcDbSpline
 62
7
  6
CONTINUOUS
 70
0
 71
3
 72
9
 73
5
 74
0
 42
0.0000001
 43
0.0000001
 44
0.0000000001
 40
0.0
 40
0.0
 40
0.0
 40
0.0
 40
0.4517053273
 40
1.0
 40
1.0
 40
1.0
 40
1.0
 10
156.5748463426
 20
91.3161397511
 30
0.0
 10
156.6318364516
 20
91.4148634918
 30
0.0
 10
156.6509480428
 20
91.6948612855
 30
0.0
 10
156.504021644
 20
91.9155962171
 30
0.0
 10
156.4084694718
 20
92.0156730659
 30
0.0
  0
SPLINE
  5
4B4
100
AcDbEntity
  8
KONSTRUKTIONSELEMENTE
100
AcDbSpline
 62
7
  6
CONTINUOUS
 70
0
 71
3
 72
11
 73
7
 74
0
 42
0.0000001
 43
0.0000001
 44
0.0000000001
 40
0.0
 40
0.0
 40
0.0
 40
0.0
 40
0.2187337062
 40
0.4541366386
 40
0.7148275965
 40
1.0
 40
1.0
 40
1.0
 40
1.0
 10
104.1195771327
 20
175.0628085683
 30
0.0
 10
104.2034664086
 20
175.2080965546
 30
0.0
 10
104.4458878327
 20
175.4741919501
 30
0.0
 10
104.9521890934
 20
175.7118207187
 30
0.0
 10
105.5545050349
 20
175.7872702362
 30
0.0
 10
105.9740558126
 20
175.7315599951
 30
0.0
 10
106.1865812999
 20
175.6798499011
 30
0.0
  0
SPLINE
  5
4B5
100
AcDbEntity
  8
KONSTRUKTIONSELEMENTE
100
AcDbSpline
 62
7
  6
CONTINUOUS
 70
0
 71
3
 72
11
 73
7
 74
0
 42
0.0000001
 43
0.0000001
 44
0.0000000001
 40
0.0
 40
0.0
 40
0.0
 40
0.0
 40
0.2851724035
 40
0.5458633614
 40
0.7812662938
 40
1.0
 40
1.0
 40
1.0
 40
1.0
 10
113.4022290143
 20
170.9464718646
 30
0.0
 10
113.6147545016
 20
170.8947617706
 30
0.0
 10
114.0343052793
 20
170.8390515295
 30
0.0
 10
114.6366212207
 20
170.914501047
 30
0.0
 10
115.1429224815
 20
171.1521298156
 30
0.0
 10
115.3853439056
 20
171.4182252112
 30
0.0
 10
115.4692331814
 20
171.5635131974
 30
0.0
  0
SPLINE
  5
4B6
100
AcDbEntity
  8
KONSTRUKTIONSELEMENTE
100
AcDbSpline
 62
7
  6
CONTINUOUS
 70
0
 71
3
 72
11
 73
7
 74
0
 42
0.0000001
 43
0.0000001
 44
0.0000000001
 40
0.0
 40
0.0
 40
0.0
 40
0.0
 40
0.2851562407
 40
0.5458562973
 40
0.7812472715
 40
1.0
 40
1.0
 40
1.0
 40
1.0
 10
111.0010967159
 20
196.2650142983
 30
0.0
 10
110.292714265
 20
196.437372558
 30
0.0
 10
108.8942236137
 20
196.6230070501
 30
0.0
 10
106.8865244014
 20
196.3717030058
 30
0.0
 10
105.1987680804
 20
195.579603377
 30
0.0
 10
104.3907399062
 20
194.6925476996
 30
0.0
 10
104.1110759808
 20
194.2082133814
 30
0.0
  0
SPLINE
  5
4B7
100
AcDbEntity
  8
KONSTRUKTIONSELEMENTE
100
AcDbSpline
 62
7
  6
CONTINUOUS
 70
0
 71
3
 72
11
 73
7
 74
0
 42
0.0000001
 43
0.0000001
 44
0.0000000001
 40
0.0
 40
0.0
 40
0.0
 40
0.0
 40
0.2851597611
 40
0.5458622252
 40
0.7812471547
 40
1.0
 40
1.0
 40
1.0
 40
1.0
 10
149.9598695063
 20
98.7696332186
 30
0.0
 10
149.4564105001
 20
99.2969324906
 30
0.0
 10
148.5963996755
 20
100.4152443162
 30
0.0
 10
147.8101969126
 20
102.2795973882
 30
0.0
 10
147.6522874168
 20
104.1372543993
 30
0.0
 10
148.0164581578
 20
105.2805345197
 30
0.0
 10
148.296060917
 20
105.7648979984
 30
0.0
  0
LINE
  5
4B8
100
AcDbEntity
  8
0
100
AcDbLine
 62
7
  6
CONTINUOUS
 10
473.8468157189
 20
150.8308435204
 11
468.0585775319
 21
159.61489687
  0
LINE
  5
4B9
100
AcDbEntity
  8
0
100
AcDbLine
 62
7
  6
CONTINUOUS
 10
507.8808621453
 20
182.6063036113
 11
512.5939564007
 21
173.2015156234
  0
SPLINE
  5
4BA
100
AcDbEntity
  8
0
100
AcDbSpline
 62
7
  6
CONTINUOUS
 70
0
 71
3
 72
9
 73
5
 74
0
 42
0.0000001
 43
0.0000001
 44
0.0000000001
 40
0.0
 40
0.0
 40
0.0
 40
0.0
 40
0.5187552106
 40
1.0
 40
1.0
 40
1.0
 40
1.0
 10
463.1666441391
 20
165.1412928054
 30
0.0
 10
463.2589216295
 20
164.5808596041
 30
0.0
 10
463.6370102816
 20
163.5140718615
 30
0.0
 10
464.4573525261
 20
162.7214342963
 30
0.0
 10
464.9113289755
 20
162.4539663819
 30
0.0
  0
SPLINE
  5
4BB
100
AcDbEntity
  8
0
100
AcDbSpline
 62
7
  6
CONTINUOUS
 70
0
 71
3
 72
9
 73
5
 74
0
 42
0.0000001
 43
0.0000001
 44
0.0000000001
 40
0.0
 40
0.0
 40
0.0
 40
0.0
 40
0.4812541925
 40
1.0
 40
1.0
 40
1.0
 40
1.0
 10
506.995780103
 20
186.751435569
 30
0.0
 10
506.9911342292
 20
187.2783348678
 30
0.0
 10
506.7148530247
 20
188.3850904946
 30
0.0
 10
505.980032177
 20
189.2459155095
 30
0.0
 10
505.5408295702
 20
189.6060401707
 30
0.0
  0
SPLINE
  5
4BC
100
AcDbEntity
  8
0
100
AcDbSpline
 62
7
  6
CONTINUOUS
 70
0
 71
3
 72
11
 73
7
 74
0
 42
0.0000001
 43
0.0000001
 44
0.0000000001
 40
0.0
 40
0.0
 40
0.0
 40
0.0
 40
0.2452487878
 40
0.492735829
 40
0.7443459021
 40
1.0
 40
1.0
 40
1.0
 40
1.0
 10
456.777788757
 20
184.070006651
 30
0.0
 10
456.5609499159
 20
183.6190758379
 30
0.0
 10
456.1863121246
 20
182.6812347964
 30
0.0
 10
455.8845851837
 20
181.1817828286
 30
0.0
 10
455.9508047188
 20
179.6247206159
 30
0.0
 10
456.3160264219
 20
178.6321815727
 30
0.0
 10
456.5768196761
 20
178.1804744061
 30
0.0
  0
SPLINE
  5
4BD
100
AcDbEntity
  8
0
100
AcDbSpline
 62
7
  6
CONTINUOUS
 70
0
 71
3
 72
11
 73
7
 74
0
 42
0.0000001
 43
0.0000001
 44
0.0000000001
 40
0.0
 40
0.0
 40
0.0
 40
0.0
 40
0.2556575941
 40
0.5072684484
 40
0.7547532783
 40
1.0
 40
1.0
 40
1.0
 40
1.0
 10
497.5434792909
 20
201.8325863626
 30
0.0
 10
497.2826824697
 20
202.2842997074
 30
0.0
 10
496.6057217412
 20
203.0968666469
 30
0.0
 10
495.2903684603
 20
203.9327415626
 30
0.0
 10
493.8409473602
 20
204.4211580996
 30
0.0
 10
492.8414429677
 20
204.5656310113
 30
0.0
 10
492.3425102101
 20
204.6033081556
 30
0.0
  0
SPLINE
  5
4BE
100
AcDbEntity
  8
0
100
AcDbSpline
 62
7
  6
CONTINUOUS
 70
0
 71
3
 72
9
 73
5
 74
0
 42
0.0000001
 43
0.0000001
 44
0.0000000001
 40
0.0
 40
0.0
 40
0.0
 40
0.0
 40
0.4949126613
 40
1.0
 40
1.0
 40
1.0
 40
1.0
 10
507.8808621453
 20
182.6063036113
 30
0.0
 10
507.5646729955
 20
183.2351877349
 30
0.0
 10
507.1175140709
 20
184.6070205105
 30
0.0
 10
507.0021139836
 20
186.0330955255
 30
0.0
 10
506.995780103
 20
186.751435569
 30
0.0
  0
SPLINE
  5
4BF
100
AcDbEntity
  8
0
100
AcDbSpline
 62
7
  6
CONTINUOUS
 70
0
 71
3
 72
9
 73
5
 74
0
 42
0.0000001
 43
0.0000001
 44
0.0000000001
 40
0.0
 40
0.0
 40
0.0
 40
0.0
 40
0.5050884231
 40
1.0
 40
1.0
 40
1.0
 40
1.0
 10
464.9113289755
 20
162.4539663819
 30
0.0
 10
465.5302640721
 20
162.0893102865
 30
0.0
 10
466.7075803585
 20
161.2763322213
 30
0.0
 10
467.6720433381
 20
160.2031654615
 30
0.0
 10
468.0585775319
 20
159.61489687
 30
0.0
  0
SPLINE
  5
4C0
100
AcDbEntity
  8
0
100
AcDbSpline
 62
7
  6
CONTINUOUS
 70
0
 71
3
 72
9
 73
5
 74
0
 42
0.0000001
 43
0.0000001
 44
0.0000000001
 40
0.0
 40
0.0
 40
0.0
 40
0.0
 40
0.5001118291
 40
1.0
 40
1.0
 40
1.0
 40
1.0
 10
505.5408295702
 20
189.6060401707
 30
0.0
 10
504.9884667029
 20
190.0589507122
 30
0.0
 10
503.9449941641
 20
191.0442116868
 30
0.0
 10
503.0995458512
 20
192.20919679
 30
0.0
 10
502.7425527038
 20
192.8275270592
 30
0.0
  0
SPLINE
  5
4C1
100
AcDbEntity
  8
0
100
AcDbSpline
 62
7
  6
CONTINUOUS
 70
0
 71
3
 72
9
 73
5
 74
0
 42
0.0000001
 43
0.0000001
 44
0.0000000001
 40
0.0
 40
0.0
 40
0.0
 40
0.0
 40
0.4998905156
 40
1.0
 40
1.0
 40
1.0
 40
1.0
 10
461.7758930889
 20
169.1754151028
 30
0.0
 10
462.1328879187
 20
168.5570819195
 30
0.0
 10
462.7190709288
 20
167.2424096469
 30
0.0
 10
463.0505940797
 20
165.8461050627
 30
0.0
 10
463.1666441391
 20
165.1412928054
 30
0.0
  0
SPLINE
  5
4C2
100
AcDbEntity
  8
KONSTRUKTIONSELEMENTE
100
AcDbSpline
 62
7
  6
CONTINUOUS
 70
0
 71
3
 72
9
 73
5
 74
0
 42
0.0000001
 43
0.0000001
 44
0.0000000001
 40
0.0
 40
0.0
 40
0.0
 40
0.0
 40
0.5050884231
 40
1.0
 40
1.0
 40
1.0
 40
1.0
 10
179.1294780672
 20
162.4539663819
 30
0.0
 10
178.5105429706
 20
162.0893102865
 30
0.0
 10
177.3332266842
 20
161.2763322213
 30
0.0
 10
176.3687637046
 20
160.2031654615
 30
0.0
 10
175.9822295108
 20
159.61489687
 30
0.0
  0
SPLINE
  5
4C3
100
AcDbEntity
  8
KONSTRUKTIONSELEMENTE
100
AcDbSpline
 62
7
  6
CONTINUOUS
 70
0
 71
3
 72
9
 73
5
 74
0
 42
0.0000001
 43
0.0000001
 44
0.0000000001
 40
0.0
 40
0.0
 40
0.0
 40
0.0
 40
0.5001118291
 40
1.0
 40
1.0
 40
1.0
 40
1.0
 10
138.4999774725
 20
189.6060401707
 30
0.0
 10
139.0523403399
 20
190.0589507122
 30
0.0
 10
140.0958128786
 20
191.0442116868
 30
0.0
 10
140.9412611915
 20
192.20919679
 30
0.0
 10
141.2982543389
 20
192.8275270592
 30
0.0
  0
SPLINE
  5
4C4
100
AcDbEntity
  8
KONSTRUKTIONSELEMENTE
100
AcDbSpline
 62
7
  6
CONTINUOUS
 70
0
 71
3
 72
9
 73
5
 74
0
 42
0.0000001
 43
0.0000001
 44
0.0000000001
 40
0.0
 40
0.0
 40
0.0
 40
0.0
 40
0.4998905156
 40
1.0
 40
1.0
 40
1.0
 40
1.0
 10
182.2649139538
 20
169.1754151028
 30
0.0
 10
181.907919124
 20
168.5570819195
 30
0.0
 10
181.3217361139
 20
167.2424096469
 30
0.0
 10
180.990212963
 20
165.8461050627
 30
0.0
 10
180.8741629036
 20
165.1412928054
 30
0.0
  0
SPLINE
  5
4C5
100
AcDbEntity
  8
KONSTRUKTIONSELEMENTE
100
AcDbSpline
 62
7
  6
CONTINUOUS
 70
0
 71
3
 72
11
 73
7
 74
0
 42
0.0000001
 43
0.0000001
 44
0.0000000001
 40
0.0
 40
0.0
 40
0.0
 40
0.0
 40
0.2556575941
 40
0.5072684484
 40
0.7547532783
 40
1.0
 40
1.0
 40
1.0
 40
1.0
 10
146.4973277518
 20
201.8325863626
 30
0.0
 10
146.758124573
 20
202.2842997074
 30
0.0
 10
147.4350853016
 20
203.0968666469
 30
0.0
 10
148.7504385824
 20
203.9327415626
 30
0.0
 10
150.1998596825
 20
204.4211580996
 30
0.0
 10
151.199364075
 20
204.5656310113
 30
0.0
 10
151.6982968326
 20
204.6033081556
 30
0.0
  0
LINE
  5
4C6
100
AcDbEntity
  8
0
100
AcDbLine
 62
7
  6
CONTINUOUS
 10
175.9822295108
 20
159.61489687
 11
170.1939913238
 21
150.8308435204
  0
SPLINE
  5
4C7
100
AcDbEntity
  8
KONSTRUKTIONSELEMENTE
100
AcDbSpline
 62
7
  6
CONTINUOUS
 70
0
 71
3
 72
11
 73
7
 74
0
 42
0.0000001
 43
0.0000001
 44
0.0000000001
 40
0.0
 40
0.0
 40
0.0
 40
0.0
 40
0.2452487878
 40
0.492735829
 40
0.7443459021
 40
1.0
 40
1.0
 40
1.0
 40
1.0
 10
187.2630182857
 20
184.070006651
 30
0.0
 10
187.4798571268
 20
183.6190758379
 30
0.0
 10
187.8544949181
 20
182.6812347964
 30
0.0
 10
188.156221859
 20
181.1817828286
 30
0.0
 10
188.0900023239
 20
179.6247206159
 30
0.0
 10
187.7247806208
 20
178.6321815727
 30
0.0
 10
187.4639873666
 20
178.1804744061
 30
0.0
  0
LINE
  5
4C8
100
AcDbEntity
  8
0
100
AcDbLine
 62
7
  6
CONTINUOUS
 10
131.446850642
 20
173.2015156234
 11
136.1599448974
 21
182.6063036113
  0
SPLINE
  5
4C9
100
AcDbEntity
  8
KONSTRUKTIONSELEMENTE
100
AcDbSpline
 62
7
  6
CONTINUOUS
 70
0
 71
3
 72
9
 73
5
 74
0
 42
0.0000001
 43
0.0000001
 44
0.0000000001
 40
0.0
 40
0.0
 40
0.0
 40
0.0
 40
0.4812541925
 40
1.0
 40
1.0
 40
1.0
 40
1.0
 10
137.0450269397
 20
186.751435569
 30
0.0
 10
137.0496728135
 20
187.2783348678
 30
0.0
 10
137.325954018
 20
188.3850904946
 30
0.0
 10
138.0607748657
 20
189.2459155095
 30
0.0
 10
138.4999774725
 20
189.6060401707
 30
0.0
  0
SPLINE
  5
4CA
100
AcDbEntity
  8
KONSTRUKTIONSELEMENTE
100
AcDbSpline
 62
7
  6
CONTINUOUS
 70
0
 71
3
 72
9
 73
5
 74
0
 42
0.0000001
 43
0.0000001
 44
0.0000000001
 40
0.0
 40
0.0
 40
0.0
 40
0.0
 40
0.5187552106
 40
1.0
 40
1.0
 40
1.0
 40
1.0
 10
180.8741629036
 20
165.1412928054
 30
0.0
 10
180.7818854132
 20
164.5808596041
 30
0.0
 10
180.4037967611
 20
163.5140718615
 30
0.0
 10
179.5834545166
 20
162.7214342963
 30
0.0
 10
179.1294780672
 20
162.4539663819
 30
0.0
  0
SPLINE
  5
4CB
100
AcDbEntity
  8
KONSTRUKTIONSELEMENTE
100
AcDbSpline
 62
7
  6
CONTINUOUS
 70
0
 71
3
 72
9
 73
5
 74
0
 42
0.0000001
 43
0.0000001
 44
0.0000000001
 40
0.0
 40
0.0
 40
0.0
 40
0.0
 40
0.4949126613
 40
1.0
 40
1.0
 40
1.0
 40
1.0
 10
136.1599448974
 20
182.6063036113
 30
0.0
 10
136.4761340472
 20
183.2351877349
 30
0.0
 10
136.9232929719
 20
184.6070205105
 30
0.0
 10
137.0386930592
 20
186.0330955255
 30
0.0
 10
137.0450269397
 20
186.751435569
 30
0.0
  0
SPLINE
  5
4CC
100
AcDbEntity
  8
KONSTRUKTIONSELEMENTE
100
AcDbSpline
 62
7
  6
CONTINUOUS
 70
0
 71
3
 72
9
 73
5
 74
0
 42
0.0000001
 43
0.0000001
 44
0.0000000001
 40
0.0
 40
0.0
 40
0.0
 40
0.0
 40
0.272606519
 40
1.0
 40
1.0
 40
1.0
 40
1.0
 10
770.0294130998
 20
239.8418999443
 30
0.0
 10
770.0342029321
 20
239.8636768328
 30
0.0
 10
770.0562695381
 20
239.9423132716
 30
0.0
 10
770.102173296
 20
240.0156487207
 30
0.0
 10
770.1471905978
 20
240.054548847
 30
0.0
  0
SPLINE
  5
4CD
100
AcDbEntity
  8
KONSTRUKTIONSELEMENTE
100
AcDbSpline
 62
7
  6
CONTINUOUS
 70
0
 71
3
 72
9
 73
5
 74
0
 42
0.0000001
 43
0.0000001
 44
0.0000000001
 40
0.0
 40
0.0
 40
0.0
 40
0.0
 40
0.546991612
 40
1.0
 40
1.0
 40
1.0
 40
1.0
 10
773.1965705094
 20
236.3266119863
 30
0.0
 10
773.1965705094
 20
236.2550265477
 30
0.0
 10
773.1816652905
 20
236.1221378514
 30
0.0
 10
773.108828097
 20
236.0054861585
 30
0.0
 10
773.0639699056
 20
235.9667235219
 30
0.0
  0
SPLINE
  5
4CE
100
AcDbEntity
  8
KONSTRUKTIONSELEMENTE
100
AcDbSpline
 62
7
  6
CONTINUOUS
 70
0
 71
3
 72
9
 73
5
 74
0
 42
0.0000001
 43
0.0000001
 44
0.0000000001
 40
0.0
 40
0.0
 40
0.0
 40
0.0
 40
0.2337213641
 40
1.0
 40
1.0
 40
1.0
 40
1.0
 10
773.4175232962
 20
236.2729097398
 30
0.0
 10
773.4020187832
 20
236.2595120573
 30
0.0
 10
773.3298764122
 20
236.2086466536
 30
0.0
 10
773.2391344508
 20
236.1898816565
 30
0.0
 10
773.1719886906
 20
236.1876658332
 30
0.0
  0
SPLINE
  5
4CF
100
AcDbEntity
  8
KONSTRUKTIONSELEMENTE
100
AcDbSpline
 62
7
  6
CONTINUOUS
 70
0
 71
3
 72
9
 73
5
 74
0
 42
0.0000001
 43
0.0000001
 44
0.0000000001
 40
0.0
 40
0.0
 40
0.0
 40
0.0
 40
0.4743754937
 40
1.0
 40
1.0
 40
1.0
 40
1.0
 10
781.927202832
 20
237.0951726574
 30
0.0
 10
781.9269752171
 20
236.9043600365
 30
0.0
 10
781.8629106471
 20
236.499858953
 30
0.0
 10
781.6770407262
 20
236.1354188102
 30
0.0
 10
781.5571139431
 20
235.9612952663
 30
0.0
  0
SPLINE
  5
4D0
100
AcDbEntity
  8
KONSTRUKTIONSELEMENTE
100
AcDbSpline
 62
7
  6
CONTINUOUS
 70
0
 71
3
 72
9
 73
5
 74
0
 42
0.0000001
 43
0.0000001
 44
0.0000000001
 40
0.0
 40
0.0
 40
0.0
 40
0.0
 40
0.237985559
 40
1.0
 40
1.0
 40
1.0
 40
1.0
 10
781.5571139431
 20
235.9612952663
 30
0.0
 10
781.5267445821
 20
235.9172015234
 30
0.0
 10
781.3930342614
 20
235.7361726208
 30
0.0
 10
781.23546857
 20
235.5729872215
 30
0.0
 10
781.1058778787
 20
235.4607583907
 30
0.0
  0
SPLINE
  5
4D1
100
AcDbEntity
  8
KONSTRUKTIONSELEMENTE
100
AcDbSpline
 62
7
  6
CONTINUOUS
 70
0
 71
3
 72
9
 73
5
 74
0
 42
0.0000001
 43
0.0000001
 44
0.0000000001
 40
0.0
 40
0.0
 40
0.0
 40
0.0
 40
0.4964115318
 40
1.0
 40
1.0
 40
1.0
 40
1.0
 10
772.974149895
 20
242.5030414012
 30
0.0
 10
773.4690573197
 20
242.9316438035
 30
0.0
 10
774.5768466212
 20
243.6735475899
 30
0.0
 10
775.8246407478
 20
244.138483432
 30
0.0
 10
776.4688534392
 20
244.3000601325
 30
0.0
  0
SPLINE
  5
4D2
100
AcDbEntity
  8
KONSTRUKTIONSELEMENTE
100
AcDbSpline
 62
7
  6
CONTINUOUS
 70
0
 71
3
 72
11
 73
7
 74
0
 42
0.0000001
 43
0.0000001
 44
0.0000000001
 40
0.0
 40
0.0
 40
0.0
 40
0.0
 40
0.2543126619
 40
0.5051065546
 40
0.7532499832
 40
1.0
 40
1.0
 40
1.0
 40
1.0
 10
783.6172488291
 20
243.0868803935
 30
0.0
 10
784.1164108708
 20
242.7491143095
 30
0.0
 10
785.03766337
 20
241.9658610064
 30
0.0
 10
786.101508579
 20
240.5114657888
 30
0.0
 10
786.7730456168
 20
238.8573183694
 30
0.0
 10
786.926369875
 20
237.6790378276
 30
0.0
 10
786.9266363347
 20
237.0942596207
 30
0.0
  0
SPLINE
  5
4D3
100
AcDbEntity
  8
KONSTRUKTIONSELEMENTE
100
AcDbSpline
 62
7
  6
CONTINUOUS
 70
0
 71
3
 72
11
 73
7
 74
0
 42
0.0000001
 43
0.0000001
 44
0.0000000001
 40
0.0
 40
0.0
 40
0.0
 40
0.0
 40
0.2474803687
 40
0.4959793074
 40
0.7466457809
 40
1.0
 40
1.0
 40
1.0
 40
1.0
 10
786.9266363347
 20
237.0942596207
 30
0.0
 10
786.9268678639
 20
236.5861406411
 30
0.0
 10
786.8117759929
 20
235.5642085849
 30
0.0
 10
786.3046213797
 20
234.1049246598
 30
0.0
 10
785.4899299289
 20
232.7788006785
 30
0.0
 10
784.7723646258
 20
232.0216507787
 30
0.0
 10
784.3791462322
 20
231.6811136606
 30
0.0
  0
SPLINE
  5
4D4
100
AcDbEntity
  8
KONSTRUKTIONSELEMENTE
100
AcDbSpline
 62
7
  6
CONTINUOUS
 70
0
 71
3
 72
9
 73
5
 74
0
 42
0.0000001
 43
0.0000001
 44
0.0000000001
 40
0.0
 40
0.0
 40
0.0
 40
0.0
 40
0.2619033554
 40
1.0
 40
1.0
 40
1.0
 40
1.0
 10
781.7742867192
 20
237.8280400121
 30
0.0
 10
781.7997964348
 20
237.7675962025
 30
0.0
 10
781.886686339
 20
237.532568549
 30
0.0
 10
781.9274233843
 20
237.2800646345
 30
0.0
 10
781.927202832
 20
237.0951726574
 30
0.0
  0
SPLINE
  5
4D5
100
AcDbEntity
  8
KONSTRUKTIONSELEMENTE
100
AcDbSpline
 62
7
  6
CONTINUOUS
 70
0
 71
3
 72
9
 73
5
 74
0
 42
0.0000001
 43
0.0000001
 44
0.0000000001
 40
0.0
 40
0.0
 40
0.0
 40
0.0
 40
0.4872963705
 40
1.0
 40
1.0
 40
1.0
 40
1.0
 10
775.0954702386
 20
230.2555926873
 30
0.0
 10
774.5476520377
 20
229.7811682087
 30
0.0
 10
773.0635991691
 20
229.2132135875
 30
0.0
 10
771.5101050596
 20
229.4915384628
 30
0.0
 10
770.836190901
 20
229.848212124
 30
0.0
  0
SPLINE
  5
4D6
100
AcDbEntity
  8
KONSTRUKTIONSELEMENTE
100
AcDbSpline
 62
7
  6
CONTINUOUS
 70
0
 71
3
 72
11
 73
7
 74
0
 42
0.0000001
 43
0.0000001
 44
0.0000000001
 40
0.0
 40
0.0
 40
0.0
 40
0.0
 40
0.2474803687
 40
0.4959793074
 40
0.7466457809
 40
1.0
 40
1.0
 40
1.0
 40
1.0
 10
764.4162521524
 20
231.8847297377
 30
0.0
 10
764.4160206232
 20
232.3928487173
 30
0.0
 10
764.5311124942
 20
233.4147807736
 30
0.0
 10
765.0382671074
 20
234.8740646986
 30
0.0
 10
765.8529585582
 20
236.2001886799
 30
0.0
 10
766.5705238613
 20
236.9573385797
 30
0.0
 10
766.9637422549
 20
237.2978756978
 30
0.0
  0
SPLINE
  5
4D7
100
AcDbEntity
  8
KONSTRUKTIONSELEMENTE
100
AcDbSpline
 62
7
  6
CONTINUOUS
 70
0
 71
3
 72
11
 73
7
 74
0
 42
0.0000001
 43
0.0000001
 44
0.0000000001
 40
0.0
 40
0.0
 40
0.0
 40
0.0
 40
0.2479799116
 40
0.5004054033
 40
0.7525977831
 40
1.0
 40
1.0
 40
1.0
 40
1.0
 10
778.3687385921
 20
226.4759479572
 30
0.0
 10
777.5812290861
 20
225.7939447193
 30
0.0
 10
775.7029688443
 20
224.7256350516
 30
0.0
 10
772.5182923266
 20
224.2229476232
 30
0.0
 10
769.3532627617
 20
224.8262959119
 30
0.0
 10
767.5146347623
 20
225.9564693981
 30
0.0
 10
766.7537393023
 20
226.6644856358
 30
0.0
  0
SPLINE
  5
4D8
100
AcDbEntity
  8
KONSTRUKTIONSELEMENTE
100
AcDbSpline
 62
7
  6
CONTINUOUS
 70
0
 71
3
 72
9
 73
5
 74
0
 42
0.0000001
 43
0.0000001
 44
0.0000000001
 40
0.0
 40
0.0
 40
0.0
 40
0.0
 40
0.2330082413
 40
1.0
 40
1.0
 40
1.0
 40
1.0
 10
769.7936372072
 20
239.7483626292
 30
0.0
 10
769.8095308952
 20
239.7620966035
 30
0.0
 10
769.8838796665
 20
239.8142261059
 30
0.0
 10
769.9775976401
 20
239.8323959423
 30
0.0
 10
770.0467269151
 20
239.8338081593
 30
0.0
  0
SPLINE
  5
4D9
100
AcDbEntity
  8
KONSTRUKTIONSELEMENTE
100
AcDbSpline
 62
7
  6
CONTINUOUS
 70
0
 71
3
 72
15
 73
11
 74
0
 42
0.0000001
 43
0.0000001
 44
0.0000000001
 40
0.0
 40
0.0
 40
0.0
 40
0.0
 40
0.082699247
 40
0.1957940838
 40
0.333737466
 40
0.4862052534
 40
0.6408263759
 40
0.7848058501
 40
0.9071588123
 40
1.0
 40
1.0
 40
1.0
 40
1.0
 10
770.0467269151
 20
239.8338081593
 30
0.0
 10
770.1830510259
 20
239.8365930755
 30
0.0
 10
770.5033253663
 20
239.7454952786
 30
0.0
 10
770.9818096352
 20
239.4729885247
 30
0.0
 10
771.505782144
 20
239.0585218409
 30
0.0
 10
772.0247995871
 20
238.5381106894
 30
0.0
 10
772.4925115524
 20
237.9582176383
 30
0.0
 10
772.8668740931
 20
237.3710520419
 30
0.0
 10
773.1136477574
 20
236.8318825603
 30
0.0
 10
773.1965705094
 20
236.4796863311
 30
0.0
 10
773.1965705094
 20
236.3266119863
 30
0.0
  0
SPLINE
  5
4DA
100
AcDbEntity
  8
KONSTRUKTIONSELEMENTE
100
AcDbSpline
 62
7
  6
CONTINUOUS
 70
0
 71
3
 72
19
 73
15
 74
0
 42
0.0000001
 43
0.0000001
 44
0.0000000001
 40
0.0
 40
0.0
 40
0.0
 40
0.0
 40
0.0298938292
 40
0.0650835855
 40
0.108466288
 40
0.1609985436
 40
0.2222349321
 40
0.2911550146
 40
0.4456854225
 40
0.6095823449
 40
0.7660354067
 40
0.8997960834
 40
0.9545408033
 40
1.0
 40
1.0
 40
1.0
 40
1.0
 10
770.1471905978
 20
240.054548847
 30
0.0
 10
770.1865502492
 20
240.0885601126
 30
0.0
 10
770.2931867858
 20
240.1394315842
 30
0.0
 10
770.48502065
 20
240.1451288546
 30
0.0
 10
770.7089527474
 20
240.094176126
 30
0.0
 10
770.9619465886
 20
239.9878954453
 30
0.0
 10
771.2386886469
 20
239.830308069
 30
0.0
 10
771.6443297953
 20
239.5449371254
 30
0.0
 10
772.1480510057
 20
239.0936126631
 30
0.0
 10
772.6945971954
 20
238.4712934591
 30
0.0
 10
773.1428437997
 20
237.8186474142
 30
0.0
 10
773.4122924389
 20
237.2776383609
 30
0.0
 10
773.5271324553
 20
236.8861586867
 30
0.0
 10
773.5501239
 20
236.71190248
 30
0.0
 10
773.5501239
 20
236.6327982041
 30
0.0
  0
SPLINE
  5
4DB
100
AcDbEntity
  8
KONSTRUKTIONSELEMENTE
100
AcDbSpline
 62
7
  6
CONTINUOUS
 70
0
 71
3
 72
9
 73
5
 74
0
 42
0.0000001
 43
0.0000001
 44
0.0000000001
 40
0.0
 40
0.0
 40
0.0
 40
0.0
 40
0.546991612
 40
1.0
 40
1.0
 40
1.0
 40
1.0
 10
773.5501239
 20
236.6327982041
 30
0.0
 10
773.5501239
 20
236.5612127656
 30
0.0
 10
773.5352186811
 20
236.4283240692
 30
0.0
 10
773.4623814876
 20
236.3116723763
 30
0.0
 10
773.4175232962
 20
236.2729097398
 30
0.0
  0
SPLINE
  5
4DC
100
AcDbEntity
  8
KONSTRUKTIONSELEMENTE
100
AcDbSpline
 62
7
  6
CONTINUOUS
 70
0
 71
3
 72
9
 73
5
 74
0
 42
0.0000001
 43
0.0000001
 44
0.0000000001
 40
0.0
 40
0.0
 40
0.0
 40
0.0
 40
0.272606519
 40
1.0
 40
1.0
 40
1.0
 40
1.0
 10
712.7537638236
 20
190.2397326529
 30
0.0
 10
712.758553656
 20
190.2615095414
 30
0.0
 10
712.780620262
 20
190.3401459802
 30
0.0
 10
712.8265240199
 20
190.4134814294
 30
0.0
 10
712.8715413217
 20
190.4523815556
 30
0.0
  0
SPLINE
  5
4DD
100
AcDbEntity
  8
KONSTRUKTIONSELEMENTE
100
AcDbSpline
 62
7
  6
CONTINUOUS
 70
0
 71
3
 72
9
 73
5
 74
0
 42
0.0000001
 43
0.0000001
 44
0.0000000001
 40
0.0
 40
0.0
 40
0.0
 40
0.0
 40
0.4536677411
 40
1.0
 40
1.0
 40
1.0
 40
1.0
 10
724.6515535559
 20
187.493005366
 30
0.0
 10
724.6512157275
 20
187.209799263
 30
0.0
 10
724.4982158259
 20
186.5798551395
 30
0.0
 10
724.0880404307
 20
186.0818626919
 30
0.0
 10
723.8302286025
 20
185.8585910994
 30
0.0
  0
SPLINE
  5
4DE
100
AcDbEntity
  8
KONSTRUKTIONSELEMENTE
100
AcDbSpline
 62
7
  6
CONTINUOUS
 70
0
 71
3
 72
11
 73
7
 74
0
 42
0.0000001
 43
0.0000001
 44
0.0000000001
 40
0.0
 40
0.0
 40
0.0
 40
0.0
 40
0.2461844042
 40
0.4959427175
 40
0.7478763938
 40
1.0
 40
1.0
 40
1.0
 40
1.0
 10
715.6985006189
 20
192.9008741099
 30
0.0
 10
716.1969681663
 20
193.3325596689
 30
0.0
 10
717.3141790142
 20
194.0791020888
 30
0.0
 10
719.2087195553
 20
194.7799897433
 30
0.0
 10
721.2268995266
 20
195.0432389955
 30
0.0
 10
722.5844116431
 20
194.9178543975
 30
0.0
 10
723.2457042908
 20
194.7809324726
 30
0.0
  0
SPLINE
  5
4DF
100
AcDbEntity
  8
KONSTRUKTIONSELEMENTE
100
AcDbSpline
 62
7
  6
CONTINUOUS
 70
0
 71
3
 72
11
 73
7
 74
0
 42
0.0000001
 43
0.0000001
 44
0.0000000001
 40
0.0
 40
0.0
 40
0.0
 40
0.0
 40
0.2529889227
 40
0.5034781976
 40
0.7521869369
 40
1.0
 40
1.0
 40
1.0
 40
1.0
 10
727.4309095345
 20
192.6007919875
 30
0.0
 10
727.7767336681
 20
192.2653322435
 30
0.0
 10
728.4046867327
 20
191.5317367985
 30
0.0
 10
729.112251935
 20
190.2757022201
 30
0.0
 10
729.5514154698
 20
188.9124796205
 30
0.0
 10
729.650772015
 20
187.9640314823
 30
0.0
 10
729.6509870586
 20
187.4920923293
 30
0.0
  0
SPLINE
  5
4E0
100
AcDbEntity
  8
KONSTRUKTIONSELEMENTE
100
AcDbSpline
 62
7
  6
CONTINUOUS
 70
0
 71
3
 72
11
 73
7
 74
0
 42
0.0000001
 43
0.0000001
 44
0.0000000001
 40
0.0
 40
0.0
 40
0.0
 40
0.0
 40
0.2474803687
 40
0.4959793074
 40
0.7466457809
 40
1.0
 40
1.0
 40
1.0
 40
1.0
 10
729.6509870586
 20
187.4920923293
 30
0.0
 10
729.6512185878
 20
186.9839733498
 30
0.0
 10
729.5361267168
 20
185.9620412935
 30
0.0
 10
729.0289721036
 20
184.5027573684
 30
0.0
 10
728.2142806528
 20
183.1766333871
 30
0.0
 10
727.4967153497
 20
182.4194834873
 30
0.0
 10
727.1034969561
 20
182.0789463693
 30
0.0
  0
SPLINE
  5
4E1
100
AcDbEntity
  8
KONSTRUKTIONSELEMENTE
100
AcDbSpline
 62
7
  6
CONTINUOUS
 70
0
 71
3
 72
9
 73
5
 74
0
 42
0.0000001
 43
0.0000001
 44
0.0000000001
 40
0.0
 40
0.0
 40
0.0
 40
0.0
 40
0.2350561603
 40
1.0
 40
1.0
 40
1.0
 40
1.0
 10
718.9717689724
 20
189.1212293798
 30
0.0
 10
719.050991858
 20
189.1898384112
 30
0.0
 10
719.4037443785
 20
189.4633347407
 30
0.0
 10
719.8127008467
 20
189.6619676097
 30
0.0
 10
720.1365757804
 20
189.7688565271
 30
0.0
  0
SPLINE
  5
4E2
100
AcDbEntity
  8
KONSTRUKTIONSELEMENTE
100
AcDbSpline
 62
7
  6
CONTINUOUS
 70
0
 71
3
 72
9
 73
5
 74
0
 42
0.0000001
 43
0.0000001
 44
0.0000000001
 40
0.0
 40
0.0
 40
0.0
 40
0.0
 40
0.2578415756
 40
1.0
 40
1.0
 40
1.0
 40
1.0
 10
724.5526530476
 20
188.0836136472
 30
0.0
 10
724.569176309
 20
188.0347318842
 30
0.0
 10
724.626127283
 20
187.842827502
 30
0.0
 10
724.6517307206
 20
187.6415249356
 30
0.0
 10
724.6515535559
 20
187.493005366
 30
0.0
  0
SPLINE
  5
4E3
100
AcDbEntity
  8
KONSTRUKTIONSELEMENTE
100
AcDbSpline
 62
7
  6
CONTINUOUS
 70
0
 71
3
 72
9
 73
5
 74
0
 42
0.0000001
 43
0.0000001
 44
0.0000000001
 40
0.0
 40
0.0
 40
0.0
 40
0.0
 40
0.4873854536
 40
1.0
 40
1.0
 40
1.0
 40
1.0
 10
717.8198209625
 20
180.6534253959
 30
0.0
 10
717.2711424421
 20
180.1782558588
 30
0.0
 10
715.7845030771
 20
179.6101322237
 30
0.0
 10
714.2288770845
 20
179.8907246525
 30
0.0
 10
713.5548103258
 20
180.2490849838
 30
0.0
  0
SPLINE
  5
4E4
100
AcDbEntity
  8
KONSTRUKTIONSELEMENTE
100
AcDbSpline
 62
7
  6
CONTINUOUS
 70
0
 71
3
 72
11
 73
7
 74
0
 42
0.0000001
 43
0.0000001
 44
0.0000000001
 40
0.0
 40
0.0
 40
0.0
 40
0.0
 40
0.2475783257
 40
0.4995440458
 40
0.7518013576
 40
1.0
 40
1.0
 40
1.0
 40
1.0
 10
721.093089316
 20
176.8737806658
 30
0.0
 10
720.345226055
 20
176.2261120832
 30
0.0
 10
718.5763334457
 20
175.1967831614
 30
0.0
 10
715.5695515861
 20
174.6394170914
 30
0.0
 10
712.5413781469
 20
175.0809308156
 30
0.0
 10
710.7294088874
 20
176.0383342615
 30
0.0
 10
709.9524136254
 20
176.6547458662
 30
0.0
  0
SPLINE
  5
4E5
100
AcDbEntity
  8
KONSTRUKTIONSELEMENTE
100
AcDbSpline
 62
7
  6
CONTINUOUS
 70
0
 71
3
 72
9
 73
5
 74
0
 42
0.0000001
 43
0.0000001
 44
0.0000000001
 40
0.0
 40
0.0
 40
0.0
 40
0.0
 40
0.2341519833
 40
1.0
 40
1.0
 40
1.0
 40
1.0
 10
712.596543163
 20
190.1959416907
 30
0.0
 10
712.6092818913
 20
190.2016513625
 30
0.0
 10
712.6651727077
 20
190.2227401343
 30
0.0
 10
712.7254284753
 20
190.2307083177
 30
0.0
 10
712.771077639
 20
190.231640868
 30
0.0
  0
SPLINE
  5
4E6
100
AcDbEntity
  8
KONSTRUKTIONSELEMENTE
100
AcDbSpline
 62
7
  6
CONTINUOUS
 70
0
 71
3
 72
12
 73
8
 74
0
 42
0.0000001
 43
0.0000001
 44
0.0000000001
 40
0.0
 40
0.0
 40
0.0
 40
0.0
 40
0.0752716352
 40
0.1695706026
 40
0.4105482434
 40
0.6997859249
 40
1.0
 40
1.0
 40
1.0
 40
1.0
 10
712.771077639
 20
190.231640868
 30
0.0
 10
712.8523078509
 20
190.2333002907
 30
0.0
 10
713.0356441528
 20
190.2020255185
 30
0.0
 10
713.4480629332
 20
190.0359842906
 30
0.0
 10
714.0109513524
 20
189.6533322111
 30
0.0
 10
714.6658111977
 20
189.0388296669
 30
0.0
 10
715.0695812863
 20
188.5436645047
 30
0.0
 10
715.2553389476
 20
188.2781452158
 30
0.0
  0
SPLINE
  5
4E7
100
AcDbEntity
  8
KONSTRUKTIONSELEMENTE
100
AcDbSpline
 62
7
  6
CONTINUOUS
 70
0
 71
3
 72
9
 73
5
 74
0
 42
0.0000001
 43
0.0000001
 44
0.0000000001
 40
0.0
 40
0.0
 40
0.0
 40
0.0
 40
0.2622844894
 40
1.0
 40
1.0
 40
1.0
 40
1.0
 10
715.287705513
 20
188.2314285203
 30
0.0
 10
715.3235835302
 20
188.1791328222
 30
0.0
 10
715.4572482743
 20
187.9776528358
 30
0.0
 10
715.5786479148
 20
187.7677938562
 30
0.0
 10
715.6580250346
 20
187.608050388
 30
0.0
  0
SPLINE
  5
4E8
100
AcDbEntity
  8
KONSTRUKTIONSELEMENTE
100
AcDbSpline
 62
7
  6
CONTINUOUS
 70
0
 71
3
 72
18
 73
14
 74
0
 42
0.0000001
 43
0.0000001
 44
0.0000000001
 40
0.0
 40
0.0
 40
0.0
 40
0.0
 40
0.0297694375
 40
0.0647100049
 40
0.10768043
 40
0.1596584826
 40
0.2202475627
 40
0.2884715706
 40
0.4417489812
 40
0.6049919065
 40
0.7618480026
 40
0.8972863474
 40
1.0
 40
1.0
 40
1.0
 40
1.0
 10
712.8715413217
 20
190.4523815556
 30
0.0
 10
712.9104270967
 20
190.4859833376
 30
0.0
 10
713.0153539445
 20
190.5364865345
 30
0.0
 10
713.2042302914
 20
190.5433189723
 30
0.0
 10
713.424660407
 20
190.4946654837
 30
0.0
 10
713.6737052123
 20
190.3918083055
 30
0.0
 10
713.946272187
 20
190.2386143567
 30
0.0
 10
714.3465845283
 20
189.9603149388
 30
0.0
 10
714.8453725327
 20
189.518142073
 30
0.0
 10
715.389231725
 20
188.9062422803
 30
0.0
 10
715.8413813593
 20
188.2594242469
 30
0.0
 10
716.1515103118
 20
187.6512313363
 30
0.0
 10
716.265786061
 20
187.2478506286
 30
0.0
 10
716.2735750209
 20
187.0707021528
 30
0.0
  0
SPLINE
  5
4E9
100
AcDbEntity
  8
KONSTRUKTIONSELEMENTE
100
AcDbSpline
 62
7
  6
CONTINUOUS
 70
0
 71
3
 72
9
 73
5
 74
0
 42
0.0000001
 43
0.0000001
 44
0.0000000001
 40
0.0
 40
0.0
 40
0.0
 40
0.0
 40
0.244567645
 40
1.0
 40
1.0
 40
1.0
 40
1.0
 10
769.3662404096
 20
223.177557758
 30
0.0
 10
769.4923406359
 20
223.2867637574
 30
0.0
 10
770.0006639459
 20
223.7416523816
 30
0.0
 10
770.4811943007
 20
224.2274138165
 30
0.0
 10
770.8280372947
 20
224.6084636409
 30
0.0
  0
SPLINE
  5
4EA
100
AcDbEntity
  8
KONSTRUKTIONSELEMENTE
100
AcDbSpline
 62
7
  6
CONTINUOUS
 70
0
 71
3
 72
11
 73
7
 74
0
 42
0.0000001
 43
0.0000001
 44
0.0000000001
 40
0.0
 40
0.0
 40
0.0
 40
0.0
 40
0.2456161378
 40
0.487829233
 40
0.7390911012
 40
1.0
 40
1.0
 40
1.0
 40
1.0
 10
773.9295071016
 20
229.6097122224
 30
0.0
 10
774.040042822
 20
229.9621375689
 30
0.0
 10
774.2103888124
 20
230.6800278127
 30
0.0
 10
774.2309818876
 20
231.8030101254
 30
0.0
 10
773.9120228562
 20
232.9135729173
 30
0.0
 10
773.427404419
 20
233.5430805102
 30
0.0
 10
773.1309108294
 20
233.800043931
 30
0.0
  0
SPLINE
  5
4EB
100
AcDbEntity
  8
KONSTRUKTIONSELEMENTE
100
AcDbSpline
 62
7
  6
CONTINUOUS
 70
0
 71
3
 72
23
 73
19
 74
0
 42
0.0000001
 43
0.0000001
 44
0.0000000001
 40
0.0
 40
0.0
 40
0.0
 40
0.0
 40
0.0399693647
 40
0.0656737883
 40
0.0749885225
 40
0.0817696905
 40
0.0908566531
 40
0.1035947661
 40
0.1198800888
 40
0.1395419735
 40
0.1623868192
 40
0.1882221418
 40
0.2481028199
 40
0.3177476512
 40
0.3960861991
 40
0.5751467152
 40
0.7783544951
 40
1.0
 40
1.0
 40
1.0
 40
1.0
 10
770.9528556019
 20
230.0537713788
 30
0.0
 10
770.9829667583
 20
230.0509452343
 30
0.0
 10
771.0394071968
 20
230.0496516195
 30
0.0
 10
771.0786348014
 20
230.0486146015
 30
0.0
 10
771.13281102
 20
230.0554950711
 30
0.0
 10
771.1035287777
 20
230.0496297607
 30
0.0
 10
771.0862920451
 20
230.0446996892
 30
0.0
 10
771.0571219204
 20
230.0361095952
 30
0.0
 10
771.0228890688
 20
230.0242018006
 30
0.0
 10
770.981054062
 20
230.0084458183
 30
0.0
 10
770.933227866
 20
229.9889504894
 30
0.0
 10
770.8578652427
 20
229.9561796279
 30
0.0
 10
770.7517437858
 20
229.9055412671
 30
0.0
 10
770.6129035819
 20
229.8315264487
 30
0.0
 10
770.3991566229
 20
229.7067361249
 30
0.0
 10
770.1075453983
 20
229.5153662666
 30
0.0
 10
769.7409195974
 20
229.2422561232
 30
0.0
 10
769.4930186144
 20
229.037350904
 30
0.0
 10
769.3662404096
 20
228.927557758
 30
0.0
  0
SPLINE
  5
4EC
100
AcDbEntity
  8
KONSTRUKTIONSELEMENTE
100
AcDbSpline
 62
7
  6
CONTINUOUS
 70
0
 71
3
 72
13
 73
9
 74
0
 42
0.0000001
 43
0.0000001
 44
0.0000000001
 40
0.0
 40
0.0
 40
0.0
 40
0.0
 40
0.1263256967
 40
0.2494053695
 40
0.4831671239
 40
0.6019464337
 40
0.7268262858
 40
1.0
 40
1.0
 40
1.0
 40
1.0
 10
773.1309108294
 20
233.800043931
 30
0.0
 10
772.8930366275
 20
234.0062034257
 30
0.0
 10
772.3534776737
 20
234.3389933292
 30
0.0
 10
771.1711172415
 20
234.6386388116
 30
0.0
 10
769.9565633351
 20
234.4591482744
 30
0.0
 10
768.856165622
 20
234.0066753396
 30
0.0
 10
767.7277515487
 20
233.379938312
 30
0.0
 10
766.9348565559
 20
232.7748580243
 30
0.0
 10
766.4202988914
 20
232.3292380151
 30
0.0
  0
SPLINE
  5
4ED
100
AcDbEntity
  8
KONSTRUKTIONSELEMENTE
100
AcDbSpline
 62
7
  6
CONTINUOUS
 70
0
 71
3
 72
9
 73
5
 74
0
 42
0.0000001
 43
0.0000001
 44
0.0000000001
 40
0.0
 40
0.0
 40
0.0
 40
0.0
 40
0.5091378895
 40
1.0
 40
1.0
 40
1.0
 40
1.0
 10
752.0490267538
 20
212.5211653067
 30
0.0
 10
752.3390054857
 20
212.2698481467
 30
0.0
 10
753.0132260436
 20
211.8862968189
 30
0.0
 10
753.7736245409
 20
211.7712166597
 30
0.0
 10
754.1435784283
 20
211.772075355
 30
0.0
  0
SPLINE
  5
4EE
100
AcDbEntity
  8
KONSTRUKTIONSELEMENTE
100
AcDbSpline
 62
7
  6
CONTINUOUS
 70
0
 71
3
 72
14
 73
10
 74
0
 42
0.0000001
 43
0.0000001
 44
0.0000000001
 40
0.0
 40
0.0
 40
0.0
 40
0.0
 40
0.3076593044
 40
0.4655740208
 40
0.6174499256
 40
0.7563299601
 40
0.8741882754
 40
0.9604979356
 40
1.0
 40
1.0
 40
1.0
 40
1.0
 10
758.7596386918
 20
219.7419712226
 30
0.0
 10
758.3093772931
 20
219.352033413
 30
0.0
 10
757.6726867873
 20
218.7086809379
 30
0.0
 10
756.9148240658
 20
217.7837017707
 30
0.0
 10
756.4097578315
 20
217.0759463866
 30
0.0
 10
755.9982046809
 20
216.3996543508
 30
0.0
 10
755.7003657839
 20
215.8043845839
 30
0.0
 10
755.536677614
 20
215.361713991
 30
0.0
 10
755.47773197
 20
215.1235832699
 30
0.0
 10
755.4714501671
 20
215.0473642337
 30
0.0
  0
SPLINE
  5
4EF
100
AcDbEntity
  8
KONSTRUKTIONSELEMENTE
100
AcDbSpline
 62
7
  6
CONTINUOUS
 70
0
 71
3
 72
16
 73
12
 74
0
 42
0.0000001
 43
0.0000001
 44
0.0000000001
 40
0.0
 40
0.0
 40
0.0
 40
0.0
 40
0.1382503286
 40
0.2794921658
 40
0.416953146
 40
0.5450742214
 40
0.6617427928
 40
0.7711235094
 40
0.8823527807
 40
0.9406882304
 40
1.0
 40
1.0
 40
1.0
 40
1.0
 10
755.8136971736
 20
223.1436514797
 30
0.0
 10
755.3788709681
 20
222.7670809394
 30
0.0
 10
754.5409445109
 20
221.9573864293
 30
0.0
 10
753.4110021863
 20
220.6379192378
 30
0.0
 10
752.4355006575
 20
219.2511288228
 30
0.0
 10
751.6634999933
 20
217.856366235
 30
0.0
 10
751.1317405407
 20
216.4752952706
 30
0.0
 10
750.8952404151
 20
215.078332275
 30
0.0
 10
751.0809407696
 20
213.8996408649
 30
0.0
 10
751.5314156967
 20
213.0514843488
 30
0.0
 10
751.8625387427
 20
212.6827897025
 30
0.0
 10
752.0490267538
 20
212.5211653067
 30
0.0
  0
SPLINE
  5
4F0
100
AcDbEntity
  8
KONSTRUKTIONSELEMENTE
100
AcDbSpline
 62
7
  6
CONTINUOUS
 70
0
 71
3
 72
9
 73
5
 74
0
 42
0.0000001
 43
0.0000001
 44
0.0000000001
 40
0.0
 40
0.0
 40
0.0
 40
0.0
 40
0.2442277043
 40
1.0
 40
1.0
 40
1.0
 40
1.0
 10
738.2535420374
 20
196.2331705874
 30
0.0
 10
738.409291102
 20
196.368053234
 30
0.0
 10
739.0358878554
 20
196.9330906557
 30
0.0
 10
739.6204508891
 20
197.5444183815
 30
0.0
 10
740.0370923976
 20
198.0270455854
 30
0.0
  0
SPLINE
  5
4F1
100
AcDbEntity
  8
KONSTRUKTIONSELEMENTE
100
AcDbSpline
 62
7
  6
CONTINUOUS
 70
0
 71
3
 72
11
 73
7
 74
0
 42
0.0000001
 43
0.0000001
 44
0.0000000001
 40
0.0
 40
0.0
 40
0.0
 40
0.0
 40
0.2471730376
 40
0.4889706441
 40
0.7394164903
 40
1.0
 40
1.0
 40
1.0
 40
1.0
 10
742.7599693388
 20
202.4914501796
 30
0.0
 10
742.8844242589
 20
202.8575049236
 30
0.0
 10
743.080090174
 20
203.6013624767
 30
0.0
 10
743.1321500028
 20
204.7690567172
 30
0.0
 10
742.8251686162
 20
205.929742802
 30
0.0
 10
742.3262376692
 20
206.588699177
 30
0.0
 10
742.0182124572
 20
206.8556567603
 30
0.0
  0
SPLINE
  5
4F2
100
AcDbEntity
  8
KONSTRUKTIONSELEMENTE
100
AcDbSpline
 62
7
  6
CONTINUOUS
 70
0
 71
3
 72
23
 73
19
 74
0
 42
0.0000001
 43
0.0000001
 44
0.0000000001
 40
0.0
 40
0.0
 40
0.0
 40
0.0
 40
0.0399693647
 40
0.0656737883
 40
0.0749885225
 40
0.0817696905
 40
0.0908566531
 40
0.1035947661
 40
0.1198800888
 40
0.1395419735
 40
0.1623868192
 40
0.1882221418
 40
0.2481028199
 40
0.3177476512
 40
0.3960861991
 40
0.5751467152
 40
0.7783544951
 40
1.0
 40
1.0
 40
1.0
 40
1.0
 10
739.8401572297
 20
203.1093842082
 30
0.0
 10
739.8702683861
 20
203.1065580637
 30
0.0
 10
739.9267088246
 20
203.1052644488
 30
0.0
 10
739.9659364292
 20
203.1042274309
 30
0.0
 10
740.0201126478
 20
203.1111079004
 30
0.0
 10
739.9908304055
 20
203.1052425901
 30
0.0
 10
739.9735936729
 20
203.1003125186
 30
0.0
 10
739.9444235482
 20
203.0917224246
 30
0.0
 10
739.9101906966
 20
203.07981463
 30
0.0
 10
739.8683556898
 20
203.0640586477
 30
0.0
 10
739.8205294938
 20
203.0445633188
 30
0.0
 10
739.7451668705
 20
203.0117924573
 30
0.0
 10
739.6390454136
 20
202.9611540965
 30
0.0
 10
739.5002052097
 20
202.8871392781
 30
0.0
 10
739.2864582506
 20
202.7623489543
 30
0.0
 10
738.9948470261
 20
202.570979096
 30
0.0
 10
738.6282212252
 20
202.2978689526
 30
0.0
 10
738.3803202422
 20
202.0929637334
 30
0.0
 10
738.2535420374
 20
201.9831705874
 30
0.0
  0
SPLINE
  5
4F3
100
AcDbEntity
  8
KONSTRUKTIONSELEMENTE
100
AcDbSpline
 62
7
  6
CONTINUOUS
 70
0
 71
3
 72
13
 73
9
 74
0
 42
0.0000001
 43
0.0000001
 44
0.0000000001
 40
0.0
 40
0.0
 40
0.0
 40
0.0
 40
0.1263256967
 40
0.2494053695
 40
0.4831671239
 40
0.6019464337
 40
0.7268262858
 40
1.0
 40
1.0
 40
1.0
 40
1.0
 10
742.0182124572
 20
206.8556567603
 30
0.0
 10
741.7803382553
 20
207.0618162551
 30
0.0
 10
741.2407793015
 20
207.3946061585
 30
0.0
 10
740.0584188693
 20
207.694251641
 30
0.0
 10
738.8438649629
 20
207.5147611037
 30
0.0
 10
737.7434672498
 20
207.062288169
 30
0.0
 10
736.6150531765
 20
206.4355511413
 30
0.0
 10
735.8221581837
 20
205.8304708537
 30
0.0
 10
735.3076005192
 20
205.3848508445
 30
0.0
  0
SPLINE
  5
4F4
100
AcDbEntity
  8
KONSTRUKTIONSELEMENTE
100
AcDbSpline
 62
7
  6
CONTINUOUS
 70
0
 71
3
 72
9
 73
5
 74
0
 42
0.0000001
 43
0.0000001
 44
0.0000000001
 40
0.0
 40
0.0
 40
0.0
 40
0.0
 40
0.5068172679
 40
1.0
 40
1.0
 40
1.0
 40
1.0
 10
720.9363283816
 20
185.5767781361
 30
0.0
 10
721.1800839653
 20
185.3655213979
 30
0.0
 10
721.73408933
 20
185.0266266585
 30
0.0
 10
722.3626023124
 20
184.8750807875
 30
0.0
 10
722.674986935
 20
184.844434658
 30
0.0
  0
SPLINE
  5
4F5
100
AcDbEntity
  8
KONSTRUKTIONSELEMENTE
100
AcDbSpline
 62
7
  6
CONTINUOUS
 70
0
 71
3
 72
14
 73
10
 74
0
 42
0.0000001
 43
0.0000001
 44
0.0000000001
 40
0.0
 40
0.0
 40
0.0
 40
0.0
 40
0.3076593044
 40
0.4655740208
 40
0.6174499256
 40
0.7563299601
 40
0.8741882754
 40
0.9604979356
 40
1.0
 40
1.0
 40
1.0
 40
1.0
 10
727.6469403196
 20
192.797584052
 30
0.0
 10
727.1966789209
 20
192.4076462424
 30
0.0
 10
726.5599884151
 20
191.7642937673
 30
0.0
 10
725.8021256936
 20
190.8393146001
 30
0.0
 10
725.2970594593
 20
190.131559216
 30
0.0
 10
724.8855063087
 20
189.4552671802
 30
0.0
 10
724.5876674117
 20
188.8599974133
 30
0.0
 10
724.4239792418
 20
188.4173268204
 30
0.0
 10
724.3650335978
 20
188.1791960993
 30
0.0
 10
724.3587517949
 20
188.1029770631
 30
0.0
  0
SPLINE
  5
4F6
100
AcDbEntity
  8
KONSTRUKTIONSELEMENTE
100
AcDbSpline
 62
7
  6
CONTINUOUS
 70
0
 71
3
 72
16
 73
12
 74
0
 42
0.0000001
 43
0.0000001
 44
0.0000000001
 40
0.0
 40
0.0
 40
0.0
 40
0.0
 40
0.1382503286
 40
0.2794921658
 40
0.416953146
 40
0.5450742214
 40
0.6617427928
 40
0.7711235094
 40
0.8823527807
 40
0.9406882304
 40
1.0
 40
1.0
 40
1.0
 40
1.0
 10
724.7009988014
 20
196.199264309
 30
0.0
 10
724.2661725958
 20
195.8226937688
 30
0.0
 10
723.4282461387
 20
195.0129992587
 30
0.0
 10
722.298303814
 20
193.6935320672
 30
0.0
 10
721.3228022853
 20
192.3067416522
 30
0.0
 10
720.5508016211
 20
190.9119790644
 30
0.0
 10
720.0190421685
 20
189.5309080999
 30
0.0
 10
719.7825420429
 20
188.1339451044
 30
0.0
 10
719.9682423974
 20
186.9552536943
 30
0.0
 10
720.4187173245
 20
186.1070971782
 30
0.0
 10
720.7498403705
 20
185.7384025319
 30
0.0
 10
720.9363283816
 20
185.5767781361
 30
0.0
  0
SPLINE
  5
4F7
100
AcDbEntity
  8
KONSTRUKTIONSELEMENTE
100
AcDbSpline
 62
7
  6
CONTINUOUS
 70
0
 71
3
 72
11
 73
7
 74
0
 42
0.0000001
 43
0.0000001
 44
0.0000000001
 40
0.0
 40
0.0
 40
0.0
 40
0.0
 40
0.247258039
 40
0.4956520534
 40
0.7463451021
 40
1.0
 40
1.0
 40
1.0
 40
1.0
 10
733.7303944557
 20
205.0938307442
 30
0.0
 10
733.7301989888
 20
205.5838360236
 30
0.0
 10
733.8412747883
 20
206.5695863251
 30
0.0
 10
734.331186298
 20
207.9773607922
 30
0.0
 10
735.1182260129
 20
209.257449669
 30
0.0
 10
735.8114918662
 20
209.9885165622
 30
0.0
 10
736.1914839957
 20
210.3175993996
 30
0.0
  0
SPLINE
  5
4F8
100
AcDbEntity
  8
KONSTRUKTIONSELEMENTE
100
AcDbSpline
 62
7
  6
CONTINUOUS
 70
0
 71
3
 72
11
 73
7
 74
0
 42
0.0000001
 43
0.0000001
 44
0.0000000001
 40
0.0
 40
0.0
 40
0.0
 40
0.0
 40
0.247258039
 40
0.4956520534
 40
0.7463451021
 40
1.0
 40
1.0
 40
1.0
 40
1.0
 10
760.3368447553
 20
214.2829913229
 30
0.0
 10
760.3370402222
 20
213.7929860435
 30
0.0
 10
760.2259644226
 20
212.807235742
 30
0.0
 10
759.736052913
 20
211.3994612748
 30
0.0
 10
758.9490131981
 20
210.1193723981
 30
0.0
 10
758.2557473448
 20
209.3883055049
 30
0.0
 10
757.8757552153
 20
209.0592226675
 30
0.0
  0
SPLINE
  5
4F9
100
AcDbEntity
  8
KONSTRUKTIONSELEMENTE
100
AcDbSpline
 62
7
  6
CONTINUOUS
 70
0
 71
3
 72
9
 73
5
 74
0
 42
0.0000001
 43
0.0000001
 44
0.0000000001
 40
0.0
 40
0.0
 40
0.0
 40
0.0
 40
0.2390508737
 40
1.0
 40
1.0
 40
1.0
 40
1.0
 10
749.9687577794
 20
216.2793069332
 30
0.0
 10
750.0644022472
 20
216.348488524
 30
0.0
 10
750.4792463242
 20
216.6172409175
 30
0.0
 10
750.9480960821
 20
216.8000090553
 30
0.0
 10
751.3131794876
 20
216.8889161009
 30
0.0
  0
SPLINE
  5
4FA
100
AcDbEntity
  8
KONSTRUKTIONSELEMENTE
100
AcDbSpline
 62
7
  6
CONTINUOUS
 70
0
 71
3
 72
9
 73
5
 74
0
 42
0.0000001
 43
0.0000001
 44
0.0000000001
 40
0.0
 40
0.0
 40
0.0
 40
0.0
 40
0.2598514407
 40
1.0
 40
1.0
 40
1.0
 40
1.0
 10
755.655360032
 20
215.1374063488
 30
0.0
 10
755.6856413941
 20
215.0675705986
 30
0.0
 10
755.7889451164
 20
214.7933268479
 30
0.0
 10
755.837395444
 20
214.4980122025
 30
0.0
 10
755.83740767
 20
214.281200486
 30
0.0
  0
SPLINE
  5
4FB
100
AcDbEntity
  8
KONSTRUKTIONSELEMENTE
100
AcDbSpline
 62
7
  6
CONTINUOUS
 70
0
 71
3
 72
9
 73
5
 74
0
 42
0.0000001
 43
0.0000001
 44
0.0000000001
 40
0.0
 40
0.0
 40
0.0
 40
0.0
 40
0.4614411915
 40
1.0
 40
1.0
 40
1.0
 40
1.0
 10
755.83740767
 20
214.281200486
 30
0.0
 10
755.8374257308
 20
213.9609183039
 30
0.0
 10
755.6659319093
 20
213.2604580724
 30
0.0
 10
755.21238661
 20
212.7056182455
 30
0.0
 10
754.9298136971
 20
212.4609029245
 30
0.0
  0
SPLINE
  5
4FC
100
AcDbEntity
  8
KONSTRUKTIONSELEMENTE
100
AcDbSpline
 62
7
  6
CONTINUOUS
 70
0
 71
3
 72
9
 73
5
 74
0
 42
0.0000001
 43
0.0000001
 44
0.0000000001
 40
0.0
 40
0.0
 40
0.0
 40
0.0
 40
0.4898470903
 40
1.0
 40
1.0
 40
1.0
 40
1.0
 10
744.3232119793
 20
203.2753163891
 30
0.0
 10
743.7255030501
 20
202.7576852723
 30
0.0
 10
742.1088833591
 20
202.1451416499
 30
0.0
 10
740.4226944979
 20
202.4755674048
 30
0.0
 10
739.7046859851
 20
202.8787660932
 30
0.0
  0
SPLINE
  5
4FD
100
AcDbEntity
  8
KONSTRUKTIONSELEMENTE
100
AcDbSpline
 62
7
  6
CONTINUOUS
 70
0
 71
3
 72
11
 73
7
 74
0
 42
0.0000001
 43
0.0000001
 44
0.0000000001
 40
0.0
 40
0.0
 40
0.0
 40
0.0
 40
0.245958326
 40
0.4956468363
 40
0.7476883331
 40
1.0
 40
1.0
 40
1.0
 40
1.0
 10
746.7980857135
 20
219.503185935
 30
0.0
 10
747.275779667
 20
219.916881034
 30
0.0
 10
748.3455293824
 20
220.6338219603
 30
0.0
 10
750.1592518278
 20
221.3130950949
 30
0.0
 10
752.0935011152
 20
221.5789248754
 30
0.0
 10
753.3971869844
 20
221.4713685373
 30
0.0
 10
754.0334148042
 20
221.3470858521
 30
0.0
  0
SPLINE
  5
4FE
100
AcDbEntity
  8
KONSTRUKTIONSELEMENTE
100
AcDbSpline
 62
7
  6
CONTINUOUS
 70
0
 71
3
 72
11
 73
7
 74
0
 42
0.0000001
 43
0.0000001
 44
0.0000000001
 40
0.0
 40
0.0
 40
0.0
 40
0.0
 40
0.2532343944
 40
0.50377714
 40
0.752387739
 40
1.0
 40
1.0
 40
1.0
 40
1.0
 10
758.1924648391
 20
219.2128537854
 30
0.0
 10
758.526588492
 20
218.8887920003
 30
0.0
 10
759.1331804615
 20
218.1804993431
 30
0.0
 10
759.8168701744
 20
216.9682295316
 30
0.0
 10
760.2408427682
 20
215.652981242
 30
0.0
 10
760.3366632014
 20
214.7381191955
 30
0.0
 10
760.3368447553
 20
214.2829913229
 30
0.0
  0
SPLINE
  5
4FF
100
AcDbEntity
  8
KONSTRUKTIONSELEMENTE
100
AcDbSpline
 62
7
  6
CONTINUOUS
 70
0
 71
3
 72
11
 73
7
 74
0
 42
0.0000001
 43
0.0000001
 44
0.0000000001
 40
0.0
 40
0.0
 40
0.0
 40
0.0
 40
0.2478292773
 40
0.5003854856
 40
0.75271631
 40
1.0
 40
1.0
 40
1.0
 40
1.0
 10
747.2691534975
 20
199.873636132
 30
0.0
 10
746.506490904
 20
199.2131509515
 30
0.0
 10
744.6866801054
 20
198.1779697289
 30
0.0
 10
741.6010076183
 20
197.6877034777
 30
0.0
 10
738.5325021849
 20
198.2655831458
 30
0.0
 10
736.7472604011
 20
199.3546864744
 30
0.0
 10
736.0079242012
 20
200.0379141844
 30
0.0
  0
SPLINE
  5
500
100
AcDbEntity
  8
KONSTRUKTIONSELEMENTE
100
AcDbSpline
 62
7
  6
CONTINUOUS
 70
0
 71
3
 72
13
 73
9
 74
0
 42
0.0000001
 43
0.0000001
 44
0.0000000001
 40
0.0
 40
0.0
 40
0.0
 40
0.0
 40
0.2665971548
 40
0.5131427383
 40
0.6335745049
 40
0.7544506304
 40
0.8766334311
 40
1.0
 40
1.0
 40
1.0
 40
1.0
 10
814.2205854513
 20
261.0671821122
 30
0.0
 10
814.4850701433
 20
262.0172156465
 30
0.0
 10
814.8793651894
 20
263.8818877813
 30
0.0
 10
814.9231453189
 20
266.2484069697
 30
0.0
 10
814.5823376687
 20
268.0272951329
 30
0.0
 10
814.1133836954
 20
269.2950901425
 30
0.0
 10
813.4093679114
 20
270.4632819763
 30
0.0
 10
812.7847883379
 20
271.1339093755
 30
0.0
 10
812.4399416631
 20
271.4327884137
 30
0.0
  0
SPLINE
  5
501
100
AcDbEntity
  8
KONSTRUKTIONSELEMENTE
100
AcDbSpline
 62
7
  6
CONTINUOUS
 70
0
 71
3
 72
28
 73
24
 74
0
 42
0.0000001
 43
0.0000001
 44
0.0000000001
 40
0.0
 40
0.0
 40
0.0
 40
0.0
 40
0.0044216638
 40
0.0080104777
 40
0.0103976033
 40
0.0124217601
 40
0.017249958
 40
0.0252249085
 40
0.0363156015
 40
0.0504805427
 40
0.0677032156
 40
0.0878948529
 40
0.1109247027
 40
0.1366675804
 40
0.1650045482
 40
0.228968168
 40
0.3018822888
 40
0.382928656
 40
0.4713335725
 40
0.5663951627
 40
0.6674336089
 40
0.7738222441
 40
1.0
 40
1.0
 40
1.0
 40
1.0
 10
807.8595526168
 20
266.1453237664
 30
0.0
 10
807.8736267296
 20
266.1327905646
 30
0.0
 10
807.9027424296
 20
266.10982484
 30
0.0
 10
807.9277885116
 20
266.0861676828
 30
0.0
 10
807.9822232761
 20
266.0636199149
 30
0.0
 10
807.9225513842
 20
266.0821083784
 30
0.0
 10
807.8736231833
 20
266.0865040877
 30
0.0
 10
807.7647670943
 20
266.0994358005
 30
0.0
 10
807.6263621866
 20
266.1026391166
 30
0.0
 10
807.4440172014
 20
266.097566333
 30
0.0
 10
807.2254928555
 20
266.0764333126
 30
0.0
 10
806.9705131349
 20
266.0379107285
 30
0.0
 10
806.6823193372
 20
265.979771866
 30
0.0
 10
806.3633520415
 20
265.9000582493
 30
0.0
 10
805.8807878359
 20
265.7573073495
 30
0.0
 10
805.2177148033
 20
265.5183099627
 30
0.0
 10
804.365857777
 20
265.1467803001
 30
0.0
 10
803.4429612435
 20
264.6816730357
 30
0.0
 10
802.462140075
 20
264.1249818764
 30
0.0
 10
801.4342620763
 20
263.4810180911
 30
0.0
 10
800.3693576175
 20
262.7537191517
 30
0.0
 10
798.8813833783
 20
261.657182781
 30
0.0
 10
797.7833311263
 20
260.7588856509
 30
0.0
 10
797.0546151831
 20
260.1277991319
 30
0.0
  0
SPLINE
  5
502
100
AcDbEntity
  8
KONSTRUKTIONSELEMENTE
100
AcDbSpline
 62
7
  6
CONTINUOUS
 70
0
 71
3
 72
9
 73
5
 74
0
 42
0.0000001
 43
0.0000001
 44
0.0000000001
 40
0.0
 40
0.0
 40
0.0
 40
0.0
 40
0.2961788403
 40
1.0
 40
1.0
 40
1.0
 40
1.0
 10
807.8800229349
 20
265.4619427792
 30
0.0
 10
807.8795566911
 20
265.5117646041
 30
0.0
 10
807.8752703294
 20
265.679916241
 30
0.0
 10
807.8597636556
 20
265.8479656051
 30
0.0
 10
807.8403325788
 20
265.9647589513
 30
0.0
  0
SPLINE
  5
503
100
AcDbEntity
  8
KONSTRUKTIONSELEMENTE
100
AcDbSpline
 62
7
  6
CONTINUOUS
 70
0
 71
3
 72
9
 73
5
 74
0
 42
0.0000001
 43
0.0000001
 44
0.0000000001
 40
0.0
 40
0.0
 40
0.0
 40
0.0
 40
0.2825936743
 40
1.0
 40
1.0
 40
1.0
 40
1.0
 10
807.8403325788
 20
265.9647589513
 30
0.0
 10
807.8381204188
 20
265.9780554645
 30
0.0
 10
807.8298797159
 20
266.0250362273
 30
0.0
 10
807.8200903861
 20
266.0717549491
 30
0.0
 10
807.8119564834
 20
266.1049933408
 30
0.0
  0
SPLINE
  5
504
100
AcDbEntity
  8
KONSTRUKTIONSELEMENTE
100
AcDbSpline
 62
7
  6
CONTINUOUS
 70
0
 71
3
 72
18
 73
14
 74
0
 42
0.0000001
 43
0.0000001
 44
0.0000000001
 40
0.0
 40
0.0
 40
0.0
 40
0.0
 40
0.1457407034
 40
0.2955554009
 40
0.4424898558
 40
0.5800060154
 40
0.7031699944
 40
0.7587228036
 40
0.8104826438
 40
0.8592107064
 40
0.9061586451
 40
0.9527675816
 40
1.0
 40
1.0
 40
1.0
 40
1.0
 10
792.4720394881
 20
265.4193017541
 30
0.0
 10
790.9931045232
 20
264.1385065039
 30
0.0
 10
788.1222946832
 20
261.390241852
 30
0.0
 10
784.1964274335
 20
256.9237991909
 30
0.0
 10
780.7305202806
 20
252.2262895373
 30
0.0
 10
777.9032066473
 20
247.531978169
 30
0.0
 10
776.1310536695
 20
243.658056379
 30
0.0
 10
775.1945734887
 20
240.7052125357
 30
0.0
 10
774.7605490471
 20
238.6516498867
 30
0.0
 10
774.5937198181
 20
236.6730633757
 30
0.0
 10
774.7440697509
 20
234.7578927993
 30
0.0
 10
775.2860096541
 20
232.9302772704
 30
0.0
 10
775.9544941782
 20
231.8390685087
 30
0.0
 10
776.3615123097
 20
231.3528968386
 30
0.0
  0
SPLINE
  5
505
100
AcDbEntity
  8
KONSTRUKTIONSELEMENTE
100
AcDbSpline
 62
7
  6
CONTINUOUS
 70
0
 71
3
 72
9
 73
5
 74
0
 42
0.0000001
 43
0.0000001
 44
0.0000000001
 40
0.0
 40
0.0
 40
0.0
 40
0.0
 40
0.4689766639
 40
1.0
 40
1.0
 40
1.0
 40
1.0
 10
786.882423062
 20
237.8242416495
 30
0.0
 10
787.8177469503
 20
238.3727663419
 30
0.0
 10
789.7414436311
 20
239.663622325
 30
0.0
 10
791.5439422576
 20
241.1155459753
 30
0.0
 10
792.4720394881
 20
241.9193017541
 30
0.0
  0
SPLINE
  5
506
100
AcDbEntity
  8
KONSTRUKTIONSELEMENTE
100
AcDbSpline
 62
7
  6
CONTINUOUS
 70
0
 71
3
 72
15
 73
11
 74
0
 42
0.0000001
 43
0.0000001
 44
0.0000000001
 40
0.0
 40
0.0
 40
0.0
 40
0.0
 40
0.1081196166
 40
0.2144958106
 40
0.3220220015
 40
0.4358573556
 40
0.5598537041
 40
0.6955823644
 40
0.842808117
 40
1.0
 40
1.0
 40
1.0
 40
1.0
 10
812.4399416631
 20
271.4327884137
 30
0.0
 10
811.8277320871
 20
271.963391208
 30
0.0
 10
810.3950345538
 20
272.786355223
 30
0.0
 10
807.9814913286
 20
273.2039086919
 30
0.0
 10
805.5162539475
 20
272.966444148
 30
0.0
 10
803.0241782814
 20
272.2302961843
 30
0.0
 10
800.4680464265
 20
271.073747072
 30
0.0
 10
797.8324677012
 20
269.5314967333
 30
0.0
 10
795.1325881305
 20
267.6320210756
 30
0.0
 10
793.362410465
 20
266.1903856388
 30
0.0
 10
792.4720394881
 20
265.4193017541
 30
0.0
  0
SPLINE
  5
507
100
AcDbEntity
  8
KONSTRUKTIONSELEMENTE
100
AcDbSpline
 62
7
  6
CONTINUOUS
 70
0
 71
3
 72
17
 73
13
 74
0
 42
0.0000001
 43
0.0000001
 44
0.0000000001
 40
0.0
 40
0.0
 40
0.0
 40
0.0
 40
0.1500825534
 40
0.3058430505
 40
0.4609169782
 40
0.6089258496
 40
0.7435535449
 40
0.858438101
 40
0.906402335
 40
0.946753188
 40
0.9783533962
 40
1.0
 40
1.0
 40
1.0
 40
1.0
 10
797.0546151831
 20
260.1277991319
 30
0.0
 10
795.954004754
 20
259.1746425407
 30
0.0
 10
793.792691738
 20
257.1367278781
 30
0.0
 10
790.770086894
 20
253.8368204131
 30
0.0
 10
788.0022542802
 20
250.3457391056
 30
0.0
 10
785.6161187578
 20
246.8277587081
 30
0.0
 10
783.7240117661
 20
243.4622288755
 30
0.0
 10
782.5673191972
 20
240.8092730218
 30
0.0
 10
781.9822001228
 20
238.9249442376
 30
0.0
 10
781.7337227977
 20
237.7864296299
 30
0.0
 10
781.6354785085
 20
236.8821407641
 30
0.0
 10
781.6470395293
 20
236.3629489948
 30
0.0
 10
781.6753758113
 20
236.1548730096
 30
0.0
  0
SPLINE
  5
508
100
AcDbEntity
  8
KONSTRUKTIONSELEMENTE
100
AcDbSpline
 62
7
  6
CONTINUOUS
 70
0
 71
3
 72
12
 73
8
 74
0
 42
0.0000001
 43
0.0000001
 44
0.0000000001
 40
0.0
 40
0.0
 40
0.0
 40
0.0
 40
0.2074073851
 40
0.3191585276
 40
0.4387146187
 40
0.7035090349
 40
1.0
 40
1.0
 40
1.0
 40
1.0
 10
781.2622157741
 20
228.9665064729
 30
0.0
 10
782.4981686026
 20
228.8801014456
 30
0.0
 10
784.4309822987
 20
229.1566113102
 30
0.0
 10
786.9103495859
 20
230.0028780105
 30
0.0
 10
789.6099990051
 20
231.2389331927
 30
0.0
 10
793.0801130514
 20
233.3859231533
 30
0.0
 10
795.7157747783
 20
235.4683293298
 30
0.0
 10
797.0546151831
 20
236.6277991319
 30
0.0
  0
SPLINE
  5
509
100
AcDbEntity
  8
BEZUGSACHSEN
100
AcDbSpline
 62
7
  6
CONTINUOUS
 70
0
 71
3
 72
8
 73
4
 74
0
 42
0.0000001
 43
0.0000001
 44
0.0000000001
 40
0.0
 40
0.0
 40
0.0
 40
0.0
 40
1.0
 40
1.0
 40
1.0
 40
1.0
 10
823.5885234562
 20
276.6226117544
 30
0.0
 10
823.5834017553
 20
276.6016848377
 30
0.0
 10
823.5817644848
 20
276.5795627879
 30
0.0
 10
823.5840117586
 20
276.5581357624
 30
0.0
  0
LINE
  5
50A
100
AcDbEntity
  8
BEZUGSACHSEN
100
AcDbLine
 62
7
  6
CONTINUOUS
 10
822.1468421704
 20
269.6700594549
 11
822.1345416069
 21
269.6263298216
  0
LINE
  5
50B
100
AcDbEntity
  8
BEZUGSACHSEN
100
AcDbLine
 62
7
  6
CONTINUOUS
 10
822.1345416069
 20
269.6263298216
 11
821.9989262785
 21
269.1435179225
  0
LINE
  5
50C
100
AcDbEntity
  8
BEZUGSACHSEN
100
AcDbLine
 62
7
  6
CONTINUOUS
 10
821.9843050714
 20
267.8489353354
 11
822.0444533255
 21
268.0822042992
  0
LINE
  5
50D
100
AcDbEntity
  8
BEZUGSACHSEN
100
AcDbLine
 62
7
  6
CONTINUOUS
 10
822.0444533255
 20
268.0822042992
 11
822.2288868943
 21
268.7974561376
  0
LINE
  5
50E
100
AcDbEntity
  8
BEZUGSACHSEN
100
AcDbLine
 62
7
  6
CONTINUOUS
 10
822.2288868943
 20
268.7974561376
 11
822.2450994162
 21
268.8603282025
  0
LINE
  5
50F
100
AcDbEntity
  8
BEZUGSACHSEN
100
AcDbLine
 62
7
  6
CONTINUOUS
 10
822.0215285176
 20
269.9953582166
 11
822.0265654493
 21
270.0193760145
  0
SPLINE
  5
510
100
AcDbEntity
  8
BEZUGSACHSEN
100
AcDbSpline
 62
7
  6
CONTINUOUS
 70
0
 71
3
 72
8
 73
4
 74
0
 42
0.0000001
 43
0.0000001
 44
0.0000000001
 40
0.0
 40
0.0
 40
0.0
 40
0.0
 40
1.0
 40
1.0
 40
1.0
 40
1.0
 10
823.8361396954
 20
277.6187992
 30
0.0
 10
823.8306533715
 20
277.6065036574
 30
0.0
 10
823.8261486449
 20
277.593700133
 30
0.0
 10
823.8229471914
 20
277.5806222581
 30
0.0
  0
LINE
  5
511
100
AcDbEntity
  8
BEZUGSACHSEN
100
AcDbLine
 62
7
  6
CONTINUOUS
 10
823.547603976
 20
276.3813585393
 11
823.5099185334
 21
276.2150952056
  0
LINE
  5
512
100
AcDbEntity
  8
BEZUGSACHSEN
100
AcDbLine
 62
7
  6
CONTINUOUS
 10
823.5099185334
 20
276.2150952056
 11
823.4726092043
 21
276.0494231769
  0
LINE
  5
513
100
AcDbEntity
  8
BEZUGSACHSEN
100
AcDbLine
 62
7
  6
CONTINUOUS
 10
823.4726092043
 20
276.0494231769
 11
823.3581427158
 21
275.5623292283
  0
LINE
  5
514
100
AcDbEntity
  8
BEZUGSACHSEN
100
AcDbLine
 62
7
  6
CONTINUOUS
 10
823.3581427158
 20
275.5623292283
 11
823.2035893172
 21
274.9200776365
  0
LINE
  5
515
100
AcDbEntity
  8
BEZUGSACHSEN
100
AcDbLine
 62
7
  6
CONTINUOUS
 10
823.2035893172
 20
274.9200776365
 11
822.6186324467
 21
272.5278482199
  0
LINE
  5
516
100
AcDbEntity
  8
BEZUGSACHSEN
100
AcDbLine
 62
7
  6
CONTINUOUS
 10
822.4610556609
 20
271.8942442418
 11
822.6186324467
 21
272.5278482199
  0
LINE
  5
517
100
AcDbEntity
  8
BEZUGSACHSEN
100
AcDbLine
 62
7
  6
CONTINUOUS
 10
822.3411517355
 20
271.4244460664
 11
822.4610556609
 21
271.8942442418
  0
LINE
  5
518
100
AcDbEntity
  8
BEZUGSACHSEN
100
AcDbLine
 62
7
  6
CONTINUOUS
 10
822.2596065733
 20
271.1184535323
 11
822.2798217224
 21
271.194657024
  0
LINE
  5
519
100
AcDbEntity
  8
BEZUGSACHSEN
100
AcDbLine
 62
7
  6
CONTINUOUS
 10
822.2271596264
 20
271.0540956831
 11
822.2438389456
 21
271.1223091825
  0
LINE
  5
51A
100
AcDbEntity
  8
BEZUGSACHSEN
100
AcDbLine
 62
7
  6
CONTINUOUS
 10
822.2438389456
 20
271.1223091825
 11
822.3190395903
 21
271.4298531376
  0
LINE
  5
51B
100
AcDbEntity
  8
BEZUGSACHSEN
100
AcDbLine
 62
7
  6
CONTINUOUS
 10
822.3190395903
 20
271.4298531376
 11
822.4342015927
 21
271.900810853
  0
LINE
  5
51C
100
AcDbEntity
  8
BEZUGSACHSEN
100
AcDbLine
 62
7
  6
CONTINUOUS
 10
822.4342015927
 20
271.900810853
 11
822.5630226409
 21
272.42760816
  0
LINE
  5
51D
100
AcDbEntity
  8
BEZUGSACHSEN
100
AcDbLine
 62
7
  6
CONTINUOUS
 10
822.5630226409
 20
272.42760816
 11
822.5892902787
 21
272.5350238892
  0
LINE
  5
51E
100
AcDbEntity
  8
BEZUGSACHSEN
100
AcDbLine
 62
7
  6
CONTINUOUS
 10
822.5892902787
 20
272.5350238892
 11
823.1743333511
 21
274.9272328537
  0
LINE
  5
51F
100
AcDbEntity
  8
BEZUGSACHSEN
100
AcDbLine
 62
7
  6
CONTINUOUS
 10
823.1743333511
 20
274.9272328537
 11
823.2455822599
 21
275.2185420237
  0
LINE
  5
520
100
AcDbEntity
  8
BEZUGSACHSEN
100
AcDbLine
 62
7
  6
CONTINUOUS
 10
823.2455822599
 20
275.2185420237
 11
823.3312751795
 21
275.5689008652
  0
LINE
  5
521
100
AcDbEntity
  8
BEZUGSACHSEN
100
AcDbLine
 62
7
  6
CONTINUOUS
 10
823.3312751795
 20
275.5689008652
 11
823.4501505525
 21
276.054916427
  0
LINE
  5
522
100
AcDbEntity
  8
BEZUGSACHSEN
100
AcDbLine
 62
7
  6
CONTINUOUS
 10
823.4501505525
 20
276.054916427
 11
823.5309911892
 21
276.3854219264
  0
LINE
  5
523
100
AcDbEntity
  8
BEZUGSACHSEN
100
AcDbLine
 62
7
  6
CONTINUOUS
 10
823.5309911892
 20
276.3854219264
 11
823.573845251
 21
276.5606224287
  0
LINE
  5
524
100
AcDbEntity
  8
BEZUGSACHSEN
100
AcDbLine
 62
7
  6
CONTINUOUS
 10
823.573845251
 20
276.5606224287
 11
823.5864139847
 21
276.6120069609
  0
LINE
  5
525
100
AcDbEntity
  8
BEZUGSACHSEN
100
AcDbLine
 62
7
  6
CONTINUOUS
 10
823.5864139847
 20
276.6120069609
 11
823.5922740659
 21
276.6359645826
  0
SPLINE
  5
526
100
AcDbEntity
  8
BEZUGSACHSEN
100
AcDbSpline
 62
7
  6
CONTINUOUS
 70
0
 71
3
 72
8
 73
4
 74
0
 42
0.0000001
 43
0.0000001
 44
0.0000000001
 40
0.0
 40
0.0
 40
0.0
 40
0.0
 40
1.0
 40
1.0
 40
1.0
 40
1.0
 10
823.8229471914
 20
277.5806222581
 30
0.0
 10
823.8177350022
 20
277.5593305675
 30
0.0
 10
823.816040968
 20
277.5368338714
 30
0.0
 10
823.8182731293
 20
277.5150274397
 30
0.0
  0
SPLINE
  5
527
100
AcDbEntity
  8
BEZUGSACHSEN
100
AcDbSpline
 62
7
  6
CONTINUOUS
 70
0
 71
3
 72
8
 73
4
 74
0
 42
0.0000001
 43
0.0000001
 44
0.0000000001
 40
0.0
 40
0.0
 40
0.0
 40
0.0
 40
1.0
 40
1.0
 40
1.0
 40
1.0
 10
822.2210648707
 20
271.0342695737
 30
0.0
 10
822.2179873371
 20
271.021696822
 30
0.0
 10
822.2163413468
 20
271.0086713312
 30
0.0
 10
822.2163310542
 20
270.9957274063
 30
0.0
  0
LINE
  5
528
100
AcDbEntity
  8
BEZUGSACHSEN
100
AcDbLine
 62
7
  6
CONTINUOUS
 10
822.2733466735
 20
271.0795391222
 11
822.4334642088
 21
271.7088193556
  0
LINE
  5
529
100
AcDbEntity
  8
BEZUGSACHSEN
100
AcDbLine
 62
7
  6
CONTINUOUS
 10
822.4334642088
 20
271.7088193556
 11
822.630454393
 21
272.5019052798
  0
LINE
  5
52A
100
AcDbEntity
  8
BEZUGSACHSEN
100
AcDbLine
 62
7
  6
CONTINUOUS
 10
823.2146558998
 20
274.8941346965
 11
822.630454393
 21
272.5019052798
  0
LINE
  5
52B
100
AcDbEntity
  8
BEZUGSACHSEN
100
AcDbLine
 62
7
  6
CONTINUOUS
 10
823.4073684988
 20
275.6958686812
 11
823.2146558998
 21
274.8941346965
  0
LINE
  5
52C
100
AcDbEntity
  8
BEZUGSACHSEN
100
AcDbLine
 62
7
  6
CONTINUOUS
 10
823.5594812791
 20
276.3424441292
 11
823.4073684988
 21
275.6958686812
  0
LINE
  5
52D
100
AcDbEntity
  8
BEZUGSACHSEN
100
AcDbLine
 62
7
  6
CONTINUOUS
 10
823.5673048149
 20
276.3768759914
 11
823.5594812791
 21
276.3424441292
  0
SPLINE
  5
52E
100
AcDbEntity
  8
KONSTRUKTIONSELEMENTE
100
AcDbSpline
 62
7
  6
CONTINUOUS
 70
0
 71
3
 72
9
 73
5
 74
0
 42
0.0000001
 43
0.0000001
 44
0.0000000001
 40
0.0
 40
0.0
 40
0.0
 40
0.0
 40
0.2416832593
 40
1.0
 40
1.0
 40
1.0
 40
1.0
 10
850.9201616979
 20
182.6063036113
 30
0.0
 10
851.1458199567
 20
182.9266568085
 30
0.0
 10
852.0532506637
 20
184.2707142176
 30
0.0
 10
852.8706456088
 20
185.6735485359
 30
0.0
 10
853.4620942412
 20
186.751435569
 30
0.0
  0
SPLINE
  5
52F
100
AcDbEntity
  8
0
100
AcDbSpline
 62
7
  6
CONTINUOUS
 70
0
 71
3
 72
13
 73
9
 74
0
 42
0.0000001
 43
0.0000001
 44
0.0000000001
 40
0.0
 40
0.0
 40
0.0
 40
0.0
 40
0.1163023557
 40
0.2340384021
 40
0.3543786332
 40
0.4780387852
 40
0.7344041874
 40
1.0
 40
1.0
 40
1.0
 40
1.0
 10
840.8864333479
 20
200.2517209127
 30
0.0
 10
840.8864333479
 20
199.7415940395
 30
0.0
 10
840.7686568956
 20
198.7113446208
 30
0.0
 10
840.2476994181
 20
197.2340459131
 30
0.0
 10
839.4041745392
 20
195.8757838543
 30
0.0
 10
837.8811385303
 20
194.2771373092
 30
0.0
 10
835.3595631626
 20
192.8440676378
 30
0.0
 10
833.0513930821
 20
192.4574922787
 30
0.0
 10
831.8864333479
 20
192.4574922787
 30
0.0
  0
SPLINE
  5
530
100
AcDbEntity
  8
BEZUGSACHSEN
100
AcDbSpline
 62
7
  6
CONTINUOUS
 70
0
 71
3
 72
8
 73
4
 74
0
 42
0.0000001
 43
0.0000001
 44
0.0000000001
 40
0.0
 40
0.0
 40
0.0
 40
0.0
 40
1.0
 40
1.0
 40
1.0
 40
1.0
 10
841.7862238787
 20
270.0762659466
 30
0.0
 10
841.7907406981
 20
270.057813688
 30
0.0
 10
841.7919788001
 20
270.0382229241
 30
0.0
 10
841.7896026585
 20
270.0193750739
 30
0.0
  0
SPLINE
  5
531
100
AcDbEntity
  8
0
100
AcDbSpline
 62
7
  6
CONTINUOUS
 70
0
 71
3
 72
13
 73
9
 74
0
 42
0.0000001
 43
0.0000001
 44
0.0000000001
 40
0.0
 40
0.0
 40
0.0
 40
0.0
 40
0.2655958126
 40
0.5219612148
 40
0.6456213668
 40
0.7659615979
 40
0.8836976443
 40
1.0
 40
1.0
 40
1.0
 40
1.0
 10
831.8864333479
 20
192.4574922787
 30
0.0
 10
830.7214736137
 20
192.4574922787
 30
0.0
 10
828.4133035331
 20
192.8440676378
 30
0.0
 10
825.8917281654
 20
194.2771373092
 30
0.0
 10
824.3686921565
 20
195.8757838543
 30
0.0
 10
823.5251672777
 20
197.2340459131
 30
0.0
 10
823.0042098002
 20
198.7113446208
 30
0.0
 10
822.8864333479
 20
199.7415940395
 30
0.0
 10
822.8864333479
 20
200.2517209127
 30
0.0
  0
SPLINE
  5
532
100
AcDbEntity
  8
KONSTRUKTIONSELEMENTE
100
AcDbSpline
 62
7
  6
CONTINUOUS
 70
0
 71
3
 72
10
 73
6
 74
0
 42
0.0000001
 43
0.0000001
 44
0.0000000001
 40
0.0
 40
0.0
 40
0.0
 40
0.0
 40
0.49868292
 40
0.7574988817
 40
1.0
 40
1.0
 40
1.0
 40
1.0
 10
853.0466873857
 20
184.070006651
 30
0.0
 10
853.389164484
 20
183.1218024287
 30
0.0
 10
853.8697881855
 20
181.6637857309
 30
0.0
 10
854.2903687956
 20
179.6842840145
 30
0.0
 10
854.3864333479
 20
178.6707245094
 30
0.0
 10
854.3864333479
 20
178.1804744061
 30
0.0
  0
SPLINE
  5
533
100
AcDbEntity
  8
KONSTRUKTIONSELEMENTE
100
AcDbSpline
 62
7
  6
CONTINUOUS
 70
0
 71
3
 72
9
 73
5
 74
0
 42
0.0000001
 43
0.0000001
 44
0.0000000001
 40
0.0
 40
0.0
 40
0.0
 40
0.0
 40
0.5561687675
 40
1.0
 40
1.0
 40
1.0
 40
1.0
 10
853.4620942412
 20
186.751435569
 30
0.0
 10
853.7315798518
 20
187.2425602911
 30
0.0
 10
854.1605074896
 20
188.1566558056
 30
0.0
 10
854.3864333479
 20
189.158990566
 30
0.0
 10
854.3864333479
 20
189.6060401707
 30
0.0
  0
SPLINE
  5
534
100
AcDbEntity
  8
0
100
AcDbSpline
 62
7
  6
CONTINUOUS
 70
0
 71
3
 72
9
 73
5
 74
0
 42
0.0000001
 43
0.0000001
 44
0.0000000001
 40
0.0
 40
0.0
 40
0.0
 40
0.0
 40
0.4983025356
 40
1.0
 40
1.0
 40
1.0
 40
1.0
 10
809.3864333479
 20
159.623666488
 30
0.0
 10
809.3864333479
 20
159.1296117981
 30
0.0
 10
809.5356557849
 20
158.1326259316
 30
0.0
 10
809.9678062963
 20
157.2232569185
 30
0.0
 10
810.2413158407
 20
156.8077814557
 30
0.0
  0
SPLINE
  5
535
100
AcDbEntity
  8
0
100
AcDbSpline
 62
7
  6
CONTINUOUS
 70
0
 71
3
 72
9
 73
5
 74
0
 42
0.0000001
 43
0.0000001
 44
0.0000000001
 40
0.0
 40
0.0
 40
0.0
 40
0.0
 40
0.5028158989
 40
1.0
 40
1.0
 40
1.0
 40
1.0
 10
810.7941295289
 20
212.3300323919
 30
0.0
 10
810.3443592256
 20
211.6553769369
 30
0.0
 10
809.6329806557
 20
210.1799884001
 30
0.0
 10
809.3864333479
 20
208.5582835596
 30
0.0
 10
809.3864333479
 20
207.7565303843
 30
0.0
  0
SPLINE
  5
536
100
AcDbEntity
  8
0
100
AcDbSpline
 62
7
  6
CONTINUOUS
 70
0
 71
3
 72
9
 73
5
 74
0
 42
0.0000001
 43
0.0000001
 44
0.0000000001
 40
0.0
 40
0.0
 40
0.0
 40
0.0
 40
0.2471530034
 40
1.0
 40
1.0
 40
1.0
 40
1.0
 10
826.2163498264
 20
284.8218171431
 30
0.0
 10
826.2383466639
 20
284.9116847558
 30
0.0
 10
826.3326825704
 20
285.2739800771
 30
0.0
 10
826.4476309232
 20
285.6308214129
 30
0.0
 10
826.5439557289
 20
285.89567355
 30
0.0
  0
SPLINE
  5
537
100
AcDbEntity
  8
RUNDUNGEN
100
AcDbSpline
 62
7
  6
CONTINUOUS
 70
0
 71
3
 72
9
 73
5
 74
0
 42
0.0000001
 43
0.0000001
 44
0.0000000001
 40
0.0
 40
0.0
 40
0.0
 40
0.0
 40
0.4986194922
 40
1.0
 40
1.0
 40
1.0
 40
1.0
 10
854.3864333479
 20
159.623666488
 30
0.0
 10
854.3864333479
 20
159.178488864
 30
0.0
 10
854.265723485
 20
158.281640055
 30
0.0
 10
853.9136755961
 20
157.4488160364
 30
0.0
 10
853.688784518
 20
157.061765648
 30
0.0
  0
SPLINE
  5
538
100
AcDbEntity
  8
RUNDUNGEN
100
AcDbSpline
 62
7
  6
CONTINUOUS
 70
0
 71
3
 72
9
 73
5
 74
0
 42
0.0000001
 43
0.0000001
 44
0.0000000001
 40
0.0
 40
0.0
 40
0.0
 40
0.0
 40
0.5028158989
 40
1.0
 40
1.0
 40
1.0
 40
1.0
 10
852.9787371668
 20
212.3300323919
 30
0.0
 10
853.4285074702
 20
211.6553769369
 30
0.0
 10
854.13988604
 20
210.1799884001
 30
0.0
 10
854.3864333479
 20
208.5582835596
 30
0.0
 10
854.3864333479
 20
207.7565303843
 30
0.0
  0
SPLINE
  5
539
100
AcDbEntity
  8
0
100
AcDbSpline
 62
7
  6
CONTINUOUS
 70
0
 71
3
 72
15
 73
11
 74
0
 42
0.0000001
 43
0.0000001
 44
0.0000000001
 40
0.0
 40
0.0
 40
0.0
 40
0.0
 40
0.1180141179
 40
0.2411952901
 40
0.3691785965
 40
0.5
 40
0.6308214035
 40
0.7588047099
 40
0.8819858821
 40
1.0
 40
1.0
 40
1.0
 40
1.0
 10
815.0566748078
 20
179.9815053019
 30
0.0
 10
815.6993887043
 20
178.4849170861
 30
0.0
 10
817.5542421426
 20
175.6366623743
 30
0.0
 10
821.5691494699
 20
172.3846690181
 30
0.0
 10
826.4931987957
 20
170.3202367827
 30
0.0
 10
831.8864333479
 20
169.6143129352
 30
0.0
 10
837.2796679001
 20
170.3202367827
 30
0.0
 10
842.2037172259
 20
172.3846690181
 30
0.0
 10
846.2186245532
 20
175.6366623743
 30
0.0
 10
848.0734779915
 20
178.4849170861
 30
0.0
 10
848.716191888
 20
179.9815053019
 30
0.0
  0
SPLINE
  5
53A
100
AcDbEntity
  8
0
100
AcDbSpline
 62
7
  6
CONTINUOUS
 70
0
 71
3
 72
9
 73
5
 74
0
 42
0.0000001
 43
0.0000001
 44
0.0000000001
 40
0.0
 40
0.0
 40
0.0
 40
0.0
 40
0.5046288536
 40
1.0
 40
1.0
 40
1.0
 40
1.0
 10
846.0386369539
 20
177.6884434554
 30
0.0
 10
846.9857149423
 20
178.3746511662
 30
0.0
 10
848.758280928
 20
179.8852862441
 30
0.0
 10
850.259003598
 20
181.6676979853
 30
0.0
 10
850.9201616979
 20
182.6063036113
 30
0.0
  0
SPLINE
  5
53B
100
AcDbEntity
  8
0
100
AcDbSpline
 62
7
  6
CONTINUOUS
 70
0
 71
3
 72
9
 73
5
 74
0
 42
0.0000001
 43
0.0000001
 44
0.0000000001
 40
0.0
 40
0.0
 40
0.0
 40
0.0
 40
0.4953708979
 40
1.0
 40
1.0
 40
1.0
 40
1.0
 10
812.8527049978
 20
182.6063036113
 30
0.0
 10
813.5139001911
 20
181.6676453262
 30
0.0
 10
815.0147172911
 20
179.8851388851
 30
0.0
 10
816.7874052538
 20
178.3744418559
 30
0.0
 10
817.7345495001
 20
177.6882117781
 30
0.0
  0
SPLINE
  5
53C
100
AcDbEntity
  8
0
100
AcDbSpline
 62
7
  6
CONTINUOUS
 70
0
 71
3
 72
9
 73
5
 74
0
 42
0.0000001
 43
0.0000001
 44
0.0000000001
 40
0.0
 40
0.0
 40
0.0
 40
0.0
 40
0.2471530034
 40
1.0
 40
1.0
 40
1.0
 40
1.0
 10
837.5565168694
 20
284.8218171431
 30
0.0
 10
837.5345200318
 20
284.9116847558
 30
0.0
 10
837.4401841254
 20
285.2739800771
 30
0.0
 10
837.3252357726
 20
285.6308214129
 30
0.0
 10
837.2289109669
 20
285.89567355
 30
0.0
  0
SPLINE
  5
53D
100
AcDbEntity
  8
0
100
AcDbSpline
 62
7
  6
CONTINUOUS
 70
0
 71
3
 72
9
 73
5
 74
0
 42
0.0000001
 43
0.0000001
 44
0.0000000001
 40
0.0
 40
0.0
 40
0.0
 40
0.0
 40
0.2416832593
 40
1.0
 40
1.0
 40
1.0
 40
1.0
 10
812.8527049978
 20
182.6063036113
 30
0.0
 10
812.6270467391
 20
182.9266568085
 30
0.0
 10
811.7196160321
 20
184.2707142176
 30
0.0
 10
810.902221087
 20
185.6735485359
 30
0.0
 10
810.3107724545
 20
186.751435569
 30
0.0
  0
SPLINE
  5
53E
100
AcDbEntity
  8
0
100
AcDbSpline
 62
7
  6
CONTINUOUS
 70
0
 71
3
 72
10
 73
6
 74
0
 42
0.0000001
 43
0.0000001
 44
0.0000000001
 40
0.0
 40
0.0
 40
0.0
 40
0.0
 40
0.49868292
 40
0.7574988817
 40
1.0
 40
1.0
 40
1.0
 40
1.0
 10
810.72617931
 20
184.070006651
 30
0.0
 10
810.3837022118
 20
183.1218024287
 30
0.0
 10
809.9030785103
 20
181.6637857309
 30
0.0
 10
809.4824979002
 20
179.6842840145
 30
0.0
 10
809.3864333479
 20
178.6707245094
 30
0.0
 10
809.3864333479
 20
178.1804744061
 30
0.0
  0
SPLINE
  5
53F
100
AcDbEntity
  8
0
100
AcDbSpline
 62
7
  6
CONTINUOUS
 70
0
 71
3
 72
9
 73
5
 74
0
 42
0.0000001
 43
0.0000001
 44
0.0000000001
 40
0.0
 40
0.0
 40
0.0
 40
0.0
 40
0.5561687675
 40
1.0
 40
1.0
 40
1.0
 40
1.0
 10
810.3107724545
 20
186.751435569
 30
0.0
 10
810.041286844
 20
187.2425602911
 30
0.0
 10
809.6123592062
 20
188.1566558056
 30
0.0
 10
809.3864333479
 20
189.158990566
 30
0.0
 10
809.3864333479
 20
189.6060401707
 30
0.0
  0
LINE
  5
540
100
AcDbEntity
  8
BEZUGSACHSEN
100
AcDbLine
 62
7
  6
CONTINUOUS
 10
840.8932807333
 20
272.2584496719
 11
841.0075214899
 21
271.8568679329
  0
LINE
  5
541
100
AcDbEntity
  8
BEZUGSACHSEN
100
AcDbLine
 62
7
  6
CONTINUOUS
 10
841.0075214899
 20
271.8568679329
 11
841.0429788255
 21
271.7320908599
  0
LINE
  5
542
100
AcDbEntity
  8
BEZUGSACHSEN
100
AcDbLine
 62
7
  6
CONTINUOUS
 10
841.0429788255
 20
271.7320908599
 11
841.1213562088
 21
271.4560380115
  0
LINE
  5
543
100
AcDbEntity
  8
BEZUGSACHSEN
100
AcDbLine
 62
7
  6
CONTINUOUS
 10
841.1213562088
 20
271.4560380115
 11
841.2230732834
 21
271.0972800828
  0
LINE
  5
544
100
AcDbEntity
  8
BEZUGSACHSEN
100
AcDbLine
 62
7
  6
CONTINUOUS
 10
840.8097057607
 20
272.7227970316
 11
840.6485222384
 21
273.4492133051
  0
LINE
  5
545
100
AcDbEntity
  8
BEZUGSACHSEN
100
AcDbLine
 62
7
  6
CONTINUOUS
 10
840.6485222384
 20
273.4492133051
 11
840.5296739233
 21
273.9434558408
  0
LINE
  5
546
100
AcDbEntity
  8
BEZUGSACHSEN
100
AcDbLine
 62
7
  6
CONTINUOUS
 10
840.3737929165
 20
274.5485054242
 11
840.5296739233
 21
273.9434558408
  0
LINE
  5
547
100
AcDbEntity
  8
BEZUGSACHSEN
100
AcDbLine
 62
7
  6
CONTINUOUS
 10
840.258740014
 20
274.9618366278
 11
840.287613818
 21
274.8581585401
  0
LINE
  5
548
100
AcDbEntity
  8
BEZUGSACHSEN
100
AcDbLine
 62
7
  6
CONTINUOUS
 10
840.287613818
 20
274.8581585401
 11
840.3737929165
 21
274.5485054242
  0
SPLINE
  5
549
100
AcDbEntity
  8
BEZUGSACHSEN
100
AcDbSpline
 62
7
  6
CONTINUOUS
 70
0
 71
3
 72
8
 73
4
 74
0
 42
0.0000001
 43
0.0000001
 44
0.0000000001
 40
0.0
 40
0.0
 40
0.0
 40
0.0
 40
1.0
 40
1.0
 40
1.0
 40
1.0
 10
840.1077128375
 20
275.4455186734
 30
0.0
 10
840.154320521
 20
275.2967791266
 30
0.0
 10
840.2007922079
 20
275.1479968905
 30
0.0
 10
840.2471214225
 20
274.9991703713
 30
0.0
  0
LINE
  5
54A
100
AcDbEntity
  8
BEZUGSACHSEN
100
AcDbLine
 62
7
  6
CONTINUOUS
 10
840.2471214225
 20
274.9991703713
 11
840.258740014
 21
274.9618366278
  0
LINE
  5
54B
100
AcDbEntity
  8
BEZUGSACHSEN
100
AcDbLine
 62
7
  6
CONTINUOUS
 10
841.7885616243
 20
267.8489353354
 11
841.7284133703
 21
268.0822042992
  0
LINE
  5
54C
100
AcDbEntity
  8
BEZUGSACHSEN
100
AcDbLine
 62
7
  6
CONTINUOUS
 10
841.7284133703
 20
268.0822042992
 11
840.9694193253
 21
271.0254438468
  0
LINE
  5
54D
100
AcDbEntity
  8
BEZUGSACHSEN
100
AcDbLine
 62
7
  6
CONTINUOUS
 10
840.735349932
 20
271.9330175861
 11
840.1501299866
 21
274.2019523582
  0
LINE
  5
54E
100
AcDbEntity
  8
BEZUGSACHSEN
100
AcDbLine
 62
7
  6
CONTINUOUS
 10
839.9680336014
 20
277.3538721494
 11
840.0720511576
 21
276.9326225977
  0
LINE
  5
54F
100
AcDbEntity
  8
BEZUGSACHSEN
100
AcDbLine
 62
7
  6
CONTINUOUS
 10
840.0720511576
 20
276.9326225977
 11
840.4201769606
 21
275.522662361
  0
LINE
  5
550
100
AcDbEntity
  8
BEZUGSACHSEN
100
AcDbLine
 62
7
  6
CONTINUOUS
 10
840.4201769606
 20
275.522662361
 11
840.5414051566
 21
275.0316233162
  0
LINE
  5
551
100
AcDbEntity
  8
BEZUGSACHSEN
100
AcDbLine
 62
7
  6
CONTINUOUS
 10
840.5414051566
 20
275.0316233162
 11
840.6441935077
 21
274.6152552731
  0
LINE
  5
552
100
AcDbEntity
  8
BEZUGSACHSEN
100
AcDbLine
 62
7
  6
CONTINUOUS
 10
840.6441935077
 20
274.6152552731
 11
840.7939275116
 21
274.0086882702
  0
LINE
  5
553
100
AcDbEntity
  8
BEZUGSACHSEN
100
AcDbLine
 62
7
  6
CONTINUOUS
 10
840.7939275116
 20
274.0086882702
 11
840.9157469884
 21
273.5151702612
  0
LINE
  5
554
100
AcDbEntity
  8
BEZUGSACHSEN
100
AcDbLine
 62
7
  6
CONTINUOUS
 10
840.9157469884
 20
273.5151702612
 11
841.0940014524
 21
272.7929674795
  0
LINE
  5
555
100
AcDbEntity
  8
BEZUGSACHSEN
100
AcDbLine
 62
7
  6
CONTINUOUS
 10
841.0940014524
 20
272.7929674795
 11
841.1495680023
 21
272.5678244732
  0
LINE
  5
556
100
AcDbEntity
  8
BEZUGSACHSEN
100
AcDbLine
 62
7
  6
CONTINUOUS
 10
841.3191432552
 20
271.3968110084
 11
841.4383870737
 21
270.9604672836
  0
LINE
  5
557
100
AcDbEntity
  8
BEZUGSACHSEN
100
AcDbLine
 62
7
  6
CONTINUOUS
 10
841.1618373977
 20
272.0096144736
 11
841.3191432552
 21
271.3968110084
  0
LINE
  5
558
100
AcDbEntity
  8
BEZUGSACHSEN
100
AcDbLine
 62
7
  6
CONTINUOUS
 10
841.1618373977
 20
272.0096144736
 11
841.0884153533
 21
272.3066798548
  0
LINE
  5
559
100
AcDbEntity
  8
BEZUGSACHSEN
100
AcDbLine
 62
7
  6
CONTINUOUS
 10
841.0884153533
 20
272.3066798548
 11
840.9754421053
 21
272.7637610254
  0
LINE
  5
55A
100
AcDbEntity
  8
BEZUGSACHSEN
100
AcDbLine
 62
7
  6
CONTINUOUS
 10
840.9754421053
 20
272.7637610254
 11
840.8631790074
 21
273.2179593673
  0
LINE
  5
55B
100
AcDbEntity
  8
BEZUGSACHSEN
100
AcDbLine
 62
7
  6
CONTINUOUS
 10
840.8631790074
 20
273.2179593673
 11
840.7969513447
 21
273.4859014295
  0
LINE
  5
55C
100
AcDbEntity
  8
BEZUGSACHSEN
100
AcDbLine
 62
7
  6
CONTINUOUS
 10
840.7969513447
 20
273.4859014295
 11
840.6749775677
 21
273.9793714244
  0
LINE
  5
55D
100
AcDbEntity
  8
BEZUGSACHSEN
100
AcDbLine
 62
7
  6
CONTINUOUS
 10
840.6749775677
 20
273.9793714244
 11
840.5620305518
 21
274.4363126902
  0
LINE
  5
55E
100
AcDbEntity
  8
BEZUGSACHSEN
100
AcDbLine
 62
7
  6
CONTINUOUS
 10
840.5620305518
 20
274.4363126902
 11
840.5250560277
 21
274.5858959056
  0
LINE
  5
55F
100
AcDbEntity
  8
BEZUGSACHSEN
100
AcDbLine
 62
7
  6
CONTINUOUS
 10
840.5250560277
 20
274.5858959056
 11
840.4221443266
 21
275.0022282691
  0
LINE
  5
560
100
AcDbEntity
  8
BEZUGSACHSEN
100
AcDbLine
 62
7
  6
CONTINUOUS
 10
840.4221443266
 20
275.0022282691
 11
840.300770698
 21
275.4932403332
  0
LINE
  5
561
100
AcDbEntity
  8
BEZUGSACHSEN
100
AcDbLine
 62
7
  6
CONTINUOUS
 10
840.300770698
 20
275.4932403332
 11
840.2583931812
 21
275.6646747205
  0
LINE
  5
562
100
AcDbEntity
  8
BEZUGSACHSEN
100
AcDbLine
 62
7
  6
CONTINUOUS
 10
840.2583931812
 20
275.6646747205
 11
840.2263079966
 21
275.7944716967
  0
LINE
  5
563
100
AcDbEntity
  8
BEZUGSACHSEN
100
AcDbLine
 62
7
  6
CONTINUOUS
 10
840.2263079966
 20
275.7944716967
 11
839.9777855792
 21
276.7998207111
  0
LINE
  5
564
100
AcDbEntity
  8
BEZUGSACHSEN
100
AcDbLine
 62
7
  6
CONTINUOUS
 10
839.9777855792
 20
276.7998207111
 11
839.9522678643
 21
276.9030456925
  0
LINE
  5
565
100
AcDbEntity
  8
BEZUGSACHSEN
100
AcDbLine
 62
7
  6
CONTINUOUS
 10
841.793492086
 20
269.7444706398
 11
841.7832330509
 21
269.8072109733
  0
LINE
  5
566
100
AcDbEntity
  8
BEZUGSACHSEN
100
AcDbLine
 62
7
  6
CONTINUOUS
 10
841.3464412007
 20
271.7599544449
 11
841.278666893
 21
272.0380844438
  0
LINE
  5
567
100
AcDbEntity
  8
BEZUGSACHSEN
100
AcDbLine
 62
7
  6
CONTINUOUS
 10
841.278666893
 20
272.0380844438
 11
841.2482110832
 21
272.1630618364
  0
LINE
  5
568
100
AcDbEntity
  8
BEZUGSACHSEN
100
AcDbLine
 62
7
  6
CONTINUOUS
 10
841.2482110832
 20
272.1630618364
 11
841.1495680023
 21
272.5678244732
  0
LINE
  5
569
100
AcDbEntity
  8
BEZUGSACHSEN
100
AcDbLine
 62
7
  6
CONTINUOUS
 10
841.6686540131
 20
270.3854914906
 11
841.6285503668
 21
270.5604123576
  0
LINE
  5
56A
100
AcDbEntity
  8
BEZUGSACHSEN
100
AcDbLine
 62
7
  6
CONTINUOUS
 10
841.6285503668
 20
270.5604123576
 11
841.5881073443
 21
270.7363590888
  0
LINE
  5
56B
100
AcDbEntity
  8
BEZUGSACHSEN
100
AcDbLine
 62
7
  6
CONTINUOUS
 10
841.5881073443
 20
270.7363590888
 11
841.5473246987
 21
270.913331642
  0
LINE
  5
56C
100
AcDbEntity
  8
BEZUGSACHSEN
100
AcDbLine
 62
7
  6
CONTINUOUS
 10
841.5473246987
 20
270.913331642
 11
841.531478801
 21
270.9819732797
  0
LINE
  5
56D
100
AcDbEntity
  8
BEZUGSACHSEN
100
AcDbLine
 62
7
  6
CONTINUOUS
 10
841.531478801
 20
270.9819732797
 11
841.5062021898
 21
271.0913299756
  0
LINE
  5
56E
100
AcDbEntity
  8
BEZUGSACHSEN
100
AcDbLine
 62
7
  6
CONTINUOUS
 10
841.5062021898
 20
271.0913299756
 11
841.4665003595
 21
271.257617972
  0
LINE
  5
56F
100
AcDbEntity
  8
BEZUGSACHSEN
100
AcDbLine
 62
7
  6
CONTINUOUS
 10
841.4665003595
 20
271.257617972
 11
841.3866197852
 21
271.5919301886
  0
LINE
  5
570
100
AcDbEntity
  8
BEZUGSACHSEN
100
AcDbLine
 62
7
  6
CONTINUOUS
 10
841.3866197852
 20
271.5919301886
 11
841.3464412007
 21
271.7599544449
  0
SPLINE
  5
571
100
AcDbEntity
  8
KONSTRUKTIONSELEMENTE
100
AcDbSpline
 62
7
  6
CONTINUOUS
 70
0
 71
3
 72
9
 73
5
 74
0
 42
0.0000001
 43
0.0000001
 44
0.0000000001
 40
0.0
 40
0.0
 40
0.0
 40
0.0
 40
0.5554031296
 40
1.0
 40
1.0
 40
1.0
 40
1.0
 10
854.3864333479
 20
165.1412928054
 30
0.0
 10
854.3864333479
 20
164.6041213716
 30
0.0
 10
854.2795686406
 20
163.6259031826
 30
0.0
 10
853.7777363972
 20
162.7459803983
 30
0.0
 10
853.4620942412
 20
162.4539663819
 30
0.0
  0
SPLINE
  5
572
100
AcDbEntity
  8
0
100
AcDbSpline
 62
7
  6
CONTINUOUS
 70
0
 71
3
 72
9
 73
5
 74
0
 42
0.0000001
 43
0.0000001
 44
0.0000000001
 40
0.0
 40
0.0
 40
0.0
 40
0.0
 40
0.492993526
 40
1.0
 40
1.0
 40
1.0
 40
1.0
 10
825.827933962
 20
170.764687522
 30
0.0
 10
826.6857162084
 20
170.1496322018
 30
0.0
 10
828.6474042364
 20
169.1929190005
 30
0.0
 10
830.800930053
 20
168.8744795768
 30
0.0
 10
831.8864333479
 20
168.8744795768
 30
0.0
  0
SPLINE
  5
573
100
AcDbEntity
  8
0
100
AcDbSpline
 62
7
  6
CONTINUOUS
 70
0
 71
3
 72
9
 73
5
 74
0
 42
0.0000001
 43
0.0000001
 44
0.0000000001
 40
0.0
 40
0.0
 40
0.0
 40
0.0
 40
0.5554031296
 40
1.0
 40
1.0
 40
1.0
 40
1.0
 10
809.3864333479
 20
165.1412928054
 30
0.0
 10
809.3864333479
 20
164.6041213716
 30
0.0
 10
809.4932980552
 20
163.6259031826
 30
0.0
 10
809.9951302986
 20
162.7459803983
 30
0.0
 10
810.3107724545
 20
162.4539663819
 30
0.0
  0
SPLINE
  5
574
100
AcDbEntity
  8
0
100
AcDbSpline
 62
7
  6
CONTINUOUS
 70
0
 71
3
 72
9
 73
5
 74
0
 42
0.0000001
 43
0.0000001
 44
0.0000000001
 40
0.0
 40
0.0
 40
0.0
 40
0.0
 40
0.5001041094
 40
1.0
 40
1.0
 40
1.0
 40
1.0
 10
837.2289109669
 20
273.7372528706
 30
0.0
 10
837.4980059839
 20
270.6553232491
 30
0.0
 10
837.8619983638
 20
264.47563796
 30
0.0
 10
837.8190657775
 20
258.284602167
 30
0.0
 10
837.6975559521
 20
255.1946232351
 30
0.0
  0
SPLINE
  5
575
100
AcDbEntity
  8
0
100
AcDbSpline
 62
7
  6
CONTINUOUS
 70
0
 71
3
 72
9
 73
5
 74
0
 42
0.0000001
 43
0.0000001
 44
0.0000000001
 40
0.0
 40
0.0
 40
0.0
 40
0.0
 40
0.5000000002
 40
1.0
 40
1.0
 40
1.0
 40
1.0
 10
837.2289109669
 20
285.89567355
 30
0.0
 10
837.6009689125
 20
283.8943822236
 30
0.0
 10
838.0153838278
 20
279.8164632094
 30
0.0
 10
837.6009689122
 20
275.7385441954
 30
0.0
 10
837.2289109669
 20
273.7372528706
 30
0.0
  0
SPLINE
  5
576
100
AcDbEntity
  8
KONSTRUKTIONSELEMENTE
100
AcDbSpline
 62
7
  6
CONTINUOUS
 70
0
 71
3
 72
9
 73
5
 74
0
 42
0.0000001
 43
0.0000001
 44
0.0000000001
 40
0.0
 40
0.0
 40
0.0
 40
0.0
 40
0.2218049703
 40
1.0
 40
1.0
 40
1.0
 40
1.0
 10
853.4620942412
 20
162.4539663819
 30
0.0
 10
853.2551253065
 20
162.2624905959
 30
0.0
 10
852.3408846799
 20
161.3788803988
 30
0.0
 10
851.5152358533
 20
160.4051294189
 30
0.0
 10
850.9201616979
 20
159.61489687
 30
0.0
  0
SPLINE
  5
577
100
AcDbEntity
  8
0
100
AcDbSpline
 62
7
  6
CONTINUOUS
 70
0
 71
3
 72
9
 73
5
 74
0
 42
0.0000001
 43
0.0000001
 44
0.0000000001
 40
0.0
 40
0.0
 40
0.0
 40
0.0
 40
0.5000000002
 40
1.0
 40
1.0
 40
1.0
 40
1.0
 10
826.5439557289
 20
285.89567355
 30
0.0
 10
826.1718977833
 20
283.8943822236
 30
0.0
 10
825.7574828679
 20
279.8164632094
 30
0.0
 10
826.1718977836
 20
275.7385441954
 30
0.0
 10
826.5439557289
 20
273.7372528706
 30
0.0
  0
SPLINE
  5
578
100
AcDbEntity
  8
0
100
AcDbSpline
 62
7
  6
CONTINUOUS
 70
0
 71
3
 72
9
 73
5
 74
0
 42
0.0000001
 43
0.0000001
 44
0.0000000001
 40
0.0
 40
0.0
 40
0.0
 40
0.0
 40
0.5001041094
 40
1.0
 40
1.0
 40
1.0
 40
1.0
 10
826.5439557289
 20
273.7372528706
 30
0.0
 10
826.2748607119
 20
270.6553232491
 30
0.0
 10
825.910868332
 20
264.47563796
 30
0.0
 10
825.9538009183
 20
258.284602167
 30
0.0
 10
826.0753107437
 20
255.1946232351
 30
0.0
  0
SPLINE
  5
579
100
AcDbEntity
  8
0
100
AcDbSpline
 62
7
  6
CONTINUOUS
 70
0
 71
3
 72
11
 73
7
 74
0
 42
0.0000001
 43
0.0000001
 44
0.0000000001
 40
0.0
 40
0.0
 40
0.0
 40
0.0
 40
0.2472941613
 40
0.5000002815
 40
0.7527062463
 40
1.0
 40
1.0
 40
1.0
 40
1.0
 10
817.7345495001
 20
177.6882117781
 30
0.0
 10
819.7409595028
 20
176.234516739
 30
0.0
 10
824.3190981523
 20
173.9629937082
 30
0.0
 10
831.8866406807
 20
172.8166243832
 30
0.0
 10
839.4541606636
 20
173.9631164393
 30
0.0
 10
844.0322560649
 20
176.2347151947
 30
0.0
 10
846.0386369539
 20
177.6884434554
 30
0.0
  0
SPLINE
  5
57A
100
AcDbEntity
  8
0
100
AcDbSpline
 62
7
  6
CONTINUOUS
 70
0
 71
3
 72
19
 73
15
 74
0
 42
0.0000001
 43
0.0000001
 44
0.0000000001
 40
0.0
 40
0.0
 40
0.0
 40
0.0
 40
0.0581529382
 40
0.1170186733
 40
0.1771895919
 40
0.2390194491
 40
0.3672020887
 40
0.5
 40
0.6327979113
 40
0.7609805509
 40
0.8228104081
 40
0.8829813267
 40
0.9418470618
 40
1.0
 40
1.0
 40
1.0
 40
1.0
 10
849.8421839632
 20
176.601471081
 30
0.0
 10
849.8421839632
 20
175.5836958513
 30
0.0
 10
849.6072345256
 20
173.5282639807
 30
0.0
 10
848.5678120407
 20
170.5809679602
 30
0.0
 10
846.8848412473
 20
167.8711264483
 30
0.0
 10
843.8469128061
 20
164.6817194978
 30
0.0
 10
838.8105942696
 20
161.8226024927
 30
0.0
 10
831.8864333479
 20
160.6588814262
 30
0.0
 10
824.9622724262
 20
161.8226024927
 30
0.0
 10
819.9259538896
 20
164.6817194978
 30
0.0
 10
816.8880254485
 20
167.8711264483
 30
0.0
 10
815.2050546551
 20
170.5809679602
 30
0.0
 10
814.1656321701
 20
173.5282639807
 30
0.0
 10
813.9306827325
 20
175.5836958513
 30
0.0
 10
813.9306827325
 20
176.601471081
 30
0.0
  0
SPLINE
  5
57B
100
AcDbEntity
  8
0
100
AcDbSpline
 62
7
  6
CONTINUOUS
 70
0
 71
3
 72
9
 73
5
 74
0
 42
0.0000001
 43
0.0000001
 44
0.0000000001
 40
0.0
 40
0.0
 40
0.0
 40
0.0
 40
0.507006474
 40
1.0
 40
1.0
 40
1.0
 40
1.0
 10
831.8864333479
 20
168.8744795768
 30
0.0
 10
832.9719366428
 20
168.8744795768
 30
0.0
 10
835.1254624593
 20
169.1929190005
 30
0.0
 10
837.0871504874
 20
170.1496322018
 30
0.0
 10
837.9449327338
 20
170.764687522
 30
0.0
  0
SPLINE
  5
57C
100
AcDbEntity
  8
0
100
AcDbSpline
 62
7
  6
CONTINUOUS
 70
0
 71
3
 72
15
 73
11
 74
0
 42
0.0000001
 43
0.0000001
 44
0.0000000001
 40
0.0
 40
0.0
 40
0.0
 40
0.0
 40
0.1182637916
 40
0.2418061731
 40
0.3696902963
 40
0.5
 40
0.6303097037
 40
0.7581938269
 40
0.8817362084
 40
1.0
 40
1.0
 40
1.0
 40
1.0
 10
850.9201616979
 20
159.61489687
 30
0.0
 10
849.8927257812
 20
158.2505067415
 30
0.0
 10
847.3983173305
 20
155.7412202086
 30
0.0
 10
842.7872076854
 20
152.9594073781
 30
0.0
 10
837.5077840642
 20
151.2226032171
 30
0.0
 10
831.8864333479
 20
150.6331234951
 30
0.0
 10
826.2650826315
 20
151.2226032171
 30
0.0
 10
820.9856590103
 20
152.9594073781
 30
0.0
 10
816.3745493653
 20
155.7412202086
 30
0.0
 10
813.8801409146
 20
158.2505067415
 30
0.0
 10
812.8527049978
 20
159.61489687
 30
0.0
  0
SPLINE
  5
57D
100
AcDbEntity
  8
RUNDUNGEN
100
AcDbSpline
 62
7
  6
CONTINUOUS
 70
0
 71
3
 72
9
 73
5
 74
0
 42
0.0000001
 43
0.0000001
 44
0.0000000001
 40
0.0
 40
0.0
 40
0.0
 40
0.0
 40
0.256123281
 40
1.0
 40
1.0
 40
1.0
 40
1.0
 10
838.856883812
 20
215.3449876525
 30
0.0
 10
838.9609738909
 20
215.2091930165
 30
0.0
 10
839.3774252534
 20
214.6867965443
 30
0.0
 10
839.8293509763
 20
214.1925242361
 30
0.0
 10
840.184545275
 20
213.8449876525
 30
0.0
  0
SPLINE
  5
57E
100
AcDbEntity
  8
0
100
AcDbSpline
 62
7
  6
CONTINUOUS
 70
0
 71
3
 72
9
 73
5
 74
0
 42
0.0000001
 43
0.0000001
 44
0.0000000001
 40
0.0
 40
0.0
 40
0.0
 40
0.0
 40
0.256123281
 40
1.0
 40
1.0
 40
1.0
 40
1.0
 10
824.9159828837
 20
215.3449876525
 30
0.0
 10
824.8118928049
 20
215.2091930165
 30
0.0
 10
824.3954414424
 20
214.6867965443
 30
0.0
 10
823.9435157195
 20
214.1925242361
 30
0.0
 10
823.5883214207
 20
213.8449876525
 30
0.0
  0
LINE
  5
57F
100
AcDbEntity
  8
BEZUGSACHSEN
100
AcDbLine
 62
7
  6
CONTINUOUS
 10
840.9764601047
 20
271.7131908064
 11
841.1575407043
 21
271.0791615325
  0
LINE
  5
580
100
AcDbEntity
  8
BEZUGSACHSEN
100
AcDbLine
 62
7
  6
CONTINUOUS
 10
841.1575407043
 20
271.0791615325
 11
841.1854923279
 21
270.9811653504
  0
SPLINE
  5
581
100
AcDbEntity
  8
BEZUGSACHSEN
100
AcDbSpline
 62
7
  6
CONTINUOUS
 70
0
 71
3
 72
8
 73
4
 74
0
 42
0.0000001
 43
0.0000001
 44
0.0000000001
 40
0.0
 40
0.0
 40
0.0
 40
0.0
 40
1.0
 40
1.0
 40
1.0
 40
1.0
 10
841.1854923279
 20
270.9811653504
 30
0.0
 10
841.3617835658
 20
270.362991825
 30
0.0
 10
841.5375252459
 20
269.7446611903
 30
0.0
 10
841.7125987901
 20
269.1261416981
 30
0.0
  0
LINE
  5
582
100
AcDbEntity
  8
BEZUGSACHSEN
100
AcDbLine
 62
7
  6
CONTINUOUS
 10
841.7125987901
 20
269.1261416981
 11
841.7877931174
 21
268.8603279128
  0
SPLINE
  5
583
100
AcDbEntity
  8
0
100
AcDbSpline
 62
7
  6
CONTINUOUS
 70
0
 71
3
 72
13
 73
9
 74
0
 42
0.0000001
 43
0.0000001
 44
0.0000000001
 40
0.0
 40
0.0
 40
0.0
 40
0.0
 40
0.2655958126
 40
0.5219612148
 40
0.6456213668
 40
0.7659615979
 40
0.8836976443
 40
1.0
 40
1.0
 40
1.0
 40
1.0
 10
831.8864333479
 20
208.0459495468
 30
0.0
 10
833.0513930821
 20
208.0459495468
 30
0.0
 10
835.3595631626
 20
207.6593741877
 30
0.0
 10
837.8811385303
 20
206.2263045162
 30
0.0
 10
839.4041745392
 20
204.6276579711
 30
0.0
 10
840.2476994181
 20
203.2693959124
 30
0.0
 10
840.7686568956
 20
201.7920972047
 30
0.0
 10
840.8864333479
 20
200.761847786
 30
0.0
 10
840.8864333479
 20
200.2517209127
 30
0.0
  0
SPLINE
  5
584
100
AcDbEntity
  8
0
100
AcDbSpline
 62
7
  6
CONTINUOUS
 70
0
 71
3
 72
13
 73
9
 74
0
 42
0.0000001
 43
0.0000001
 44
0.0000000001
 40
0.0
 40
0.0
 40
0.0
 40
0.0
 40
0.1163023557
 40
0.2340384021
 40
0.3543786332
 40
0.4780387852
 40
0.7344041874
 40
1.0
 40
1.0
 40
1.0
 40
1.0
 10
822.8864333479
 20
200.2517209127
 30
0.0
 10
822.8864333479
 20
200.761847786
 30
0.0
 10
823.0042098002
 20
201.7920972047
 30
0.0
 10
823.5251672777
 20
203.2693959124
 30
0.0
 10
824.3686921565
 20
204.6276579711
 30
0.0
 10
825.8917281654
 20
206.2263045162
 30
0.0
 10
828.4133035331
 20
207.6593741877
 30
0.0
 10
830.7214736137
 20
208.0459495468
 30
0.0
 10
831.8864333479
 20
208.0459495468
 30
0.0
  0
SPLINE
  5
585
100
AcDbEntity
  8
0
100
AcDbSpline
 62
7
  6
CONTINUOUS
 70
0
 71
3
 72
11
 73
7
 74
0
 42
0.0000001
 43
0.0000001
 44
0.0000000001
 40
0.0
 40
0.0
 40
0.0
 40
0.0
 40
0.2637230516
 40
0.5203575064
 40
0.7656085373
 40
1.0
 40
1.0
 40
1.0
 40
1.0
 10
831.8864333479
 20
206.5459495468
 30
0.0
 10
832.8989175088
 20
206.5459495468
 30
0.0
 10
834.9096429446
 20
206.2521954498
 30
0.0
 10
837.6032149285
 20
204.964537009
 30
0.0
 10
839.6720471975
 20
202.9607284396
 30
0.0
 10
840.4752186481
 20
201.2461601606
 30
0.0
 10
840.6897169518
 20
200.3722239194
 30
0.0
  0
LINE
  5
586
100
AcDbEntity
  8
BEZUGSACHSEN
100
AcDbLine
 62
7
  6
CONTINUOUS
 10
841.7774187415
 20
267.6062011076
 11
841.7194966235
 21
267.8311502636
  0
LINE
  5
587
100
AcDbEntity
  8
BEZUGSACHSEN
100
AcDbLine
 62
7
  6
CONTINUOUS
 10
841.7194966235
 20
267.8311502636
 11
840.9013089298
 21
271.0078989917
  0
LINE
  5
588
100
AcDbEntity
  8
BEZUGSACHSEN
100
AcDbLine
 62
7
  6
CONTINUOUS
 10
840.9013089298
 20
271.0078989917
 11
840.8768483025
 21
271.1028506455
  0
LINE
  5
589
100
AcDbEntity
  8
BEZUGSACHSEN
100
AcDbLine
 62
7
  6
CONTINUOUS
 10
840.8768483025
 20
271.1028506455
 11
840.7355980299
 21
271.6511371748
  0
LINE
  5
58A
100
AcDbEntity
  8
BEZUGSACHSEN
100
AcDbLine
 62
7
  6
CONTINUOUS
 10
840.7355980299
 20
271.6511371748
 11
840.6674809969
 21
271.9155323432
  0
LINE
  5
58B
100
AcDbEntity
  8
BEZUGSACHSEN
100
AcDbLine
 62
7
  6
CONTINUOUS
 10
840.6674809969
 20
271.9155323432
 11
840.0828133272
 21
274.184605015
  0
LINE
  5
58C
100
AcDbEntity
  8
BEZUGSACHSEN
100
AcDbLine
 62
7
  6
CONTINUOUS
 10
840.0828133272
 20
274.184605015
 11
839.945992264
 21
274.7155295798
  0
SPLINE
  5
58D
100
AcDbEntity
  8
KONSTRUKTIONSELEMENTE
100
AcDbSpline
 62
7
  6
CONTINUOUS
 70
0
 71
3
 72
8
 73
4
 74
0
 42
0.0000001
 43
0.0000001
 44
0.0000000001
 40
0.0
 40
0.0
 40
0.0
 40
0.0
 40
1.0
 40
1.0
 40
1.0
 40
1.0
 10
839.3167041089
 20
274.7155295798
 30
0.0
 10
839.9273105673
 20
272.3458162856
 30
0.0
 10
840.5377294749
 20
269.9760546385
 30
0.0
 10
841.1477914275
 20
267.6062011076
 30
0.0
  0
SPLINE
  5
58E
100
AcDbEntity
  8
0
100
AcDbSpline
 62
7
  6
CONTINUOUS
 70
0
 71
3
 72
11
 73
7
 74
0
 42
0.0000001
 43
0.0000001
 44
0.0000000001
 40
0.0
 40
0.0
 40
0.0
 40
0.0
 40
0.2637230516
 40
0.5203575064
 40
0.7656085373
 40
1.0
 40
1.0
 40
1.0
 40
1.0
 10
831.8864333479
 20
206.5459495468
 30
0.0
 10
830.8739491869
 20
206.5459495468
 30
0.0
 10
828.8632237511
 20
206.2521954498
 30
0.0
 10
826.1696517673
 20
204.964537009
 30
0.0
 10
824.1008194983
 20
202.9607284396
 30
0.0
 10
823.2976480477
 20
201.2461601606
 30
0.0
 10
823.083149744
 20
200.3722239194
 30
0.0
  0
LINE
  5
58F
100
AcDbEntity
  8
BEZUGSACHSEN
100
AcDbLine
 62
7
  6
CONTINUOUS
 10
840.1919308736
 20
274.9407155318
 11
840.2300148315
 21
274.8296154769
  0
LINE
  5
590
100
AcDbEntity
  8
BEZUGSACHSEN
100
AcDbLine
 62
7
  6
CONTINUOUS
 10
840.2300148315
 20
274.8296154769
 11
840.2489398385
 21
274.7742855635
  0
LINE
  5
591
100
AcDbEntity
  8
BEZUGSACHSEN
100
AcDbLine
 62
7
  6
CONTINUOUS
 10
840.2489398385
 20
274.7742855635
 11
840.267786934
 21
274.7191023999
  0
LINE
  5
592
100
AcDbEntity
  8
BEZUGSACHSEN
100
AcDbLine
 62
7
  6
CONTINUOUS
 10
840.267786934
 20
274.7191023999
 11
840.3835725451
 21
274.3057711963
  0
LINE
  5
593
100
AcDbEntity
  8
BEZUGSACHSEN
100
AcDbLine
 62
7
  6
CONTINUOUS
 10
840.3835725451
 20
274.3057711963
 11
840.5006084219
 21
273.8519839029
  0
LINE
  5
594
100
AcDbEntity
  8
BEZUGSACHSEN
100
AcDbLine
 62
7
  6
CONTINUOUS
 10
840.6189426133
 20
273.3577413672
 11
840.5006084219
 21
273.8519839029
  0
LINE
  5
595
100
AcDbEntity
  8
BEZUGSACHSEN
100
AcDbLine
 62
7
  6
CONTINUOUS
 10
840.6992782874
 20
272.9743053395
 11
840.6189426133
 21
273.3577413672
  0
LINE
  5
596
100
AcDbEntity
  8
BEZUGSACHSEN
100
AcDbLine
 62
7
  6
CONTINUOUS
 10
839.9507872919
 20
277.3496136922
 11
840.0548941224
 21
276.9284109789
  0
LINE
  5
597
100
AcDbEntity
  8
BEZUGSACHSEN
100
AcDbLine
 62
7
  6
CONTINUOUS
 10
840.0548941224
 20
276.9284109789
 11
840.4033414268
 21
275.5185823848
  0
LINE
  5
598
100
AcDbEntity
  8
BEZUGSACHSEN
100
AcDbLine
 62
7
  6
CONTINUOUS
 10
840.4033414268
 20
275.5185823848
 11
840.5246935839
 21
275.027566252
  0
LINE
  5
599
100
AcDbEntity
  8
BEZUGSACHSEN
100
AcDbLine
 62
7
  6
CONTINUOUS
 10
840.5246935839
 20
275.027566252
 11
840.6275876429
 21
274.6112261955
  0
LINE
  5
59A
100
AcDbEntity
  8
BEZUGSACHSEN
100
AcDbLine
 62
7
  6
CONTINUOUS
 10
840.6275876429
 20
274.6112261955
 11
840.7774810606
 21
274.0046968844
  0
LINE
  5
59B
100
AcDbEntity
  8
BEZUGSACHSEN
100
AcDbLine
 62
7
  6
CONTINUOUS
 10
840.7774810606
 20
274.0046968844
 11
840.8615941891
 21
273.6643326329
  0
LINE
  5
59C
100
AcDbEntity
  8
BEZUGSACHSEN
100
AcDbLine
 62
7
  6
CONTINUOUS
 10
840.8615941891
 20
273.6643326329
 11
840.899432555
 21
273.5112174005
  0
LINE
  5
59D
100
AcDbEntity
  8
BEZUGSACHSEN
100
AcDbLine
 62
7
  6
CONTINUOUS
 10
840.899432555
 20
273.5112174005
 11
841.0778878731
 21
272.7890692717
  0
LINE
  5
59E
100
AcDbEntity
  8
BEZUGSACHSEN
100
AcDbLine
 62
7
  6
CONTINUOUS
 10
841.0778878731
 20
272.7890692717
 11
841.1335386229
 21
272.5638633429
  0
LINE
  5
59F
100
AcDbEntity
  8
BEZUGSACHSEN
100
AcDbLine
 62
7
  6
CONTINUOUS
 10
841.1335386229
 20
272.5638633429
 11
841.1601474309
 21
272.4561824733
  0
LINE
  5
5A0
100
AcDbEntity
  8
KONSTRUKTIONSELEMENTE
100
AcDbLine
 62
7
  6
CONTINUOUS
 10
839.4378450758
 20
276.9030460319
 11
839.4314891646
 21
276.9287595151
  0
LINE
  5
5A1
100
AcDbEntity
  8
KONSTRUKTIONSELEMENTE
100
AcDbLine
 62
7
  6
CONTINUOUS
 10
839.4314891646
 20
276.9287595151
 11
839.327460687
 21
277.3496136922
  0
LINE
  5
5A2
100
AcDbEntity
  8
BEZUGSACHSEN
100
AcDbLine
 62
7
  6
CONTINUOUS
 10
841.3175650861
 20
271.8061650436
 11
841.2390302835
 21
272.1304905537
  0
LINE
  5
5A3
100
AcDbEntity
  8
BEZUGSACHSEN
100
AcDbLine
 62
7
  6
CONTINUOUS
 10
841.2390302835
 20
272.1304905537
 11
841.1996323481
 21
272.2931657086
  0
LINE
  5
5A4
100
AcDbEntity
  8
BEZUGSACHSEN
100
AcDbLine
 62
7
  6
CONTINUOUS
 10
841.1996323481
 20
272.2931657086
 11
841.1601474309
 21
272.4561824733
  0
LINE
  5
5A5
100
AcDbEntity
  8
BEZUGSACHSEN
100
AcDbLine
 62
7
  6
CONTINUOUS
 10
841.437077211
 20
271.2953932834
 11
841.4073843947
 21
271.4224534485
  0
LINE
  5
5A6
100
AcDbEntity
  8
BEZUGSACHSEN
100
AcDbLine
 62
7
  6
CONTINUOUS
 10
841.4073843947
 20
271.4224534485
 11
841.3476283123
 21
271.6778393245
  0
LINE
  5
5A7
100
AcDbEntity
  8
BEZUGSACHSEN
100
AcDbLine
 62
7
  6
CONTINUOUS
 10
841.3476283123
 20
271.6778393245
 11
841.3175650861
 21
271.8061650436
  0
LINE
  5
5A8
100
AcDbEntity
  8
BEZUGSACHSEN
100
AcDbLine
 62
7
  6
CONTINUOUS
 10
841.5179927562
 20
270.9238669757
 11
841.4777614211
 21
271.1091649963
  0
LINE
  5
5A9
100
AcDbEntity
  8
BEZUGSACHSEN
100
AcDbLine
 62
7
  6
CONTINUOUS
 10
841.4777614211
 20
271.1091649963
 11
841.4574759296
 21
271.202162857
  0
LINE
  5
5AA
100
AcDbEntity
  8
BEZUGSACHSEN
100
AcDbLine
 62
7
  6
CONTINUOUS
 10
841.4574759296
 20
271.202162857
 11
841.437077211
 21
271.2953932834
  0
LINE
  5
5AB
100
AcDbEntity
  8
BEZUGSACHSEN
100
AcDbLine
 62
7
  6
CONTINUOUS
 10
841.5592184031
 20
270.6915863417
 11
841.5388382944
 21
270.8077318881
  0
LINE
  5
5AC
100
AcDbEntity
  8
BEZUGSACHSEN
100
AcDbLine
 62
7
  6
CONTINUOUS
 10
841.5388382944
 20
270.8077318881
 11
841.5284734761
 21
270.8658007314
  0
LINE
  5
5AD
100
AcDbEntity
  8
BEZUGSACHSEN
100
AcDbLine
 62
7
  6
CONTINUOUS
 10
841.5284734761
 20
270.8658007314
 11
841.5179927562
 21
270.9238669757
  0
SPLINE
  5
5AE
100
AcDbEntity
  8
BEZUGSACHSEN
100
AcDbSpline
 62
7
  6
CONTINUOUS
 70
0
 71
3
 72
8
 73
4
 74
0
 42
0.0000001
 43
0.0000001
 44
0.0000000001
 40
0.0
 40
0.0
 40
0.0
 40
0.0
 40
1.0
 40
1.0
 40
1.0
 40
1.0
 10
841.767608585
 20
270.1231468341
 30
0.0
 10
841.775700479
 20
270.1084082301
 30
0.0
 10
841.7822261464
 20
270.0925976132
 30
0.0
 10
841.7862238787
 20
270.0762659466
 30
0.0
  0
SPLINE
  5
5AF
100
AcDbEntity
  8
0
100
AcDbSpline
 62
7
  6
CONTINUOUS
 70
0
 71
3
 72
9
 73
5
 74
0
 42
0.0000001
 43
0.0000001
 44
0.0000000001
 40
0.0
 40
0.0
 40
0.0
 40
0.0
 40
0.2218049703
 40
1.0
 40
1.0
 40
1.0
 40
1.0
 10
810.3107724545
 20
162.4539663819
 30
0.0
 10
810.5177413893
 20
162.2624905959
 30
0.0
 10
811.4319820159
 20
161.3788803988
 30
0.0
 10
812.2576308425
 20
160.4051294189
 30
0.0
 10
812.8527049978
 20
159.61489687
 30
0.0
  0
LINE
  5
5B0
100
AcDbEntity
  8
BEZUGSACHSEN
100
AcDbLine
 62
7
  6
CONTINUOUS
 10
841.1520999393
 20
271.8979724205
 11
841.1266810044
 21
272.0009346148
  0
LINE
  5
5B1
100
AcDbEntity
  8
BEZUGSACHSEN
100
AcDbLine
 62
7
  6
CONTINUOUS
 10
841.1266810044
 20
272.0009346148
 11
841.0533485206
 21
272.2979691873
  0
LINE
  5
5B2
100
AcDbEntity
  8
BEZUGSACHSEN
100
AcDbLine
 62
7
  6
CONTINUOUS
 10
841.0533485206
 20
272.2979691873
 11
840.9404897553
 21
272.7550865972
  0
LINE
  5
5B3
100
AcDbEntity
  8
BEZUGSACHSEN
100
AcDbLine
 62
7
  6
CONTINUOUS
 10
840.9404897553
 20
272.7550865972
 11
840.7621753896
 21
273.4772766994
  0
LINE
  5
5B4
100
AcDbEntity
  8
BEZUGSACHSEN
100
AcDbLine
 62
7
  6
CONTINUOUS
 10
840.7621753896
 20
273.4772766994
 11
840.6403189236
 21
273.9707764613
  0
LINE
  5
5B5
100
AcDbEntity
  8
BEZUGSACHSEN
100
AcDbLine
 62
7
  6
CONTINUOUS
 10
840.6403189236
 20
273.9707764613
 11
840.5540545076
 21
274.3201196525
  0
LINE
  5
5B6
100
AcDbEntity
  8
BEZUGSACHSEN
100
AcDbLine
 62
7
  6
CONTINUOUS
 10
840.5540545076
 20
274.3201196525
 11
840.4905375727
 21
274.577335516
  0
LINE
  5
5B7
100
AcDbEntity
  8
BEZUGSACHSEN
100
AcDbLine
 62
7
  6
CONTINUOUS
 10
840.4905375727
 20
274.577335516
 11
840.3877201714
 21
274.9936882731
  0
LINE
  5
5B8
100
AcDbEntity
  8
BEZUGSACHSEN
100
AcDbLine
 62
7
  6
CONTINUOUS
 10
840.3877201714
 20
274.9936882731
 11
840.266455989
 21
275.484720312
  0
LINE
  5
5B9
100
AcDbEntity
  8
BEZUGSACHSEN
100
AcDbLine
 62
7
  6
CONTINUOUS
 10
840.266455989
 20
275.484720312
 11
840.2504282949
 21
275.5496192884
  0
LINE
  5
5BA
100
AcDbEntity
  8
BEZUGSACHSEN
100
AcDbLine
 62
7
  6
CONTINUOUS
 10
840.2504282949
 20
275.5496192884
 11
840.1920595175
 21
275.7859617946
  0
LINE
  5
5BB
100
AcDbEntity
  8
BEZUGSACHSEN
100
AcDbLine
 62
7
  6
CONTINUOUS
 10
840.1920595175
 20
275.7859617946
 11
839.943735988
 21
276.7914036393
  0
LINE
  5
5BC
100
AcDbEntity
  8
KONSTRUKTIONSELEMENTE
100
AcDbLine
 62
7
  6
CONTINUOUS
 10
839.3185373388
 20
276.7914036393
 11
839.5667241877
 21
275.7863915444
  0
LINE
  5
5BD
100
AcDbEntity
  8
KONSTRUKTIONSELEMENTE
100
AcDbLine
 62
7
  6
CONTINUOUS
 10
839.5667241877
 20
275.7863915444
 11
839.5788015436
 21
275.7374830139
  0
LINE
  5
5BE
100
AcDbEntity
  8
BEZUGSACHSEN
100
AcDbLine
 62
7
  6
CONTINUOUS
 10
841.1520999393
 20
271.8979724205
 11
841.3488887407
 21
271.1273164631
  0
LINE
  5
5BF
100
AcDbEntity
  8
BEZUGSACHSEN
100
AcDbLine
 62
7
  6
CONTINUOUS
 10
841.3488887407
 20
271.1273164631
 11
841.508403804
 21
270.533119976
  0
LINE
  5
5C0
100
AcDbEntity
  8
KONSTRUKTIONSELEMENTE
100
AcDbLine
 62
7
  6
CONTINUOUS
 10
839.3147721617
 20
277.6187992
 11
839.3513099221
 21
277.4692629177
  0
LINE
  5
5C1
100
AcDbEntity
  8
BEZUGSACHSEN
100
AcDbLine
 62
7
  6
CONTINUOUS
 10
841.767608585
 20
270.1231468341
 11
841.7015984831
 21
270.393534962
  0
LINE
  5
5C2
100
AcDbEntity
  8
BEZUGSACHSEN
100
AcDbLine
 62
7
  6
CONTINUOUS
 10
841.7015984831
 20
270.393534962
 11
841.6420809943
 21
270.6373172804
  0
LINE
  5
5C3
100
AcDbEntity
  8
BEZUGSACHSEN
100
AcDbLine
 62
7
  6
CONTINUOUS
 10
841.6420809943
 20
270.6373172804
 11
841.6205725706
 21
270.7254127823
  0
LINE
  5
5C4
100
AcDbEntity
  8
BEZUGSACHSEN
100
AcDbLine
 62
7
  6
CONTINUOUS
 10
841.6205725706
 20
270.7254127823
 11
841.5561618356
 21
270.9892222778
  0
LINE
  5
5C5
100
AcDbEntity
  8
BEZUGSACHSEN
100
AcDbLine
 62
7
  6
CONTINUOUS
 10
841.5561618356
 20
270.9892222778
 11
841.529822731
 21
271.0970969869
  0
LINE
  5
5C6
100
AcDbEntity
  8
BEZUGSACHSEN
100
AcDbLine
 62
7
  6
CONTINUOUS
 10
841.529822731
 20
271.0970969869
 11
841.4711976366
 21
271.3371956461
  0
LINE
  5
5C7
100
AcDbEntity
  8
BEZUGSACHSEN
100
AcDbLine
 62
7
  6
CONTINUOUS
 10
841.4711976366
 20
271.3371956461
 11
841.4489036254
 21
271.42849815
  0
LINE
  5
5C8
100
AcDbEntity
  8
BEZUGSACHSEN
100
AcDbLine
 62
7
  6
CONTINUOUS
 10
841.4489036254
 20
271.42849815
 11
841.3667553918
 21
271.7649151151
  0
LINE
  5
5C9
100
AcDbEntity
  8
BEZUGSACHSEN
100
AcDbLine
 62
7
  6
CONTINUOUS
 10
841.3667553918
 20
271.7649151151
 11
841.2988311613
 21
272.0430679901
  0
LINE
  5
5CA
100
AcDbEntity
  8
BEZUGSACHSEN
100
AcDbLine
 62
7
  6
CONTINUOUS
 10
841.2988311613
 20
272.0430679901
 11
841.2263694623
 21
272.3397890665
  0
LINE
  5
5CB
100
AcDbEntity
  8
BEZUGSACHSEN
100
AcDbLine
 62
7
  6
CONTINUOUS
 10
841.2263694623
 20
272.3397890665
 11
841.1712687845
 21
272.5654103402
  0
LINE
  5
5CC
100
AcDbEntity
  8
BEZUGSACHSEN
100
AcDbLine
 62
7
  6
CONTINUOUS
 10
841.1712687845
 20
272.5654103402
 11
841.1146414085
 21
272.7972753381
  0
LINE
  5
5CD
100
AcDbEntity
  8
BEZUGSACHSEN
100
AcDbLine
 62
7
  6
CONTINUOUS
 10
841.1146414085
 20
272.7972753381
 11
840.9381341977
 21
273.5199489124
  0
LINE
  5
5CE
100
AcDbEntity
  8
BEZUGSACHSEN
100
AcDbLine
 62
7
  6
CONTINUOUS
 10
840.9381341977
 20
273.5199489124
 11
840.8175125066
 21
274.0137698617
  0
LINE
  5
5CF
100
AcDbEntity
  8
BEZUGSACHSEN
100
AcDbLine
 62
7
  6
CONTINUOUS
 10
840.8175125066
 20
274.0137698617
 11
840.6692564457
 21
274.6206820877
  0
LINE
  5
5D0
100
AcDbEntity
  8
BEZUGSACHSEN
100
AcDbLine
 62
7
  6
CONTINUOUS
 10
840.6692564457
 20
274.6206820877
 11
840.1026492057
 21
276.9397919191
  0
LINE
  5
5D1
100
AcDbEntity
  8
BEZUGSACHSEN
100
AcDbLine
 62
7
  6
CONTINUOUS
 10
840.1026492057
 20
276.9397919191
 11
839.9733259712
 21
277.4690282909
  0
LINE
  5
5D2
100
AcDbEntity
  8
BEZUGSACHSEN
100
AcDbLine
 62
7
  6
CONTINUOUS
 10
839.9733259712
 20
277.4690282909
 11
839.9367270003
 21
277.6187992
  0
SPLINE
  5
5D3
100
AcDbEntity
  8
KONSTRUKTIONSELEMENTE
100
AcDbSpline
 62
7
  6
CONTINUOUS
 70
0
 71
3
 72
11
 73
7
 74
0
 42
0.0000001
 43
0.0000001
 44
0.0000000001
 40
0.0
 40
0.0
 40
0.0
 40
0.0
 40
0.3553660481
 40
0.4919554141
 40
0.6464733594
 40
1.0
 40
1.0
 40
1.0
 40
1.0
 10
632.853437617
 20
102.1136020504
 30
0.0
 10
632.4334880931
 20
102.4769781084
 30
0.0
 10
631.4622167981
 20
102.2690847587
 30
0.0
 10
630.5816317336
 20
101.845936806
 30
0.0
 10
629.7072627132
 20
101.3253224766
 30
0.0
 10
629.0815672403
 20
100.8370750783
 30
0.0
 10
628.6639444349
 20
100.4754031196
 30
0.0
  0
SPLINE
  5
5D4
100
AcDbEntity
  8
KONSTRUKTIONSELEMENTE
100
AcDbSpline
 62
7
  6
CONTINUOUS
 70
0
 71
3
 72
10
 73
6
 74
0
 42
0.0000001
 43
0.0000001
 44
0.0000000001
 40
0.0
 40
0.0
 40
0.0
 40
0.0
 40
0.5724578226
 40
0.8061405623
 40
1.0
 40
1.0
 40
1.0
 40
1.0
 10
628.5617076523
 20
114.9058296097
 30
0.0
 10
628.8776324641
 20
115.4395367417
 30
0.0
 10
629.2781274723
 20
116.2241777458
 30
0.0
 10
629.5919471244
 20
117.2634099545
 30
0.0
 10
629.6538939285
 20
117.7264208207
 30
0.0
 10
629.6538939285
 20
117.9364488865
 30
0.0
  0
SPLINE
  5
5D5
100
AcDbEntity
  8
KONSTRUKTIONSELEMENTE
100
AcDbSpline
 62
7
  6
CONTINUOUS
 70
0
 71
3
 72
9
 73
5
 74
0
 42
0.0000001
 43
0.0000001
 44
0.0000000001
 40
0.0
 40
0.0
 40
0.0
 40
0.0
 40
0.5487176208
 40
1.0
 40
1.0
 40
1.0
 40
1.0
 10
629.6538939285
 20
94.0675081667
 30
0.0
 10
629.6538939285
 20
93.8957770772
 30
0.0
 10
629.6878380881
 20
93.5777729293
 30
0.0
 10
629.8619032942
 20
93.2985887432
 30
0.0
 10
629.9686709692
 20
93.2061303984
 30
0.0
  0
SPLINE
  5
5D6
100
AcDbEntity
  8
KONSTRUKTIONSELEMENTE
100
AcDbSpline
 62
7
  6
CONTINUOUS
 70
0
 71
3
 72
11
 73
7
 74
0
 42
0.0000001
 43
0.0000001
 44
0.0000000001
 40
0.0
 40
0.0
 40
0.0
 40
0.0
 40
0.3553660481
 40
0.4919554141
 40
0.6464733594
 40
1.0
 40
1.0
 40
1.0
 40
1.0
 10
632.287752192
 20
101.0034999989
 30
0.0
 10
631.8678026682
 20
101.366876057
 30
0.0
 10
630.8965313731
 20
101.1589827073
 30
0.0
 10
630.0159463086
 20
100.7358347545
 30
0.0
 10
629.1415772882
 20
100.2152204251
 30
0.0
 10
628.5158818154
 20
99.7269730269
 30
0.0
 10
628.0982590099
 20
99.3653010681
 30
0.0
  0
SPLINE
  5
5D7
100
AcDbEntity
  8
KONSTRUKTIONSELEMENTE
100
AcDbSpline
 62
7
  6
CONTINUOUS
 70
0
 71
3
 72
9
 73
5
 74
0
 42
0.0000001
 43
0.0000001
 44
0.0000000001
 40
0.0
 40
0.0
 40
0.0
 40
0.0
 40
0.3430740591
 40
1.0
 40
1.0
 40
1.0
 40
1.0
 10
687.5967008669
 20
125.704816677
 30
0.0
 10
687.5837569931
 20
125.6715103788
 30
0.0
 10
687.5517803007
 20
125.5777599548
 30
0.0
 10
687.5438850176
 20
125.4443919767
 30
0.0
 10
687.5956096001
 20
125.3996012596
 30
0.0
  0
SPLINE
  5
5D8
100
AcDbEntity
  8
KONSTRUKTIONSELEMENTE
100
AcDbSpline
 62
7
  6
CONTINUOUS
 70
0
 71
3
 72
10
 73
6
 74
0
 42
0.0000001
 43
0.0000001
 44
0.0000000001
 40
0.0
 40
0.0
 40
0.0
 40
0.0
 40
0.1889346049
 40
0.5351285558
 40
1.0
 40
1.0
 40
1.0
 40
1.0
 10
610.12219536
 20
84.5440488339
 30
0.0
 10
610.1582343751
 20
84.5128387762
 30
0.0
 10
610.2839726641
 20
84.4504560356
 30
0.0
 10
610.5453117323
 20
84.4641044616
 30
0.0
 10
610.7381915918
 20
84.5353646949
 30
0.0
 10
610.844853549
 20
84.5841831526
 30
0.0
  0
SPLINE
  5
5D9
100
AcDbEntity
  8
KONSTRUKTIONSELEMENTE
100
AcDbSpline
 62
7
  6
CONTINUOUS
 70
0
 71
3
 72
9
 73
5
 74
0
 42
0.0000001
 43
0.0000001
 44
0.0000000001
 40
0.0
 40
0.0
 40
0.0
 40
0.0
 40
0.2183282735
 40
1.0
 40
1.0
 40
1.0
 40
1.0
 10
610.844853549
 20
84.5841831526
 30
0.0
 10
610.9127784337
 20
84.6152719138
 30
0.0
 10
611.2161591212
 20
84.7744886827
 30
0.0
 10
611.4912081943
 20
84.9831731798
 30
0.0
 10
611.6933816864
 20
85.15826056
 30
0.0
  0
SPLINE
  5
5DA
100
AcDbEntity
  8
KONSTRUKTIONSELEMENTE
100
AcDbSpline
 62
7
  6
CONTINUOUS
 70
0
 71
3
 72
11
 73
7
 74
0
 42
0.0000001
 43
0.0000001
 44
0.0000000001
 40
0.0
 40
0.0
 40
0.0
 40
0.0
 40
0.1762655922
 40
0.3918218634
 40
0.6654417773
 40
1.0
 40
1.0
 40
1.0
 40
1.0
 10
633.5042048751
 20
90.1442682199
 30
0.0
 10
633.6132013276
 20
90.0498798051
 30
0.0
 10
633.9234078369
 20
89.9164547786
 30
0.0
 10
634.4771428907
 20
89.9422678492
 30
0.0
 10
635.1249230661
 20
90.1414393351
 30
0.0
 10
635.5710436871
 20
90.3660907718
 30
0.0
 10
635.8084802211
 20
90.5021732914
 30
0.0
  0
SPLINE
  5
5DB
100
AcDbEntity
  8
BEZUGSACHSEN
100
AcDbSpline
 62
7
  6
CONTINUOUS
 70
0
 71
3
 72
11
 73
7
 74
0
 42
0.0000001
 43
0.0000001
 44
0.0000000001
 40
0.0
 40
0.0
 40
0.0
 40
0.0
 40
0.3535738114
 40
0.5081078864
 40
0.644684834
 40
1.0
 40
1.0
 40
1.0
 40
1.0
 10
712.3853873274
 20
179.370299506
 30
0.0
 10
712.7443772315
 20
179.6811938826
 30
0.0
 10
713.2822242461
 20
180.1008889618
 30
0.0
 10
714.0338282938
 20
180.5483353593
 30
0.0
 10
714.7906509639
 20
180.9119313883
 30
0.0
 10
715.6255474762
 20
181.0901916165
 30
0.0
 10
715.9862327907
 20
180.777682249
 30
0.0
  0
SPLINE
  5
5DC
100
AcDbEntity
  8
BEZUGSACHSEN
100
AcDbSpline
 62
7
  6
CONTINUOUS
 70
0
 71
3
 72
11
 73
7
 74
0
 42
0.0000001
 43
0.0000001
 44
0.0000000001
 40
0.0
 40
0.0
 40
0.0
 40
0.0
 40
0.3015881397
 40
0.562494249
 40
0.7907344083
 40
1.0
 40
1.0
 40
1.0
 40
1.0
 10
719.4162526649
 20
182.0355630186
 30
0.0
 10
719.4511560731
 20
182.3578526275
 30
0.0
 10
719.4790657809
 20
182.9645191463
 30
0.0
 10
719.3665274223
 20
183.8129580852
 30
0.0
 10
719.0906517675
 20
184.5208692971
 30
0.0
 10
718.7874690271
 20
184.893396153
 30
0.0
 10
718.6174706212
 20
185.0406965992
 30
0.0
  0
SPLINE
  5
5DD
100
AcDbEntity
  8
KONSTRUKTIONSELEMENTE
100
AcDbSpline
 62
7
  6
CONTINUOUS
 70
0
 71
3
 72
11
 73
7
 74
0
 42
0.0000001
 43
0.0000001
 44
0.0000000001
 40
0.0
 40
0.0
 40
0.0
 40
0.0
 40
0.2331265941
 40
0.50089325
 40
0.7681870742
 40
1.0
 40
1.0
 40
1.0
 40
1.0
 10
692.8756007801
 20
123.2091767873
 30
0.0
 10
693.649022499
 20
123.652449667
 30
0.0
 10
695.1883368698
 20
124.8155864651
 30
0.0
 10
697.2552566628
 20
126.9130968634
 30
0.0
 10
699.0247067978
 20
129.2605850569
 30
0.0
 10
699.9455420414
 20
130.9485664738
 30
0.0
 10
700.2666370402
 20
131.7747863494
 30
0.0
  0
SPLINE
  5
5DE
100
AcDbEntity
  8
KONSTRUKTIONSELEMENTE
100
AcDbSpline
 62
7
  6
CONTINUOUS
 70
0
 71
3
 72
9
 73
5
 74
0
 42
0.0000001
 43
0.0000001
 44
0.0000000001
 40
0.0
 40
0.0
 40
0.0
 40
0.0
 40
0.5009052378
 40
1.0
 40
1.0
 40
1.0
 40
1.0
 10
636.9547058834
 20
91.1591121096
 30
0.0
 10
637.1203457312
 20
91.2540456375
 30
0.0
 10
637.4017880358
 20
91.5208636647
 30
0.0
 10
637.6249024669
 20
91.8383661371
 30
0.0
 10
637.6938095094
 20
92.0156730659
 30
0.0
  0
SPLINE
  5
5DF
100
AcDbEntity
  8
KONSTRUKTIONSELEMENTE
100
AcDbSpline
 62
7
  6
CONTINUOUS
 70
0
 71
3
 72
10
 73
6
 74
0
 42
0.0000001
 43
0.0000001
 44
0.0000000001
 40
0.0
 40
0.0
 40
0.0
 40
0.0
 40
0.1766801589
 40
0.5204210617
 40
1.0
 40
1.0
 40
1.0
 40
1.0
 10
691.1311435061
 20
122.3377390811
 30
0.0
 10
691.1456766113
 20
122.3251541906
 30
0.0
 10
691.2005611401
 20
122.3018604387
 30
0.0
 10
691.3122730342
 20
122.3208009652
 30
0.0
 10
691.3931068588
 20
122.359511807
 30
0.0
 10
691.4383815187
 20
122.3854601718
 30
0.0
  0
SPLINE
  5
5E0
100
AcDbEntity
  8
BEZUGSACHSEN
100
AcDbSpline
 62
7
  6
CONTINUOUS
 70
0
 71
3
 72
16
 73
12
 74
0
 42
0.0000001
 43
0.0000001
 44
0.0000000001
 40
0.0
 40
0.0
 40
0.0
 40
0.0
 40
0.0604334772
 40
0.097276284
 40
0.1400808722
 40
0.2447119951
 40
0.3732710367
 40
0.5206468688
 40
0.6797229206
 40
0.8423271151
 40
1.0
 40
1.0
 40
1.0
 40
1.0
 10
708.784541864
 20
172.4629167629
 30
0.0
 10
708.6588280099
 20
172.571839293
 30
0.0
 10
708.5278532941
 20
172.8297430772
 30
0.0
 10
708.4874182776
 20
173.2131772624
 30
0.0
 10
708.5206436608
 20
173.7220060016
 30
0.0
 10
708.7274719468
 20
174.4593718944
 30
0.0
 10
709.1621575531
 20
175.4147442162
 30
0.0
 10
709.7808799549
 20
176.4425529271
 30
0.0
 10
710.5479767889
 20
177.4829908295
 30
0.0
 10
711.4197044339
 20
178.4753495844
 30
0.0
 10
712.0573298044
 20
179.0861933571
 30
0.0
 10
712.3853873274
 20
179.370299506
 30
0.0
  0
SPLINE
  5
5E1
100
AcDbEntity
  8
KONSTRUKTIONSELEMENTE
100
AcDbSpline
 62
7
  6
CONTINUOUS
 70
0
 71
3
 72
11
 73
7
 74
0
 42
0.0000001
 43
0.0000001
 44
0.0000000001
 40
0.0
 40
0.0
 40
0.0
 40
0.0
 40
0.2318159308
 40
0.4991068565
 40
0.7668705892
 40
1.0
 40
1.0
 40
1.0
 40
1.0
 10
640.3186105951
 20
98.7696332186
 30
0.0
 10
640.6397097921
 20
99.595863897
 30
0.0
 10
641.5605438994
 20
101.2838469591
 30
0.0
 10
643.3299912152
 20
103.631323988
 30
0.0
 10
645.3969001061
 20
105.7288292259
 30
0.0
 10
646.9362157053
 20
106.8919644959
 30
0.0
 10
647.7096468552
 20
107.3352427807
 30
0.0
  0
SPLINE
  5
5E2
100
AcDbEntity
  8
KONSTRUKTIONSELEMENTE
100
AcDbSpline
 62
7
  6
CONTINUOUS
 70
0
 71
3
 72
11
 73
7
 74
0
 42
0.0000001
 43
0.0000001
 44
0.0000000001
 40
0.0
 40
0.0
 40
0.0
 40
0.0
 40
0.3345488636
 40
0.6081861897
 40
0.8237370673
 40
1.0
 40
1.0
 40
1.0
 40
1.0
 10
690.6955683996
 20
131.9718579185
 30
0.0
 10
691.0121428042
 20
132.1532968987
 30
0.0
 10
691.606980754
 20
132.4528319231
 30
0.0
 10
692.4706914507
 20
132.7184165557
 30
0.0
 10
693.2090180491
 20
132.7528057213
 30
0.0
 10
693.6226196466
 20
132.5749159545
 30
0.0
 10
693.7679487559
 20
132.4490686227
 30
0.0
  0
SPLINE
  5
5E3
100
AcDbEntity
  8
KONSTRUKTIONSELEMENTE
100
AcDbSpline
 62
7
  6
CONTINUOUS
 70
0
 71
3
 72
10
 73
6
 74
0
 42
0.0000001
 43
0.0000001
 44
0.0000000001
 40
0.0
 40
0.0
 40
0.0
 40
0.0
 40
0.211465274
 40
0.455099238
 40
1.0
 40
1.0
 40
1.0
 40
1.0
 10
629.8977899482
 20
118.8181731373
 30
0.0
 10
630.0301937834
 20
119.2412619303
 30
0.0
 10
630.3941188369
 20
120.1272666229
 30
0.0
 10
631.4056805828
 20
121.9660178201
 30
0.0
 10
632.399680871
 20
123.2999412886
 30
0.0
 10
633.1459637774
 20
124.1648224467
 30
0.0
  0
SPLINE
  5
5E4
100
AcDbEntity
  8
KONSTRUKTIONSELEMENTE
100
AcDbSpline
 62
7
  6
CONTINUOUS
 70
0
 71
3
 72
15
 73
11
 74
0
 42
0.0000001
 43
0.0000001
 44
0.0000000001
 40
0.0
 40
0.0
 40
0.0
 40
0.0
 40
0.1734175635
 40
0.3411812013
 40
0.4977777796
 40
0.638361735
 40
0.7591568897
 40
0.8581149583
 40
0.9362062349
 40
1.0
 40
1.0
 40
1.0
 40
1.0
 10
694.3461308005
 20
195.0908357158
 30
0.0
 10
694.6863483632
 20
195.4851201849
 30
0.0
 10
695.3825147052
 20
196.2381837776
 30
0.0
 10
696.473100084
 20
197.2623781905
 30
0.0
 10
697.5634038093
 20
198.137254828
 30
0.0
 10
698.6123116536
 20
198.8304706459
 30
0.0
 10
699.5819930742
 20
199.3187781679
 30
0.0
 10
700.4414802391
 20
199.5847163187
 30
0.0
 10
701.1765496419
 20
199.6223372676
 30
0.0
 10
701.5905560202
 20
199.4501882926
 30
0.0
 10
701.7371670606
 20
199.3268764767
 30
0.0
  0
SPLINE
  5
5E5
100
AcDbEntity
  8
KONSTRUKTIONSELEMENTE
100
AcDbSpline
 62
7
  6
CONTINUOUS
 70
0
 71
3
 72
9
 73
5
 74
0
 42
0.0000001
 43
0.0000001
 44
0.0000000001
 40
0.0
 40
0.0
 40
0.0
 40
0.0
 40
0.2612895939
 40
1.0
 40
1.0
 40
1.0
 40
1.0
 10
629.6538939285
 20
118.1615382844
 30
0.0
 10
629.677769125
 20
118.2176954043
 30
0.0
 10
629.7668079897
 20
118.4335923717
 30
0.0
 10
629.846265057
 20
118.6535283291
 30
0.0
 10
629.8977899482
 20
118.8181731373
 30
0.0
  0
SPLINE
  5
5E6
100
AcDbEntity
  8
KONSTRUKTIONSELEMENTE
100
AcDbSpline
 62
7
  6
CONTINUOUS
 70
0
 71
3
 72
9
 73
5
 74
0
 42
0.0000001
 43
0.0000001
 44
0.0000000001
 40
0.0
 40
0.0
 40
0.0
 40
0.0
 40
0.2933152047
 40
1.0
 40
1.0
 40
1.0
 40
1.0
 10
607.5921623555
 20
86.9706329957
 30
0.0
 10
607.5921623555
 20
86.9341963518
 30
0.0
 10
607.5990534837
 20
86.8111250851
 30
0.0
 10
607.6516710841
 20
86.68358443
 30
0.0
 10
607.7180323039
 20
86.6261151153
 30
0.0
  0
SPLINE
  5
5E7
100
AcDbEntity
  8
KONSTRUKTIONSELEMENTE
100
AcDbSpline
 62
7
  6
CONTINUOUS
 70
0
 71
3
 72
11
 73
7
 74
0
 42
0.0000001
 43
0.0000001
 44
0.0000000001
 40
0.0
 40
0.0
 40
0.0
 40
0.0
 40
0.2857886869
 40
0.5710293088
 40
0.8184092914
 40
1.0
 40
1.0
 40
1.0
 40
1.0
 10
609.2892186304
 20
97.7203268414
 30
0.0
 10
609.0570018278
 20
97.5192211912
 30
0.0
 10
608.6249158006
 20
97.0802437804
 30
0.0
 10
608.0928265604
 20
96.3748703259
 30
0.0
 10
607.7266994003
 20
95.7003257243
 30
0.0
 10
607.5921623555
 20
95.2458246547
 30
0.0
 10
607.5921623555
 20
95.0506329957
 30
0.0
  0
SPLINE
  5
5E8
100
AcDbEntity
  8
KONSTRUKTIONSELEMENTE
100
AcDbSpline
 62
7
  6
CONTINUOUS
 70
0
 71
3
 72
10
 73
6
 74
0
 42
0.0000001
 43
0.0000001
 44
0.0000000001
 40
0.0
 40
0.0
 40
0.0
 40
0.0
 40
0.228039625
 40
0.4815269147
 40
1.0
 40
1.0
 40
1.0
 40
1.0
 10
630.1388149646
 20
117.4876146632
 30
0.0
 10
629.9324795651
 20
117.0314555711
 30
0.0
 10
629.4212809317
 20
116.1018140768
 30
0.0
 10
628.1591037314
 20
114.303487008
 30
0.0
 10
626.9935781665
 20
113.0527519574
 30
0.0
 10
626.1331087893
 20
112.3075636175
 30
0.0
  0
SPLINE
  5
5E9
100
AcDbEntity
  8
KONSTRUKTIONSELEMENTE
100
AcDbSpline
 62
7
  6
CONTINUOUS
 70
0
 71
3
 72
13
 73
9
 74
0
 42
0.0000001
 43
0.0000001
 44
0.0000000001
 40
0.0
 40
0.0
 40
0.0
 40
0.0
 40
0.3411732759
 40
0.6381656729
 40
0.7590285837
 40
0.8580298777
 40
0.9361873915
 40
1.0
 40
1.0
 40
1.0
 40
1.0
 10
679.2853231655
 20
176.4911039542
 30
0.0
 10
679.4860084194
 20
176.7236818322
 30
0.0
 10
679.8905990939
 20
177.1340254252
 30
0.0
 10
680.4392257455
 20
177.5491926536
 30
0.0
 10
680.8560548997
 20
177.7594917291
 30
0.0
 10
681.1139335511
 20
177.8392888269
 30
0.0
 10
681.3344352551
 20
177.8504864496
 30
0.0
 10
681.4586624963
 20
177.798899832
 30
0.0
 10
681.5026340435
 20
177.7619161825
 30
0.0
  0
SPLINE
  5
5EA
100
AcDbEntity
  8
KONSTRUKTIONSELEMENTE
100
AcDbSpline
 62
7
  6
CONTINUOUS
 70
0
 71
3
 72
13
 73
9
 74
0
 42
0.0000001
 43
0.0000001
 44
0.0000000001
 40
0.0
 40
0.0
 40
0.0
 40
0.0
 40
0.0638126085
 40
0.1419701223
 40
0.2409714163
 40
0.3618343271
 40
0.6588267241
 40
1.0
 40
1.0
 40
1.0
 40
1.0
 10
683.6674184441
 20
175.9411563371
 30
0.0
 10
683.7113899913
 20
175.9041726876
 30
0.0
 10
683.8356172325
 20
175.8525860699
 30
0.0
 10
684.0561189365
 20
175.8637836926
 30
0.0
 10
684.313997588
 20
175.9435807905
 30
0.0
 10
684.7308267422
 20
176.153879866
 30
0.0
 10
685.2794533938
 20
176.5690470943
 30
0.0
 10
685.6840440683
 20
176.9793906874
 30
0.0
 10
685.8847293222
 20
177.2119685653
 30
0.0
  0
SPLINE
  5
5EB
100
AcDbEntity
  8
BEZUGSACHSEN
100
AcDbSpline
 62
7
  6
CONTINUOUS
 70
0
 71
3
 72
11
 73
7
 74
0
 42
0.0000001
 43
0.0000001
 44
0.0000000001
 40
0.0
 40
0.0
 40
0.0
 40
0.0
 40
0.3535738114
 40
0.5081078864
 40
0.644684834
 40
1.0
 40
1.0
 40
1.0
 40
1.0
 10
712.3853873274
 20
173.870299506
 30
0.0
 10
712.0263974232
 20
173.5594051293
 30
0.0
 10
711.4885504086
 20
173.1397100501
 30
0.0
 10
710.7369463609
 20
172.6922636526
 30
0.0
 10
709.9801236909
 20
172.3286676236
 30
0.0
 10
709.1452271785
 20
172.1504073954
 30
0.0
 10
708.784541864
 20
172.4629167629
 30
0.0
  0
SPLINE
  5
5EC
100
AcDbEntity
  8
KONSTRUKTIONSELEMENTE
100
AcDbSpline
 62
7
  6
CONTINUOUS
 70
0
 71
3
 72
9
 73
5
 74
0
 42
0.0000001
 43
0.0000001
 44
0.0000000001
 40
0.0
 40
0.0
 40
0.0
 40
0.0
 40
0.5487176208
 40
1.0
 40
1.0
 40
1.0
 40
1.0
 10
633.1894278345
 20
91.0056459882
 30
0.0
 10
633.1894278345
 20
90.8339148987
 30
0.0
 10
633.223371994
 20
90.5159107508
 30
0.0
 10
633.3974372002
 20
90.2367265647
 30
0.0
 10
633.5042048751
 20
90.1442682199
 30
0.0
  0
SPLINE
  5
5ED
100
AcDbEntity
  8
BEZUGSACHSEN
100
AcDbSpline
 62
7
  6
CONTINUOUS
 70
0
 71
3
 72
9
 73
5
 74
0
 42
0.0000001
 43
0.0000001
 44
0.0000000001
 40
0.0
 40
0.0
 40
0.0
 40
0.0
 40
0.4460938812
 40
1.0
 40
1.0
 40
1.0
 40
1.0
 10
715.9862327907
 20
180.777682249
 30
0.0
 10
716.0915269798
 20
180.686451974
 30
0.0
 10
716.2591469923
 20
180.4018893612
 30
0.0
 10
716.2795049541
 20
180.0833121925
 30
0.0
 10
716.2729352017
 20
179.9104470866
 30
0.0
  0
SPLINE
  5
5EE
100
AcDbEntity
  8
BEZUGSACHSEN
100
AcDbSpline
 62
7
  6
CONTINUOUS
 70
0
 71
3
 72
9
 73
5
 74
0
 42
0.0000001
 43
0.0000001
 44
0.0000000001
 40
0.0
 40
0.0
 40
0.0
 40
0.0
 40
0.2554587855
 40
1.0
 40
1.0
 40
1.0
 40
1.0
 10
713.5513746914
 20
175.0065714757
 30
0.0
 10
713.4575443981
 20
174.9044582844
 30
0.0
 10
713.0848370758
 20
174.5097604127
 30
0.0
 10
712.6909162874
 20
174.1348953469
 30
0.0
 10
712.3853873274
 20
173.870299506
 30
0.0
  0
SPLINE
  5
5EF
100
AcDbEntity
  8
KONSTRUKTIONSELEMENTE
100
AcDbSpline
 62
7
  6
CONTINUOUS
 70
0
 71
3
 72
9
 73
5
 74
0
 42
0.0000001
 43
0.0000001
 44
0.0000000001
 40
0.0
 40
0.0
 40
0.0
 40
0.0
 40
0.5486311305
 40
1.0
 40
1.0
 40
1.0
 40
1.0
 10
633.1894278345
 20
101.194586708
 30
0.0
 10
633.1894278345
 20
101.3777907517
 30
0.0
 10
633.1531448162
 20
101.7170742492
 30
0.0
 10
632.9674169962
 20
102.0149773939
 30
0.0
 10
632.853437617
 20
102.1136020504
 30
0.0
  0
SPLINE
  5
5F0
100
AcDbEntity
  8
KONSTRUKTIONSELEMENTE
100
AcDbSpline
 62
7
  6
CONTINUOUS
 70
0
 71
3
 72
11
 73
7
 74
0
 42
0.0000001
 43
0.0000001
 44
0.0000000001
 40
0.0
 40
0.0
 40
0.0
 40
0.0
 40
0.177146351
 40
0.3929380096
 40
0.6661844842
 40
1.0
 40
1.0
 40
1.0
 40
1.0
 10
693.7679487559
 20
132.4490686227
 30
0.0
 10
693.9112969868
 20
132.3249366268
 30
0.0
 10
694.1442698688
 20
131.9485223619
 30
0.0
 10
694.2201079472
 20
131.2263096622
 30
0.0
 10
694.0895611036
 20
130.3500039804
 30
0.0
 10
693.8864741027
 20
129.7299763634
 30
0.0
 10
693.7570358585
 20
129.3969146513
 30
0.0
  0
SPLINE
  5
5F1
100
AcDbEntity
  8
KONSTRUKTIONSELEMENTE
100
AcDbSpline
 62
7
  6
CONTINUOUS
 70
0
 71
3
 72
12
 73
8
 74
0
 42
0.0000001
 43
0.0000001
 44
0.0000000001
 40
0.0
 40
0.0
 40
0.0
 40
0.0
 40
0.2855672817
 40
0.5706138983
 40
0.8178266478
 40
0.9180835819
 40
1.0
 40
1.0
 40
1.0
 40
1.0
 10
628.6639444349
 20
107.7554031196
 30
0.0
 10
629.2831586528
 20
108.2916583627
 30
0.0
 10
630.4364081292
 20
109.4631416479
 30
0.0
 10
631.8509767119
 20
111.3403493597
 30
0.0
 10
632.72754102
 20
112.9444691555
 30
0.0
 10
633.1119931521
 20
114.1175653751
 30
0.0
 10
633.1894278345
 20
114.6396112793
 30
0.0
 10
633.1894278345
 20
114.874586708
 30
0.0
  0
SPLINE
  5
5F2
100
AcDbEntity
  8
KONSTRUKTIONSELEMENTE
100
AcDbSpline
 62
7
  6
CONTINUOUS
 70
0
 71
3
 72
13
 73
9
 74
0
 42
0.0000001
 43
0.0000001
 44
0.0000000001
 40
0.0
 40
0.0
 40
0.0
 40
0.0
 40
0.0638126085
 40
0.1419701223
 40
0.2409714163
 40
0.3618343271
 40
0.6588267241
 40
1.0
 40
1.0
 40
1.0
 40
1.0
 10
684.5467661813
 20
170.9464718646
 30
0.0
 10
684.5907377285
 20
170.9094882151
 30
0.0
 10
684.7149649697
 20
170.8579015974
 30
0.0
 10
684.9354666737
 20
170.8690992201
 30
0.0
 10
685.1933453252
 20
170.948896318
 30
0.0
 10
685.6101744793
 20
171.1591953935
 30
0.0
 10
686.158801131
 20
171.5743626218
 30
0.0
 10
686.5633918055
 20
171.9847062149
 30
0.0
 10
686.7640770593
 20
172.2172840929
 30
0.0
  0
SPLINE
  5
5F3
100
AcDbEntity
  8
KONSTRUKTIONSELEMENTE
100
AcDbSpline
 62
7
  6
CONTINUOUS
 70
0
 71
3
 72
10
 73
6
 74
0
 42
0.0000001
 43
0.0000001
 44
0.0000000001
 40
0.0
 40
0.0
 40
0.0
 40
0.0
 40
0.544900762
 40
0.788534726
 40
1.0
 40
1.0
 40
1.0
 40
1.0
 10
636.6814976834
 20
121.1029602682
 30
0.0
 10
635.9352147769
 20
120.2380791102
 30
0.0
 10
634.9412144887
 20
118.9041556416
 30
0.0
 10
633.9296527428
 20
117.0654044444
 30
0.0
 10
633.5657276893
 20
116.1793997518
 30
0.0
 10
633.4333238541
 20
115.7563109588
 30
0.0
  0
SPLINE
  5
5F4
100
AcDbEntity
  8
KONSTRUKTIONSELEMENTE
100
AcDbSpline
 62
7
  6
CONTINUOUS
 70
0
 71
3
 72
15
 73
11
 74
0
 42
0.0000001
 43
0.0000001
 44
0.0000000001
 40
0.0
 40
0.0
 40
0.0
 40
0.0
 40
0.063793146
 40
0.1418832067
 40
0.2408400792
 40
0.3616382765
 40
0.5022263169
 40
0.6588223202
 40
0.826583973
 40
1.0
 40
1.0
 40
1.0
 40
1.0
 10
705.2727009665
 20
196.2650142983
 30
0.0
 10
705.1260913448
 20
196.3883249208
 30
0.0
 10
704.71209137
 20
196.5604735363
 30
0.0
 10
703.9770310096
 20
196.5228561747
 30
0.0
 10
703.1175403918
 20
196.2569228656
 30
0.0
 10
702.1478423047
 20
195.7686077829
 30
0.0
 10
701.0989189528
 20
195.0753795725
 30
0.0
 10
700.008613736
 20
194.2004974498
 30
0.0
 10
698.9180379674
 20
193.1763107998
 30
0.0
 10
698.2218792643
 20
192.4232545241
 30
0.0
 10
697.8816647064
 20
192.0289735373
 30
0.0
  0
SPLINE
  5
5F5
100
AcDbEntity
  8
KONSTRUKTIONSELEMENTE
100
AcDbSpline
 62
7
  6
CONTINUOUS
 70
0
 71
3
 72
9
 73
5
 74
0
 42
0.0000001
 43
0.0000001
 44
0.0000000001
 40
0.0
 40
0.0
 40
0.0
 40
0.0
 40
0.3430740591
 40
1.0
 40
1.0
 40
1.0
 40
1.0
 10
691.1322347728
 20
122.6429544985
 30
0.0
 10
691.1192908991
 20
122.6096482003
 30
0.0
 10
691.0873142066
 20
122.5158977763
 30
0.0
 10
691.0794189236
 20
122.3825297982
 30
0.0
 10
691.1311435061
 20
122.3377390811
 30
0.0
  0
SPLINE
  5
5F6
100
AcDbEntity
  8
KONSTRUKTIONSELEMENTE
100
AcDbSpline
 62
7
  6
CONTINUOUS
 70
0
 71
3
 72
9
 73
5
 74
0
 42
0.0000001
 43
0.0000001
 44
0.0000000001
 40
0.0
 40
0.0
 40
0.0
 40
0.0
 40
0.238545165
 40
1.0
 40
1.0
 40
1.0
 40
1.0
 10
633.4333238541
 20
115.7563109588
 30
0.0
 10
633.4166851512
 20
115.7031429466
 30
0.0
 10
633.3437661625
 20
115.4812531293
 30
0.0
 10
633.2590063199
 20
115.2633324492
 30
0.0
 10
633.1894278345
 20
115.0996761059
 30
0.0
  0
SPLINE
  5
5F7
100
AcDbEntity
  8
KONSTRUKTIONSELEMENTE
100
AcDbSpline
 62
7
  6
CONTINUOUS
 70
0
 71
3
 72
11
 73
7
 74
0
 42
0.0000001
 43
0.0000001
 44
0.0000000001
 40
0.0
 40
0.0
 40
0.0
 40
0.0
 40
0.3303452579
 40
0.6216369567
 40
0.8495560534
 40
1.0
 40
1.0
 40
1.0
 40
1.0
 10
692.7721786332
 20
184.8991615481
 30
0.0
 10
693.0039830085
 20
185.0225016059
 30
0.0
 10
693.4295908982
 20
185.2738437463
 30
0.0
 10
693.9722273404
 20
185.684021501
 30
0.0
 10
694.3410831942
 20
186.060334014
 30
0.0
 10
694.4891751773
 20
186.3492544773
 30
0.0
 10
694.4843659434
 20
186.4687384878
 30
0.0
  0
SPLINE
  5
5F8
100
AcDbEntity
  8
KONSTRUKTIONSELEMENTE
100
AcDbSpline
 62
7
  6
CONTINUOUS
 70
0
 71
3
 72
12
 73
8
 74
0
 42
0.0000001
 43
0.0000001
 44
0.0000000001
 40
0.0
 40
0.0
 40
0.0
 40
0.0
 40
0.3172902138
 40
0.6128133829
 40
0.849013026
 40
0.935325608
 40
1.0
 40
1.0
 40
1.0
 40
1.0
 10
694.8851728647
 20
183.0692548656
 30
0.0
 10
694.9940423544
 20
183.3745926892
 30
0.0
 10
695.1714232018
 20
183.9772243681
 30
0.0
 10
695.3174300751
 20
184.8325237408
 30
0.0
 10
695.3304434115
 20
185.4720078441
 30
0.0
 10
695.2369351055
 20
185.8580390264
 30
0.0
 10
695.1539350429
 20
185.9951670383
 30
0.0
 10
695.1040032627
 20
186.0384434689
 30
0.0
  0
SPLINE
  5
5F9
100
AcDbEntity
  8
KONSTRUKTIONSELEMENTE
100
AcDbSpline
 62
7
  6
CONTINUOUS
 70
0
 71
3
 72
13
 73
9
 74
0
 42
0.0000001
 43
0.0000001
 44
0.0000000001
 40
0.0
 40
0.0
 40
0.0
 40
0.0
 40
0.3411732759
 40
0.6381656729
 40
0.7590285837
 40
0.8580298777
 40
0.9361873915
 40
1.0
 40
1.0
 40
1.0
 40
1.0
 10
681.6894862216
 20
174.4090376728
 30
0.0
 10
681.8901714754
 20
174.6416155508
 30
0.0
 10
682.2947621499
 20
175.0519591439
 30
0.0
 10
682.8433888015
 20
175.4671263722
 30
0.0
 10
683.2602179557
 20
175.6774254477
 30
0.0
 10
683.5180966072
 20
175.7572225456
 30
0.0
 10
683.7385983112
 20
175.7684201683
 30
0.0
 10
683.8628255524
 20
175.7168335506
 30
0.0
 10
683.9067970996
 20
175.6798499011
 30
0.0
  0
SPLINE
  5
5FA
100
AcDbEntity
  8
KONSTRUKTIONSELEMENTE
100
AcDbSpline
 62
7
  6
CONTINUOUS
 70
0
 71
3
 72
13
 73
9
 74
0
 42
0.0000001
 43
0.0000001
 44
0.0000000001
 40
0.0
 40
0.0
 40
0.0
 40
0.0
 40
0.0638126085
 40
0.1419701223
 40
0.2409714163
 40
0.3618343271
 40
0.6588267241
 40
1.0
 40
1.0
 40
1.0
 40
1.0
 10
686.0715815002
 20
173.8590900557
 30
0.0
 10
686.1155530474
 20
173.8221064062
 30
0.0
 10
686.2397802886
 20
173.7705197885
 30
0.0
 10
686.4602819926
 20
173.7817174112
 30
0.0
 10
686.718160644
 20
173.8615145091
 30
0.0
 10
687.1349897982
 20
174.0718135846
 30
0.0
 10
687.6836164498
 20
174.486980813
 30
0.0
 10
688.0882071244
 20
174.897324406
 30
0.0
 10
688.2888923782
 20
175.129902284
 30
0.0
  0
SPLINE
  5
5FB
100
AcDbEntity
  8
KONSTRUKTIONSELEMENTE
100
AcDbSpline
 62
7
  6
CONTINUOUS
 70
0
 71
3
 72
13
 73
9
 74
0
 42
0.0000001
 43
0.0000001
 44
0.0000000001
 40
0.0
 40
0.0
 40
0.0
 40
0.0
 40
0.0637867596
 40
0.1419631615
 40
0.2409671538
 40
0.3618520483
 40
0.658806967
 40
1.0
 40
1.0
 40
1.0
 40
1.0
 10
683.9810807564
 20
171.4363698132
 30
0.0
 10
684.0250339588
 20
171.3994015931
 30
0.0
 10
684.1492944738
 20
171.347940463
 30
0.0
 10
684.3697686349
 20
171.3589273621
 30
0.0
 10
684.6277023136
 20
171.4387832917
 30
0.0
 10
685.0444310113
 20
171.649204045
 30
0.0
 10
685.5931611727
 20
172.0642126886
 30
0.0
 10
685.9976971924
 20
172.4745935151
 30
0.0
 10
686.1983916344
 20
172.7071820414
 30
0.0
  0
SPLINE
  5
5FC
100
AcDbEntity
  8
KONSTRUKTIONSELEMENTE
100
AcDbSpline
 62
7
  6
CONTINUOUS
 70
0
 71
3
 72
11
 73
7
 74
0
 42
0.0000001
 43
0.0000001
 44
0.0000000001
 40
0.0
 40
0.0
 40
0.0
 40
0.0
 40
0.2857886869
 40
0.5710293088
 40
0.8184092914
 40
1.0
 40
1.0
 40
1.0
 40
1.0
 10
611.6933816864
 20
95.63826056
 30
0.0
 10
611.4611648839
 20
95.4371549098
 30
0.0
 10
611.0290788567
 20
94.9981774991
 30
0.0
 10
610.4969896164
 20
94.2928040445
 30
0.0
 10
610.1308624563
 20
93.6182594429
 30
0.0
 10
609.9963254115
 20
93.1637583733
 30
0.0
 10
609.9963254115
 20
92.9685667143
 30
0.0
  0
SPLINE
  5
5FD
100
AcDbEntity
  8
KONSTRUKTIONSELEMENTE
100
AcDbSpline
 62
7
  6
CONTINUOUS
 70
0
 71
3
 72
10
 73
6
 74
0
 42
0.0000001
 43
0.0000001
 44
0.0000000001
 40
0.0
 40
0.0
 40
0.0
 40
0.0
 40
0.2250413928
 40
0.478308622
 40
1.0
 40
1.0
 40
1.0
 40
1.0
 10
632.6237424095
 20
115.5895740544
 30
0.0
 10
632.424560749
 20
115.1210766161
 30
0.0
 10
631.9153957409
 20
114.1613233996
 30
0.0
 10
630.6313902114
 20
112.2967534988
 30
0.0
 10
629.4293828175
 20
110.9980881011
 30
0.0
 10
628.5372718453
 20
110.2254973362
 30
0.0
  0
SPLINE
  5
5FE
100
AcDbEntity
  8
KONSTRUKTIONSELEMENTE
100
AcDbSpline
 62
7
  6
CONTINUOUS
 70
0
 71
3
 72
12
 73
8
 74
0
 42
0.0000001
 43
0.0000001
 44
0.0000000001
 40
0.0
 40
0.0
 40
0.0
 40
0.0
 40
0.285581653
 40
0.5706156379
 40
0.817816411
 40
0.9180971044
 40
1.0
 40
1.0
 40
1.0
 40
1.0
 10
628.0982590099
 20
108.2453010681
 30
0.0
 10
628.7175038167
 20
108.7815828019
 30
0.0
 10
629.8707505352
 20
109.9530786573
 30
0.0
 10
631.2852866767
 20
111.8302551991
 30
0.0
 10
632.1619177607
 20
113.4343582145
 30
0.0
 10
632.5462231694
 20
114.6074868273
 30
0.0
 10
632.6237424095
 20
115.1295482346
 30
0.0
 10
632.6237424095
 20
115.3644846566
 30
0.0
  0
SPLINE
  5
5FF
100
AcDbEntity
  8
KONSTRUKTIONSELEMENTE
100
AcDbSpline
 62
7
  6
CONTINUOUS
 70
0
 71
3
 72
9
 73
5
 74
0
 42
0.0000001
 43
0.0000001
 44
0.0000000001
 40
0.0
 40
0.0
 40
0.0
 40
0.0
 40
0.2763905897
 40
1.0
 40
1.0
 40
1.0
 40
1.0
 10
632.6237424095
 20
101.6844846566
 30
0.0
 10
632.6237424095
 20
101.7425311124
 30
0.0
 10
632.6156646168
 20
101.9520964385
 30
0.0
 10
632.5712875619
 20
102.1629531059
 30
0.0
 10
632.5087821366
 20
102.3014732303
 30
0.0
  0
SPLINE
  5
600
100
AcDbEntity
  8
KONSTRUKTIONSELEMENTE
100
AcDbSpline
 62
7
  6
CONTINUOUS
 70
0
 71
3
 72
9
 73
5
 74
0
 42
0.0000001
 43
0.0000001
 44
0.0000000001
 40
0.0
 40
0.0
 40
0.0
 40
0.0
 40
0.5486311305
 40
1.0
 40
1.0
 40
1.0
 40
1.0
 10
632.6237424095
 20
100.0844846566
 30
0.0
 10
632.6237424095
 20
100.2676887002
 30
0.0
 10
632.5874593913
 20
100.6069721977
 30
0.0
 10
632.4017315712
 20
100.9048753425
 30
0.0
 10
632.287752192
 20
101.0034999989
 30
0.0
  0
SPLINE
  5
601
100
AcDbEntity
  8
KONSTRUKTIONSELEMENTE
100
AcDbSpline
 62
7
  6
CONTINUOUS
 70
0
 71
3
 72
9
 73
5
 74
0
 42
0.0000001
 43
0.0000001
 44
0.0000000001
 40
0.0
 40
0.0
 40
0.0
 40
0.0
 40
0.2933152047
 40
1.0
 40
1.0
 40
1.0
 40
1.0
 10
609.9963254115
 20
84.8885667143
 30
0.0
 10
609.9963254115
 20
84.8521300705
 30
0.0
 10
610.0032165397
 20
84.7290588038
 30
0.0
 10
610.0558341402
 20
84.6015181486
 30
0.0
 10
610.12219536
 20
84.5440488339
 30
0.0
  0
SPLINE
  5
602
100
AcDbEntity
  8
0
100
AcDbSpline
 62
7
  6
CONTINUOUS
 70
0
 71
3
 72
13
 73
9
 74
0
 42
0.0000001
 43
0.0000001
 44
0.0000000001
 40
0.0
 40
0.0
 40
0.0
 40
0.0
 40
0.1126153331
 40
0.2268291026
 40
0.344069108
 40
0.4654463173
 40
0.722570084
 40
1.0
 40
1.0
 40
1.0
 40
1.0
 10
799.3864333479
 20
348.1250086009
 30
0.0
 10
799.3864333479
 20
349.1593967034
 30
0.0
 10
799.5403564771
 20
351.2460439696
 30
0.0
 10
800.2328432774
 20
354.3403635856
 30
0.0
 10
801.3908558553
 20
357.3792907879
 30
0.0
 10
803.596218532
 20
361.3779530331
 30
0.0
 10
807.5737318691
 20
366.0001750269
 30
0.0
 10
811.641612415
 20
368.844337846
 30
0.0
 10
813.8793549125
 20
370.0633556057
 30
0.0
  0
SPLINE
  5
603
100
AcDbEntity
  8
0
100
AcDbSpline
 62
7
  6
CONTINUOUS
 70
0
 71
3
 72
13
 73
9
 74
0
 42
0.0000001
 43
0.0000001
 44
0.0000000001
 40
0.0
 40
0.0
 40
0.0
 40
0.0
 40
0.2774314803
 40
0.5345560473
 40
0.6559331687
 40
0.7731726585
 40
0.8873857386
 40
1.0
 40
1.0
 40
1.0
 40
1.0
 10
849.8927542111
 20
370.0637655035
 30
0.0
 10
852.130612249
 20
368.8447640779
 30
0.0
 10
856.1987026907
 20
366.0005880524
 30
0.0
 10
860.1764356903
 20
361.3782725897
 30
0.0
 10
862.381913586
 20
357.3795087867
 30
0.0
 10
863.5399848548
 20
354.3405078773
 30
0.0
 10
864.2325027803
 20
351.2461150686
 30
0.0
 10
864.3864333479
 20
349.1594190417
 30
0.0
 10
864.3864333479
 20
348.1250086009
 30
0.0
  0
SPLINE
  5
604
100
AcDbEntity
  8
0
100
AcDbSpline
 62
7
  6
CONTINUOUS
 70
0
 71
3
 72
15
 73
11
 74
0
 42
0.0000001
 43
0.0000001
 44
0.0000000001
 40
0.0
 40
0.0
 40
0.0
 40
0.0
 40
0.1212955155
 40
0.2430379719
 40
0.3656476867
 40
0.4894808021
 40
0.6147928919
 40
0.7417050636
 40
0.8701758608
 40
1.0
 40
1.0
 40
1.0
 40
1.0
 10
773.3864333479
 20
348.1250086009
 30
0.0
 10
773.3864333479
 20
350.909640235
 30
0.0
 10
773.8843152774
 20
356.5016732674
 30
0.0
 10
776.0977695963
 20
364.6413612636
 30
0.0
 10
779.7049462275
 20
372.3316961821
 30
0.0
 10
784.5932699209
 20
379.3748170631
 30
0.0
 10
790.6206706008
 20
385.6064274195
 30
0.0
 10
797.6254293961
 20
390.8902842357
 30
0.0
 10
805.4281504244
 20
395.1169331372
 30
0.0
 10
811.0178116952
 20
397.1666096406
 30
0.0
 10
813.881154161
 20
397.9937818288
 30
0.0
  0
SPLINE
  5
605
100
AcDbEntity
  8
0
100
AcDbSpline
 62
7
  6
CONTINUOUS
 70
0
 71
3
 72
15
 73
11
 74
0
 42
0.0000001
 43
0.0000001
 44
0.0000000001
 40
0.0
 40
0.0
 40
0.0
 40
0.0
 40
0.1298242703
 40
0.2582949415
 40
0.3852069249
 40
0.5105188913
 40
0.6343514893
 40
0.7569610733
 40
0.8787038844
 40
1.0
 40
1.0
 40
1.0
 40
1.0
 10
849.8898099441
 20
397.9943354093
 30
0.0
 10
852.7532646338
 20
397.1672327683
 30
0.0
 10
858.3431411043
 20
395.1176434861
 30
0.0
 10
866.146203835
 20
390.8910988725
 30
0.0
 10
873.1512740594
 20
385.6072501069
 30
0.0
 10
879.1789674417
 20
379.3756024428
 30
0.0
 10
884.0675434425
 20
372.3323763482
 30
0.0
 10
887.6749227974
 20
364.6418728095
 30
0.0
 10
889.8885189036
 20
356.5019503185
 30
0.0
 10
890.3864333479
 20
350.9097339003
 30
0.0
 10
890.3864333479
 20
348.1250086009
 30
0.0
  0
SPLINE
  5
606
100
AcDbEntity
  8
0
100
AcDbSpline
 62
7
  6
CONTINUOUS
 70
0
 71
3
 72
16
 73
12
 74
0
 42
0.0000001
 43
0.0000001
 44
0.0000000001
 40
0.0
 40
0.0
 40
0.0
 40
0.0
 40
0.1208128183
 40
0.2421587382
 40
0.3645306784
 40
0.4883285272
 40
0.6138075954
 40
0.7410315824
 40
0.8053095842
 40
0.8699486592
 40
1.0
 40
1.0
 40
1.0
 40
1.0
 10
890.3864333479
 20
283.173103317
 30
0.0
 10
890.3864333479
 20
280.1252407154
 30
0.0
 10
889.7889753868
 20
273.9996978259
 30
0.0
 10
887.1392546238
 20
265.1374300298
 30
0.0
 10
882.8403989953
 20
256.8616570205
 30
0.0
 10
877.0509278165
 20
249.4232460627
 30
0.0
 10
869.9689874075
 20
243.0253777842
 30
0.0
 10
863.1921696986
 20
238.7076890206
 30
0.0
 10
857.3598195681
 20
235.9118270033
 30
0.0
 10
851.2593674885
 20
233.559554197
 30
0.0
 10
846.476641458
 20
232.3338658632
 30
0.0
 10
843.2457712935
 20
231.762909234
 30
0.0
  0
SPLINE
  5
607
100
AcDbEntity
  8
0
100
AcDbSpline
 62
7
  6
CONTINUOUS
 70
0
 71
3
 72
11
 73
7
 74
0
 42
0.0000001
 43
0.0000001
 44
0.0000000001
 40
0.0
 40
0.0
 40
0.0
 40
0.0
 40
0.2541396081
 40
0.50591276
 40
0.754634322
 40
1.0
 40
1.0
 40
1.0
 40
1.0
 10
820.5306401286
 20
231.7622839224
 30
0.0
 10
817.346583779
 20
232.3247659515
 30
0.0
 10
811.0814098332
 20
233.9222469352
 30
0.0
 10
802.2153499851
 20
237.7034073297
 30
0.0
 10
794.1482645057
 20
242.7749997078
 30
0.0
 10
789.4210533478
 20
246.9717583648
 30
0.0
 10
787.2740265177
 20
249.2379152769
 30
0.0
  0
SPLINE
  5
608
100
AcDbEntity
  8
0
100
AcDbSpline
 62
7
  6
CONTINUOUS
 70
0
 71
3
 72
11
 73
7
 74
0
 42
0.0000001
 43
0.0000001
 44
0.0000000001
 40
0.0
 40
0.0
 40
0.0
 40
0.0
 40
0.252463789
 40
0.5028553177
 40
0.7517979874
 40
1.0
 40
1.0
 40
1.0
 40
1.0
 10
782.6684911111
 20
254.8098779237
 30
0.0
 10
781.182487736
 20
256.8822465626
 30
0.0
 10
778.5225288327
 20
261.2356728565
 30
0.0
 10
775.5848899441
 20
268.270138549
 30
0.0
 10
773.7893060609
 20
275.635439752
 30
0.0
 10
773.3864333479
 20
280.6660686734
 30
0.0
 10
773.3864333479
 20
283.173103317
 30
0.0
  0
SPLINE
  5
609
100
AcDbEntity
  8
0
100
AcDbSpline
 62
7
  6
CONTINUOUS
 70
0
 71
3
 72
14
 73
10
 74
0
 42
0.0000001
 43
0.0000001
 44
0.0000000001
 40
0.0
 40
0.0
 40
0.0
 40
0.0
 40
0.1086677764
 40
0.2197472256
 40
0.3352805906
 40
0.4565824674
 40
0.5841997824
 40
0.7179724441
 40
1.0
 40
1.0
 40
1.0
 40
1.0
 10
864.3864333479
 20
283.173103317
 30
0.0
 10
864.3864333479
 20
281.8630412429
 30
0.0
 10
864.1377968151
 20
279.2074268632
 30
0.0
 10
863.0199074095
 20
275.3007557672
 30
0.0
 10
861.1537302529
 20
271.5197705395
 30
0.0
 10
858.5491873628
 20
267.9558285693
 30
0.0
 10
855.2393713044
 20
264.7118806421
 30
0.0
 10
849.8906389657
 20
260.8959561798
 30
0.0
 10
845.1764314956
 20
258.937953748
 30
0.0
 10
841.8903219667
 20
258.0652096721
 30
0.0
  0
SPLINE
  5
60A
100
AcDbEntity
  8
0
100
AcDbSpline
 62
7
  6
CONTINUOUS
 70
0
 71
3
 72
9
 73
5
 74
0
 42
0.0000001
 43
0.0000001
 44
0.0000000001
 40
0.0
 40
0.0
 40
0.0
 40
0.0
 40
0.5156635548
 40
1.0
 40
1.0
 40
1.0
 40
1.0
 10
821.8832500844
 20
258.0650194457
 30
0.0
 10
819.0844280362
 20
258.8082932445
 30
0.0
 10
813.799901427
 20
260.8781984902
 30
0.0
 10
809.1746827657
 20
264.1883167391
 30
0.0
 10
807.2037208521
 20
266.0626751974
 30
0.0
  0
SPLINE
  5
60B
100
AcDbEntity
  8
0
100
AcDbSpline
 62
7
  6
CONTINUOUS
 70
0
 71
3
 72
9
 73
5
 74
0
 42
0.0000001
 43
0.0000001
 44
0.0000000001
 40
0.0
 40
0.0
 40
0.0
 40
0.0
 40
0.5110275887
 40
1.0
 40
1.0
 40
1.0
 40
1.0
 10
802.5038336197
 20
271.9553801029
 30
0.0
 10
801.4956295909
 20
273.6836722334
 30
0.0
 10
799.9282097582
 20
277.3259310857
 30
0.0
 10
799.3864333479
 20
281.2585906367
 30
0.0
 10
799.3864333479
 20
283.173103317
 30
0.0
  0
ELLIPSE
  5
60C
100
AcDbEntity
  8
KONSTRUKTIONSELEMENTE
100
AcDbEllipse
 62
7
  6
CONTINUOUS
 10
105.6786972002
 20
188.2093963062
 30
0.0
 11
2.4038349372
 21
-0.6359915542
 31
0.0
 40
0.0501436764
 41
-2.5950501555
 42
-1.191701908
  0
ELLIPSE
  5
60D
100
AcDbEntity
  8
KONSTRUKTIONSELEMENTE
100
AcDbEllipse
 62
7
  6
CONTINUOUS
 10
113.3214445832
 20
183.7610625361
 30
0.0
 11
-1.2408929864
 21
2.4502885391
 31
0.0
 40
0.7635480741
 41
4.1339676405
 42
5.7047639673
  0
ELLIPSE
  5
60E
100
AcDbEntity
  8
0
100
AcDbEllipse
 62
7
  6
CONTINUOUS
 10
519.6798530175
 20
116.18703846
 30
0.0
 11
-48.4974226119
 21
84.0
 31
0.0
 40
0.5773502692
 41
-0.3754229971
 42
-0.1577968958
  0
ELLIPSE
  5
60F
100
AcDbEntity
  8
0
100
AcDbEllipse
 62
7
  6
CONTINUOUS
 10
519.6798530175
 20
116.18703846
 30
0.0
 11
-48.4974226119
 21
84.0
 31
0.0
 40
0.5773502692
 41
0.1577968958
 42
0.3754229971
  0
ELLIPSE
  5
610
100
AcDbEntity
  8
KONSTRUKTIONSELEMENTE
100
AcDbEllipse
 62
7
  6
CONTINUOUS
 10
124.3609540253
 20
116.18703846
 30
0.0
 11
48.4974226119
 21
84.0
 31
0.0
 40
0.5773502692
 41
-0.3754229971
 42
-0.1577968958
  0
ELLIPSE
  5
611
100
AcDbEntity
  8
KONSTRUKTIONSELEMENTE
100
AcDbEllipse
 62
7
  6
CONTINUOUS
 10
124.3609540253
 20
116.18703846
 30
0.0
 11
48.4974226119
 21
84.0
 31
0.0
 40
0.5773502692
 41
0.1577968958
 42
0.3754229971
  0
ELLIPSE
  5
612
100
AcDbEntity
  8
KONSTRUKTIONSELEMENTE
100
AcDbEllipse
 62
7
  6
CONTINUOUS
 10
905.1464333479
 20
116.18703846
 30
0.0
 11
-54.5019434102
 21
88.1859968906
 31
0.0
 40
0.1458980338
 41
0.5856606993
 42
0.6072468016
  0
ELLIPSE
  5
613
100
AcDbEntity
  8
0
100
AcDbEllipse
 62
7
  6
CONTINUOUS
 10
758.6264333479
 20
116.18703846
 30
0.0
 11
54.5019434102
 21
88.1859968906
 31
0.0
 40
0.1458980338
 41
-0.6072468016
 42
-0.5856606993
  0
ELLIPSE
  5
614
100
AcDbEntity
  8
RUNDUNGEN
100
AcDbEllipse
 62
7
  6
CONTINUOUS
 10
827.5350959154
 20
219.9477020212
 30
0.0
 11
8.2036037258
 21
-6.516670099
 31
0.0
 40
0.9544778986
 41
0.6487319875
 42
0.7394683236
  0
ELLIPSE
  5
615
100
AcDbEntity
  8
0
100
AcDbEllipse
 62
7
  6
CONTINUOUS
 10
836.2377707804
 20
219.9477020212
 30
0.0
 11
-8.2036037258
 21
-6.516670099
 31
0.0
 40
0.9544778986
 41
-0.7394683236
 42
-0.6487319875
  0
ELLIPSE
  5
616
100
AcDbEntity
  8
0
100
AcDbEllipse
 62
7
  6
CONTINUOUS
 10
822.8542260911
 20
220.5411400752
 30
0.0
 11
0.8455842962
 21
-5.9853056021
 31
0.0
 40
0.4962991648
 41
0.4535978239
 42
1.2934712985
  0
ELLIPSE
  5
617
100
AcDbEntity
  8
RUNDUNGEN
100
AcDbEllipse
 62
7
  6
CONTINUOUS
 10
840.9186406047
 20
220.5411400752
 30
0.0
 11
0.8455842962
 21
5.9853056021
 31
0.0
 40
0.4962991648
 41
-4.4350639521
 42
-3.5951904775
  0
ELLIPSE
  5
618
100
AcDbEntity
  8
KONSTRUKTIONSELEMENTE
100
AcDbEllipse
 62
7
  6
CONTINUOUS
 10
692.0995974784
 20
191.7611564333
 30
0.0
 11
-0.2422125455
 21
3.33151288
 31
0.0
 40
0.1849816022
 41
1.560109889
 42
2.9583930575
  0
ELLIPSE
  5
619
100
AcDbEntity
  8
KONSTRUKTIONSELEMENTE
100
AcDbEllipse
 62
7
  6
CONTINUOUS
 10
692.0686011205
 20
186.8229247146
 30
0.0
 11
2.2194852253
 21
2.5678289224
 31
0.0
 40
0.2500030374
 41
-1.5674289045
 42
-1.156926606
  0
ELLIPSE
  5
61A
100
AcDbEntity
  8
KONSTRUKTIONSELEMENTE
100
AcDbEllipse
 62
7
  6
CONTINUOUS
 10
696.2008168093
 20
188.2093963062
 30
0.0
 11
3.328609446
 21
0.2420014558
 31
0.0
 40
0.1803680139
 41
1.921481318
 42
3.3197644865
  0
ELLIPSE
  5
61B
100
AcDbEntity
  8
KONSTRUKTIONSELEMENTE
100
AcDbEllipse
 62
7
  6
CONTINUOUS
 10
695.6041350264
 20
183.7610625361
 30
0.0
 11
2.2194852253
 21
2.5678289224
 31
0.0
 40
0.2500030374
 41
-1.5674289045
 42
0.0033674223
  0
ENDSEC
  0
SECTION
  2
OBJECTS
  0
DICTIONARY
  5
C
100
AcDbDictionary
280
0
281
1
  3
ACAD_GROUP
350
D
  3
ACAD_MLINESTYLE
350
17
  3
ACAD_LAYOUT
350
1A
  3
ACAD_PLOTSETTINGS
350
19
  3
ACAD_PLOTSTYLENAME
350
E
  0
DICTIONARY
  5
D
102
{ACAD_REACTORS
330
C
102
}
100
AcDbDictionary
280
0
281
1
  0
ACDBDICTIONARYWDFLT
  5
E
102
{ACAD_REACTORS
330
C
102
}
100
AcDbDictionary
281
1
  3
Normal
350
F
100
AcDbDictionaryWithDefault
340
F
  0
DICTIONARY
  5
17
102
{ACAD_REACTORS
330
C
102
}
100
AcDbDictionary
280
0
281
1
  3
Standard
350
18
  0
DICTIONARY
  5
19
102
{ACAD_REACTORS
330
C
102
}
100
AcDbDictionary
281
1
  0
DICTIONARY
  5
1A
102
{ACAD_REACTORS
330
C
102
}
100
AcDbDictionary
281
1
  3
Model
350
61C
  3
Layout1
350
61D
  0
ACDBPLACEHOLDER
  5
F
102
{ACAD_REACTORS
330
E
102
}
  0
MLINESTYLE
  5
18
102
{ACAD_REACTORS
330
17
102
}
100
AcDbMlineStyle
  2
STANDARD
 70
0
  3

 62
256
 51
90.0
 52
90.0
 71
2
 49
0.5
 62
256
  6
BYLAYER
 49
-0.5
 62
256
  6
BYLAYER
  0
LAYOUT
  5
61C
102
{ACAD_REACTORS
330
1A
102
}
100
AcDbPlotSettings
  1

  2
none_device
  4
ISO_A0_(1189.00_x_841.00_MM)
  6

 40
0.0
 41
0.0
 42
0.0
 43
0.0
 44
1189.0
 45
841.0
 46
0.0
 47
0.0
 48
0.0
 49
0.0
140
0.0
141
0.0
142
1.0
143
1.0
 70
1024
 72
1
 73
0
 74
0
  7

 75
0
147
1.0
148
0.0
149
0.0
100
AcDbLayout
  1
Model
 70
0
 71
0
 10
0.0
 20
0.0
 11
1189.0
 21
841.0
 12
0.0
 22
0.0
 32
0.0
 14
0.0
 24
0.0
 34
0.0
 15
0.0
 25
0.0
 35
0.0
146
0.0
 13
0.0
 23
0.0
 33
0.0
 16
1.0
 26
0.0
 36
0.0
 17
0.0
 27
1.0
 37
0.0
 76
0
330
20D
345
0
346
0
  0
LAYOUT
  5
61D
102
{ACAD_REACTORS
330
1A
102
}
100
AcDbPlotSettings
  1

  2
none_device
  4
ISO_A0_(1189.00_x_841.00_MM)
  6

 40
0.0
 41
0.0
 42
0.0
 43
0.0
 44
1189.0
 45
841.0
 46
0.0
 47
0.0
 48
0.0
 49
0.0
140
0.0
141
0.0
142
1.0
143
1.0
 70
0
 72
1
 73
0
 74
0
  7

 75
0
147
1.0
148
0.0
149
0.0
100
AcDbLayout
  1
Layout1
 70
0
 71
1
 10
0.0
 20
0.0
 11
1189.0
 21
841.0
 12
0.0
 22
0.0
 32
0.0
 14
0.0
 24
0.0
 34
0.0
 15
0.0
 25
0.0
 35
0.0
146
0.0
 13
0.0
 23
0.0
 33
0.0
 16
1.0
 26
0.0
 36
0.0
 17
0.0
 27
1.0
 37
0.0
 76
0
330
20E
345
0
346
0
  0
ENDSEC
  0
EOF
