999
DXF file: VSAK-2-16_140_7994074_M32393-P-5.dxf
999
Pro/ENGINEER 2010140 by Parametric Technology Corporation
  0
SECTION
  2
HEADER
  9
$ACADVER
  1
AC1015
  9
$DWGCODEPAGE
  3
ANSI_1252
  9
$EXTMAX
 10
841.0
 20
594.0
 30
0.0
  9
$EXTMIN
 10
0.0
 20
0.0
 30
0.0
  9
$LIMMIN
 10
0.0
 20
0.0
  9
$LIMMAX
 10
841.0
 20
594.0
  9
$VIEWCTR
 10
420.5
 20
297.0
  9
$VIEWSIZE
 40
594.0
  9
$CLAYER
  8
0
  9
$LTSCALE
 40
46.255
  9
$CELTYPE
  6
BYLAYER
  9
$DIMSCALE
 40
1.0
  9
$DIMASZ
 40
3.5
  9
$DIMEXO
 40
5.25625
  9
$DIMDLI
 40
31.958
  9
$DIMEXE
 40
15.138
  9
$DIMCEN
 40
7.569
  9
$DIMLFAC
 40
1.0
  9
$DIMBLK
  1
_FILLED
  9
$DIMTXT
 40
3.5
  9
$DIMTOL
 70
1
  9
$DIMLIM
 70
0
  9
$DIMTFAC
 40
1.0
  9
$DIMTP
 40
0.005
  9
$DIMTM
 40
0.005
  9
$PDMODE
 70
3
  9
$PDSIZE
 40
0.3125
  9
$HANDSEED
  5
61E
  9
$TILEMODE
 70
1
  9
$MEASUREMENT
 70
1
  9
$INSUNITS
 70
4
  0
ENDSEC
  0
SECTION
  2
CLASSES
  0
CLASS
  1
ACDBDICTIONARYWDFLT
  2
AcDbDictionaryWithDefault
  3
AutoCAD 2000
 90
0
280
0
281
0
  0
CLASS
  1
ACDBPLACEHOLDER
  2
AcDbPlaceHolder
  3
AutoCAD 2000
 90
0
280
0
281
0
  0
CLASS
  1
LAYOUT
  2
AcDbLayout
  3
AutoCAD 2000
 90
0
280
0
281
0
  0
ENDSEC
  0
SECTION
  2
TABLES
  0
TABLE
  2
VPORT
  5
8
100
AcDbSymbolTable
 70
2
  0
VPORT
  5
1F4
100
AcDbSymbolTableRecord
100
AcDbViewportTableRecord
  2
*ACTIVE
 70
0
 10
0.0
 20
0.0
 11
1.0
 21
1.0
 12
420.5
 22
297.0
 13
0.0
 23
0.0
 14
1.0
 24
1.0
 15
0.0
 25
0.0
 16
0.0
 26
0.0
 36
1.0
 17
0.0
 27
0.0
 37
0.0
 40
594.0
 41
1.4158249158
 42
50.0
 43
0.0
 44
0.0
 50
0.0
 51
0.0
 71
0
 72
100
 73
1
 74
1
 75
0
 76
0
 77
0
 78
0
  0
ENDTAB
  0
TABLE
  2
LTYPE
  5
5
100
AcDbSymbolTable
 70
6
  0
LTYPE
  5
14
100
AcDbSymbolTableRecord
100
AcDbLinetypeTableRecord
  2
BYBLOCK
 70
0
  3

 72
65
 73
0
 40
0.0
  0
LTYPE
  5
15
100
AcDbSymbolTableRecord
100
AcDbLinetypeTableRecord
  2
BYLAYER
 70
0
  3

 72
65
 73
0
 40
0.0
  0
LTYPE
  5
16
100
AcDbSymbolTableRecord
100
AcDbLinetypeTableRecord
  2
CONTINUOUS
 70
64
  3
Solid line
 72
65
 73
0
 40
0.0
  0
LTYPE
  5
1F5
100
AcDbSymbolTableRecord
100
AcDbLinetypeTableRecord
  2
CENTER
 70
64
  3
____ _ ____ _ ____ _ ____ _ ____ _ ____ _ ____
 72
65
 73
4
 40
0.6
 49
0.375
 74
0
 49
-0.075
 74
0
 49
0.075
 74
0
 49
-0.075
 74
0
  0
LTYPE
  5
1F6
100
AcDbSymbolTableRecord
100
AcDbLinetypeTableRecord
  2
HIDDEN
 70
64
  3
- - - - - - - - - - - - - - - - - - - -
 72
65
 73
2
 40
0.2
 49
0.1
 74
0
 49
-0.1
 74
0
  0
LTYPE
  5
1F7
100
AcDbSymbolTableRecord
100
AcDbLinetypeTableRecord
  2
PHANTOM
 70
64
  3
_____ _ _ _____ _ _ _____ _ _ _____
 72
65
 73
6
 40
0.8
 49
0.45
 74
0
 49
-0.05
 74
0
 49
0.1
 74
0
 49
-0.05
 74
0
 49
0.1
 74
0
 49
-0.05
 74
0
  0
LTYPE
  5
1F8
100
AcDbSymbolTableRecord
100
AcDbLinetypeTableRecord
  2
DOT
 70
64
  3
. . . . . . . . . . . . . . . . . . . .
 72
65
 73
2
 40
0.2
 49
0.1
 74
0
 49
-0.1
 74
0
  0
LTYPE
  5
1F9
100
AcDbSymbolTableRecord
100
AcDbLinetypeTableRecord
  2
DASHED
 70
64
  3
- - - - - - - - - - - - - - - - - - - -
 72
65
 73
2
 40
0.2
 49
0.1
 74
0
 49
-0.1
 74
0
  0
ENDTAB
  0
TABLE
  2
LAYER
  5
2
100
AcDbSymbolTable
 70
36
  0
LAYER
  5
10
100
AcDbSymbolTableRecord
100
AcDbLayerTableRecord
  2
0
 70
0
 62
7
  6
CONTINUOUS
370
-3
390
F
  0
LAYER
  5
1FA
100
AcDbSymbolTableRecord
100
AcDbLayerTableRecord
  2
DEFAULT_1
 70
0
 62
7
  6
CENTER
370
-3
390
F
  0
LAYER
  5
1FB
100
AcDbSymbolTableRecord
100
AcDbLayerTableRecord
  2
DEFAULT_2
 70
0
 62
8
  6
HIDDEN
370
-3
390
F
  0
LAYER
  5
1FC
100
AcDbSymbolTableRecord
100
AcDbLayerTableRecord
  2
DEFAULT_3
 70
0
 62
7
  6
PHANTOM
370
-3
390
F
  0
LAYER
  5
1FD
100
AcDbSymbolTableRecord
100
AcDbLayerTableRecord
  2
AUSFORMSCHRAEGEN
 70
0
 62
7
  6
CONTINUOUS
370
-3
390
F
  0
LAYER
  5
1FE
100
AcDbSymbolTableRecord
100
AcDbLayerTableRecord
  2
BEZUGSACHSEN
 70
0
 62
7
  6
CONTINUOUS
370
-3
390
F
  0
LAYER
  5
1FF
100
AcDbSymbolTableRecord
100
AcDbLayerTableRecord
  2
BEZUGSEBENEN
 70
0
 62
7
  6
CONTINUOUS
370
-3
390
F
  0
LAYER
  5
200
100
AcDbSymbolTableRecord
100
AcDbLayerTableRecord
  2
BG_STARTBEZUEGE
 70
0
 62
7
  6
CONTINUOUS
370
-3
390
F
  0
LAYER
  5
201
100
AcDbSymbolTableRecord
100
AcDbLayerTableRecord
  2
FASEN
 70
0
 62
7
  6
CONTINUOUS
370
-3
390
F
  0
LAYER
  5
202
100
AcDbSymbolTableRecord
100
AcDbLayerTableRecord
  2
FLAECHEN
 70
0
 62
7
  6
CONTINUOUS
370
-3
390
F
  0
LAYER
  5
203
100
AcDbSymbolTableRecord
100
AcDbLayerTableRecord
  2
HILFEN
 70
0
 62
7
  6
CONTINUOUS
370
-3
390
F
  0
LAYER
  5
204
100
AcDbSymbolTableRecord
100
AcDbLayerTableRecord
  2
KONSTRUKTIONSELEMENTE
 70
0
 62
7
  6
CONTINUOUS
370
-3
390
F
  0
LAYER
  5
205
100
AcDbSymbolTableRecord
100
AcDbLayerTableRecord
  2
NORM
 70
0
 62
7
  6
CONTINUOUS
370
-3
390
F
  0
LAYER
  5
206
100
AcDbSymbolTableRecord
100
AcDbLayerTableRecord
  2
PLATZIERUNG
 70
0
 62
7
  6
CONTINUOUS
370
-3
390
F
  0
LAYER
  5
207
100
AcDbSymbolTableRecord
100
AcDbLayerTableRecord
  2
PLAZIERUNG
 70
0
 62
7
  6
CONTINUOUS
370
-3
390
F
  0
LAYER
  5
208
100
AcDbSymbolTableRecord
100
AcDbLayerTableRecord
  2
RUNDUNGEN
 70
0
 62
7
  6
CONTINUOUS
370
-3
390
F
  0
LAYER
  5
209
100
AcDbSymbolTableRecord
100
AcDbLayerTableRecord
  2
TEIL_STARTBEZUEGE
 70
0
 62
7
  6
CONTINUOUS
370
-3
390
F
  0
LAYER
  5
20A
100
AcDbSymbolTableRecord
100
AcDbLayerTableRecord
  2
T_STARTBEZUEGE
 70
0
 62
7
  6
CONTINUOUS
370
-3
390
F
  0
ENDTAB
  0
TABLE
  2
STYLE
  5
3
100
AcDbSymbolTable
 70
1
  0
STYLE
  5
11
100
AcDbSymbolTableRecord
100
AcDbTextStyleTableRecord
  2
STANDARD
 70
0
 40
0.0
 41
0.7
 50
0.0
 71
0
 42
0.2
  3
txt
  4

  0
STYLE
  5
20B
100
AcDbSymbolTableRecord
100
AcDbTextStyleTableRecord
  2
TEXTSTYLE_1
 70
0
 40
0.0
 41
0.8
 50
0.0
 71
0
 42
0.2
  3
gdt
  4

  0
ENDTAB
  0
TABLE
  2
VIEW
  5
6
100
AcDbSymbolTable
 70
0
  0
ENDTAB
  0
TABLE
  2
UCS
  5
7
100
AcDbSymbolTable
 70
0
  0
ENDTAB
  0
TABLE
  2
APPID
  5
9
100
AcDbSymbolTable
 70
1
  0
APPID
  5
20C
100
AcDbSymbolTableRecord
100
AcDbRegAppTableRecord
  2
ACAD
 70
0
  0
ENDTAB
  0
TABLE
  2
BLOCK_RECORD
  5
1
100
AcDbSymbolTable
 70
0
  0
BLOCK_RECORD
  5
20D
100
AcDbSymbolTableRecord
100
AcDbBlockTableRecord
  2
*Model_Space
  0
BLOCK_RECORD
  5
20E
100
AcDbSymbolTableRecord
100
AcDbBlockTableRecord
  2
*Paper_Space
  0
ENDTAB
  0
TABLE
  2
DIMSTYLE
  5
A
100
AcDbSymbolTable
 70
1
100
AcDbDimStyleTable
 71
0
  0
DIMSTYLE
105
20F
100
AcDbSymbolTableRecord
100
AcDbDimStyleTableRecord
  2
STANDARD
 70
0
  3

  4

 40
1.0
 41
3.5
 42
0.0625
 43
0.38
 44
0.18
 45
0.0
 46
0.0
 47
0.005
 48
0.005
140
3.5
141
0.09
142
0.0
143
25.4
144
1.0
145
0.0
146
1.0
147
0.09
 71
1.0
 72
0.0
 73
0
 74
0
 75
0
 76
0
 77
1
 78
8
170
0
171
2
172
0
173
0
174
0
175
0
176
0
177
0
178
5
270
2
271
3
272
3
273
2
274
2
275
0
280
0
281
0
282
0
283
1
284
8
285
0
286
0
287
3
288
0
340
11
  0
ENDTAB
  0
ENDSEC
  0
SECTION
  2
BLOCKS
  0
BLOCK
  5
20
100
AcDbEntity
  8
0
100
AcDbBlockBegin
  2
*Model_Space
 70
0
 10
0.0
 20
0.0
 30
0.0
  3
*Model_Space
  1

  0
ENDBLK
  5
21
100
AcDbEntity
  8
0
100
AcDbBlockEnd
  0
BLOCK
  5
1C
100
AcDbEntity
  8
0
100
AcDbBlockBegin
  2
*Paper_Space
 70
0
 10
0.0
 20
0.0
 30
0.0
  3
*Paper_Space
  1

  0
ENDBLK
  5
1D
100
AcDbEntity
  8
0
100
AcDbBlockEnd
  0
ENDSEC
  0
SECTION
  2
ENTITIES
  0
MTEXT
  5
210
100
AcDbEntity
  8
0
100
AcDbMText
 62
5
  6
CONTINUOUS
  7
STANDARD
 71
1
 72
1
 10
145.4414353546
 20
403.3669797062
 30
0.0
 11
0.0
 21
1.0
 31
0.0
 44
0.9
  1
RUD
 40
8.0
 41
21.3333333333
  0
MTEXT
  5
211
100
AcDbEntity
  8
0
100
AcDbMText
 62
5
  6
CONTINUOUS
  7
STANDARD
 71
1
 72
1
 10
316.9755334517
 20
375.9176849278
 30
0.0
 11
0.0
 21
1.0
 31
0.0
 44
0.9
  1
VSAK 2-16/140
 40
8.0
 41
80.0
  0
MTEXT
  5
212
100
AcDbEntity
  8
0
100
AcDbMText
 62
5
  6
CONTINUOUS
  7
STANDARD
 71
1
 72
1
 10
689.0042646636
 20
359.9209262338
 30
0.0
 11
0.0
 21
1.0
 31
0.0
 44
0.9
  1
RUD VSAK 2-16/140
 40
8.0
 41
106.0952380952
  0
LINE
  5
213
100
AcDbEntity
  8
0
100
AcDbLine
 62
7
  6
CONTINUOUS
 10
0.0
 20
0.0
 11
0.0
 21
594.0
  0
LINE
  5
214
100
AcDbEntity
  8
0
100
AcDbLine
 62
7
  6
CONTINUOUS
 10
0.0
 20
0.0
 11
841.0
 21
0.0
  0
LINE
  5
215
100
AcDbEntity
  8
0
100
AcDbLine
 62
7
  6
CONTINUOUS
 10
0.0
 20
594.0
 11
841.0
 21
594.0
  0
LINE
  5
216
100
AcDbEntity
  8
0
100
AcDbLine
 62
7
  6
CONTINUOUS
 10
841.0
 20
0.0
 11
841.0
 21
594.0
  0
LINE
  5
217
100
AcDbEntity
  8
KONSTRUKTIONSELEMENTE
100
AcDbLine
 62
7
  6
CONTINUOUS
 10
27.9048398993
 20
14.8130611143
 11
40.5141697784
 21
7.5330611143
  0
LINE
  5
218
100
AcDbEntity
  8
KONSTRUKTIONSELEMENTE
100
AcDbLine
 62
7
  6
CONTINUOUS
 10
27.4948622888
 20
15.7029590628
 11
28.1876826118
 21
15.3029590628
  0
LINE
  5
219
100
AcDbEntity
  8
KONSTRUKTIONSELEMENTE
100
AcDbLine
 62
7
  6
CONTINUOUS
 10
40.7970124909
 20
8.0229590628
 11
41.4898328139
 21
7.6229590628
  0
LINE
  5
21A
100
AcDbEntity
  8
KONSTRUKTIONSELEMENTE
100
AcDbLine
 62
7
  6
CONTINUOUS
 10
57.3704408616
 20
23.9289790566
 11
75.0182038637
 21
13.7400383367
  0
LINE
  5
21B
100
AcDbEntity
  8
KONSTRUKTIONSELEMENTE
100
AcDbLine
 62
7
  6
CONTINUOUS
 10
33.6759858141
 20
37.6089790566
 11
33.2861195408
 21
37.8340684544
  0
LINE
  5
21C
100
AcDbEntity
  8
KONSTRUKTIONSELEMENTE
100
AcDbLine
 62
7
  6
CONTINUOUS
 10
82.277548998
 20
14.7500654144
 11
75.8289490325
 21
21.5040255672
  0
LINE
  5
21D
100
AcDbEntity
  8
KONSTRUKTIONSELEMENTE
100
AcDbLine
 62
7
  6
CONTINUOUS
 10
84.045315951
 20
17.8119275929
 11
77.5967159855
 21
24.5658877456
  0
LINE
  5
21E
100
AcDbEntity
  8
KONSTRUKTIONSELEMENTE
100
AcDbLine
 62
7
  6
CONTINUOUS
 10
99.6375879707
 20
71.5014471213
 11
96.0665884298
 21
73.5631646676
  0
LINE
  5
21F
100
AcDbEntity
  8
KONSTRUKTIONSELEMENTE
100
AcDbLine
 62
7
  6
CONTINUOUS
 10
57.3123776653
 20
95.9379186847
 11
53.7413781244
 21
97.9996362309
  0
LINE
  5
220
100
AcDbEntity
  8
KONSTRUKTIONSELEMENTE
100
AcDbLine
 62
7
  6
CONTINUOUS
 10
29.5431259701
 20
96.0478520122
 11
39.2713085405
 21
93.6808642131
  0
LINE
  5
221
100
AcDbEntity
  8
KONSTRUKTIONSELEMENTE
100
AcDbLine
 62
7
  6
CONTINUOUS
 10
29.8259686826
 20
96.5377499607
 11
39.5541512529
 21
94.1707621617
  0
LINE
  5
222
100
AcDbEntity
  8
KONSTRUKTIONSELEMENTE
100
AcDbLine
 62
7
  6
CONTINUOUS
 10
32.0556608261
 20
98.4142422497
 11
39.5388781879
 21
96.5934824042
  0
LINE
  5
223
100
AcDbEntity
  8
KONSTRUKTIONSELEMENTE
100
AcDbLine
 62
7
  6
CONTINUOUS
 10
33.2577423541
 20
100.496308531
 11
40.7409597159
 21
98.6755486856
  0
LINE
  5
224
100
AcDbEntity
  8
0
100
AcDbLine
 62
7
  6
CONTINUOUS
 10
75.5684594942
 20
100.4088719253
 11
90.8105066009
 21
91.6088719253
  0
LINE
  5
225
100
AcDbEntity
  8
KONSTRUKTIONSELEMENTE
100
AcDbLine
 62
7
  6
CONTINUOUS
 10
129.6577920203
 20
52.1313069998
 11
136.1063919858
 21
45.377346847
  0
LINE
  5
226
100
AcDbEntity
  8
KONSTRUKTIONSELEMENTE
100
AcDbLine
 62
7
  6
CONTINUOUS
 10
32.4077596626
 20
110.5964423185
 11
39.8387492883
 21
108.7883901308
  0
LINE
  5
227
100
AcDbEntity
  8
KONSTRUKTIONSELEMENTE
100
AcDbLine
 62
7
  6
CONTINUOUS
 10
39.1743245776
 20
109.0651377533
 11
29.4775416685
 21
111.4244856243
  0
LINE
  5
228
100
AcDbEntity
  8
KONSTRUKTIONSELEMENTE
100
AcDbLine
 62
7
  6
CONTINUOUS
 10
51.1551071639
 20
115.5237053061
 11
36.8701762421
 21
118.9994066468
  0
LINE
  5
229
100
AcDbEntity
  8
KONSTRUKTIONSELEMENTE
100
AcDbLine
 62
7
  6
CONTINUOUS
 10
52.9228741169
 20
118.5855674846
 11
38.6379431951
 21
122.0612688253
  0
LINE
  5
22A
100
AcDbEntity
  8
0
100
AcDbLine
 62
7
  6
CONTINUOUS
 10
85.0684594942
 20
116.8633545972
 11
100.3105066009
 21
108.0633545972
  0
LINE
  5
22B
100
AcDbEntity
  8
KONSTRUKTIONSELEMENTE
100
AcDbLine
 62
7
  6
CONTINUOUS
 10
116.1070124478
 20
78.0237053061
 11
138.5583997885
 21
54.509178698
  0
LINE
  5
22C
100
AcDbEntity
  8
KONSTRUKTIONSELEMENTE
100
AcDbLine
 62
7
  6
CONTINUOUS
 10
140.3261667415
 20
57.5710408764
 11
117.8747794007
 21
81.0855674846
  0
LINE
  5
22D
100
AcDbEntity
  8
KONSTRUKTIONSELEMENTE
100
AcDbLine
 62
7
  6
CONTINUOUS
 10
29.4251415429
 20
114.7633658859
 11
29.4442328741
 21
111.7349655827
  0
LINE
  5
22E
100
AcDbEntity
  8
KONSTRUKTIONSELEMENTE
100
AcDbLine
 62
7
  6
CONTINUOUS
 10
29.5431259701
 20
96.0478520122
 11
29.8722660572
 21
43.8373526167
  0
LINE
  5
22F
100
AcDbEntity
  8
KONSTRUKTIONSELEMENTE
100
AcDbLine
 62
7
  6
CONTINUOUS
 10
29.8259686826
 20
96.5377499607
 11
29.8221504163
 21
97.1434300214
  0
LINE
  5
230
100
AcDbEntity
  8
KONSTRUKTIONSELEMENTE
100
AcDbLine
 62
7
  6
CONTINUOUS
 10
41.4354893179
 20
105.949226931
 11
41.5048189502
 21
94.9516764414
  0
LINE
  5
231
100
AcDbEntity
  8
0
100
AcDbLine
 62
7
  6
CONTINUOUS
 10
52.7717626184
 20
99.3843906831
 11
50.6028929364
 21
111.6846618796
  0
LINE
  5
232
100
AcDbEntity
  8
RUNDUNGEN
100
AcDbLine
 62
7
  6
CONTINUOUS
 10
50.6028929364
 20
111.6846618796
 11
50.3399359414
 21
113.1759651044
  0
LINE
  5
233
100
AcDbEntity
  8
RUNDUNGEN
100
AcDbLine
 62
7
  6
CONTINUOUS
 10
63.7135304056
 20
138.079380001
 11
63.7135304056
 21
144.7146500833
  0
LINE
  5
234
100
AcDbEntity
  8
0
100
AcDbLine
 62
7
  6
CONTINUOUS
 10
356.2975706923
 20
76.1438762181
 11
369.4573378377
 21
71.3541126873
  0
LINE
  5
235
100
AcDbEntity
  8
BEZUGSACHSEN
100
AcDbLine
 62
7
  6
CONTINUOUS
 10
155.4758572763
 20
157.0491794785
 11
154.6784455332
 21
157.0762901493
  0
LINE
  5
236
100
AcDbEntity
  8
BEZUGSACHSEN
100
AcDbLine
 62
7
  6
CONTINUOUS
 10
155.3379521006
 20
157.6892607064
 11
154.8595051888
 21
157.7055271043
  0
LINE
  5
237
100
AcDbEntity
  8
BEZUGSACHSEN
100
AcDbLine
 62
7
  6
CONTINUOUS
 10
157.0665544697
 20
161.5699117704
 11
158.178615206
 21
161.4050273486
  0
LINE
  5
238
100
AcDbEntity
  8
BEZUGSACHSEN
100
AcDbLine
 62
7
  6
CONTINUOUS
 10
157.0449773156
 20
160.9352584933
 11
157.9975555504
 21
160.7757903936
  0
LINE
  5
239
100
AcDbEntity
  8
BEZUGSACHSEN
100
AcDbLine
 62
7
  6
CONTINUOUS
 10
151.1685117234
 20
171.9764828375
 11
151.9570029684
 21
171.767229131
  0
LINE
  5
23A
100
AcDbEntity
  8
BEZUGSACHSEN
100
AcDbLine
 62
7
  6
CONTINUOUS
 10
154.3853736683
 20
157.8487229956
 11
154.8595051888
 21
157.7055271043
  0
LINE
  5
23B
100
AcDbEntity
  8
BEZUGSACHSEN
100
AcDbLine
 62
7
  6
CONTINUOUS
 10
155.4458384639
 20
160.8625445235
 11
155.9199702078
 21
160.7193486247
  0
LINE
  5
23C
100
AcDbEntity
  8
BEZUGSACHSEN
100
AcDbLine
 62
7
  6
CONTINUOUS
 10
157.9975555504
 20
160.7757903936
 11
158.4716875177
 21
160.6325944871
  0
LINE
  5
23D
100
AcDbEntity
  8
BEZUGSACHSEN
100
AcDbLine
 62
7
  6
CONTINUOUS
 10
153.8896648819
 20
157.3572656135
 11
154.6784455332
 21
157.0762901493
  0
LINE
  5
23E
100
AcDbEntity
  8
BEZUGSACHSEN
100
AcDbLine
 62
7
  6
CONTINUOUS
 10
158.178615206
 20
161.4050273486
 11
158.9673961923
 21
161.124051873
  0
LINE
  5
23F
100
AcDbEntity
  8
BEZUGSACHSEN
100
AcDbLine
 62
7
  6
CONTINUOUS
 10
114.2607822776
 20
192.710529804
 11
114.8100772634
 21
192.4692526008
  0
LINE
  5
240
100
AcDbEntity
  8
BEZUGSACHSEN
100
AcDbLine
 62
7
  6
CONTINUOUS
 10
151.4984140794
 20
172.8142455266
 11
151.9436144884
 21
172.5932826643
  0
LINE
  5
241
100
AcDbEntity
  8
BEZUGSACHSEN
100
AcDbLine
 62
7
  6
CONTINUOUS
 10
157.579876159
 20
164.7191749489
 11
158.7621738664
 21
164.0629760726
  0
LINE
  5
242
100
AcDbEntity
  8
BEZUGSACHSEN
100
AcDbLine
 62
7
  6
CONTINUOUS
 10
158.85107484
 20
164.8364411477
 11
160.0333721023
 21
164.1802422303
  0
LINE
  5
243
100
AcDbEntity
  8
BEZUGSACHSEN
100
AcDbLine
 62
7
  6
CONTINUOUS
 10
153.9155576249
 20
158.1188541945
 11
154.3853736683
 21
157.8487229956
  0
LINE
  5
244
100
AcDbEntity
  8
BEZUGSACHSEN
100
AcDbLine
 62
7
  6
CONTINUOUS
 10
158.4716875177
 20
160.6325944871
 11
158.9415034493
 21
160.362463292
  0
LINE
  5
245
100
AcDbEntity
  8
BEZUGSACHSEN
100
AcDbLine
 62
7
  6
CONTINUOUS
 10
114.3717794559
 20
193.6948596322
 11
114.7954398592
 21
193.4349753244
  0
LINE
  5
246
100
AcDbEntity
  8
BEZUGSACHSEN
100
AcDbLine
 62
7
  6
CONTINUOUS
 10
153.2646819818
 20
157.7597484365
 11
153.8896648819
 21
157.3572656135
  0
LINE
  5
247
100
AcDbEntity
  8
BEZUGSACHSEN
100
AcDbLine
 62
7
  6
CONTINUOUS
 10
158.9673961923
 20
161.124051873
 11
159.5923790366
 21
160.7215690519
  0
LINE
  5
248
100
AcDbEntity
  8
BEZUGSACHSEN
100
AcDbLine
 62
7
  6
CONTINUOUS
 10
109.1623032469
 20
197.6751078804
 11
109.5047423583
 21
197.4534947485
  0
LINE
  5
249
100
AcDbEntity
  8
BEZUGSACHSEN
100
AcDbLine
 62
7
  6
CONTINUOUS
 10
150.6723555024
 20
172.3137844332
 11
151.1685117234
 21
171.9764828375
  0
LINE
  5
24A
100
AcDbEntity
  8
BEZUGSACHSEN
100
AcDbLine
 62
7
  6
CONTINUOUS
 10
155.9199702078
 20
160.7193486247
 11
156.2303038355
 21
160.4546395622
  0
LINE
  5
24B
100
AcDbEntity
  8
BEZUGSACHSEN
100
AcDbLine
 62
7
  6
CONTINUOUS
 10
109.6625884052
 20
198.1799110219
 11
110.2270772498
 21
197.6962289763
  0
LINE
  5
24C
100
AcDbEntity
  8
BEZUGSACHSEN
100
AcDbLine
 62
7
  6
CONTINUOUS
 10
122.7705838464
 20
199.1157508879
 11
123.1405119941
 21
198.7838155254
  0
LINE
  5
24D
100
AcDbEntity
  8
BEZUGSACHSEN
100
AcDbLine
 62
7
  6
CONTINUOUS
 10
113.6647306811
 20
193.2675123246
 11
114.2607822776
 21
192.710529804
  0
LINE
  5
24E
100
AcDbEntity
  8
BEZUGSACHSEN
100
AcDbLine
 62
7
  6
CONTINUOUS
 10
153.6095393885
 20
158.5104927502
 11
153.9155576249
 21
158.1188541945
  0
LINE
  5
24F
100
AcDbEntity
  8
BEZUGSACHSEN
100
AcDbLine
 62
7
  6
CONTINUOUS
 10
123.4269706349
 20
199.7320595395
 11
123.9129641554
 21
199.0768364778
  0
LINE
  5
250
100
AcDbEntity
  8
BEZUGSACHSEN
100
AcDbLine
 62
7
  6
CONTINUOUS
 10
114.0503742791
 20
194.1312033569
 11
114.3717794559
 21
193.6948596322
  0
LINE
  5
251
100
AcDbEntity
  8
BEZUGSACHSEN
100
AcDbLine
 62
7
  6
CONTINUOUS
 10
110.1976390622
 20
194.9928420204
 11
112.4502395851
 21
191.877910271
  0
LINE
  5
252
100
AcDbEntity
  8
BEZUGSACHSEN
100
AcDbLine
 62
7
  6
CONTINUOUS
 10
109.576964698
 20
194.4475831549
 11
111.6075153154
 21
191.5947202614
  0
LINE
  5
253
100
AcDbEntity
  8
BEZUGSACHSEN
100
AcDbLine
 62
7
  6
CONTINUOUS
 10
109.5047423583
 20
197.4534947485
 11
109.7776224412
 21
197.0401635448
  0
LINE
  5
254
100
AcDbEntity
  8
BEZUGSACHSEN
100
AcDbLine
 62
7
  6
CONTINUOUS
 10
110.2270772498
 20
197.6962289763
 11
110.4999573327
 21
197.2828977727
  0
LINE
  5
255
100
AcDbEntity
  8
BEZUGSACHSEN
100
AcDbLine
 62
7
  6
CONTINUOUS
 10
113.3199471836
 20
193.8617088116
 11
113.6647306811
 21
193.2675123246
  0
LINE
  5
256
100
AcDbEntity
  8
BEZUGSACHSEN
100
AcDbLine
 62
7
  6
CONTINUOUS
 10
113.8312257502
 20
194.7440068222
 11
114.0503742791
 21
194.1312033569
  0
LINE
  5
257
100
AcDbEntity
  8
BEZUGSACHSEN
100
AcDbLine
 62
7
  6
CONTINUOUS
 10
107.8754518243
 20
190.3405934561
 11
105.4864251034
 21
197.4499219284
  0
LINE
  5
258
100
AcDbEntity
  8
BEZUGSACHSEN
100
AcDbLine
 62
7
  6
CONTINUOUS
 10
108.5977867158
 20
190.5833276839
 11
107.5303492296
 21
193.7598361953
  0
LINE
  5
259
100
AcDbEntity
  8
BEZUGSACHSEN
100
AcDbLine
 62
7
  6
CONTINUOUS
 10
107.2253671313
 20
194.6674099347
 11
106.4629117434
 21
196.9363447068
  0
LINE
  5
25A
100
AcDbEntity
  8
BEZUGSACHSEN
100
AcDbLine
 62
7
  6
CONTINUOUS
 10
109.7776224412
 20
197.0401635448
 11
109.9301136327
 21
196.5863762514
  0
LINE
  5
25B
100
AcDbEntity
  8
BEZUGSACHSEN
100
AcDbLine
 62
7
  6
CONTINUOUS
 10
110.4999573327
 20
197.2828977727
 11
110.7032788739
 21
196.6778481894
  0
LINE
  5
25C
100
AcDbEntity
  8
BEZUGSACHSEN
100
AcDbLine
 62
7
  6
CONTINUOUS
 10
109.9622156481
 20
196.0921337157
 11
109.9301136327
 21
196.5863762514
  0
LINE
  5
25D
100
AcDbEntity
  8
BEZUGSACHSEN
100
AcDbLine
 62
7
  6
CONTINUOUS
 10
110.7353808892
 20
196.1836056537
 11
110.7032788739
 21
196.6778481894
  0
LINE
  5
25E
100
AcDbEntity
  8
BEZUGSACHSEN
100
AcDbLine
 62
7
  6
CONTINUOUS
 10
156.2818997762
 20
157.2759336124
 11
155.4758572763
 21
157.0491794785
  0
LINE
  5
25F
100
AcDbEntity
  8
BEZUGSACHSEN
100
AcDbLine
 62
7
  6
CONTINUOUS
 10
158.8379324773
 20
157.3161089682
 11
158.3551701742
 21
157.2054458728
  0
LINE
  5
260
100
AcDbEntity
  8
BEZUGSACHSEN
100
AcDbLine
 62
7
  6
CONTINUOUS
 10
155.8207146271
 20
157.7999237942
 11
155.3379521006
 21
157.6892607064
  0
LINE
  5
261
100
AcDbEntity
  8
BEZUGSACHSEN
100
AcDbLine
 62
7
  6
CONTINUOUS
 10
154.9673915521
 20
160.8788109215
 11
154.4846292489
 21
160.7681478261
  0
LINE
  5
262
100
AcDbEntity
  8
BEZUGSACHSEN
100
AcDbLine
 62
7
  6
CONTINUOUS
 10
160.1033709082
 20
163.4214354249
 11
152.6350803818
 21
162.7324966662
  0
LINE
  5
263
100
AcDbEntity
  8
BEZUGSACHSEN
100
AcDbLine
 62
7
  6
CONTINUOUS
 10
152.5650815759
 20
163.4913034716
 11
158.7621738664
 21
164.0629760726
  0
LINE
  5
264
100
AcDbEntity
  8
BEZUGSACHSEN
100
AcDbLine
 62
7
  6
CONTINUOUS
 10
157.579876159
 20
164.7191749489
 11
158.85107484
 21
164.8364411477
  0
LINE
  5
265
100
AcDbEntity
  8
BEZUGSACHSEN
100
AcDbLine
 62
7
  6
CONTINUOUS
 10
155.9501783421
 20
161.607866699
 11
154.8294865998
 21
161.5188921417
  0
LINE
  5
266
100
AcDbEntity
  8
BEZUGSACHSEN
100
AcDbLine
 62
7
  6
CONTINUOUS
 10
154.310584902
 20
177.9282481621
 11
154.9971690088
 21
177.9516611931
  0
LINE
  5
267
100
AcDbEntity
  8
BEZUGSACHSEN
100
AcDbLine
 62
7
  6
CONTINUOUS
 10
154.9673915521
 20
160.8788109215
 11
155.4458384639
 21
160.8625445235
  0
LINE
  5
268
100
AcDbEntity
  8
BEZUGSACHSEN
100
AcDbLine
 62
7
  6
CONTINUOUS
 10
156.7260127077
 20
160.9461027586
 11
157.0449773156
 21
160.9352584933
  0
LINE
  5
269
100
AcDbEntity
  8
BEZUGSACHSEN
100
AcDbLine
 62
7
  6
CONTINUOUS
 10
155.9501783421
 20
161.607866699
 11
157.0665544697
 21
161.5699117704
  0
LINE
  5
26A
100
AcDbEntity
  8
BEZUGSACHSEN
100
AcDbLine
 62
7
  6
CONTINUOUS
 10
154.4701417467
 20
177.1662157734
 11
155.0105564249
 21
177.1256103673
  0
LINE
  5
26B
100
AcDbEntity
  8
BEZUGSACHSEN
100
AcDbLine
 62
7
  6
CONTINUOUS
 10
151.4808059483
 20
180.196063077
 11
151.8875102429
 21
180.1649505684
  0
LINE
  5
26C
100
AcDbEntity
  8
BEZUGSACHSEN
100
AcDbLine
 62
7
  6
CONTINUOUS
 10
114.7954398592
 20
193.4349753244
 11
115.3213554562
 21
193.3515506548
  0
LINE
  5
26D
100
AcDbEntity
  8
BEZUGSACHSEN
100
AcDbLine
 62
7
  6
CONTINUOUS
 10
154.9971690088
 20
177.9516611931
 11
155.7856602026
 21
177.7424074641
  0
LINE
  5
26E
100
AcDbEntity
  8
BEZUGSACHSEN
100
AcDbLine
 62
7
  6
CONTINUOUS
 10
122.3008882588
 20
200.2494197883
 11
122.9301118259
 21
200.0683187088
  0
LINE
  5
26F
100
AcDbEntity
  8
BEZUGSACHSEN
100
AcDbLine
 62
7
  6
CONTINUOUS
 10
122.2682923931
 20
199.292528111
 11
122.7705838464
 21
199.1157508879
  0
LINE
  5
270
100
AcDbEntity
  8
BEZUGSACHSEN
100
AcDbLine
 62
7
  6
CONTINUOUS
 10
150.8917226825
 20
179.6431519226
 11
151.4409880374
 21
179.4018057983
  0
LINE
  5
271
100
AcDbEntity
  8
BEZUGSACHSEN
100
AcDbLine
 62
7
  6
CONTINUOUS
 10
109.0285408766
 20
198.4718751116
 11
109.6625884052
 21
198.1799110219
  0
LINE
  5
272
100
AcDbEntity
  8
BEZUGSACHSEN
100
AcDbLine
 62
7
  6
CONTINUOUS
 10
155.0105564249
 20
177.1256103673
 11
155.4557567316
 21
176.9046474602
  0
LINE
  5
273
100
AcDbEntity
  8
BEZUGSACHSEN
100
AcDbLine
 62
7
  6
CONTINUOUS
 10
151.1348935564
 20
180.421851744
 11
151.4808059483
 21
180.196063077
  0
LINE
  5
274
100
AcDbEntity
  8
BEZUGSACHSEN
100
AcDbLine
 62
7
  6
CONTINUOUS
 10
122.9301118259
 20
200.0683187088
 11
123.4269706349
 21
199.7320595395
  0
LINE
  5
275
100
AcDbEntity
  8
BEZUGSACHSEN
100
AcDbLine
 62
7
  6
CONTINUOUS
 10
155.7856602026
 20
177.7424074641
 11
156.281815219
 21
177.4051085144
  0
LINE
  5
276
100
AcDbEntity
  8
0
100
AcDbLine
 62
7
  6
CONTINUOUS
 10
164.625175834
 20
180.200502416
 11
153.7694664287
 21
192.2569891389
  0
LINE
  5
277
100
AcDbEntity
  8
BEZUGSACHSEN
100
AcDbLine
 62
7
  6
CONTINUOUS
 10
151.148428901
 20
173.2155630927
 11
151.4984140794
 21
172.8142455266
  0
LINE
  5
278
100
AcDbEntity
  8
BEZUGSACHSEN
100
AcDbLine
 62
7
  6
CONTINUOUS
 10
155.4557567316
 20
176.9046474602
 11
155.8057442424
 21
176.5033245687
  0
LINE
  5
279
100
AcDbEntity
  8
BEZUGSACHSEN
100
AcDbLine
 62
7
  6
CONTINUOUS
 10
156.2303038355
 20
160.4546395622
 11
156.5363220719
 21
160.0630010064
  0
LINE
  5
27A
100
AcDbEntity
  8
BEZUGSACHSEN
100
AcDbLine
 62
7
  6
CONTINUOUS
 10
156.7260127077
 20
160.9461027586
 11
157.3380491805
 21
160.162825647
  0
LINE
  5
27B
100
AcDbEntity
  8
BEZUGSACHSEN
100
AcDbLine
 62
7
  6
CONTINUOUS
 10
158.9415034493
 20
160.362463292
 11
159.2475216857
 21
159.9708247363
  0
LINE
  5
27C
100
AcDbEntity
  8
BEZUGSACHSEN
100
AcDbLine
 62
7
  6
CONTINUOUS
 10
150.2714167677
 20
172.8314353736
 11
150.6723555024
 21
172.3137844332
  0
LINE
  5
27D
100
AcDbEntity
  8
BEZUGSACHSEN
100
AcDbLine
 62
7
  6
CONTINUOUS
 10
156.281815219
 20
177.4051085144
 11
156.6827562734
 21
176.887452243
  0
LINE
  5
27E
100
AcDbEntity
  8
BEZUGSACHSEN
100
AcDbLine
 62
7
  6
CONTINUOUS
 10
152.8078123798
 20
158.4106739234
 11
153.2646819818
 21
157.7597484365
  0
LINE
  5
27F
100
AcDbEntity
  8
BEZUGSACHSEN
100
AcDbLine
 62
7
  6
CONTINUOUS
 10
159.5923790366
 20
160.7215690519
 11
160.0492487943
 21
160.0706493768
  0
LINE
  5
280
100
AcDbEntity
  8
BEZUGSACHSEN
100
AcDbLine
 62
7
  6
CONTINUOUS
 10
147.9966174164
 20
177.3730529943
 11
148.495576233
 21
176.6372425574
  0
LINE
  5
281
100
AcDbEntity
  8
BEZUGSACHSEN
100
AcDbLine
 62
7
  6
CONTINUOUS
 10
148.988138675
 20
181.8817005537
 11
150.1998978988
 21
180.0947292566
  0
LINE
  5
282
100
AcDbEntity
  8
BEZUGSACHSEN
100
AcDbLine
 62
7
  6
CONTINUOUS
 10
149.7805732724
 20
182.4190566568
 11
151.1348935564
 21
180.421851744
  0
LINE
  5
283
100
AcDbEntity
  8
BEZUGSACHSEN
100
AcDbLine
 62
7
  6
CONTINUOUS
 10
151.7616601357
 20
183.7624471654
 11
153.1159804198
 21
181.7652422526
  0
LINE
  5
284
100
AcDbEntity
  8
BEZUGSACHSEN
100
AcDbLine
 62
7
  6
CONTINUOUS
 10
151.9943423822
 20
184.8409399529
 11
153.7050620541
 21
182.318155813
  0
LINE
  5
285
100
AcDbEntity
  8
BEZUGSACHSEN
100
AcDbLine
 62
7
  6
CONTINUOUS
 10
123.1405119941
 20
198.7838155254
 11
123.3780768212
 21
198.2967215768
  0
LINE
  5
286
100
AcDbEntity
  8
BEZUGSACHSEN
100
AcDbLine
 62
7
  6
CONTINUOUS
 10
149.8128278787
 20
173.8784517692
 11
150.2714167677
 21
172.8314353736
  0
LINE
  5
287
100
AcDbEntity
  8
BEZUGSACHSEN
100
AcDbLine
 62
7
  6
CONTINUOUS
 10
150.689840012
 20
174.2625794883
 11
151.148428901
 21
173.2155630927
  0
LINE
  5
288
100
AcDbEntity
  8
BEZUGSACHSEN
100
AcDbLine
 62
7
  6
CONTINUOUS
 10
153.4630034561
 20
158.8967091734
 11
153.6095393885
 21
158.5104927502
  0
LINE
  5
289
100
AcDbEntity
  8
BEZUGSACHSEN
100
AcDbLine
 62
7
  6
CONTINUOUS
 10
123.9129641554
 20
199.0768364778
 11
124.1450963534
 21
198.4302610297
  0
LINE
  5
28A
100
AcDbEntity
  8
BEZUGSACHSEN
100
AcDbLine
 62
7
  6
CONTINUOUS
 10
113.077419272
 20
194.632364769
 11
113.3199471836
 21
193.8617088116
  0
LINE
  5
28B
100
AcDbEntity
  8
BEZUGSACHSEN
100
AcDbLine
 62
7
  6
CONTINUOUS
 10
123.3780768212
 20
198.2967215768
 11
123.4832769053
 21
197.6544699851
  0
LINE
  5
28C
100
AcDbEntity
  8
BEZUGSACHSEN
100
AcDbLine
 62
7
  6
CONTINUOUS
 10
113.077419272
 20
194.632364769
 11
112.3526805969
 21
199.5257959879
  0
LINE
  5
28D
100
AcDbEntity
  8
BEZUGSACHSEN
100
AcDbLine
 62
7
  6
CONTINUOUS
 10
113.8312257502
 20
194.7440068222
 11
113.1064870751
 21
199.637438041
  0
LINE
  5
28E
100
AcDbEntity
  8
BEZUGSACHSEN
100
AcDbLine
 62
7
  6
CONTINUOUS
 10
116.12171155
 20
200.0840060407
 11
116.8464502251
 21
195.1905748218
  0
LINE
  5
28F
100
AcDbEntity
  8
BEZUGSACHSEN
100
AcDbLine
 62
7
  6
CONTINUOUS
 10
116.8755176688
 20
200.1956480406
 11
117.6002563438
 21
195.3022168218
  0
LINE
  5
290
100
AcDbEntity
  8
0
100
AcDbLine
 62
7
  6
CONTINUOUS
 10
133.3894830476
 20
479.6270048373
 11
133.3894830476
 21
359.6270048373
  0
LINE
  5
291
100
AcDbEntity
  8
BEZUGSACHSEN
100
AcDbLine
 62
7
  6
CONTINUOUS
 10
117.5915150699
 20
194.4943467935
 11
117.6002563438
 21
195.3022168218
  0
LINE
  5
292
100
AcDbEntity
  8
BEZUGSACHSEN
100
AcDbLine
 62
7
  6
CONTINUOUS
 10
118.9992064562
 20
192.8575391827
 11
119.254540768
 21
200.3531915485
  0
LINE
  5
293
100
AcDbEntity
  8
BEZUGSACHSEN
100
AcDbLine
 62
7
  6
CONTINUOUS
 10
119.7933891984
 20
193.7884880316
 11
119.983531775
 21
199.3703569311
  0
LINE
  5
294
100
AcDbEntity
  8
BEZUGSACHSEN
100
AcDbLine
 62
7
  6
CONTINUOUS
 10
123.4832769053
 20
197.6544699851
 11
123.4017872334
 21
195.2622405684
  0
LINE
  5
295
100
AcDbEntity
  8
BEZUGSACHSEN
100
AcDbLine
 62
7
  6
CONTINUOUS
 10
124.244863778
 20
197.628527045
 11
124.1633741061
 21
195.2362976283
  0
LINE
  5
296
100
AcDbEntity
  8
BEZUGSACHSEN
100
AcDbLine
 62
7
  6
CONTINUOUS
 10
116.8143302874
 20
194.5405573921
 11
116.8464502251
 21
195.1905748218
  0
LINE
  5
297
100
AcDbEntity
  8
0
100
AcDbLine
 62
7
  6
CONTINUOUS
 10
73.1291614601
 20
170.5838837954
 11
63.7135304056
 21
144.7146500833
  0
LINE
  5
298
100
AcDbEntity
  8
BEZUGSACHSEN
100
AcDbLine
 62
7
  6
CONTINUOUS
 10
154.8294865998
 20
161.5188921417
 11
154.0234439882
 21
161.2921380116
  0
LINE
  5
299
100
AcDbEntity
  8
BEZUGSACHSEN
100
AcDbLine
 62
7
  6
CONTINUOUS
 10
153.5287875899
 20
177.7244749675
 11
154.310584902
 21
177.9282481621
  0
LINE
  5
29A
100
AcDbEntity
  8
BEZUGSACHSEN
100
AcDbLine
 62
7
  6
CONTINUOUS
 10
151.9570029684
 20
171.767229131
 11
152.5926313016
 21
171.9069809121
  0
LINE
  5
29B
100
AcDbEntity
  8
BEZUGSACHSEN
100
AcDbLine
 62
7
  6
CONTINUOUS
 10
153.8345135159
 20
177.0264640371
 11
154.4701417467
 21
177.1662157734
  0
LINE
  5
29C
100
AcDbEntity
  8
0
100
AcDbLine
 62
7
  6
CONTINUOUS
 10
339.5261601648
 20
205.2569891389
 11
355.3952386498
 21
208.6300658985
  0
LINE
  5
29D
100
AcDbEntity
  8
BEZUGSACHSEN
100
AcDbLine
 62
7
  6
CONTINUOUS
 10
151.9436144884
 20
172.5932826643
 11
152.4330740474
 21
172.6690131215
  0
LINE
  5
29E
100
AcDbEntity
  8
BEZUGSACHSEN
100
AcDbLine
 62
7
  6
CONTINUOUS
 10
151.4409880374
 20
179.4018057983
 11
152.183117728
 21
179.4446951829
  0
LINE
  5
29F
100
AcDbEntity
  8
BEZUGSACHSEN
100
AcDbLine
 62
7
  6
CONTINUOUS
 10
118.9992064562
 20
192.8575391827
 11
122.045553947
 21
192.7537674224
  0
LINE
  5
2A0
100
AcDbEntity
  8
BEZUGSACHSEN
100
AcDbLine
 62
7
  6
CONTINUOUS
 10
119.7933891984
 20
193.7884880316
 11
122.0781498165
 21
193.7106592115
  0
LINE
  5
2A1
100
AcDbEntity
  8
BEZUGSACHSEN
100
AcDbLine
 62
7
  6
CONTINUOUS
 10
119.983531775
 20
199.3703569311
 11
122.2682923931
 21
199.292528111
  0
LINE
  5
2A2
100
AcDbEntity
  8
BEZUGSACHSEN
100
AcDbLine
 62
7
  6
CONTINUOUS
 10
119.254540768
 20
200.3531915485
 11
122.3008882588
 21
200.2494197883
  0
LINE
  5
2A3
100
AcDbEntity
  8
BEZUGSACHSEN
100
AcDbLine
 62
7
  6
CONTINUOUS
 10
108.7503054515
 20
197.7050030563
 11
109.1623032469
 21
197.6751078804
  0
LINE
  5
2A4
100
AcDbEntity
  8
BEZUGSACHSEN
100
AcDbLine
 62
7
  6
CONTINUOUS
 10
114.8100772634
 20
192.4692526008
 11
115.4616274552
 21
192.4044349529
  0
LINE
  5
2A5
100
AcDbEntity
  8
0
100
AcDbLine
 62
7
  6
CONTINUOUS
 10
131.2528059303
 20
205.2569891389
 11
115.3837274453
 21
208.6300658985
  0
LINE
  5
2A6
100
AcDbEntity
  8
0
100
AcDbLine
 62
7
  6
CONTINUOUS
 10
335.6710655307
 20
103.4950912535
 11
341.4173779829
 21
100.1774562124
  0
LINE
  5
2A7
100
AcDbEntity
  8
BEZUGSACHSEN
100
AcDbLine
 62
7
  6
CONTINUOUS
 10
153.1438347377
 20
174.2281998392
 11
153.6024236267
 21
173.1811834436
  0
LINE
  5
2A8
100
AcDbEntity
  8
BEZUGSACHSEN
100
AcDbLine
 62
7
  6
CONTINUOUS
 10
154.0208467686
 20
174.6123275134
 11
154.7851615837
 21
172.8673001875
  0
LINE
  5
2A9
100
AcDbEntity
  8
BEZUGSACHSEN
100
AcDbLine
 62
7
  6
CONTINUOUS
 10
155.7949537041
 20
174.1415026292
 11
156.1006796301
 21
173.4434916989
  0
LINE
  5
2AA
100
AcDbEntity
  8
BEZUGSACHSEN
100
AcDbLine
 62
7
  6
CONTINUOUS
 10
155.8057442424
 20
176.5033245687
 11
156.2643331315
 21
175.4563081731
  0
LINE
  5
2AB
100
AcDbEntity
  8
BEZUGSACHSEN
100
AcDbLine
 62
7
  6
CONTINUOUS
 10
156.6827562734
 20
176.887452243
 11
157.1413451624
 21
175.8404358474
  0
LINE
  5
2AC
100
AcDbEntity
  8
BEZUGSACHSEN
100
AcDbLine
 62
7
  6
CONTINUOUS
 10
156.5363220719
 20
160.0630010064
 11
156.6828580043
 21
159.6767845833
  0
LINE
  5
2AD
100
AcDbEntity
  8
BEZUGSACHSEN
100
AcDbLine
 62
7
  6
CONTINUOUS
 10
159.2475216857
 20
159.9708247363
 11
159.3940576182
 21
159.5846083131
  0
LINE
  5
2AE
100
AcDbEntity
  8
BEZUGSACHSEN
100
AcDbLine
 62
7
  6
CONTINUOUS
 10
153.7050620541
 20
182.318155813
 11
153.929389009
 21
181.7030172353
  0
LINE
  5
2AF
100
AcDbEntity
  8
BEZUGSACHSEN
100
AcDbLine
 62
7
  6
CONTINUOUS
 10
152.669907216
 20
159.0507493337
 11
152.8078123798
 21
158.4106739234
  0
LINE
  5
2B0
100
AcDbEntity
  8
BEZUGSACHSEN
100
AcDbLine
 62
7
  6
CONTINUOUS
 10
157.3380491805
 20
160.162825647
 11
157.4759541327
 21
159.5227444267
  0
LINE
  5
2B1
100
AcDbEntity
  8
BEZUGSACHSEN
100
AcDbLine
 62
7
  6
CONTINUOUS
 10
160.0492487943
 20
160.0706493768
 11
160.1871537466
 21
159.4305681566
  0
LINE
  5
2B2
100
AcDbEntity
  8
BEZUGSACHSEN
100
AcDbLine
 62
7
  6
CONTINUOUS
 10
153.1159804198
 20
181.7652422526
 11
153.1977479459
 21
181.3603348846
  0
LINE
  5
2B3
100
AcDbEntity
  8
BEZUGSACHSEN
100
AcDbLine
 62
7
  6
CONTINUOUS
 10
149.7042241808
 20
174.5241506043
 11
149.8128278787
 21
173.8784517692
  0
LINE
  5
2B4
100
AcDbEntity
  8
BEZUGSACHSEN
100
AcDbLine
 62
7
  6
CONTINUOUS
 10
124.1450963534
 20
198.4302610297
 11
124.244863778
 21
197.628527045
  0
LINE
  5
2B5
100
AcDbEntity
  8
BEZUGSACHSEN
100
AcDbLine
 62
7
  6
CONTINUOUS
 10
150.6321898448
 20
174.7919449378
 11
150.689840012
 21
174.2625794883
  0
LINE
  5
2B6
100
AcDbEntity
  8
BEZUGSACHSEN
100
AcDbLine
 62
7
  6
CONTINUOUS
 10
156.2643331315
 20
175.4563081731
 11
156.3219809662
 21
174.9269480489
  0
LINE
  5
2B7
100
AcDbEntity
  8
0
100
AcDbLine
 62
7
  6
CONTINUOUS
 10
167.749804635
 20
150.4716452191
 11
164.625175834
 21
180.200502416
  0
LINE
  5
2B8
100
AcDbEntity
  8
BEZUGSACHSEN
100
AcDbLine
 62
7
  6
CONTINUOUS
 10
152.5650815759
 20
163.4913034716
 11
152.6350803818
 21
162.7324966662
  0
LINE
  5
2B9
100
AcDbEntity
  8
BEZUGSACHSEN
100
AcDbLine
 62
7
  6
CONTINUOUS
 10
160.0333721023
 20
164.1802422303
 11
160.1033709082
 21
163.4214354249
  0
LINE
  5
2BA
100
AcDbEntity
  8
BEZUGSACHSEN
100
AcDbLine
 62
7
  6
CONTINUOUS
 10
124.0092802234
 20
194.4432117041
 11
124.1633741061
 21
195.2362976283
  0
LINE
  5
2BB
100
AcDbEntity
  8
BEZUGSACHSEN
100
AcDbLine
 62
7
  6
CONTINUOUS
 10
110.5775348423
 20
195.4571893802
 11
110.7353808892
 21
196.1836056537
  0
LINE
  5
2BC
100
AcDbEntity
  8
BEZUGSACHSEN
100
AcDbLine
 62
7
  6
CONTINUOUS
 10
123.253125995
 20
194.6286365904
 11
123.4017872334
 21
195.2622405684
  0
LINE
  5
2BD
100
AcDbEntity
  8
BEZUGSACHSEN
100
AcDbLine
 62
7
  6
CONTINUOUS
 10
117.4337612748
 20
193.8257223242
 11
117.5915150699
 21
194.4943467935
  0
LINE
  5
2BE
100
AcDbEntity
  8
BEZUGSACHSEN
100
AcDbLine
 62
7
  6
CONTINUOUS
 10
116.6331978121
 20
194.0297856319
 11
116.8143302874
 21
194.5405573921
  0
LINE
  5
2BF
100
AcDbEntity
  8
BEZUGSACHSEN
100
AcDbLine
 62
7
  6
CONTINUOUS
 10
109.8230979355
 20
195.7086976881
 11
109.9622156481
 21
196.0921337157
  0
LINE
  5
2C0
100
AcDbEntity
  8
KONSTRUKTIONSELEMENTE
100
AcDbLine
 62
7
  6
CONTINUOUS
 10
29.9801556744
 20
116.9426060404
 11
31.7479226274
 21
120.0044682189
  0
LINE
  5
2C1
100
AcDbEntity
  8
KONSTRUKTIONSELEMENTE
100
AcDbLine
 62
7
  6
CONTINUOUS
 10
29.9886546558
 20
97.7972020677
 11
31.1907361838
 21
99.8792683491
  0
LINE
  5
2C2
100
AcDbEntity
  8
KONSTRUKTIONSELEMENTE
100
AcDbLine
 62
7
  6
CONTINUOUS
 10
29.5431259701
 20
96.0478520122
 11
29.8259686826
 21
96.5377499607
  0
LINE
  5
2C3
100
AcDbEntity
  8
0
100
AcDbLine
 62
7
  6
CONTINUOUS
 10
88.0754674868
 20
196.4716452191
 11
73.1291614601
 21
170.5838837954
  0
LINE
  5
2C4
100
AcDbEntity
  8
BEZUGSACHSEN
100
AcDbLine
 62
7
  6
CONTINUOUS
 10
122.0781498165
 20
193.7106592115
 11
122.5913065584
 21
193.8528458808
  0
LINE
  5
2C5
100
AcDbEntity
  8
BEZUGSACHSEN
100
AcDbLine
 62
7
  6
CONTINUOUS
 10
122.045553947
 20
192.7537674224
 11
122.6856428032
 21
192.8916302494
  0
LINE
  5
2C6
100
AcDbEntity
  8
BEZUGSACHSEN
100
AcDbLine
 62
7
  6
CONTINUOUS
 10
115.4616274552
 20
192.4044349529
 11
115.9641651073
 21
192.4788629883
  0
LINE
  5
2C7
100
AcDbEntity
  8
BEZUGSACHSEN
100
AcDbLine
 62
7
  6
CONTINUOUS
 10
115.3213554562
 20
193.3515506548
 11
115.8238931083
 21
193.4259786903
  0
LINE
  5
2C8
100
AcDbEntity
  8
BEZUGSACHSEN
100
AcDbLine
 62
7
  6
CONTINUOUS
 10
112.3526805969
 20
199.5257959879
 11
113.1064870751
 21
199.637438041
  0
LINE
  5
2C9
100
AcDbEntity
  8
BEZUGSACHSEN
100
AcDbLine
 62
7
  6
CONTINUOUS
 10
116.12171155
 20
200.0840060407
 11
116.8755176688
 21
200.1956480406
  0
LINE
  5
2CA
100
AcDbEntity
  8
BEZUGSACHSEN
100
AcDbLine
 62
7
  6
CONTINUOUS
 10
108.3757646692
 20
198.4208588397
 11
109.0285408766
 21
198.4718751116
  0
LINE
  5
2CB
100
AcDbEntity
  8
BEZUGSACHSEN
100
AcDbLine
 62
7
  6
CONTINUOUS
 10
157.1413451624
 20
175.8404358474
 11
157.2499465406
 21
175.1947423433
  0
LINE
  5
2CC
100
AcDbEntity
  8
0
100
AcDbLine
 62
7
  6
CONTINUOUS
 10
165.3894830476
 20
479.6270048373
 11
165.3894830476
 21
359.6270048373
  0
LINE
  5
2CD
100
AcDbEntity
  8
BEZUGSACHSEN
100
AcDbLine
 62
7
  6
CONTINUOUS
 10
152.6914845677
 20
159.6854084213
 11
152.669907216
 21
159.0507493337
  0
LINE
  5
2CE
100
AcDbEntity
  8
BEZUGSACHSEN
100
AcDbLine
 62
7
  6
CONTINUOUS
 10
153.4932115904
 20
159.7852272477
 11
153.4630034561
 21
158.8967091734
  0
LINE
  5
2CF
100
AcDbEntity
  8
BEZUGSACHSEN
100
AcDbLine
 62
7
  6
CONTINUOUS
 10
156.6828580043
 20
159.6767845833
 11
156.65264987
 21
158.788266509
  0
LINE
  5
2D0
100
AcDbEntity
  8
BEZUGSACHSEN
100
AcDbLine
 62
7
  6
CONTINUOUS
 10
157.4759541327
 20
159.5227444267
 11
157.4543767811
 21
158.8880853391
  0
LINE
  5
2D1
100
AcDbEntity
  8
BEZUGSACHSEN
100
AcDbLine
 62
7
  6
CONTINUOUS
 10
158.3767475259
 20
157.8401049604
 11
158.3551701742
 21
157.2054458728
  0
LINE
  5
2D2
100
AcDbEntity
  8
BEZUGSACHSEN
100
AcDbLine
 62
7
  6
CONTINUOUS
 10
159.3940576182
 20
159.5846083131
 11
159.3681648752
 21
158.8230197322
  0
LINE
  5
2D3
100
AcDbEntity
  8
BEZUGSACHSEN
100
AcDbLine
 62
7
  6
CONTINUOUS
 10
160.1871537466
 20
159.4305681566
 11
160.1698919837
 21
158.9228443727
  0
LINE
  5
2D4
100
AcDbEntity
  8
BEZUGSACHSEN
100
AcDbLine
 62
7
  6
CONTINUOUS
 10
149.79274389
 20
175.117534687
 11
149.7042241808
 21
174.5241506043
  0
LINE
  5
2D5
100
AcDbEntity
  8
BEZUGSACHSEN
100
AcDbLine
 62
7
  6
CONTINUOUS
 10
157.2499465406
 20
175.1947423433
 11
157.161428036
 21
174.6013556147
  0
LINE
  5
2D6
100
AcDbEntity
  8
BEZUGSACHSEN
100
AcDbLine
 62
7
  6
CONTINUOUS
 10
153.929389009
 20
181.7030172353
 11
153.8182921994
 21
181.0138743584
  0
LINE
  5
2D7
100
AcDbEntity
  8
BEZUGSACHSEN
100
AcDbLine
 62
7
  6
CONTINUOUS
 10
123.7336868674
 20
193.8139314707
 11
124.0092802234
 21
194.4432117041
  0
LINE
  5
2D8
100
AcDbEntity
  8
RUNDUNGEN
100
AcDbLine
 62
7
  6
CONTINUOUS
 10
50.5775006399
 20
114.5232614597
 11
71.1423283232
 21
150.1425878561
  0
LINE
  5
2D9
100
AcDbEntity
  8
KONSTRUKTIONSELEMENTE
100
AcDbLine
 62
7
  6
CONTINUOUS
 10
72.366407278
 20
124.5669787111
 11
67.1673338651
 21
115.5619194078
  0
LINE
  5
2DA
100
AcDbEntity
  8
BEZUGSACHSEN
100
AcDbLine
 62
7
  6
CONTINUOUS
 10
152.8725442373
 20
160.3146453758
 11
152.6914845677
 21
159.6854084213
  0
LINE
  5
2DB
100
AcDbEntity
  8
BEZUGSACHSEN
100
AcDbLine
 62
7
  6
CONTINUOUS
 10
157.4543767811
 20
158.8880853391
 11
157.273317323
 21
158.2588541946
  0
LINE
  5
2DC
100
AcDbEntity
  8
BEZUGSACHSEN
100
AcDbLine
 62
7
  6
CONTINUOUS
 10
160.1698919837
 20
158.9228443727
 11
159.9888323281
 21
158.2936074178
  0
LINE
  5
2DD
100
AcDbEntity
  8
BEZUGSACHSEN
100
AcDbLine
 62
7
  6
CONTINUOUS
 10
150.7716643278
 20
175.268993006
 11
150.6321898448
 21
174.7919449378
  0
LINE
  5
2DE
100
AcDbEntity
  8
BEZUGSACHSEN
100
AcDbLine
 62
7
  6
CONTINUOUS
 10
156.3219809662
 20
174.9269480489
 11
156.1825065856
 21
174.4499000257
  0
LINE
  5
2DF
100
AcDbEntity
  8
BEZUGSACHSEN
100
AcDbLine
 62
7
  6
CONTINUOUS
 10
153.1977479459
 20
181.3603348846
 11
153.0761625089
 21
180.9709849739
  0
LINE
  5
2E0
100
AcDbEntity
  8
BEZUGSACHSEN
100
AcDbLine
 62
7
  6
CONTINUOUS
 10
122.9829652871
 20
194.1588384149
 11
123.253125995
 21
194.6286365904
  0
LINE
  5
2E1
100
AcDbEntity
  8
0
100
AcDbLine
 62
7
  6
CONTINUOUS
 10
195.6019533365
 20
316.7129818701
 11
112.6603522602
 21
173.0539147449
  0
LINE
  5
2E2
100
AcDbEntity
  8
KONSTRUKTIONSELEMENTE
100
AcDbLine
 62
7
  6
CONTINUOUS
 10
34.6868745366
 20
32.9598896847
 11
26.2649294571
 21
18.3726529085
  0
LINE
  5
2E3
100
AcDbEntity
  8
0
100
AcDbLine
 62
7
  6
CONTINUOUS
 10
71.0517648116
 20
92.5857272526
 11
80.0296401192
 21
108.1358634295
  0
LINE
  5
2E4
100
AcDbEntity
  8
KONSTRUKTIONSELEMENTE
100
AcDbLine
 62
7
  6
CONTINUOUS
 10
80.0296401192
 20
108.1358634295
 11
90.9184594942
 21
126.9958518215
  0
LINE
  5
2E5
100
AcDbEntity
  8
KONSTRUKTIONSELEMENTE
100
AcDbLine
 62
7
  6
CONTINUOUS
 10
107.7146979686
 20
154.4877902351
 11
104.3543857575
 21
148.6675587561
  0
LINE
  5
2E6
100
AcDbEntity
  8
KONSTRUKTIONSELEMENTE
100
AcDbLine
 62
7
  6
CONTINUOUS
 10
92.1583487825
 20
127.5434030645
 11
86.8550479236
 21
118.357816529
  0
LINE
  5
2E7
100
AcDbEntity
  8
KONSTRUKTIONSELEMENTE
100
AcDbLine
 62
7
  6
CONTINUOUS
 10
27.9048398993
 20
14.8130611143
 11
36.9558066985
 21
30.4897954681
  0
LINE
  5
2E8
100
AcDbEntity
  8
KONSTRUKTIONSELEMENTE
100
AcDbLine
 62
7
  6
CONTINUOUS
 10
111.6118122856
 20
152.2377902351
 11
107.5707401527
 21
145.2384479838
  0
LINE
  5
2E9
100
AcDbEntity
  8
KONSTRUKTIONSELEMENTE
100
AcDbLine
 62
7
  6
CONTINUOUS
 10
96.0554630995
 20
125.2934030645
 11
90.7521622406
 21
116.107816529
  0
LINE
  5
2EA
100
AcDbEntity
  8
KONSTRUKTIONSELEMENTE
100
AcDbLine
 62
7
  6
CONTINUOUS
 10
115.349208237
 20
156.7111499108
 11
111.9893230759
 21
150.8916581043
  0
LINE
  5
2EB
100
AcDbEntity
  8
KONSTRUKTIONSELEMENTE
100
AcDbLine
 62
7
  6
CONTINUOUS
 10
92.1067022579
 20
116.4539486598
 11
90.5244195381
 21
113.7133545972
  0
LINE
  5
2EC
100
AcDbEntity
  8
KONSTRUKTIONSELEMENTE
100
AcDbLine
 62
7
  6
CONTINUOUS
 10
100.8409607479
 20
131.0821281309
 11
96.7378685884
 21
123.9753640426
  0
LINE
  5
2ED
100
AcDbEntity
  8
BEZUGSACHSEN
100
AcDbLine
 62
7
  6
CONTINUOUS
 10
117.0247382859
 20
193.1198838392
 11
117.4337612748
 21
193.8257223242
  0
LINE
  5
2EE
100
AcDbEntity
  8
BEZUGSACHSEN
100
AcDbLine
 62
7
  6
CONTINUOUS
 10
110.1976390622
 20
194.9928420204
 11
110.5775348423
 21
195.4571893802
  0
LINE
  5
2EF
100
AcDbEntity
  8
0
100
AcDbLine
 62
7
  6
CONTINUOUS
 10
355.3952386498
 20
208.6300658985
 11
382.7034986083
 21
196.4716452191
  0
LINE
  5
2F0
100
AcDbEntity
  8
0
100
AcDbLine
 62
7
  6
CONTINUOUS
 10
335.6710655307
 20
103.4950912535
 11
317.9754674868
 21
124.5838837954
  0
LINE
  5
2F1
100
AcDbEntity
  8
BEZUGSACHSEN
100
AcDbLine
 62
7
  6
CONTINUOUS
 10
153.6656402658
 20
160.1605994055
 11
153.4932115904
 21
159.7852272477
  0
LINE
  5
2F2
100
AcDbEntity
  8
BEZUGSACHSEN
100
AcDbLine
 62
7
  6
CONTINUOUS
 10
156.65264987
 20
158.788266509
 11
156.4802211946
 21
158.4128943512
  0
LINE
  5
2F3
100
AcDbEntity
  8
BEZUGSACHSEN
100
AcDbLine
 62
7
  6
CONTINUOUS
 10
159.3681648752
 20
158.8230197322
 11
159.1957361997
 21
158.4476475743
  0
LINE
  5
2F4
100
AcDbEntity
  8
BEZUGSACHSEN
100
AcDbLine
 62
7
  6
CONTINUOUS
 10
153.8182921994
 20
181.0138743584
 11
153.5038424269
 21
180.3402889389
  0
LINE
  5
2F5
100
AcDbEntity
  8
BEZUGSACHSEN
100
AcDbLine
 62
7
  6
CONTINUOUS
 10
150.173602122
 20
175.8389586707
 11
149.79274389
 21
175.117534687
  0
LINE
  5
2F6
100
AcDbEntity
  8
BEZUGSACHSEN
100
AcDbLine
 62
7
  6
CONTINUOUS
 10
157.161428036
 20
174.6013556147
 11
156.7805698552
 21
173.8799316534
  0
LINE
  5
2F7
100
AcDbEntity
  8
KONSTRUKTIONSELEMENTE
100
AcDbLine
 62
7
  6
CONTINUOUS
 10
104.7380750649
 20
128.8321281309
 11
100.6349829054
 21
121.7253640426
  0
LINE
  5
2F8
100
AcDbEntity
  8
KONSTRUKTIONSELEMENTE
100
AcDbLine
 62
7
  6
CONTINUOUS
 10
119.6793352559
 20
154.2111499108
 11
116.3194500948
 21
148.3916581043
  0
LINE
  5
2F9
100
AcDbEntity
  8
KONSTRUKTIONSELEMENTE
100
AcDbLine
 62
7
  6
CONTINUOUS
 10
96.4368292768
 20
113.9539486598
 11
94.854546557
 21
111.2133545972
  0
LINE
  5
2FA
100
AcDbEntity
  8
KONSTRUKTIONSELEMENTE
100
AcDbLine
 62
7
  6
CONTINUOUS
 10
96.8143400671
 20
112.607816529
 11
102.117640926
 21
121.7934030645
  0
LINE
  5
2FB
100
AcDbEntity
  8
KONSTRUKTIONSELEMENTE
100
AcDbLine
 62
7
  6
CONTINUOUS
 10
113.6329179792
 20
141.7384479838
 11
117.6739901121
 21
148.7377902351
  0
LINE
  5
2FC
100
AcDbEntity
  8
KONSTRUKTIONSELEMENTE
100
AcDbLine
 62
7
  6
CONTINUOUS
 10
40.5141697784
 20
7.5330611143
 11
49.5651365776
 21
23.2097954681
  0
LINE
  5
2FD
100
AcDbEntity
  8
KONSTRUKTIONSELEMENTE
100
AcDbLine
 62
7
  6
CONTINUOUS
 10
100.7114543841
 20
110.357816529
 11
106.014755243
 21
119.5434030645
  0
LINE
  5
2FE
100
AcDbEntity
  8
KONSTRUKTIONSELEMENTE
100
AcDbLine
 62
7
  6
CONTINUOUS
 10
118.210792218
 20
140.6675587561
 11
121.5711044291
 21
146.4877902351
  0
LINE
  5
2FF
100
AcDbEntity
  8
0
100
AcDbLine
 62
7
  6
CONTINUOUS
 10
95.2716872259
 20
99.3358634296
 11
86.2938119182
 21
83.7857272526
  0
LINE
  5
300
100
AcDbEntity
  8
KONSTRUKTIONSELEMENTE
100
AcDbLine
 62
7
  6
CONTINUOUS
 10
95.2716872259
 20
99.3358634296
 11
106.1605066009
 21
118.1958518215
  0
LINE
  5
301
100
AcDbEntity
  8
KONSTRUKTIONSELEMENTE
100
AcDbLine
 62
7
  6
CONTINUOUS
 10
44.4168219205
 20
7.8926529085
 11
52.6192605822
 21
22.0996934167
  0
LINE
  5
302
100
AcDbEntity
  8
0
100
AcDbLine
 62
7
  6
CONTINUOUS
 10
218.1186138349
 20
303.7129818701
 11
135.1770127586
 21
160.0539147449
  0
LINE
  5
303
100
AcDbEntity
  8
KONSTRUKTIONSELEMENTE
100
AcDbLine
 62
7
  6
CONTINUOUS
 10
113.3330668928
 20
100.9148667547
 11
108.13399348
 21
91.9098074513
  0
LINE
  5
304
100
AcDbEntity
  8
BEZUGSACHSEN
100
AcDbLine
 62
7
  6
CONTINUOUS
 10
123.2042321908
 20
193.1932989069
 11
123.7336868674
 21
193.8139314707
  0
LINE
  5
305
100
AcDbEntity
  8
BEZUGSACHSEN
100
AcDbLine
 62
7
  6
CONTINUOUS
 10
116.3030520967
 20
193.6582593243
 11
116.6331978121
 21
194.0297856319
  0
LINE
  5
306
100
AcDbEntity
  8
BEZUGSACHSEN
100
AcDbLine
 62
7
  6
CONTINUOUS
 10
109.5127608395
 20
195.4360682843
 11
109.8230979355
 21
195.7086976881
  0
LINE
  5
307
100
AcDbEntity
  8
0
100
AcDbLine
 62
7
  6
CONTINUOUS
 10
317.9754674868
 20
124.5838837954
 11
303.0291614601
 21
150.4716452191
  0
LINE
  5
308
100
AcDbEntity
  8
RUNDUNGEN
100
AcDbLine
 62
7
  6
CONTINUOUS
 10
136.0942334493
 20
112.642587583
 11
115.5294059237
 21
77.0232614597
  0
LINE
  5
309
100
AcDbEntity
  8
KONSTRUKTIONSELEMENTE
100
AcDbLine
 62
7
  6
CONTINUOUS
 10
84.2116928218
 20
17.1123942781
 11
82.4439258688
 21
14.0505320996
  0
LINE
  5
30A
100
AcDbEntity
  8
0
100
AcDbLine
 62
7
  6
CONTINUOUS
 10
152.8034986083
 20
124.5838837954
 11
167.749804635
 21
150.4716452191
  0
LINE
  5
30B
100
AcDbEntity
  8
BEZUGSACHSEN
100
AcDbLine
 62
7
  6
CONTINUOUS
 10
151.10826209
 20
175.6937262656
 11
150.7716643278
 21
175.268993006
  0
LINE
  5
30C
100
AcDbEntity
  8
BEZUGSACHSEN
100
AcDbLine
 62
7
  6
CONTINUOUS
 10
150.8917226825
 20
179.6431519226
 11
148.495576233
 21
176.6372425574
  0
LINE
  5
30D
100
AcDbEntity
  8
BEZUGSACHSEN
100
AcDbLine
 62
7
  6
CONTINUOUS
 10
150.1998978988
 20
180.0947292566
 11
147.9966174164
 21
177.3730529943
  0
LINE
  5
30E
100
AcDbEntity
  8
BEZUGSACHSEN
100
AcDbLine
 62
7
  6
CONTINUOUS
 10
153.0761625089
 20
180.9709849739
 11
152.7512257404
 21
180.5971901145
  0
LINE
  5
30F
100
AcDbEntity
  8
BEZUGSACHSEN
100
AcDbLine
 62
7
  6
CONTINUOUS
 10
153.5038424269
 20
180.3402889389
 11
153.1789056584
 21
179.9664940795
  0
LINE
  5
310
100
AcDbEntity
  8
BEZUGSACHSEN
100
AcDbLine
 62
7
  6
CONTINUOUS
 10
116.5689579675
 20
192.7297505652
 11
117.0247382859
 21
193.1198838392
  0
LINE
  5
311
100
AcDbEntity
  8
BEZUGSACHSEN
100
AcDbLine
 62
7
  6
CONTINUOUS
 10
122.5913065584
 20
193.8528458808
 11
122.9829652871
 21
194.1588384149
  0
LINE
  5
312
100
AcDbEntity
  8
0
100
AcDbLine
 62
7
  6
CONTINUOUS
 10
334.6847326458
 20
112.642587583
 11
355.2495601714
 21
77.0232614597
  0
LINE
  5
313
100
AcDbEntity
  8
0
100
AcDbLine
 62
7
  6
CONTINUOUS
 10
357.4458992023
 20
100.9148667547
 11
362.6449726151
 21
91.9098074513
  0
LINE
  5
314
100
AcDbEntity
  8
BEZUGSACHSEN
100
AcDbLine
 62
7
  6
CONTINUOUS
 10
153.3725683451
 20
160.9330322536
 11
152.8725442373
 21
160.3146453758
  0
LINE
  5
315
100
AcDbEntity
  8
BEZUGSACHSEN
100
AcDbLine
 62
7
  6
CONTINUOUS
 10
157.273317323
 20
158.2588541946
 11
156.7732930595
 21
157.6404615049
  0
LINE
  5
316
100
AcDbEntity
  8
BEZUGSACHSEN
100
AcDbLine
 62
7
  6
CONTINUOUS
 10
159.9888323281
 20
158.2936074178
 11
159.4888080646
 21
157.6752147281
  0
LINE
  5
317
100
AcDbEntity
  8
BEZUGSACHSEN
100
AcDbLine
 62
7
  6
CONTINUOUS
 10
153.9975512452
 20
160.5305494307
 11
153.6656402658
 21
160.1605994055
  0
LINE
  5
318
100
AcDbEntity
  8
BEZUGSACHSEN
100
AcDbLine
 62
7
  6
CONTINUOUS
 10
156.4802211946
 20
158.4128943512
 11
156.1483102152
 21
158.042944326
  0
LINE
  5
319
100
AcDbEntity
  8
BEZUGSACHSEN
100
AcDbLine
 62
7
  6
CONTINUOUS
 10
159.1957361997
 20
158.4476475743
 11
158.8638252203
 21
158.0776975492
  0
LINE
  5
31A
100
AcDbEntity
  8
BEZUGSACHSEN
100
AcDbLine
 62
7
  6
CONTINUOUS
 10
150.6563674921
 20
176.327715917
 11
150.173602122
 21
175.8389586707
  0
LINE
  5
31B
100
AcDbEntity
  8
BEZUGSACHSEN
100
AcDbLine
 62
7
  6
CONTINUOUS
 10
122.6856428032
 20
192.8916302494
 11
123.2042321908
 21
193.1932989069
  0
LINE
  5
31C
100
AcDbEntity
  8
BEZUGSACHSEN
100
AcDbLine
 62
7
  6
CONTINUOUS
 10
115.8238931083
 20
193.4259786903
 11
116.3030520967
 21
193.6582593243
  0
LINE
  5
31D
100
AcDbEntity
  8
0
100
AcDbLine
 62
7
  6
CONTINUOUS
 10
115.3837274453
 20
208.6300658985
 11
88.0754674868
 21
196.4716452191
  0
LINE
  5
31E
100
AcDbEntity
  8
0
100
AcDbLine
 62
7
  6
CONTINUOUS
 10
335.6311527984
 20
160.0033397934
 11
252.6311527984
 21
303.7635568216
  0
LINE
  5
31F
100
AcDbEntity
  8
0
100
AcDbLine
 62
7
  6
CONTINUOUS
 10
364.6184594942
 20
118.1958518215
 11
384.4851541769
 21
83.7857272526
  0
LINE
  5
320
100
AcDbEntity
  8
KONSTRUKTIONSELEMENTE
100
AcDbLine
 62
7
  6
CONTINUOUS
 10
141.9899354497
 20
50.575707729
 11
140.2221684968
 21
47.5138455505
  0
LINE
  5
321
100
AcDbEntity
  8
0
100
AcDbLine
 62
7
  6
CONTINUOUS
 10
135.1079005644
 20
103.4950912535
 11
152.8034986083
 21
124.5838837954
  0
LINE
  5
322
100
AcDbEntity
  8
BEZUGSACHSEN
100
AcDbLine
 62
7
  6
CONTINUOUS
 10
156.1825065856
 20
174.4499000257
 11
155.7949537041
 21
174.1415026292
  0
LINE
  5
323
100
AcDbEntity
  8
BEZUGSACHSEN
100
AcDbLine
 62
7
  6
CONTINUOUS
 10
156.1483102152
 20
158.042944326
 11
155.8207146271
 21
157.7999237942
  0
LINE
  5
324
100
AcDbEntity
  8
BEZUGSACHSEN
100
AcDbLine
 62
7
  6
CONTINUOUS
 10
156.7732930595
 20
157.6404615049
 11
156.2818997762
 21
157.2759336124
  0
LINE
  5
325
100
AcDbEntity
  8
BEZUGSACHSEN
100
AcDbLine
 62
7
  6
CONTINUOUS
 10
151.6419832338
 20
176.0661447618
 11
151.10826209
 21
175.6937262656
  0
LINE
  5
326
100
AcDbEntity
  8
BEZUGSACHSEN
100
AcDbLine
 62
7
  6
CONTINUOUS
 10
147.87510232
 20
182.0476510243
 11
151.9943423822
 21
184.8409399529
  0
LINE
  5
327
100
AcDbEntity
  8
BEZUGSACHSEN
100
AcDbLine
 62
7
  6
CONTINUOUS
 10
147.0015169818
 20
180.5345568337
 11
148.988138675
 21
181.8817005537
  0
LINE
  5
328
100
AcDbEntity
  8
BEZUGSACHSEN
100
AcDbLine
 62
7
  6
CONTINUOUS
 10
149.7805732724
 20
182.4190566568
 11
151.7616601357
 21
183.7624471654
  0
LINE
  5
329
100
AcDbEntity
  8
BEZUGSACHSEN
100
AcDbLine
 62
7
  6
CONTINUOUS
 10
152.7512257404
 20
180.5971901145
 11
152.3550080717
 21
180.3285118121
  0
LINE
  5
32A
100
AcDbEntity
  8
BEZUGSACHSEN
100
AcDbLine
 62
7
  6
CONTINUOUS
 10
153.1789056584
 20
179.9664940795
 11
152.6506155568
 21
179.6082564266
  0
LINE
  5
32B
100
AcDbEntity
  8
BEZUGSACHSEN
100
AcDbLine
 62
7
  6
CONTINUOUS
 10
151.3362573078
 20
176.7641556921
 11
150.6563674921
 21
176.327715917
  0
LINE
  5
32C
100
AcDbEntity
  8
BEZUGSACHSEN
100
AcDbLine
 62
7
  6
CONTINUOUS
 10
156.7805698552
 20
173.8799316534
 11
156.1006796301
 21
173.4434916989
  0
LINE
  5
32D
100
AcDbEntity
  8
BEZUGSACHSEN
100
AcDbLine
 62
7
  6
CONTINUOUS
 10
115.9641651073
 20
192.4788629883
 11
116.5689579675
 21
192.7297505652
  0
LINE
  5
32E
100
AcDbEntity
  8
BEZUGSACHSEN
100
AcDbLine
 62
7
  6
CONTINUOUS
 10
105.4864251034
 20
197.4499219284
 11
108.3757646692
 21
198.4208588397
  0
LINE
  5
32F
100
AcDbEntity
  8
BEZUGSACHSEN
100
AcDbLine
 62
7
  6
CONTINUOUS
 10
106.4629117434
 20
196.9363447068
 11
108.7503054515
 21
197.7050030563
  0
LINE
  5
330
100
AcDbEntity
  8
BEZUGSACHSEN
100
AcDbLine
 62
7
  6
CONTINUOUS
 10
107.2253671313
 20
194.6674099347
 11
109.5127608395
 21
195.4360682843
  0
LINE
  5
331
100
AcDbEntity
  8
BEZUGSACHSEN
100
AcDbLine
 62
7
  6
CONTINUOUS
 10
107.5303492296
 20
193.7598361953
 11
109.576964698
 21
194.4475831549
  0
LINE
  5
332
100
AcDbEntity
  8
BEZUGSACHSEN
100
AcDbLine
 62
7
  6
CONTINUOUS
 10
107.8754518243
 20
190.3405934561
 11
108.5977867158
 21
190.5833276839
  0
LINE
  5
333
100
AcDbEntity
  8
BEZUGSACHSEN
100
AcDbLine
 62
7
  6
CONTINUOUS
 10
111.6075153154
 20
191.5947202614
 11
112.4502395851
 21
191.877910271
  0
LINE
  5
334
100
AcDbEntity
  8
0
100
AcDbLine
 62
7
  6
CONTINUOUS
 10
379.8605066009
 20
126.9958518215
 11
399.7272012835
 21
92.5857272526
  0
LINE
  5
335
100
AcDbEntity
  8
0
100
AcDbLine
 62
7
  6
CONTINUOUS
 10
358.1478132968
 20
173.0033397934
 11
275.1478132968
 21
316.7635568216
  0
LINE
  5
336
100
AcDbEntity
  8
0
100
AcDbLine
 62
7
  6
CONTINUOUS
 10
398.4125588171
 20
124.5669787111
 11
403.61163223
 21
115.5619194078
  0
LINE
  5
337
100
AcDbEntity
  8
0
100
AcDbLine
 62
7
  6
CONTINUOUS
 10
305.3894830476
 20
359.6270048373
 11
305.3894830476
 21
479.6270048373
  0
LINE
  5
338
100
AcDbEntity
  8
0
100
AcDbLine
 62
7
  6
CONTINUOUS
 10
303.0291614601
 20
150.4716452191
 11
306.1537902611
 21
180.200502416
  0
LINE
  5
339
100
AcDbEntity
  8
BEZUGSACHSEN
100
AcDbLine
 62
7
  6
CONTINUOUS
 10
154.0234439882
 20
161.2921380116
 11
153.3725683451
 21
160.9330322536
  0
LINE
  5
33A
100
AcDbEntity
  8
BEZUGSACHSEN
100
AcDbLine
 62
7
  6
CONTINUOUS
 10
159.4888080646
 20
157.6752147281
 11
158.8379324773
 21
157.3161089682
  0
LINE
  5
33B
100
AcDbEntity
  8
BEZUGSACHSEN
100
AcDbLine
 62
7
  6
CONTINUOUS
 10
154.4846292489
 20
160.7681478261
 11
153.9975512452
 21
160.5305494307
  0
LINE
  5
33C
100
AcDbEntity
  8
BEZUGSACHSEN
100
AcDbLine
 62
7
  6
CONTINUOUS
 10
158.8638252203
 20
158.0776975492
 11
158.3767475259
 21
157.8401049604
  0
LINE
  5
33D
100
AcDbEntity
  8
BEZUGSACHSEN
100
AcDbLine
 62
7
  6
CONTINUOUS
 10
151.3362573078
 20
176.7641556921
 11
153.5287875899
 21
177.7244749675
  0
LINE
  5
33E
100
AcDbEntity
  8
BEZUGSACHSEN
100
AcDbLine
 62
7
  6
CONTINUOUS
 10
151.6419832338
 20
176.0661447618
 11
153.8345135159
 21
177.0264640371
  0
LINE
  5
33F
100
AcDbEntity
  8
BEZUGSACHSEN
100
AcDbLine
 62
7
  6
CONTINUOUS
 10
154.0208467686
 20
174.6123275134
 11
153.1438347377
 21
174.2281998392
  0
LINE
  5
340
100
AcDbEntity
  8
BEZUGSACHSEN
100
AcDbLine
 62
7
  6
CONTINUOUS
 10
153.6024236267
 20
173.1811834436
 11
152.4330740474
 21
172.6690131215
  0
LINE
  5
341
100
AcDbEntity
  8
BEZUGSACHSEN
100
AcDbLine
 62
7
  6
CONTINUOUS
 10
154.7851615837
 20
172.8673001875
 11
152.5926313016
 21
171.9069809121
  0
LINE
  5
342
100
AcDbEntity
  8
BEZUGSACHSEN
100
AcDbLine
 62
7
  6
CONTINUOUS
 10
151.8875102429
 20
180.1649505684
 11
152.3550080717
 21
180.3285118121
  0
LINE
  5
343
100
AcDbEntity
  8
BEZUGSACHSEN
100
AcDbLine
 62
7
  6
CONTINUOUS
 10
152.183117728
 20
179.4446951829
 11
152.6506155568
 21
179.6082564266
  0
LINE
  5
344
100
AcDbEntity
  8
0
100
AcDbLine
 62
7
  6
CONTINUOUS
 10
420.2014654552
 20
114.5232614597
 11
399.6366377719
 21
150.1425878561
  0
LINE
  5
345
100
AcDbEntity
  8
0
100
AcDbLine
 62
7
  6
CONTINUOUS
 10
382.7034986083
 20
196.4716452191
 11
397.649804635
 21
170.5838837954
  0
LINE
  5
346
100
AcDbEntity
  8
0
100
AcDbLine
 62
7
  6
CONTINUOUS
 10
337.3894830476
 20
359.6270048373
 11
337.3894830476
 21
479.6270048373
  0
LINE
  5
347
100
AcDbEntity
  8
0
100
AcDbLine
 62
7
  6
CONTINUOUS
 10
306.1537902611
 20
180.200502416
 11
317.0094996664
 21
192.2569891389
  0
LINE
  5
348
100
AcDbEntity
  8
RUNDUNGEN
100
AcDbLine
 62
7
  6
CONTINUOUS
 10
129.3615881122
 20
100.1774562124
 11
135.1079005644
 21
103.4950912535
  0
LINE
  5
349
100
AcDbEntity
  8
0
100
AcDbLine
 62
7
  6
CONTINUOUS
 10
397.649804635
 20
170.5838837954
 11
407.0654356895
 21
144.7146500833
  0
LINE
  5
34A
100
AcDbEntity
  8
KONSTRUKTIONSELEMENTE
100
AcDbLine
 62
7
  6
CONTINUOUS
 10
75.7749505933
 20
30.0696351293
 11
119.0749245371
 21
54.706250267
  0
LINE
  5
34B
100
AcDbEntity
  8
0
100
AcDbLine
 62
7
  6
CONTINUOUS
 10
407.0654356895
 20
138.079380001
 11
407.0654356895
 21
144.7146500833
  0
LINE
  5
34C
100
AcDbEntity
  8
KONSTRUKTIONSELEMENTE
100
AcDbLine
 62
7
  6
CONTINUOUS
 10
81.1283489282
 20
13.2365656399
 11
82.2829488419
 21
13.8935044582
  0
LINE
  5
34D
100
AcDbEntity
  8
KONSTRUKTIONSELEMENTE
100
AcDbLine
 62
7
  6
CONTINUOUS
 10
137.1646787342
 20
45.1198525203
 11
138.6123982277
 21
45.9435691359
  0
LINE
  5
34E
100
AcDbEntity
  8
RUNDUNGEN
100
AcDbLine
 62
7
  6
CONTINUOUS
 10
114.4813954028
 20
76.1438762181
 11
113.0584104279
 21
75.6259520435
  0
LINE
  5
34F
100
AcDbEntity
  8
0
100
AcDbLine
 62
7
  6
CONTINUOUS
 10
113.0584104279
 20
75.6259520435
 11
101.3216282574
 21
71.3541126873
  0
LINE
  5
350
100
AcDbEntity
  8
0
100
AcDbLine
 62
7
  6
CONTINUOUS
 10
418.0072034767
 20
99.3843906831
 11
420.4390301537
 21
113.1759651044
  0
LINE
  5
351
100
AcDbEntity
  8
0
100
AcDbLine
 62
7
  6
CONTINUOUS
 10
385.7105066009
 20
116.8633545972
 11
370.4684594942
 21
108.0633545972
  0
LINE
  5
352
100
AcDbEntity
  8
0
100
AcDbLine
 62
7
  6
CONTINUOUS
 10
395.2105066009
 20
100.4088719253
 11
379.9684594942
 21
91.6088719253
  0
LINE
  5
353
100
AcDbEntity
  8
KONSTRUKTIONSELEMENTE
100
AcDbLine
 62
7
  6
CONTINUOUS
 10
371.1413781244
 20
71.5014471213
 11
374.7123776653
 21
73.5631646676
  0
LINE
  5
354
100
AcDbEntity
  8
KONSTRUKTIONSELEMENTE
100
AcDbLine
 62
7
  6
CONTINUOUS
 10
413.4665884298
 20
95.9379186847
 11
417.0375879707
 21
97.9996362309
  0
LINE
  5
355
100
AcDbEntity
  8
KONSTRUKTIONSELEMENTE
100
AcDbLine
 62
7
  6
CONTINUOUS
 10
468.7816679287
 20
9.3604897194
 11
471.1858309848
 21
7.2784234381
  0
LINE
  5
356
100
AcDbEntity
  8
KONSTRUKTIONSELEMENTE
100
AcDbLine
 62
7
  6
CONTINUOUS
 10
471.6256289446
 20
7.5330611143
 11
471.0599435196
 21
8.0229590628
  0
LINE
  5
357
100
AcDbEntity
  8
KONSTRUKTIONSELEMENTE
100
AcDbLine
 62
7
  6
CONTINUOUS
 10
468.0900950386
 20
10.5949232928
 11
468.6557804636
 21
10.1050253442
  0
LINE
  5
358
100
AcDbEntity
  8
KONSTRUKTIONSELEMENTE
100
AcDbLine
 62
7
  6
CONTINUOUS
 10
471.6256289446
 20
14.8130611143
 11
471.0599435196
 21
15.3029590628
  0
LINE
  5
359
100
AcDbEntity
  8
KONSTRUKTIONSELEMENTE
100
AcDbLine
 62
7
  6
CONTINUOUS
 10
468.0900950386
 20
17.8749232928
 11
468.6557804636
 21
17.3850253442
  0
LINE
  5
35A
100
AcDbEntity
  8
KONSTRUKTIONSELEMENTE
100
AcDbLine
 62
7
  6
CONTINUOUS
 10
491.0322306995
 20
15.9405614533
 11
494.5677646054
 21
12.8786992748
  0
LINE
  5
35B
100
AcDbEntity
  8
KONSTRUKTIONSELEMENTE
100
AcDbLine
 62
7
  6
CONTINUOUS
 10
494.2530459425
 20
37.8340684544
 11
493.6873605176
 21
38.323966403
  0
LINE
  5
35C
100
AcDbEntity
  8
KONSTRUKTIONSELEMENTE
100
AcDbLine
 62
7
  6
CONTINUOUS
 10
491.2831974615
 20
40.4060326843
 11
490.7175120366
 21
40.8959306329
  0
LWPOLYLINE
  5
35D
100
AcDbEntity
  8
0
100
AcDbPolyline
 62
7
  6
CONTINUOUS
 90
14
 70
0
 10
694.136985316
 20
71.248243277
 10
695.5636457341
 20
71.3050386774
 10
697.003654868
 20
71.4064789192
 10
698.4490152613
 20
71.554242863
 10
699.8916260048
 20
71.7497865376
 10
701.3232766599
 20
71.9943386164
 10
702.7356427328
 20
72.2889265566
 10
704.1206240875
 20
72.6344957431
 10
705.4683975429
 20
73.0313990303
 10
706.7765578782
 20
73.4824240651
 10
708.0326631775
 20
73.98748491
 10
709.2509242523
 20
74.5593271841
 10
710.4393599549
 20
75.2157035583
 10
711.4483653148
 20
75.873598657
  0
LINE
  5
35E
100
AcDbEntity
  8
0
100
AcDbLine
 62
7
  6
CONTINUOUS
 10
692.9500514556
 20
71.2334983285
 11
694.136985316
 21
71.248243277
  0
LWPOLYLINE
  5
35F
100
AcDbEntity
  8
RUNDUNGEN
100
AcDbPolyline
 62
7
  6
CONTINUOUS
 90
15
 70
0
 10
692.9500514563
 20
71.2334983283
 10
694.1396479901
 20
71.2482763547
 10
695.5698837286
 20
71.305381855
 10
697.0073349953
 20
71.4067959615
 10
698.447947684
 20
71.5541162481
 10
699.8848421713
 20
71.7487502436
 10
701.3109687705
 20
71.9920110264
 10
702.719010041
 20
72.2851297434
 10
704.101687567
 20
72.6293632752
 10
705.4500325906
 20
73.0255518654
 10
706.7611155936
 20
73.4766802158
 10
708.0231816381
 20
73.9833736211
 10
709.2469877967
 20
74.5573288155
 10
710.4381612889
 20
75.2149828711
 10
711.4483618743
 20
75.8735962179
  0
LINE
  5
360
100
AcDbEntity
  8
KONSTRUKTIONSELEMENTE
100
AcDbLine
 62
7
  6
CONTINUOUS
 10
548.6592212243
 20
48.1339991834
 11
552.1947551303
 21
45.072137005
  0
LINE
  5
361
100
AcDbEntity
  8
KONSTRUKTIONSELEMENTE
100
AcDbLine
 62
7
  6
CONTINUOUS
 10
542.7961645686
 20
96.0478520122
 11
545.6103842894
 21
93.6808642131
  0
LINE
  5
362
100
AcDbEntity
  8
KONSTRUKTIONSELEMENTE
100
AcDbLine
 62
7
  6
CONTINUOUS
 10
542.2304791437
 20
96.5377499607
 11
545.0446988644
 21
94.1707621617
  0
LINE
  5
363
100
AcDbEntity
  8
KONSTRUKTIONSELEMENTE
100
AcDbLine
 62
7
  6
CONTINUOUS
 10
544.9704152076
 20
98.4142422497
 11
547.1351996082
 21
96.5934824042
  0
LINE
  5
364
100
AcDbEntity
  8
KONSTRUKTIONSELEMENTE
100
AcDbLine
 62
7
  6
CONTINUOUS
 10
542.5662521516
 20
100.496308531
 11
544.7310365522
 21
98.6755486856
  0
LINE
  5
365
100
AcDbEntity
  8
KONSTRUKTIONSELEMENTE
100
AcDbLine
 62
7
  6
CONTINUOUS
 10
542.7961645686
 20
96.0478520122
 11
542.2304791437
 21
96.5377499607
  0
LINE
  5
366
100
AcDbEntity
  8
KONSTRUKTIONSELEMENTE
100
AcDbLine
 62
7
  6
CONTINUOUS
 10
539.2606306627
 20
99.1097141907
 11
539.8263160876
 21
98.6198162421
  0
LINE
  5
367
100
AcDbEntity
  8
KONSTRUKTIONSELEMENTE
100
AcDbLine
 62
7
  6
CONTINUOUS
 10
544.9704152076
 20
98.4142422497
 11
542.5662521516
 21
100.496308531
  0
LINE
  5
368
100
AcDbEntity
  8
KONSTRUKTIONSELEMENTE
100
AcDbLine
 62
7
  6
CONTINUOUS
 10
547.1351996082
 20
96.5934824042
 11
544.7310365522
 21
98.6755486856
  0
LINE
  5
369
100
AcDbEntity
  8
KONSTRUKTIONSELEMENTE
100
AcDbLine
 62
7
  6
CONTINUOUS
 10
553.9961390399
 20
110.5992012781
 11
553.9995030847
 21
110.5964423185
  0
LINE
  5
36A
100
AcDbEntity
  8
KONSTRUKTIONSELEMENTE
100
AcDbLine
 62
7
  6
CONTINUOUS
 10
553.9995030847
 20
110.5964423185
 11
556.1642874853
 21
108.7756824731
  0
LINE
  5
36B
100
AcDbEntity
  8
KONSTRUKTIONSELEMENTE
100
AcDbLine
 62
7
  6
CONTINUOUS
 10
558.8850640125
 20
109.0651377533
 11
556.0799277506
 21
111.4244856243
  0
LINE
  5
36C
100
AcDbEntity
  8
KONSTRUKTIONSELEMENTE
100
AcDbLine
 62
7
  6
CONTINUOUS
 10
553.2882156512
 20
111.212393977
 11
553.9970972332
 21
110.5984845187
  0
LINE
  5
36D
100
AcDbEntity
  8
KONSTRUKTIONSELEMENTE
100
AcDbLine
 62
7
  6
CONTINUOUS
 10
556.1675730543
 20
108.7728312567
 11
556.1642874853
 21
108.7756824731
  0
LINE
  5
36E
100
AcDbEntity
  8
0
100
AcDbLine
 62
7
  6
CONTINUOUS
 10
687.1926700532
 20
144.7146500833
 11
698.7074328587
 21
144.7146500833
  0
LWPOLYLINE
  5
36F
100
AcDbEntity
  8
RUNDUNGEN
100
AcDbPolyline
 62
7
  6
CONTINUOUS
 90
15
 70
0
 10
674.4517410376
 20
75.8735962179
 10
675.4619416229
 20
75.2149828711
 10
676.6531151152
 20
74.5573288155
 10
677.8769212738
 20
73.9833736211
 10
679.1389873183
 20
73.4766802158
 10
680.4500703213
 20
73.0255518654
 10
681.7984153449
 20
72.6293632752
 10
683.1810928708
 20
72.2851297434
 10
684.5891341414
 20
71.9920110264
 10
686.0152607406
 20
71.7487502436
 10
687.4521552279
 20
71.5541162481
 10
688.8927679166
 20
71.4067959615
 10
690.3302191833
 20
71.305381855
 10
691.7604549218
 20
71.2482763547
 10
692.9500514556
 20
71.2334983283
  0
LWPOLYLINE
  5
370
100
AcDbEntity
  8
0
100
AcDbPolyline
 62
7
  6
CONTINUOUS
 90
15
 70
0
 10
674.4517375971
 20
75.873598657
 10
675.4607429569
 20
75.2157035583
 10
676.6491786596
 20
74.5593271841
 10
677.8674397344
 20
73.98748491
 10
679.1235450337
 20
73.4824240651
 10
680.431705369
 20
73.0313990303
 10
681.7794788244
 20
72.6344957431
 10
683.1644601791
 20
72.2889265566
 10
684.576826252
 20
71.9943386164
 10
686.0084769071
 20
71.7497865376
 10
687.4510876505
 20
71.554242863
 10
688.8964480438
 20
71.4064789192
 10
690.3364571777
 20
71.3050386774
 10
691.765318237
 20
71.2481556694
 10
692.9500514563
 20
71.2334983285
  0
LINE
  5
371
100
AcDbEntity
  8
KONSTRUKTIONSELEMENTE
100
AcDbLine
 62
7
  6
CONTINUOUS
 10
579.6588684673
 20
107.794058453
 11
566.3363190746
 21
118.9994066468
  0
LINE
  5
372
100
AcDbEntity
  8
KONSTRUKTIONSELEMENTE
100
AcDbLine
 62
7
  6
CONTINUOUS
 10
576.1233345614
 20
110.8559206315
 11
562.8007851686
 21
122.0612688253
  0
LINE
  5
373
100
AcDbEntity
  8
BEZUGSACHSEN
100
AcDbLine
 62
7
  6
CONTINUOUS
 10
576.1233345614
 20
110.8559206315
 11
579.6809954532
 21
107.774981249
  0
LINE
  5
374
100
AcDbEntity
  8
KONSTRUKTIONSELEMENTE
100
AcDbLine
 62
7
  6
CONTINUOUS
 10
468.0900950386
 20
17.8749232928
 11
468.0900950386
 21
10.5949232928
  0
LINE
  5
375
100
AcDbEntity
  8
KONSTRUKTIONSELEMENTE
100
AcDbLine
 62
7
  6
CONTINUOUS
 10
468.6557804636
 20
17.7850253442
 11
468.6557804636
 21
17.3850253442
  0
LINE
  5
376
100
AcDbEntity
  8
KONSTRUKTIONSELEMENTE
100
AcDbLine
 62
7
  6
CONTINUOUS
 10
468.6557804636
 20
10.1050253442
 11
468.6557804636
 21
9.7050253442
  0
LINE
  5
377
100
AcDbEntity
  8
KONSTRUKTIONSELEMENTE
100
AcDbLine
 62
7
  6
CONTINUOUS
 10
471.0599435196
 20
15.7029590628
 11
471.0599435196
 21
15.3029590628
  0
LINE
  5
378
100
AcDbEntity
  8
KONSTRUKTIONSELEMENTE
100
AcDbLine
 62
7
  6
CONTINUOUS
 10
471.0599435196
 20
8.0229590628
 11
471.0599435196
 21
7.6229590628
  0
LINE
  5
379
100
AcDbEntity
  8
KONSTRUKTIONSELEMENTE
100
AcDbLine
 62
7
  6
CONTINUOUS
 10
471.6256289446
 20
14.8130611143
 11
471.6256289446
 21
7.5330611143
  0
LINE
  5
37A
100
AcDbEntity
  8
0
100
AcDbLine
 62
7
  6
CONTINUOUS
 10
674.4522602073
 20
75.8732282464
 11
673.7209925686
 21
76.3911524214
  0
LINE
  5
37B
100
AcDbEntity
  8
KONSTRUKTIONSELEMENTE
100
AcDbLine
 62
7
  6
CONTINUOUS
 10
490.7175120366
 20
16.8019005152
 11
490.7175120366
 21
23.2493059139
  0
LINE
  5
37C
100
AcDbEntity
  8
KONSTRUKTIONSELEMENTE
100
AcDbLine
 62
7
  6
CONTINUOUS
 10
490.7175120366
 20
40.670841235
 11
490.7175120366
 21
40.8959306329
  0
LINE
  5
37D
100
AcDbEntity
  8
KONSTRUKTIONSELEMENTE
100
AcDbLine
 62
7
  6
CONTINUOUS
 10
493.6873605176
 20
22.8188770051
 11
493.6873605176
 21
24.4188770051
  0
LINE
  5
37E
100
AcDbEntity
  8
KONSTRUKTIONSELEMENTE
100
AcDbLine
 62
7
  6
CONTINUOUS
 10
493.6873605176
 20
38.0988770051
 11
493.6873605176
 21
38.323966403
  0
LINE
  5
37F
100
AcDbEntity
  8
KONSTRUKTIONSELEMENTE
100
AcDbLine
 62
7
  6
CONTINUOUS
 10
494.2530459425
 20
23.9289790566
 11
494.2530459425
 21
13.7400383367
  0
LINE
  5
380
100
AcDbEntity
  8
KONSTRUKTIONSELEMENTE
100
AcDbLine
 62
7
  6
CONTINUOUS
 10
494.2530459425
 20
37.6089790566
 11
494.2530459425
 21
37.8340684544
  0
LINE
  5
381
100
AcDbEntity
  8
0
100
AcDbLine
 62
7
  6
CONTINUOUS
 10
687.4277676113
 20
170.5838837954
 11
698.4723353006
 21
170.5838837954
  0
LINE
  5
382
100
AcDbEntity
  8
BEZUGSACHSEN
100
AcDbLine
 62
7
  6
CONTINUOUS
 10
683.0921073182
 20
190.3405934561
 11
683.0590660623
 21
190.3405934561
  0
LINE
  5
383
100
AcDbEntity
  8
BEZUGSACHSEN
100
AcDbLine
 62
7
  6
CONTINUOUS
 10
702.2114095355
 20
190.3405934561
 11
702.8410368496
 21
190.3405934561
  0
LINE
  5
384
100
AcDbEntity
  8
BEZUGSACHSEN
100
AcDbLine
 62
7
  6
CONTINUOUS
 10
683.1383633273
 20
190.5833276839
 11
683.0479231795
 21
190.5833276839
  0
LINE
  5
385
100
AcDbEntity
  8
BEZUGSACHSEN
100
AcDbLine
 62
7
  6
CONTINUOUS
 10
683.3742157541
 20
191.5947202614
 11
683.0486916864
 21
191.5947202614
  0
LINE
  5
386
100
AcDbEntity
  8
BEZUGSACHSEN
100
AcDbLine
 62
7
  6
CONTINUOUS
 10
702.5913841373
 20
191.5947202614
 11
702.8514112255
 21
191.5947202614
  0
LINE
  5
387
100
AcDbEntity
  8
BEZUGSACHSEN
100
AcDbLine
 62
7
  6
CONTINUOUS
 10
683.4435119086
 20
191.877910271
 11
683.0625443866
 21
191.877910271
  0
LINE
  5
388
100
AcDbEntity
  8
BEZUGSACHSEN
100
AcDbLine
 62
7
  6
CONTINUOUS
 10
683.5723516786
 20
192.4044349529
 11
683.0426885564
 21
192.4044349529
  0
LINE
  5
389
100
AcDbEntity
  8
BEZUGSACHSEN
100
AcDbLine
 62
7
  6
CONTINUOUS
 10
702.6895514104
 20
192.4044349529
 11
702.8574143555
 21
192.4044349529
  0
LINE
  5
38A
100
AcDbEntity
  8
BEZUGSACHSEN
100
AcDbLine
 62
7
  6
CONTINUOUS
 10
702.6713310431
 20
192.4692526008
 11
702.8160152641
 21
192.4692526008
  0
LINE
  5
38B
100
AcDbEntity
  8
BEZUGSACHSEN
100
AcDbLine
 62
7
  6
CONTINUOUS
 10
683.590564103
 20
192.4788629883
 11
683.0429927179
 21
192.4788629883
  0
LINE
  5
38C
100
AcDbEntity
  8
BEZUGSACHSEN
100
AcDbLine
 62
7
  6
CONTINUOUS
 10
702.6034229222
 20
192.710529804
 11
702.7339191837
 21
192.710529804
  0
LINE
  5
38D
100
AcDbEntity
  8
BEZUGSACHSEN
100
AcDbLine
 62
7
  6
CONTINUOUS
 10
683.6519559025
 20
192.7297505652
 11
683.0851466257
 21
192.7297505652
  0
LINE
  5
38E
100
AcDbEntity
  8
BEZUGSACHSEN
100
AcDbLine
 62
7
  6
CONTINUOUS
 10
683.6676199068
 20
192.7537674224
 11
683.0468821454
 21
192.7537674224
  0
LINE
  5
38F
100
AcDbEntity
  8
BEZUGSACHSEN
100
AcDbLine
 62
7
  6
CONTINUOUS
 10
702.8149562862
 20
192.7537674224
 11
702.8532207665
 21
192.7537674224
  0
LINE
  5
390
100
AcDbEntity
  8
BEZUGSACHSEN
100
AcDbLine
 62
7
  6
CONTINUOUS
 10
702.7880633708
 20
192.8575391827
 11
702.831226693
 21
192.8575391827
  0
LINE
  5
391
100
AcDbEntity
  8
BEZUGSACHSEN
100
AcDbLine
 62
7
  6
CONTINUOUS
 10
683.6915676092
 20
192.8916302494
 11
683.0901510957
 21
192.8916302494
  0
LINE
  5
392
100
AcDbEntity
  8
BEZUGSACHSEN
100
AcDbLine
 62
7
  6
CONTINUOUS
 10
683.76538546
 20
193.1932989069
 11
683.1737008892
 21
193.1932989069
  0
LINE
  5
393
100
AcDbEntity
  8
BEZUGSACHSEN
100
AcDbLine
 62
7
  6
CONTINUOUS
 10
702.4462463366
 20
193.2675123246
 11
702.572021912
 21
193.2675123246
  0
LINE
  5
394
100
AcDbEntity
  8
BEZUGSACHSEN
100
AcDbLine
 62
7
  6
CONTINUOUS
 10
702.5824927061
 20
193.4259786903
 11
702.6228365111
 21
193.4259786903
  0
LINE
  5
395
100
AcDbEntity
  8
BEZUGSACHSEN
100
AcDbLine
 62
7
  6
CONTINUOUS
 10
702.5020051818
 20
193.6582593243
 11
702.5816108642
 21
193.6582593243
  0
LINE
  5
396
100
AcDbEntity
  8
BEZUGSACHSEN
100
AcDbLine
 62
7
  6
CONTINUOUS
 10
683.9172532822
 20
193.8139314707
 11
683.3369647815
 21
193.8139314707
  0
LINE
  5
397
100
AcDbEntity
  8
BEZUGSACHSEN
100
AcDbLine
 62
7
  6
CONTINUOUS
 10
702.2780886713
 20
193.8617088116
 11
702.4125068488
 21
193.8617088116
  0
LINE
  5
398
100
AcDbEntity
  8
BEZUGSACHSEN
100
AcDbLine
 62
7
  6
CONTINUOUS
 10
702.4105117932
 20
194.0297856319
 11
702.5006953191
 21
194.0297856319
  0
LINE
  5
399
100
AcDbEntity
  8
BEZUGSACHSEN
100
AcDbLine
 62
7
  6
CONTINUOUS
 10
684.0712371757
 20
194.4432117041
 11
683.4970823169
 21
194.4432117041
  0
LINE
  5
39A
100
AcDbEntity
  8
BEZUGSACHSEN
100
AcDbLine
 62
7
  6
CONTINUOUS
 10
702.2776882672
 20
194.5405573921
 11
702.3811831941
 21
194.5405573921
  0
LINE
  5
39B
100
AcDbEntity
  8
BEZUGSACHSEN
100
AcDbLine
 62
7
  6
CONTINUOUS
 10
702.0593632059
 20
194.632364769
 11
702.2157180473
 21
194.632364769
  0
LINE
  5
39C
100
AcDbEntity
  8
BEZUGSACHSEN
100
AcDbLine
 62
7
  6
CONTINUOUS
 10
702.1150801137
 20
195.1905748218
 11
702.2237655389
 21
195.1905748218
  0
LINE
  5
39D
100
AcDbEntity
  8
BEZUGSACHSEN
100
AcDbLine
 62
7
  6
CONTINUOUS
 10
684.2653040667
 20
195.2362976283
 11
683.6940725011
 21
195.2362976283
  0
LINE
  5
39E
100
AcDbEntity
  8
BEZUGSACHSEN
100
AcDbLine
 62
7
  6
CONTINUOUS
 10
701.6007167223
 20
195.4360682843
 11
701.8045865429
 21
195.4360682843
  0
LINE
  5
39F
100
AcDbEntity
  8
BEZUGSACHSEN
100
AcDbLine
 62
7
  6
CONTINUOUS
 10
701.5303991292
 20
195.7086976881
 11
701.7628963954
 21
195.7086976881
  0
LINE
  5
3A0
100
AcDbEntity
  8
BEZUGSACHSEN
100
AcDbLine
 62
7
  6
CONTINUOUS
 10
701.4314998498
 20
196.0921337157
 11
701.6825607214
 21
196.0921337157
  0
LINE
  5
3A1
100
AcDbEntity
  8
0
100
AcDbLine
 62
7
  6
CONTINUOUS
 10
687.6075738369
 20
196.4716452191
 11
698.2925290749
 21
196.4716452191
  0
LINE
  5
3A2
100
AcDbEntity
  8
BEZUGSACHSEN
100
AcDbLine
 62
7
  6
CONTINUOUS
 10
701.3040180627
 20
196.5863762514
 11
701.56422653
 21
196.5863762514
  0
LINE
  5
3A3
100
AcDbEntity
  8
BEZUGSACHSEN
100
AcDbLine
 62
7
  6
CONTINUOUS
 10
701.2137480947
 20
197.0401635448
 11
701.4471906532
 21
197.0401635448
  0
LINE
  5
3A4
100
AcDbEntity
  8
BEZUGSACHSEN
100
AcDbLine
 62
7
  6
CONTINUOUS
 10
700.380322217
 20
197.4499219284
 11
701.0096103721
 21
197.4499219284
  0
LINE
  5
3A5
100
AcDbEntity
  8
BEZUGSACHSEN
100
AcDbLine
 62
7
  6
CONTINUOUS
 10
701.2210683702
 20
197.4534947485
 11
701.3314050421
 21
197.4534947485
  0
LINE
  5
3A6
100
AcDbEntity
  8
BEZUGSACHSEN
100
AcDbLine
 62
7
  6
CONTINUOUS
 10
684.8506788808
 20
197.628527045
 11
684.2782740078
 21
197.628527045
  0
LINE
  5
3A7
100
AcDbEntity
  8
BEZUGSACHSEN
100
AcDbLine
 62
7
  6
CONTINUOUS
 10
701.2190225582
 20
197.6751078804
 11
701.2555489817
 21
197.6751078804
  0
LINE
  5
3A8
100
AcDbEntity
  8
BEZUGSACHSEN
100
AcDbLine
 62
7
  6
CONTINUOUS
 10
700.3969826141
 20
198.4208588397
 11
701.0244497848
 21
198.4208588397
  0
LINE
  5
3A9
100
AcDbEntity
  8
BEZUGSACHSEN
100
AcDbLine
 62
7
  6
CONTINUOUS
 10
685.0468619388
 20
198.4302610297
 11
684.4709866068
 21
198.4302610297
  0
LINE
  5
3AA
100
AcDbEntity
  8
BEZUGSACHSEN
100
AcDbLine
 62
7
  6
CONTINUOUS
 10
700.4322889384
 20
198.4718751116
 11
701.0593887586
 21
198.4718751116
  0
LINE
  5
3AB
100
AcDbEntity
  8
BEZUGSACHSEN
100
AcDbLine
 62
7
  6
CONTINUOUS
 10
685.2050779443
 20
199.0768364778
 11
684.6230993872
 21
199.0768364778
  0
LINE
  5
3AC
100
AcDbEntity
  8
BEZUGSACHSEN
100
AcDbLine
 62
7
  6
CONTINUOUS
 10
700.3821554468
 20
199.5257959879
 11
701.007354096
 21
199.5257959879
  0
LINE
  5
3AD
100
AcDbEntity
  8
BEZUGSACHSEN
100
AcDbLine
 62
7
  6
CONTINUOUS
 10
700.3910787984
 20
199.637438041
 11
701.0158859724
 21
199.637438041
  0
LINE
  5
3AE
100
AcDbEntity
  8
BEZUGSACHSEN
100
AcDbLine
 62
7
  6
CONTINUOUS
 10
685.3654100075
 20
199.7320595395
 11
684.772846038
 21
199.7320595395
  0
LINE
  5
3AF
100
AcDbEntity
  8
BEZUGSACHSEN
100
AcDbLine
 62
7
  6
CONTINUOUS
 10
685.4476921028
 20
200.0683187088
 11
684.8463110354
 21
200.0683187088
  0
LINE
  5
3B0
100
AcDbEntity
  8
BEZUGSACHSEN
100
AcDbLine
 62
7
  6
CONTINUOUS
 10
700.391078795
 20
200.0840060407
 11
701.0144054
 21
200.0840060407
  0
LINE
  5
3B1
100
AcDbEntity
  8
BEZUGSACHSEN
100
AcDbLine
 62
7
  6
CONTINUOUS
 10
700.3821554468
 20
200.1956480406
 11
701.0051352656
 21
200.1956480406
  0
LINE
  5
3B2
100
AcDbEntity
  8
BEZUGSACHSEN
100
AcDbLine
 62
7
  6
CONTINUOUS
 10
685.5026736458
 20
200.2494197883
 11
684.8818912374
 21
200.2494197883
  0
LINE
  5
3B3
100
AcDbEntity
  8
BEZUGSACHSEN
100
AcDbLine
 62
7
  6
CONTINUOUS
 10
685.5217126421
 20
200.3531915485
 11
684.8997578035
 21
200.3531915485
  0
LINE
  5
3B4
100
AcDbEntity
  8
BEZUGSACHSEN
100
AcDbLine
 62
7
  6
CONTINUOUS
 10
700.3783902698
 20
200.3531915485
 11
701.0003451084
 21
200.3531915485
  0
LINE
  5
3B5
100
AcDbEntity
  8
0
100
AcDbLine
 62
7
  6
CONTINUOUS
 10
687.6075738369
 20
208.6300658985
 11
698.2925290749
 21
208.6300658985
  0
LINE
  5
3B6
100
AcDbEntity
  8
0
100
AcDbLine
 62
7
  6
CONTINUOUS
 10
673.2599600166
 20
76.8462449484
 11
671.4492951115
 21
79.3337319836
  0
LINE
  5
3B7
100
AcDbEntity
  8
KONSTRUKTIONSELEMENTE
100
AcDbLine
 62
7
  6
CONTINUOUS
 10
702.5480669179
 20
156.2672547693
 11
706.3572375442
 21
152.4459315453
  0
LINE
  5
3B8
100
AcDbEntity
  8
RUNDUNGEN
100
AcDbLine
 62
7
  6
CONTINUOUS
 10
702.5403972756
 20
156.274948868
 11
702.5489501917
 21
156.2663606109
  0
LINE
  5
3B9
100
AcDbEntity
  8
RUNDUNGEN
100
AcDbLine
 62
7
  6
CONTINUOUS
 10
706.3572375296
 20
152.4459315599
 11
706.3605164642
 21
152.4426360606
  0
LINE
  5
3BA
100
AcDbEntity
  8
KONSTRUKTIONSELEMENTE
100
AcDbLine
 62
7
  6
CONTINUOUS
 10
498.7574276174
 20
14.7500654144
 11
501.3822287031
 21
21.5040255672
  0
LINE
  5
3BB
100
AcDbEntity
  8
RUNDUNGEN
100
AcDbLine
 62
7
  6
CONTINUOUS
 10
714.0423552749
 20
135.0644247405
 11
704.1293244873
 21
149.9339709218
  0
LWPOLYLINE
  5
3BC
100
AcDbEntity
  8
RUNDUNGEN
100
AcDbPolyline
 62
7
  6
CONTINUOUS
 90
6
 70
0
 10
704.1293098977
 20
149.9339921469
 10
703.722097477
 20
150.5685724623
 10
703.2440327034
 20
151.3833628541
 10
702.812213906
 20
152.2016937861
 10
702.4262461665
 20
153.0217116093
 10
702.2980501303
 20
153.3179954984
  0
LINE
  5
3BD
100
AcDbEntity
  8
0
100
AcDbLine
 62
7
  6
CONTINUOUS
 10
634.4500514559
 20
205.9074956656
 11
634.4500514559
 21
270.8594009494
  0
LINE
  5
3BE
100
AcDbEntity
  8
KONSTRUKTIONSELEMENTE
100
AcDbLine
 62
7
  6
CONTINUOUS
 10
550.9058092357
 20
54.2171522866
 11
548.6603189749
 21
48.4392090255
  0
LINE
  5
3BF
100
AcDbEntity
  8
KONSTRUKTIONSELEMENTE
100
AcDbLine
 62
7
  6
CONTINUOUS
 10
554.8206539666
 20
52.1313069998
 11
552.1958528809
 21
45.377346847
  0
LINE
  5
3C0
100
AcDbEntity
  8
KONSTRUKTIONSELEMENTE
100
AcDbLine
 62
7
  6
CONTINUOUS
 10
578.1172137134
 20
97.7042420699
 11
561.3302551482
 21
54.509178698
  0
LINE
  5
3C1
100
AcDbEntity
  8
RUNDUNGEN
100
AcDbLine
 62
7
  6
CONTINUOUS
 10
702.2980535692
 20
153.3179887652
 11
702.2978917589
 21
153.3183715984
  0
LWPOLYLINE
  5
3C2
100
AcDbEntity
  8
RUNDUNGEN
100
AcDbPolyline
 62
7
  6
CONTINUOUS
 90
3
 70
0
 10
703.0490659267
 20
155.7646573969
 10
703.0284947173
 20
155.8249888645
 10
702.9809119836
 20
156.0314143199
  0
LINE
  5
3C3
100
AcDbEntity
  8
0
100
AcDbLine
 62
7
  6
CONTINUOUS
 10
660.4500514559
 20
205.9074956656
 11
660.4500514559
 21
270.8594009494
  0
LINE
  5
3C4
100
AcDbEntity
  8
0
100
AcDbLine
 62
7
  6
CONTINUOUS
 10
670.4500514559
 20
100.9148667547
 11
670.4500514559
 21
87.8756851539
  0
LINE
  5
3C5
100
AcDbEntity
  8
0
100
AcDbLine
 62
7
  6
CONTINUOUS
 10
670.4500514559
 20
87.7361132613
 11
670.4500514559
 21
82.3580588366
  0
LINE
  5
3C6
100
AcDbEntity
  8
0
100
AcDbLine
 62
7
  6
CONTINUOUS
 10
670.4500514559
 20
112.3404325192
 11
670.4500514559
 21
130.4909227329
  0
LINE
  5
3C7
100
AcDbEntity
  8
0
100
AcDbLine
 62
7
  6
CONTINUOUS
 10
674.9943008406
 20
103.9517787452
 11
674.9943008406
 21
99.3358634296
  0
LINE
  5
3C8
100
AcDbEntity
  8
KONSTRUKTIONSELEMENTE
100
AcDbLine
 62
7
  6
CONTINUOUS
 10
698.6177786395
 20
207.5658415596
 11
700.3824592303
 21
200.3541872168
  0
LINE
  5
3C9
100
AcDbEntity
  8
RUNDUNGEN
100
AcDbLine
 62
7
  6
CONTINUOUS
 10
698.8513975337
 20
143.144108942
 11
698.7074328587
 21
144.7146500833
  0
LINE
  5
3CA
100
AcDbEntity
  8
0
100
AcDbLine
 62
7
  6
CONTINUOUS
 10
687.1389288518
 20
177.9290155837
 11
687.4277676113
 21
170.5838837954
  0
LINE
  5
3CB
100
AcDbEntity
  8
0
100
AcDbLine
 62
7
  6
CONTINUOUS
 10
698.4723353006
 20
170.5838837954
 11
698.7074328587
 21
144.7146500833
  0
LINE
  5
3CC
100
AcDbEntity
  8
0
100
AcDbLine
 62
7
  6
CONTINUOUS
 10
676.9500514559
 20
565.5638964077
 11
676.9500514559
 21
273.6901132669
  0
LINE
  5
3CD
100
AcDbEntity
  8
0
100
AcDbLine
 62
7
  6
CONTINUOUS
 10
677.9500514559
 20
148.6476567685
 11
677.9500514559
 21
144.2028804689
  0
LINE
  5
3CE
100
AcDbEntity
  8
0
100
AcDbLine
 62
7
  6
CONTINUOUS
 10
687.006354512
 20
142.2200797974
 11
687.006354512
 21
142.0404802984
  0
LINE
  5
3CF
100
AcDbEntity
  8
0
100
AcDbLine
 62
7
  6
CONTINUOUS
 10
682.9500473391
 20
156.3827389885
 11
682.9500514559
 21
188.8851699908
  0
LINE
  5
3D0
100
AcDbEntity
  8
0
100
AcDbLine
 62
7
  6
CONTINUOUS
 10
687.4277676113
 20
170.5838837954
 11
687.1926700532
 21
144.7146500833
  0
LWPOLYLINE
  5
3D1
100
AcDbEntity
  8
0
100
AcDbPolyline
 62
7
  6
CONTINUOUS
 90
3
 70
0
 10
682.9500435423
 20
156.382738998
 10
682.9477192281
 20
156.2904304725
 10
682.9208969414
 20
156.0413175882
  0
LINE
  5
3D2
100
AcDbEntity
  8
KONSTRUKTIONSELEMENTE
100
AcDbLine
 62
7
  6
CONTINUOUS
 10
677.9739168005
 20
149.1471585558
 11
677.9500866227
 21
148.6500330428
  0
LINE
  5
3D3
100
AcDbEntity
  8
KONSTRUKTIONSELEMENTE
100
AcDbLine
 62
7
  6
CONTINUOUS
 10
555.4097489085
 20
117.8252280643
 11
552.7966229788
 21
114.7968277611
  0
LINE
  5
3D4
100
AcDbEntity
  8
KONSTRUKTIONSELEMENTE
100
AcDbLine
 62
7
  6
CONTINUOUS
 10
539.2606306627
 20
99.1097141907
 11
494.2095818855
 21
46.8992147952
  0
LINE
  5
3D5
100
AcDbEntity
  8
KONSTRUKTIONSELEMENTE
100
AcDbLine
 62
7
  6
CONTINUOUS
 10
539.8263160876
 20
98.6198162421
 11
540.3489412736
 21
99.2254963027
  0
LINE
  5
3D6
100
AcDbEntity
  8
KONSTRUKTIONSELEMENTE
100
AcDbLine
 62
7
  6
CONTINUOUS
 10
542.2304791437
 20
96.5377499607
 11
542.7531043296
 21
97.1434300214
  0
LINE
  5
3D7
100
AcDbEntity
  8
KONSTRUKTIONSELEMENTE
100
AcDbLine
 62
7
  6
CONTINUOUS
 10
544.820123594
 20
98.6254039991
 11
553.7816545487
 21
109.0110891095
  0
LINE
  5
3D8
100
AcDbEntity
  8
KONSTRUKTIONSELEMENTE
100
AcDbLine
 62
7
  6
CONTINUOUS
 10
558.9452828145
 20
114.7633658859
 11
556.3321568847
 21
111.7349655827
  0
LINE
  5
3D9
100
AcDbEntity
  8
KONSTRUKTIONSELEMENTE
100
AcDbLine
 62
7
  6
CONTINUOUS
 10
542.7961645686
 20
96.0478520122
 11
497.7451157914
 21
43.8373526167
  0
LINE
  5
3DA
100
AcDbEntity
  8
KONSTRUKTIONSELEMENTE
100
AcDbLine
 62
7
  6
CONTINUOUS
 10
547.2620097424
 20
95.44157439
 11
549.3525104862
 21
97.8642946325
  0
LINE
  5
3DB
100
AcDbEntity
  8
KONSTRUKTIONSELEMENTE
100
AcDbLine
 62
7
  6
CONTINUOUS
 10
557.3171884547
 20
105.949226931
 11
547.8276951674
 21
94.9516764414
  0
LWPOLYLINE
  5
3DC
100
AcDbEntity
  8
RUNDUNGEN
100
AcDbPolyline
 62
7
  6
CONTINUOUS
 90
3
 70
0
 10
702.9809119836
 20
156.0314143199
 10
702.9530246623
 20
156.2776611457
 10
702.9500583462
 20
156.3831590437
  0
LINE
  5
3DD
100
AcDbEntity
  8
0
100
AcDbLine
 62
7
  6
CONTINUOUS
 10
707.9500162887
 20
148.6500337647
 11
707.9261861114
 21
149.1471585558
  0
LWPOLYLINE
  5
3DE
100
AcDbEntity
  8
KONSTRUKTIONSELEMENTE
100
AcDbPolyline
 62
7
  6
CONTINUOUS
 90
9
 70
0
 10
707.9500162892
 20
148.6500330428
 10
707.9261835394
 20
149.1472122111
 10
707.8428897342
 20
149.7037241768
 10
707.701298444
 20
150.247055402
 10
707.5021712612
 20
150.7746946099
 10
707.2463944766
 20
151.2826181448
 10
706.9350503495
 20
151.7662606647
 10
706.5680424712
 20
152.2226526822
 10
706.360509322
 20
152.4426289564
  0
LINE
  5
3DF
100
AcDbEntity
  8
RUNDUNGEN
100
AcDbLine
 62
7
  6
CONTINUOUS
 10
707.950050703
 20
148.6500330623
 11
707.9500514559
 21
148.6476567685
  0
LINE
  5
3E0
100
AcDbEntity
  8
RUNDUNGEN
100
AcDbLine
 62
7
  6
CONTINUOUS
 10
698.8937483998
 20
142.2200797974
 11
698.8937483998
 21
142.0404802984
  0
LINE
  5
3E1
100
AcDbEntity
  8
BEZUGSACHSEN
100
AcDbLine
 62
7
  6
CONTINUOUS
 10
702.9500514559
 20
188.8851699908
 11
702.9500514559
 21
171.1549694239
  0
LINE
  5
3E2
100
AcDbEntity
  8
RUNDUNGEN
100
AcDbLine
 62
7
  6
CONTINUOUS
 10
702.9500514559
 20
171.154969399
 11
702.9500545482
 21
156.3831590347
  0
LINE
  5
3E3
100
AcDbEntity
  8
KONSTRUKTIONSELEMENTE
100
AcDbLine
 62
7
  6
CONTINUOUS
 10
702.9500514559
 20
171.1549694239
 11
702.9500514559
 21
156.3896733376
  0
LINE
  5
3E4
100
AcDbEntity
  8
KONSTRUKTIONSELEMENTE
100
AcDbLine
 62
7
  6
CONTINUOUS
 10
707.9500514559
 20
144.2028804689
 11
707.9500514559
 21
148.6476567685
  0
LINE
  5
3E5
100
AcDbEntity
  8
0
100
AcDbLine
 62
7
  6
CONTINUOUS
 10
708.9500514559
 20
565.5638964077
 11
708.9500514559
 21
273.6901132669
  0
LINE
  5
3E6
100
AcDbEntity
  8
KONSTRUKTIONSELEMENTE
100
AcDbLine
 62
7
  6
CONTINUOUS
 10
710.9058020713
 20
103.9517787452
 11
710.9058020713
 21
99.3358634296
  0
LINE
  5
3E7
100
AcDbEntity
  8
KONSTRUKTIONSELEMENTE
100
AcDbLine
 62
7
  6
CONTINUOUS
 10
715.4500514559
 20
117.8580588366
 11
715.4500514559
 21
112.3404325192
  0
LINE
  5
3E8
100
AcDbEntity
  8
KONSTRUKTIONSELEMENTE
100
AcDbLine
 62
7
  6
CONTINUOUS
 10
715.4500514559
 20
100.9148667547
 11
715.4500514559
 21
87.8756851539
  0
LINE
  5
3E9
100
AcDbEntity
  8
RUNDUNGEN
100
AcDbLine
 62
7
  6
CONTINUOUS
 10
715.4500514559
 20
87.7361132613
 11
715.4500514559
 21
82.3580588366
  0
LINE
  5
3EA
100
AcDbEntity
  8
RUNDUNGEN
100
AcDbLine
 62
7
  6
CONTINUOUS
 10
715.4500514559
 20
112.3404325192
 11
715.4500514559
 21
130.4909227329
  0
LINE
  5
3EB
100
AcDbEntity
  8
0
100
AcDbLine
 62
7
  6
CONTINUOUS
 10
698.7611740601
 20
177.9290155837
 11
698.4723353006
 21
170.5838837954
  0
LINE
  5
3EC
100
AcDbEntity
  8
0
100
AcDbLine
 62
7
  6
CONTINUOUS
 10
687.0487053782
 20
143.144108942
 11
687.1926700532
 21
144.7146500833
  0
LWPOLYLINE
  5
3ED
100
AcDbEntity
  8
0
100
AcDbPolyline
 62
7
  6
CONTINUOUS
 90
3
 70
0
 10
682.9208969414
 20
156.0413175882
 10
682.8735460998
 20
155.831739752
 10
682.8508441592
 20
155.7644639558
  0
LINE
  5
3EE
100
AcDbEntity
  8
BEZUGSACHSEN
100
AcDbLine
 62
7
  6
CONTINUOUS
 10
683.0510208502
 20
192.8137640063
 11
683.2710909921
 21
193.7131164462
  0
LINE
  5
3EF
100
AcDbEntity
  8
BEZUGSACHSEN
100
AcDbLine
 62
7
  6
CONTINUOUS
 10
684.6530656715
 20
199.3607808169
 11
684.8879457681
 21
200.3206565459
  0
LINE
  5
3F0
100
AcDbEntity
  8
0
100
AcDbLine
 62
7
  6
CONTINUOUS
 10
683.1793148974
 20
190.7982262007
 11
687.2823242724
 21
207.5658415596
  0
LINE
  5
3F1
100
AcDbEntity
  8
BEZUGSACHSEN
100
AcDbLine
 62
7
  6
CONTINUOUS
 10
683.2907777345
 20
193.7884880316
 11
683.2846811642
 21
193.7686619227
  0
LINE
  5
3F2
100
AcDbEntity
  8
0
100
AcDbLine
 62
7
  6
CONTINUOUS
 10
725.4500514559
 20
270.8594009494
 11
725.4500514559
 21
205.9074956656
  0
LINE
  5
3F3
100
AcDbEntity
  8
0
100
AcDbLine
 62
7
  6
CONTINUOUS
 10
683.6020919276
 20
153.3180895166
 11
683.602211153
 21
153.3183715984
  0
LWPOLYLINE
  5
3F4
100
AcDbEntity
  8
0
100
AcDbPolyline
 62
7
  6
CONTINUOUS
 90
6
 70
0
 10
683.6020953606
 20
153.3180962354
 10
683.509773584
 20
153.1033536085
 10
683.1185404536
 20
152.2633955795
 10
682.6790270747
 20
151.4247015526
 10
682.190768334
 20
150.5892786982
 10
681.7707937067
 20
149.9339931856
  0
LINE
  5
3F5
100
AcDbEntity
  8
KONSTRUKTIONSELEMENTE
100
AcDbLine
 62
7
  6
CONTINUOUS
 10
573.9336916022
 20
113.1857767156
 11
576.7621187269
 21
115.6352664584
  0
LINE
  5
3F6
100
AcDbEntity
  8
KONSTRUKTIONSELEMENTE
100
AcDbLine
 62
7
  6
CONTINUOUS
 10
628.027360363
 20
160.0322680463
 11
630.8557874877
 21
162.4817577891
  0
LINE
  5
3F7
100
AcDbEntity
  8
KONSTRUKTIONSELEMENTE
100
AcDbLine
 62
7
  6
CONTINUOUS
 10
631.2093408783
 20
162.787944007
 11
634.0377680031
 21
165.2374337497
  0
LINE
  5
3F8
100
AcDbEntity
  8
KONSTRUKTIONSELEMENTE
100
AcDbLine
 62
7
  6
CONTINUOUS
 10
597.2551021037
 20
133.0519917481
 11
607.8617038215
 21
142.2375782836
  0
LINE
  5
3F9
100
AcDbEntity
  8
KONSTRUKTIONSELEMENTE
100
AcDbLine
 62
7
  6
CONTINUOUS
 10
487.1967268973
 20
35.0419559661
 11
470.3528367384
 21
20.4547191899
  0
LINE
  5
3FA
100
AcDbEntity
  8
KONSTRUKTIONSELEMENTE
100
AcDbLine
 62
7
  6
CONTINUOUS
 10
468.0900950386
 20
17.8749232928
 11
468.8690819438
 21
18.5495457419
  0
LINE
  5
3FB
100
AcDbEntity
  8
KONSTRUKTIONSELEMENTE
100
AcDbLine
 62
7
  6
CONTINUOUS
 10
627.4839169995
 20
155.0636303636
 11
616.8773152817
 21
145.8780438282
  0
LINE
  5
3FC
100
AcDbEntity
  8
KONSTRUKTIONSELEMENTE
100
AcDbLine
 62
7
  6
CONTINUOUS
 10
596.3712186273
 20
128.119243193
 11
585.7646169095
 21
118.9336566576
  0
LINE
  5
3FD
100
AcDbEntity
  8
KONSTRUKTIONSELEMENTE
100
AcDbLine
 62
7
  6
CONTINUOUS
 10
600.9892526555
 20
130.3329205376
 11
610.8076453397
 21
138.8358980265
  0
LINE
  5
3FE
100
AcDbEntity
  8
KONSTRUKTIONSELEMENTE
100
AcDbLine
 62
7
  6
CONTINUOUS
 10
577.5023421963
 20
109.6619405096
 11
580.0353870805
 21
111.8556217283
  0
LINE
  5
3FF
100
AcDbEntity
  8
KONSTRUKTIONSELEMENTE
100
AcDbLine
 62
7
  6
CONTINUOUS
 10
632.457156988
 20
157.2542061796
 11
634.1290558413
 21
158.702113059
  0
LINE
  5
400
100
AcDbEntity
  8
KONSTRUKTIONSELEMENTE
100
AcDbLine
 62
7
  6
CONTINUOUS
 10
634.4826092319
 20
159.0082992769
 11
635.7470974928
 21
160.1033782337
  0
LINE
  5
401
100
AcDbEntity
  8
KONSTRUKTIONSELEMENTE
100
AcDbLine
 62
7
  6
CONTINUOUS
 10
489.6008899534
 20
32.9598896847
 11
472.7569997944
 21
18.3726529085
  0
LINE
  5
402
100
AcDbEntity
  8
KONSTRUKTIONSELEMENTE
100
AcDbLine
 62
7
  6
CONTINUOUS
 10
471.0599435196
 20
15.3029590628
 11
489.161877118
 21
30.9796934167
  0
LINE
  5
403
100
AcDbEntity
  8
KONSTRUKTIONSELEMENTE
100
AcDbLine
 62
7
  6
CONTINUOUS
 10
471.6256289446
 20
14.8130611143
 11
489.7275625429
 21
30.4897954681
  0
LINE
  5
404
100
AcDbEntity
  8
KONSTRUKTIONSELEMENTE
100
AcDbLine
 62
7
  6
CONTINUOUS
 10
630.4298585177
 20
151.6619501065
 11
619.8232567999
 21
142.4763635711
  0
LINE
  5
405
100
AcDbEntity
  8
KONSTRUKTIONSELEMENTE
100
AcDbLine
 62
7
  6
CONTINUOUS
 10
599.3171601454
 20
124.7175629359
 11
588.7105584276
 21
115.5319764005
  0
LINE
  5
406
100
AcDbEntity
  8
KONSTRUKTIONSELEMENTE
100
AcDbLine
 62
7
  6
CONTINUOUS
 10
642.1694959867
 20
158.1951507392
 11
636.1590883466
 21
152.9899850358
  0
LINE
  5
407
100
AcDbEntity
  8
KONSTRUKTIONSELEMENTE
100
AcDbLine
 62
7
  6
CONTINUOUS
 10
584.8938467106
 20
108.5929834479
 11
578.8834390705
 21
103.3878177445
  0
LINE
  5
408
100
AcDbEntity
  8
KONSTRUKTIONSELEMENTE
100
AcDbLine
 62
7
  6
CONTINUOUS
 10
615.9934318052
 20
135.1952952731
 11
605.3868300874
 21
126.0097087376
  0
LINE
  5
409
100
AcDbEntity
  8
KONSTRUKTIONSELEMENTE
100
AcDbLine
 62
7
  6
CONTINUOUS
 10
590.5934292342
 20
111.412590351
 11
599.3171601454
 21
118.9675629359
  0
LINE
  5
40A
100
AcDbEntity
  8
KONSTRUKTIONSELEMENTE
100
AcDbLine
 62
7
  6
CONTINUOUS
 10
621.3164554823
 20
138.019511563
 11
630.4298585177
 21
145.9119501065
  0
LINE
  5
40B
100
AcDbEntity
  8
KONSTRUKTIONSELEMENTE
100
AcDbLine
 62
7
  6
CONTINUOUS
 10
471.6256289446
 20
7.5330611143
 11
489.7275625429
 21
23.2097954681
  0
LINE
  5
40C
100
AcDbEntity
  8
KONSTRUKTIONSELEMENTE
100
AcDbLine
 62
7
  6
CONTINUOUS
 10
472.7569997944
 20
7.8926529085
 11
489.161877118
 21
22.0996934167
  0
LINE
  5
40D
100
AcDbEntity
  8
KONSTRUKTIONSELEMENTE
100
AcDbLine
 62
7
  6
CONTINUOUS
 10
618.9393733234
 20
131.793615016
 11
608.3327716056
 21
122.6080284805
  0
LINE
  5
40E
100
AcDbEntity
  8
KONSTRUKTIONSELEMENTE
100
AcDbLine
 62
7
  6
CONTINUOUS
 10
645.4427643402
 20
154.4155060091
 11
639.4323567002
 21
149.2103403057
  0
LINE
  5
40F
100
AcDbEntity
  8
KONSTRUKTIONSELEMENTE
100
AcDbLine
 62
7
  6
CONTINUOUS
 10
588.1671150641
 20
104.8133387178
 11
582.156707424
 21
99.6081730144
  0
LINE
  5
410
100
AcDbEntity
  8
0
100
AcDbLine
 62
7
  6
CONTINUOUS
 10
751.4500514559
 20
270.8594009494
 11
751.4500514559
 21
205.9074956656
  0
LINE
  5
411
100
AcDbEntity
  8
0
100
AcDbLine
 62
7
  6
CONTINUOUS
 10
681.7707784246
 20
149.9339709218
 11
671.857747637
 21
135.0644247405
  0
LWPOLYLINE
  5
412
100
AcDbEntity
  8
0
100
AcDbPolyline
 62
7
  6
CONTINUOUS
 90
9
 70
0
 10
679.5395937336
 20
152.4426291012
 10
679.3320450545
 20
152.2226354755
 10
678.965021268
 20
151.7662172449
 10
678.6536601624
 20
151.2825336675
 10
678.3978764241
 20
150.7745687979
 10
678.1987552233
 20
150.2469005515
 10
678.0571815997
 20
149.7035698686
 10
677.9739097534
 20
149.1471114643
 10
677.9500866232
 20
148.6500337647
  0
LINE
  5
413
100
AcDbEntity
  8
0
100
AcDbLine
 62
7
  6
CONTINUOUS
 10
679.5395865915
 20
152.4426362054
 11
683.3588068845
 21
156.2740471028
  0
LINE
  5
414
100
AcDbEntity
  8
KONSTRUKTIONSELEMENTE
100
AcDbLine
 62
7
  6
CONTINUOUS
 10
508.7732649632
 20
30.0696351293
 11
551.7591865077
 21
54.706250267
  0
LINE
  5
415
100
AcDbEntity
  8
KONSTRUKTIONSELEMENTE
100
AcDbLine
 62
7
  6
CONTINUOUS
 10
496.8720983292
 20
13.2365656399
 11
498.0183239914
 21
13.8935044582
  0
LINE
  5
416
100
AcDbEntity
  8
KONSTRUKTIONSELEMENTE
100
AcDbLine
 62
7
  6
CONTINUOUS
 10
552.5019996268
 20
45.1198525203
 11
553.9392188881
 21
45.9435691359
  0
LINE
  5
417
100
AcDbEntity
  8
RUNDUNGEN
100
AcDbLine
 62
7
  6
CONTINUOUS
 10
714.4508078004
 20
79.3337319836
 11
712.6401428953
 21
76.8462449484
  0
LINE
  5
418
100
AcDbEntity
  8
RUNDUNGEN
100
AcDbLine
 62
7
  6
CONTINUOUS
 10
712.1791103433
 20
76.3911524214
 11
711.4478427046
 21
75.8732282464
  0
ARC
  5
419
100
AcDbEntity
  8
KONSTRUKTIONSELEMENTE
100
AcDbCircle
 62
7
  6
CONTINUOUS
 10
51.0206636726
 20
40.2908423483
 40
56.0
100
AcDbArc
 50
69.0410961486
 51
83.5499984999
  0
ARC
  5
41A
100
AcDbEntity
  8
KONSTRUKTIONSELEMENTE
100
AcDbCircle
 62
7
  6
CONTINUOUS
 10
51.0206636726
 20
40.2908423483
 40
56.0
100
AcDbArc
 50
36.4500015001
 51
50.9589038514
  0
ARC
  5
41B
100
AcDbEntity
  8
BEZUGSACHSEN
100
AcDbCircle
 62
7
  6
CONTINUOUS
 10
120.4394830476
 20
160.5277645072
 40
20.0
100
AcDbArc
 50
100.5823106118
 51
19.4176893882
  0
ARC
  5
41C
100
AcDbEntity
  8
0
100
AcDbCircle
 62
7
  6
CONTINUOUS
 10
123.8894830476
 20
166.5033397934
 40
13.0
100
AcDbArc
 50
150.0
 51
330.0
  0
ARC
  5
41D
100
AcDbEntity
  8
KONSTRUKTIONSELEMENTE
100
AcDbCircle
 62
7
  6
CONTINUOUS
 10
98.5394830476
 20
122.5958518215
 40
8.8
100
AcDbArc
 50
330.0
 51
150.0
  0
ARC
  5
41E
100
AcDbEntity
  8
KONSTRUKTIONSELEMENTE
100
AcDbCircle
 62
7
  6
CONTINUOUS
 10
27.1198128384
 20
32.3840259639
 40
8.2295991091
100
AcDbArc
 50
41.4716087129
 51
47.9053340862
  0
ARC
  5
41F
100
AcDbEntity
  8
BEZUGSACHSEN
100
AcDbCircle
 62
7
  6
CONTINUOUS
 10
87.0617365226
 20
102.7158116839
 40
7.7701622262
100
AcDbArc
 50
235.5729048645
 51
244.4270951355
  0
ARC
  5
420
100
AcDbEntity
  8
KONSTRUKTIONSELEMENTE
100
AcDbCircle
 62
7
  6
CONTINUOUS
 10
56.335893593
 20
16.4800064683
 40
7.482814079
100
AcDbArc
 50
81.2384503883
 51
82.1140025065
  0
ARC
  5
421
100
AcDbEntity
  8
KONSTRUKTIONSELEMENTE
100
AcDbCircle
 62
7
  6
CONTINUOUS
 10
56.3566913565
 20
16.6334223159
 40
7.3279955906
100
AcDbArc
 50
82.1105000658
 51
83.9508226432
  0
ARC
  5
422
100
AcDbEntity
  8
KONSTRUKTIONSELEMENTE
100
AcDbCircle
 62
7
  6
CONTINUOUS
 10
34.110447881
 20
32.121378835
 40
3.2805025754
100
AcDbArc
 50
339.112215659
 51
339.8872067217
  0
ARC
  5
423
100
AcDbEntity
  8
KONSTRUKTIONSELEMENTE
100
AcDbCircle
 62
7
  6
CONTINUOUS
 10
34.1623421486
 20
32.1005751693
 40
3.2246015936
100
AcDbArc
 50
330.0312035642
 51
339.1288137427
  0
CIRCLE
  5
424
100
AcDbEntity
  8
BEZUGSACHSEN
100
AcDbCircle
 62
7
  6
CONTINUOUS
 10
111.3221689497
 20
90.7361132613
 40
3.0
  0
ARC
  5
425
100
AcDbEntity
  8
RUNDUNGEN
100
AcDbCircle
 62
7
  6
CONTINUOUS
 10
130.8615881122
 20
97.579380001
 40
3.0
100
AcDbArc
 50
120.0
 51
150.0
  0
ARC
  5
426
100
AcDbEntity
  8
RUNDUNGEN
100
AcDbCircle
 62
7
  6
CONTINUOUS
 10
60.7135304056
 20
138.079380001
 40
3.0
100
AcDbArc
 50
330.0
 51
360.0
  0
ARC
  5
427
100
AcDbEntity
  8
KONSTRUKTIONSELEMENTE
100
AcDbCircle
 62
7
  6
CONTINUOUS
 10
94.2717657674
 20
115.2039486598
 40
2.5
100
AcDbArc
 50
330.0
 51
150.0
  0
ARC
  5
428
100
AcDbEntity
  8
KONSTRUKTIONSELEMENTE
100
AcDbCircle
 62
7
  6
CONTINUOUS
 10
114.1543865854
 20
149.6416581043
 40
2.5
100
AcDbArc
 50
150.0
 51
330.0
  0
ARC
  5
429
100
AcDbEntity
  8
KONSTRUKTIONSELEMENTE
100
AcDbCircle
 62
7
  6
CONTINUOUS
 10
98.6864257469
 20
122.8503640426
 40
2.25
100
AcDbArc
 50
150.0
 51
330.0
  0
ARC
  5
42A
100
AcDbEntity
  8
KONSTRUKTIONSELEMENTE
100
AcDbCircle
 62
7
  6
CONTINUOUS
 10
109.7397266058
 20
141.9952427215
 40
2.25
100
AcDbArc
 50
11.3031628639
 51
108.6968371361
  0
ARC
  5
42B
100
AcDbEntity
  8
0
100
AcDbCircle
 62
7
  6
CONTINUOUS
 10
54.74137802
 20
99.7316876303
 40
2.0
100
AcDbArc
 50
190.0000172178
 51
240.0000110674
  0
ARC
  5
42C
100
AcDbEntity
  8
0
100
AcDbCircle
 62
7
  6
CONTINUOUS
 10
100.6375889453
 20
73.2334982836
 40
2.0
100
AcDbArc
 50
239.9999809015
 51
289.9999702881
  0
ARC
  5
42D
100
AcDbEntity
  8
RUNDUNGEN
100
AcDbCircle
 62
7
  6
CONTINUOUS
 10
113.7973551162
 20
78.0232614597
 40
2.0
100
AcDbArc
 50
290.0
 51
329.9999999998
  0
ARC
  5
42E
100
AcDbEntity
  8
RUNDUNGEN
100
AcDbCircle
 62
7
  6
CONTINUOUS
 10
52.3095514475
 20
113.5232614597
 40
2.0
100
AcDbArc
 50
150.0
 51
190.0
  0
ARC
  5
42F
100
AcDbEntity
  8
0
100
AcDbCircle
 62
7
  6
CONTINUOUS
 10
113.7973551162
 20
78.0232614597
 40
2.0
100
AcDbArc
 50
290.0
 51
329.9999999998
  0
ARC
  5
430
100
AcDbEntity
  8
KONSTRUKTIONSELEMENTE
100
AcDbCircle
 62
7
  6
CONTINUOUS
 10
40.5300786767
 20
95.431837706
 40
1.2681615075
100
AcDbArc
 50
311.2144804733
 51
316.8145490438
  0
ARC
  5
431
100
AcDbEntity
  8
0
100
AcDbCircle
 62
7
  6
CONTINUOUS
 10
206.8894830476
 20
310.2635568216
 40
13.0
100
AcDbArc
 50
330.0
 51
150.0
  0
ARC
  5
432
100
AcDbEntity
  8
KONSTRUKTIONSELEMENTE
100
AcDbCircle
 62
7
  6
CONTINUOUS
 10
419.7583024226
 20
40.2908423483
 40
56.0
100
AcDbArc
 50
96.4500015001
 51
110.9589038514
  0
ARC
  5
433
100
AcDbEntity
  8
KONSTRUKTIONSELEMENTE
100
AcDbCircle
 62
7
  6
CONTINUOUS
 10
419.7583024226
 20
40.2908423483
 40
56.0
100
AcDbArc
 50
129.0410961486
 51
143.5499984999
  0
ARC
  5
434
100
AcDbEntity
  8
0
100
AcDbCircle
 62
7
  6
CONTINUOUS
 10
350.3394830476
 20
160.5277645072
 40
20.0
100
AcDbArc
 50
160.5823106118
 51
79.4176893882
  0
ARC
  5
435
100
AcDbEntity
  8
0
100
AcDbCircle
 62
7
  6
CONTINUOUS
 10
346.8894830476
 20
166.5033397934
 40
13.0
100
AcDbArc
 50
210.0
 51
30.0
  0
ARC
  5
436
100
AcDbEntity
  8
0
100
AcDbCircle
 62
7
  6
CONTINUOUS
 10
372.2394830476
 20
122.5958518215
 40
8.8
100
AcDbArc
 50
30.0
 51
210.0
  0
ARC
  5
437
100
AcDbEntity
  8
0
100
AcDbCircle
 62
7
  6
CONTINUOUS
 10
339.9173779829
 20
97.579380001
 40
3.0
100
AcDbArc
 50
30.0
 51
60.0
  0
ARC
  5
438
100
AcDbEntity
  8
0
100
AcDbCircle
 62
7
  6
CONTINUOUS
 10
410.0654356895
 20
138.079380001
 40
3.0
100
AcDbArc
 50
180.0
 51
210.0
  0
CIRCLE
  5
439
100
AcDbEntity
  8
BEZUGSACHSEN
100
AcDbCircle
 62
7
  6
CONTINUOUS
 10
359.4567971454
 20
90.7361132613
 40
3.0
  0
ARC
  5
43A
100
AcDbEntity
  8
0
100
AcDbCircle
 62
7
  6
CONTINUOUS
 10
356.9816109789
 20
78.0232614597
 40
2.0
100
AcDbArc
 50
210.0000000002
 51
250.0
  0
ARC
  5
43B
100
AcDbEntity
  8
0
100
AcDbCircle
 62
7
  6
CONTINUOUS
 10
418.4694146476
 20
113.5232614597
 40
2.0
100
AcDbArc
 50
350.0
 51
30.0
  0
ARC
  5
43C
100
AcDbEntity
  8
0
100
AcDbCircle
 62
7
  6
CONTINUOUS
 10
416.0375880751
 20
99.7316876303
 40
2.0
100
AcDbArc
 50
299.9999889326
 51
349.9999827822
  0
ARC
  5
43D
100
AcDbEntity
  8
0
100
AcDbCircle
 62
7
  6
CONTINUOUS
 10
370.1413771498
 20
73.2334982836
 40
2.0
100
AcDbArc
 50
250.0000297119
 51
300.0000190985
  0
ARC
  5
43E
100
AcDbEntity
  8
0
100
AcDbCircle
 62
7
  6
CONTINUOUS
 10
235.3894830476
 20
359.6270048373
 40
102.0
100
AcDbArc
 50
180.0
 51
232.6765935193
  0
ARC
  5
43F
100
AcDbEntity
  8
0
100
AcDbCircle
 62
7
  6
CONTINUOUS
 10
235.3894830476
 20
359.6270048373
 40
102.0
100
AcDbArc
 50
247.3238814948
 51
292.6761185052
  0
ARC
  5
440
100
AcDbEntity
  8
0
100
AcDbCircle
 62
7
  6
CONTINUOUS
 10
235.3894830476
 20
359.6270048373
 40
102.0
100
AcDbArc
 50
307.3234064807
 51
360.0
  0
ARC
  5
441
100
AcDbEntity
  8
0
100
AcDbCircle
 62
7
  6
CONTINUOUS
 10
235.3894830476
 20
479.6270048373
 40
102.0
100
AcDbArc
 50
0.0
 51
180.0
  0
ARC
  5
442
100
AcDbEntity
  8
0
100
AcDbCircle
 62
7
  6
CONTINUOUS
 10
235.3894830476
 20
479.6270048373
 40
70.0
100
AcDbArc
 50
0.0
 51
180.0
  0
ARC
  5
443
100
AcDbEntity
  8
0
100
AcDbCircle
 62
7
  6
CONTINUOUS
 10
235.3894830476
 20
359.6270048373
 40
70.0
100
AcDbArc
 50
180.0
 51
229.295753965
  0
ARC
  5
444
100
AcDbEntity
  8
0
100
AcDbCircle
 62
7
  6
CONTINUOUS
 10
235.3894830476
 20
359.6270048373
 40
70.0
100
AcDbArc
 50
250.7038816607
 51
289.2961183393
  0
ARC
  5
445
100
AcDbEntity
  8
0
100
AcDbCircle
 62
7
  6
CONTINUOUS
 10
235.3894830476
 20
359.6270048373
 40
70.0
100
AcDbArc
 50
310.704246035
 51
360.0
  0
ARC
  5
446
100
AcDbEntity
  8
0
100
AcDbCircle
 62
7
  6
CONTINUOUS
 10
263.8894830476
 20
310.2635568216
 40
13.0
100
AcDbArc
 50
30.0
 51
210.0
  0
ARC
  5
447
100
AcDbEntity
  8
BEZUGSACHSEN
100
AcDbCircle
 62
7
  6
CONTINUOUS
 10
-54.9733334589
 20
-20.7338405084
 40
787.071219509
100
AcDbArc
 50
15.6720180444
 51
15.8197896934
  0
ARC
  5
448
100
AcDbEntity
  8
KONSTRUKTIONSELEMENTE
100
AcDbCircle
 62
7
  6
CONTINUOUS
 10
483.1694630434
 20
43.8572176523
 40
8.817219737
100
AcDbArc
 50
335.6515211891
 51
336.9574765808
  0
ARC
  5
449
100
AcDbEntity
  8
0
100
AcDbCircle
 62
7
  6
CONTINUOUS
 10
695.056349126
 20
121.4628626768
 40
6.8957629358
100
AcDbArc
 50
12.5082153213
 51
13.7904469125
  0
ARC
  5
44A
100
AcDbEntity
  8
0
100
AcDbCircle
 62
7
  6
CONTINUOUS
 10
690.8437537866
 20
121.4628626766
 40
6.8957629365
100
AcDbArc
 50
166.2095530875
 51
167.4917846786
  0
ARC
  5
44B
100
AcDbEntity
  8
KONSTRUKTIONSELEMENTE
100
AcDbCircle
 62
7
  6
CONTINUOUS
 10
557.8675906433
 20
110.4195582563
 40
6.6988955338
100
AcDbArc
 50
139.199173622
 51
142.6210750769
  0
ARC
  5
44C
100
AcDbEntity
  8
KONSTRUKTIONSELEMENTE
100
AcDbCircle
 62
7
  6
CONTINUOUS
 10
561.4031245492
 20
107.3576960779
 40
6.6988955337
100
AcDbArc
 50
139.199173622
 51
142.621075077
  0
ARC
  5
44D
100
AcDbEntity
  8
KONSTRUKTIONSELEMENTE
100
AcDbCircle
 62
7
  6
CONTINUOUS
 10
571.2290103107
 20
107.4515169263
 40
6.2119582943
100
AcDbArc
 50
34.4531420934
 51
34.977345511
  0
ARC
  5
44E
100
AcDbEntity
  8
0
100
AcDbCircle
 62
7
  6
CONTINUOUS
 10
675.8098472756
 20
82.5079436039
 40
5.3935178303
100
AcDbArc
 50
213.3585546604
 51
216.0522962764
  0
ARC
  5
44F
100
AcDbEntity
  8
RUNDUNGEN
100
AcDbCircle
 62
7
  6
CONTINUOUS
 10
710.0902556364
 20
82.5079436038
 40
5.3935178302
100
AcDbArc
 50
323.9477037235
 51
326.6414453396
  0
ARC
  5
450
100
AcDbEntity
  8
KONSTRUKTIONSELEMENTE
100
AcDbCircle
 62
7
  6
CONTINUOUS
 10
583.5826468607
 20
110.1246985668
 40
2.1487055737
100
AcDbArc
 50
21.3241761366
 51
27.3321484597
  0
ARC
  5
451
100
AcDbEntity
  8
KONSTRUKTIONSELEMENTE
100
AcDbCircle
 62
7
  6
CONTINUOUS
 10
583.6649498633
 20
110.1582220668
 40
2.0598469891
100
AcDbArc
 50
18.6815072044
 51
21.2880328931
  0
ARC
  5
452
100
AcDbEntity
  8
0
100
AcDbCircle
 62
7
  6
CONTINUOUS
 10
674.8863277724
 20
78.0327074214
 40
2.0131481011
100
AcDbArc
 50
216.1113762981
 51
234.6240687316
  0
ARC
  5
453
100
AcDbEntity
  8
BEZUGSACHSEN
100
AcDbCircle
 62
7
  6
CONTINUOUS
 10
502.275319919
 20
134.7455506939
 40
208.6710061853
100
AcDbArc
 50
16.1278519374
 51
16.2871148444
  0
ARC
  5
454
100
AcDbEntity
  8
KONSTRUKTIONSELEMENTE
100
AcDbCircle
 62
7
  6
CONTINUOUS
 10
601.3887941709
 20
127.8315696762
 40
6.5947824563
100
AcDbArc
 50
180.0290752758
 51
188.778086953
  0
ARC
  5
455
100
AcDbEntity
  8
KONSTRUKTIONSELEMENTE
100
AcDbCircle
 62
7
  6
CONTINUOUS
 10
602.5480762357
 20
128.7828715945
 40
3.6351988048
100
AcDbArc
 50
238.8071952044
 51
240.6860889462
  0
ARC
  5
456
100
AcDbEntity
  8
BEZUGSACHSEN
100
AcDbCircle
 62
7
  6
CONTINUOUS
 10
566.5097932217
 20
170.8542606938
 40
137.5812106692
100
AcDbArc
 50
10.1048285804
 51
10.3013136094
  0
ARC
  5
457
100
AcDbEntity
  8
KONSTRUKTIONSELEMENTE
100
AcDbCircle
 62
7
  6
CONTINUOUS
 10
632.3343176419
 20
154.6247283271
 40
6.8544496741
100
AcDbArc
 50
180.0468621101
 51
190.0347873196
  0
ARC
  5
458
100
AcDbEntity
  8
KONSTRUKTIONSELEMENTE
100
AcDbCircle
 62
7
  6
CONTINUOUS
 10
633.5125611159
 20
155.6302826324
 40
3.448088097
100
AcDbArc
 50
240.3855846735
 51
242.1133696712
  0
ARC
  5
459
100
AcDbEntity
  8
KONSTRUKTIONSELEMENTE
100
AcDbCircle
 62
7
  6
CONTINUOUS
 10
612.9368673614
 20
136.3756078686
 40
3.2537077433
100
AcDbArc
 50
125.8262786327
 51
130.8740696877
  0
ARC
  5
45A
100
AcDbEntity
  8
KONSTRUKTIONSELEMENTE
100
AcDbCircle
 62
7
  6
CONTINUOUS
 10
614.5208087507
 20
136.9167821649
 40
2.3966654422
100
AcDbArc
 50
23.4830152977
 51
29.1758184913
  0
ARC
  5
45B
100
AcDbEntity
  8
BEZUGSACHSEN
100
AcDbCircle
 62
7
  6
CONTINUOUS
 10
616.2847298782
 20
174.5945140279
 40
88.4102193555
100
AcDbArc
 50
11.8368763123
 51
12.095325156
  0
ARC
  5
45C
100
AcDbEntity
  8
BEZUGSACHSEN
100
AcDbCircle
 62
7
  6
CONTINUOUS
 10
621.1126575218
 20
183.2362617001
 40
81.6089620681
100
AcDbArc
 50
8.5974313025
 51
8.7910632531
  0
ARC
  5
45D
100
AcDbEntity
  8
BEZUGSACHSEN
100
AcDbCircle
 62
7
  6
CONTINUOUS
 10
629.2293651196
 20
170.8595353466
 40
76.7484971639
100
AcDbArc
 50
17.1064727541
 51
17.3095783697
  0
ARC
  5
45E
100
AcDbEntity
  8
KONSTRUKTIONSELEMENTE
100
AcDbCircle
 62
7
  6
CONTINUOUS
 10
617.8400075111
 20
205.8343676341
 40
61.4979562949
100
AcDbArc
 50
310.9160305483
 51
314.5539672013
  0
ARC
  5
45F
100
AcDbEntity
  8
BEZUGSACHSEN
100
AcDbCircle
 62
7
  6
CONTINUOUS
 10
644.3671275472
 20
176.5680075786
 40
60.776573564
100
AcDbArc
 50
20.8299732225
 51
21.1247537387
  0
ARC
  5
460
100
AcDbEntity
  8
KONSTRUKTIONSELEMENTE
100
AcDbCircle
 62
7
  6
CONTINUOUS
 10
618.7895527914
 20
204.7611888506
 40
53.0650820603
100
AcDbArc
 50
310.9031853114
 51
313.0579202974
  0
ARC
  5
461
100
AcDbEntity
  8
BEZUGSACHSEN
100
AcDbCircle
 62
7
  6
CONTINUOUS
 10
667.6889172675
 20
180.6516428207
 40
37.0616906601
100
AcDbArc
 50
18.5941907833
 51
18.9881966909
  0
ARC
  5
462
100
AcDbEntity
  8
BEZUGSACHSEN
100
AcDbCircle
 62
7
  6
CONTINUOUS
 10
681.2692365077
 20
188.9805256863
 40
21.8694930889
100
AcDbArc
 50
9.3713786519
 51
9.8713388108
  0
ARC
  5
463
100
AcDbEntity
  8
BEZUGSACHSEN
100
AcDbCircle
 62
7
  6
CONTINUOUS
 10
704.5723994121
 20
188.9904963191
 40
21.8101823611
100
AcDbArc
 50
170.1281348792
 51
170.7964636834
  0
ARC
  5
464
100
AcDbEntity
  8
BEZUGSACHSEN
100
AcDbCircle
 62
7
  6
CONTINUOUS
 10
704.4125425253
 20
195.1297491803
 40
20.1985271946
100
AcDbArc
 50
168.1064990849
 51
168.6184771333
  0
ARC
  5
465
100
AcDbEntity
  8
BEZUGSACHSEN
100
AcDbCircle
 62
7
  6
CONTINUOUS
 10
684.4652097713
 20
198.1883618074
 40
16.5608720995
100
AcDbArc
 50
357.4443664032
 51
0.8043982369
  0
ARC
  5
466
100
AcDbEntity
  8
KONSTRUKTIONSELEMENTE
100
AcDbCircle
 62
7
  6
CONTINUOUS
 10
683.8682326213
 20
198.2188658105
 40
16.5299841957
100
AcDbArc
 50
357.3337455374
 51
0.700160144
  0
ARC
  5
467
100
AcDbEntity
  8
BEZUGSACHSEN
100
AcDbCircle
 62
7
  6
CONTINUOUS
 10
685.0120026499
 20
197.4318668793
 40
16.2093213208
100
AcDbArc
 50
358.2481837108
 51
0.9655117913
  0
ARC
  5
468
100
AcDbEntity
  8
BEZUGSACHSEN
100
AcDbCircle
 62
7
  6
CONTINUOUS
 10
686.5890946326
 20
195.1629361078
 40
15.2179432007
100
AcDbArc
 50
358.1340068396
 51
1.0284018719
  0
ARC
  5
469
100
AcDbEntity
  8
BEZUGSACHSEN
100
AcDbCircle
 62
7
  6
CONTINUOUS
 10
687.2201659963
 20
194.2553918371
 40
14.8211583759
100
AcDbArc
 50
358.083919011
 51
0.7429959065
  0
ARC
  5
46A
100
AcDbEntity
  8
BEZUGSACHSEN
100
AcDbCircle
 62
7
  6
CONTINUOUS
 10
698.4596053998
 20
197.4878151084
 40
13.8557129837
100
AcDbArc
 50
168.5032923282
 51
169.2664985976
  0
ARC
  5
46B
100
AcDbEntity
  8
BEZUGSACHSEN
100
AcDbCircle
 62
7
  6
CONTINUOUS
 10
696.5841169912
 20
191.0745467259
 40
13.5454168886
100
AcDbArc
 50
176.5998559684
 51
177.7991760085
  0
ARC
  5
46C
100
AcDbEntity
  8
BEZUGSACHSEN
100
AcDbCircle
 62
7
  6
CONTINUOUS
 10
689.3159859207
 20
191.0745467259
 40
13.5454168886
100
AcDbArc
 50
2.2008239915
 51
3.4001440316
  0
ARC
  5
46D
100
AcDbEntity
  8
BEZUGSACHSEN
100
AcDbCircle
 62
7
  6
CONTINUOUS
 10
696.5678662821
 20
191.0823471598
 40
13.5291493426
100
AcDbArc
 50
182.113820774
 51
183.1428936215
  0
ARC
  5
46E
100
AcDbEntity
  8
BEZUGSACHSEN
100
AcDbCircle
 62
7
  6
CONTINUOUS
 10
689.3322366298
 20
191.0823471598
 40
13.5291493426
100
AcDbArc
 50
356.8571063785
 51
357.886179226
  0
ARC
  5
46F
100
AcDbEntity
  8
BEZUGSACHSEN
100
AcDbCircle
 62
7
  6
CONTINUOUS
 10
695.1283999901
 20
190.2808130064
 40
12.3337578591
100
AcDbArc
 50
163.1651327655
 51
163.8539916815
  0
ARC
  5
470
100
AcDbEntity
  8
0
100
AcDbCircle
 62
7
  6
CONTINUOUS
 10
690.9500514559
 20
188.8967390621
 40
8.0
100
AcDbArc
 50
166.25
 51
180.0
  0
ARC
  5
471
100
AcDbEntity
  8
BEZUGSACHSEN
100
AcDbCircle
 62
7
  6
CONTINUOUS
 10
694.9500514559
 20
188.8967390621
 40
8.0
100
AcDbArc
 50
0.0
 51
10.3676640748
  0
ARC
  5
472
100
AcDbEntity
  8
BEZUGSACHSEN
100
AcDbCircle
 62
7
  6
CONTINUOUS
 10
690.0384581875
 20
190.6351471797
 40
7.3055244361
100
AcDbArc
 50
162.0086431295
 51
163.1418951874
  0
ARC
  5
473
100
AcDbEntity
  8
BEZUGSACHSEN
100
AcDbCircle
 62
7
  6
CONTINUOUS
 10
698.0105773637
 20
191.156216336
 40
5.1083414555
100
AcDbArc
 50
25.452000868
 51
26.4928339423
  0
ARC
  5
474
100
AcDbEntity
  8
BEZUGSACHSEN
100
AcDbCircle
 62
7
  6
CONTINUOUS
 10
698.8450299129
 20
194.7671574576
 40
3.7771388434
100
AcDbArc
 50
50.3432750975
 51
51.0592708867
  0
ARC
  5
475
100
AcDbEntity
  8
BEZUGSACHSEN
100
AcDbCircle
 62
7
  6
CONTINUOUS
 10
697.4756594051
 20
199.8463740116
 40
3.5467156916
100
AcDbArc
 50
3.841728761
 51
5.6515427937
  0
ARC
  5
476
100
AcDbEntity
  8
BEZUGSACHSEN
100
AcDbCircle
 62
7
  6
CONTINUOUS
 10
697.4832133192
 20
199.8512638808
 40
3.5391379691
100
AcDbArc
 50
354.7234829772
 51
356.5362232294
  0
ARC
  5
477
100
AcDbEntity
  8
KONSTRUKTIONSELEMENTE
100
AcDbCircle
 62
7
  6
CONTINUOUS
 10
696.8640864273
 20
199.8582773727
 40
3.5342083405
100
AcDbArc
 50
3.6619542848
 51
5.4777170429
  0
ARC
  5
478
100
AcDbEntity
  8
KONSTRUKTIONSELEMENTE
100
AcDbCircle
 62
7
  6
CONTINUOUS
 10
696.8640864342
 20
199.8631666551
 40
3.5342083335
100
AcDbArc
 50
354.5222829562
 51
356.3380465826
  0
ARC
  5
479
100
AcDbEntity
  8
BEZUGSACHSEN
100
AcDbCircle
 62
7
  6
CONTINUOUS
 10
699.7000596244
 20
193.3771629211
 40
2.923184515
100
AcDbArc
 50
359.4979812153
 51
0.9568563147
  0
ARC
  5
47A
100
AcDbEntity
  8
BEZUGSACHSEN
100
AcDbCircle
 62
7
  6
CONTINUOUS
 10
685.8817894302
 20
192.430047176
 40
2.8392163985
100
AcDbArc
 50
179.0148416162
 51
180.5168652148
  0
ARC
  5
47B
100
AcDbEntity
  8
BEZUGSACHSEN
100
AcDbCircle
 62
7
  6
CONTINUOUS
 10
700.0183134817
 20
192.430047176
 40
2.8392163985
100
AcDbArc
 50
359.4831347852
 51
0.9851583838
  0
ARC
  5
47C
100
AcDbEntity
  8
BEZUGSACHSEN
100
AcDbCircle
 62
7
  6
CONTINUOUS
 10
700.8765046601
 20
191.1848557519
 40
2.3262365848
100
AcDbArc
 50
31.6192040161
 51
33.5136128029
  0
ARC
  5
47D
100
AcDbEntity
  8
KONSTRUKTIONSELEMENTE
100
AcDbCircle
 62
7
  6
CONTINUOUS
 10
698.8840007968
 20
199.5056583131
 40
1.8616938194
100
AcDbArc
 50
324.3596891376
 51
326.2691884973
  0
ARC
  5
47E
100
AcDbEntity
  8
BEZUGSACHSEN
100
AcDbCircle
 62
7
  6
CONTINUOUS
 10
699.5198293415
 20
199.4887845869
 40
1.8450875534
100
AcDbArc
 50
324.6342309465
 51
326.5544482802
  0
ARC
  5
47F
100
AcDbEntity
  8
BEZUGSACHSEN
100
AcDbCircle
 62
7
  6
CONTINUOUS
 10
683.4391742363
 20
193.7300386087
 40
0.1592250947
100
AcDbArc
 50
179.9708002306
 51
186.9908420392
  0
ARC
  5
480
100
AcDbEntity
  8
RUNDUNGEN
100
AcDbCircle
 62
7
  6
CONTINUOUS
 10
710.1249207604
 20
82.4852258502
 40
5.3520719669
100
AcDbArc
 50
326.6405178837
 51
329.8387757758
  0
ARC
  5
481
100
AcDbEntity
  8
RUNDUNGEN
100
AcDbCircle
 62
7
  6
CONTINUOUS
 10
711.0137751394
 20
78.0327074214
 40
2.0131481011
100
AcDbArc
 50
305.3759312684
 51
323.8886237019
  0
ARC
  5
482
100
AcDbEntity
  8
BEZUGSACHSEN
100
AcDbCircle
 62
7
  6
CONTINUOUS
 10
937.0569193154
 20
126.7384512239
 40
262.4365359073
100
AcDbArc
 50
165.1916039714
 51
165.3317118774
  0
ARC
  5
483
100
AcDbEntity
  8
BEZUGSACHSEN
100
AcDbCircle
 62
7
  6
CONTINUOUS
 10
933.2182185998
 20
142.6067279153
 40
254.9282382565
100
AcDbArc
 50
167.0509818549
 51
167.1941060375
  0
ARC
  5
484
100
AcDbEntity
  8
BEZUGSACHSEN
100
AcDbCircle
 62
7
  6
CONTINUOUS
 10
785.2641590566
 20
166.8497909656
 40
105.4567173937
100
AcDbArc
 50
164.99165237
 51
165.1208694641
  0
ARC
  5
485
100
AcDbEntity
  8
BEZUGSACHSEN
100
AcDbCircle
 62
7
  6
CONTINUOUS
 10
755.8363108724
 20
184.3824600058
 40
72.7023124812
100
AcDbArc
 50
167.5401979307
 51
167.8114506634
  0
ARC
  5
486
100
AcDbEntity
  8
BEZUGSACHSEN
100
AcDbCircle
 62
7
  6
CONTINUOUS
 10
736.9802585355
 20
178.1286942762
 40
55.8756472752
100
AcDbArc
 50
164.3589695837
 51
164.6799506589
  0
ARC
  5
487
100
AcDbEntity
  8
0
100
AcDbCircle
 62
7
  6
CONTINUOUS
 10
692.9500514559
 20
565.6270048373
 40
16.0
100
AcDbArc
 50
0.0
 51
180.0
  0
ARC
  5
488
100
AcDbEntity
  8
0
100
AcDbCircle
 62
7
  6
CONTINUOUS
 10
692.9500514559
 20
273.6270048373
 40
16.0
100
AcDbArc
 50
180.0
 51
360.0
  0
SPLINE
  5
489
100
AcDbEntity
  8
KONSTRUKTIONSELEMENTE
100
AcDbSpline
 62
7
  6
CONTINUOUS
 70
0
 71
3
 72
10
 73
6
 74
0
 42
0.0000001
 43
0.0000001
 44
0.0000000001
 40
0.0
 40
0.0
 40
0.0
 40
0.0
 40
0.3116645009
 40
0.6060899939
 40
1.0
 40
1.0
 40
1.0
 40
1.0
 10
102.117640926
 20
121.7934030645
 30
0.0
 10
102.2162183492
 20
121.96414417
 30
0.0
 10
102.2394769527
 20
122.3794863659
 30
0.0
 10
102.0603633924
 20
122.9838911185
 30
0.0
 10
101.8463632599
 20
123.3700346406
 30
0.0
 10
101.7055103448
 20
123.5755881819
 30
0.0
  0
SPLINE
  5
48A
100
AcDbEntity
  8
KONSTRUKTIONSELEMENTE
100
AcDbSpline
 62
7
  6
CONTINUOUS
 70
0
 71
3
 72
10
 73
6
 74
0
 42
0.0000001
 43
0.0000001
 44
0.0000000001
 40
0.0
 40
0.0
 40
0.0
 40
0.0
 40
0.3939255147
 40
0.6883533687
 40
1.0
 40
1.0
 40
1.0
 40
1.0
 10
97.8052120835
 20
125.8275556763
 30
0.0
 10
97.5567277757
 20
125.8467840421
 30
0.0
 10
97.1152468334
 20
125.8390416629
 30
0.0
 10
96.5021519867
 20
125.6920132738
 30
0.0
 10
96.1540487514
 20
125.4641584225
 30
0.0
 10
96.0554630995
 20
125.2934030645
 30
0.0
  0
SPLINE
  5
48B
100
AcDbEntity
  8
KONSTRUKTIONSELEMENTE
100
AcDbSpline
 62
7
  6
CONTINUOUS
 70
0
 71
3
 72
13
 73
9
 74
0
 42
0.0000001
 43
0.0000001
 44
0.0000000001
 40
0.0
 40
0.0
 40
0.0
 40
0.0
 40
0.1194785188
 40
0.2392741704
 40
0.3602835725
 40
0.4830059608
 40
0.7355440041
 40
1.0
 40
1.0
 40
1.0
 40
1.0
 10
106.014755243
 20
119.5434030645
 30
0.0
 10
106.1940750486
 20
119.8539940786
 30
0.0
 10
106.4884277416
 20
120.5160188645
 30
0.0
 10
106.7155580814
 20
121.5805726083
 30
0.0
 10
106.7305417581
 20
122.678494028
 30
0.0
 10
106.4763429495
 20
124.1535999078
 30
0.0
 10
105.6722219661
 20
125.9334587945
 30
0.0
 10
104.6542210961
 20
127.1303364504
 30
0.0
 10
104.0715536056
 20
127.6694544581
 30
0.0
  0
SPLINE
  5
48C
100
AcDbEntity
  8
KONSTRUKTIONSELEMENTE
100
AcDbSpline
 62
7
  6
CONTINUOUS
 70
0
 71
3
 72
13
 73
9
 74
0
 42
0.0000001
 43
0.0000001
 44
0.0000000001
 40
0.0
 40
0.0
 40
0.0
 40
0.0
 40
0.2644681654
 40
0.5169944072
 40
0.6397129492
 40
0.760706397
 40
0.8805228501
 40
1.0
 40
1.0
 40
1.0
 40
1.0
 10
100.1692135711
 20
129.9229694486
 30
0.0
 10
99.4108257616
 20
130.1581978837
 30
0.0
 10
97.8650227132
 20
130.4417701605
 30
0.0
 10
95.921093717
 20
130.2484871869
 30
0.0
 10
94.5162443897
 20
129.7311606937
 30
0.0
 10
93.5725695597
 20
129.1693014578
 30
0.0
 10
92.7640423121
 20
128.4401198589
 30
0.0
 10
92.3377059176
 20
127.8540587353
 30
0.0
 10
92.1583487825
 20
127.5434030645
 30
0.0
  0
SPLINE
  5
48D
100
AcDbEntity
  8
KONSTRUKTIONSELEMENTE
100
AcDbSpline
 62
7
  6
CONTINUOUS
 70
0
 71
3
 72
9
 73
5
 74
0
 42
0.0000001
 43
0.0000001
 44
0.0000000001
 40
0.0
 40
0.0
 40
0.0
 40
0.0
 40
0.4991894641
 40
1.0
 40
1.0
 40
1.0
 40
1.0
 10
86.8550479236
 20
118.357816529
 30
0.0
 10
86.6675587784
 20
118.0330758037
 30
0.0
 10
86.3628418509
 20
117.3389553517
 30
0.0
 10
86.2153390147
 20
116.5960289596
 30
0.0
 10
86.1798757885
 20
116.2215082147
 30
0.0
  0
SPLINE
  5
48E
100
AcDbEntity
  8
KONSTRUKTIONSELEMENTE
100
AcDbSpline
 62
7
  6
CONTINUOUS
 70
0
 71
3
 72
9
 73
5
 74
0
 42
0.0000001
 43
0.0000001
 44
0.0000000001
 40
0.0
 40
0.0
 40
0.0
 40
0.0
 40
0.5008476774
 40
1.0
 40
1.0
 40
1.0
 40
1.0
 10
99.1989845545
 20
108.7049194378
 30
0.0
 10
99.5056066465
 20
108.9229221076
 30
0.0
 10
100.0751863213
 20
109.422182935
 30
0.0
 10
100.5239806125
 20
110.0331024314
 30
0.0
 10
100.7114543841
 20
110.357816529
 30
0.0
  0
SPLINE
  5
48F
100
AcDbEntity
  8
KONSTRUKTIONSELEMENTE
100
AcDbSpline
 62
7
  6
CONTINUOUS
 70
0
 71
3
 72
10
 73
6
 74
0
 42
0.0000001
 43
0.0000001
 44
0.0000000001
 40
0.0
 40
0.0
 40
0.0
 40
0.0
 40
0.3192646009
 40
0.6086079864
 40
1.0
 40
1.0
 40
1.0
 40
1.0
 10
90.7521622406
 20
116.107816529
 30
0.0
 10
90.666292353
 20
115.9590855209
 30
0.0
 10
90.6288560244
 20
115.6102123246
 30
0.0
 10
90.7489771563
 20
115.0866561987
 30
0.0
 10
90.9051121675
 20
114.7505143054
 30
0.0
 10
91.0107359431
 20
114.5683874492
 30
0.0
  0
SPLINE
  5
490
100
AcDbEntity
  8
KONSTRUKTIONSELEMENTE
100
AcDbSpline
 62
7
  6
CONTINUOUS
 70
0
 71
3
 72
10
 73
6
 74
0
 42
0.0000001
 43
0.0000001
 44
0.0000000001
 40
0.0
 40
0.0
 40
0.0
 40
0.0
 40
0.3914026107
 40
0.6807340322
 40
1.0
 40
1.0
 40
1.0
 40
1.0
 10
95.3519740335
 20
112.0620330575
 30
0.0
 10
95.562504968
 20
112.0616288456
 30
0.0
 10
95.9316476841
 20
112.0945236236
 30
0.0
 10
96.4451068878
 20
112.2522196429
 30
0.0
 10
96.7284751743
 20
112.4590941721
 30
0.0
 10
96.8143400671
 20
112.607816529
 30
0.0
  0
SPLINE
  5
491
100
AcDbEntity
  8
KONSTRUKTIONSELEMENTE
100
AcDbSpline
 62
7
  6
CONTINUOUS
 70
0
 71
3
 72
10
 73
6
 74
0
 42
0.0000001
 43
0.0000001
 44
0.0000000001
 40
0.0
 40
0.0
 40
0.0
 40
0.0
 40
0.3192646009
 40
0.6086079864
 40
1.0
 40
1.0
 40
1.0
 40
1.0
 10
117.6739901121
 20
148.7377902351
 30
0.0
 10
117.7598599997
 20
148.8865212432
 30
0.0
 10
117.7972963283
 20
149.2353944395
 30
0.0
 10
117.6771751964
 20
149.7589505654
 30
0.0
 10
117.5210401853
 20
150.0950924587
 30
0.0
 10
117.4154164097
 20
150.2772193149
 30
0.0
  0
SPLINE
  5
492
100
AcDbEntity
  8
KONSTRUKTIONSELEMENTE
100
AcDbSpline
 62
7
  6
CONTINUOUS
 70
0
 71
3
 72
10
 73
6
 74
0
 42
0.0000001
 43
0.0000001
 44
0.0000000001
 40
0.0
 40
0.0
 40
0.0
 40
0.0
 40
0.3914026107
 40
0.6807340322
 40
1.0
 40
1.0
 40
1.0
 40
1.0
 10
113.0741783192
 20
152.7835737067
 30
0.0
 10
112.8636473847
 20
152.7839779185
 30
0.0
 10
112.4945046686
 20
152.7510831405
 30
0.0
 10
111.9810454649
 20
152.5933871212
 30
0.0
 10
111.6976771784
 20
152.386512592
 30
0.0
 10
111.6118122856
 20
152.2377902351
 30
0.0
  0
SPLINE
  5
493
100
AcDbEntity
  8
KONSTRUKTIONSELEMENTE
100
AcDbSpline
 62
7
  6
CONTINUOUS
 70
0
 71
3
 72
13
 73
9
 74
0
 42
0.0000001
 43
0.0000001
 44
0.0000000001
 40
0.0
 40
0.0
 40
0.0
 40
0.0
 40
0.1202542863
 40
0.2407101775
 40
0.3622135153
 40
0.4851397273
 40
0.7370234437
 40
1.0
 40
1.0
 40
1.0
 40
1.0
 10
121.5711044291
 20
146.4877902351
 30
0.0
 10
121.7359614294
 20
146.7733309355
 30
0.0
 10
122.0112286238
 20
147.3785252986
 30
0.0
 10
122.2440912148
 20
148.3496396108
 30
0.0
 10
122.2971250566
 20
149.3541228148
 30
0.0
 10
122.1341770359
 20
150.7109487215
 30
0.0
 10
121.5087377585
 20
152.3730748097
 30
0.0
 10
120.6686372008
 20
153.5275889379
 30
0.0
 10
120.1810814401
 20
154.0587903054
 30
0.0
  0
SPLINE
  5
494
100
AcDbEntity
  8
KONSTRUKTIONSELEMENTE
100
AcDbSpline
 62
7
  6
CONTINUOUS
 70
0
 71
3
 72
13
 73
9
 74
0
 42
0.0000001
 43
0.0000001
 44
0.0000000001
 40
0.0
 40
0.0
 40
0.0
 40
0.0
 40
0.2629481772
 40
0.5148079537
 40
0.6377308964
 40
0.7592358952
 40
0.8797321581
 40
1.0
 40
1.0
 40
1.0
 40
1.0
 10
114.9517029093
 20
157.0727526913
 30
0.0
 10
114.2490053297
 20
157.2279952975
 30
0.0
 10
112.8316292095
 20
157.3758567161
 30
0.0
 10
111.0832568795
 20
157.084713868
 30
0.0
 10
109.8295937121
 20
156.5472891724
 30
0.0
 10
108.9880485942
 20
155.9994553344
 30
0.0
 10
108.2650754273
 20
155.3129858013
 30
0.0
 10
107.8792736529
 20
154.772843682
 30
0.0
 10
107.7146979686
 20
154.4877902351
 30
0.0
  0
SPLINE
  5
495
100
AcDbEntity
  8
KONSTRUKTIONSELEMENTE
100
AcDbSpline
 62
7
  6
CONTINUOUS
 70
0
 71
3
 72
9
 73
5
 74
0
 42
0.0000001
 43
0.0000001
 44
0.0000000001
 40
0.0
 40
0.0
 40
0.0
 40
0.0
 40
0.231295784
 40
1.0
 40
1.0
 40
1.0
 40
1.0
 10
109.7338908743
 20
177.4235223699
 30
0.0
 10
109.8065160321
 20
176.9469975881
 30
0.0
 10
110.2375417523
 20
174.9047783375
 30
0.0
 10
111.1034123054
 20
172.9676826659
 30
0.0
 10
111.92037115
 20
171.5896442919
 30
0.0
  0
SPLINE
  5
496
100
AcDbEntity
  8
KONSTRUKTIONSELEMENTE
100
AcDbSpline
 62
7
  6
CONTINUOUS
 70
0
 71
3
 72
9
 73
5
 74
0
 42
0.0000001
 43
0.0000001
 44
0.0000000001
 40
0.0
 40
0.0
 40
0.0
 40
0.0
 40
0.2693689048
 40
1.0
 40
1.0
 40
1.0
 40
1.0
 10
134.2790475407
 20
158.6809303806
 30
0.0
 10
134.8403646347
 20
158.6744545447
 30
0.0
 10
136.9225456702
 20
158.7354543964
 30
0.0
 10
139.0073564138
 20
159.1506837897
 30
0.0
 10
140.4255640611
 20
159.7047772327
 30
0.0
  0
SPLINE
  5
497
100
AcDbEntity
  8
KONSTRUKTIONSELEMENTE
100
AcDbSpline
 62
7
  6
CONTINUOUS
 70
0
 71
3
 72
9
 73
5
 74
0
 42
0.0000001
 43
0.0000001
 44
0.0000000001
 40
0.0
 40
0.0
 40
0.0
 40
0.0
 40
0.4853819776
 40
1.0
 40
1.0
 40
1.0
 40
1.0
 10
104.0023402043
 20
171.9241463156
 30
0.0
 10
104.8405771627
 20
169.7299318301
 30
0.0
 10
107.2463498591
 20
165.4557514452
 30
0.0
 10
110.5894205323
 20
161.8959092993
 30
0.0
 10
112.4750378006
 20
160.2691577876
 30
0.0
  0
SPLINE
  5
498
100
AcDbEntity
  8
KONSTRUKTIONSELEMENTE
100
AcDbSpline
 62
7
  6
CONTINUOUS
 70
0
 71
3
 72
9
 73
5
 74
0
 42
0.0000001
 43
0.0000001
 44
0.0000000001
 40
0.0
 40
0.0
 40
0.0
 40
0.0
 40
0.5146328688
 40
1.0
 40
1.0
 40
1.0
 40
1.0
 10
124.1771096302
 20
153.5082522687
 30
0.0
 10
126.531702236
 20
152.6859764591
 30
0.0
 10
131.2925694735
 20
151.5666340226
 30
0.0
 10
136.2043017611
 20
151.6192289481
 30
0.0
 10
138.5269702168
 20
151.9908668547
 30
0.0
  0
SPLINE
  5
499
100
AcDbEntity
  8
KONSTRUKTIONSELEMENTE
100
AcDbSpline
 62
7
  6
CONTINUOUS
 70
0
 71
3
 72
13
 73
9
 74
0
 42
0.0000001
 43
0.0000001
 44
0.0000000001
 40
0.0
 40
0.0
 40
0.0
 40
0.0
 40
0.1037033436
 40
0.212323527
 40
0.3277710209
 40
0.4507608463
 40
0.7166544849
 40
1.0
 40
1.0
 40
1.0
 40
1.0
 10
37.1908971907
 20
30.9933144761
 30
0.0
 10
37.2867852093
 20
31.2551565853
 30
0.0
 10
37.4142843325
 20
31.8186991185
 30
0.0
 10
37.401004258
 20
32.7068829568
 30
0.0
 10
37.1916762701
 20
33.6226609157
 30
0.0
 10
36.6491221733
 20
34.8724240387
 30
0.0
 10
35.5280006961
 20
36.3263996457
 30
0.0
 10
34.335798435
 20
37.2280360622
 30
0.0
 10
33.6759858141
 20
37.6089790566
 30
0.0
  0
SPLINE
  5
49A
100
AcDbEntity
  8
KONSTRUKTIONSELEMENTE
100
AcDbSpline
 62
7
  6
CONTINUOUS
 70
0
 71
3
 72
9
 73
5
 74
0
 42
0.0000001
 43
0.0000001
 44
0.0000000001
 40
0.0
 40
0.0
 40
0.0
 40
0.0
 40
0.2454868499
 40
1.0
 40
1.0
 40
1.0
 40
1.0
 10
41.3383127076
 20
94.297905546
 30
0.0
 10
41.3661058182
 20
94.3460404838
 30
0.0
 10
41.4658663539
 20
94.5498410829
 30
0.0
 10
41.5058958915
 20
94.7808444997
 30
0.0
 10
41.5048189502
 20
94.9516764414
 30
0.0
  0
SPLINE
  5
49B
100
AcDbEntity
  8
KONSTRUKTIONSELEMENTE
100
AcDbSpline
 62
7
  6
CONTINUOUS
 70
0
 71
3
 72
11
 73
7
 74
0
 42
0.0000001
 43
0.0000001
 44
0.0000000001
 40
0.0
 40
0.0
 40
0.0
 40
0.0
 40
0.2187337062
 40
0.4541366386
 40
0.7148275965
 40
1.0
 40
1.0
 40
1.0
 40
1.0
 10
31.190738187
 20
99.8792671982
 30
0.0
 10
31.2746274628
 20
100.0245551845
 30
0.0
 10
31.5170488869
 20
100.29065058
 30
0.0
 10
32.0233501476
 20
100.5282793486
 30
0.0
 10
32.6256660891
 20
100.6037288661
 30
0.0
 10
33.0452168668
 20
100.548018625
 30
0.0
 10
33.2577423541
 20
100.496308531
 30
0.0
  0
SPLINE
  5
49C
100
AcDbEntity
  8
KONSTRUKTIONSELEMENTE
100
AcDbSpline
 62
7
  6
CONTINUOUS
 70
0
 71
3
 72
12
 73
8
 74
0
 42
0.0000001
 43
0.0000001
 44
0.0000000001
 40
0.0
 40
0.0
 40
0.0
 40
0.0
 40
0.1086802535
 40
0.2196404807
 40
0.4547579712
 40
0.715164231
 40
1.0
 40
1.0
 40
1.0
 40
1.0
 10
31.747961895
 20
120.0045369408
 30
0.0
 10
31.8870647556
 20
120.2454317182
 30
0.0
 10
32.2205648331
 20
120.7040179226
 30
0.0
 10
33.0876589021
 20
121.4909381888
 30
0.0
 10
34.5242367382
 20
122.1695961548
 30
0.0
 10
36.5307890702
 20
122.4187253007
 30
0.0
 10
37.9295591271
 20
122.2336274785
 30
0.0
 10
38.6379431951
 20
122.0612688253
 30
0.0
  0
SPLINE
  5
49D
100
AcDbEntity
  8
KONSTRUKTIONSELEMENTE
100
AcDbSpline
 62
7
  6
CONTINUOUS
 70
0
 71
3
 72
9
 73
5
 74
0
 42
0.0000001
 43
0.0000001
 44
0.0000000001
 40
0.0
 40
0.0
 40
0.0
 40
0.0
 40
0.4910898138
 40
1.0
 40
1.0
 40
1.0
 40
1.0
 10
29.980155507
 20
116.9426057299
 30
0.0
 10
29.7944278441
 20
116.6209543734
 30
0.0
 10
29.50772471
 20
115.9091359469
 30
0.0
 10
29.4227151438
 20
115.148258257
 30
0.0
 10
29.4251415429
 20
114.7633658859
 30
0.0
  0
SPLINE
  5
49E
100
AcDbEntity
  8
KONSTRUKTIONSELEMENTE
100
AcDbSpline
 62
7
  6
CONTINUOUS
 70
0
 71
3
 72
9
 73
5
 74
0
 42
0.0000001
 43
0.0000001
 44
0.0000000001
 40
0.0
 40
0.0
 40
0.0
 40
0.0
 40
0.4910906792
 40
1.0
 40
1.0
 40
1.0
 40
1.0
 10
74.1651404432
 20
28.4992903469
 30
0.0
 10
74.3508360237
 20
28.820975861
 30
0.0
 10
74.823945206
 20
29.4252057273
 30
0.0
 10
75.4403997851
 20
29.8792839869
 30
0.0
 10
75.7749505933
 20
30.0696351293
 30
0.0
  0
SPLINE
  5
49F
100
AcDbEntity
  8
KONSTRUKTIONSELEMENTE
100
AcDbSpline
 62
7
  6
CONTINUOUS
 70
0
 71
3
 72
11
 73
7
 74
0
 42
0.0000001
 43
0.0000001
 44
0.0000000001
 40
0.0
 40
0.0
 40
0.0
 40
0.0
 40
0.2239782306
 40
0.4651644091
 40
0.7245589301
 40
1.0
 40
1.0
 40
1.0
 40
1.0
 10
75.3959832612
 20
29.8289859698
 30
0.0
 10
75.3575175955
 20
29.3928760815
 30
0.0
 10
75.4082969566
 20
28.4727496851
 30
0.0
 10
75.826145653
 20
27.1080485393
 30
0.0
 10
76.5614715206
 20
25.7708479168
 30
0.0
 10
77.2249173919
 20
24.9552920969
 30
0.0
 10
77.5967159855
 20
24.5658877456
 30
0.0
  0
SPLINE
  5
4A0
100
AcDbEntity
  8
KONSTRUKTIONSELEMENTE
100
AcDbSpline
 62
7
  6
CONTINUOUS
 70
0
 71
3
 72
11
 73
7
 74
0
 42
0.0000001
 43
0.0000001
 44
0.0000000001
 40
0.0
 40
0.0
 40
0.0
 40
0.0
 40
0.2094829334
 40
0.4446557434
 40
0.7120095299
 40
1.0
 40
1.0
 40
1.0
 40
1.0
 10
26.2649294571
 20
18.3726529085
 30
0.0
 10
26.1524805872
 20
18.1778857526
 30
0.0
 10
26.0374572442
 20
17.6865397046
 30
0.0
 10
26.2452084324
 20
16.9279042099
 30
0.0
 10
26.7479379297
 20
16.227538649
 30
0.0
 10
27.2271026011
 20
15.8575501906
 30
0.0
 10
27.4948622888
 20
15.7029590628
 30
0.0
  0
SPLINE
  5
4A1
100
AcDbEntity
  8
KONSTRUKTIONSELEMENTE
100
AcDbSpline
 62
7
  6
CONTINUOUS
 70
0
 71
3
 72
10
 73
6
 74
0
 42
0.0000001
 43
0.0000001
 44
0.0000000001
 40
0.0
 40
0.0
 40
0.0
 40
0.0
 40
0.2197775555
 40
0.45626554
 40
1.0
 40
1.0
 40
1.0
 40
1.0
 10
84.2116928218
 20
17.1123942781
 30
0.0
 10
84.2396539559
 20
17.1608312402
 30
0.0
 10
84.2760551254
 20
17.2752280821
 30
0.0
 10
84.2542019366
 20
17.5334242697
 30
0.0
 10
84.1408681232
 20
17.7118507441
 30
0.0
 10
84.045315951
 20
17.8119275929
 30
0.0
  0
SPLINE
  5
4A2
100
AcDbEntity
  8
KONSTRUKTIONSELEMENTE
100
AcDbSpline
 62
7
  6
CONTINUOUS
 70
0
 71
3
 72
9
 73
5
 74
0
 42
0.0000001
 43
0.0000001
 44
0.0000000001
 40
0.0
 40
0.0
 40
0.0
 40
0.0
 40
0.5089312496
 40
1.0
 40
1.0
 40
1.0
 40
1.0
 10
138.6123982277
 20
45.9435691359
 30
0.0
 10
138.9469986156
 20
46.1339484879
 30
0.0
 10
139.5635323325
 20
46.5880747372
 30
0.0
 10
140.036605185
 20
47.192428014
 30
0.0
 10
140.2223225224
 20
47.5141268923
 30
0.0
  0
SPLINE
  5
4A3
100
AcDbEntity
  8
KONSTRUKTIONSELEMENTE
100
AcDbSpline
 62
7
  6
CONTINUOUS
 70
0
 71
3
 72
9
 73
5
 74
0
 42
0.0000001
 43
0.0000001
 44
0.0000000001
 40
0.0
 40
0.0
 40
0.0
 40
0.0
 40
0.5358983849
 40
1.0
 40
1.0
 40
1.0
 40
1.0
 10
136.1063919858
 20
45.377346847
 30
0.0
 10
136.2473353192
 20
45.229729432
 30
0.0
 10
136.5890749707
 20
45.0249317179
 30
0.0
 10
137.0110512769
 20
45.0324422936
 30
0.0
 10
137.1646787342
 20
45.1198525203
 30
0.0
  0
SPLINE
  5
4A4
100
AcDbEntity
  8
KONSTRUKTIONSELEMENTE
100
AcDbSpline
 62
7
  6
CONTINUOUS
 70
0
 71
3
 72
9
 73
5
 74
0
 42
0.0000001
 43
0.0000001
 44
0.0000000001
 40
0.0
 40
0.0
 40
0.0
 40
0.0
 40
0.2586509047
 40
1.0
 40
1.0
 40
1.0
 40
1.0
 10
82.2829488419
 20
13.8935044582
 30
0.0
 10
82.2999115231
 20
13.9031558046
 30
0.0
 10
82.3632352097
 20
13.9442480443
 30
0.0
 10
82.4159600638
 20
14.0020870462
 30
0.0
 10
82.4439258688
 20
14.0505320996
 30
0.0
  0
SPLINE
  5
4A5
100
AcDbEntity
  8
KONSTRUKTIONSELEMENTE
100
AcDbSpline
 62
7
  6
CONTINUOUS
 70
0
 71
3
 72
11
 73
7
 74
0
 42
0.0000001
 43
0.0000001
 44
0.0000000001
 40
0.0
 40
0.0
 40
0.0
 40
0.0
 40
0.2745288198
 40
0.5376308219
 40
0.7805434542
 40
1.0
 40
1.0
 40
1.0
 40
1.0
 10
75.0182038637
 20
13.7400383367
 30
0.0
 10
75.5237498889
 20
13.448161203
 30
0.0
 10
76.5757471283
 20
12.9763599273
 30
0.0
 10
78.2133303793
 20
12.6313947568
 30
0.0
 10
79.7717019409
 20
12.6823927336
 30
0.0
 10
80.7227558949
 20
13.0057932271
 30
0.0
 10
81.1283489282
 20
13.2365656399
 30
0.0
  0
SPLINE
  5
4A6
100
AcDbEntity
  8
KONSTRUKTIONSELEMENTE
100
AcDbSpline
 62
7
  6
CONTINUOUS
 70
0
 71
3
 72
13
 73
9
 74
0
 42
0.0000001
 43
0.0000001
 44
0.0000000001
 40
0.0
 40
0.0
 40
0.0
 40
0.0
 40
0.2870570185
 40
0.5535684049
 40
0.675502601
 40
0.7893257806
 40
0.8965530995
 40
1.0
 40
1.0
 40
1.0
 40
1.0
 10
57.3704408616
 20
23.9289790566
 30
0.0
 10
56.6564478442
 20
24.3412031174
 30
0.0
 10
55.1652088518
 20
24.9542896947
 30
0.0
 10
53.1967870751
 20
25.1497332114
 30
0.0
 10
51.7689861845
 20
24.8891561107
 30
0.0
 10
50.8506728297
 20
24.5093658182
 30
0.0
 10
50.0924851545
 20
23.9506226771
 30
0.0
 10
49.7136899961
 20
23.4670975365
 30
0.0
 10
49.5651365776
 20
23.2097954681
 30
0.0
  0
SPLINE
  5
4A7
100
AcDbEntity
  8
KONSTRUKTIONSELEMENTE
100
AcDbSpline
 62
7
  6
CONTINUOUS
 70
0
 71
3
 72
12
 73
8
 74
0
 42
0.0000001
 43
0.0000001
 44
0.0000000001
 40
0.0
 40
0.0
 40
0.0
 40
0.0
 40
0.1086815995
 40
0.219641649
 40
0.4547639717
 40
0.7151805887
 40
1.0
 40
1.0
 40
1.0
 40
1.0
 10
141.9900894754
 20
50.5759890708
 30
0.0
 10
142.1291645084
 20
50.8168943237
 30
0.0
 10
142.359529219
 20
51.3350096678
 30
0.0
 10
142.6074222166
 20
52.4793857661
 30
0.0
 10
142.4767716235
 20
54.0628100691
 30
0.0
 10
141.689246052
 20
55.9250244051
 30
0.0
 10
140.8295818367
 20
57.0437875949
 30
0.0
 10
140.3261667415
 20
57.5710408764
 30
0.0
  0
SPLINE
  5
4A8
100
AcDbEntity
  8
KONSTRUKTIONSELEMENTE
100
AcDbSpline
 62
7
  6
CONTINUOUS
 70
0
 71
3
 72
9
 73
5
 74
0
 42
0.0000001
 43
0.0000001
 44
0.0000000001
 40
0.0
 40
0.0
 40
0.0
 40
0.0
 40
0.2578752243
 40
1.0
 40
1.0
 40
1.0
 40
1.0
 10
40.7409597159
 20
98.6755486856
 30
0.0
 10
40.803427577
 20
98.6603494782
 30
0.0
 10
41.0474360326
 20
98.6092249106
 30
0.0
 10
41.2985722509
 20
98.5896386231
 30
0.0
 10
41.4834365219
 20
98.5971703403
 30
0.0
  0
SPLINE
  5
4A9
100
AcDbEntity
  8
KONSTRUKTIONSELEMENTE
100
AcDbSpline
 62
7
  6
CONTINUOUS
 70
0
 71
3
 72
11
 73
7
 74
0
 42
0.0000001
 43
0.0000001
 44
0.0000000001
 40
0.0
 40
0.0
 40
0.0
 40
0.0
 40
0.2879904701
 40
0.5553442566
 40
0.7905170666
 40
1.0
 40
1.0
 40
1.0
 40
1.0
 10
41.4898328139
 20
7.6229590628
 30
0.0
 10
41.7575925016
 20
7.4683679351
 30
0.0
 10
42.3175942414
 20
7.2383933863
 30
0.0
 10
43.1754933577
 20
7.1531996508
 30
0.0
 10
43.9363665625
 20
7.3525995915
 30
0.0
 10
44.3043730505
 20
7.6978857526
 30
0.0
 10
44.4168219205
 20
7.8926529085
 30
0.0
  0
SPLINE
  5
4AA
100
AcDbEntity
  8
KONSTRUKTIONSELEMENTE
100
AcDbSpline
 62
7
  6
CONTINUOUS
 70
0
 71
3
 72
11
 73
7
 74
0
 42
0.0000001
 43
0.0000001
 44
0.0000000001
 40
0.0
 40
0.0
 40
0.0
 40
0.0
 40
0.2809363762
 40
0.5390132064
 40
0.7759685789
 40
1.0
 40
1.0
 40
1.0
 40
1.0
 10
57.1289304044
 20
23.9206142462
 30
0.0
 10
56.6515387423
 20
23.971165932
 30
0.0
 10
55.7217750616
 20
23.9774467194
 30
0.0
 10
54.4172369672
 20
23.6671371166
 30
0.0
 10
53.3346914181
 20
23.045328608
 30
0.0
 10
52.8106716794
 20
22.4312271621
 30
0.0
 10
52.6192605822
 20
22.0996934167
 30
0.0
  0
SPLINE
  5
4AB
100
AcDbEntity
  8
KONSTRUKTIONSELEMENTE
100
AcDbSpline
 62
7
  6
CONTINUOUS
 70
0
 71
3
 72
11
 73
7
 74
0
 42
0.0000001
 43
0.0000001
 44
0.0000000001
 40
0.0
 40
0.0
 40
0.0
 40
0.0
 40
0.2764757917
 40
0.5326342242
 40
0.7713875913
 40
1.0
 40
1.0
 40
1.0
 40
1.0
 10
34.4334544727
 20
37.1175117889
 30
0.0
 10
34.6304326691
 20
36.7685417851
 30
0.0
 10
34.9485504032
 20
36.0580796756
 30
0.0
 10
35.1691517049
 20
34.9509996766
 30
0.0
 10
35.0996039515
 20
33.8912116669
 30
0.0
 10
34.8525503305
 20
33.2468485773
 30
0.0
 10
34.6868745366
 20
32.9598896847
 30
0.0
  0
SPLINE
  5
4AC
100
AcDbEntity
  8
KONSTRUKTIONSELEMENTE
100
AcDbSpline
 62
7
  6
CONTINUOUS
 70
0
 71
3
 72
9
 73
5
 74
0
 42
0.0000001
 43
0.0000001
 44
0.0000000001
 40
0.0
 40
0.0
 40
0.0
 40
0.0
 40
0.2584251542
 40
1.0
 40
1.0
 40
1.0
 40
1.0
 10
29.8221504163
 20
97.1434300214
 30
0.0
 10
29.8217816566
 20
97.2019252604
 30
0.0
 10
29.8336297181
 20
97.4280730783
 30
0.0
 10
29.9047208296
 20
97.6518323044
 30
0.0
 10
29.9886566589
 20
97.7972009168
 30
0.0
  0
SPLINE
  5
4AD
100
AcDbEntity
  8
KONSTRUKTIONSELEMENTE
100
AcDbSpline
 62
7
  6
CONTINUOUS
 70
0
 71
3
 72
9
 73
5
 74
0
 42
0.0000001
 43
0.0000001
 44
0.0000000001
 40
0.0
 40
0.0
 40
0.0
 40
0.0
 40
0.2449309274
 40
1.0
 40
1.0
 40
1.0
 40
1.0
 10
29.4442328741
 20
111.7349655827
 30
0.0
 10
29.444393735
 20
111.7094487101
 30
0.0
 10
29.4477549565
 20
111.6052953887
 30
0.0
 10
29.4617632402
 20
111.5015515345
 30
0.0
 10
29.4775416685
 20
111.4244856243
 30
0.0
  0
SPLINE
  5
4AE
100
AcDbEntity
  8
KONSTRUKTIONSELEMENTE
100
AcDbSpline
 62
7
  6
CONTINUOUS
 70
0
 71
3
 72
11
 73
7
 74
0
 42
0.0000001
 43
0.0000001
 44
0.0000000001
 40
0.0
 40
0.0
 40
0.0
 40
0.0
 40
0.224059501
 40
0.4661297774
 40
0.7258823081
 40
1.0
 40
1.0
 40
1.0
 40
1.0
 10
29.8722660572
 20
43.8373526167
 30
0.0
 10
29.8751746078
 20
43.3759779959
 30
0.0
 10
30.0176910915
 20
42.4142912993
 30
0.0
 10
30.5779618774
 20
41.016923495
 30
0.0
 10
31.4590990447
 20
39.6730829811
 30
0.0
 10
32.2178639453
 20
38.8692407355
 30
0.0
 10
32.6365866528
 20
38.4907033073
 30
0.0
  0
SPLINE
  5
4AF
100
AcDbEntity
  8
KONSTRUKTIONSELEMENTE
100
AcDbSpline
 62
7
  6
CONTINUOUS
 70
0
 71
3
 72
12
 73
8
 74
0
 42
0.0000001
 43
0.0000001
 44
0.0000000001
 40
0.0
 40
0.0
 40
0.0
 40
0.0
 40
0.2178893667
 40
0.3388398448
 40
0.4664304398
 40
0.7332122526
 40
1.0
 40
1.0
 40
1.0
 40
1.0
 10
119.0749245371
 20
54.706250267
 30
0.0
 10
119.8064630396
 20
55.1224775971
 30
0.0
 10
121.1196715518
 20
55.4758335647
 30
0.0
 10
122.9241680972
 20
55.4681614757
 30
0.0
 10
124.8963065472
 20
55.1386800735
 30
0.0
 10
127.2912424089
 20
54.1569706713
 30
0.0
 10
128.9461307024
 20
52.8766675757
 30
0.0
 10
129.6577920203
 20
52.1313069998
 30
0.0
  0
SPLINE
  5
4B0
100
AcDbEntity
  8
KONSTRUKTIONSELEMENTE
100
AcDbSpline
 62
7
  6
CONTINUOUS
 70
0
 71
3
 72
12
 73
8
 74
0
 42
0.0000001
 43
0.0000001
 44
0.0000000001
 40
0.0
 40
0.0
 40
0.0
 40
0.0
 40
0.1086815995
 40
0.219641649
 40
0.4547639717
 40
0.7151805887
 40
1.0
 40
1.0
 40
1.0
 40
1.0
 10
140.2223225224
 20
47.5141268923
 30
0.0
 10
140.3613975554
 20
47.7550321452
 30
0.0
 10
140.591762266
 20
48.2731474894
 30
0.0
 10
140.8396552636
 20
49.4175235876
 30
0.0
 10
140.7090046706
 20
51.0009478907
 30
0.0
 10
139.921479099
 20
52.8631622266
 30
0.0
 10
139.0618148837
 20
53.9819254164
 30
0.0
 10
138.5583997885
 20
54.509178698
 30
0.0
  0
SPLINE
  5
4B1
100
AcDbEntity
  8
KONSTRUKTIONSELEMENTE
100
AcDbSpline
 62
7
  6
CONTINUOUS
 70
0
 71
3
 72
9
 73
5
 74
0
 42
0.0000001
 43
0.0000001
 44
0.0000000001
 40
0.0
 40
0.0
 40
0.0
 40
0.0
 40
0.5394801424
 40
1.0
 40
1.0
 40
1.0
 40
1.0
 10
39.5541512529
 20
94.1707621617
 30
0.0
 10
39.8842741063
 20
94.090439166
 30
0.0
 10
40.5288182189
 20
94.0366501961
 30
0.0
 10
41.1475193037
 20
94.2867192117
 30
0.0
 10
41.3656444214
 20
94.4778652246
 30
0.0
  0
SPLINE
  5
4B2
100
AcDbEntity
  8
KONSTRUKTIONSELEMENTE
100
AcDbSpline
 62
7
  6
CONTINUOUS
 70
0
 71
3
 72
11
 73
7
 74
0
 42
0.0000001
 43
0.0000001
 44
0.0000000001
 40
0.0
 40
0.0
 40
0.0
 40
0.0
 40
0.2819831575
 40
0.5426850885
 40
0.7803647343
 40
1.0
 40
1.0
 40
1.0
 40
1.0
 10
39.5388781879
 20
96.5934824042
 30
0.0
 10
39.7312241483
 20
96.5466822401
 30
0.0
 10
40.111675936
 20
96.4923562899
 30
0.0
 10
40.6629582145
 20
96.5399280385
 30
0.0
 10
41.1419401444
 20
96.718921514
 30
0.0
 10
41.3954322511
 20
96.9288031574
 30
0.0
 10
41.4932827156
 20
97.047963928
 30
0.0
  0
SPLINE
  5
4B3
100
AcDbEntity
  8
KONSTRUKTIONSELEMENTE
100
AcDbSpline
 62
7
  6
CONTINUOUS
 70
0
 71
3
 72
10
 73
6
 74
0
 42
0.0000001
 43
0.0000001
 44
0.0000000001
 40
0.0
 40
0.0
 40
0.0
 40
0.0
 40
0.2197775555
 40
0.45626554
 40
1.0
 40
1.0
 40
1.0
 40
1.0
 10
82.4439258688
 20
14.0505320996
 30
0.0
 10
82.4718870029
 20
14.0989690617
 30
0.0
 10
82.5082881724
 20
14.2133659036
 30
0.0
 10
82.4864349836
 20
14.4715620912
 30
0.0
 10
82.3731011702
 20
14.6499885656
 30
0.0
 10
82.277548998
 20
14.7500654144
 30
0.0
  0
SPLINE
  5
4B4
100
AcDbEntity
  8
KONSTRUKTIONSELEMENTE
100
AcDbSpline
 62
7
  6
CONTINUOUS
 70
0
 71
3
 72
11
 73
7
 74
0
 42
0.0000001
 43
0.0000001
 44
0.0000000001
 40
0.0
 40
0.0
 40
0.0
 40
0.0
 40
0.2187337062
 40
0.4541366386
 40
0.7148275965
 40
1.0
 40
1.0
 40
1.0
 40
1.0
 10
29.9886566589
 20
97.7972009168
 30
0.0
 10
30.0725459348
 20
97.9424889031
 30
0.0
 10
30.3149673589
 20
98.2085842986
 30
0.0
 10
30.8212686196
 20
98.4462130673
 30
0.0
 10
31.4235845611
 20
98.5216625847
 30
0.0
 10
31.8431353388
 20
98.4659523437
 30
0.0
 10
32.0556608261
 20
98.4142422497
 30
0.0
  0
SPLINE
  5
4B5
100
AcDbEntity
  8
KONSTRUKTIONSELEMENTE
100
AcDbSpline
 62
7
  6
CONTINUOUS
 70
0
 71
3
 72
11
 73
7
 74
0
 42
0.0000001
 43
0.0000001
 44
0.0000000001
 40
0.0
 40
0.0
 40
0.0
 40
0.0
 40
0.2851724035
 40
0.5458633614
 40
0.7812662938
 40
1.0
 40
1.0
 40
1.0
 40
1.0
 10
39.2713085405
 20
93.6808642131
 30
0.0
 10
39.4838340278
 20
93.6291541191
 30
0.0
 10
39.9033848055
 20
93.5734438781
 30
0.0
 10
40.5057007469
 20
93.6488933955
 30
0.0
 10
41.0120020077
 20
93.8865221642
 30
0.0
 10
41.2544234318
 20
94.1526175597
 30
0.0
 10
41.3383127076
 20
94.297905546
 30
0.0
  0
SPLINE
  5
4B6
100
AcDbEntity
  8
KONSTRUKTIONSELEMENTE
100
AcDbSpline
 62
7
  6
CONTINUOUS
 70
0
 71
3
 72
12
 73
8
 74
0
 42
0.0000001
 43
0.0000001
 44
0.0000000001
 40
0.0
 40
0.0
 40
0.0
 40
0.0
 40
0.2848322201
 40
0.5452360453
 40
0.7803595468
 40
0.891321032
 40
1.0
 40
1.0
 40
1.0
 40
1.0
 10
36.8701762421
 20
118.9994066468
 30
0.0
 10
36.1617937912
 20
119.1717649065
 30
0.0
 10
34.7630253272
 20
119.356861544
 30
0.0
 10
32.7564507563
 20
119.1077348431
 30
0.0
 10
31.3198525531
 20
118.4290494461
 30
0.0
 10
30.4527436472
 20
117.6421035371
 30
0.0
 10
30.1192539414
 20
117.1835025325
 30
0.0
 10
29.980155507
 20
116.9426057299
 30
0.0
  0
SPLINE
  5
4B7
100
AcDbEntity
  8
KONSTRUKTIONSELEMENTE
100
AcDbSpline
 62
7
  6
CONTINUOUS
 70
0
 71
3
 72
12
 73
8
 74
0
 42
0.0000001
 43
0.0000001
 44
0.0000000001
 40
0.0
 40
0.0
 40
0.0
 40
0.0
 40
0.284835769
 40
0.5452420288
 40
0.7803595193
 40
0.8913197465
 40
1.0
 40
1.0
 40
1.0
 40
1.0
 10
75.8289490325
 20
21.5040255672
 30
0.0
 10
75.3254900263
 20
22.0313248391
 30
0.0
 10
74.4658055816
 20
23.1501463313
 30
0.0
 10
73.6782815847
 20
25.0124361978
 30
0.0
 10
73.5477277057
 20
26.5958780814
 30
0.0
 10
73.7956736125
 20
27.7402637057
 30
0.0
 10
74.0260708766
 20
28.2583763472
 30
0.0
 10
74.1651404432
 20
28.4992903469
 30
0.0
  0
LINE
  5
4B8
100
AcDbEntity
  8
0
100
AcDbLine
 62
7
  6
CONTINUOUS
 10
374.7158952451
 20
73.565235869
 11
368.9276570581
 21
82.3492892185
  0
LINE
  5
4B9
100
AcDbEntity
  8
0
100
AcDbLine
 62
7
  6
CONTINUOUS
 10
408.7499416715
 20
105.3406959598
 11
413.4630359269
 21
95.9359079719
  0
SPLINE
  5
4BA
100
AcDbEntity
  8
0
100
AcDbSpline
 62
7
  6
CONTINUOUS
 70
0
 71
3
 72
10
 73
6
 74
0
 42
0.0000001
 43
0.0000001
 44
0.0000000001
 40
0.0
 40
0.0
 40
0.0
 40
0.0
 40
0.517083183
 40
0.7641929314
 40
1.0
 40
1.0
 40
1.0
 40
1.0
 10
364.0357236653
 20
87.8756851539
 30
0.0
 10
364.1280011557
 20
87.3152519526
 30
0.0
 10
364.4231839664
 20
86.4945433611
 30
0.0
 10
365.1290467386
 20
85.6424372576
 30
0.0
 10
365.5572434614
 20
85.3198401938
 30
0.0
 10
365.7804085017
 20
85.1883587304
 30
0.0
  0
SPLINE
  5
4BB
100
AcDbEntity
  8
0
100
AcDbSpline
 62
7
  6
CONTINUOUS
 70
0
 71
3
 72
10
 73
6
 74
0
 42
0.0000001
 43
0.0000001
 44
0.0000000001
 40
0.0
 40
0.0
 40
0.0
 40
0.0
 40
0.2358070399
 40
0.4829262636
 40
1.0
 40
1.0
 40
1.0
 40
1.0
 10
407.8648596292
 20
109.4858279176
 30
0.0
 10
407.8625758623
 20
109.7448352038
 30
0.0
 10
407.7972940896
 20
110.2769731501
 30
0.0
 10
407.4122754685
 20
111.314320178
 30
0.0
 10
406.8491117032
 20
111.980307858
 30
0.0
 10
406.4099090964
 20
112.3404325192
 30
0.0
  0
SPLINE
  5
4BC
100
AcDbEntity
  8
0
100
AcDbSpline
 62
7
  6
CONTINUOUS
 70
0
 71
3
 72
11
 73
7
 74
0
 42
0.0000001
 43
0.0000001
 44
0.0000000001
 40
0.0
 40
0.0
 40
0.0
 40
0.0
 40
0.2452487878
 40
0.492735829
 40
0.7443459021
 40
1.0
 40
1.0
 40
1.0
 40
1.0
 10
357.6468682832
 20
106.8043989995
 30
0.0
 10
357.4300294421
 20
106.3534681864
 30
0.0
 10
357.0553916508
 20
105.4156271449
 30
0.0
 10
356.7536647099
 20
103.9161751771
 30
0.0
 10
356.819884245
 20
102.3591129645
 30
0.0
 10
357.1851059481
 20
101.3665739212
 30
0.0
 10
357.4458992023
 20
100.9148667547
 30
0.0
  0
SPLINE
  5
4BD
100
AcDbEntity
  8
0
100
AcDbSpline
 62
7
  6
CONTINUOUS
 70
0
 71
3
 72
11
 73
7
 74
0
 42
0.0000001
 43
0.0000001
 44
0.0000000001
 40
0.0
 40
0.0
 40
0.0
 40
0.0
 40
0.2556575941
 40
0.5072684484
 40
0.7547532783
 40
1.0
 40
1.0
 40
1.0
 40
1.0
 10
398.4125588171
 20
124.5669787111
 30
0.0
 10
398.1517619959
 20
125.018692056
 30
0.0
 10
397.4748012674
 20
125.8312589955
 30
0.0
 10
396.1594479865
 20
126.6671339111
 30
0.0
 10
394.7100268864
 20
127.1555504481
 30
0.0
 10
393.7105224939
 20
127.3000233598
 30
0.0
 10
393.2115897363
 20
127.3377005041
 30
0.0
  0
SPLINE
  5
4BE
100
AcDbEntity
  8
0
100
AcDbSpline
 62
7
  6
CONTINUOUS
 70
0
 71
3
 72
9
 73
5
 74
0
 42
0.0000001
 43
0.0000001
 44
0.0000000001
 40
0.0
 40
0.0
 40
0.0
 40
0.0
 40
0.4949126613
 40
1.0
 40
1.0
 40
1.0
 40
1.0
 10
408.7499416715
 20
105.3406959598
 30
0.0
 10
408.4337525217
 20
105.9695800835
 30
0.0
 10
407.986593597
 20
107.3414128591
 30
0.0
 10
407.8711935098
 20
108.767487874
 30
0.0
 10
407.8648596292
 20
109.4858279176
 30
0.0
  0
SPLINE
  5
4BF
100
AcDbEntity
  8
0
100
AcDbSpline
 62
7
  6
CONTINUOUS
 70
0
 71
3
 72
9
 73
5
 74
0
 42
0.0000001
 43
0.0000001
 44
0.0000000001
 40
0.0
 40
0.0
 40
0.0
 40
0.0
 40
0.5050884231
 40
1.0
 40
1.0
 40
1.0
 40
1.0
 10
365.7804085017
 20
85.1883587304
 30
0.0
 10
366.3993435983
 20
84.8237026351
 30
0.0
 10
367.5766598847
 20
84.0107245698
 30
0.0
 10
368.5411228643
 20
82.93755781
 30
0.0
 10
368.9276570581
 20
82.3492892185
 30
0.0
  0
SPLINE
  5
4C0
100
AcDbEntity
  8
0
100
AcDbSpline
 62
7
  6
CONTINUOUS
 70
0
 71
3
 72
9
 73
5
 74
0
 42
0.0000001
 43
0.0000001
 44
0.0000000001
 40
0.0
 40
0.0
 40
0.0
 40
0.0
 40
0.5001118291
 40
1.0
 40
1.0
 40
1.0
 40
1.0
 10
406.4099090964
 20
112.3404325192
 30
0.0
 10
405.8575462291
 20
112.7933430608
 30
0.0
 10
404.8140736903
 20
113.7786040353
 30
0.0
 10
403.9686253774
 20
114.9435891385
 30
0.0
 10
403.61163223
 20
115.5619194078
 30
0.0
  0
SPLINE
  5
4C1
100
AcDbEntity
  8
0
100
AcDbSpline
 62
7
  6
CONTINUOUS
 70
0
 71
3
 72
9
 73
5
 74
0
 42
0.0000001
 43
0.0000001
 44
0.0000000001
 40
0.0
 40
0.0
 40
0.0
 40
0.0
 40
0.4998905156
 40
1.0
 40
1.0
 40
1.0
 40
1.0
 10
362.6449726151
 20
91.9098074513
 30
0.0
 10
363.0019674449
 20
91.291474268
 30
0.0
 10
363.588150455
 20
89.9768019954
 30
0.0
 10
363.9196736059
 20
88.5804974113
 30
0.0
 10
364.0357236653
 20
87.8756851539
 30
0.0
  0
SPLINE
  5
4C2
100
AcDbEntity
  8
KONSTRUKTIONSELEMENTE
100
AcDbSpline
 62
7
  6
CONTINUOUS
 70
0
 71
3
 72
9
 73
5
 74
0
 42
0.0000001
 43
0.0000001
 44
0.0000000001
 40
0.0
 40
0.0
 40
0.0
 40
0.0
 40
0.5050884231
 40
1.0
 40
1.0
 40
1.0
 40
1.0
 10
104.9985575934
 20
85.1883587304
 30
0.0
 10
104.3796224968
 20
84.8237026351
 30
0.0
 10
103.2023062104
 20
84.0107245698
 30
0.0
 10
102.2378432308
 20
82.93755781
 30
0.0
 10
101.851309037
 20
82.3492892185
 30
0.0
  0
SPLINE
  5
4C3
100
AcDbEntity
  8
KONSTRUKTIONSELEMENTE
100
AcDbSpline
 62
7
  6
CONTINUOUS
 70
0
 71
3
 72
9
 73
5
 74
0
 42
0.0000001
 43
0.0000001
 44
0.0000000001
 40
0.0
 40
0.0
 40
0.0
 40
0.0
 40
0.5001118291
 40
1.0
 40
1.0
 40
1.0
 40
1.0
 10
64.3690569987
 20
112.3404325192
 30
0.0
 10
64.9214198661
 20
112.7933430608
 30
0.0
 10
65.9648924048
 20
113.7786040353
 30
0.0
 10
66.8103407177
 20
114.9435891385
 30
0.0
 10
67.1673338651
 20
115.5619194078
 30
0.0
  0
SPLINE
  5
4C4
100
AcDbEntity
  8
KONSTRUKTIONSELEMENTE
100
AcDbSpline
 62
7
  6
CONTINUOUS
 70
0
 71
3
 72
9
 73
5
 74
0
 42
0.0000001
 43
0.0000001
 44
0.0000000001
 40
0.0
 40
0.0
 40
0.0
 40
0.0
 40
0.4998905156
 40
1.0
 40
1.0
 40
1.0
 40
1.0
 10
108.13399348
 20
91.9098074513
 30
0.0
 10
107.7769986502
 20
91.291474268
 30
0.0
 10
107.1908156401
 20
89.9768019954
 30
0.0
 10
106.8592924892
 20
88.5804974113
 30
0.0
 10
106.7432424298
 20
87.8756851539
 30
0.0
  0
SPLINE
  5
4C5
100
AcDbEntity
  8
KONSTRUKTIONSELEMENTE
100
AcDbSpline
 62
7
  6
CONTINUOUS
 70
0
 71
3
 72
11
 73
7
 74
0
 42
0.0000001
 43
0.0000001
 44
0.0000000001
 40
0.0
 40
0.0
 40
0.0
 40
0.0
 40
0.2556575941
 40
0.5072684484
 40
0.7547532783
 40
1.0
 40
1.0
 40
1.0
 40
1.0
 10
72.366407278
 20
124.5669787111
 30
0.0
 10
72.6272040992
 20
125.018692056
 30
0.0
 10
73.3041648278
 20
125.8312589955
 30
0.0
 10
74.6195181086
 20
126.6671339111
 30
0.0
 10
76.0689392087
 20
127.1555504481
 30
0.0
 10
77.0684436012
 20
127.3000233598
 30
0.0
 10
77.5673763588
 20
127.3377005041
 30
0.0
  0
LINE
  5
4C6
100
AcDbEntity
  8
0
100
AcDbLine
 62
7
  6
CONTINUOUS
 10
101.851309037
 20
82.3492892185
 11
96.06307085
 21
73.565235869
  0
SPLINE
  5
4C7
100
AcDbEntity
  8
KONSTRUKTIONSELEMENTE
100
AcDbSpline
 62
7
  6
CONTINUOUS
 70
0
 71
3
 72
11
 73
7
 74
0
 42
0.0000001
 43
0.0000001
 44
0.0000000001
 40
0.0
 40
0.0
 40
0.0
 40
0.0
 40
0.2452487878
 40
0.492735829
 40
0.7443459021
 40
1.0
 40
1.0
 40
1.0
 40
1.0
 10
113.1320978119
 20
106.8043989995
 30
0.0
 10
113.348936653
 20
106.3534681864
 30
0.0
 10
113.7235744443
 20
105.4156271449
 30
0.0
 10
114.0253013852
 20
103.9161751771
 30
0.0
 10
113.9590818501
 20
102.3591129645
 30
0.0
 10
113.593860147
 20
101.3665739212
 30
0.0
 10
113.3330668928
 20
100.9148667547
 30
0.0
  0
LINE
  5
4C8
100
AcDbEntity
  8
0
100
AcDbLine
 62
7
  6
CONTINUOUS
 10
57.3159301682
 20
95.9359079719
 11
62.0290244236
 21
105.3406959598
  0
SPLINE
  5
4C9
100
AcDbEntity
  8
KONSTRUKTIONSELEMENTE
100
AcDbSpline
 62
7
  6
CONTINUOUS
 70
0
 71
3
 72
10
 73
6
 74
0
 42
0.0000001
 43
0.0000001
 44
0.0000000001
 40
0.0
 40
0.0
 40
0.0
 40
0.0
 40
0.2358070399
 40
0.4829262636
 40
1.0
 40
1.0
 40
1.0
 40
1.0
 10
62.9141064659
 20
109.4858279176
 30
0.0
 10
62.9163902328
 20
109.7448352038
 30
0.0
 10
62.9816720055
 20
110.2769731501
 30
0.0
 10
63.3666906266
 20
111.314320178
 30
0.0
 10
63.9298543919
 20
111.980307858
 30
0.0
 10
64.3690569987
 20
112.3404325192
 30
0.0
  0
SPLINE
  5
4CA
100
AcDbEntity
  8
KONSTRUKTIONSELEMENTE
100
AcDbSpline
 62
7
  6
CONTINUOUS
 70
0
 71
3
 72
10
 73
6
 74
0
 42
0.0000001
 43
0.0000001
 44
0.0000000001
 40
0.0
 40
0.0
 40
0.0
 40
0.0
 40
0.517083183
 40
0.7641929314
 40
1.0
 40
1.0
 40
1.0
 40
1.0
 10
106.7432424298
 20
87.8756851539
 30
0.0
 10
106.6509649394
 20
87.3152519526
 30
0.0
 10
106.3557821287
 20
86.4945433611
 30
0.0
 10
105.6499193565
 20
85.6424372576
 30
0.0
 10
105.2217226337
 20
85.3198401938
 30
0.0
 10
104.9985575934
 20
85.1883587304
 30
0.0
  0
SPLINE
  5
4CB
100
AcDbEntity
  8
KONSTRUKTIONSELEMENTE
100
AcDbSpline
 62
7
  6
CONTINUOUS
 70
0
 71
3
 72
9
 73
5
 74
0
 42
0.0000001
 43
0.0000001
 44
0.0000000001
 40
0.0
 40
0.0
 40
0.0
 40
0.0
 40
0.4949126613
 40
1.0
 40
1.0
 40
1.0
 40
1.0
 10
62.0290244236
 20
105.3406959598
 30
0.0
 10
62.3452135734
 20
105.9695800835
 30
0.0
 10
62.7923724981
 20
107.3414128591
 30
0.0
 10
62.9077725854
 20
108.767487874
 30
0.0
 10
62.9141064659
 20
109.4858279176
 30
0.0
  0
SPLINE
  5
4CC
100
AcDbEntity
  8
KONSTRUKTIONSELEMENTE
100
AcDbSpline
 62
7
  6
CONTINUOUS
 70
0
 71
3
 72
9
 73
5
 74
0
 42
0.0000001
 43
0.0000001
 44
0.0000000001
 40
0.0
 40
0.0
 40
0.0
 40
0.0
 40
0.272606519
 40
1.0
 40
1.0
 40
1.0
 40
1.0
 10
631.0930312078
 20
162.5762922928
 30
0.0
 10
631.0978210402
 20
162.5980691813
 30
0.0
 10
631.1198876462
 20
162.6767056201
 30
0.0
 10
631.1657914041
 20
162.7500410692
 30
0.0
 10
631.2108087059
 20
162.7889411955
 30
0.0
  0
SPLINE
  5
4CD
100
AcDbEntity
  8
KONSTRUKTIONSELEMENTE
100
AcDbSpline
 62
7
  6
CONTINUOUS
 70
0
 71
3
 72
9
 73
5
 74
0
 42
0.0000001
 43
0.0000001
 44
0.0000000001
 40
0.0
 40
0.0
 40
0.0
 40
0.0
 40
0.546991612
 40
1.0
 40
1.0
 40
1.0
 40
1.0
 10
634.2601886175
 20
159.0610043348
 30
0.0
 10
634.2601886175
 20
158.9894188962
 30
0.0
 10
634.2452833985
 20
158.8565301999
 30
0.0
 10
634.172446205
 20
158.739878507
 30
0.0
 10
634.1275880137
 20
158.7011158704
 30
0.0
  0
SPLINE
  5
4CE
100
AcDbEntity
  8
KONSTRUKTIONSELEMENTE
100
AcDbSpline
 62
7
  6
CONTINUOUS
 70
0
 71
3
 72
9
 73
5
 74
0
 42
0.0000001
 43
0.0000001
 44
0.0000000001
 40
0.0
 40
0.0
 40
0.0
 40
0.0
 40
0.4714729988
 40
1.0
 40
1.0
 40
1.0
 40
1.0
 10
634.4811414043
 20
159.0073020883
 30
0.0
 10
634.4497701864
 20
158.980193748
 30
0.0
 10
634.370523426
 20
158.9365387792
 30
0.0
 10
634.2820598122
 20
158.9235911403
 30
0.0
 10
634.2356067987
 20
158.9220581818
 30
0.0
  0
SPLINE
  5
4CF
100
AcDbEntity
  8
KONSTRUKTIONSELEMENTE
100
AcDbSpline
 62
7
  6
CONTINUOUS
 70
0
 71
3
 72
9
 73
5
 74
0
 42
0.0000001
 43
0.0000001
 44
0.0000000001
 40
0.0
 40
0.0
 40
0.0
 40
0.0
 40
0.4743754937
 40
1.0
 40
1.0
 40
1.0
 40
1.0
 10
642.9908209401
 20
159.8295650059
 30
0.0
 10
642.9905933252
 20
159.638752385
 30
0.0
 10
642.9265287551
 20
159.2342513015
 30
0.0
 10
642.7406588342
 20
158.8698111587
 30
0.0
 10
642.6207320511
 20
158.6956876149
 30
0.0
  0
SPLINE
  5
4D0
100
AcDbEntity
  8
KONSTRUKTIONSELEMENTE
100
AcDbSpline
 62
7
  6
CONTINUOUS
 70
0
 71
3
 72
9
 73
5
 74
0
 42
0.0000001
 43
0.0000001
 44
0.0000000001
 40
0.0
 40
0.0
 40
0.0
 40
0.0
 40
0.237985559
 40
1.0
 40
1.0
 40
1.0
 40
1.0
 10
642.6207320511
 20
158.6956876149
 30
0.0
 10
642.5903626902
 20
158.6515938719
 30
0.0
 10
642.4566523695
 20
158.4705649694
 30
0.0
 10
642.299086678
 20
158.30737957
 30
0.0
 10
642.1694959867
 20
158.1951507392
 30
0.0
  0
SPLINE
  5
4D1
100
AcDbEntity
  8
KONSTRUKTIONSELEMENTE
100
AcDbSpline
 62
7
  6
CONTINUOUS
 70
0
 71
3
 72
9
 73
5
 74
0
 42
0.0000001
 43
0.0000001
 44
0.0000000001
 40
0.0
 40
0.0
 40
0.0
 40
0.0
 40
0.4964115318
 40
1.0
 40
1.0
 40
1.0
 40
1.0
 10
634.0377680031
 20
165.2374337497
 30
0.0
 10
634.5326754278
 20
165.6660361521
 30
0.0
 10
635.6404647292
 20
166.4079399385
 30
0.0
 10
636.8882588559
 20
166.8728757806
 30
0.0
 10
637.5324715473
 20
167.034452481
 30
0.0
  0
SPLINE
  5
4D2
100
AcDbEntity
  8
KONSTRUKTIONSELEMENTE
100
AcDbSpline
 62
7
  6
CONTINUOUS
 70
0
 71
3
 72
11
 73
7
 74
0
 42
0.0000001
 43
0.0000001
 44
0.0000000001
 40
0.0
 40
0.0
 40
0.0
 40
0.0
 40
0.2543126619
 40
0.5051065546
 40
0.7532499832
 40
1.0
 40
1.0
 40
1.0
 40
1.0
 10
644.6808669371
 20
165.8212727421
 30
0.0
 10
645.1800289788
 20
165.483506658
 30
0.0
 10
646.101281478
 20
164.700253355
 30
0.0
 10
647.165126687
 20
163.2458581373
 30
0.0
 10
647.8366637248
 20
161.591710718
 30
0.0
 10
647.989987983
 20
160.4134301761
 30
0.0
 10
647.9902544427
 20
159.8286519692
 30
0.0
  0
SPLINE
  5
4D3
100
AcDbEntity
  8
KONSTRUKTIONSELEMENTE
100
AcDbSpline
 62
7
  6
CONTINUOUS
 70
0
 71
3
 72
11
 73
7
 74
0
 42
0.0000001
 43
0.0000001
 44
0.0000000001
 40
0.0
 40
0.0
 40
0.0
 40
0.0
 40
0.2474803687
 40
0.4959793074
 40
0.7466457809
 40
1.0
 40
1.0
 40
1.0
 40
1.0
 10
647.9902544427
 20
159.8286519692
 30
0.0
 10
647.990485972
 20
159.3205329897
 30
0.0
 10
647.8753941009
 20
158.2986009334
 30
0.0
 10
647.3682394877
 20
156.8393170083
 30
0.0
 10
646.553548037
 20
155.513193027
 30
0.0
 10
645.8359827338
 20
154.7560431272
 30
0.0
 10
645.4427643402
 20
154.4155060091
 30
0.0
  0
SPLINE
  5
4D4
100
AcDbEntity
  8
KONSTRUKTIONSELEMENTE
100
AcDbSpline
 62
7
  6
CONTINUOUS
 70
0
 71
3
 72
9
 73
5
 74
0
 42
0.0000001
 43
0.0000001
 44
0.0000000001
 40
0.0
 40
0.0
 40
0.0
 40
0.0
 40
0.2619033554
 40
1.0
 40
1.0
 40
1.0
 40
1.0
 10
642.8379048273
 20
160.5624323607
 30
0.0
 10
642.8634145429
 20
160.501988551
 30
0.0
 10
642.9503044471
 20
160.2669608975
 30
0.0
 10
642.9910414923
 20
160.014456983
 30
0.0
 10
642.9908209401
 20
159.8295650059
 30
0.0
  0
SPLINE
  5
4D5
100
AcDbEntity
  8
KONSTRUKTIONSELEMENTE
100
AcDbSpline
 62
7
  6
CONTINUOUS
 70
0
 71
3
 72
9
 73
5
 74
0
 42
0.0000001
 43
0.0000001
 44
0.0000000001
 40
0.0
 40
0.0
 40
0.0
 40
0.0
 40
0.4872963705
 40
1.0
 40
1.0
 40
1.0
 40
1.0
 10
636.1590883466
 20
152.9899850358
 30
0.0
 10
635.6112701457
 20
152.5155605572
 30
0.0
 10
634.1272172771
 20
151.947605936
 30
0.0
 10
632.5737231677
 20
152.2259308113
 30
0.0
 10
631.899809009
 20
152.5826044725
 30
0.0
  0
SPLINE
  5
4D6
100
AcDbEntity
  8
KONSTRUKTIONSELEMENTE
100
AcDbSpline
 62
7
  6
CONTINUOUS
 70
0
 71
3
 72
11
 73
7
 74
0
 42
0.0000001
 43
0.0000001
 44
0.0000000001
 40
0.0
 40
0.0
 40
0.0
 40
0.0
 40
0.2474803687
 40
0.4959793074
 40
0.7466457809
 40
1.0
 40
1.0
 40
1.0
 40
1.0
 10
625.4798702605
 20
154.6191220863
 30
0.0
 10
625.4796387313
 20
155.1272410658
 30
0.0
 10
625.5947306023
 20
156.1491731221
 30
0.0
 10
626.1018852155
 20
157.6084570472
 30
0.0
 10
626.9165766662
 20
158.9345810285
 30
0.0
 10
627.6341419694
 20
159.6917309282
 30
0.0
 10
628.027360363
 20
160.0322680463
 30
0.0
  0
SPLINE
  5
4D7
100
AcDbEntity
  8
KONSTRUKTIONSELEMENTE
100
AcDbSpline
 62
7
  6
CONTINUOUS
 70
0
 71
3
 72
15
 73
11
 74
0
 42
0.0000001
 43
0.0000001
 44
0.0000000001
 40
0.0
 40
0.0
 40
0.0
 40
0.0
 40
0.12323614
 40
0.2480335987
 40
0.373900227
 40
0.5003927364
 40
0.6268181839
 40
0.7525256837
 40
0.877011671
 40
1.0
 40
1.0
 40
1.0
 40
1.0
 10
639.4323567002
 20
149.2103403057
 30
0.0
 10
639.0393585966
 20
148.8699939644
 30
0.0
 10
638.1786408625
 20
148.2617494604
 30
0.0
 10
636.7361768549
 20
147.6030484096
 30
0.0
 10
635.1853542374
 20
147.2109052888
 30
0.0
 10
633.5833576202
 20
147.0959332935
 30
0.0
 10
631.9864535759
 20
147.261823332
 30
0.0
 10
630.4514009188
 20
147.7037665149
 30
0.0
 10
629.0341955489
 20
148.4086298104
 30
0.0
 10
628.1971953756
 20
149.045437254
 30
0.0
 10
627.8173574104
 20
149.3988779844
 30
0.0
  0
SPLINE
  5
4D8
100
AcDbEntity
  8
KONSTRUKTIONSELEMENTE
100
AcDbSpline
 62
7
  6
CONTINUOUS
 70
0
 71
3
 72
9
 73
5
 74
0
 42
0.0000001
 43
0.0000001
 44
0.0000000001
 40
0.0
 40
0.0
 40
0.0
 40
0.0
 40
0.4702695548
 40
1.0
 40
1.0
 40
1.0
 40
1.0
 10
630.8572553153
 20
162.4827549777
 30
0.0
 10
630.8894326781
 20
162.5105599199
 30
0.0
 10
630.9712868471
 20
162.5550383082
 30
0.0
 10
631.0624515401
 20
162.5672221091
 30
0.0
 10
631.1103450232
 20
162.5682005079
 30
0.0
  0
SPLINE
  5
4D9
100
AcDbEntity
  8
KONSTRUKTIONSELEMENTE
100
AcDbSpline
 62
7
  6
CONTINUOUS
 70
0
 71
3
 72
15
 73
11
 74
0
 42
0.0000001
 43
0.0000001
 44
0.0000000001
 40
0.0
 40
0.0
 40
0.0
 40
0.0
 40
0.082699247
 40
0.1957940838
 40
0.333737466
 40
0.4862052534
 40
0.6408263759
 40
0.7848058501
 40
0.9071588123
 40
1.0
 40
1.0
 40
1.0
 40
1.0
 10
631.1103450232
 20
162.5682005079
 30
0.0
 10
631.246669134
 20
162.570985424
 30
0.0
 10
631.5669434743
 20
162.4798876271
 30
0.0
 10
632.0454277432
 20
162.2073808733
 30
0.0
 10
632.5694002521
 20
161.7929141895
 30
0.0
 10
633.0884176952
 20
161.2725030379
 30
0.0
 10
633.5561296605
 20
160.6926099868
 30
0.0
 10
633.9304922012
 20
160.1054443905
 30
0.0
 10
634.1772658655
 20
159.5662749089
 30
0.0
 10
634.2601886175
 20
159.2140786797
 30
0.0
 10
634.2601886175
 20
159.0610043348
 30
0.0
  0
SPLINE
  5
4DA
100
AcDbEntity
  8
KONSTRUKTIONSELEMENTE
100
AcDbSpline
 62
7
  6
CONTINUOUS
 70
0
 71
3
 72
19
 73
15
 74
0
 42
0.0000001
 43
0.0000001
 44
0.0000000001
 40
0.0
 40
0.0
 40
0.0
 40
0.0
 40
0.0298938292
 40
0.0650835855
 40
0.108466288
 40
0.1609985436
 40
0.2222349321
 40
0.2911550146
 40
0.4456854225
 40
0.6095823449
 40
0.7660354067
 40
0.8997960834
 40
0.9545408033
 40
1.0
 40
1.0
 40
1.0
 40
1.0
 10
631.2108087059
 20
162.7889411955
 30
0.0
 10
631.2501683572
 20
162.8229524611
 30
0.0
 10
631.3568048938
 20
162.8738239327
 30
0.0
 10
631.548638758
 20
162.8795212031
 30
0.0
 10
631.7725708554
 20
162.8285684746
 30
0.0
 10
632.0255646967
 20
162.7222877938
 30
0.0
 10
632.302306755
 20
162.5647004175
 30
0.0
 10
632.7079479034
 20
162.279329474
 30
0.0
 10
633.2116691137
 20
161.8280050116
 30
0.0
 10
633.7582153035
 20
161.2056858076
 30
0.0
 10
634.2064619077
 20
160.5530397628
 30
0.0
 10
634.475910547
 20
160.0120307094
 30
0.0
 10
634.5907505634
 20
159.6205510352
 30
0.0
 10
634.613742008
 20
159.4462948285
 30
0.0
 10
634.613742008
 20
159.3671905527
 30
0.0
  0
SPLINE
  5
4DB
100
AcDbEntity
  8
KONSTRUKTIONSELEMENTE
100
AcDbSpline
 62
7
  6
CONTINUOUS
 70
0
 71
3
 72
9
 73
5
 74
0
 42
0.0000001
 43
0.0000001
 44
0.0000000001
 40
0.0
 40
0.0
 40
0.0
 40
0.0
 40
0.546991612
 40
1.0
 40
1.0
 40
1.0
 40
1.0
 10
634.613742008
 20
159.3671905527
 30
0.0
 10
634.613742008
 20
159.2956051141
 30
0.0
 10
634.5988367891
 20
159.1627164177
 30
0.0
 10
634.5259995956
 20
159.0460647249
 30
0.0
 10
634.4811414043
 20
159.0073020883
 30
0.0
  0
SPLINE
  5
4DC
100
AcDbEntity
  8
KONSTRUKTIONSELEMENTE
100
AcDbSpline
 62
7
  6
CONTINUOUS
 70
0
 71
3
 72
9
 73
5
 74
0
 42
0.0000001
 43
0.0000001
 44
0.0000000001
 40
0.0
 40
0.0
 40
0.0
 40
0.0
 40
0.272606519
 40
1.0
 40
1.0
 40
1.0
 40
1.0
 10
573.8173819317
 20
112.9741250014
 30
0.0
 10
573.8221717641
 20
112.9959018899
 30
0.0
 10
573.8442383701
 20
113.0745383288
 30
0.0
 10
573.890142128
 20
113.1478737779
 30
0.0
 10
573.9351594298
 20
113.1867739042
 30
0.0
  0
SPLINE
  5
4DD
100
AcDbEntity
  8
KONSTRUKTIONSELEMENTE
100
AcDbSpline
 62
7
  6
CONTINUOUS
 70
0
 71
3
 72
10
 73
6
 74
0
 42
0.0000001
 43
0.0000001
 44
0.0000000001
 40
0.0
 40
0.0
 40
0.0
 40
0.0
 40
0.2209805831
 40
0.4552103493
 40
1.0
 40
1.0
 40
1.0
 40
1.0
 10
585.7151716639
 20
110.2273977145
 30
0.0
 10
585.7150066425
 20
110.0890580175
 30
0.0
 10
585.6820447524
 20
109.8030498953
 30
0.0
 10
585.4720324143
 20
109.2089230532
 30
0.0
 10
585.1516585388
 20
108.8162550405
 30
0.0
 10
584.8938467106
 20
108.5929834479
 30
0.0
  0
SPLINE
  5
4DE
100
AcDbEntity
  8
KONSTRUKTIONSELEMENTE
100
AcDbSpline
 62
7
  6
CONTINUOUS
 70
0
 71
3
 72
11
 73
7
 74
0
 42
0.0000001
 43
0.0000001
 44
0.0000000001
 40
0.0
 40
0.0
 40
0.0
 40
0.0
 40
0.2461844042
 40
0.4959427175
 40
0.7478763938
 40
1.0
 40
1.0
 40
1.0
 40
1.0
 10
576.7621187269
 20
115.6352664584
 30
0.0
 10
577.2605862744
 20
116.0669520174
 30
0.0
 10
578.3777971222
 20
116.8134944373
 30
0.0
 10
580.2723376634
 20
117.5143820918
 30
0.0
 10
582.2905176346
 20
117.777631344
 30
0.0
 10
583.6480297511
 20
117.652246746
 30
0.0
 10
584.3093223989
 20
117.5153248211
 30
0.0
  0
SPLINE
  5
4DF
100
AcDbEntity
  8
KONSTRUKTIONSELEMENTE
100
AcDbSpline
 62
7
  6
CONTINUOUS
 70
0
 71
3
 72
11
 73
7
 74
0
 42
0.0000001
 43
0.0000001
 44
0.0000000001
 40
0.0
 40
0.0
 40
0.0
 40
0.0
 40
0.2529889227
 40
0.5034781976
 40
0.7521869369
 40
1.0
 40
1.0
 40
1.0
 40
1.0
 10
588.4945276426
 20
115.335184336
 30
0.0
 10
588.8403517762
 20
114.999724592
 30
0.0
 10
589.4683048408
 20
114.266129147
 30
0.0
 10
590.1758700431
 20
113.0100945686
 30
0.0
 10
590.6150335779
 20
111.646871969
 30
0.0
 10
590.7143901231
 20
110.6984238309
 30
0.0
 10
590.7146051666
 20
110.2264846779
 30
0.0
  0
SPLINE
  5
4E0
100
AcDbEntity
  8
KONSTRUKTIONSELEMENTE
100
AcDbSpline
 62
7
  6
CONTINUOUS
 70
0
 71
3
 72
11
 73
7
 74
0
 42
0.0000001
 43
0.0000001
 44
0.0000000001
 40
0.0
 40
0.0
 40
0.0
 40
0.0
 40
0.2474803687
 40
0.4959793074
 40
0.7466457809
 40
1.0
 40
1.0
 40
1.0
 40
1.0
 10
590.7146051666
 20
110.2264846779
 30
0.0
 10
590.7148366958
 20
109.7183656983
 30
0.0
 10
590.5997448248
 20
108.696433642
 30
0.0
 10
590.0925902116
 20
107.2371497169
 30
0.0
 10
589.2778987609
 20
105.9110257356
 30
0.0
 10
588.5603334577
 20
105.1538758359
 30
0.0
 10
588.1671150641
 20
104.8133387178
 30
0.0
  0
SPLINE
  5
4E1
100
AcDbEntity
  8
KONSTRUKTIONSELEMENTE
100
AcDbSpline
 62
7
  6
CONTINUOUS
 70
0
 71
3
 72
9
 73
5
 74
0
 42
0.0000001
 43
0.0000001
 44
0.0000000001
 40
0.0
 40
0.0
 40
0.0
 40
0.0
 40
0.2350561603
 40
1.0
 40
1.0
 40
1.0
 40
1.0
 10
580.0353870805
 20
111.8556217283
 30
0.0
 10
580.114609966
 20
111.9242307597
 30
0.0
 10
580.4673624865
 20
112.1977270893
 30
0.0
 10
580.8763189548
 20
112.3963599582
 30
0.0
 10
581.2001938885
 20
112.5032488757
 30
0.0
  0
SPLINE
  5
4E2
100
AcDbEntity
  8
KONSTRUKTIONSELEMENTE
100
AcDbSpline
 62
7
  6
CONTINUOUS
 70
0
 71
3
 72
9
 73
5
 74
0
 42
0.0000001
 43
0.0000001
 44
0.0000000001
 40
0.0
 40
0.0
 40
0.0
 40
0.0
 40
0.2578415756
 40
1.0
 40
1.0
 40
1.0
 40
1.0
 10
585.6162711556
 20
110.8180059957
 30
0.0
 10
585.632794417
 20
110.7691242328
 30
0.0
 10
585.689745391
 20
110.5772198505
 30
0.0
 10
585.7153488286
 20
110.3759172842
 30
0.0
 10
585.7151716639
 20
110.2273977145
 30
0.0
  0
SPLINE
  5
4E3
100
AcDbEntity
  8
KONSTRUKTIONSELEMENTE
100
AcDbSpline
 62
7
  6
CONTINUOUS
 70
0
 71
3
 72
9
 73
5
 74
0
 42
0.0000001
 43
0.0000001
 44
0.0000000001
 40
0.0
 40
0.0
 40
0.0
 40
0.0
 40
0.4873854536
 40
1.0
 40
1.0
 40
1.0
 40
1.0
 10
578.8834390705
 20
103.3878177445
 30
0.0
 10
578.3347605502
 20
102.9126482073
 30
0.0
 10
576.8481211851
 20
102.3445245723
 30
0.0
 10
575.2924951925
 20
102.625117001
 30
0.0
 10
574.6184284338
 20
102.9834773324
 30
0.0
  0
SPLINE
  5
4E4
100
AcDbEntity
  8
KONSTRUKTIONSELEMENTE
100
AcDbSpline
 62
7
  6
CONTINUOUS
 70
0
 71
3
 72
11
 73
7
 74
0
 42
0.0000001
 43
0.0000001
 44
0.0000000001
 40
0.0
 40
0.0
 40
0.0
 40
0.0
 40
0.2475783257
 40
0.4995440458
 40
0.7518013576
 40
1.0
 40
1.0
 40
1.0
 40
1.0
 10
582.156707424
 20
99.6081730144
 30
0.0
 10
581.408844163
 20
98.9605044318
 30
0.0
 10
579.6399515538
 20
97.9311755099
 30
0.0
 10
576.6331696941
 20
97.3738094399
 30
0.0
 10
573.604996255
 20
97.8153231641
 30
0.0
 10
571.7930269955
 20
98.77272661
 30
0.0
 10
571.0160317334
 20
99.3891382147
 30
0.0
  0
SPLINE
  5
4E5
100
AcDbEntity
  8
KONSTRUKTIONSELEMENTE
100
AcDbSpline
 62
7
  6
CONTINUOUS
 70
0
 71
3
 72
9
 73
5
 74
0
 42
0.0000001
 43
0.0000001
 44
0.0000000001
 40
0.0
 40
0.0
 40
0.0
 40
0.0
 40
0.2341519833
 40
1.0
 40
1.0
 40
1.0
 40
1.0
 10
573.6601612711
 20
112.9303340392
 30
0.0
 10
573.6728999993
 20
112.9360437111
 30
0.0
 10
573.7287908158
 20
112.9571324828
 30
0.0
 10
573.7890465834
 20
112.9651006662
 30
0.0
 10
573.8346957471
 20
112.9660332165
 30
0.0
  0
SPLINE
  5
4E6
100
AcDbEntity
  8
KONSTRUKTIONSELEMENTE
100
AcDbSpline
 62
7
  6
CONTINUOUS
 70
0
 71
3
 72
12
 73
8
 74
0
 42
0.0000001
 43
0.0000001
 44
0.0000000001
 40
0.0
 40
0.0
 40
0.0
 40
0.0
 40
0.0752716352
 40
0.1695706026
 40
0.4105482434
 40
0.6997859249
 40
1.0
 40
1.0
 40
1.0
 40
1.0
 10
573.8346957471
 20
112.9660332165
 30
0.0
 10
573.9159259589
 20
112.9676926393
 30
0.0
 10
574.0992622608
 20
112.9364178671
 30
0.0
 10
574.5116810412
 20
112.7703766392
 30
0.0
 10
575.0745694604
 20
112.3877245596
 30
0.0
 10
575.7294293057
 20
111.7732220154
 30
0.0
 10
576.1331993944
 20
111.2780568532
 30
0.0
 10
576.3189570556
 20
111.0125375643
 30
0.0
  0
SPLINE
  5
4E7
100
AcDbEntity
  8
KONSTRUKTIONSELEMENTE
100
AcDbSpline
 62
7
  6
CONTINUOUS
 70
0
 71
3
 72
9
 73
5
 74
0
 42
0.0000001
 43
0.0000001
 44
0.0000000001
 40
0.0
 40
0.0
 40
0.0
 40
0.0
 40
0.2622844894
 40
1.0
 40
1.0
 40
1.0
 40
1.0
 10
576.3513236211
 20
110.9658208688
 30
0.0
 10
576.3872016383
 20
110.9135251708
 30
0.0
 10
576.5208663823
 20
110.7120451843
 30
0.0
 10
576.6422660228
 20
110.5021862047
 30
0.0
 10
576.7216431427
 20
110.3424427366
 30
0.0
  0
SPLINE
  5
4E8
100
AcDbEntity
  8
KONSTRUKTIONSELEMENTE
100
AcDbSpline
 62
7
  6
CONTINUOUS
 70
0
 71
3
 72
19
 73
15
 74
0
 42
0.0000001
 43
0.0000001
 44
0.0000000001
 40
0.0
 40
0.0
 40
0.0
 40
0.0
 40
0.0297607081
 40
0.0646910296
 40
0.1076488542
 40
0.1596116649
 40
0.2201829782
 40
0.2883869803
 40
0.4416194445
 40
0.604814501
 40
0.7616246012
 40
0.8970232306
 40
0.9530397135
 40
1.0
 40
1.0
 40
1.0
 40
1.0
 10
573.9351594298
 20
113.1867739042
 30
0.0
 10
573.9740452048
 20
113.2203756861
 30
0.0
 10
574.0789720507
 20
113.2708788846
 30
0.0
 10
574.2678484082
 20
113.277711314
 30
0.0
 10
574.4882784708
 20
113.2290578669
 30
0.0
 10
574.7373235374
 20
113.1262004839
 30
0.0
 10
575.00988929
 20
112.973007493
 30
0.0
 10
575.4102091616
 20
112.6947021725
 30
0.0
 10
575.9089295337
 20
112.2525823206
 30
0.0
 10
576.4530840527
 20
111.6404510342
 30
0.0
 10
576.9042144504
 20
110.9944319365
 30
0.0
 10
577.1803608518
 20
110.4560223328
 30
0.0
 10
577.3046727671
 20
110.0627746134
 30
0.0
 10
577.333631002
 20
109.8861098591
 30
0.0
 10
577.337193129
 20
109.8050945013
 30
0.0
  0
SPLINE
  5
4E9
100
AcDbEntity
  8
KONSTRUKTIONSELEMENTE
100
AcDbSpline
 62
7
  6
CONTINUOUS
 70
0
 71
3
 72
9
 73
5
 74
0
 42
0.0000001
 43
0.0000001
 44
0.0000000001
 40
0.0
 40
0.0
 40
0.0
 40
0.0
 40
0.244567645
 40
1.0
 40
1.0
 40
1.0
 40
1.0
 10
630.4298585177
 20
145.9119501065
 30
0.0
 10
630.5559587439
 20
146.0211561059
 30
0.0
 10
631.0642820539
 20
146.4760447301
 30
0.0
 10
631.5448124088
 20
146.9618061651
 30
0.0
 10
631.8916554028
 20
147.3428559894
 30
0.0
  0
SPLINE
  5
4EA
100
AcDbEntity
  8
KONSTRUKTIONSELEMENTE
100
AcDbSpline
 62
7
  6
CONTINUOUS
 70
0
 71
3
 72
13
 73
9
 74
0
 42
0.0000001
 43
0.0000001
 44
0.0000000001
 40
0.0
 40
0.0
 40
0.0
 40
0.0
 40
0.2450798975
 40
0.4867641821
 40
0.6110076878
 40
0.7383847014
 40
0.8684495212
 40
1.0
 40
1.0
 40
1.0
 40
1.0
 10
634.9931252097
 20
152.344104571
 30
0.0
 10
635.1036609301
 20
152.6965299174
 30
0.0
 10
635.2742902253
 20
153.414095314
 30
0.0
 10
635.2902948046
 20
154.3457097095
 30
0.0
 10
635.1406571369
 20
155.0770337358
 30
0.0
 10
634.9293303316
 20
155.6153881318
 30
0.0
 10
634.6175790345
 20
156.1159496351
 30
0.0
 10
634.3443483388
 20
156.4045916312
 30
0.0
 10
634.1945289375
 20
156.5344362795
 30
0.0
  0
SPLINE
  5
4EB
100
AcDbEntity
  8
KONSTRUKTIONSELEMENTE
100
AcDbSpline
 62
7
  6
CONTINUOUS
 70
0
 71
3
 72
24
 73
20
 74
0
 42
0.0000001
 43
0.0000001
 44
0.0000000001
 40
0.0
 40
0.0
 40
0.0
 40
0.0
 40
0.0399684528
 40
0.0656722898
 40
0.0749868115
 40
0.0817678249
 40
0.0908545801
 40
0.1035924024
 40
0.1198773536
 40
0.1395387897
 40
0.1623831141
 40
0.1882178473
 40
0.2480971592
 40
0.3177404014
 40
0.3960771619
 40
0.4821888571
 40
0.5751564087
 40
0.7783595522
 40
1.0
 40
1.0
 40
1.0
 40
1.0
 10
632.01647371
 20
152.7881637274
 30
0.0
 10
632.0465848663
 20
152.7853375829
 30
0.0
 10
632.1030253049
 20
152.784043968
 30
0.0
 10
632.1422529094
 20
152.7830069501
 30
0.0
 10
632.1964291281
 20
152.7898874196
 30
0.0
 10
632.1671468858
 20
152.7840221093
 30
0.0
 10
632.1499101532
 20
152.7790920377
 30
0.0
 10
632.1207400285
 20
152.7705019437
 30
0.0
 10
632.0865071767
 20
152.7585941494
 30
0.0
 10
632.0446721712
 20
152.7428381658
 30
0.0
 10
631.9968459689
 20
152.7233428428
 30
0.0
 10
631.9214833854
 20
152.6905719443
 30
0.0
 10
631.8153615438
 20
152.639933941
 30
0.0
 10
631.6765232724
 20
152.5659173268
 30
0.0
 10
631.5235152921
 20
152.4766007308
 30
0.0
 10
631.3586747829
 20
152.3727661428
 30
0.0
 10
631.1189081689
 20
152.2108621548
 30
0.0
 10
630.804534058
 20
151.9766335082
 30
0.0
 10
630.5566367225
 20
151.7717432526
 30
0.0
 10
630.4298585177
 20
151.6619501065
 30
0.0
  0
SPLINE
  5
4EC
100
AcDbEntity
  8
KONSTRUKTIONSELEMENTE
100
AcDbSpline
 62
7
  6
CONTINUOUS
 70
0
 71
3
 72
14
 73
10
 74
0
 42
0.0000001
 43
0.0000001
 44
0.0000000001
 40
0.0
 40
0.0
 40
0.0
 40
0.0
 40
0.1261639273
 40
0.2490859875
 40
0.3675996524
 40
0.4838289665
 40
0.6024561707
 40
0.7271761049
 40
1.0
 40
1.0
 40
1.0
 40
1.0
 10
634.1945289375
 20
156.5344362795
 30
0.0
 10
633.9566547356
 20
156.7405957742
 30
0.0
 10
633.417189588
 20
157.0734894656
 30
0.0
 10
632.5160732077
 20
157.3013042091
 30
0.0
 10
631.6152930395
 20
157.2829612335
 30
0.0
 10
630.7519465561
 20
157.0823049818
 30
0.0
 10
629.9191340958
 20
156.7410638202
 30
0.0
 10
628.7918069697
 20
156.1143332643
 30
0.0
 10
627.998474664
 20
155.5092503728
 30
0.0
 10
627.4839169995
 20
155.0636303636
 30
0.0
  0
SPLINE
  5
4ED
100
AcDbEntity
  8
KONSTRUKTIONSELEMENTE
100
AcDbSpline
 62
7
  6
CONTINUOUS
 70
0
 71
3
 72
11
 73
7
 74
0
 42
0.0000001
 43
0.0000001
 44
0.0000000001
 40
0.0
 40
0.0
 40
0.0
 40
0.0
 40
0.2560606671
 40
0.5094317095
 40
0.7578652676
 40
1.0
 40
1.0
 40
1.0
 40
1.0
 10
613.1126448619
 20
135.2555576552
 30
0.0
 10
613.2590859005
 20
135.1286409476
 30
0.0
 10
613.5758553595
 20
134.9036721049
 30
0.0
 10
614.1025198204
 20
134.6684361056
 30
0.0
 10
614.6518049496
 20
134.5327124933
 30
0.0
 10
615.0239505906
 20
134.5060423736
 30
0.0
 10
615.2071965363
 20
134.5064677035
 30
0.0
  0
SPLINE
  5
4EE
100
AcDbEntity
  8
KONSTRUKTIONSELEMENTE
100
AcDbSpline
 62
7
  6
CONTINUOUS
 70
0
 71
3
 72
14
 73
10
 74
0
 42
0.0000001
 43
0.0000001
 44
0.0000000001
 40
0.0
 40
0.0
 40
0.0
 40
0.0
 40
0.3076593044
 40
0.4655740208
 40
0.6174499256
 40
0.7563299601
 40
0.8741882754
 40
0.9604979356
 40
1.0
 40
1.0
 40
1.0
 40
1.0
 10
619.8232567999
 20
142.4763635711
 30
0.0
 10
619.3729954012
 20
142.0864257615
 30
0.0
 10
618.7363048954
 20
141.4430732865
 30
0.0
 10
617.9784421739
 20
140.5180941193
 30
0.0
 10
617.4733759396
 20
139.8103387352
 30
0.0
 10
617.061822789
 20
139.1340466994
 30
0.0
 10
616.7639838919
 20
138.5387769324
 30
0.0
 10
616.600295722
 20
138.0961063395
 30
0.0
 10
616.541350078
 20
137.8579756185
 30
0.0
 10
616.5350682752
 20
137.7817565822
 30
0.0
  0
SPLINE
  5
4EF
100
AcDbEntity
  8
KONSTRUKTIONSELEMENTE
100
AcDbSpline
 62
7
  6
CONTINUOUS
 70
0
 71
3
 72
17
 73
13
 74
0
 42
0.0000001
 43
0.0000001
 44
0.0000000001
 40
0.0
 40
0.0
 40
0.0
 40
0.0
 40
0.1381799396
 40
0.2793498645
 40
0.4167408576
 40
0.5447967012
 40
0.6614058717
 40
0.770730898
 40
0.825836819
 40
0.8824126798
 40
0.9407184285
 40
1.0
 40
1.0
 40
1.0
 40
1.0
 10
616.8773152817
 20
145.8780438282
 30
0.0
 10
616.4424890761
 20
145.5014732879
 30
0.0
 10
615.604559332
 20
144.691786015
 30
0.0
 10
614.4746319302
 20
143.3722859664
 30
0.0
 10
613.4990780594
 20
141.9856107986
 30
0.0
 10
612.7272533709
 20
140.5904607462
 30
0.0
 10
612.1949146832
 20
139.2106651456
 30
0.0
 10
611.9994175914
 20
138.0423666239
 30
0.0
 10
612.0663756097
 20
137.120191182
 30
0.0
 10
612.2523839106
 20
136.4320565467
 30
0.0
 10
612.5949416418
 20
135.7857447829
 30
0.0
 10
612.9261568508
 20
135.417182051
 30
0.0
 10
613.1126448619
 20
135.2555576552
 30
0.0
  0
SPLINE
  5
4F0
100
AcDbEntity
  8
KONSTRUKTIONSELEMENTE
100
AcDbSpline
 62
7
  6
CONTINUOUS
 70
0
 71
3
 72
9
 73
5
 74
0
 42
0.0000001
 43
0.0000001
 44
0.0000000001
 40
0.0
 40
0.0
 40
0.0
 40
0.0
 40
0.2442277043
 40
1.0
 40
1.0
 40
1.0
 40
1.0
 10
599.3171601454
 20
118.9675629359
 30
0.0
 10
599.4729092101
 20
119.1024455825
 30
0.0
 10
600.0995059635
 20
119.6674830042
 30
0.0
 10
600.6840689971
 20
120.27881073
 30
0.0
 10
601.1007105057
 20
120.7614379339
 30
0.0
  0
SPLINE
  5
4F1
100
AcDbEntity
  8
KONSTRUKTIONSELEMENTE
100
AcDbSpline
 62
7
  6
CONTINUOUS
 70
0
 71
3
 72
13
 73
9
 74
0
 42
0.0000001
 43
0.0000001
 44
0.0000000001
 40
0.0
 40
0.0
 40
0.0
 40
0.0
 40
0.2465994456
 40
0.4878359344
 40
0.611665412
 40
0.738649883
 40
0.8685336703
 40
1.0
 40
1.0
 40
1.0
 40
1.0
 10
603.8235874468
 20
125.2258425282
 30
0.0
 10
603.948042367
 20
125.5918972721
 30
0.0
 10
604.1439853919
 20
126.3353794513
 30
0.0
 10
604.18612363
 20
127.3049661566
 30
0.0
 10
604.0476346845
 20
128.0672567634
 30
0.0
 10
603.8384517593
 20
128.6299391593
 30
0.0
 10
603.5204790676
 20
129.15370383
 30
0.0
 10
603.2375930524
 20
129.4550537399
 30
0.0
 10
603.0818305652
 20
129.5900491089
 30
0.0
  0
SPLINE
  5
4F2
100
AcDbEntity
  8
KONSTRUKTIONSELEMENTE
100
AcDbSpline
 62
7
  6
CONTINUOUS
 70
0
 71
3
 72
24
 73
20
 74
0
 42
0.0000001
 43
0.0000001
 44
0.0000000001
 40
0.0
 40
0.0
 40
0.0
 40
0.0
 40
0.0399684528
 40
0.0656722898
 40
0.0749868115
 40
0.0817678249
 40
0.0908545801
 40
0.1035924024
 40
0.1198773536
 40
0.1395387897
 40
0.1623831141
 40
0.1882178473
 40
0.2480971592
 40
0.3177404014
 40
0.3960771619
 40
0.4821888571
 40
0.5751564087
 40
0.7783595522
 40
1.0
 40
1.0
 40
1.0
 40
1.0
 10
600.9037753378
 20
125.8437765567
 30
0.0
 10
600.9338864941
 20
125.8409504123
 30
0.0
 10
600.9903269327
 20
125.8396567974
 30
0.0
 10
601.0295545372
 20
125.8386197795
 30
0.0
 10
601.0837307559
 20
125.845500249
 30
0.0
 10
601.0544485136
 20
125.8396349386
 30
0.0
 10
601.0372117809
 20
125.8347048671
 30
0.0
 10
601.0080416563
 20
125.826114773
 30
0.0
 10
600.9738088045
 20
125.8142069788
 30
0.0
 10
600.931973799
 20
125.7984509952
 30
0.0
 10
600.8841475967
 20
125.7789556722
 30
0.0
 10
600.8087850132
 20
125.7461847736
 30
0.0
 10
600.7026631716
 20
125.6955467704
 30
0.0
 10
600.5638249002
 20
125.6215301562
 30
0.0
 10
600.4108169199
 20
125.5322135602
 30
0.0
 10
600.2459764107
 20
125.4283789721
 30
0.0
 10
600.0062097967
 20
125.2664749842
 30
0.0
 10
599.6918356858
 20
125.0322463376
 30
0.0
 10
599.4439383503
 20
124.8273560819
 30
0.0
 10
599.3171601454
 20
124.7175629359
 30
0.0
  0
SPLINE
  5
4F3
100
AcDbEntity
  8
KONSTRUKTIONSELEMENTE
100
AcDbSpline
 62
7
  6
CONTINUOUS
 70
0
 71
3
 72
14
 73
10
 74
0
 42
0.0000001
 43
0.0000001
 44
0.0000000001
 40
0.0
 40
0.0
 40
0.0
 40
0.0
 40
0.1261639273
 40
0.2490859875
 40
0.3675996524
 40
0.4838289665
 40
0.6024561707
 40
0.7271761049
 40
1.0
 40
1.0
 40
1.0
 40
1.0
 10
603.0818305652
 20
129.5900491089
 30
0.0
 10
602.8439563634
 20
129.7962086036
 30
0.0
 10
602.3044912158
 20
130.129102295
 30
0.0
 10
601.4033748355
 20
130.3569170385
 30
0.0
 10
600.5025946673
 20
130.3385740629
 30
0.0
 10
599.6392481839
 20
130.1379178112
 30
0.0
 10
598.8064357236
 20
129.7966766496
 30
0.0
 10
597.6791085975
 20
129.1699460936
 30
0.0
 10
596.8857762918
 20
128.5648632022
 30
0.0
 10
596.3712186273
 20
128.119243193
 30
0.0
  0
SPLINE
  5
4F4
100
AcDbEntity
  8
KONSTRUKTIONSELEMENTE
100
AcDbSpline
 62
7
  6
CONTINUOUS
 70
0
 71
3
 72
9
 73
5
 74
0
 42
0.0000001
 43
0.0000001
 44
0.0000000001
 40
0.0
 40
0.0
 40
0.0
 40
0.0
 40
0.5068172679
 40
1.0
 40
1.0
 40
1.0
 40
1.0
 10
581.9999464897
 20
108.3111704846
 30
0.0
 10
582.2437020734
 20
108.0999137465
 30
0.0
 10
582.7977074381
 20
107.7610190071
 30
0.0
 10
583.4262204205
 20
107.609473136
 30
0.0
 10
583.7386050431
 20
107.5788270065
 30
0.0
  0
SPLINE
  5
4F5
100
AcDbEntity
  8
KONSTRUKTIONSELEMENTE
100
AcDbSpline
 62
7
  6
CONTINUOUS
 70
0
 71
3
 72
14
 73
10
 74
0
 42
0.0000001
 43
0.0000001
 44
0.0000000001
 40
0.0
 40
0.0
 40
0.0
 40
0.0
 40
0.3076593044
 40
0.4655740208
 40
0.6174499256
 40
0.7563299601
 40
0.8741882754
 40
0.9604979356
 40
1.0
 40
1.0
 40
1.0
 40
1.0
 10
588.7105584276
 20
115.5319764005
 30
0.0
 10
588.260297029
 20
115.1420385909
 30
0.0
 10
587.6236065232
 20
114.4986861159
 30
0.0
 10
586.8657438017
 20
113.5737069487
 30
0.0
 10
586.3606775674
 20
112.8659515646
 30
0.0
 10
585.9491244167
 20
112.1896595288
 30
0.0
 10
585.6512855197
 20
111.5943897618
 30
0.0
 10
585.4875973498
 20
111.1517191689
 30
0.0
 10
585.4286517058
 20
110.9135884479
 30
0.0
 10
585.4223699029
 20
110.8373694116
 30
0.0
  0
SPLINE
  5
4F6
100
AcDbEntity
  8
KONSTRUKTIONSELEMENTE
100
AcDbSpline
 62
7
  6
CONTINUOUS
 70
0
 71
3
 72
17
 73
13
 74
0
 42
0.0000001
 43
0.0000001
 44
0.0000000001
 40
0.0
 40
0.0
 40
0.0
 40
0.0
 40
0.1381799396
 40
0.2793498645
 40
0.4167408576
 40
0.5447967012
 40
0.6614058717
 40
0.770730898
 40
0.825836819
 40
0.8824126798
 40
0.9407184285
 40
1.0
 40
1.0
 40
1.0
 40
1.0
 10
585.7646169095
 20
118.9336566576
 30
0.0
 10
585.3297907039
 20
118.5570861173
 30
0.0
 10
584.4918609598
 20
117.7473988444
 30
0.0
 10
583.361933558
 20
116.4278987958
 30
0.0
 10
582.3863796872
 20
115.041223628
 30
0.0
 10
581.6145549987
 20
113.6460735755
 30
0.0
 10
581.082216311
 20
112.266277975
 30
0.0
 10
580.8867192192
 20
111.0979794532
 30
0.0
 10
580.9536772375
 20
110.1758040114
 30
0.0
 10
581.1396855384
 20
109.4876693761
 30
0.0
 10
581.4822432696
 20
108.8413576123
 30
0.0
 10
581.8134584785
 20
108.4727948804
 30
0.0
 10
581.9999464897
 20
108.3111704846
 30
0.0
  0
SPLINE
  5
4F7
100
AcDbEntity
  8
KONSTRUKTIONSELEMENTE
100
AcDbSpline
 62
7
  6
CONTINUOUS
 70
0
 71
3
 72
11
 73
7
 74
0
 42
0.0000001
 43
0.0000001
 44
0.0000000001
 40
0.0
 40
0.0
 40
0.0
 40
0.0
 40
0.247258039
 40
0.4956520534
 40
0.7463451021
 40
1.0
 40
1.0
 40
1.0
 40
1.0
 10
594.7940125637
 20
127.8282230927
 30
0.0
 10
594.7938170969
 20
128.3182283721
 30
0.0
 10
594.9048928964
 20
129.3039786736
 30
0.0
 10
595.394804406
 20
130.7117531408
 30
0.0
 10
596.181844121
 20
131.9918420175
 30
0.0
 10
596.8751099742
 20
132.7229089107
 30
0.0
 10
597.2551021037
 20
133.0519917481
 30
0.0
  0
SPLINE
  5
4F8
100
AcDbEntity
  8
KONSTRUKTIONSELEMENTE
100
AcDbSpline
 62
7
  6
CONTINUOUS
 70
0
 71
3
 72
11
 73
7
 74
0
 42
0.0000001
 43
0.0000001
 44
0.0000000001
 40
0.0
 40
0.0
 40
0.0
 40
0.0
 40
0.247258039
 40
0.4956520534
 40
0.7463451021
 40
1.0
 40
1.0
 40
1.0
 40
1.0
 10
621.4004628634
 20
137.0173836714
 30
0.0
 10
621.4006583302
 20
136.527378392
 30
0.0
 10
621.2895825307
 20
135.5416280905
 30
0.0
 10
620.7996710211
 20
134.1338536233
 30
0.0
 10
620.0126313061
 20
132.8537647466
 30
0.0
 10
619.3193654529
 20
132.1226978534
 30
0.0
 10
618.9393733234
 20
131.793615016
 30
0.0
  0
SPLINE
  5
4F9
100
AcDbEntity
  8
KONSTRUKTIONSELEMENTE
100
AcDbSpline
 62
7
  6
CONTINUOUS
 70
0
 71
3
 72
9
 73
5
 74
0
 42
0.0000001
 43
0.0000001
 44
0.0000000001
 40
0.0
 40
0.0
 40
0.0
 40
0.0
 40
0.2390508737
 40
1.0
 40
1.0
 40
1.0
 40
1.0
 10
611.0323758874
 20
139.0136992817
 30
0.0
 10
611.1280203553
 20
139.0828808726
 30
0.0
 10
611.5428644323
 20
139.3516332661
 30
0.0
 10
612.0117141901
 20
139.5344014038
 30
0.0
 10
612.3767975956
 20
139.6233084494
 30
0.0
  0
SPLINE
  5
4FA
100
AcDbEntity
  8
KONSTRUKTIONSELEMENTE
100
AcDbSpline
 62
7
  6
CONTINUOUS
 70
0
 71
3
 72
9
 73
5
 74
0
 42
0.0000001
 43
0.0000001
 44
0.0000000001
 40
0.0
 40
0.0
 40
0.0
 40
0.0
 40
0.2598514407
 40
1.0
 40
1.0
 40
1.0
 40
1.0
 10
616.71897814
 20
137.8717986973
 30
0.0
 10
616.7492595021
 20
137.8019629471
 30
0.0
 10
616.8525632245
 20
137.5277191964
 30
0.0
 10
616.9010135521
 20
137.232404551
 30
0.0
 10
616.9010257781
 20
137.0155928346
 30
0.0
  0
SPLINE
  5
4FB
100
AcDbEntity
  8
KONSTRUKTIONSELEMENTE
100
AcDbSpline
 62
7
  6
CONTINUOUS
 70
0
 71
3
 72
9
 73
5
 74
0
 42
0.0000001
 43
0.0000001
 44
0.0000000001
 40
0.0
 40
0.0
 40
0.0
 40
0.0
 40
0.4614411915
 40
1.0
 40
1.0
 40
1.0
 40
1.0
 10
616.9010257781
 20
137.0155928346
 30
0.0
 10
616.9010438388
 20
136.6953106524
 30
0.0
 10
616.7295500174
 20
135.994850421
 30
0.0
 10
616.2760047181
 20
135.4400105941
 30
0.0
 10
615.9934318052
 20
135.1952952731
 30
0.0
  0
SPLINE
  5
4FC
100
AcDbEntity
  8
KONSTRUKTIONSELEMENTE
100
AcDbSpline
 62
7
  6
CONTINUOUS
 70
0
 71
3
 72
9
 73
5
 74
0
 42
0.0000001
 43
0.0000001
 44
0.0000000001
 40
0.0
 40
0.0
 40
0.0
 40
0.0
 40
0.4898470903
 40
1.0
 40
1.0
 40
1.0
 40
1.0
 10
605.3868300874
 20
126.0097087376
 30
0.0
 10
604.7891211582
 20
125.4920776209
 30
0.0
 10
603.1725014671
 20
124.8795339984
 30
0.0
 10
601.486312606
 20
125.2099597533
 30
0.0
 10
600.7683040932
 20
125.6131584417
 30
0.0
  0
SPLINE
  5
4FD
100
AcDbEntity
  8
KONSTRUKTIONSELEMENTE
100
AcDbSpline
 62
7
  6
CONTINUOUS
 70
0
 71
3
 72
11
 73
7
 74
0
 42
0.0000001
 43
0.0000001
 44
0.0000000001
 40
0.0
 40
0.0
 40
0.0
 40
0.0
 40
0.245958326
 40
0.4956468363
 40
0.7476883331
 40
1.0
 40
1.0
 40
1.0
 40
1.0
 10
607.8617038215
 20
142.2375782836
 30
0.0
 10
608.339397775
 20
142.6512733825
 30
0.0
 10
609.4091474904
 20
143.3682143089
 30
0.0
 10
611.2228699358
 20
144.0474874434
 30
0.0
 10
613.1571192233
 20
144.3133172239
 30
0.0
 10
614.4608050925
 20
144.2057608858
 30
0.0
 10
615.0970329122
 20
144.0814782006
 30
0.0
  0
SPLINE
  5
4FE
100
AcDbEntity
  8
KONSTRUKTIONSELEMENTE
100
AcDbSpline
 62
7
  6
CONTINUOUS
 70
0
 71
3
 72
11
 73
7
 74
0
 42
0.0000001
 43
0.0000001
 44
0.0000000001
 40
0.0
 40
0.0
 40
0.0
 40
0.0
 40
0.2532343944
 40
0.50377714
 40
0.752387739
 40
1.0
 40
1.0
 40
1.0
 40
1.0
 10
619.2560829472
 20
141.9472461339
 30
0.0
 10
619.5902066
 20
141.6231843488
 30
0.0
 10
620.1967985696
 20
140.9148916916
 30
0.0
 10
620.8804882824
 20
139.7026218802
 30
0.0
 10
621.3044608763
 20
138.3873735905
 30
0.0
 10
621.4002813094
 20
137.4725115441
 30
0.0
 10
621.4004628634
 20
137.0173836714
 30
0.0
  0
SPLINE
  5
4FF
100
AcDbEntity
  8
KONSTRUKTIONSELEMENTE
100
AcDbSpline
 62
7
  6
CONTINUOUS
 70
0
 71
3
 72
13
 73
9
 74
0
 42
0.0000001
 43
0.0000001
 44
0.0000000001
 40
0.0
 40
0.0
 40
0.0
 40
0.0
 40
0.1233769833
 40
0.2483733747
 40
0.5003778919
 40
0.7521575176
 40
0.8768774439
 40
1.0
 40
1.0
 40
1.0
 40
1.0
 10
608.3327716056
 20
122.6080284805
 30
0.0
 10
607.9522636813
 20
122.2784989518
 30
0.0
 10
607.1185513638
 20
121.6892934785
 30
0.0
 10
605.2534687138
 20
120.8365480805
 30
0.0
 10
602.6646003801
 20
120.4193135837
 30
0.0
 10
600.0895097421
 20
120.9103315789
 30
0.0
 10
598.2535322174
 20
121.8174235238
 30
0.0
 10
597.4404637061
 20
122.4313827135
 30
0.0
 10
597.0715423092
 20
122.7723065329
 30
0.0
  0
SPLINE
  5
500
100
AcDbEntity
  8
KONSTRUKTIONSELEMENTE
100
AcDbSpline
 62
7
  6
CONTINUOUS
 70
0
 71
3
 72
13
 73
9
 74
0
 42
0.0000001
 43
0.0000001
 44
0.0000000001
 40
0.0
 40
0.0
 40
0.0
 40
0.0
 40
0.2665971548
 40
0.5131427383
 40
0.6335745049
 40
0.7544506304
 40
0.8766334311
 40
1.0
 40
1.0
 40
1.0
 40
1.0
 10
675.2842035593
 20
183.8015744607
 30
0.0
 10
675.5486882514
 20
184.751607995
 30
0.0
 10
675.9429832974
 20
186.6162801299
 30
0.0
 10
675.986763427
 20
188.9827993182
 30
0.0
 10
675.6459557768
 20
190.7616874814
 30
0.0
 10
675.1770018034
 20
192.029482491
 30
0.0
 10
674.4729860195
 20
193.1976743248
 30
0.0
 10
673.8484064459
 20
193.8683017241
 30
0.0
 10
673.5035597712
 20
194.1671807622
 30
0.0
  0
SPLINE
  5
501
100
AcDbEntity
  8
KONSTRUKTIONSELEMENTE
100
AcDbSpline
 62
7
  6
CONTINUOUS
 70
0
 71
3
 72
32
 73
28
 74
0
 42
0.0000001
 43
0.0000001
 44
0.0000000001
 40
0.0
 40
0.0
 40
0.0
 40
0.0
 40
0.0044205501
 40
0.0063676765
 40
0.0080100499
 40
0.0101303936
 40
0.0105226864
 40
0.0106459275
 40
0.0126695746
 40
0.014699805
 40
0.017497487
 40
0.0254704288
 40
0.0365583283
 40
0.0507197017
 40
0.0679380367
 40
0.0881245883
 40
0.1111486374
 40
0.1368850312
 40
0.1652148616
 40
0.2291623706
 40
0.3020581263
 40
0.38308408
 40
0.4714667297
 40
0.5665043764
 40
0.6675173737
 40
0.7738792123
 40
1.0
 40
1.0
 40
1.0
 40
1.0
 10
668.9231707248
 20
188.8797161149
 30
0.0
 10
668.9372448376
 20
188.8671829131
 30
0.0
 10
668.9583201622
 20
188.8494112997
 30
0.0
 10
668.9845420721
 20
188.8290538369
 30
0.0
 10
669.007227531
 20
188.8145407799
 30
0.0
 10
669.0147283346
 20
188.8091934081
 30
0.0
 10
669.0342552495
 20
188.8017489618
 30
0.0
 10
669.0219924759
 20
188.8076301479
 30
0.0
 10
669.0068410261
 20
188.809293109
 30
0.0
 10
668.9772588651
 20
188.8159550933
 30
0.0
 10
668.9237793831
 20
188.8236446076
 30
0.0
 10
668.8305868727
 20
188.8329663783
 30
0.0
 10
668.6891095848
 20
188.8373722756
 30
0.0
 10
668.5079523577
 20
188.8318345835
 30
0.0
 10
668.2890019425
 20
188.8108683338
 30
0.0
 10
668.0341671337
 20
188.7722890288
 30
0.0
 10
667.7459260224
 20
188.7141686856
 30
0.0
 10
667.4269736253
 20
188.6344492374
 30
0.0
 10
666.9444035738
 20
188.4917006258
 30
0.0
 10
666.281333865
 20
188.2527019379
 30
0.0
 10
665.4294755829
 20
187.8811727668
 30
0.0
 10
664.5065794444
 20
187.4160653479
 30
0.0
 10
663.5257581552
 20
186.8593742358
 30
0.0
 10
662.4978801926
 20
186.2154104364
 30
0.0
 10
661.4329757232
 20
185.4881115011
 30
0.0
 10
659.9450014879
 20
184.3915751289
 30
0.0
 10
658.8469492344
 20
183.4932779994
 30
0.0
 10
658.1182332911
 20
182.8621914805
 30
0.0
  0
SPLINE
  5
502
100
AcDbEntity
  8
KONSTRUKTIONSELEMENTE
100
AcDbSpline
 62
7
  6
CONTINUOUS
 70
0
 71
3
 72
9
 73
5
 74
0
 42
0.0000001
 43
0.0000001
 44
0.0000000001
 40
0.0
 40
0.0
 40
0.0
 40
0.0
 40
0.2961788403
 40
1.0
 40
1.0
 40
1.0
 40
1.0
 10
668.9436410429
 20
188.1963351277
 30
0.0
 10
668.9431747991
 20
188.2461569526
 30
0.0
 10
668.9388884375
 20
188.4143085895
 30
0.0
 10
668.9233817637
 20
188.5823579537
 30
0.0
 10
668.9039506868
 20
188.6991512998
 30
0.0
  0
SPLINE
  5
503
100
AcDbEntity
  8
KONSTRUKTIONSELEMENTE
100
AcDbSpline
 62
7
  6
CONTINUOUS
 70
0
 71
3
 72
9
 73
5
 74
0
 42
0.0000001
 43
0.0000001
 44
0.0000000001
 40
0.0
 40
0.0
 40
0.0
 40
0.0
 40
0.2825936743
 40
1.0
 40
1.0
 40
1.0
 40
1.0
 10
668.9039506868
 20
188.6991512998
 30
0.0
 10
668.9017385268
 20
188.712447813
 30
0.0
 10
668.893497824
 20
188.7594285758
 30
0.0
 10
668.8837084942
 20
188.8061472976
 30
0.0
 10
668.8755745914
 20
188.8393856894
 30
0.0
  0
SPLINE
  5
504
100
AcDbEntity
  8
KONSTRUKTIONSELEMENTE
100
AcDbSpline
 62
7
  6
CONTINUOUS
 70
0
 71
3
 72
19
 73
15
 74
0
 42
0.0000001
 43
0.0000001
 44
0.0000000001
 40
0.0
 40
0.0
 40
0.0
 40
0.0
 40
0.1457303501
 40
0.2955344048
 40
0.4424584215
 40
0.5799648122
 40
0.6435725533
 40
0.703191081
 40
0.7587399438
 40
0.810496107
 40
0.859220708
 40
0.9061653116
 40
0.952770937
 40
1.0
 40
1.0
 40
1.0
 40
1.0
 10
653.5356575962
 20
188.1536941026
 30
0.0
 10
652.0567226312
 20
186.8728988524
 30
0.0
 10
649.18596597
 20
184.1246673207
 30
0.0
 10
645.25985542
 20
179.6580731302
 30
0.0
 10
641.7948101911
 20
174.9611002898
 30
0.0
 10
639.3780860553
 20
170.9510770456
 30
0.0
 10
637.8420936803
 20
167.8033906383
 30
0.0
 10
636.9360967458
 20
165.5785745477
 30
0.0
 10
636.2582860195
 20
163.4395544306
 30
0.0
 10
635.8241441833
 20
161.3860545099
 30
0.0
 10
635.657343683
 20
159.4074526481
 30
0.0
 10
635.8076863464
 20
157.492285956
 30
0.0
 10
636.3496281992
 20
155.6646693854
 30
0.0
 10
637.0181122863
 20
154.5734608573
 30
0.0
 10
637.4251304177
 20
154.0872891871
 30
0.0
  0
SPLINE
  5
505
100
AcDbEntity
  8
KONSTRUKTIONSELEMENTE
100
AcDbSpline
 62
7
  6
CONTINUOUS
 70
0
 71
3
 72
9
 73
5
 74
0
 42
0.0000001
 43
0.0000001
 44
0.0000000001
 40
0.0
 40
0.0
 40
0.0
 40
0.0
 40
0.4689766639
 40
1.0
 40
1.0
 40
1.0
 40
1.0
 10
647.94604117
 20
160.558633998
 30
0.0
 10
648.8813650583
 20
161.1071586904
 30
0.0
 10
650.8050617392
 20
162.3980146735
 30
0.0
 10
652.6075603657
 20
163.8499383238
 30
0.0
 10
653.5356575962
 20
164.6536941026
 30
0.0
  0
SPLINE
  5
506
100
AcDbEntity
  8
KONSTRUKTIONSELEMENTE
100
AcDbSpline
 62
7
  6
CONTINUOUS
 70
0
 71
3
 72
16
 73
12
 74
0
 42
0.0000001
 43
0.0000001
 44
0.0000000001
 40
0.0
 40
0.0
 40
0.0
 40
0.0
 40
0.0544790563
 40
0.1085312973
 40
0.2148583894
 40
0.3223349476
 40
0.4361177567
 40
0.56005687
 40
0.6957228797
 40
0.8428806748
 40
1.0
 40
1.0
 40
1.0
 40
1.0
 10
673.5035597712
 20
194.1671807622
 30
0.0
 10
673.1949386045
 20
194.4346631079
 30
0.0
 10
672.5266387334
 20
194.908942702
 30
0.0
 10
671.0575173524
 20
195.5878340558
 30
0.0
 10
669.0437741571
 20
195.9393213663
 30
0.0
 10
666.5802538755
 20
195.7005447369
 30
0.0
 10
664.0876815391
 20
194.9647762934
 30
0.0
 10
661.531699692
 20
193.8081125557
 30
0.0
 10
658.8960750822
 20
192.2658972786
 30
0.0
 10
656.1962096394
 20
190.3664108255
 30
0.0
 10
654.426028573
 20
188.9247779873
 30
0.0
 10
653.5356575962
 20
188.1536941026
 30
0.0
  0
SPLINE
  5
507
100
AcDbEntity
  8
KONSTRUKTIONSELEMENTE
100
AcDbSpline
 62
7
  6
CONTINUOUS
 70
0
 71
3
 72
18
 73
14
 74
0
 42
0.0000001
 43
0.0000001
 44
0.0000000001
 40
0.0
 40
0.0
 40
0.0
 40
0.0
 40
0.1500745078
 40
0.3058266549
 40
0.4608922695
 40
0.6088932065
 40
0.7435136846
 40
0.8038541215
 40
0.8584456898
 40
0.9064073526
 40
0.9467560424
 40
0.9783545566
 40
1.0
 40
1.0
 40
1.0
 40
1.0
 10
658.1182332911
 20
182.8621914805
 30
0.0
 10
657.0176228621
 20
181.9090348893
 30
0.0
 10
654.8562975896
 20
179.8711152805
 30
0.0
 10
651.8337495561
 20
176.5712307418
 30
0.0
 10
649.0657110812
 20
173.0800663574
 30
0.0
 10
646.6802865299
 20
169.562372878
 30
0.0
 10
645.0458099221
 20
166.6578065185
 30
0.0
 10
644.0314012846
 20
164.4582043302
 30
0.0
 10
643.4569970445
 20
162.984709218
 30
0.0
 10
643.0458885011
 20
161.6593089831
 30
0.0
 10
642.7973273837
 20
160.5208272901
 30
0.0
 10
642.6990989123
 20
159.6165322109
 30
0.0
 10
642.7106576373
 20
159.0973413434
 30
0.0
 10
642.7389939193
 20
158.8892653582
 30
0.0
  0
SPLINE
  5
508
100
AcDbEntity
  8
KONSTRUKTIONSELEMENTE
100
AcDbSpline
 62
7
  6
CONTINUOUS
 70
0
 71
3
 72
13
 73
9
 74
0
 42
0.0000001
 43
0.0000001
 44
0.0000000001
 40
0.0
 40
0.0
 40
0.0
 40
0.0
 40
0.2073745552
 40
0.3191080088
 40
0.4386451757
 40
0.5668030365
 40
0.7035559657
 40
1.0
 40
1.0
 40
1.0
 40
1.0
 10
642.3258338822
 20
151.7008988214
 30
0.0
 10
643.5617867107
 20
151.6144937941
 30
0.0
 10
645.4946425418
 20
151.8909601535
 30
0.0
 10
647.973889497
 20
152.7373510989
 30
0.0
 10
649.9305183877
 20
153.6326008485
 30
0.0
 10
651.9357301262
 20
154.7564115965
 30
0.0
 10
654.7441709345
 20
156.5933395018
 30
0.0
 10
656.7793928863
 20
158.2027216783
 30
0.0
 10
658.1182332911
 20
159.3621914805
 30
0.0
  0
SPLINE
  5
509
100
AcDbEntity
  8
BEZUGSACHSEN
100
AcDbSpline
 62
7
  6
CONTINUOUS
 70
0
 71
3
 72
8
 73
4
 74
0
 42
0.0000001
 43
0.0000001
 44
0.0000000001
 40
0.0
 40
0.0
 40
0.0
 40
0.0
 40
1.0
 40
1.0
 40
1.0
 40
1.0
 10
684.6521415642
 20
199.3570041029
 30
0.0
 10
684.6470198633
 20
199.3360771862
 30
0.0
 10
684.6453825929
 20
199.3139551365
 30
0.0
 10
684.6476298666
 20
199.292528111
 30
0.0
  0
LINE
  5
50A
100
AcDbEntity
  8
BEZUGSACHSEN
100
AcDbLine
 62
7
  6
CONTINUOUS
 10
683.2104602785
 20
192.4044518035
 11
683.1981597149
 21
192.3607221701
  0
LINE
  5
50B
100
AcDbEntity
  8
BEZUGSACHSEN
100
AcDbLine
 62
7
  6
CONTINUOUS
 10
683.1981597149
 20
192.3607221701
 11
683.0625443866
 21
191.877910271
  0
LINE
  5
50C
100
AcDbEntity
  8
BEZUGSACHSEN
100
AcDbLine
 62
7
  6
CONTINUOUS
 10
683.0479231795
 20
190.5833276839
 11
683.1080714335
 21
190.8165966477
  0
LINE
  5
50D
100
AcDbEntity
  8
BEZUGSACHSEN
100
AcDbLine
 62
7
  6
CONTINUOUS
 10
683.1080714335
 20
190.8165966477
 11
683.2925050024
 21
191.5318484861
  0
LINE
  5
50E
100
AcDbEntity
  8
BEZUGSACHSEN
100
AcDbLine
 62
7
  6
CONTINUOUS
 10
683.2925050024
 20
191.5318484861
 11
683.3087175243
 21
191.5947205511
  0
LINE
  5
50F
100
AcDbEntity
  8
BEZUGSACHSEN
100
AcDbLine
 62
7
  6
CONTINUOUS
 10
683.0851466257
 20
192.7297505652
 11
683.0901835573
 21
192.753768363
  0
SPLINE
  5
510
100
AcDbEntity
  8
BEZUGSACHSEN
100
AcDbSpline
 62
7
  6
CONTINUOUS
 70
0
 71
3
 72
8
 73
4
 74
0
 42
0.0000001
 43
0.0000001
 44
0.0000000001
 40
0.0
 40
0.0
 40
0.0
 40
0.0
 40
1.0
 40
1.0
 40
1.0
 40
1.0
 10
684.8997578035
 20
200.3531915485
 30
0.0
 10
684.8942714796
 20
200.3408960059
 30
0.0
 10
684.8897667529
 20
200.3280924816
 30
0.0
 10
684.8865652994
 20
200.3150146067
 30
0.0
  0
LINE
  5
511
100
AcDbEntity
  8
BEZUGSACHSEN
100
AcDbLine
 62
7
  6
CONTINUOUS
 10
684.611222084
 20
199.1157508879
 11
684.5735366414
 21
198.9494875541
  0
LINE
  5
512
100
AcDbEntity
  8
BEZUGSACHSEN
100
AcDbLine
 62
7
  6
CONTINUOUS
 10
684.5735366414
 20
198.9494875541
 11
684.5362273123
 21
198.7838155254
  0
LINE
  5
513
100
AcDbEntity
  8
BEZUGSACHSEN
100
AcDbLine
 62
7
  6
CONTINUOUS
 10
684.5362273123
 20
198.7838155254
 11
684.4217608238
 21
198.2967215768
  0
LINE
  5
514
100
AcDbEntity
  8
BEZUGSACHSEN
100
AcDbLine
 62
7
  6
CONTINUOUS
 10
684.4217608238
 20
198.2967215768
 11
684.2672074253
 21
197.6544699851
  0
LINE
  5
515
100
AcDbEntity
  8
BEZUGSACHSEN
100
AcDbLine
 62
7
  6
CONTINUOUS
 10
684.2672074253
 20
197.6544699851
 11
683.6822505548
 21
195.2622405684
  0
LINE
  5
516
100
AcDbEntity
  8
BEZUGSACHSEN
100
AcDbLine
 62
7
  6
CONTINUOUS
 10
683.5246737689
 20
194.6286365904
 11
683.6822505548
 21
195.2622405684
  0
LINE
  5
517
100
AcDbEntity
  8
BEZUGSACHSEN
100
AcDbLine
 62
7
  6
CONTINUOUS
 10
683.4047698435
 20
194.1588384149
 11
683.5246737689
 21
194.6286365904
  0
LINE
  5
518
100
AcDbEntity
  8
BEZUGSACHSEN
100
AcDbLine
 62
7
  6
CONTINUOUS
 10
683.3232246813
 20
193.8528458808
 11
683.3434398304
 21
193.9290493725
  0
LINE
  5
519
100
AcDbEntity
  8
BEZUGSACHSEN
100
AcDbLine
 62
7
  6
CONTINUOUS
 10
683.2907777345
 20
193.7884880316
 11
683.3074570537
 21
193.856701531
  0
LINE
  5
51A
100
AcDbEntity
  8
BEZUGSACHSEN
100
AcDbLine
 62
7
  6
CONTINUOUS
 10
683.3074570537
 20
193.856701531
 11
683.3826576983
 21
194.1642454861
  0
LINE
  5
51B
100
AcDbEntity
  8
BEZUGSACHSEN
100
AcDbLine
 62
7
  6
CONTINUOUS
 10
683.3826576983
 20
194.1642454861
 11
683.4978197008
 21
194.6352032015
  0
LINE
  5
51C
100
AcDbEntity
  8
BEZUGSACHSEN
100
AcDbLine
 62
7
  6
CONTINUOUS
 10
683.4978197008
 20
194.6352032015
 11
683.626640749
 21
195.1620005085
  0
LINE
  5
51D
100
AcDbEntity
  8
BEZUGSACHSEN
100
AcDbLine
 62
7
  6
CONTINUOUS
 10
683.626640749
 20
195.1620005085
 11
683.6529083868
 21
195.2694162377
  0
LINE
  5
51E
100
AcDbEntity
  8
BEZUGSACHSEN
100
AcDbLine
 62
7
  6
CONTINUOUS
 10
683.6529083868
 20
195.2694162377
 11
684.2379514592
 21
197.6616252023
  0
LINE
  5
51F
100
AcDbEntity
  8
BEZUGSACHSEN
100
AcDbLine
 62
7
  6
CONTINUOUS
 10
684.2379514592
 20
197.6616252023
 11
684.3092003679
 21
197.9529343722
  0
LINE
  5
520
100
AcDbEntity
  8
BEZUGSACHSEN
100
AcDbLine
 62
7
  6
CONTINUOUS
 10
684.3092003679
 20
197.9529343722
 11
684.3948932876
 21
198.3032932138
  0
LINE
  5
521
100
AcDbEntity
  8
BEZUGSACHSEN
100
AcDbLine
 62
7
  6
CONTINUOUS
 10
684.3948932876
 20
198.3032932138
 11
684.5137686605
 21
198.7893087756
  0
LINE
  5
522
100
AcDbEntity
  8
BEZUGSACHSEN
100
AcDbLine
 62
7
  6
CONTINUOUS
 10
684.5137686605
 20
198.7893087756
 11
684.5946092972
 21
199.1198142749
  0
LINE
  5
523
100
AcDbEntity
  8
BEZUGSACHSEN
100
AcDbLine
 62
7
  6
CONTINUOUS
 10
684.5946092972
 20
199.1198142749
 11
684.6374633591
 21
199.2950147773
  0
LINE
  5
524
100
AcDbEntity
  8
BEZUGSACHSEN
100
AcDbLine
 62
7
  6
CONTINUOUS
 10
684.6374633591
 20
199.2950147773
 11
684.6500320928
 21
199.3463993095
  0
LINE
  5
525
100
AcDbEntity
  8
BEZUGSACHSEN
100
AcDbLine
 62
7
  6
CONTINUOUS
 10
684.6500320928
 20
199.3463993095
 11
684.655892174
 21
199.3703569311
  0
SPLINE
  5
526
100
AcDbEntity
  8
BEZUGSACHSEN
100
AcDbSpline
 62
7
  6
CONTINUOUS
 70
0
 71
3
 72
8
 73
4
 74
0
 42
0.0000001
 43
0.0000001
 44
0.0000000001
 40
0.0
 40
0.0
 40
0.0
 40
0.0
 40
1.0
 40
1.0
 40
1.0
 40
1.0
 10
684.8865652994
 20
200.3150146067
 30
0.0
 10
684.8813531103
 20
200.293722916
 30
0.0
 10
684.8796590761
 20
200.2712262199
 30
0.0
 10
684.8818912374
 20
200.2494197883
 30
0.0
  0
SPLINE
  5
527
100
AcDbEntity
  8
BEZUGSACHSEN
100
AcDbSpline
 62
7
  6
CONTINUOUS
 70
0
 71
3
 72
8
 73
4
 74
0
 42
0.0000001
 43
0.0000001
 44
0.0000000001
 40
0.0
 40
0.0
 40
0.0
 40
0.0
 40
1.0
 40
1.0
 40
1.0
 40
1.0
 10
683.2846829787
 20
193.7686619222
 30
0.0
 10
683.2816054451
 20
193.7560891705
 30
0.0
 10
683.2799594549
 20
193.7430636798
 30
0.0
 10
683.2799491623
 20
193.7301197549
 30
0.0
  0
LINE
  5
528
100
AcDbEntity
  8
BEZUGSACHSEN
100
AcDbLine
 62
7
  6
CONTINUOUS
 10
683.3369647815
 20
193.8139314707
 11
683.4970823169
 21
194.4432117041
  0
LINE
  5
529
100
AcDbEntity
  8
BEZUGSACHSEN
100
AcDbLine
 62
7
  6
CONTINUOUS
 10
683.4970823169
 20
194.4432117041
 11
683.6940725011
 21
195.2362976283
  0
LINE
  5
52A
100
AcDbEntity
  8
BEZUGSACHSEN
100
AcDbLine
 62
7
  6
CONTINUOUS
 10
684.2782740078
 20
197.628527045
 11
683.6940725011
 21
195.2362976283
  0
LINE
  5
52B
100
AcDbEntity
  8
BEZUGSACHSEN
100
AcDbLine
 62
7
  6
CONTINUOUS
 10
684.4709866068
 20
198.4302610297
 11
684.2782740078
 21
197.628527045
  0
LINE
  5
52C
100
AcDbEntity
  8
BEZUGSACHSEN
100
AcDbLine
 62
7
  6
CONTINUOUS
 10
684.6230993872
 20
199.0768364778
 11
684.4709866068
 21
198.4302610297
  0
LINE
  5
52D
100
AcDbEntity
  8
BEZUGSACHSEN
100
AcDbLine
 62
7
  6
CONTINUOUS
 10
684.6309229229
 20
199.11126834
 11
684.6230993872
 21
199.0768364778
  0
SPLINE
  5
52E
100
AcDbEntity
  8
KONSTRUKTIONSELEMENTE
100
AcDbSpline
 62
7
  6
CONTINUOUS
 70
0
 71
3
 72
9
 73
5
 74
0
 42
0.0000001
 43
0.0000001
 44
0.0000000001
 40
0.0
 40
0.0
 40
0.0
 40
0.0
 40
0.2416832593
 40
1.0
 40
1.0
 40
1.0
 40
1.0
 10
711.983779806
 20
105.3406959598
 30
0.0
 10
712.2094380647
 20
105.6610491571
 30
0.0
 10
713.1168687718
 20
107.0051065661
 30
0.0
 10
713.9342637168
 20
108.4079408844
 30
0.0
 10
714.5257123493
 20
109.4858279176
 30
0.0
  0
SPLINE
  5
52F
100
AcDbEntity
  8
0
100
AcDbSpline
 62
7
  6
CONTINUOUS
 70
0
 71
3
 72
13
 73
9
 74
0
 42
0.0000001
 43
0.0000001
 44
0.0000000001
 40
0.0
 40
0.0
 40
0.0
 40
0.0
 40
0.1163023557
 40
0.2340384021
 40
0.3543786332
 40
0.4780387852
 40
0.7344041874
 40
1.0
 40
1.0
 40
1.0
 40
1.0
 10
701.9500514559
 20
122.9861132613
 30
0.0
 10
701.9500514559
 20
122.475986388
 30
0.0
 10
701.8322750036
 20
121.4457369693
 30
0.0
 10
701.3113175262
 20
119.9684382616
 30
0.0
 10
700.4677926473
 20
118.6101762028
 30
0.0
 10
698.9447566384
 20
117.0115296578
 30
0.0
 10
696.4231812707
 20
115.5784599863
 30
0.0
 10
694.1150111901
 20
115.1918846272
 30
0.0
 10
692.9500514559
 20
115.1918846272
 30
0.0
  0
SPLINE
  5
530
100
AcDbEntity
  8
BEZUGSACHSEN
100
AcDbSpline
 62
7
  6
CONTINUOUS
 70
0
 71
3
 72
8
 73
4
 74
0
 42
0.0000001
 43
0.0000001
 44
0.0000000001
 40
0.0
 40
0.0
 40
0.0
 40
0.0
 40
1.0
 40
1.0
 40
1.0
 40
1.0
 10
702.8498419867
 20
192.8106582951
 30
0.0
 10
702.8543588062
 20
192.7922060365
 30
0.0
 10
702.8555969082
 20
192.7726152726
 30
0.0
 10
702.8532207665
 20
192.7537674224
 30
0.0
  0
SPLINE
  5
531
100
AcDbEntity
  8
0
100
AcDbSpline
 62
7
  6
CONTINUOUS
 70
0
 71
3
 72
13
 73
9
 74
0
 42
0.0000001
 43
0.0000001
 44
0.0000000001
 40
0.0
 40
0.0
 40
0.0
 40
0.0
 40
0.2655958126
 40
0.5219612148
 40
0.6456213668
 40
0.7659615979
 40
0.8836976443
 40
1.0
 40
1.0
 40
1.0
 40
1.0
 10
692.9500514559
 20
115.1918846272
 30
0.0
 10
691.7850917218
 20
115.1918846272
 30
0.0
 10
689.4769216412
 20
115.5784599863
 30
0.0
 10
686.9553462735
 20
117.0115296578
 30
0.0
 10
685.4323102646
 20
118.6101762028
 30
0.0
 10
684.5887853857
 20
119.9684382616
 30
0.0
 10
684.0678279082
 20
121.4457369693
 30
0.0
 10
683.9500514559
 20
122.475986388
 30
0.0
 10
683.9500514559
 20
122.9861132613
 30
0.0
  0
SPLINE
  5
532
100
AcDbEntity
  8
KONSTRUKTIONSELEMENTE
100
AcDbSpline
 62
7
  6
CONTINUOUS
 70
0
 71
3
 72
10
 73
6
 74
0
 42
0.0000001
 43
0.0000001
 44
0.0000000001
 40
0.0
 40
0.0
 40
0.0
 40
0.0
 40
0.49868292
 40
0.7574988817
 40
1.0
 40
1.0
 40
1.0
 40
1.0
 10
714.1103054938
 20
106.8043989995
 30
0.0
 10
714.452782592
 20
105.8561947773
 30
0.0
 10
714.9334062935
 20
104.3981780795
 30
0.0
 10
715.3539869037
 20
102.418676363
 30
0.0
 10
715.4500514559
 20
101.405116858
 30
0.0
 10
715.4500514559
 20
100.9148667547
 30
0.0
  0
SPLINE
  5
533
100
AcDbEntity
  8
KONSTRUKTIONSELEMENTE
100
AcDbSpline
 62
7
  6
CONTINUOUS
 70
0
 71
3
 72
10
 73
6
 74
0
 42
0.0000001
 43
0.0000001
 44
0.0000000001
 40
0.0
 40
0.0
 40
0.0
 40
0.0
 40
0.5554239174
 40
0.7973679146
 40
1.0
 40
1.0
 40
1.0
 40
1.0
 10
714.5257123493
 20
109.4858279176
 30
0.0
 10
714.7951979598
 20
109.9769526396
 30
0.0
 10
715.1403656632
 20
110.7106787381
 30
0.0
 10
715.401240406
 20
111.6874469688
 30
0.0
 10
715.4500514559
 20
112.1360573693
 30
0.0
 10
715.4500514559
 20
112.3404325192
 30
0.0
  0
SPLINE
  5
534
100
AcDbEntity
  8
0
100
AcDbSpline
 62
7
  6
CONTINUOUS
 70
0
 71
3
 72
9
 73
5
 74
0
 42
0.0000001
 43
0.0000001
 44
0.0000000001
 40
0.0
 40
0.0
 40
0.0
 40
0.0
 40
0.4983025356
 40
1.0
 40
1.0
 40
1.0
 40
1.0
 10
670.4500514559
 20
82.3580588366
 30
0.0
 10
670.4500514559
 20
81.8640041466
 30
0.0
 10
670.599273893
 20
80.8670182801
 30
0.0
 10
671.0314244043
 20
79.9576492671
 30
0.0
 10
671.3049339488
 20
79.5421738042
 30
0.0
  0
SPLINE
  5
535
100
AcDbEntity
  8
0
100
AcDbSpline
 62
7
  6
CONTINUOUS
 70
0
 71
3
 72
9
 73
5
 74
0
 42
0.0000001
 43
0.0000001
 44
0.0000000001
 40
0.0
 40
0.0
 40
0.0
 40
0.0
 40
0.5028158989
 40
1.0
 40
1.0
 40
1.0
 40
1.0
 10
671.857747637
 20
135.0644247405
 30
0.0
 10
671.4079773336
 20
134.3897692854
 30
0.0
 10
670.6965987638
 20
132.9143807486
 30
0.0
 10
670.4500514559
 20
131.2926759081
 30
0.0
 10
670.4500514559
 20
130.4909227329
 30
0.0
  0
SPLINE
  5
536
100
AcDbEntity
  8
0
100
AcDbSpline
 62
7
  6
CONTINUOUS
 70
0
 71
3
 72
9
 73
5
 74
0
 42
0.0000001
 43
0.0000001
 44
0.0000000001
 40
0.0
 40
0.0
 40
0.0
 40
0.0
 40
0.2471530034
 40
1.0
 40
1.0
 40
1.0
 40
1.0
 10
687.2799679344
 20
207.5562094916
 30
0.0
 10
687.301964772
 20
207.6460771044
 30
0.0
 10
687.3963006784
 20
208.0083724256
 30
0.0
 10
687.5112490312
 20
208.3652137615
 30
0.0
 10
687.6075738369
 20
208.6300658985
 30
0.0
  0
SPLINE
  5
537
100
AcDbEntity
  8
RUNDUNGEN
100
AcDbSpline
 62
7
  6
CONTINUOUS
 70
0
 71
3
 72
9
 73
5
 74
0
 42
0.0000001
 43
0.0000001
 44
0.0000000001
 40
0.0
 40
0.0
 40
0.0
 40
0.0
 40
0.4986194922
 40
1.0
 40
1.0
 40
1.0
 40
1.0
 10
715.4500514559
 20
82.3580588366
 30
0.0
 10
715.4500514559
 20
81.9128812125
 30
0.0
 10
715.3293415931
 20
81.0160324035
 30
0.0
 10
714.9772937042
 20
80.1832083849
 30
0.0
 10
714.7524026261
 20
79.7961579965
 30
0.0
  0
SPLINE
  5
538
100
AcDbEntity
  8
RUNDUNGEN
100
AcDbSpline
 62
7
  6
CONTINUOUS
 70
0
 71
3
 72
9
 73
5
 74
0
 42
0.0000001
 43
0.0000001
 44
0.0000000001
 40
0.0
 40
0.0
 40
0.0
 40
0.0
 40
0.5028158989
 40
1.0
 40
1.0
 40
1.0
 40
1.0
 10
714.0423552749
 20
135.0644247405
 30
0.0
 10
714.4921255783
 20
134.3897692854
 30
0.0
 10
715.2035041481
 20
132.9143807486
 30
0.0
 10
715.4500514559
 20
131.2926759081
 30
0.0
 10
715.4500514559
 20
130.4909227329
 30
0.0
  0
SPLINE
  5
539
100
AcDbEntity
  8
0
100
AcDbSpline
 62
7
  6
CONTINUOUS
 70
0
 71
3
 72
17
 73
13
 74
0
 42
0.0000001
 43
0.0000001
 44
0.0000000001
 40
0.0
 40
0.0
 40
0.0
 40
0.0
 40
0.0585691242
 40
0.1183122655
 40
0.2413972924
 40
0.3692807052
 40
0.5
 40
0.6307192948
 40
0.7586027076
 40
0.8816877345
 40
0.9414308758
 40
1.0
 40
1.0
 40
1.0
 40
1.0
 10
676.1202929159
 20
102.7158976505
 30
0.0
 10
676.4395139965
 20
101.9725770063
 30
0.0
 10
677.2138423101
 20
100.5231688678
 30
0.0
 10
679.2472326671
 20
97.8659250382
 30
0.0
 10
682.6341273257
 20
95.1162825964
 30
0.0
 10
687.5564626318
 20
93.0554552008
 30
0.0
 10
692.9500514559
 20
92.3482877196
 30
0.0
 10
698.3436402801
 20
93.0554552008
 30
0.0
 10
703.2659755862
 20
95.1162825964
 30
0.0
 10
706.6528702448
 20
97.8659250382
 30
0.0
 10
708.6862606018
 20
100.5231688678
 30
0.0
 10
709.4605889154
 20
101.9725770063
 30
0.0
 10
709.779809996
 20
102.7158976505
 30
0.0
  0
SPLINE
  5
53A
100
AcDbEntity
  8
0
100
AcDbSpline
 62
7
  6
CONTINUOUS
 70
0
 71
3
 72
9
 73
5
 74
0
 42
0.0000001
 43
0.0000001
 44
0.0000000001
 40
0.0
 40
0.0
 40
0.0
 40
0.0
 40
0.5046288536
 40
1.0
 40
1.0
 40
1.0
 40
1.0
 10
707.1022550619
 20
100.4228358039
 30
0.0
 10
708.0493330503
 20
101.1090435148
 30
0.0
 10
709.8218990361
 20
102.6196785926
 30
0.0
 10
711.322621706
 20
104.4020903339
 30
0.0
 10
711.983779806
 20
105.3406959598
 30
0.0
  0
SPLINE
  5
53B
100
AcDbEntity
  8
0
100
AcDbSpline
 62
7
  6
CONTINUOUS
 70
0
 71
3
 72
9
 73
5
 74
0
 42
0.0000001
 43
0.0000001
 44
0.0000000001
 40
0.0
 40
0.0
 40
0.0
 40
0.0
 40
0.4953708979
 40
1.0
 40
1.0
 40
1.0
 40
1.0
 10
673.9163231059
 20
105.3406959598
 30
0.0
 10
674.5775182991
 20
104.4020376748
 30
0.0
 10
676.0783353992
 20
102.6195312337
 30
0.0
 10
677.8510233619
 20
101.1088342044
 30
0.0
 10
678.7981676081
 20
100.4226041267
 30
0.0
  0
SPLINE
  5
53C
100
AcDbEntity
  8
0
100
AcDbSpline
 62
7
  6
CONTINUOUS
 70
0
 71
3
 72
9
 73
5
 74
0
 42
0.0000001
 43
0.0000001
 44
0.0000000001
 40
0.0
 40
0.0
 40
0.0
 40
0.0
 40
0.2471530034
 40
1.0
 40
1.0
 40
1.0
 40
1.0
 10
698.6201349774
 20
207.5562094916
 30
0.0
 10
698.5981381399
 20
207.6460771044
 30
0.0
 10
698.5038022335
 20
208.0083724256
 30
0.0
 10
698.3888538806
 20
208.3652137615
 30
0.0
 10
698.2925290749
 20
208.6300658985
 30
0.0
  0
SPLINE
  5
53D
100
AcDbEntity
  8
0
100
AcDbSpline
 62
7
  6
CONTINUOUS
 70
0
 71
3
 72
9
 73
5
 74
0
 42
0.0000001
 43
0.0000001
 44
0.0000000001
 40
0.0
 40
0.0
 40
0.0
 40
0.0
 40
0.2416832593
 40
1.0
 40
1.0
 40
1.0
 40
1.0
 10
673.9163231059
 20
105.3406959598
 30
0.0
 10
673.6906648471
 20
105.6610491571
 30
0.0
 10
672.7832341401
 20
107.0051065661
 30
0.0
 10
671.965839195
 20
108.4079408844
 30
0.0
 10
671.3743905626
 20
109.4858279176
 30
0.0
  0
SPLINE
  5
53E
100
AcDbEntity
  8
0
100
AcDbSpline
 62
7
  6
CONTINUOUS
 70
0
 71
3
 72
10
 73
6
 74
0
 42
0.0000001
 43
0.0000001
 44
0.0000000001
 40
0.0
 40
0.0
 40
0.0
 40
0.0
 40
0.49868292
 40
0.7574988817
 40
1.0
 40
1.0
 40
1.0
 40
1.0
 10
671.7897974181
 20
106.8043989995
 30
0.0
 10
671.4473203199
 20
105.8561947773
 30
0.0
 10
670.9666966184
 20
104.3981780795
 30
0.0
 10
670.5461160082
 20
102.418676363
 30
0.0
 10
670.4500514559
 20
101.405116858
 30
0.0
 10
670.4500514559
 20
100.9148667547
 30
0.0
  0
SPLINE
  5
53F
100
AcDbEntity
  8
0
100
AcDbSpline
 62
7
  6
CONTINUOUS
 70
0
 71
3
 72
10
 73
6
 74
0
 42
0.0000001
 43
0.0000001
 44
0.0000000001
 40
0.0
 40
0.0
 40
0.0
 40
0.0
 40
0.5554239174
 40
0.7973679146
 40
1.0
 40
1.0
 40
1.0
 40
1.0
 10
671.3743905626
 20
109.4858279176
 30
0.0
 10
671.1049049521
 20
109.9769526396
 30
0.0
 10
670.7597372487
 20
110.7106787381
 30
0.0
 10
670.4988625059
 20
111.6874469688
 30
0.0
 10
670.4500514559
 20
112.1360573693
 30
0.0
 10
670.4500514559
 20
112.3404325192
 30
0.0
  0
LINE
  5
540
100
AcDbEntity
  8
BEZUGSACHSEN
100
AcDbLine
 62
7
  6
CONTINUOUS
 10
701.9568988413
 20
194.9928420204
 11
702.0711395979
 21
194.5912602815
  0
LINE
  5
541
100
AcDbEntity
  8
BEZUGSACHSEN
100
AcDbLine
 62
7
  6
CONTINUOUS
 10
702.0711395979
 20
194.5912602815
 11
702.1065969335
 21
194.4664832084
  0
LINE
  5
542
100
AcDbEntity
  8
BEZUGSACHSEN
100
AcDbLine
 62
7
  6
CONTINUOUS
 10
702.1065969335
 20
194.4664832084
 11
702.1849743169
 21
194.19043036
  0
LINE
  5
543
100
AcDbEntity
  8
BEZUGSACHSEN
100
AcDbLine
 62
7
  6
CONTINUOUS
 10
702.1849743169
 20
194.19043036
 11
702.2866913914
 21
193.8316724313
  0
LINE
  5
544
100
AcDbEntity
  8
BEZUGSACHSEN
100
AcDbLine
 62
7
  6
CONTINUOUS
 10
701.8733238688
 20
195.4571893802
 11
701.7121403464
 21
196.1836056537
  0
LINE
  5
545
100
AcDbEntity
  8
BEZUGSACHSEN
100
AcDbLine
 62
7
  6
CONTINUOUS
 10
701.7121403464
 20
196.1836056537
 11
701.5932920314
 21
196.6778481894
  0
LINE
  5
546
100
AcDbEntity
  8
BEZUGSACHSEN
100
AcDbLine
 62
7
  6
CONTINUOUS
 10
701.4374110246
 20
197.2828977727
 11
701.5932920314
 21
196.6778481894
  0
LINE
  5
547
100
AcDbEntity
  8
BEZUGSACHSEN
100
AcDbLine
 62
7
  6
CONTINUOUS
 10
701.3223581221
 20
197.6962289763
 11
701.3512319261
 21
197.5925508886
  0
LINE
  5
548
100
AcDbEntity
  8
BEZUGSACHSEN
100
AcDbLine
 62
7
  6
CONTINUOUS
 10
701.3512319261
 20
197.5925508886
 11
701.4374110246
 21
197.2828977727
  0
SPLINE
  5
549
100
AcDbEntity
  8
BEZUGSACHSEN
100
AcDbSpline
 62
7
  6
CONTINUOUS
 70
0
 71
3
 72
8
 73
4
 74
0
 42
0.0000001
 43
0.0000001
 44
0.0000000001
 40
0.0
 40
0.0
 40
0.0
 40
0.0
 40
1.0
 40
1.0
 40
1.0
 40
1.0
 10
701.1713309456
 20
198.1799110219
 30
0.0
 10
701.217938629
 20
198.0311714752
 30
0.0
 10
701.2644103159
 20
197.882389239
 30
0.0
 10
701.3107395305
 20
197.7335627199
 30
0.0
  0
LINE
  5
54A
100
AcDbEntity
  8
BEZUGSACHSEN
100
AcDbLine
 62
7
  6
CONTINUOUS
 10
701.3107395305
 20
197.7335627199
 11
701.3223581221
 21
197.6962289763
  0
LINE
  5
54B
100
AcDbEntity
  8
BEZUGSACHSEN
100
AcDbLine
 62
7
  6
CONTINUOUS
 10
702.8521797324
 20
190.5833276839
 11
702.7920314784
 21
190.8165966477
  0
LINE
  5
54C
100
AcDbEntity
  8
BEZUGSACHSEN
100
AcDbLine
 62
7
  6
CONTINUOUS
 10
702.7920314784
 20
190.8165966477
 11
702.0330374334
 21
193.7598361953
  0
LINE
  5
54D
100
AcDbEntity
  8
BEZUGSACHSEN
100
AcDbLine
 62
7
  6
CONTINUOUS
 10
701.7989680401
 20
194.6674099347
 11
701.2137480947
 21
196.9363447068
  0
LINE
  5
54E
100
AcDbEntity
  8
BEZUGSACHSEN
100
AcDbLine
 62
7
  6
CONTINUOUS
 10
701.0316517095
 20
200.0882644979
 11
701.1356692656
 21
199.6670149462
  0
LINE
  5
54F
100
AcDbEntity
  8
BEZUGSACHSEN
100
AcDbLine
 62
7
  6
CONTINUOUS
 10
701.1356692656
 20
199.6670149462
 11
701.4837950686
 21
198.2570547096
  0
LINE
  5
550
100
AcDbEntity
  8
BEZUGSACHSEN
100
AcDbLine
 62
7
  6
CONTINUOUS
 10
701.4837950686
 20
198.2570547096
 11
701.6050232647
 21
197.7660156647
  0
LINE
  5
551
100
AcDbEntity
  8
BEZUGSACHSEN
100
AcDbLine
 62
7
  6
CONTINUOUS
 10
701.6050232647
 20
197.7660156647
 11
701.7078116158
 21
197.3496476216
  0
LINE
  5
552
100
AcDbEntity
  8
BEZUGSACHSEN
100
AcDbLine
 62
7
  6
CONTINUOUS
 10
701.7078116158
 20
197.3496476216
 11
701.8575456196
 21
196.7430806187
  0
LINE
  5
553
100
AcDbEntity
  8
BEZUGSACHSEN
100
AcDbLine
 62
7
  6
CONTINUOUS
 10
701.8575456196
 20
196.7430806187
 11
701.9793650965
 21
196.2495626097
  0
LINE
  5
554
100
AcDbEntity
  8
BEZUGSACHSEN
100
AcDbLine
 62
7
  6
CONTINUOUS
 10
701.9793650965
 20
196.2495626097
 11
702.1576195604
 21
195.527359828
  0
LINE
  5
555
100
AcDbEntity
  8
BEZUGSACHSEN
100
AcDbLine
 62
7
  6
CONTINUOUS
 10
702.1576195604
 20
195.527359828
 11
702.2131861104
 21
195.3022168218
  0
LINE
  5
556
100
AcDbEntity
  8
BEZUGSACHSEN
100
AcDbLine
 62
7
  6
CONTINUOUS
 10
702.3827613633
 20
194.1312033569
 11
702.5020051818
 21
193.6948596322
  0
LINE
  5
557
100
AcDbEntity
  8
BEZUGSACHSEN
100
AcDbLine
 62
7
  6
CONTINUOUS
 10
702.2254555057
 20
194.7440068222
 11
702.3827613633
 21
194.1312033569
  0
LINE
  5
558
100
AcDbEntity
  8
BEZUGSACHSEN
100
AcDbLine
 62
7
  6
CONTINUOUS
 10
702.2254555057
 20
194.7440068222
 11
702.1520334613
 21
195.0410722034
  0
LINE
  5
559
100
AcDbEntity
  8
BEZUGSACHSEN
100
AcDbLine
 62
7
  6
CONTINUOUS
 10
702.1520334613
 20
195.0410722034
 11
702.0390602133
 21
195.498153374
  0
LINE
  5
55A
100
AcDbEntity
  8
BEZUGSACHSEN
100
AcDbLine
 62
7
  6
CONTINUOUS
 10
702.0390602133
 20
195.498153374
 11
701.9267971155
 21
195.9523517159
  0
LINE
  5
55B
100
AcDbEntity
  8
BEZUGSACHSEN
100
AcDbLine
 62
7
  6
CONTINUOUS
 10
701.9267971155
 20
195.9523517159
 11
701.8605694528
 21
196.220293778
  0
LINE
  5
55C
100
AcDbEntity
  8
BEZUGSACHSEN
100
AcDbLine
 62
7
  6
CONTINUOUS
 10
701.8605694528
 20
196.220293778
 11
701.7385956758
 21
196.713763773
  0
LINE
  5
55D
100
AcDbEntity
  8
BEZUGSACHSEN
100
AcDbLine
 62
7
  6
CONTINUOUS
 10
701.7385956758
 20
196.713763773
 11
701.6256486599
 21
197.1707050387
  0
LINE
  5
55E
100
AcDbEntity
  8
BEZUGSACHSEN
100
AcDbLine
 62
7
  6
CONTINUOUS
 10
701.6256486599
 20
197.1707050387
 11
701.5886741358
 21
197.3202882541
  0
LINE
  5
55F
100
AcDbEntity
  8
BEZUGSACHSEN
100
AcDbLine
 62
7
  6
CONTINUOUS
 10
701.5886741358
 20
197.3202882541
 11
701.4857624347
 21
197.7366206176
  0
LINE
  5
560
100
AcDbEntity
  8
BEZUGSACHSEN
100
AcDbLine
 62
7
  6
CONTINUOUS
 10
701.4857624347
 20
197.7366206176
 11
701.364388806
 21
198.2276326818
  0
LINE
  5
561
100
AcDbEntity
  8
BEZUGSACHSEN
100
AcDbLine
 62
7
  6
CONTINUOUS
 10
701.364388806
 20
198.2276326818
 11
701.3220112892
 21
198.399067069
  0
LINE
  5
562
100
AcDbEntity
  8
BEZUGSACHSEN
100
AcDbLine
 62
7
  6
CONTINUOUS
 10
701.3220112892
 20
198.399067069
 11
701.2899261046
 21
198.5288640452
  0
LINE
  5
563
100
AcDbEntity
  8
BEZUGSACHSEN
100
AcDbLine
 62
7
  6
CONTINUOUS
 10
701.2899261046
 20
198.5288640452
 11
701.0414036873
 21
199.5342130597
  0
LINE
  5
564
100
AcDbEntity
  8
BEZUGSACHSEN
100
AcDbLine
 62
7
  6
CONTINUOUS
 10
701.0414036873
 20
199.5342130597
 11
701.0158859724
 21
199.637438041
  0
LINE
  5
565
100
AcDbEntity
  8
BEZUGSACHSEN
100
AcDbLine
 62
7
  6
CONTINUOUS
 10
702.857110194
 20
192.4788629883
 11
702.846851159
 21
192.5416033219
  0
LINE
  5
566
100
AcDbEntity
  8
BEZUGSACHSEN
100
AcDbLine
 62
7
  6
CONTINUOUS
 10
702.4100593088
 20
194.4943467935
 11
702.3422850011
 21
194.7724767924
  0
LINE
  5
567
100
AcDbEntity
  8
BEZUGSACHSEN
100
AcDbLine
 62
7
  6
CONTINUOUS
 10
702.3422850011
 20
194.7724767924
 11
702.3118291913
 21
194.8974541849
  0
LINE
  5
568
100
AcDbEntity
  8
BEZUGSACHSEN
100
AcDbLine
 62
7
  6
CONTINUOUS
 10
702.3118291913
 20
194.8974541849
 11
702.2131861104
 21
195.3022168218
  0
LINE
  5
569
100
AcDbEntity
  8
BEZUGSACHSEN
100
AcDbLine
 62
7
  6
CONTINUOUS
 10
702.7322721211
 20
193.1198838392
 11
702.6921684749
 21
193.2948047061
  0
LINE
  5
56A
100
AcDbEntity
  8
BEZUGSACHSEN
100
AcDbLine
 62
7
  6
CONTINUOUS
 10
702.6921684749
 20
193.2948047061
 11
702.6517254524
 21
193.4707514374
  0
LINE
  5
56B
100
AcDbEntity
  8
BEZUGSACHSEN
100
AcDbLine
 62
7
  6
CONTINUOUS
 10
702.6517254524
 20
193.4707514374
 11
702.6109428067
 21
193.6477239906
  0
LINE
  5
56C
100
AcDbEntity
  8
BEZUGSACHSEN
100
AcDbLine
 62
7
  6
CONTINUOUS
 10
702.6109428067
 20
193.6477239906
 11
702.5950969091
 21
193.7163656282
  0
LINE
  5
56D
100
AcDbEntity
  8
BEZUGSACHSEN
100
AcDbLine
 62
7
  6
CONTINUOUS
 10
702.5950969091
 20
193.7163656282
 11
702.5698202979
 21
193.8257223242
  0
LINE
  5
56E
100
AcDbEntity
  8
BEZUGSACHSEN
100
AcDbLine
 62
7
  6
CONTINUOUS
 10
702.5698202979
 20
193.8257223242
 11
702.5301184676
 21
193.9920103205
  0
LINE
  5
56F
100
AcDbEntity
  8
BEZUGSACHSEN
100
AcDbLine
 62
7
  6
CONTINUOUS
 10
702.5301184676
 20
193.9920103205
 11
702.4502378933
 21
194.3263225371
  0
LINE
  5
570
100
AcDbEntity
  8
BEZUGSACHSEN
100
AcDbLine
 62
7
  6
CONTINUOUS
 10
702.4502378933
 20
194.3263225371
 11
702.4100593088
 21
194.4943467935
  0
SPLINE
  5
571
100
AcDbEntity
  8
KONSTRUKTIONSELEMENTE
100
AcDbSpline
 62
7
  6
CONTINUOUS
 70
0
 71
3
 72
11
 73
7
 74
0
 42
0.0000001
 43
0.0000001
 44
0.0000000001
 40
0.0
 40
0.0
 40
0.0
 40
0.0
 40
0.2875165296
 40
0.5543982025
 40
0.7921256016
 40
1.0
 40
1.0
 40
1.0
 40
1.0
 10
715.4500514559
 20
87.8756851539
 30
0.0
 10
715.4500514559
 20
87.5961376155
 30
0.0
 10
715.4164961429
 20
87.0560081419
 30
0.0
 10
715.2429201087
 20
86.301151087
 30
0.0
 10
714.9503930451
 20
85.6668903429
 30
0.0
 10
714.6740727074
 20
85.3256132233
 30
0.0
 10
714.5257123493
 20
85.1883587304
 30
0.0
  0
SPLINE
  5
572
100
AcDbEntity
  8
0
100
AcDbSpline
 62
7
  6
CONTINUOUS
 70
0
 71
3
 72
9
 73
5
 74
0
 42
0.0000001
 43
0.0000001
 44
0.0000000001
 40
0.0
 40
0.0
 40
0.0
 40
0.0
 40
0.492993526
 40
1.0
 40
1.0
 40
1.0
 40
1.0
 10
686.89155207
 20
93.4990798705
 30
0.0
 10
687.7493343164
 20
92.8840245503
 30
0.0
 10
689.7110223445
 20
91.927311349
 30
0.0
 10
691.8645481611
 20
91.6088719253
 30
0.0
 10
692.9500514559
 20
91.6088719253
 30
0.0
  0
SPLINE
  5
573
100
AcDbEntity
  8
0
100
AcDbSpline
 62
7
  6
CONTINUOUS
 70
0
 71
3
 72
11
 73
7
 74
0
 42
0.0000001
 43
0.0000001
 44
0.0000000001
 40
0.0
 40
0.0
 40
0.0
 40
0.0
 40
0.2875165296
 40
0.5543982025
 40
0.7921256016
 40
1.0
 40
1.0
 40
1.0
 40
1.0
 10
670.4500514559
 20
87.8756851539
 30
0.0
 10
670.4500514559
 20
87.5961376155
 30
0.0
 10
670.483606769
 20
87.0560081419
 30
0.0
 10
670.6571828032
 20
86.301151087
 30
0.0
 10
670.9497098668
 20
85.6668903429
 30
0.0
 10
671.2260302044
 20
85.3256132233
 30
0.0
 10
671.3743905626
 20
85.1883587304
 30
0.0
  0
SPLINE
  5
574
100
AcDbEntity
  8
0
100
AcDbSpline
 62
7
  6
CONTINUOUS
 70
0
 71
3
 72
9
 73
5
 74
0
 42
0.0000001
 43
0.0000001
 44
0.0000000001
 40
0.0
 40
0.0
 40
0.0
 40
0.0
 40
0.5001041094
 40
1.0
 40
1.0
 40
1.0
 40
1.0
 10
698.2925290749
 20
196.4716452191
 30
0.0
 10
698.561624092
 20
193.3897155976
 30
0.0
 10
698.9256164718
 20
187.2100303085
 30
0.0
 10
698.8826838856
 20
181.0189945155
 30
0.0
 10
698.7611740601
 20
177.9290155837
 30
0.0
  0
SPLINE
  5
575
100
AcDbEntity
  8
0
100
AcDbSpline
 62
7
  6
CONTINUOUS
 70
0
 71
3
 72
9
 73
5
 74
0
 42
0.0000001
 43
0.0000001
 44
0.0000000001
 40
0.0
 40
0.0
 40
0.0
 40
0.0
 40
0.5000000002
 40
1.0
 40
1.0
 40
1.0
 40
1.0
 10
698.2925290749
 20
208.6300658985
 30
0.0
 10
698.6645870205
 20
206.6287745721
 30
0.0
 10
699.0790019359
 20
202.5508555579
 30
0.0
 10
698.6645870202
 20
198.4729365439
 30
0.0
 10
698.2925290749
 20
196.4716452191
 30
0.0
  0
SPLINE
  5
576
100
AcDbEntity
  8
KONSTRUKTIONSELEMENTE
100
AcDbSpline
 62
7
  6
CONTINUOUS
 70
0
 71
3
 72
9
 73
5
 74
0
 42
0.0000001
 43
0.0000001
 44
0.0000000001
 40
0.0
 40
0.0
 40
0.0
 40
0.0
 40
0.2218049703
 40
1.0
 40
1.0
 40
1.0
 40
1.0
 10
714.5257123493
 20
85.1883587304
 30
0.0
 10
714.3187434145
 20
84.9968829444
 30
0.0
 10
713.4045027879
 20
84.1132727473
 30
0.0
 10
712.5788539613
 20
83.1395217674
 30
0.0
 10
711.983779806
 20
82.3492892185
 30
0.0
  0
SPLINE
  5
577
100
AcDbEntity
  8
0
100
AcDbSpline
 62
7
  6
CONTINUOUS
 70
0
 71
3
 72
9
 73
5
 74
0
 42
0.0000001
 43
0.0000001
 44
0.0000000001
 40
0.0
 40
0.0
 40
0.0
 40
0.0
 40
0.5000000002
 40
1.0
 40
1.0
 40
1.0
 40
1.0
 10
687.6075738369
 20
208.6300658985
 30
0.0
 10
687.2355158914
 20
206.6287745721
 30
0.0
 10
686.821100976
 20
202.5508555579
 30
0.0
 10
687.2355158917
 20
198.4729365439
 30
0.0
 10
687.6075738369
 20
196.4716452191
 30
0.0
  0
SPLINE
  5
578
100
AcDbEntity
  8
0
100
AcDbSpline
 62
7
  6
CONTINUOUS
 70
0
 71
3
 72
9
 73
5
 74
0
 42
0.0000001
 43
0.0000001
 44
0.0000000001
 40
0.0
 40
0.0
 40
0.0
 40
0.0
 40
0.5001041094
 40
1.0
 40
1.0
 40
1.0
 40
1.0
 10
687.6075738369
 20
196.4716452191
 30
0.0
 10
687.3384788199
 20
193.3897155976
 30
0.0
 10
686.9744864401
 20
187.2100303085
 30
0.0
 10
687.0174190263
 20
181.0189945155
 30
0.0
 10
687.1389288518
 20
177.9290155837
 30
0.0
  0
SPLINE
  5
579
100
AcDbEntity
  8
0
100
AcDbSpline
 62
7
  6
CONTINUOUS
 70
0
 71
3
 72
11
 73
7
 74
0
 42
0.0000001
 43
0.0000001
 44
0.0000000001
 40
0.0
 40
0.0
 40
0.0
 40
0.0
 40
0.2472941613
 40
0.5000002815
 40
0.7527062463
 40
1.0
 40
1.0
 40
1.0
 40
1.0
 10
678.7981676081
 20
100.4226041267
 30
0.0
 10
680.8045776108
 20
98.9689090875
 30
0.0
 10
685.3827162604
 20
96.6973860568
 30
0.0
 10
692.9502587888
 20
95.5510167317
 30
0.0
 10
700.5177787717
 20
96.6975087878
 30
0.0
 10
705.095874173
 20
98.9691075432
 30
0.0
 10
707.1022550619
 20
100.4228358039
 30
0.0
  0
SPLINE
  5
57A
100
AcDbEntity
  8
0
100
AcDbSpline
 62
7
  6
CONTINUOUS
 70
0
 71
3
 72
21
 73
17
 74
0
 42
0.0000001
 43
0.0000001
 44
0.0000000001
 40
0.0
 40
0.0
 40
0.0
 40
0.0
 40
0.0580894532
 40
0.116890925
 40
0.1769961556
 40
0.2387585136
 40
0.3022670717
 40
0.367347063
 40
0.5
 40
0.632652937
 40
0.6977329283
 40
0.7612414864
 40
0.8230038444
 40
0.883109075
 40
0.9419105468
 40
1.0
 40
1.0
 40
1.0
 40
1.0
 10
710.9058020713
 20
99.3358634296
 30
0.0
 10
710.9058020713
 20
98.3180881999
 30
0.0
 10
710.670885941
 20
96.2626684128
 30
0.0
 10
709.631310918
 20
93.315317053
 30
0.0
 10
707.9489182418
 20
90.6056852763
 30
0.0
 10
705.6932284919
 20
88.2390626322
 30
0.0
 10
702.953035622
 20
86.3023334602
 30
0.0
 10
698.7763355794
 20
84.3781061738
 30
0.0
 10
692.9500514559
 20
83.388318463
 30
0.0
 10
687.1237673325
 20
84.3781061738
 30
0.0
 10
682.9470672899
 20
86.3023334602
 30
0.0
 10
680.2068744199
 20
88.2390626322
 30
0.0
 10
677.9511846701
 20
90.6056852763
 30
0.0
 10
676.2687919939
 20
93.315317053
 30
0.0
 10
675.2292169709
 20
96.2626684128
 30
0.0
 10
674.9943008406
 20
98.3180881999
 30
0.0
 10
674.9943008406
 20
99.3358634296
 30
0.0
  0
SPLINE
  5
57B
100
AcDbEntity
  8
0
100
AcDbSpline
 62
7
  6
CONTINUOUS
 70
0
 71
3
 72
9
 73
5
 74
0
 42
0.0000001
 43
0.0000001
 44
0.0000000001
 40
0.0
 40
0.0
 40
0.0
 40
0.0
 40
0.507006474
 40
1.0
 40
1.0
 40
1.0
 40
1.0
 10
692.9500514559
 20
91.6088719253
 30
0.0
 10
694.0355547508
 20
91.6088719253
 30
0.0
 10
696.1890805674
 20
91.927311349
 30
0.0
 10
698.1507685954
 20
92.8840245503
 30
0.0
 10
699.0085508418
 20
93.4990798705
 30
0.0
  0
SPLINE
  5
57C
100
AcDbEntity
  8
0
100
AcDbSpline
 62
7
  6
CONTINUOUS
 70
0
 71
3
 72
15
 73
11
 74
0
 42
0.0000001
 43
0.0000001
 44
0.0000000001
 40
0.0
 40
0.0
 40
0.0
 40
0.0
 40
0.1182637916
 40
0.2418061731
 40
0.3696902963
 40
0.5
 40
0.6303097037
 40
0.7581938269
 40
0.8817362084
 40
1.0
 40
1.0
 40
1.0
 40
1.0
 10
711.983779806
 20
82.3492892185
 30
0.0
 10
710.9563438893
 20
80.98489909
 30
0.0
 10
708.4619354385
 20
78.4756125571
 30
0.0
 10
703.8508257935
 20
75.6937997267
 30
0.0
 10
698.5714021723
 20
73.9569955656
 30
0.0
 10
692.9500514559
 20
73.3675158436
 30
0.0
 10
687.3287007396
 20
73.9569955656
 30
0.0
 10
682.0492771184
 20
75.6937997267
 30
0.0
 10
677.4381674733
 20
78.4756125571
 30
0.0
 10
674.9437590226
 20
80.98489909
 30
0.0
 10
673.9163231059
 20
82.3492892185
 30
0.0
  0
SPLINE
  5
57D
100
AcDbEntity
  8
RUNDUNGEN
100
AcDbSpline
 62
7
  6
CONTINUOUS
 70
0
 71
3
 72
9
 73
5
 74
0
 42
0.0000001
 43
0.0000001
 44
0.0000000001
 40
0.0
 40
0.0
 40
0.0
 40
0.0
 40
0.256123281
 40
1.0
 40
1.0
 40
1.0
 40
1.0
 10
699.9205019201
 20
138.079380001
 30
0.0
 10
700.0245919989
 20
137.943585365
 30
0.0
 10
700.4410433614
 20
137.4211888928
 30
0.0
 10
700.8929690843
 20
136.9269165846
 30
0.0
 10
701.2481633831
 20
136.579380001
 30
0.0
  0
SPLINE
  5
57E
100
AcDbEntity
  8
0
100
AcDbSpline
 62
7
  6
CONTINUOUS
 70
0
 71
3
 72
9
 73
5
 74
0
 42
0.0000001
 43
0.0000001
 44
0.0000000001
 40
0.0
 40
0.0
 40
0.0
 40
0.0
 40
0.256123281
 40
1.0
 40
1.0
 40
1.0
 40
1.0
 10
685.9796009918
 20
138.079380001
 30
0.0
 10
685.875510913
 20
137.943585365
 30
0.0
 10
685.4590595505
 20
137.4211888928
 30
0.0
 10
685.0071338276
 20
136.9269165846
 30
0.0
 10
684.6519395288
 20
136.579380001
 30
0.0
  0
LINE
  5
57F
100
AcDbEntity
  8
BEZUGSACHSEN
100
AcDbLine
 62
7
  6
CONTINUOUS
 10
702.0400782127
 20
194.4475831549
 11
702.2211588124
 21
193.813553881
  0
LINE
  5
580
100
AcDbEntity
  8
BEZUGSACHSEN
100
AcDbLine
 62
7
  6
CONTINUOUS
 10
702.2211588124
 20
193.813553881
 11
702.249110436
 21
193.7155576989
  0
SPLINE
  5
581
100
AcDbEntity
  8
BEZUGSACHSEN
100
AcDbSpline
 62
7
  6
CONTINUOUS
 70
0
 71
3
 72
8
 73
4
 74
0
 42
0.0000001
 43
0.0000001
 44
0.0000000001
 40
0.0
 40
0.0
 40
0.0
 40
0.0
 40
1.0
 40
1.0
 40
1.0
 40
1.0
 10
702.249110436
 20
193.7155576989
 30
0.0
 10
702.4254016739
 20
193.0973841735
 30
0.0
 10
702.6011433539
 20
192.4790535388
 30
0.0
 10
702.7762168982
 20
191.8605340467
 30
0.0
  0
LINE
  5
582
100
AcDbEntity
  8
BEZUGSACHSEN
100
AcDbLine
 62
7
  6
CONTINUOUS
 10
702.7762168982
 20
191.8605340467
 11
702.8514112255
 21
191.5947202614
  0
SPLINE
  5
583
100
AcDbEntity
  8
0
100
AcDbSpline
 62
7
  6
CONTINUOUS
 70
0
 71
3
 72
13
 73
9
 74
0
 42
0.0000001
 43
0.0000001
 44
0.0000000001
 40
0.0
 40
0.0
 40
0.0
 40
0.0
 40
0.2655958126
 40
0.5219612148
 40
0.6456213668
 40
0.7659615979
 40
0.8836976443
 40
1.0
 40
1.0
 40
1.0
 40
1.0
 10
692.9500514559
 20
130.7803418953
 30
0.0
 10
694.1150111901
 20
130.7803418953
 30
0.0
 10
696.4231812707
 20
130.3937665362
 30
0.0
 10
698.9447566384
 20
128.9606968648
 30
0.0
 10
700.4677926473
 20
127.3620503197
 30
0.0
 10
701.3113175262
 20
126.0037882609
 30
0.0
 10
701.8322750036
 20
124.5264895532
 30
0.0
 10
701.9500514559
 20
123.4962401345
 30
0.0
 10
701.9500514559
 20
122.9861132613
 30
0.0
  0
SPLINE
  5
584
100
AcDbEntity
  8
0
100
AcDbSpline
 62
7
  6
CONTINUOUS
 70
0
 71
3
 72
13
 73
9
 74
0
 42
0.0000001
 43
0.0000001
 44
0.0000000001
 40
0.0
 40
0.0
 40
0.0
 40
0.0
 40
0.1163023557
 40
0.2340384021
 40
0.3543786332
 40
0.4780387852
 40
0.7344041874
 40
1.0
 40
1.0
 40
1.0
 40
1.0
 10
683.9500514559
 20
122.9861132613
 30
0.0
 10
683.9500514559
 20
123.4962401345
 30
0.0
 10
684.0678279082
 20
124.5264895532
 30
0.0
 10
684.5887853857
 20
126.0037882609
 30
0.0
 10
685.4323102646
 20
127.3620503197
 30
0.0
 10
686.9553462735
 20
128.9606968648
 30
0.0
 10
689.4769216412
 20
130.3937665362
 30
0.0
 10
691.7850917218
 20
130.7803418953
 30
0.0
 10
692.9500514559
 20
130.7803418953
 30
0.0
  0
SPLINE
  5
585
100
AcDbEntity
  8
0
100
AcDbSpline
 62
7
  6
CONTINUOUS
 70
0
 71
3
 72
11
 73
7
 74
0
 42
0.0000001
 43
0.0000001
 44
0.0000000001
 40
0.0
 40
0.0
 40
0.0
 40
0.0
 40
0.2637230516
 40
0.5203575064
 40
0.7656085373
 40
1.0
 40
1.0
 40
1.0
 40
1.0
 10
692.9500514559
 20
129.2803418953
 30
0.0
 10
693.9625356169
 20
129.2803418953
 30
0.0
 10
695.9732610527
 20
128.9865877984
 30
0.0
 10
698.6668330366
 20
127.6989293575
 30
0.0
 10
700.7356653056
 20
125.6951207881
 30
0.0
 10
701.5388367562
 20
123.9805525092
 30
0.0
 10
701.7533350598
 20
123.106616268
 30
0.0
  0
LINE
  5
586
100
AcDbEntity
  8
BEZUGSACHSEN
100
AcDbLine
 62
7
  6
CONTINUOUS
 10
702.8410368496
 20
190.3405934561
 11
702.7831147315
 21
190.5655426121
  0
LINE
  5
587
100
AcDbEntity
  8
BEZUGSACHSEN
100
AcDbLine
 62
7
  6
CONTINUOUS
 10
702.7831147315
 20
190.5655426121
 11
701.9649270379
 21
193.7422913403
  0
LINE
  5
588
100
AcDbEntity
  8
BEZUGSACHSEN
100
AcDbLine
 62
7
  6
CONTINUOUS
 10
701.9649270379
 20
193.7422913403
 11
701.9404664106
 21
193.8372429941
  0
LINE
  5
589
100
AcDbEntity
  8
BEZUGSACHSEN
100
AcDbLine
 62
7
  6
CONTINUOUS
 10
701.9404664106
 20
193.8372429941
 11
701.799216138
 21
194.3855295233
  0
LINE
  5
58A
100
AcDbEntity
  8
BEZUGSACHSEN
100
AcDbLine
 62
7
  6
CONTINUOUS
 10
701.799216138
 20
194.3855295233
 11
701.731099105
 21
194.6499246917
  0
LINE
  5
58B
100
AcDbEntity
  8
BEZUGSACHSEN
100
AcDbLine
 62
7
  6
CONTINUOUS
 10
701.731099105
 20
194.6499246917
 11
701.1464314353
 21
196.9189973635
  0
LINE
  5
58C
100
AcDbEntity
  8
BEZUGSACHSEN
100
AcDbLine
 62
7
  6
CONTINUOUS
 10
701.1464314353
 20
196.9189973635
 11
701.0096103721
 21
197.4499219284
  0
SPLINE
  5
58D
100
AcDbEntity
  8
KONSTRUKTIONSELEMENTE
100
AcDbSpline
 62
7
  6
CONTINUOUS
 70
0
 71
3
 72
8
 73
4
 74
0
 42
0.0000001
 43
0.0000001
 44
0.0000000001
 40
0.0
 40
0.0
 40
0.0
 40
0.0
 40
1.0
 40
1.0
 40
1.0
 40
1.0
 10
700.380322217
 20
197.4499219284
 30
0.0
 10
700.9909286753
 20
195.0802086341
 30
0.0
 10
701.601347583
 20
192.710446987
 30
0.0
 10
702.2114095355
 20
190.3405934561
 30
0.0
  0
SPLINE
  5
58E
100
AcDbEntity
  8
0
100
AcDbSpline
 62
7
  6
CONTINUOUS
 70
0
 71
3
 72
11
 73
7
 74
0
 42
0.0000001
 43
0.0000001
 44
0.0000000001
 40
0.0
 40
0.0
 40
0.0
 40
0.0
 40
0.2637230516
 40
0.5203575064
 40
0.7656085373
 40
1.0
 40
1.0
 40
1.0
 40
1.0
 10
692.9500514559
 20
129.2803418953
 30
0.0
 10
691.937567295
 20
129.2803418953
 30
0.0
 10
689.9268418592
 20
128.9865877984
 30
0.0
 10
687.2332698753
 20
127.6989293575
 30
0.0
 10
685.1644376063
 20
125.6951207881
 30
0.0
 10
684.3612661557
 20
123.9805525092
 30
0.0
 10
684.1467678521
 20
123.106616268
 30
0.0
  0
LINE
  5
58F
100
AcDbEntity
  8
BEZUGSACHSEN
100
AcDbLine
 62
7
  6
CONTINUOUS
 10
701.2555489817
 20
197.6751078804
 11
701.2936329396
 21
197.5640078254
  0
LINE
  5
590
100
AcDbEntity
  8
BEZUGSACHSEN
100
AcDbLine
 62
7
  6
CONTINUOUS
 10
701.2936329396
 20
197.5640078254
 11
701.3125579466
 21
197.508677912
  0
LINE
  5
591
100
AcDbEntity
  8
BEZUGSACHSEN
100
AcDbLine
 62
7
  6
CONTINUOUS
 10
701.3125579466
 20
197.508677912
 11
701.3314050421
 21
197.4534947485
  0
LINE
  5
592
100
AcDbEntity
  8
BEZUGSACHSEN
100
AcDbLine
 62
7
  6
CONTINUOUS
 10
701.3314050421
 20
197.4534947485
 11
701.4471906532
 21
197.0401635448
  0
LINE
  5
593
100
AcDbEntity
  8
BEZUGSACHSEN
100
AcDbLine
 62
7
  6
CONTINUOUS
 10
701.4471906532
 20
197.0401635448
 11
701.56422653
 21
196.5863762514
  0
LINE
  5
594
100
AcDbEntity
  8
BEZUGSACHSEN
100
AcDbLine
 62
7
  6
CONTINUOUS
 10
701.6825607214
 20
196.0921337157
 11
701.56422653
 21
196.5863762514
  0
LINE
  5
595
100
AcDbEntity
  8
BEZUGSACHSEN
100
AcDbLine
 62
7
  6
CONTINUOUS
 10
701.7628963954
 20
195.7086976881
 11
701.6825607214
 21
196.0921337157
  0
LINE
  5
596
100
AcDbEntity
  8
BEZUGSACHSEN
100
AcDbLine
 62
7
  6
CONTINUOUS
 10
701.0144054
 20
200.0840060407
 11
701.1185122305
 21
199.6628033274
  0
LINE
  5
597
100
AcDbEntity
  8
BEZUGSACHSEN
100
AcDbLine
 62
7
  6
CONTINUOUS
 10
701.1185122305
 20
199.6628033274
 11
701.4669595348
 21
198.2529747333
  0
LINE
  5
598
100
AcDbEntity
  8
BEZUGSACHSEN
100
AcDbLine
 62
7
  6
CONTINUOUS
 10
701.4669595348
 20
198.2529747333
 11
701.588311692
 21
197.7619586006
  0
LINE
  5
599
100
AcDbEntity
  8
BEZUGSACHSEN
100
AcDbLine
 62
7
  6
CONTINUOUS
 10
701.588311692
 20
197.7619586006
 11
701.691205751
 21
197.345618544
  0
LINE
  5
59A
100
AcDbEntity
  8
BEZUGSACHSEN
100
AcDbLine
 62
7
  6
CONTINUOUS
 10
701.691205751
 20
197.345618544
 11
701.8410991686
 21
196.7390892329
  0
LINE
  5
59B
100
AcDbEntity
  8
BEZUGSACHSEN
100
AcDbLine
 62
7
  6
CONTINUOUS
 10
701.8410991686
 20
196.7390892329
 11
701.9252122972
 21
196.3987249815
  0
LINE
  5
59C
100
AcDbEntity
  8
BEZUGSACHSEN
100
AcDbLine
 62
7
  6
CONTINUOUS
 10
701.9252122972
 20
196.3987249815
 11
701.9630506631
 21
196.245609749
  0
LINE
  5
59D
100
AcDbEntity
  8
BEZUGSACHSEN
100
AcDbLine
 62
7
  6
CONTINUOUS
 10
701.9630506631
 20
196.245609749
 11
702.1415059812
 21
195.5234616203
  0
LINE
  5
59E
100
AcDbEntity
  8
BEZUGSACHSEN
100
AcDbLine
 62
7
  6
CONTINUOUS
 10
702.1415059812
 20
195.5234616203
 11
702.197156731
 21
195.2982556914
  0
LINE
  5
59F
100
AcDbEntity
  8
BEZUGSACHSEN
100
AcDbLine
 62
7
  6
CONTINUOUS
 10
702.197156731
 20
195.2982556914
 11
702.2237655389
 21
195.1905748218
  0
LINE
  5
5A0
100
AcDbEntity
  8
KONSTRUKTIONSELEMENTE
100
AcDbLine
 62
7
  6
CONTINUOUS
 10
700.5014631839
 20
199.6374383805
 11
700.4951072727
 21
199.6631518636
  0
LINE
  5
5A1
100
AcDbEntity
  8
KONSTRUKTIONSELEMENTE
100
AcDbLine
 62
7
  6
CONTINUOUS
 10
700.4951072727
 20
199.6631518636
 11
700.391078795
 21
200.0840060407
  0
LINE
  5
5A2
100
AcDbEntity
  8
BEZUGSACHSEN
100
AcDbLine
 62
7
  6
CONTINUOUS
 10
702.3811831941
 20
194.5405573921
 11
702.3026483916
 21
194.8648829023
  0
LINE
  5
5A3
100
AcDbEntity
  8
BEZUGSACHSEN
100
AcDbLine
 62
7
  6
CONTINUOUS
 10
702.3026483916
 20
194.8648829023
 11
702.2632504562
 21
195.0275580572
  0
LINE
  5
5A4
100
AcDbEntity
  8
BEZUGSACHSEN
100
AcDbLine
 62
7
  6
CONTINUOUS
 10
702.2632504562
 20
195.0275580572
 11
702.2237655389
 21
195.1905748218
  0
LINE
  5
5A5
100
AcDbEntity
  8
BEZUGSACHSEN
100
AcDbLine
 62
7
  6
CONTINUOUS
 10
702.5006953191
 20
194.0297856319
 11
702.4710025028
 21
194.156845797
  0
LINE
  5
5A6
100
AcDbEntity
  8
BEZUGSACHSEN
100
AcDbLine
 62
7
  6
CONTINUOUS
 10
702.4710025028
 20
194.156845797
 11
702.4112464204
 21
194.412231673
  0
LINE
  5
5A7
100
AcDbEntity
  8
BEZUGSACHSEN
100
AcDbLine
 62
7
  6
CONTINUOUS
 10
702.4112464204
 20
194.412231673
 11
702.3811831941
 21
194.5405573921
  0
LINE
  5
5A8
100
AcDbEntity
  8
BEZUGSACHSEN
100
AcDbLine
 62
7
  6
CONTINUOUS
 10
702.5816108642
 20
193.6582593243
 11
702.5413795291
 21
193.8435573448
  0
LINE
  5
5A9
100
AcDbEntity
  8
BEZUGSACHSEN
100
AcDbLine
 62
7
  6
CONTINUOUS
 10
702.5413795291
 20
193.8435573448
 11
702.5210940376
 21
193.9365552056
  0
LINE
  5
5AA
100
AcDbEntity
  8
BEZUGSACHSEN
100
AcDbLine
 62
7
  6
CONTINUOUS
 10
702.5210940376
 20
193.9365552056
 11
702.5006953191
 21
194.0297856319
  0
LINE
  5
5AB
100
AcDbEntity
  8
BEZUGSACHSEN
100
AcDbLine
 62
7
  6
CONTINUOUS
 10
702.6228365111
 20
193.4259786903
 11
702.6024564025
 21
193.5421242366
  0
LINE
  5
5AC
100
AcDbEntity
  8
BEZUGSACHSEN
100
AcDbLine
 62
7
  6
CONTINUOUS
 10
702.6024564025
 20
193.5421242366
 11
702.5920915841
 21
193.60019308
  0
LINE
  5
5AD
100
AcDbEntity
  8
BEZUGSACHSEN
100
AcDbLine
 62
7
  6
CONTINUOUS
 10
702.5920915841
 20
193.60019308
 11
702.5816108642
 21
193.6582593243
  0
SPLINE
  5
5AE
100
AcDbEntity
  8
BEZUGSACHSEN
100
AcDbSpline
 62
7
  6
CONTINUOUS
 70
0
 71
3
 72
8
 73
4
 74
0
 42
0.0000001
 43
0.0000001
 44
0.0000000001
 40
0.0
 40
0.0
 40
0.0
 40
0.0
 40
1.0
 40
1.0
 40
1.0
 40
1.0
 10
702.831226693
 20
192.8575391827
 30
0.0
 10
702.839318587
 20
192.8428005786
 30
0.0
 10
702.8458442545
 20
192.8269899617
 30
0.0
 10
702.8498419867
 20
192.8106582951
 30
0.0
  0
SPLINE
  5
5AF
100
AcDbEntity
  8
0
100
AcDbSpline
 62
7
  6
CONTINUOUS
 70
0
 71
3
 72
9
 73
5
 74
0
 42
0.0000001
 43
0.0000001
 44
0.0000000001
 40
0.0
 40
0.0
 40
0.0
 40
0.0
 40
0.2218049703
 40
1.0
 40
1.0
 40
1.0
 40
1.0
 10
671.3743905626
 20
85.1883587304
 30
0.0
 10
671.5813594973
 20
84.9968829444
 30
0.0
 10
672.495600124
 20
84.1132727473
 30
0.0
 10
673.3212489505
 20
83.1395217674
 30
0.0
 10
673.9163231059
 20
82.3492892185
 30
0.0
  0
LINE
  5
5B0
100
AcDbEntity
  8
BEZUGSACHSEN
100
AcDbLine
 62
7
  6
CONTINUOUS
 10
702.2157180473
 20
194.632364769
 11
702.1902991125
 21
194.7353269633
  0
LINE
  5
5B1
100
AcDbEntity
  8
BEZUGSACHSEN
100
AcDbLine
 62
7
  6
CONTINUOUS
 10
702.1902991125
 20
194.7353269633
 11
702.1169666287
 21
195.0323615358
  0
LINE
  5
5B2
100
AcDbEntity
  8
BEZUGSACHSEN
100
AcDbLine
 62
7
  6
CONTINUOUS
 10
702.1169666287
 20
195.0323615358
 11
702.0041078634
 21
195.4894789457
  0
LINE
  5
5B3
100
AcDbEntity
  8
BEZUGSACHSEN
100
AcDbLine
 62
7
  6
CONTINUOUS
 10
702.0041078634
 20
195.4894789457
 11
701.8257934977
 21
196.2116690479
  0
LINE
  5
5B4
100
AcDbEntity
  8
BEZUGSACHSEN
100
AcDbLine
 62
7
  6
CONTINUOUS
 10
701.8257934977
 20
196.2116690479
 11
701.7039370317
 21
196.7051688098
  0
LINE
  5
5B5
100
AcDbEntity
  8
BEZUGSACHSEN
100
AcDbLine
 62
7
  6
CONTINUOUS
 10
701.7039370317
 20
196.7051688098
 11
701.6176726157
 21
197.054512001
  0
LINE
  5
5B6
100
AcDbEntity
  8
BEZUGSACHSEN
100
AcDbLine
 62
7
  6
CONTINUOUS
 10
701.6176726157
 20
197.054512001
 11
701.5541556807
 21
197.3117278645
  0
LINE
  5
5B7
100
AcDbEntity
  8
BEZUGSACHSEN
100
AcDbLine
 62
7
  6
CONTINUOUS
 10
701.5541556807
 20
197.3117278645
 11
701.4513382794
 21
197.7280806216
  0
LINE
  5
5B8
100
AcDbEntity
  8
BEZUGSACHSEN
100
AcDbLine
 62
7
  6
CONTINUOUS
 10
701.4513382794
 20
197.7280806216
 11
701.330074097
 21
198.2191126605
  0
LINE
  5
5B9
100
AcDbEntity
  8
BEZUGSACHSEN
100
AcDbLine
 62
7
  6
CONTINUOUS
 10
701.330074097
 20
198.2191126605
 11
701.314046403
 21
198.284011637
  0
LINE
  5
5BA
100
AcDbEntity
  8
BEZUGSACHSEN
100
AcDbLine
 62
7
  6
CONTINUOUS
 10
701.314046403
 20
198.284011637
 11
701.2556776256
 21
198.5203541432
  0
LINE
  5
5BB
100
AcDbEntity
  8
BEZUGSACHSEN
100
AcDbLine
 62
7
  6
CONTINUOUS
 10
701.2556776256
 20
198.5203541432
 11
701.007354096
 21
199.5257959879
  0
LINE
  5
5BC
100
AcDbEntity
  8
KONSTRUKTIONSELEMENTE
100
AcDbLine
 62
7
  6
CONTINUOUS
 10
700.3821554468
 20
199.5257959879
 11
700.6303422957
 21
198.5207838929
  0
LINE
  5
5BD
100
AcDbEntity
  8
KONSTRUKTIONSELEMENTE
100
AcDbLine
 62
7
  6
CONTINUOUS
 10
700.6303422957
 20
198.5207838929
 11
700.6424196517
 21
198.4718753624
  0
LINE
  5
5BE
100
AcDbEntity
  8
BEZUGSACHSEN
100
AcDbLine
 62
7
  6
CONTINUOUS
 10
702.2157180473
 20
194.632364769
 11
702.4125068488
 21
193.8617088116
  0
LINE
  5
5BF
100
AcDbEntity
  8
BEZUGSACHSEN
100
AcDbLine
 62
7
  6
CONTINUOUS
 10
702.4125068488
 20
193.8617088116
 11
702.572021912
 21
193.2675123246
  0
LINE
  5
5C0
100
AcDbEntity
  8
KONSTRUKTIONSELEMENTE
100
AcDbLine
 62
7
  6
CONTINUOUS
 10
700.3783902698
 20
200.3531915485
 11
700.4149280301
 21
200.2036552663
  0
LINE
  5
5C1
100
AcDbEntity
  8
BEZUGSACHSEN
100
AcDbLine
 62
7
  6
CONTINUOUS
 10
702.831226693
 20
192.8575391827
 11
702.7652165912
 21
193.1279273105
  0
LINE
  5
5C2
100
AcDbEntity
  8
BEZUGSACHSEN
100
AcDbLine
 62
7
  6
CONTINUOUS
 10
702.7652165912
 20
193.1279273105
 11
702.7056991023
 21
193.3717096289
  0
LINE
  5
5C3
100
AcDbEntity
  8
BEZUGSACHSEN
100
AcDbLine
 62
7
  6
CONTINUOUS
 10
702.7056991023
 20
193.3717096289
 11
702.6841906787
 21
193.4598051309
  0
LINE
  5
5C4
100
AcDbEntity
  8
BEZUGSACHSEN
100
AcDbLine
 62
7
  6
CONTINUOUS
 10
702.6841906787
 20
193.4598051309
 11
702.6197799436
 21
193.7236146263
  0
LINE
  5
5C5
100
AcDbEntity
  8
BEZUGSACHSEN
100
AcDbLine
 62
7
  6
CONTINUOUS
 10
702.6197799436
 20
193.7236146263
 11
702.5934408391
 21
193.8314893354
  0
LINE
  5
5C6
100
AcDbEntity
  8
BEZUGSACHSEN
100
AcDbLine
 62
7
  6
CONTINUOUS
 10
702.5934408391
 20
193.8314893354
 11
702.5348157447
 21
194.0715879947
  0
LINE
  5
5C7
100
AcDbEntity
  8
BEZUGSACHSEN
100
AcDbLine
 62
7
  6
CONTINUOUS
 10
702.5348157447
 20
194.0715879947
 11
702.5125217335
 21
194.1628904986
  0
LINE
  5
5C8
100
AcDbEntity
  8
BEZUGSACHSEN
100
AcDbLine
 62
7
  6
CONTINUOUS
 10
702.5125217335
 20
194.1628904986
 11
702.4303734999
 21
194.4993074636
  0
LINE
  5
5C9
100
AcDbEntity
  8
BEZUGSACHSEN
100
AcDbLine
 62
7
  6
CONTINUOUS
 10
702.4303734999
 20
194.4993074636
 11
702.3624492694
 21
194.7774603386
  0
LINE
  5
5CA
100
AcDbEntity
  8
BEZUGSACHSEN
100
AcDbLine
 62
7
  6
CONTINUOUS
 10
702.3624492694
 20
194.7774603386
 11
702.2899875703
 21
195.0741814151
  0
LINE
  5
5CB
100
AcDbEntity
  8
BEZUGSACHSEN
100
AcDbLine
 62
7
  6
CONTINUOUS
 10
702.2899875703
 20
195.0741814151
 11
702.2348868925
 21
195.2998026887
  0
LINE
  5
5CC
100
AcDbEntity
  8
BEZUGSACHSEN
100
AcDbLine
 62
7
  6
CONTINUOUS
 10
702.2348868925
 20
195.2998026887
 11
702.1782595166
 21
195.5316676866
  0
LINE
  5
5CD
100
AcDbEntity
  8
BEZUGSACHSEN
100
AcDbLine
 62
7
  6
CONTINUOUS
 10
702.1782595166
 20
195.5316676866
 11
702.0017523057
 21
196.2543412609
  0
LINE
  5
5CE
100
AcDbEntity
  8
BEZUGSACHSEN
100
AcDbLine
 62
7
  6
CONTINUOUS
 10
702.0017523057
 20
196.2543412609
 11
701.8811306147
 21
196.7481622102
  0
LINE
  5
5CF
100
AcDbEntity
  8
BEZUGSACHSEN
100
AcDbLine
 62
7
  6
CONTINUOUS
 10
701.8811306147
 20
196.7481622102
 11
701.7328745537
 21
197.3550744363
  0
LINE
  5
5D0
100
AcDbEntity
  8
BEZUGSACHSEN
100
AcDbLine
 62
7
  6
CONTINUOUS
 10
701.7328745537
 20
197.3550744363
 11
701.1662673138
 21
199.6741842677
  0
LINE
  5
5D1
100
AcDbEntity
  8
BEZUGSACHSEN
100
AcDbLine
 62
7
  6
CONTINUOUS
 10
701.1662673138
 20
199.6741842677
 11
701.0369440792
 21
200.2034206394
  0
LINE
  5
5D2
100
AcDbEntity
  8
BEZUGSACHSEN
100
AcDbLine
 62
7
  6
CONTINUOUS
 10
701.0369440792
 20
200.2034206394
 11
701.0003451084
 21
200.3531915485
  0
SPLINE
  5
5D3
100
AcDbEntity
  8
KONSTRUKTIONSELEMENTE
100
AcDbSpline
 62
7
  6
CONTINUOUS
 70
0
 71
3
 72
15
 73
11
 74
0
 42
0.0000001
 43
0.0000001
 44
0.0000000001
 40
0.0
 40
0.0
 40
0.0
 40
0.0
 40
0.0715010666
 40
0.1527077479
 40
0.2498107499
 40
0.3654352247
 40
0.4998487283
 40
0.6519052098
 40
0.8196312816
 40
1.0
 40
1.0
 40
1.0
 40
1.0
 10
493.917055725
 20
24.8479943989
 30
0.0
 10
493.8311924067
 20
24.9222906473
 30
0.0
 10
493.6103598297
 20
25.0403143574
 30
0.0
 10
493.2103512797
 20
25.0875328723
 30
0.0
 10
492.7446424533
 20
25.0231488626
 30
0.0
 10
492.2184388407
 20
24.85226425
 30
0.0
 10
491.6399730443
 20
24.5788771796
 30
0.0
 10
491.0202932127
 20
24.2080001552
 30
0.0
 10
490.3725412923
 20
23.7472424506
 30
0.0
 10
489.9440821685
 20
23.3973069643
 30
0.0
 10
489.7275625429
 20
23.2097954681
 30
0.0
  0
SPLINE
  5
5D4
100
AcDbEntity
  8
KONSTRUKTIONSELEMENTE
100
AcDbSpline
 62
7
  6
CONTINUOUS
 70
0
 71
3
 72
10
 73
6
 74
0
 42
0.0000001
 43
0.0000001
 44
0.0000000001
 40
0.0
 40
0.0
 40
0.0
 40
0.0
 40
0.5724578226
 40
0.8061405623
 40
1.0
 40
1.0
 40
1.0
 40
1.0
 10
489.6253257603
 20
37.6402219582
 30
0.0
 10
489.9412505722
 20
38.1739290902
 30
0.0
 10
490.3417455804
 20
38.9585700943
 30
0.0
 10
490.6555652325
 20
39.997802303
 30
0.0
 10
490.7175120366
 20
40.4608131692
 30
0.0
 10
490.7175120366
 20
40.670841235
 30
0.0
  0
SPLINE
  5
5D5
100
AcDbEntity
  8
KONSTRUKTIONSELEMENTE
100
AcDbSpline
 62
7
  6
CONTINUOUS
 70
0
 71
3
 72
9
 73
5
 74
0
 42
0.0000001
 43
0.0000001
 44
0.0000000001
 40
0.0
 40
0.0
 40
0.0
 40
0.0
 40
0.5487176208
 40
1.0
 40
1.0
 40
1.0
 40
1.0
 10
490.7175120366
 20
16.8019005152
 30
0.0
 10
490.7175120366
 20
16.6301694258
 30
0.0
 10
490.7514561961
 20
16.3121652778
 30
0.0
 10
490.9255214023
 20
16.0329810918
 30
0.0
 10
491.0322890773
 20
15.9405227469
 30
0.0
  0
SPLINE
  5
5D6
100
AcDbEntity
  8
KONSTRUKTIONSELEMENTE
100
AcDbSpline
 62
7
  6
CONTINUOUS
 70
0
 71
3
 72
15
 73
11
 74
0
 42
0.0000001
 43
0.0000001
 44
0.0000000001
 40
0.0
 40
0.0
 40
0.0
 40
0.0
 40
0.0715010666
 40
0.1527077479
 40
0.2498107499
 40
0.3654352247
 40
0.4998487283
 40
0.6519052098
 40
0.8196312816
 40
1.0
 40
1.0
 40
1.0
 40
1.0
 10
493.3513703001
 20
23.7378923475
 30
0.0
 10
493.2655069818
 20
23.8121885959
 30
0.0
 10
493.0446744047
 20
23.930212306
 30
0.0
 10
492.6446658547
 20
23.9774308208
 30
0.0
 10
492.1789570283
 20
23.9130468112
 30
0.0
 10
491.6527534158
 20
23.7421621985
 30
0.0
 10
491.0742876193
 20
23.4687751282
 30
0.0
 10
490.4546077878
 20
23.0978981037
 30
0.0
 10
489.8068558674
 20
22.6371403992
 30
0.0
 10
489.3783967436
 20
22.2872049129
 30
0.0
 10
489.161877118
 20
22.0996934167
 30
0.0
  0
SPLINE
  5
5D7
100
AcDbEntity
  8
KONSTRUKTIONSELEMENTE
100
AcDbSpline
 62
7
  6
CONTINUOUS
 70
0
 71
3
 72
9
 73
5
 74
0
 42
0.0000001
 43
0.0000001
 44
0.0000000001
 40
0.0
 40
0.0
 40
0.0
 40
0.0
 40
0.6117620722
 40
1.0
 40
1.0
 40
1.0
 40
1.0
 10
548.6603189749
 20
48.4392090255
 30
0.0
 10
548.6368721824
 20
48.3788773289
 30
0.0
 10
548.6024384808
 20
48.2790235566
 30
0.0
 10
548.628174745
 20
48.1608838104
 30
0.0
 10
548.6592277082
 20
48.1339936081
 30
0.0
  0
SPLINE
  5
5D8
100
AcDbEntity
  8
KONSTRUKTIONSELEMENTE
100
AcDbSpline
 62
7
  6
CONTINUOUS
 70
0
 71
3
 72
10
 73
6
 74
0
 42
0.0000001
 43
0.0000001
 44
0.0000000001
 40
0.0
 40
0.0
 40
0.0
 40
0.0
 40
0.1889346049
 40
0.5351285558
 40
1.0
 40
1.0
 40
1.0
 40
1.0
 10
471.185813468
 20
7.2784411825
 30
0.0
 10
471.2218524832
 20
7.2472311247
 30
0.0
 10
471.3475907721
 20
7.1848483842
 30
0.0
 10
471.6089298404
 20
7.1984968101
 30
0.0
 10
471.8018096999
 20
7.2697570434
 30
0.0
 10
471.908471657
 20
7.3185755011
 30
0.0
  0
SPLINE
  5
5D9
100
AcDbEntity
  8
KONSTRUKTIONSELEMENTE
100
AcDbSpline
 62
7
  6
CONTINUOUS
 70
0
 71
3
 72
9
 73
5
 74
0
 42
0.0000001
 43
0.0000001
 44
0.0000000001
 40
0.0
 40
0.0
 40
0.0
 40
0.0
 40
0.4593994969
 40
1.0
 40
1.0
 40
1.0
 40
1.0
 10
471.908471657
 20
7.3185755011
 30
0.0
 10
472.0514583717
 20
7.3840195552
 30
0.0
 10
472.3472683279
 20
7.5598957606
 30
0.0
 10
472.6171175804
 20
7.7715113576
 30
0.0
 10
472.7569997944
 20
7.8926529085
 30
0.0
  0
SPLINE
  5
5DA
100
AcDbEntity
  8
KONSTRUKTIONSELEMENTE
100
AcDbSpline
 62
7
  6
CONTINUOUS
 70
0
 71
3
 72
11
 73
7
 74
0
 42
0.0000001
 43
0.0000001
 44
0.0000000001
 40
0.0
 40
0.0
 40
0.0
 40
0.0
 40
0.1762655922
 40
0.3918218634
 40
0.6654417773
 40
1.0
 40
1.0
 40
1.0
 40
1.0
 10
494.5678229832
 20
12.8786605684
 30
0.0
 10
494.6768194357
 20
12.7842721537
 30
0.0
 10
494.987025945
 20
12.6508471271
 30
0.0
 10
495.5407609988
 20
12.6766601977
 30
0.0
 10
496.1885411741
 20
12.8758316836
 30
0.0
 10
496.6346617951
 20
13.1004831203
 30
0.0
 10
496.8720983292
 20
13.2365656399
 30
0.0
  0
SPLINE
  5
5DB
100
AcDbEntity
  8
BEZUGSACHSEN
100
AcDbSpline
 62
7
  6
CONTINUOUS
 70
0
 71
3
 72
12
 73
8
 74
0
 42
0.0000001
 43
0.0000001
 44
0.0000000001
 40
0.0
 40
0.0
 40
0.0
 40
0.0
 40
0.1832471538
 40
0.3537049845
 40
0.5082077013
 40
0.6447569347
 40
1.0
 40
1.0
 40
1.0
 40
1.0
 10
573.4490054354
 20
102.1046918545
 30
0.0
 10
573.6350973564
 20
102.2658521855
 30
0.0
 10
574.0038903679
 20
102.5667631136
 30
0.0
 10
574.5587458831
 20
102.962324013
 30
0.0
 10
575.09756411
 20
103.2827333068
 30
0.0
 10
575.8541801984
 20
103.6463195094
 30
0.0
 10
576.6891655843
 20
103.824583965
 30
0.0
 10
577.0498508988
 20
103.5120745975
 30
0.0
  0
SPLINE
  5
5DC
100
AcDbEntity
  8
BEZUGSACHSEN
100
AcDbSpline
 62
7
  6
CONTINUOUS
 70
0
 71
3
 72
11
 73
7
 74
0
 42
0.0000001
 43
0.0000001
 44
0.0000000001
 40
0.0
 40
0.0
 40
0.0
 40
0.0
 40
0.3015881397
 40
0.562494249
 40
0.7907344083
 40
1.0
 40
1.0
 40
1.0
 40
1.0
 10
580.479870773
 20
104.7699553671
 30
0.0
 10
580.5147741811
 20
105.0922449761
 30
0.0
 10
580.542683889
 20
105.6989114948
 30
0.0
 10
580.4301455304
 20
106.5473504337
 30
0.0
 10
580.1542698755
 20
107.2552616456
 30
0.0
 10
579.8510871351
 20
107.6277885015
 30
0.0
 10
579.6810887292
 20
107.7750889478
 30
0.0
  0
SPLINE
  5
5DD
100
AcDbEntity
  8
KONSTRUKTIONSELEMENTE
100
AcDbSpline
 62
7
  6
CONTINUOUS
 70
0
 71
3
 72
13
 73
9
 74
0
 42
0.0000001
 43
0.0000001
 44
0.0000000001
 40
0.0
 40
0.0
 40
0.0
 40
0.0
 40
0.110351909
 40
0.2332658139
 40
0.5008905158
 40
0.7680426367
 40
0.8903914418
 40
1.0
 40
1.0
 40
1.0
 40
1.0
 10
553.9392188881
 20
45.9435691359
 30
0.0
 10
554.3055170112
 20
46.1535063795
 30
0.0
 10
555.0517211667
 20
46.646788376
 30
0.0
 10
556.5475321428
 20
47.8476097722
 30
0.0
 10
558.3180902696
 20
49.648117733
 30
0.0
 10
559.8389728118
 20
51.6613737734
 30
0.0
 10
560.8031631886
 20
53.3117530558
 30
0.0
 10
561.1783506424
 20
54.118308325
 30
0.0
 10
561.3302551482
 20
54.509178698
 30
0.0
  0
SPLINE
  5
5DE
100
AcDbEntity
  8
KONSTRUKTIONSELEMENTE
100
AcDbSpline
 62
7
  6
CONTINUOUS
 70
0
 71
3
 72
11
 73
7
 74
0
 42
0.0000001
 43
0.0000001
 44
0.0000000001
 40
0.0
 40
0.0
 40
0.0
 40
0.0
 40
0.2331267554
 40
0.5008932528
 40
0.7681869189
 40
1.0
 40
1.0
 40
1.0
 40
1.0
 10
498.0183239914
 20
13.8935044582
 30
0.0
 10
498.0956662255
 20
13.9378317818
 30
0.0
 10
498.2495979255
 20
14.0541451466
 30
0.0
 10
498.4562897403
 20
14.2638963318
 30
0.0
 10
498.6332349218
 20
14.4986450079
 30
0.0
 10
498.7253180924
 20
14.6674433621
 30
0.0
 10
498.7574276174
 20
14.7500654144
 30
0.0
  0
SPLINE
  5
5DF
100
AcDbEntity
  8
KONSTRUKTIONSELEMENTE
100
AcDbSpline
 62
7
  6
CONTINUOUS
 70
0
 71
3
 72
10
 73
6
 74
0
 42
0.0000001
 43
0.0000001
 44
0.0000000001
 40
0.0
 40
0.0
 40
0.0
 40
0.0
 40
0.386103858
 40
0.6623060416
 40
1.0
 40
1.0
 40
1.0
 40
1.0
 10
552.1947616141
 20
45.0721314296
 30
0.0
 10
552.2262995845
 20
45.0448212371
 30
0.0
 10
552.3091102843
 20
45.0390513925
 30
0.0
 10
552.4102126885
 20
45.071986872
 30
0.0
 10
552.4703420734
 20
45.1017085576
 30
0.0
 10
552.5019996268
 20
45.1198525203
 30
0.0
  0
SPLINE
  5
5E0
100
AcDbEntity
  8
BEZUGSACHSEN
100
AcDbSpline
 62
7
  6
CONTINUOUS
 70
0
 71
3
 72
17
 73
13
 74
0
 42
0.0000001
 43
0.0000001
 44
0.0000000001
 40
0.0
 40
0.0
 40
0.0
 40
0.0
 40
0.02915967
 40
0.0611276917
 40
0.0979432766
 40
0.140716238
 40
0.2452700524
 40
0.3737341059
 40
0.5210010469
 40
0.6799595628
 40
0.8424436143
 40
1.0
 40
1.0
 40
1.0
 40
1.0
 10
569.848159972
 20
95.1973091115
 30
0.0
 10
569.7874571101
 20
95.2499040251
 30
0.0
 10
569.6797524399
 20
95.38431248
 30
0.0
 10
569.5849320411
 20
95.6404825745
 30
0.0
 10
569.5504912227
 20
95.9480606879
 30
0.0
 10
569.5846746581
 20
96.4560264239
 30
0.0
 10
569.7909066817
 20
97.1939294235
 30
0.0
 10
570.2258375275
 20
98.1490808362
 30
0.0
 10
570.8444789991
 20
99.1769624481
 30
0.0
 10
571.61160033
 20
100.217378284
 30
0.0
 10
572.4833210259
 20
101.2097432986
 30
0.0
 10
573.1209479124
 20
101.8205857057
 30
0.0
 10
573.4490054354
 20
102.1046918545
 30
0.0
  0
SPLINE
  5
5E1
100
AcDbEntity
  8
KONSTRUKTIONSELEMENTE
100
AcDbSpline
 62
7
  6
CONTINUOUS
 70
0
 71
3
 72
13
 73
9
 74
0
 42
0.0000001
 43
0.0000001
 44
0.0000000001
 40
0.0
 40
0.0
 40
0.0
 40
0.0
 40
0.1096049683
 40
0.2319603642
 40
0.4991095908
 40
0.7667313738
 40
0.8896517839
 40
1.0
 40
1.0
 40
1.0
 40
1.0
 10
501.3822287031
 20
21.5040255672
 30
0.0
 10
501.5341282491
 20
21.8948831778
 30
0.0
 10
501.9093203498
 20
22.7014488224
 30
0.0
 10
502.8735048446
 20
24.3518325982
 30
0.0
 10
504.3943947342
 20
26.3650870344
 30
0.0
 10
506.1649501862
 20
28.1656015675
 30
0.0
 10
507.660765907
 20
29.3664172024
 30
0.0
 10
508.406979061
 20
29.8597048898
 30
0.0
 10
508.7732649632
 20
30.0696351293
 30
0.0
  0
SPLINE
  5
5E2
100
AcDbEntity
  8
KONSTRUKTIONSELEMENTE
100
AcDbSpline
 62
7
  6
CONTINUOUS
 70
0
 71
3
 72
12
 73
8
 74
0
 42
0.0000001
 43
0.0000001
 44
0.0000000001
 40
0.0
 40
0.0
 40
0.0
 40
0.0
 40
0.3342728453
 40
0.6076844081
 40
0.7222678967
 40
0.8238824924
 40
1.0
 40
1.0
 40
1.0
 40
1.0
 10
551.7591865077
 20
54.706250267
 30
0.0
 10
552.0757609123
 20
54.8876892473
 30
0.0
 10
552.6700653964
 20
55.186350174
 30
0.0
 10
553.4296795268
 20
55.422150413
 30
0.0
 10
553.9645016557
 20
55.4704177091
 30
0.0
 10
554.3922465282
 20
55.4367285256
 30
0.0
 10
554.6862377546
 20
55.3093083031
 30
0.0
 10
554.8315668639
 20
55.1834609712
 30
0.0
  0
SPLINE
  5
5E3
100
AcDbEntity
  8
KONSTRUKTIONSELEMENTE
100
AcDbSpline
 62
7
  6
CONTINUOUS
 70
0
 71
3
 72
10
 73
6
 74
0
 42
0.0000001
 43
0.0000001
 44
0.0000000001
 40
0.0
 40
0.0
 40
0.0
 40
0.0
 40
0.211465274
 40
0.455099238
 40
1.0
 40
1.0
 40
1.0
 40
1.0
 10
490.9614080562
 20
41.5525654858
 30
0.0
 10
491.0938118914
 20
41.9756542789
 30
0.0
 10
491.457736945
 20
42.8616589715
 30
0.0
 10
492.4692986908
 20
44.7004101686
 30
0.0
 10
493.463298979
 20
46.0343336372
 30
0.0
 10
494.2095818855
 20
46.8992147952
 30
0.0
  0
SPLINE
  5
5E4
100
AcDbEntity
  8
KONSTRUKTIONSELEMENTE
100
AcDbSpline
 62
7
  6
CONTINUOUS
 70
0
 71
3
 72
16
 73
12
 74
0
 42
0.0000001
 43
0.0000001
 44
0.0000000001
 40
0.0
 40
0.0
 40
0.0
 40
0.0
 40
0.1733670534
 40
0.3410818278
 40
0.4976327953
 40
0.6381758039
 40
0.7589357754
 40
0.8578650212
 40
0.8993824578
 40
0.9362248157
 40
1.0
 40
1.0
 40
1.0
 40
1.0
 10
555.4097489085
 20
117.8252280643
 30
0.0
 10
555.7499664712
 20
118.2195125334
 30
0.0
 10
556.4461281357
 20
118.9725682451
 30
0.0
 10
557.5367335431
 20
119.9967964033
 30
0.0
 10
558.6269713116
 20
120.8715619133
 30
0.0
 10
559.6760877024
 20
121.5651291014
 30
0.0
 10
560.6451491925
 20
122.0523921313
 30
0.0
 10
561.4006467232
 20
122.2882398579
 30
0.0
 10
561.9333084722
 20
122.3387059095
 30
0.0
 10
562.3599099981
 20
122.3078557072
 30
0.0
 10
562.6541741282
 20
122.1845806411
 30
0.0
 10
562.8007851686
 20
122.0612688253
 30
0.0
  0
SPLINE
  5
5E5
100
AcDbEntity
  8
KONSTRUKTIONSELEMENTE
100
AcDbSpline
 62
7
  6
CONTINUOUS
 70
0
 71
3
 72
9
 73
5
 74
0
 42
0.0000001
 43
0.0000001
 44
0.0000000001
 40
0.0
 40
0.0
 40
0.0
 40
0.0
 40
0.2612895939
 40
1.0
 40
1.0
 40
1.0
 40
1.0
 10
490.7175120366
 20
40.8959306329
 30
0.0
 10
490.7413872331
 20
40.9520877529
 30
0.0
 10
490.8304260978
 20
41.1679847202
 30
0.0
 10
490.909883165
 20
41.3879206777
 30
0.0
 10
490.9614080562
 20
41.5525654858
 30
0.0
  0
SPLINE
  5
5E6
100
AcDbEntity
  8
KONSTRUKTIONSELEMENTE
100
AcDbSpline
 62
7
  6
CONTINUOUS
 70
0
 71
3
 72
9
 73
5
 74
0
 42
0.0000001
 43
0.0000001
 44
0.0000000001
 40
0.0
 40
0.0
 40
0.0
 40
0.0
 40
0.5484587228
 40
1.0
 40
1.0
 40
1.0
 40
1.0
 10
468.6557804636
 20
9.7050253442
 30
0.0
 10
468.6557804636
 20
9.6363781017
 30
0.0
 10
468.6694301298
 20
9.5092349094
 30
0.0
 10
468.7389274429
 20
9.3975058759
 30
0.0
 10
468.781650412
 20
9.3605074638
 30
0.0
  0
SPLINE
  5
5E7
100
AcDbEntity
  8
KONSTRUKTIONSELEMENTE
100
AcDbSpline
 62
7
  6
CONTINUOUS
 70
0
 71
3
 72
12
 73
8
 74
0
 42
0.0000001
 43
0.0000001
 44
0.0000000001
 40
0.0
 40
0.0
 40
0.0
 40
0.0
 40
0.285581653
 40
0.5706156379
 40
0.817816411
 40
0.9180971044
 40
1.0
 40
1.0
 40
1.0
 40
1.0
 10
470.3528367384
 20
20.4547191899
 30
0.0
 10
470.1206199359
 20
20.2536135397
 30
0.0
 10
469.6881524164
 20
19.814302594
 30
0.0
 10
469.1577013634
 20
19.1103613908
 30
0.0
 10
468.8289647069
 20
18.50882276
 30
0.0
 10
468.6848501786
 20
18.0688995302
 30
0.0
 10
468.6557804636
 20
17.8731265025
 30
0.0
 10
468.6557804636
 20
17.7850253442
 30
0.0
  0
SPLINE
  5
5E8
100
AcDbEntity
  8
KONSTRUKTIONSELEMENTE
100
AcDbSpline
 62
7
  6
CONTINUOUS
 70
0
 71
3
 72
11
 73
7
 74
0
 42
0.0000001
 43
0.0000001
 44
0.0000000001
 40
0.0
 40
0.0
 40
0.0
 40
0.0
 40
0.2278984156
 40
0.4812287379
 40
0.7441992578
 40
1.0
 40
1.0
 40
1.0
 40
1.0
 10
491.2024330726
 20
40.2220070118
 30
0.0
 10
490.9960976731
 20
39.7658479196
 30
0.0
 10
490.4848977051
 20
38.8365028024
 30
0.0
 10
489.5450110101
 20
37.4958825959
 30
0.0
 10
488.4418095529
 20
36.2043096779
 30
0.0
 10
487.6215225026
 20
35.4098397516
 30
0.0
 10
487.1967268973
 20
35.0419559661
 30
0.0
  0
SPLINE
  5
5E9
100
AcDbEntity
  8
KONSTRUKTIONSELEMENTE
100
AcDbSpline
 62
7
  6
CONTINUOUS
 70
0
 71
3
 72
14
 73
10
 74
0
 42
0.0000001
 43
0.0000001
 44
0.0000000001
 40
0.0
 40
0.0
 40
0.0
 40
0.0
 40
0.3410591671
 40
0.4976581478
 40
0.638286692
 40
0.759109179
 40
0.8580773611
 40
0.9362087342
 40
1.0
 40
1.0
 40
1.0
 40
1.0
 10
540.3489412736
 20
99.2254963027
 30
0.0
 10
540.5496265274
 20
99.4580741807
 30
0.0
 10
540.8653568624
 20
99.7792019893
 30
0.0
 10
541.3141135022
 20
100.1394082039
 30
0.0
 10
541.6287863232
 20
100.3473954917
 30
0.0
 10
541.9196977556
 20
100.4938419484
 30
0.0
 10
542.1775469453
 20
100.5736892001
 30
0.0
 10
542.3980543341
 20
100.5848771454
 30
0.0
 10
542.5222806044
 20
100.5332921805
 30
0.0
 10
542.5662521516
 20
100.496308531
 30
0.0
  0
SPLINE
  5
5EA
100
AcDbEntity
  8
KONSTRUKTIONSELEMENTE
100
AcDbSpline
 62
7
  6
CONTINUOUS
 70
0
 71
3
 72
14
 73
10
 74
0
 42
0.0000001
 43
0.0000001
 44
0.0000000001
 40
0.0
 40
0.0
 40
0.0
 40
0.0
 40
0.0637912658
 40
0.1419226389
 40
0.240890821
 40
0.361713308
 40
0.5023418522
 40
0.6589408329
 40
1.0
 40
1.0
 40
1.0
 40
1.0
 10
544.7310365522
 20
98.6755486856
 30
0.0
 10
544.7750080994
 20
98.6385650361
 30
0.0
 10
544.8992343697
 20
98.5869800712
 30
0.0
 10
545.1197417585
 20
98.5981680166
 30
0.0
 10
545.3775909482
 20
98.6780152682
 30
0.0
 10
545.6685023805
 20
98.8244617249
 30
0.0
 10
545.9831752015
 20
99.0324490128
 30
0.0
 10
546.4319318413
 20
99.3926552273
 30
0.0
 10
546.7476621764
 20
99.7137830359
 30
0.0
 10
546.9483474302
 20
99.9463609139
 30
0.0
  0
SPLINE
  5
5EB
100
AcDbEntity
  8
BEZUGSACHSEN
100
AcDbSpline
 62
7
  6
CONTINUOUS
 70
0
 71
3
 72
12
 73
8
 74
0
 42
0.0000001
 43
0.0000001
 44
0.0000000001
 40
0.0
 40
0.0
 40
0.0
 40
0.0
 40
0.1832471538
 40
0.3537049845
 40
0.5082077013
 40
0.6447569347
 40
1.0
 40
1.0
 40
1.0
 40
1.0
 10
573.4490054354
 20
96.6046918545
 30
0.0
 10
573.2629135144
 20
96.4435315234
 30
0.0
 10
572.8941205029
 20
96.1426205954
 30
0.0
 10
572.3392649877
 20
95.747059696
 30
0.0
 10
571.8004467608
 20
95.4266504022
 30
0.0
 10
571.0438306725
 20
95.0630641995
 30
0.0
 10
570.2088452865
 20
94.884799744
 30
0.0
 10
569.848159972
 20
95.1973091115
 30
0.0
  0
SPLINE
  5
5EC
100
AcDbEntity
  8
KONSTRUKTIONSELEMENTE
100
AcDbSpline
 62
7
  6
CONTINUOUS
 70
0
 71
3
 72
9
 73
5
 74
0
 42
0.0000001
 43
0.0000001
 44
0.0000000001
 40
0.0
 40
0.0
 40
0.0
 40
0.0
 40
0.5487176208
 40
1.0
 40
1.0
 40
1.0
 40
1.0
 10
494.2530459425
 20
13.7400383367
 30
0.0
 10
494.2530459425
 20
13.5683072473
 30
0.0
 10
494.286990102
 20
13.2503030993
 30
0.0
 10
494.4610553082
 20
12.9711189133
 30
0.0
 10
494.5678229832
 20
12.8786605684
 30
0.0
  0
SPLINE
  5
5ED
100
AcDbEntity
  8
BEZUGSACHSEN
100
AcDbSpline
 62
7
  6
CONTINUOUS
 70
0
 71
3
 72
9
 73
5
 74
0
 42
0.0000001
 43
0.0000001
 44
0.0000000001
 40
0.0
 40
0.0
 40
0.0
 40
0.0
 40
0.4460938812
 40
1.0
 40
1.0
 40
1.0
 40
1.0
 10
577.0498508988
 20
103.5120745975
 30
0.0
 10
577.1551450879
 20
103.4208443225
 30
0.0
 10
577.3227651003
 20
103.1362817098
 30
0.0
 10
577.3431230621
 20
102.817704541
 30
0.0
 10
577.3365533097
 20
102.6448394351
 30
0.0
  0
SPLINE
  5
5EE
100
AcDbEntity
  8
BEZUGSACHSEN
100
AcDbSpline
 62
7
  6
CONTINUOUS
 70
0
 71
3
 72
9
 73
5
 74
0
 42
0.0000001
 43
0.0000001
 44
0.0000000001
 40
0.0
 40
0.0
 40
0.0
 40
0.0
 40
0.2554587855
 40
1.0
 40
1.0
 40
1.0
 40
1.0
 10
574.6149927995
 20
97.7409638242
 30
0.0
 10
574.5211625062
 20
97.6388506329
 30
0.0
 10
574.1484551839
 20
97.2441527612
 30
0.0
 10
573.7545343954
 20
96.8692876955
 30
0.0
 10
573.4490054354
 20
96.6046918545
 30
0.0
  0
SPLINE
  5
5EF
100
AcDbEntity
  8
KONSTRUKTIONSELEMENTE
100
AcDbSpline
 62
7
  6
CONTINUOUS
 70
0
 71
3
 72
9
 73
5
 74
0
 42
0.0000001
 43
0.0000001
 44
0.0000000001
 40
0.0
 40
0.0
 40
0.0
 40
0.0
 40
0.5486311305
 40
1.0
 40
1.0
 40
1.0
 40
1.0
 10
494.2530459425
 20
23.9289790566
 30
0.0
 10
494.2530459425
 20
24.1121831002
 30
0.0
 10
494.2167629243
 20
24.4514665977
 30
0.0
 10
494.0310351042
 20
24.7493697425
 30
0.0
 10
493.917055725
 20
24.8479943989
 30
0.0
  0
SPLINE
  5
5F0
100
AcDbEntity
  8
KONSTRUKTIONSELEMENTE
100
AcDbSpline
 62
7
  6
CONTINUOUS
 70
0
 71
3
 72
11
 73
7
 74
0
 42
0.0000001
 43
0.0000001
 44
0.0000000001
 40
0.0
 40
0.0
 40
0.0
 40
0.0
 40
0.177146351
 40
0.3929380096
 40
0.6661844842
 40
1.0
 40
1.0
 40
1.0
 40
1.0
 10
554.8315668639
 20
55.1834609712
 30
0.0
 10
554.9749150948
 20
55.0593289754
 30
0.0
 10
555.2078879769
 20
54.6829147105
 30
0.0
 10
555.2837260552
 20
53.9607020108
 30
0.0
 10
555.1531792117
 20
53.0843963289
 30
0.0
 10
554.9500922108
 20
52.4643687119
 30
0.0
 10
554.8206539666
 20
52.1313069998
 30
0.0
  0
SPLINE
  5
5F1
100
AcDbEntity
  8
KONSTRUKTIONSELEMENTE
100
AcDbSpline
 62
7
  6
CONTINUOUS
 70
0
 71
3
 72
13
 73
9
 74
0
 42
0.0000001
 43
0.0000001
 44
0.0000000001
 40
0.0
 40
0.0
 40
0.0
 40
0.0
 40
0.2854859153
 40
0.5704513138
 40
0.7009656111
 40
0.8178785543
 40
0.9181069222
 40
1.0
 40
1.0
 40
1.0
 40
1.0
 10
489.7275625429
 20
30.4897954681
 30
0.0
 10
490.3467767608
 20
31.0260507112
 30
0.0
 10
491.4990239016
 20
32.1972195046
 30
0.0
 10
492.7154977385
 20
33.8078054028
 30
0.0
 10
493.4869161393
 20
35.1281751552
 30
0.0
 10
493.9084232661
 20
36.0345566288
 30
0.0
 10
494.1754761737
 20
36.8519999829
 30
0.0
 10
494.2530459425
 20
37.3740036278
 30
0.0
 10
494.2530459425
 20
37.6089790566
 30
0.0
  0
SPLINE
  5
5F2
100
AcDbEntity
  8
KONSTRUKTIONSELEMENTE
100
AcDbSpline
 62
7
  6
CONTINUOUS
 70
0
 71
3
 72
14
 73
10
 74
0
 42
0.0000001
 43
0.0000001
 44
0.0000000001
 40
0.0
 40
0.0
 40
0.0
 40
0.0
 40
0.0637912658
 40
0.1419226389
 40
0.240890821
 40
0.361713308
 40
0.5023418522
 40
0.6589408329
 40
1.0
 40
1.0
 40
1.0
 40
1.0
 10
545.6103842894
 20
93.6808642131
 30
0.0
 10
545.6543558366
 20
93.6438805636
 30
0.0
 10
545.7785821069
 20
93.5922955988
 30
0.0
 10
545.9990894956
 20
93.6034835441
 30
0.0
 10
546.2569386854
 20
93.6833307957
 30
0.0
 10
546.5478501177
 20
93.8297772524
 30
0.0
 10
546.8625229387
 20
94.0377645403
 30
0.0
 10
547.3112795785
 20
94.3979707549
 30
0.0
 10
547.6270099136
 20
94.7190985635
 30
0.0
 10
547.8276951674
 20
94.9516764414
 30
0.0
  0
SPLINE
  5
5F3
100
AcDbEntity
  8
KONSTRUKTIONSELEMENTE
100
AcDbSpline
 62
7
  6
CONTINUOUS
 70
0
 71
3
 72
10
 73
6
 74
0
 42
0.0000001
 43
0.0000001
 44
0.0000000001
 40
0.0
 40
0.0
 40
0.0
 40
0.0
 40
0.544900762
 40
0.788534726
 40
1.0
 40
1.0
 40
1.0
 40
1.0
 10
497.7451157914
 20
43.8373526167
 30
0.0
 10
496.9988328849
 20
42.9724714587
 30
0.0
 10
496.0048325967
 20
41.6385479901
 30
0.0
 10
494.9932708509
 20
39.799796793
 30
0.0
 10
494.6293457973
 20
38.9137921004
 30
0.0
 10
494.4969419622
 20
38.4907033073
 30
0.0
  0
SPLINE
  5
5F4
100
AcDbEntity
  8
KONSTRUKTIONSELEMENTE
100
AcDbSpline
 62
7
  6
CONTINUOUS
 70
0
 71
3
 72
16
 73
12
 74
0
 42
0.0000001
 43
0.0000001
 44
0.0000000001
 40
0.0
 40
0.0
 40
0.0
 40
0.0
 40
0.0637745663
 40
0.1006163439
 40
0.1421331319
 40
0.2410611833
 40
0.3618241984
 40
0.5023712928
 40
0.6589216877
 40
0.8266344801
 40
1.0
 40
1.0
 40
1.0
 40
1.0
 10
566.3363190746
 20
118.9994066468
 30
0.0
 10
566.1897094528
 20
119.1227172694
 30
0.0
 10
565.8954496458
 20
119.2459925036
 30
0.0
 10
565.4688536544
 20
119.2768430689
 30
0.0
 10
564.9361989562
 20
119.2263813141
 30
0.0
 10
564.1806964787
 20
118.9905366081
 30
0.0
 10
563.2116183672
 20
118.5032663189
 30
0.0
 10
562.1624864525
 20
117.8096866349
 30
0.0
 10
561.0722471956
 20
116.934915669
 30
0.0
 10
559.9816513977
 20
115.9106952653
 30
0.0
 10
559.2854973724
 20
115.1576468727
 30
0.0
 10
558.9452828145
 20
114.7633658859
 30
0.0
  0
SPLINE
  5
5F5
100
AcDbEntity
  8
KONSTRUKTIONSELEMENTE
100
AcDbSpline
 62
7
  6
CONTINUOUS
 70
0
 71
3
 72
9
 73
5
 74
0
 42
0.0000001
 43
0.0000001
 44
0.0000000001
 40
0.0
 40
0.0
 40
0.0
 40
0.0
 40
0.6117620722
 40
1.0
 40
1.0
 40
1.0
 40
1.0
 10
552.1958528809
 20
45.377346847
 30
0.0
 10
552.1724060883
 20
45.3170151504
 30
0.0
 10
552.1379723868
 20
45.2171613781
 30
0.0
 10
552.163708651
 20
45.0990216319
 30
0.0
 10
552.1947616141
 20
45.0721314296
 30
0.0
  0
SPLINE
  5
5F6
100
AcDbEntity
  8
KONSTRUKTIONSELEMENTE
100
AcDbSpline
 62
7
  6
CONTINUOUS
 70
0
 71
3
 72
9
 73
5
 74
0
 42
0.0000001
 43
0.0000001
 44
0.0000000001
 40
0.0
 40
0.0
 40
0.0
 40
0.0
 40
0.238545165
 40
1.0
 40
1.0
 40
1.0
 40
1.0
 10
494.4969419622
 20
38.4907033073
 30
0.0
 10
494.4803032593
 20
38.4375352951
 30
0.0
 10
494.4073842705
 20
38.2156454779
 30
0.0
 10
494.322624428
 20
37.9977247977
 30
0.0
 10
494.2530459425
 20
37.8340684544
 30
0.0
  0
SPLINE
  5
5F7
100
AcDbEntity
  8
KONSTRUKTIONSELEMENTE
100
AcDbSpline
 62
7
  6
CONTINUOUS
 70
0
 71
3
 72
11
 73
7
 74
0
 42
0.0000001
 43
0.0000001
 44
0.0000000001
 40
0.0
 40
0.0
 40
0.0
 40
0.0
 40
0.3303452579
 40
0.6216369567
 40
0.8495560534
 40
1.0
 40
1.0
 40
1.0
 40
1.0
 10
553.8357967412
 20
107.6335538967
 30
0.0
 10
554.0676011166
 20
107.7568939545
 30
0.0
 10
554.4932090062
 20
108.0082360948
 30
0.0
 10
555.0358454485
 20
108.4184138495
 30
0.0
 10
555.4047013023
 20
108.7947263626
 30
0.0
 10
555.5527932853
 20
109.0836468259
 30
0.0
 10
555.5479840514
 20
109.2031308363
 30
0.0
  0
SPLINE
  5
5F8
100
AcDbEntity
  8
KONSTRUKTIONSELEMENTE
100
AcDbSpline
 62
7
  6
CONTINUOUS
 70
0
 71
3
 72
12
 73
8
 74
0
 42
0.0000001
 43
0.0000001
 44
0.0000000001
 40
0.0
 40
0.0
 40
0.0
 40
0.0
 40
0.3172902138
 40
0.6128133829
 40
0.849013026
 40
0.935325608
 40
1.0
 40
1.0
 40
1.0
 40
1.0
 10
555.9487909727
 20
105.8036472141
 30
0.0
 10
556.0576604624
 20
106.1089850378
 30
0.0
 10
556.2350413098
 20
106.7116167166
 30
0.0
 10
556.3810481831
 20
107.5669160893
 30
0.0
 10
556.3940615195
 20
108.2064001927
 30
0.0
 10
556.3005532135
 20
108.5924313749
 30
0.0
 10
556.217553151
 20
108.7295593869
 30
0.0
 10
556.1676213707
 20
108.7728358174
 30
0.0
  0
SPLINE
  5
5F9
100
AcDbEntity
  8
KONSTRUKTIONSELEMENTE
100
AcDbSpline
 62
7
  6
CONTINUOUS
 70
0
 71
3
 72
14
 73
10
 74
0
 42
0.0000001
 43
0.0000001
 44
0.0000000001
 40
0.0
 40
0.0
 40
0.0
 40
0.0
 40
0.3410591671
 40
0.4976581478
 40
0.638286692
 40
0.759109179
 40
0.8580773611
 40
0.9362087342
 40
1.0
 40
1.0
 40
1.0
 40
1.0
 10
542.7531043296
 20
97.1434300214
 30
0.0
 10
542.9537895834
 20
97.3760078993
 30
0.0
 10
543.2695199185
 20
97.6971357079
 30
0.0
 10
543.7182765583
 20
98.0573419225
 30
0.0
 10
544.0329493793
 20
98.2653292104
 30
0.0
 10
544.3238608116
 20
98.4117756671
 30
0.0
 10
544.5817100014
 20
98.4916229187
 30
0.0
 10
544.8022173901
 20
98.502810864
 30
0.0
 10
544.9264436604
 20
98.4512258991
 30
0.0
 10
544.9704152076
 20
98.4142422497
 30
0.0
  0
SPLINE
  5
5FA
100
AcDbEntity
  8
KONSTRUKTIONSELEMENTE
100
AcDbSpline
 62
7
  6
CONTINUOUS
 70
0
 71
3
 72
14
 73
10
 74
0
 42
0.0000001
 43
0.0000001
 44
0.0000000001
 40
0.0
 40
0.0
 40
0.0
 40
0.0
 40
0.0637912658
 40
0.1419226389
 40
0.240890821
 40
0.361713308
 40
0.5023418522
 40
0.6589408329
 40
1.0
 40
1.0
 40
1.0
 40
1.0
 10
547.1351996082
 20
96.5934824042
 30
0.0
 10
547.1791711554
 20
96.5564987547
 30
0.0
 10
547.3033974257
 20
96.5049137899
 30
0.0
 10
547.5239048145
 20
96.5161017352
 30
0.0
 10
547.7817540042
 20
96.5959489868
 30
0.0
 10
548.0726654366
 20
96.7423954435
 30
0.0
 10
548.3873382576
 20
96.9503827314
 30
0.0
 10
548.8360948974
 20
97.310588946
 30
0.0
 10
549.1518252324
 20
97.6317167546
 30
0.0
 10
549.3525104862
 20
97.8642946325
 30
0.0
  0
SPLINE
  5
5FB
100
AcDbEntity
  8
KONSTRUKTIONSELEMENTE
100
AcDbSpline
 62
7
  6
CONTINUOUS
 70
0
 71
3
 72
14
 73
10
 74
0
 42
0.0000001
 43
0.0000001
 44
0.0000000001
 40
0.0
 40
0.0
 40
0.0
 40
0.0
 40
0.0637653468
 40
0.1419155054
 40
0.2408862627
 40
0.361730577
 40
0.5023143354
 40
0.6589215033
 40
1.0
 40
1.0
 40
1.0
 40
1.0
 10
545.0446988644
 20
94.1707621617
 30
0.0
 10
545.0886520669
 20
94.1337939416
 30
0.0
 10
545.2129117128
 20
94.0823343043
 30
0.0
 10
545.4333909646
 20
94.0933124588
 30
0.0
 10
545.6912982617
 20
94.1732137052
 30
0.0
 10
545.9821153531
 20
94.3197647107
 30
0.0
 10
546.2968576649
 20
94.5276132367
 30
0.0
 10
546.7455586618
 20
94.8878641129
 30
0.0
 10
547.0613153004
 20
95.2089858637
 30
0.0
 10
547.2620097424
 20
95.44157439
 30
0.0
  0
SPLINE
  5
5FC
100
AcDbEntity
  8
KONSTRUKTIONSELEMENTE
100
AcDbSpline
 62
7
  6
CONTINUOUS
 70
0
 71
3
 72
12
 73
8
 74
0
 42
0.0000001
 43
0.0000001
 44
0.0000000001
 40
0.0
 40
0.0
 40
0.0
 40
0.0
 40
0.285581653
 40
0.5706156379
 40
0.817816411
 40
0.9180971044
 40
1.0
 40
1.0
 40
1.0
 40
1.0
 10
472.7569997944
 20
18.3726529085
 30
0.0
 10
472.5247829919
 20
18.1715472583
 30
0.0
 10
472.0923154725
 20
17.7322363126
 30
0.0
 10
471.5618644194
 20
17.0282951094
 30
0.0
 10
471.2331277629
 20
16.4267564786
 30
0.0
 10
471.0890132346
 20
15.9868332488
 30
0.0
 10
471.0599435196
 20
15.7910602211
 30
0.0
 10
471.0599435196
 20
15.7029590628
 30
0.0
  0
SPLINE
  5
5FD
100
AcDbEntity
  8
KONSTRUKTIONSELEMENTE
100
AcDbSpline
 62
7
  6
CONTINUOUS
 70
0
 71
3
 72
11
 73
7
 74
0
 42
0.0000001
 43
0.0000001
 44
0.0000000001
 40
0.0
 40
0.0
 40
0.0
 40
0.0
 40
0.2248911515
 40
0.4779892955
 40
0.7424125431
 40
1.0
 40
1.0
 40
1.0
 40
1.0
 10
493.6873605176
 20
38.323966403
 30
0.0
 10
493.4881788571
 20
37.8554689646
 30
0.0
 10
492.9790044997
 20
36.8960401192
 30
0.0
 10
492.0251530576
 20
35.5091974321
 30
0.0
 10
490.8906428394
 20
34.1671945527
 30
0.0
 10
490.0416680163
 20
33.3416146846
 30
0.0
 10
489.6008899534
 20
32.9598896847
 30
0.0
  0
SPLINE
  5
5FE
100
AcDbEntity
  8
KONSTRUKTIONSELEMENTE
100
AcDbSpline
 62
7
  6
CONTINUOUS
 70
0
 71
3
 72
13
 73
9
 74
0
 42
0.0000001
 43
0.0000001
 44
0.0000000001
 40
0.0
 40
0.0
 40
0.0
 40
0.0
 40
0.2855003231
 40
0.5704531341
 40
0.7009691966
 40
0.8178682945
 40
0.9181204293
 40
1.0
 40
1.0
 40
1.0
 40
1.0
 10
489.161877118
 20
30.9796934167
 30
0.0
 10
489.7811219247
 20
31.5159751505
 30
0.0
 10
490.9333527492
 20
32.6871613435
 30
0.0
 10
492.1498696758
 20
34.297730815
 30
0.0
 10
492.921201024
 20
35.618063001
 30
0.0
 10
493.342769854
 20
36.5244580247
 30
0.0
 10
493.6097036107
 20
37.3419223022
 30
0.0
 10
493.6873605176
 20
37.8639405831
 30
0.0
 10
493.6873605176
 20
38.0988770051
 30
0.0
  0
SPLINE
  5
5FF
100
AcDbEntity
  8
KONSTRUKTIONSELEMENTE
100
AcDbSpline
 62
7
  6
CONTINUOUS
 70
0
 71
3
 72
9
 73
5
 74
0
 42
0.0000001
 43
0.0000001
 44
0.0000000001
 40
0.0
 40
0.0
 40
0.0
 40
0.0
 40
0.2763905897
 40
1.0
 40
1.0
 40
1.0
 40
1.0
 10
493.6873605176
 20
24.4188770051
 30
0.0
 10
493.6873605176
 20
24.4769234609
 30
0.0
 10
493.6792827248
 20
24.686488787
 30
0.0
 10
493.63490567
 20
24.8973454545
 30
0.0
 10
493.5724002447
 20
25.0358655788
 30
0.0
  0
SPLINE
  5
600
100
AcDbEntity
  8
KONSTRUKTIONSELEMENTE
100
AcDbSpline
 62
7
  6
CONTINUOUS
 70
0
 71
3
 72
9
 73
5
 74
0
 42
0.0000001
 43
0.0000001
 44
0.0000000001
 40
0.0
 40
0.0
 40
0.0
 40
0.0
 40
0.5486311305
 40
1.0
 40
1.0
 40
1.0
 40
1.0
 10
493.6873605176
 20
22.8188770051
 30
0.0
 10
493.6873605176
 20
23.0020810488
 30
0.0
 10
493.6510774993
 20
23.3413645463
 30
0.0
 10
493.4653496793
 20
23.639267691
 30
0.0
 10
493.3513703001
 20
23.7378923475
 30
0.0
  0
SPLINE
  5
601
100
AcDbEntity
  8
KONSTRUKTIONSELEMENTE
100
AcDbSpline
 62
7
  6
CONTINUOUS
 70
0
 71
3
 72
9
 73
5
 74
0
 42
0.0000001
 43
0.0000001
 44
0.0000000001
 40
0.0
 40
0.0
 40
0.0
 40
0.0
 40
0.5484587228
 40
1.0
 40
1.0
 40
1.0
 40
1.0
 10
471.0599435196
 20
7.6229590628
 30
0.0
 10
471.0599435196
 20
7.5543118204
 30
0.0
 10
471.0735931859
 20
7.4271686281
 30
0.0
 10
471.1430904989
 20
7.3154395945
 30
0.0
 10
471.185813468
 20
7.2784411825
 30
0.0
  0
SPLINE
  5
602
100
AcDbEntity
  8
0
100
AcDbSpline
 62
7
  6
CONTINUOUS
 70
0
 71
3
 72
13
 73
9
 74
0
 42
0.0000001
 43
0.0000001
 44
0.0000000001
 40
0.0
 40
0.0
 40
0.0
 40
0.0
 40
0.1115234887
 40
0.2248441982
 40
0.3415620539
 40
0.4628541975
 40
0.7209203075
 40
1.0
 40
1.0
 40
1.0
 40
1.0
 10
660.4500514559
 20
270.8594009494
 30
0.0
 10
660.4500514559
 20
271.9666985563
 30
0.0
 10
660.6267197368
 20
274.203046015
 30
0.0
 10
661.4215728855
 20
277.5131802097
 30
0.0
 10
662.7504144268
 20
280.7533449549
 30
0.0
 10
665.2825709555
 20
284.9966803503
 30
0.0
 10
669.8324327218
 20
289.8136747491
 30
0.0
 10
674.4308089284
 20
292.6398061851
 30
0.0
 10
676.9447648948
 20
293.8051829774
 30
0.0
  0
SPLINE
  5
603
100
AcDbEntity
  8
0
100
AcDbSpline
 62
7
  6
CONTINUOUS
 70
0
 71
3
 72
13
 73
9
 74
0
 42
0.0000001
 43
0.0000001
 44
0.0000000001
 40
0.0
 40
0.0
 40
0.0
 40
0.0
 40
0.2790796225
 40
0.5371457718
 40
0.6584379261
 40
0.7751558133
 40
0.8884765658
 40
1.0
 40
1.0
 40
1.0
 40
1.0
 10
708.9563893782
 20
293.8046974762
 30
0.0
 10
711.4702125991
 20
292.6392910252
 30
0.0
 10
716.0683145639
 20
289.8131157527
 30
0.0
 10
720.6178823562
 20
284.9962054481
 30
0.0
 10
723.1498611298
 20
280.7529864173
 30
0.0
 10
724.4786048502
 20
277.5129281929
 30
0.0
 10
725.273396992
 20
274.2029156115
 30
0.0
 10
725.4500514559
 20
271.9666551507
 30
0.0
 10
725.4500514559
 20
270.8594009494
 30
0.0
  0
SPLINE
  5
604
100
AcDbEntity
  8
0
100
AcDbSpline
 62
7
  6
CONTINUOUS
 70
0
 71
3
 72
16
 73
12
 74
0
 42
0.0000001
 43
0.0000001
 44
0.0000000001
 40
0.0
 40
0.0
 40
0.0
 40
0.0
 40
0.1211376919
 40
0.2427477597
 40
0.3652722834
 40
0.4890811196
 40
0.614431466
 40
0.7414301424
 40
0.8055784859
 40
0.870096552
 40
1.0
 40
1.0
 40
1.0
 40
1.0
 10
634.4500514559
 20
270.8594009494
 30
0.0
 10
634.4500514559
 20
273.7241584848
 30
0.0
 10
634.9772543905
 20
279.4784563568
 30
0.0
 10
637.3194239997
 20
287.8393889384
 30
0.0
 10
641.1312693664
 20
295.7117053518
 30
0.0
 10
646.2876024905
 20
302.8821827298
 30
0.0
 10
652.6300179213
 20
309.1746243662
 30
0.0
 10
658.7394598824
 20
313.5551089951
 30
0.0
 10
664.0281617853
 20
316.4956345167
 30
0.0
 10
669.5845938152
 20
319.0587648614
 30
0.0
 10
673.9685558777
 20
320.5150072371
 30
0.0
 10
676.9460923968
 20
321.2711883221
 30
0.0
  0
SPLINE
  5
605
100
AcDbEntity
  8
0
100
AcDbSpline
 62
7
  6
CONTINUOUS
 70
0
 71
3
 72
16
 73
12
 74
0
 42
0.0000001
 43
0.0000001
 44
0.0000000001
 40
0.0
 40
0.0
 40
0.0
 40
0.0
 40
0.129903499
 40
0.1944214753
 40
0.2585696682
 40
0.3855680107
 40
0.5109181522
 40
0.6347265453
 40
0.7572509455
 40
0.878861524
 40
1.0
 40
1.0
 40
1.0
 40
1.0
 10
708.9547671487
 20
321.2709922269
 30
0.0
 10
711.93226306
 20
320.514783406
 30
0.0
 10
716.3161600665
 20
319.0585106242
 30
0.0
 10
721.8725011374
 20
316.4953539554
 30
0.0
 10
727.1611011815
 20
313.554809908
 30
0.0
 10
733.270421921
 20
309.1743283584
 30
0.0
 10
739.6127111595
 20
302.881932662
 30
0.0
 10
744.7689348295
 20
295.7115197076
 30
0.0
 10
748.5807144371
 20
287.8392812257
 30
0.0
 10
750.9228543336
 20
279.47841085
 30
0.0
 10
751.4500514559
 20
273.7241455667
 30
0.0
 10
751.4500514559
 20
270.8594009494
 30
0.0
  0
SPLINE
  5
606
100
AcDbEntity
  8
0
100
AcDbSpline
 62
7
  6
CONTINUOUS
 70
0
 71
3
 72
17
 73
13
 74
0
 42
0.0000001
 43
0.0000001
 44
0.0000000001
 40
0.0
 40
0.0
 40
0.0
 40
0.0
 40
0.1207979236
 40
0.242128883
 40
0.3644857362
 40
0.4262416124
 40
0.4883916101
 40
0.6138552082
 40
0.7410635101
 40
0.8053335872
 40
0.869964693
 40
1.0
 40
1.0
 40
1.0
 40
1.0
 10
751.4500514559
 20
205.9074956656
 30
0.0
 10
751.4500514559
 20
202.8596330639
 30
0.0
 10
750.8524344763
 20
196.7338862805
 30
0.0
 10
748.2034339559
 20
187.872541981
 30
0.0
 10
744.6279745058
 20
180.990816416
 30
0.0
 10
741.0367079917
 20
175.9118415538
 30
0.0
 10
736.9567534769
 20
171.1123246185
 30
0.0
 10
731.0320210649
 20
165.7590147516
 30
0.0
 10
724.255861462
 20
161.4421765659
 30
0.0
 10
718.4234238654
 20
158.6462015019
 30
0.0
 10
712.3229939546
 20
156.2939573479
 30
0.0
 10
707.5402595661
 20
155.0682582117
 30
0.0
 10
704.3093894015
 20
154.4973015825
 30
0.0
  0
SPLINE
  5
607
100
AcDbEntity
  8
0
100
AcDbSpline
 62
7
  6
CONTINUOUS
 70
0
 71
3
 72
12
 73
8
 74
0
 42
0.0000001
 43
0.0000001
 44
0.0000000001
 40
0.0
 40
0.0
 40
0.0
 40
0.0
 40
0.2540880746
 40
0.5058101728
 40
0.6306553068
 40
0.7546840764
 40
1.0
 40
1.0
 40
1.0
 40
1.0
 10
681.5942582367
 20
154.4966762709
 30
0.0
 10
678.4102018871
 20
155.0591583
 30
0.0
 10
672.1455949505
 20
156.6563423952
 30
0.0
 10
664.7325312674
 20
159.8180397368
 30
0.0
 10
659.2056526953
 20
162.9987572833
 30
0.0
 10
654.0214426125
 20
166.5666842864
 30
0.0
 10
650.4846714558
 20
169.7061507133
 30
0.0
 10
648.3376446257
 20
171.9723076254
 30
0.0
  0
SPLINE
  5
608
100
AcDbEntity
  8
0
100
AcDbSpline
 62
7
  6
CONTINUOUS
 70
0
 71
3
 72
11
 73
7
 74
0
 42
0.0000001
 43
0.0000001
 44
0.0000000001
 40
0.0
 40
0.0
 40
0.0
 40
0.0
 40
0.252463789
 40
0.5028553177
 40
0.7517979874
 40
1.0
 40
1.0
 40
1.0
 40
1.0
 10
643.7321092191
 20
177.5442702722
 30
0.0
 10
642.2461058441
 20
179.6166389111
 30
0.0
 10
639.5861469407
 20
183.9700652051
 30
0.0
 10
636.6485080521
 20
191.0045308976
 30
0.0
 10
634.8529241689
 20
198.3698321005
 30
0.0
 10
634.4500514559
 20
203.400461022
 30
0.0
 10
634.4500514559
 20
205.9074956656
 30
0.0
  0
SPLINE
  5
609
100
AcDbEntity
  8
0
100
AcDbSpline
 62
7
  6
CONTINUOUS
 70
0
 71
3
 72
15
 73
11
 74
0
 42
0.0000001
 43
0.0000001
 44
0.0000000001
 40
0.0
 40
0.0
 40
0.0
 40
0.0
 40
0.1085890968
 40
0.2195881203
 40
0.3350378347
 40
0.4562518844
 40
0.5837767997
 40
0.7174526048
 40
0.8565646408
 40
1.0
 40
1.0
 40
1.0
 40
1.0
 10
725.4500514559
 20
205.9074956656
 30
0.0
 10
725.4500514559
 20
204.5974335915
 30
0.0
 10
725.2014188818
 20
201.9418207038
 30
0.0
 10
724.0835110883
 20
198.0351426771
 30
0.0
 10
722.2174054905
 20
194.2541844213
 30
0.0
 10
719.6125758019
 20
190.6901343512
 30
0.0
 10
716.3039132939
 20
187.4466212194
 30
0.0
 10
712.3562597119
 20
184.6318151258
 30
0.0
 10
707.8659521761
 20
182.3463601532
 30
0.0
 10
704.6264213947
 20
181.2437893343
 30
0.0
 10
702.9539400748
 20
180.7996020206
 30
0.0
  0
SPLINE
  5
60A
100
AcDbEntity
  8
0
100
AcDbSpline
 62
7
  6
CONTINUOUS
 70
0
 71
3
 72
9
 73
5
 74
0
 42
0.0000001
 43
0.0000001
 44
0.0000000001
 40
0.0
 40
0.0
 40
0.0
 40
0.0
 40
0.5156635548
 40
1.0
 40
1.0
 40
1.0
 40
1.0
 10
682.9468681925
 20
180.7994117942
 30
0.0
 10
680.1480461443
 20
181.542685593
 30
0.0
 10
674.8635195351
 20
183.6125908387
 30
0.0
 10
670.2383008738
 20
186.9227090876
 30
0.0
 10
668.2673389601
 20
188.7970675459
 30
0.0
  0
SPLINE
  5
60B
100
AcDbEntity
  8
0
100
AcDbSpline
 62
7
  6
CONTINUOUS
 70
0
 71
3
 72
11
 73
7
 74
0
 42
0.0000001
 43
0.0000001
 44
0.0000000001
 40
0.0
 40
0.0
 40
0.0
 40
0.0
 40
0.2593958728
 40
0.5109874366
 40
0.7569832884
 40
1.0
 40
1.0
 40
1.0
 40
1.0
 10
663.5674517278
 20
194.6897724514
 30
0.0
 10
663.0545717043
 20
195.5689660304
 30
0.0
 10
662.1505358839
 20
197.3658930721
 30
0.0
 10
661.168207996
 20
200.1779354903
 30
0.0
 10
660.5806530351
 20
203.0325848545
 30
0.0
 10
660.4500514559
 20
204.95391229
 30
0.0
 10
660.4500514559
 20
205.9074956656
 30
0.0
  0
ELLIPSE
  5
60C
100
AcDbEntity
  8
KONSTRUKTIONSELEMENTE
100
AcDbEllipse
 62
7
  6
CONTINUOUS
 10
31.5477767264
 20
110.9437886548
 30
0.0
 11
2.4038349372
 21
-0.6359915542
 31
0.0
 40
0.0501436764
 41
-2.5950501555
 42
-1.191701908
  0
ELLIPSE
  5
60D
100
AcDbEntity
  8
KONSTRUKTIONSELEMENTE
100
AcDbEllipse
 62
7
  6
CONTINUOUS
 10
39.1905241094
 20
106.4954548847
 30
0.0
 11
-1.2408929864
 21
2.4502885391
 31
0.0
 40
0.7635480741
 41
4.1339676405
 42
5.7047639673
  0
ELLIPSE
  5
60E
100
AcDbEntity
  8
0
100
AcDbEllipse
 62
7
  6
CONTINUOUS
 10
420.5489325437
 20
38.9214308086
 30
0.0
 11
-48.4974226119
 21
84.0
 31
0.0
 40
0.5773502692
 41
-0.3754229971
 42
-0.1577968958
  0
ELLIPSE
  5
60F
100
AcDbEntity
  8
0
100
AcDbEllipse
 62
7
  6
CONTINUOUS
 10
420.5489325437
 20
38.9214308086
 30
0.0
 11
-48.4974226119
 21
84.0
 31
0.0
 40
0.5773502692
 41
0.1577968958
 42
0.3754229971
  0
ELLIPSE
  5
610
100
AcDbEntity
  8
KONSTRUKTIONSELEMENTE
100
AcDbEllipse
 62
7
  6
CONTINUOUS
 10
50.2300335515
 20
38.9214308086
 30
0.0
 11
48.4974226119
 21
84.0
 31
0.0
 40
0.5773502692
 41
-0.3754229971
 42
-0.1577968958
  0
ELLIPSE
  5
611
100
AcDbEntity
  8
KONSTRUKTIONSELEMENTE
100
AcDbEllipse
 62
7
  6
CONTINUOUS
 10
50.2300335515
 20
38.9214308086
 30
0.0
 11
48.4974226119
 21
84.0
 31
0.0
 40
0.5773502692
 41
0.1577968958
 42
0.3754229971
  0
ELLIPSE
  5
612
100
AcDbEntity
  8
KONSTRUKTIONSELEMENTE
100
AcDbEllipse
 62
7
  6
CONTINUOUS
 10
766.2100514559
 20
38.9214308086
 30
0.0
 11
-54.5019434102
 21
88.1859968906
 31
0.0
 40
0.1458980338
 41
0.5856606993
 42
0.6072468016
  0
ELLIPSE
  5
613
100
AcDbEntity
  8
0
100
AcDbEllipse
 62
7
  6
CONTINUOUS
 10
619.6900514559
 20
38.9214308086
 30
0.0
 11
54.5019434102
 21
88.1859968906
 31
0.0
 40
0.1458980338
 41
-0.6072468016
 42
-0.5856606993
  0
ELLIPSE
  5
614
100
AcDbEntity
  8
RUNDUNGEN
100
AcDbEllipse
 62
7
  6
CONTINUOUS
 10
688.5987140234
 20
142.6820943697
 30
0.0
 11
8.2036037258
 21
-6.516670099
 31
0.0
 40
0.9544778986
 41
0.6487319875
 42
0.7394683236
  0
ELLIPSE
  5
615
100
AcDbEntity
  8
0
100
AcDbEllipse
 62
7
  6
CONTINUOUS
 10
697.3013888885
 20
142.6820943697
 30
0.0
 11
-8.2036037258
 21
-6.516670099
 31
0.0
 40
0.9544778986
 41
-0.7394683236
 42
-0.6487319875
  0
ELLIPSE
  5
616
100
AcDbEntity
  8
0
100
AcDbEllipse
 62
7
  6
CONTINUOUS
 10
683.9178441991
 20
143.2755324237
 30
0.0
 11
0.8455842962
 21
-5.9853056021
 31
0.0
 40
0.4962991648
 41
0.4535978239
 42
1.2934712985
  0
ELLIPSE
  5
617
100
AcDbEntity
  8
RUNDUNGEN
100
AcDbEllipse
 62
7
  6
CONTINUOUS
 10
701.9822587128
 20
143.2755324237
 30
0.0
 11
0.8455842962
 21
5.9853056021
 31
0.0
 40
0.4962991648
 41
-4.4350639521
 42
-3.5951904775
  0
ELLIPSE
  5
618
100
AcDbEntity
  8
KONSTRUKTIONSELEMENTE
100
AcDbEllipse
 62
7
  6
CONTINUOUS
 10
553.1632155865
 20
114.4955487818
 30
0.0
 11
-0.2422125455
 21
3.33151288
 31
0.0
 40
0.1849816022
 41
1.560109889
 42
2.9583930575
  0
ELLIPSE
  5
619
100
AcDbEntity
  8
KONSTRUKTIONSELEMENTE
100
AcDbEllipse
 62
7
  6
CONTINUOUS
 10
553.1322192286
 20
109.5573170631
 30
0.0
 11
2.2194852253
 21
2.5678289224
 31
0.0
 40
0.2500030374
 41
-1.5674289045
 42
-1.156926606
  0
ELLIPSE
  5
61A
100
AcDbEntity
  8
KONSTRUKTIONSELEMENTE
100
AcDbEllipse
 62
7
  6
CONTINUOUS
 10
557.2644349174
 20
110.9437886548
 30
0.0
 11
3.328609446
 21
0.2420014558
 31
0.0
 40
0.1803680139
 41
1.921481318
 42
3.3197644865
  0
ELLIPSE
  5
61B
100
AcDbEntity
  8
KONSTRUKTIONSELEMENTE
100
AcDbEllipse
 62
7
  6
CONTINUOUS
 10
556.6677531345
 20
106.4954548847
 30
0.0
 11
2.2194852253
 21
2.5678289224
 31
0.0
 40
0.2500030374
 41
-1.5674289045
 42
0.0033674223
  0
ENDSEC
  0
SECTION
  2
OBJECTS
  0
DICTIONARY
  5
C
100
AcDbDictionary
280
0
281
1
  3
ACAD_GROUP
350
D
  3
ACAD_MLINESTYLE
350
17
  3
ACAD_LAYOUT
350
1A
  3
ACAD_PLOTSETTINGS
350
19
  3
ACAD_PLOTSTYLENAME
350
E
  0
DICTIONARY
  5
D
102
{ACAD_REACTORS
330
C
102
}
100
AcDbDictionary
280
0
281
1
  0
ACDBDICTIONARYWDFLT
  5
E
102
{ACAD_REACTORS
330
C
102
}
100
AcDbDictionary
281
1
  3
Normal
350
F
100
AcDbDictionaryWithDefault
340
F
  0
DICTIONARY
  5
17
102
{ACAD_REACTORS
330
C
102
}
100
AcDbDictionary
280
0
281
1
  3
Standard
350
18
  0
DICTIONARY
  5
19
102
{ACAD_REACTORS
330
C
102
}
100
AcDbDictionary
281
1
  0
DICTIONARY
  5
1A
102
{ACAD_REACTORS
330
C
102
}
100
AcDbDictionary
281
1
  3
Model
350
61C
  3
Layout1
350
61D
  0
ACDBPLACEHOLDER
  5
F
102
{ACAD_REACTORS
330
E
102
}
  0
MLINESTYLE
  5
18
102
{ACAD_REACTORS
330
17
102
}
100
AcDbMlineStyle
  2
STANDARD
 70
0
  3

 62
256
 51
90.0
 52
90.0
 71
2
 49
0.5
 62
256
  6
BYLAYER
 49
-0.5
 62
256
  6
BYLAYER
  0
LAYOUT
  5
61C
102
{ACAD_REACTORS
330
1A
102
}
100
AcDbPlotSettings
  1

  2
none_device
  4
ISO_A1_(594.00_x_841.00_MM)
  6

 40
0.0
 41
0.0
 42
0.0
 43
0.0
 44
841.0
 45
594.0
 46
0.0
 47
0.0
 48
0.0
 49
0.0
140
0.0
141
0.0
142
1.0
143
1.0
 70
1024
 72
1
 73
0
 74
0
  7

 75
0
147
1.0
148
0.0
149
0.0
100
AcDbLayout
  1
Model
 70
0
 71
0
 10
0.0
 20
0.0
 11
841.0
 21
594.0
 12
0.0
 22
0.0
 32
0.0
 14
0.0
 24
0.0
 34
0.0
 15
0.0
 25
0.0
 35
0.0
146
0.0
 13
0.0
 23
0.0
 33
0.0
 16
1.0
 26
0.0
 36
0.0
 17
0.0
 27
1.0
 37
0.0
 76
0
330
20D
345
0
346
0
  0
LAYOUT
  5
61D
102
{ACAD_REACTORS
330
1A
102
}
100
AcDbPlotSettings
  1

  2
none_device
  4
ISO_A1_(594.00_x_841.00_MM)
  6

 40
0.0
 41
0.0
 42
0.0
 43
0.0
 44
841.0
 45
594.0
 46
0.0
 47
0.0
 48
0.0
 49
0.0
140
0.0
141
0.0
142
1.0
143
1.0
 70
0
 72
1
 73
0
 74
0
  7

 75
0
147
1.0
148
0.0
149
0.0
100
AcDbLayout
  1
Layout1
 70
0
 71
1
 10
0.0
 20
0.0
 11
841.0
 21
594.0
 12
0.0
 22
0.0
 32
0.0
 14
0.0
 24
0.0
 34
0.0
 15
0.0
 25
0.0
 35
0.0
146
0.0
 13
0.0
 23
0.0
 33
0.0
 16
1.0
 26
0.0
 36
0.0
 17
0.0
 27
1.0
 37
0.0
 76
0
330
20E
345
0
346
0
  0
ENDSEC
  0
EOF
