999
DXF file: VSAK-2-13_250_7994080_M32395-P-2.dxf
999
Pro/ENGINEER 2010140 by Parametric Technology Corporation
  0
SECTION
  2
HEADER
  9
$ACADVER
  1
AC1015
  9
$DWGCODEPAGE
  3
ANSI_1252
  9
$EXTMAX
 10
1189.0
 20
841.0
 30
0.0
  9
$EXTMIN
 10
0.0
 20
0.0
 30
0.0
  9
$LIMMIN
 10
0.0
 20
0.0
  9
$LIMMAX
 10
1189.0
 20
841.0
  9
$VIEWCTR
 10
594.5
 20
420.5
  9
$VIEWSIZE
 40
841.0
  9
$CLAYER
  8
0
  9
$LTSCALE
 40
65.395
  9
$CELTYPE
  6
BYLAYER
  9
$DIMSCALE
 40
1.0
  9
$DIMASZ
 40
3.5
  9
$DIMEXO
 40
7.43125
  9
$DIMDLI
 40
45.182
  9
$DIMEXE
 40
21.402
  9
$DIMCEN
 40
10.701
  9
$DIMLFAC
 40
1.0
  9
$DIMBLK
  1
_FILLED
  9
$DIMTXT
 40
3.5
  9
$DIMTOL
 70
1
  9
$DIMLIM
 70
0
  9
$DIMTFAC
 40
1.0
  9
$DIMTP
 40
0.005
  9
$DIMTM
 40
0.005
  9
$PDMODE
 70
3
  9
$PDSIZE
 40
0.3125
  9
$HANDSEED
  5
645
  9
$TILEMODE
 70
1
  9
$MEASUREMENT
 70
1
  9
$INSUNITS
 70
4
  0
ENDSEC
  0
SECTION
  2
CLASSES
  0
CLASS
  1
ACDBDICTIONARYWDFLT
  2
AcDbDictionaryWithDefault
  3
AutoCAD 2000
 90
0
280
0
281
0
  0
CLASS
  1
ACDBPLACEHOLDER
  2
AcDbPlaceHolder
  3
AutoCAD 2000
 90
0
280
0
281
0
  0
CLASS
  1
LAYOUT
  2
AcDbLayout
  3
AutoCAD 2000
 90
0
280
0
281
0
  0
ENDSEC
  0
SECTION
  2
TABLES
  0
TABLE
  2
VPORT
  5
8
100
AcDbSymbolTable
 70
2
  0
VPORT
  5
1F4
100
AcDbSymbolTableRecord
100
AcDbViewportTableRecord
  2
*ACTIVE
 70
0
 10
0.0
 20
0.0
 11
1.0
 21
1.0
 12
594.5
 22
420.5
 13
0.0
 23
0.0
 14
1.0
 24
1.0
 15
0.0
 25
0.0
 16
0.0
 26
0.0
 36
1.0
 17
0.0
 27
0.0
 37
0.0
 40
841.0
 41
1.4137931034
 42
50.0
 43
0.0
 44
0.0
 50
0.0
 51
0.0
 71
0
 72
100
 73
1
 74
1
 75
0
 76
0
 77
0
 78
0
  0
ENDTAB
  0
TABLE
  2
LTYPE
  5
5
100
AcDbSymbolTable
 70
6
  0
LTYPE
  5
14
100
AcDbSymbolTableRecord
100
AcDbLinetypeTableRecord
  2
BYBLOCK
 70
0
  3

 72
65
 73
0
 40
0.0
  0
LTYPE
  5
15
100
AcDbSymbolTableRecord
100
AcDbLinetypeTableRecord
  2
BYLAYER
 70
0
  3

 72
65
 73
0
 40
0.0
  0
LTYPE
  5
16
100
AcDbSymbolTableRecord
100
AcDbLinetypeTableRecord
  2
CONTINUOUS
 70
64
  3
Solid line
 72
65
 73
0
 40
0.0
  0
LTYPE
  5
1F5
100
AcDbSymbolTableRecord
100
AcDbLinetypeTableRecord
  2
CENTER
 70
64
  3
____ _ ____ _ ____ _ ____ _ ____ _ ____ _ ____
 72
65
 73
4
 40
0.6
 49
0.375
 74
0
 49
-0.075
 74
0
 49
0.075
 74
0
 49
-0.075
 74
0
  0
LTYPE
  5
1F6
100
AcDbSymbolTableRecord
100
AcDbLinetypeTableRecord
  2
HIDDEN
 70
64
  3
- - - - - - - - - - - - - - - - - - - -
 72
65
 73
2
 40
0.2
 49
0.1
 74
0
 49
-0.1
 74
0
  0
LTYPE
  5
1F7
100
AcDbSymbolTableRecord
100
AcDbLinetypeTableRecord
  2
PHANTOM
 70
64
  3
_____ _ _ _____ _ _ _____ _ _ _____
 72
65
 73
6
 40
0.8
 49
0.45
 74
0
 49
-0.05
 74
0
 49
0.1
 74
0
 49
-0.05
 74
0
 49
0.1
 74
0
 49
-0.05
 74
0
  0
LTYPE
  5
1F8
100
AcDbSymbolTableRecord
100
AcDbLinetypeTableRecord
  2
DOT
 70
64
  3
. . . . . . . . . . . . . . . . . . . .
 72
65
 73
2
 40
0.2
 49
0.1
 74
0
 49
-0.1
 74
0
  0
LTYPE
  5
1F9
100
AcDbSymbolTableRecord
100
AcDbLinetypeTableRecord
  2
DASHED
 70
64
  3
- - - - - - - - - - - - - - - - - - - -
 72
65
 73
2
 40
0.2
 49
0.1
 74
0
 49
-0.1
 74
0
  0
ENDTAB
  0
TABLE
  2
LAYER
  5
2
100
AcDbSymbolTable
 70
36
  0
LAYER
  5
10
100
AcDbSymbolTableRecord
100
AcDbLayerTableRecord
  2
0
 70
0
 62
7
  6
CONTINUOUS
370
-3
390
F
  0
LAYER
  5
1FA
100
AcDbSymbolTableRecord
100
AcDbLayerTableRecord
  2
DEFAULT_1
 70
0
 62
7
  6
CENTER
370
-3
390
F
  0
LAYER
  5
1FB
100
AcDbSymbolTableRecord
100
AcDbLayerTableRecord
  2
DEFAULT_2
 70
0
 62
8
  6
HIDDEN
370
-3
390
F
  0
LAYER
  5
1FC
100
AcDbSymbolTableRecord
100
AcDbLayerTableRecord
  2
DEFAULT_3
 70
0
 62
7
  6
PHANTOM
370
-3
390
F
  0
LAYER
  5
1FD
100
AcDbSymbolTableRecord
100
AcDbLayerTableRecord
  2
AUSFORMSCHRAEGEN
 70
0
 62
7
  6
CONTINUOUS
370
-3
390
F
  0
LAYER
  5
1FE
100
AcDbSymbolTableRecord
100
AcDbLayerTableRecord
  2
BEZUGSACHSEN
 70
0
 62
7
  6
CONTINUOUS
370
-3
390
F
  0
LAYER
  5
1FF
100
AcDbSymbolTableRecord
100
AcDbLayerTableRecord
  2
BEZUGSEBENEN
 70
0
 62
7
  6
CONTINUOUS
370
-3
390
F
  0
LAYER
  5
200
100
AcDbSymbolTableRecord
100
AcDbLayerTableRecord
  2
BG_STARTBEZUEGE
 70
0
 62
7
  6
CONTINUOUS
370
-3
390
F
  0
LAYER
  5
201
100
AcDbSymbolTableRecord
100
AcDbLayerTableRecord
  2
FASEN
 70
0
 62
7
  6
CONTINUOUS
370
-3
390
F
  0
LAYER
  5
202
100
AcDbSymbolTableRecord
100
AcDbLayerTableRecord
  2
HILFEN
 70
0
 62
7
  6
CONTINUOUS
370
-3
390
F
  0
LAYER
  5
203
100
AcDbSymbolTableRecord
100
AcDbLayerTableRecord
  2
KONSTRUKTIONSELEMENTE
 70
0
 62
7
  6
CONTINUOUS
370
-3
390
F
  0
LAYER
  5
204
100
AcDbSymbolTableRecord
100
AcDbLayerTableRecord
  2
NORM
 70
0
 62
7
  6
CONTINUOUS
370
-3
390
F
  0
LAYER
  5
205
100
AcDbSymbolTableRecord
100
AcDbLayerTableRecord
  2
PLATZIERUNG
 70
0
 62
7
  6
CONTINUOUS
370
-3
390
F
  0
LAYER
  5
206
100
AcDbSymbolTableRecord
100
AcDbLayerTableRecord
  2
PLAZIERUNG
 70
0
 62
7
  6
CONTINUOUS
370
-3
390
F
  0
LAYER
  5
207
100
AcDbSymbolTableRecord
100
AcDbLayerTableRecord
  2
RUNDUNGEN
 70
0
 62
7
  6
CONTINUOUS
370
-3
390
F
  0
LAYER
  5
208
100
AcDbSymbolTableRecord
100
AcDbLayerTableRecord
  2
TEIL_STARTBEZUEGE
 70
0
 62
7
  6
CONTINUOUS
370
-3
390
F
  0
LAYER
  5
209
100
AcDbSymbolTableRecord
100
AcDbLayerTableRecord
  2
T_STARTBEZUEGE
 70
0
 62
7
  6
CONTINUOUS
370
-3
390
F
  0
ENDTAB
  0
TABLE
  2
STYLE
  5
3
100
AcDbSymbolTable
 70
1
  0
STYLE
  5
11
100
AcDbSymbolTableRecord
100
AcDbTextStyleTableRecord
  2
STANDARD
 70
0
 40
0.0
 41
0.7
 50
0.0
 71
0
 42
0.2
  3
txt
  4

  0
STYLE
  5
20A
100
AcDbSymbolTableRecord
100
AcDbTextStyleTableRecord
  2
TEXTSTYLE_1
 70
0
 40
0.0
 41
0.8
 50
0.0
 71
0
 42
0.2
  3
gdt
  4

  0
ENDTAB
  0
TABLE
  2
VIEW
  5
6
100
AcDbSymbolTable
 70
0
  0
ENDTAB
  0
TABLE
  2
UCS
  5
7
100
AcDbSymbolTable
 70
0
  0
ENDTAB
  0
TABLE
  2
APPID
  5
9
100
AcDbSymbolTable
 70
1
  0
APPID
  5
20B
100
AcDbSymbolTableRecord
100
AcDbRegAppTableRecord
  2
ACAD
 70
0
  0
ENDTAB
  0
TABLE
  2
BLOCK_RECORD
  5
1
100
AcDbSymbolTable
 70
0
  0
BLOCK_RECORD
  5
20C
100
AcDbSymbolTableRecord
100
AcDbBlockTableRecord
  2
*Model_Space
  0
BLOCK_RECORD
  5
20D
100
AcDbSymbolTableRecord
100
AcDbBlockTableRecord
  2
*Paper_Space
  0
ENDTAB
  0
TABLE
  2
DIMSTYLE
  5
A
100
AcDbSymbolTable
 70
1
100
AcDbDimStyleTable
 71
0
  0
DIMSTYLE
105
20E
100
AcDbSymbolTableRecord
100
AcDbDimStyleTableRecord
  2
STANDARD
 70
0
  3

  4

 40
1.0
 41
3.5
 42
0.0625
 43
0.38
 44
0.18
 45
0.0
 46
0.0
 47
0.005
 48
0.005
140
3.5
141
0.09
142
0.0
143
25.4
144
1.0
145
0.0
146
1.0
147
0.09
 71
1.0
 72
0.0
 73
0
 74
0
 75
0
 76
0
 77
1
 78
8
170
0
171
2
172
0
173
0
174
0
175
0
176
0
177
0
178
5
270
2
271
3
272
3
273
2
274
2
275
0
280
0
281
0
282
0
283
1
284
8
285
0
286
0
287
3
288
0
340
11
  0
ENDTAB
  0
ENDSEC
  0
SECTION
  2
BLOCKS
  0
BLOCK
  5
20
100
AcDbEntity
  8
0
100
AcDbBlockBegin
  2
*Model_Space
 70
0
 10
0.0
 20
0.0
 30
0.0
  3
*Model_Space
  1

  0
ENDBLK
  5
21
100
AcDbEntity
  8
0
100
AcDbBlockEnd
  0
BLOCK
  5
1C
100
AcDbEntity
  8
0
100
AcDbBlockBegin
  2
*Paper_Space
 70
0
 10
0.0
 20
0.0
 30
0.0
  3
*Paper_Space
  1

  0
ENDBLK
  5
1D
100
AcDbEntity
  8
0
100
AcDbBlockEnd
  0
ENDSEC
  0
SECTION
  2
ENTITIES
  0
MTEXT
  5
20F
100
AcDbEntity
  8
0
100
AcDbMText
 62
5
  6
CONTINUOUS
  7
STANDARD
 71
1
 72
1
 10
148.9050392992
 20
496.9189075385
 30
0.0
 11
0.0
 21
1.0
 31
0.0
 44
0.9
  1
RUD
 40
8.0
 41
21.3333333333
  0
MTEXT
  5
210
100
AcDbEntity
  8
0
100
AcDbMText
 62
5
  6
CONTINUOUS
  7
STANDARD
 71
1
 72
1
 10
434.4322322092
 20
468.9213749374
 30
0.0
 11
0.0
 21
1.0
 31
0.0
 44
0.9
  1
VSAK 2-13/250
 40
8.0
 41
80.5714285714
  0
MTEXT
  5
211
100
AcDbEntity
  8
0
100
AcDbMText
 62
5
  6
CONTINUOUS
  7
STANDARD
 71
1
 72
1
 10
780.0740919959
 20
460.6386556763
 30
0.0
 11
0.0
 21
1.0
 31
0.0
 44
0.9
  1
RUD VSAK 2-13/250
 40
8.0
 41
106.6666666667
  0
LINE
  5
212
100
AcDbEntity
  8
0
100
AcDbLine
 62
7
  6
CONTINUOUS
 10
0.0
 20
0.0
 11
0.0
 21
841.0
  0
LINE
  5
213
100
AcDbEntity
  8
0
100
AcDbLine
 62
7
  6
CONTINUOUS
 10
0.0
 20
0.0
 11
1189.0
 21
0.0
  0
LINE
  5
214
100
AcDbEntity
  8
0
100
AcDbLine
 62
7
  6
CONTINUOUS
 10
0.0
 20
841.0
 11
1189.0
 21
841.0
  0
LINE
  5
215
100
AcDbEntity
  8
0
100
AcDbLine
 62
7
  6
CONTINUOUS
 10
1189.0
 20
0.0
 11
1189.0
 21
841.0
  0
LINE
  5
216
100
AcDbEntity
  8
KONSTRUKTIONSELEMENTE
100
AcDbLine
 62
7
  6
CONTINUOUS
 10
84.7713256597
 20
53.2885701853
 11
95.0164061864
 21
47.3735701853
  0
LINE
  5
217
100
AcDbEntity
  8
KONSTRUKTIONSELEMENTE
100
AcDbLine
 62
7
  6
CONTINUOUS
 10
84.4382188511
 20
54.0116122685
 11
85.0011353635
 21
53.6866122685
  0
LINE
  5
218
100
AcDbEntity
  8
KONSTRUKTIONSELEMENTE
100
AcDbLine
 62
7
  6
CONTINUOUS
 10
95.2462158903
 20
47.7716122685
 11
95.8091324028
 21
47.4466122685
  0
LINE
  5
219
100
AcDbEntity
  8
KONSTRUKTIONSELEMENTE
100
AcDbLine
 62
7
  6
CONTINUOUS
 10
89.4603817154
 20
71.8102535134
 11
88.0860977452
 21
72.6036967336
  0
LINE
  5
21A
100
AcDbEntity
  8
KONSTRUKTIONSELEMENTE
100
AcDbLine
 62
7
  6
CONTINUOUS
 10
108.7121264415
 20
60.6952535134
 11
124.5508190834
 21
51.550780053
  0
LINE
  5
21B
100
AcDbEntity
  8
KONSTRUKTIONSELEMENTE
100
AcDbLine
 62
7
  6
CONTINUOUS
 10
81.3764576692
 20
134.3796920631
 11
81.3964138367
 21
134.3719953329
  0
LINE
  5
21C
100
AcDbEntity
  8
KONSTRUKTIONSELEMENTE
100
AcDbLine
 62
7
  6
CONTINUOUS
 10
131.3771607555
 20
51.7722137125
 11
126.0074608212
 21
57.7882222057
  0
LINE
  5
21D
100
AcDbEntity
  8
KONSTRUKTIONSELEMENTE
100
AcDbLine
 62
7
  6
CONTINUOUS
 10
133.1449277085
 20
54.834075891
 11
127.7752277741
 21
60.8500843841
  0
LINE
  5
21E
100
AcDbEntity
  8
KONSTRUKTIONSELEMENTE
100
AcDbLine
 62
7
  6
CONTINUOUS
 10
82.1459064394
 20
121.440597728
 11
90.0407725911
 21
119.7983054207
  0
LINE
  5
21F
100
AcDbEntity
  8
KONSTRUKTIONSELEMENTE
100
AcDbLine
 62
7
  6
CONTINUOUS
 10
82.3757161433
 20
121.8386398112
 11
90.270582295
 21
120.1963475039
  0
LINE
  5
220
100
AcDbEntity
  8
KONSTRUKTIONSELEMENTE
100
AcDbLine
 62
7
  6
CONTINUOUS
 10
84.0791264368
 20
123.4520475773
 11
90.1521003996
 21
122.1887458024
  0
LINE
  5
221
100
AcDbEntity
  8
KONSTRUKTIONSELEMENTE
100
AcDbLine
 62
7
  6
CONTINUOUS
 10
85.387273982
 20
125.7178255894
 11
91.4602479448
 21
124.4545238145
  0
LINE
  5
222
100
AcDbEntity
  8
KONSTRUKTIONSELEMENTE
100
AcDbLine
 62
7
  6
CONTINUOUS
 10
83.9965965587
 20
133.6928323262
 11
89.9342165487
 21
132.4576869233
  0
LINE
  5
223
100
AcDbEntity
  8
KONSTRUKTIONSELEMENTE
100
AcDbLine
 62
7
  6
CONTINUOUS
 10
89.2713238208
 20
132.7373997558
 11
81.3764576692
 21
134.3796920631
  0
LINE
  5
224
100
AcDbEntity
  8
KONSTRUKTIONSELEMENTE
100
AcDbLine
 62
7
  6
CONTINUOUS
 10
129.1162797042
 20
131.7900680255
 11
87.0074030225
 21
140.5495685559
  0
LINE
  5
225
100
AcDbEntity
  8
KONSTRUKTIONSELEMENTE
100
AcDbLine
 62
7
  6
CONTINUOUS
 10
130.8840466572
 20
134.851930204
 11
130.5354946753
 21
134.9244360866
  0
LINE
  5
226
100
AcDbEntity
  8
KONSTRUKTIONSELEMENTE
100
AcDbLine
 62
7
  6
CONTINUOUS
 10
118.7055031281
 20
137.3853143003
 11
88.7751699754
 21
143.6114307344
  0
LINE
  5
227
100
AcDbEntity
  8
KONSTRUKTIONSELEMENTE
100
AcDbLine
 62
7
  6
CONTINUOUS
 10
154.7940378744
 20
116.54958905
 11
149.9471815531
 21
119.3479228518
  0
LINE
  5
228
100
AcDbEntity
  8
KONSTRUKTIONSELEMENTE
100
AcDbLine
 62
7
  6
CONTINUOUS
 10
119.6375558064
 20
136.8471934356
 11
114.7906994851
 21
139.6455272375
  0
LINE
  5
229
100
AcDbEntity
  8
0
100
AcDbLine
 62
7
  6
CONTINUOUS
 10
133.7435883129
 20
140.4810172623
 11
146.0411490466
 21
133.3810172623
  0
LINE
  5
22A
100
AcDbEntity
  8
KONSTRUKTIONSELEMENTE
100
AcDbLine
 62
7
  6
CONTINUOUS
 10
171.9293830875
 20
80.7810013313
 11
177.2990830219
 21
74.7649928381
  0
LINE
  5
22B
100
AcDbEntity
  8
0
100
AcDbLine
 62
7
  6
CONTINUOUS
 10
141.5435883129
 20
153.9910135614
 11
153.8411490466
 21
146.8910135614
  0
LINE
  5
22C
100
AcDbEntity
  8
KONSTRUKTIONSELEMENTE
100
AcDbLine
 62
7
  6
CONTINUOUS
 10
140.8282205289
 20
125.0281758376
 11
179.3819010401
 21
81.8340919535
  0
LINE
  5
22D
100
AcDbEntity
  8
KONSTRUKTIONSELEMENTE
100
AcDbLine
 62
7
  6
CONTINUOUS
 10
181.1496679931
 20
84.895954132
 11
150.8792342313
 21
118.8098019871
  0
LINE
  5
22E
100
AcDbEntity
  8
KONSTRUKTIONSELEMENTE
100
AcDbLine
 62
7
  6
CONTINUOUS
 10
142.833055409
 20
127.8244360866
 11
142.5959874818
 21
128.0900380161
  0
LINE
  5
22F
100
AcDbEntity
  8
BEZUGSACHSEN
100
AcDbLine
 62
7
  6
CONTINUOUS
 10
198.0639982988
 20
187.1499699327
 11
197.5545428641
 21
187.1152342279
  0
LINE
  5
230
100
AcDbEntity
  8
BEZUGSACHSEN
100
AcDbLine
 62
7
  6
CONTINUOUS
 10
200.7317281473
 20
187.4337039804
 11
200.4770000731
 21
187.4163361037
  0
LINE
  5
231
100
AcDbEntity
  8
BEZUGSACHSEN
100
AcDbLine
 62
7
  6
CONTINUOUS
 10
198.0294406548
 20
187.6568138165
 11
197.5199852201
 21
187.6220781117
  0
LINE
  5
232
100
AcDbEntity
  8
BEZUGSACHSEN
100
AcDbLine
 62
7
  6
CONTINUOUS
 10
200.6971708197
 20
187.9405432239
 11
200.4424427455
 21
187.9231753472
  0
LINE
  5
233
100
AcDbEntity
  8
BEZUGSACHSEN
100
AcDbLine
 62
7
  6
CONTINUOUS
 10
199.9606332362
 20
187.4829673195
 11
200.4770000731
 21
187.4163361037
  0
LINE
  5
234
100
AcDbEntity
  8
BEZUGSACHSEN
100
AcDbLine
 62
7
  6
CONTINUOUS
 10
200.4967369908
 20
190.8802303258
 11
201.0131038277
 21
190.8135991099
  0
LINE
  5
235
100
AcDbEntity
  8
BEZUGSACHSEN
100
AcDbLine
 62
7
  6
CONTINUOUS
 10
193.9055085908
 20
198.7281544649
 11
194.5473888663
 21
198.6101999461
  0
LINE
  5
236
100
AcDbEntity
  8
BEZUGSACHSEN
100
AcDbLine
 62
7
  6
CONTINUOUS
 10
196.5883051639
 20
203.7315414437
 11
197.2301854
 21
203.6135869039
  0
LINE
  5
237
100
AcDbEntity
  8
BEZUGSACHSEN
100
AcDbLine
 62
7
  6
CONTINUOUS
 10
197.1655394803
 20
187.1905540041
 11
197.5545428641
 21
187.1152342279
  0
LINE
  5
238
100
AcDbEntity
  8
BEZUGSACHSEN
100
AcDbLine
 62
7
  6
CONTINUOUS
 10
197.2583461006
 20
187.70607718
 11
197.5199852201
 21
187.6220781117
  0
LINE
  5
239
100
AcDbEntity
  8
BEZUGSACHSEN
100
AcDbLine
 62
7
  6
CONTINUOUS
 10
199.91916419
 20
188.091178124
 11
200.4424427455
 21
187.9231753472
  0
LINE
  5
23A
100
AcDbEntity
  8
BEZUGSACHSEN
100
AcDbLine
 62
7
  6
CONTINUOUS
 10
169.7758688033
 20
219.5089988373
 11
170.1799550592
 21
219.3741496333
  0
LINE
  5
23B
100
AcDbEntity
  8
BEZUGSACHSEN
100
AcDbLine
 62
7
  6
CONTINUOUS
 10
193.2384180719
 20
204.8099955924
 11
193.6898810682
 21
204.6470753438
  0
LINE
  5
23C
100
AcDbEntity
  8
0
100
AcDbLine
 62
7
  6
CONTINUOUS
 10
437.0066591985
 20
116.402254616
 11
426.9135960453
 21
120.0758291763
  0
LINE
  5
23D
100
AcDbEntity
  8
BEZUGSACHSEN
100
AcDbLine
 62
7
  6
CONTINUOUS
 10
194.1166326408
 20
199.4168220506
 11
194.4854350057
 21
199.2682194607
  0
LINE
  5
23E
100
AcDbEntity
  8
BEZUGSACHSEN
100
AcDbLine
 62
7
  6
CONTINUOUS
 10
196.6502580079
 20
203.0735240226
 11
197.0190602939
 21
202.9249213906
  0
LINE
  5
23F
100
AcDbEntity
  8
BEZUGSACHSEN
100
AcDbLine
 62
7
  6
CONTINUOUS
 10
163.4562913536
 20
214.1740969957
 11
163.8969582852
 21
213.9839022422
  0
LINE
  5
240
100
AcDbEntity
  8
BEZUGSACHSEN
100
AcDbLine
 62
7
  6
CONTINUOUS
 10
199.5158710193
 20
193.4264577998
 11
200.5073203218
 21
192.993768333
  0
LINE
  5
241
100
AcDbEntity
  8
BEZUGSACHSEN
100
AcDbLine
 62
7
  6
CONTINUOUS
 10
200.5193104925
 20
193.6164988232
 11
201.5107594436
 21
193.1838092899
  0
LINE
  5
242
100
AcDbEntity
  8
BEZUGSACHSEN
100
AcDbLine
 62
7
  6
CONTINUOUS
 10
196.7696250998
 20
187.3672360668
 11
197.1655394803
 21
187.1905540041
  0
LINE
  5
243
100
AcDbEntity
  8
BEZUGSACHSEN
100
AcDbLine
 62
7
  6
CONTINUOUS
 10
199.5647185394
 20
187.6596540225
 11
199.9606332362
 21
187.4829673195
  0
LINE
  5
244
100
AcDbEntity
  8
BEZUGSACHSEN
100
AcDbLine
 62
7
  6
CONTINUOUS
 10
200.5312946348
 20
190.3733864419
 11
200.9272090152
 21
190.1967043792
  0
LINE
  5
245
100
AcDbEntity
  8
BEZUGSACHSEN
100
AcDbLine
 62
7
  6
CONTINUOUS
 10
159.2920681378
 20
218.7863546683
 11
159.7985450876
 21
218.5511376405
  0
LINE
  5
246
100
AcDbEntity
  8
BEZUGSACHSEN
100
AcDbLine
 62
7
  6
CONTINUOUS
 10
193.3903826151
 20
205.4446847199
 11
193.6786939953
 21
205.2831807655
  0
LINE
  5
247
100
AcDbEntity
  8
BEZUGSACHSEN
100
AcDbLine
 62
7
  6
CONTINUOUS
 10
193.4888430117
 20
198.9663844945
 11
193.9055085908
 21
198.7281544649
  0
LINE
  5
248
100
AcDbEntity
  8
BEZUGSACHSEN
100
AcDbLine
 62
7
  6
CONTINUOUS
 10
197.2301854
 20
203.6135869039
 11
197.646849854
 21
203.3753589099
  0
LINE
  5
249
100
AcDbEntity
  8
BEZUGSACHSEN
100
AcDbLine
 62
7
  6
CONTINUOUS
 10
163.5400284362
 20
214.9621150633
 11
163.8802854045
 21
214.7563892517
  0
LINE
  5
24A
100
AcDbEntity
  8
BEZUGSACHSEN
100
AcDbLine
 62
7
  6
CONTINUOUS
 10
159.3970078057
 20
218.1485967853
 11
159.6703819935
 21
217.9704177024
  0
LINE
  5
24B
100
AcDbEntity
  8
BEZUGSACHSEN
100
AcDbLine
 62
7
  6
CONTINUOUS
 10
170.295131619
 20
220.1381840063
 11
170.6969532151
 21
219.8756953319
  0
LINE
  5
24C
100
AcDbEntity
  8
BEZUGSACHSEN
100
AcDbLine
 62
7
  6
CONTINUOUS
 10
196.9897951732
 20
187.8914478031
 11
197.2583461006
 21
187.70607718
  0
LINE
  5
24D
100
AcDbEntity
  8
BEZUGSACHSEN
100
AcDbLine
 62
7
  6
CONTINUOUS
 10
199.6506133518
 20
188.2765487532
 11
199.91916419
 21
188.091178124
  0
LINE
  5
24E
100
AcDbEntity
  8
BEZUGSACHSEN
100
AcDbLine
 62
7
  6
CONTINUOUS
 10
201.0131038277
 20
190.8135991099
 11
201.5502055041
 21
190.4428578516
  0
LINE
  5
24F
100
AcDbEntity
  8
BEZUGSACHSEN
100
AcDbLine
 62
7
  6
CONTINUOUS
 10
159.7985450876
 20
218.5511376405
 11
160.2488773814
 21
218.1627277404
  0
LINE
  5
250
100
AcDbEntity
  8
BEZUGSACHSEN
100
AcDbLine
 62
7
  6
CONTINUOUS
 10
170.1799550592
 20
219.3741496333
 11
170.480189217
 21
219.1134633872
  0
LINE
  5
251
100
AcDbEntity
  8
BEZUGSACHSEN
100
AcDbLine
 62
7
  6
CONTINUOUS
 10
162.9765973812
 20
214.6166104922
 11
163.4562913536
 21
214.1740969957
  0
LINE
  5
252
100
AcDbEntity
  8
BEZUGSACHSEN
100
AcDbLine
 62
7
  6
CONTINUOUS
 10
199.154981038
 20
188.0390745668
 11
199.5647185394
 21
187.6596540225
  0
LINE
  5
253
100
AcDbEntity
  8
KONSTRUKTIONSELEMENTE
100
AcDbLine
 62
7
  6
CONTINUOUS
 10
81.230633798
 20
136.8318745844
 11
81.3764576692
 21
134.3796920631
  0
LINE
  5
254
100
AcDbEntity
  8
KONSTRUKTIONSELEMENTE
100
AcDbLine
 62
7
  6
CONTINUOUS
 10
82.1459064394
 20
121.440597728
 11
84.7534437512
 21
77.5921018127
  0
LINE
  5
255
100
AcDbEntity
  8
KONSTRUKTIONSELEMENTE
100
AcDbLine
 62
7
  6
CONTINUOUS
 10
82.3757161433
 20
121.8386398112
 11
82.3460956695
 21
122.3367393858
  0
LINE
  5
256
100
AcDbEntity
  8
KONSTRUKTIONSELEMENTE
100
AcDbLine
 62
7
  6
CONTINUOUS
 10
91.2188850371
 20
130.2451517017
 11
91.7738033584
 21
120.9136136122
  0
LINE
  5
257
100
AcDbEntity
  8
BEZUGSACHSEN
100
AcDbLine
 62
7
  6
CONTINUOUS
 10
201.2342721797
 20
187.5698066059
 11
200.7317281473
 21
187.4337039804
  0
LINE
  5
258
100
AcDbEntity
  8
BEZUGSACHSEN
100
AcDbLine
 62
7
  6
CONTINUOUS
 10
198.5665421932
 20
187.2860772106
 11
198.0639982988
 21
187.1499699327
  0
LINE
  5
259
100
AcDbEntity
  8
0
100
AcDbLine
 62
7
  6
CONTINUOUS
 10
416.2907897462
 20
223.5392471778
 11
428.8139085729
 21
226.201118257
  0
LINE
  5
25A
100
AcDbEntity
  8
BEZUGSACHSEN
100
AcDbLine
 62
7
  6
CONTINUOUS
 10
201.6241991631
 20
192.5848339193
 11
195.7289936201
 21
191.4683431646
  0
LINE
  5
25B
100
AcDbEntity
  8
BEZUGSACHSEN
100
AcDbLine
 62
7
  6
CONTINUOUS
 10
195.6155539005
 20
192.0673185351
 11
200.5073203218
 21
192.993768333
  0
LINE
  5
25C
100
AcDbEntity
  8
BEZUGSACHSEN
100
AcDbLine
 62
7
  6
CONTINUOUS
 10
199.5158710193
 20
193.4264577998
 11
200.5193104925
 21
193.6164988232
  0
LINE
  5
25D
100
AcDbEntity
  8
BEZUGSACHSEN
100
AcDbLine
 62
7
  6
CONTINUOUS
 10
193.6898810682
 20
204.6470753438
 11
194.2799055019
 21
204.721456745
  0
LINE
  5
25E
100
AcDbEntity
  8
BEZUGSACHSEN
100
AcDbLine
 62
7
  6
CONTINUOUS
 10
196.0421470729
 20
203.6702493621
 11
196.5883051639
 21
203.7315414437
  0
LINE
  5
25F
100
AcDbEntity
  8
BEZUGSACHSEN
100
AcDbLine
 62
7
  6
CONTINUOUS
 10
198.8173152283
 20
189.2381283234
 11
199.3267706629
 21
189.2728640282
  0
LINE
  5
260
100
AcDbEntity
  8
BEZUGSACHSEN
100
AcDbLine
 62
7
  6
CONTINUOUS
 10
196.2167091356
 20
203.0723654226
 11
196.6502580079
 21
203.0735240226
  0
LINE
  5
261
100
AcDbEntity
  8
BEZUGSACHSEN
100
AcDbLine
 62
7
  6
CONTINUOUS
 10
193.6786939953
 20
205.2831807655
 11
194.0049957951
 21
205.2803500091
  0
LINE
  5
262
100
AcDbEntity
  8
BEZUGSACHSEN
100
AcDbLine
 62
7
  6
CONTINUOUS
 10
167.2449099184
 20
214.3190382826
 11
169.6830177378
 21
214.275779839
  0
LINE
  5
263
100
AcDbEntity
  8
BEZUGSACHSEN
100
AcDbLine
 62
7
  6
CONTINUOUS
 10
167.8680248338
 20
215.074060583
 11
169.6966056984
 21
215.0416167503
  0
LINE
  5
264
100
AcDbEntity
  8
BEZUGSACHSEN
100
AcDbLine
 62
7
  6
CONTINUOUS
 10
167.9472879387
 20
219.54144267
 11
169.7758688033
 21
219.5089988373
  0
LINE
  5
265
100
AcDbEntity
  8
BEZUGSACHSEN
100
AcDbLine
 62
7
  6
CONTINUOUS
 10
167.3513489428
 20
220.3180941028
 11
169.7894567622
 21
220.2748356592
  0
LINE
  5
266
100
AcDbEntity
  8
BEZUGSACHSEN
100
AcDbLine
 62
7
  6
CONTINUOUS
 10
159.0674889619
 20
218.173582996
 11
159.3970078057
 21
218.1485967853
  0
LINE
  5
267
100
AcDbEntity
  8
BEZUGSACHSEN
100
AcDbLine
 62
7
  6
CONTINUOUS
 10
163.8969582852
 20
213.9839022422
 11
164.418520804
 21
213.9353977464
  0
LINE
  5
268
100
AcDbEntity
  8
BEZUGSACHSEN
100
AcDbLine
 62
7
  6
CONTINUOUS
 10
163.8802854045
 20
214.7563892517
 11
164.3014379497
 21
214.6923537641
  0
LINE
  5
269
100
AcDbEntity
  8
0
100
AcDbLine
 62
7
  6
CONTINUOUS
 10
177.1939476133
 20
223.5392471778
 11
164.6708287866
 21
226.201118257
  0
LINE
  5
26A
100
AcDbEntity
  8
BEZUGSACHSEN
100
AcDbLine
 62
7
  6
CONTINUOUS
 10
169.7894567622
 20
220.2748356592
 11
170.295131619
 21
220.1381840063
  0
LINE
  5
26B
100
AcDbEntity
  8
0
100
AcDbLine
 62
7
  6
CONTINUOUS
 10
415.6796938862
 20
135.4512999066
 11
416.9534953287
 21
134.9876740972
  0
LINE
  5
26C
100
AcDbEntity
  8
BEZUGSACHSEN
100
AcDbLine
 62
7
  6
CONTINUOUS
 10
193.8125777211
 20
199.7151836947
 11
194.1166326408
 21
199.4168220506
  0
LINE
  5
26D
100
AcDbEntity
  8
BEZUGSACHSEN
100
AcDbLine
 62
7
  6
CONTINUOUS
 10
197.0190602939
 20
202.9249213906
 11
197.3231174046
 21
202.6265556438
  0
LINE
  5
26E
100
AcDbEntity
  8
BEZUGSACHSEN
100
AcDbLine
 62
7
  6
CONTINUOUS
 10
196.4941628148
 20
187.6539736136
 11
196.7696250998
 21
187.3672360668
  0
LINE
  5
26F
100
AcDbEntity
  8
BEZUGSACHSEN
100
AcDbLine
 62
7
  6
CONTINUOUS
 10
200.9272090152
 20
190.1967043792
 11
201.2026712557
 21
189.9099668294
  0
LINE
  5
270
100
AcDbEntity
  8
BEZUGSACHSEN
100
AcDbLine
 62
7
  6
CONTINUOUS
 10
193.1369270096
 20
199.354369444
 11
193.4888430117
 21
198.9663844945
  0
LINE
  5
271
100
AcDbEntity
  8
BEZUGSACHSEN
100
AcDbLine
 62
7
  6
CONTINUOUS
 10
197.646849854
 20
203.3753589099
 11
197.9987680372
 21
202.9873698524
  0
LINE
  5
272
100
AcDbEntity
  8
0
100
AcDbLine
 62
7
  6
CONTINUOUS
 10
204.8133138861
 20
203.0248436788
 11
196.2465064966
 21
212.5392471778
  0
LINE
  5
273
100
AcDbEntity
  8
BEZUGSACHSEN
100
AcDbLine
 62
7
  6
CONTINUOUS
 10
191.0504455761
 20
202.841451488
 11
191.4885054666
 21
202.2811437616
  0
LINE
  5
274
100
AcDbEntity
  8
BEZUGSACHSEN
100
AcDbLine
 62
7
  6
CONTINUOUS
 10
192.264154949
 20
205.6416119637
 11
192.6617953116
 21
205.133003501
  0
LINE
  5
275
100
AcDbEntity
  8
BEZUGSACHSEN
100
AcDbLine
 62
7
  6
CONTINUOUS
 10
192.6771554072
 20
206.3569497409
 11
193.3903826151
 21
205.4446847199
  0
LINE
  5
276
100
AcDbEntity
  8
BEZUGSACHSEN
100
AcDbLine
 62
7
  6
CONTINUOUS
 10
193.7099253925
 20
208.1449509005
 11
194.8989481646
 21
206.6241117175
  0
LINE
  5
277
100
AcDbEntity
  8
BEZUGSACHSEN
100
AcDbLine
 62
7
  6
CONTINUOUS
 10
194.0538237941
 20
208.7414093322
 11
195.3392226557
 21
207.0972987227
  0
LINE
  5
278
100
AcDbEntity
  8
BEZUGSACHSEN
100
AcDbLine
 62
7
  6
CONTINUOUS
 10
170.6969532151
 20
219.8756953319
 11
171.0942454915
 21
219.3579277169
  0
LINE
  5
279
100
AcDbEntity
  8
BEZUGSACHSEN
100
AcDbLine
 62
7
  6
CONTINUOUS
 10
163.2806670721
 20
215.3095310222
 11
163.5400284362
 21
214.9621150633
  0
LINE
  5
27A
100
AcDbEntity
  8
BEZUGSACHSEN
100
AcDbLine
 62
7
  6
CONTINUOUS
 10
196.2117888223
 20
188.0420827221
 11
196.4941628148
 21
187.6539736136
  0
LINE
  5
27B
100
AcDbEntity
  8
BEZUGSACHSEN
100
AcDbLine
 62
7
  6
CONTINUOUS
 10
196.8486081936
 20
188.0855023585
 11
196.9897951732
 21
187.8914478031
  0
LINE
  5
27C
100
AcDbEntity
  8
BEZUGSACHSEN
100
AcDbLine
 62
7
  6
CONTINUOUS
 10
201.5502055041
 20
190.4428578516
 11
201.8325791468
 21
190.0547533811
  0
LINE
  5
27D
100
AcDbEntity
  8
BEZUGSACHSEN
100
AcDbLine
 62
7
  6
CONTINUOUS
 10
160.2183046996
 20
216.0001060443
 11
162.0122843431
 21
213.5023224774
  0
LINE
  5
27E
100
AcDbEntity
  8
BEZUGSACHSEN
100
AcDbLine
 62
7
  6
CONTINUOUS
 10
159.7203514737
 20
215.5655135008
 11
161.3373728734
 21
213.2779607052
  0
LINE
  5
27F
100
AcDbEntity
  8
BEZUGSACHSEN
100
AcDbLine
 62
7
  6
CONTINUOUS
 10
159.6703819935
 20
217.9704177024
 11
159.8876112494
 21
217.6390456555
  0
LINE
  5
280
100
AcDbEntity
  8
BEZUGSACHSEN
100
AcDbLine
 62
7
  6
CONTINUOUS
 10
160.2488773814
 20
218.1627277404
 11
160.4661066373
 21
217.8313556936
  0
LINE
  5
281
100
AcDbEntity
  8
BEZUGSACHSEN
100
AcDbLine
 62
7
  6
CONTINUOUS
 10
162.6977224839
 20
215.0901859054
 11
162.9765973812
 21
214.6166104922
  0
LINE
  5
282
100
AcDbEntity
  8
RUNDUNGEN
100
AcDbLine
 62
7
  6
CONTINUOUS
 10
111.9559612945
 20
151.6079180625
 11
112.0647887412
 21
150.9907269424
  0
LINE
  5
283
100
AcDbEntity
  8
0
100
AcDbLine
 62
7
  6
CONTINUOUS
 10
112.0647887412
 20
150.9907269424
 11
113.8210839791
 21
141.0302816897
  0
LINE
  5
284
100
AcDbEntity
  8
RUNDUNGEN
100
AcDbLine
 62
7
  6
CONTINUOUS
 10
119.8899474549
 20
167.6895407678
 11
119.6545584625
 21
169.0244980811
  0
LINE
  5
285
100
AcDbEntity
  8
BEZUGSACHSEN
100
AcDbLine
 62
7
  6
CONTINUOUS
 10
194.4854350057
 20
199.2682194607
 11
194.8711213945
 21
199.3590032543
  0
LINE
  5
286
100
AcDbEntity
  8
BEZUGSACHSEN
100
AcDbLine
 62
7
  6
CONTINUOUS
 10
169.6830177378
 20
214.275779839
 11
170.1932219144
 21
214.3944071379
  0
LINE
  5
287
100
AcDbEntity
  8
BEZUGSACHSEN
100
AcDbLine
 62
7
  6
CONTINUOUS
 10
164.418520804
 20
213.9353977464
 11
164.820160117
 21
213.9975216692
  0
LINE
  5
288
100
AcDbEntity
  8
BEZUGSACHSEN
100
AcDbLine
 62
7
  6
CONTINUOUS
 10
164.3014379497
 20
214.6923537641
 11
164.7030772627
 21
214.7544776868
  0
LINE
  5
289
100
AcDbEntity
  8
BEZUGSACHSEN
100
AcDbLine
 62
7
  6
CONTINUOUS
 10
161.8948153863
 20
219.6163910083
 11
162.4972743558
 21
219.7095768924
  0
LINE
  5
28A
100
AcDbEntity
  8
BEZUGSACHSEN
100
AcDbLine
 62
7
  6
CONTINUOUS
 10
164.9071090847
 20
220.0823202512
 11
165.5095677669
 21
220.1755060908
  0
LINE
  5
28B
100
AcDbEntity
  8
BEZUGSACHSEN
100
AcDbLine
 62
7
  6
CONTINUOUS
 10
158.7697174061
 20
218.7472375024
 11
159.2920681378
 21
218.7863546683
  0
LINE
  5
28C
100
AcDbEntity
  8
BEZUGSACHSEN
100
AcDbLine
 62
7
  6
CONTINUOUS
 10
192.7061707841
 20
200.1609915485
 11
193.1369270096
 21
199.354369444
  0
LINE
  5
28D
100
AcDbEntity
  8
BEZUGSACHSEN
100
AcDbLine
 62
7
  6
CONTINUOUS
 10
193.3818214956
 20
200.5218057991
 11
193.8125777211
 21
199.7151836947
  0
LINE
  5
28E
100
AcDbEntity
  8
BEZUGSACHSEN
100
AcDbLine
 62
7
  6
CONTINUOUS
 10
195.341232837
 20
200.6467110544
 11
195.7719890624
 21
199.8400889499
  0
LINE
  5
28F
100
AcDbEntity
  8
BEZUGSACHSEN
100
AcDbLine
 62
7
  6
CONTINUOUS
 10
196.0168834696
 20
201.0075252629
 11
196.734810512
 21
199.6631550889
  0
LINE
  5
290
100
AcDbEntity
  8
BEZUGSACHSEN
100
AcDbLine
 62
7
  6
CONTINUOUS
 10
197.4611156439
 20
200.7421244713
 11
197.7482864609
 21
200.2043764017
  0
LINE
  5
291
100
AcDbEntity
  8
BEZUGSACHSEN
100
AcDbLine
 62
7
  6
CONTINUOUS
 10
197.3231174046
 20
202.6265556438
 11
197.75387363
 21
201.8199335394
  0
LINE
  5
292
100
AcDbEntity
  8
BEZUGSACHSEN
100
AcDbLine
 62
7
  6
CONTINUOUS
 10
197.9987680372
 20
202.9873698524
 11
198.4295242626
 21
202.1807477479
  0
LINE
  5
293
100
AcDbEntity
  8
BEZUGSACHSEN
100
AcDbLine
 62
7
  6
CONTINUOUS
 10
170.480189217
 20
219.1134633872
 11
170.6765712703
 21
218.7269397415
  0
LINE
  5
294
100
AcDbEntity
  8
BEZUGSACHSEN
100
AcDbLine
 62
7
  6
CONTINUOUS
 10
199.3544165883
 20
188.8673917053
 11
199.6506133518
 21
188.2765487532
  0
LINE
  5
295
100
AcDbEntity
  8
BEZUGSACHSEN
100
AcDbLine
 62
7
  6
CONTINUOUS
 10
171.0942454915
 20
219.3579277169
 11
171.2883628913
 21
218.8437649585
  0
LINE
  5
296
100
AcDbEntity
  8
BEZUGSACHSEN
100
AcDbLine
 62
7
  6
CONTINUOUS
 10
163.1022024477
 20
215.7986373943
 11
163.2806670721
 21
215.3095310222
  0
LINE
  5
297
100
AcDbEntity
  8
BEZUGSACHSEN
100
AcDbLine
 62
7
  6
CONTINUOUS
 10
158.3484801281
 20
212.2843588723
 11
156.4557358547
 21
217.97799735
  0
LINE
  5
298
100
AcDbEntity
  8
BEZUGSACHSEN
100
AcDbLine
 62
7
  6
CONTINUOUS
 10
158.926975516
 20
212.4766689104
 11
158.0812812541
 21
215.0206350748
  0
LINE
  5
299
100
AcDbEntity
  8
BEZUGSACHSEN
100
AcDbLine
 62
7
  6
CONTINUOUS
 10
157.8396543544
 20
215.7474824534
 11
157.2355869923
 21
217.5646012393
  0
LINE
  5
29A
100
AcDbEntity
  8
BEZUGSACHSEN
100
AcDbLine
 62
7
  6
CONTINUOUS
 10
159.8876112494
 20
217.6390456555
 11
160.0084248121
 21
217.2756216268
  0
LINE
  5
29B
100
AcDbEntity
  8
BEZUGSACHSEN
100
AcDbLine
 62
7
  6
CONTINUOUS
 10
160.4661066373
 20
217.8313556936
 11
160.6271913499
 21
217.3467904352
  0
LINE
  5
29C
100
AcDbEntity
  8
BEZUGSACHSEN
100
AcDbLine
 62
7
  6
CONTINUOUS
 10
162.4997434782
 20
215.7054515102
 11
162.6977224839
 21
215.0901859054
  0
LINE
  5
29D
100
AcDbEntity
  8
0
100
AcDbLine
 62
7
  6
CONTINUOUS
 10
135.7423686797
 20
618.6031864295
 11
135.7423686797
 21
408.6031864295
  0
LINE
  5
29E
100
AcDbEntity
  8
BEZUGSACHSEN
100
AcDbLine
 62
7
  6
CONTINUOUS
 10
195.3392226557
 20
207.0972987227
 11
195.5515517642
 21
206.6184502047
  0
LINE
  5
29F
100
AcDbEntity
  8
BEZUGSACHSEN
100
AcDbLine
 62
7
  6
CONTINUOUS
 10
196.0567790271
 20
188.4388711181
 11
196.2117888223
 21
188.0420827221
  0
LINE
  5
2A0
100
AcDbEntity
  8
BEZUGSACHSEN
100
AcDbLine
 62
7
  6
CONTINUOUS
 10
196.6866870074
 20
188.5836576758
 11
196.8486081936
 21
188.0855023585
  0
LINE
  5
2A1
100
AcDbEntity
  8
BEZUGSACHSEN
100
AcDbLine
 62
7
  6
CONTINUOUS
 10
201.2026712557
 20
189.9099668294
 11
201.3645927583
 21
189.4118068718
  0
LINE
  5
2A2
100
AcDbEntity
  8
BEZUGSACHSEN
100
AcDbLine
 62
7
  6
CONTINUOUS
 10
194.8989481646
 20
206.6241117175
 11
194.9861175091
 21
206.3053508595
  0
LINE
  5
2A3
100
AcDbEntity
  8
BEZUGSACHSEN
100
AcDbLine
 62
7
  6
CONTINUOUS
 10
192.5794694883
 20
200.6692520141
 11
192.7061707841
 21
200.1609915485
  0
LINE
  5
2A4
100
AcDbEntity
  8
BEZUGSACHSEN
100
AcDbLine
 62
7
  6
CONTINUOUS
 10
170.6765712703
 20
218.7269397415
 11
170.7691000693
 21
218.2145794319
  0
LINE
  5
2A5
100
AcDbEntity
  8
BEZUGSACHSEN
100
AcDbLine
 62
7
  6
CONTINUOUS
 10
162.4997434782
 20
215.7054515102
 11
161.8948153863
 21
219.6163910083
  0
LINE
  5
2A6
100
AcDbEntity
  8
BEZUGSACHSEN
100
AcDbLine
 62
7
  6
CONTINUOUS
 10
163.1022024477
 20
215.7986373943
 11
162.4972743558
 21
219.7095768924
  0
LINE
  5
2A7
100
AcDbEntity
  8
BEZUGSACHSEN
100
AcDbLine
 62
7
  6
CONTINUOUS
 10
164.9071090847
 20
220.0823202512
 11
165.5120371766
 21
216.1713807531
  0
LINE
  5
2A8
100
AcDbEntity
  8
BEZUGSACHSEN
100
AcDbLine
 62
7
  6
CONTINUOUS
 10
165.5095677669
 20
220.1755060908
 11
166.1144958588
 21
216.2645665928
  0
LINE
  5
2A9
100
AcDbEntity
  8
BEZUGSACHSEN
100
AcDbLine
 62
7
  6
CONTINUOUS
 10
171.2883628913
 20
218.8437649585
 11
171.3786270241
 21
218.203764821
  0
LINE
  5
2AA
100
AcDbEntity
  8
BEZUGSACHSEN
100
AcDbLine
 62
7
  6
CONTINUOUS
 10
160.0328224559
 20
216.8801462951
 11
160.0084248121
 21
217.2756216268
  0
LINE
  5
2AB
100
AcDbEntity
  8
BEZUGSACHSEN
100
AcDbLine
 62
7
  6
CONTINUOUS
 10
160.6515889937
 20
216.9513151034
 11
160.6271913499
 21
217.3467904352
  0
LINE
  5
2AC
100
AcDbEntity
  8
0
100
AcDbLine
 62
7
  6
CONTINUOUS
 10
171.7423686797
 20
618.6031864295
 11
171.7423686797
 21
408.6031864295
  0
LINE
  5
2AD
100
AcDbEntity
  8
BEZUGSACHSEN
100
AcDbLine
 62
7
  6
CONTINUOUS
 10
166.1116549208
 20
215.6182389821
 11
166.1144958588
 21
216.2645665928
  0
LINE
  5
2AE
100
AcDbEntity
  8
BEZUGSACHSEN
100
AcDbLine
 62
7
  6
CONTINUOUS
 10
167.2449099184
 20
214.3190382826
 11
167.3513489428
 21
220.3180941028
  0
LINE
  5
2AF
100
AcDbEntity
  8
BEZUGSACHSEN
100
AcDbLine
 62
7
  6
CONTINUOUS
 10
167.8680248338
 20
215.074060583
 11
167.9472879387
 21
219.54144267
  0
LINE
  5
2B0
100
AcDbEntity
  8
0
100
AcDbLine
 62
7
  6
CONTINUOUS
 10
428.8139085729
 20
226.201118257
 11
451.0760770173
 21
216.2893622683
  0
LINE
  5
2B1
100
AcDbEntity
  8
BEZUGSACHSEN
100
AcDbLine
 62
7
  6
CONTINUOUS
 10
201.8325791468
 20
190.0547533811
 11
202.0083234539
 21
189.3538595821
  0
LINE
  5
2B2
100
AcDbEntity
  8
BEZUGSACHSEN
100
AcDbLine
 62
7
  6
CONTINUOUS
 10
198.4295242626
 20
202.1807477479
 11
198.5562233774
 21
201.6724913903
  0
LINE
  5
2B3
100
AcDbEntity
  8
BEZUGSACHSEN
100
AcDbLine
 62
7
  6
CONTINUOUS
 10
195.6155539005
 20
192.0673185351
 11
195.7289936201
 21
191.4683431646
  0
LINE
  5
2B4
100
AcDbEntity
  8
BEZUGSACHSEN
100
AcDbLine
 62
7
  6
CONTINUOUS
 10
201.5107594436
 20
193.1838092899
 11
201.6241991631
 21
192.5848339193
  0
LINE
  5
2B5
100
AcDbEntity
  8
BEZUGSACHSEN
100
AcDbLine
 62
7
  6
CONTINUOUS
 10
193.3029812625
 20
200.9404429488
 11
193.3818214956
 21
200.5218057991
  0
LINE
  5
2B6
100
AcDbEntity
  8
BEZUGSACHSEN
100
AcDbLine
 62
7
  6
CONTINUOUS
 10
197.75387363
 20
201.8199335394
 11
197.8327116723
 21
201.4013004924
  0
LINE
  5
2B7
100
AcDbEntity
  8
0
100
AcDbLine
 62
7
  6
CONTINUOUS
 10
207.360565626
 20
178.7893622683
 11
204.8133138861
 21
203.0248436788
  0
LINE
  5
2B8
100
AcDbEntity
  8
BEZUGSACHSEN
100
AcDbLine
 62
7
  6
CONTINUOUS
 10
196.00148686
 20
189.2498204042
 11
196.0567790271
 21
188.4388711181
  0
LINE
  5
2B9
100
AcDbEntity
  8
BEZUGSACHSEN
100
AcDbLine
 62
7
  6
CONTINUOUS
 10
196.6452179611
 20
189.1918684803
 11
196.6866870074
 21
188.5836576758
  0
LINE
  5
2BA
100
AcDbEntity
  8
BEZUGSACHSEN
100
AcDbLine
 62
7
  6
CONTINUOUS
 10
197.3057285868
 20
190.7644990549
 11
197.3402859144
 21
190.2576598113
  0
LINE
  5
2BB
100
AcDbEntity
  8
BEZUGSACHSEN
100
AcDbLine
 62
7
  6
CONTINUOUS
 10
198.8173152283
 20
189.2381283234
 11
198.8449611536
 21
188.8326560005
  0
LINE
  5
2BC
100
AcDbEntity
  8
BEZUGSACHSEN
100
AcDbLine
 62
7
  6
CONTINUOUS
 10
199.3267706629
 20
189.2728640282
 11
199.3544165883
 21
188.8673917053
  0
LINE
  5
2BD
100
AcDbEntity
  8
BEZUGSACHSEN
100
AcDbLine
 62
7
  6
CONTINUOUS
 10
200.4967369908
 20
190.8802303258
 11
200.5312946348
 21
190.3733864419
  0
LINE
  5
2BE
100
AcDbEntity
  8
BEZUGSACHSEN
100
AcDbLine
 62
7
  6
CONTINUOUS
 10
201.3645927583
 20
189.4118068718
 11
201.3922386837
 21
189.0063345489
  0
LINE
  5
2BF
100
AcDbEntity
  8
BEZUGSACHSEN
100
AcDbLine
 62
7
  6
CONTINUOUS
 10
202.0083234539
 20
189.3538595821
 11
202.0221465748
 21
189.1511211005
  0
LINE
  5
2C0
100
AcDbEntity
  8
BEZUGSACHSEN
100
AcDbLine
 62
7
  6
CONTINUOUS
 10
170.7691000693
 20
218.2145794319
 11
170.7351301688
 21
216.2999871983
  0
LINE
  5
2C1
100
AcDbEntity
  8
BEZUGSACHSEN
100
AcDbLine
 62
7
  6
CONTINUOUS
 10
171.3786270241
 20
218.203764821
 11
171.3446571236
 21
216.2891725874
  0
LINE
  5
2C2
100
AcDbEntity
  8
BEZUGSACHSEN
100
AcDbLine
 62
7
  6
CONTINUOUS
 10
165.4896824318
 20
215.651212464
 11
165.5120371766
 21
216.1713807531
  0
LINE
  5
2C3
100
AcDbEntity
  8
BEZUGSACHSEN
100
AcDbLine
 62
7
  6
CONTINUOUS
 10
192.613238819
 20
201.1480228296
 11
192.5794694883
 21
200.6692520141
  0
LINE
  5
2C4
100
AcDbEntity
  8
BEZUGSACHSEN
100
AcDbLine
 62
7
  6
CONTINUOUS
 10
198.5562233774
 20
201.6724913903
 11
198.5224551718
 21
201.1937185392
  0
LINE
  5
2C5
100
AcDbEntity
  8
BEZUGSACHSEN
100
AcDbLine
 62
7
  6
CONTINUOUS
 10
195.5515517642
 20
206.6184502047
 11
195.5001596712
 21
206.062387697
  0
LINE
  5
2C6
100
AcDbEntity
  8
BEZUGSACHSEN
100
AcDbLine
 62
7
  6
CONTINUOUS
 10
202.0221465748
 20
189.1511211005
 11
201.9431631646
 21
188.4328594492
  0
LINE
  5
2C7
100
AcDbEntity
  8
BEZUGSACHSEN
100
AcDbLine
 62
7
  6
CONTINUOUS
 10
171.2317463862
 20
215.6527776641
 11
171.3446571236
 21
216.2891725874
  0
LINE
  5
2C8
100
AcDbEntity
  8
BEZUGSACHSEN
100
AcDbLine
 62
7
  6
CONTINUOUS
 10
170.6244840912
 20
215.7912317453
 11
170.7351301688
 21
216.2999871983
  0
LINE
  5
2C9
100
AcDbEntity
  8
BEZUGSACHSEN
100
AcDbLine
 62
7
  6
CONTINUOUS
 10
160.5234258996
 20
216.3705951653
 11
160.6515889937
 21
216.9513151034
  0
LINE
  5
2CA
100
AcDbEntity
  8
BEZUGSACHSEN
100
AcDbLine
 62
7
  6
CONTINUOUS
 10
165.9888907923
 20
215.0825396906
 11
166.1116549208
 21
215.6182389821
  0
LINE
  5
2CB
100
AcDbEntity
  8
RUNDUNGEN
100
AcDbLine
 62
7
  6
CONTINUOUS
 10
119.6545584625
 20
169.0244980811
 11
130.2241717335
 21
195.1852089338
  0
LINE
  5
2CC
100
AcDbEntity
  8
0
100
AcDbLine
 62
7
  6
CONTINUOUS
 10
398.3086603422
 20
157.6852089338
 11
415.6796938862
 21
135.4512999066
  0
LINE
  5
2CD
100
AcDbEntity
  8
BEZUGSACHSEN
100
AcDbLine
 62
7
  6
CONTINUOUS
 10
198.8449611536
 20
188.8326560005
 11
198.7590663412
 21
188.2157612698
  0
LINE
  5
2CE
100
AcDbEntity
  8
BEZUGSACHSEN
100
AcDbLine
 62
7
  6
CONTINUOUS
 10
196.7380241758
 20
189.7073962904
 11
196.6452179611
 21
189.1918684803
  0
LINE
  5
2CF
100
AcDbEntity
  8
BEZUGSACHSEN
100
AcDbLine
 62
7
  6
CONTINUOUS
 10
201.3922386837
 20
189.0063345489
 11
201.299432469
 21
188.4908067388
  0
LINE
  5
2D0
100
AcDbEntity
  8
BEZUGSACHSEN
100
AcDbLine
 62
7
  6
CONTINUOUS
 10
193.3846128104
 20
201.3295884285
 11
193.3029812625
 21
200.9404429488
  0
LINE
  5
2D1
100
AcDbEntity
  8
BEZUGSACHSEN
100
AcDbLine
 62
7
  6
CONTINUOUS
 10
197.8327116723
 20
201.4013004924
 11
197.7510802032
 21
201.0121550548
  0
LINE
  5
2D2
100
AcDbEntity
  8
BEZUGSACHSEN
100
AcDbLine
 62
7
  6
CONTINUOUS
 10
194.9861175091
 20
206.3053508595
 11
194.9101352375
 21
205.9880062958
  0
LINE
  5
2D3
100
AcDbEntity
  8
BEZUGSACHSEN
100
AcDbLine
 62
7
  6
CONTINUOUS
 10
196.1012048045
 20
189.663976654
 11
196.00148686
 21
189.2498204042
  0
LINE
  5
2D4
100
AcDbEntity
  8
BEZUGSACHSEN
100
AcDbLine
 62
7
  6
CONTINUOUS
 10
165.3474044829
 20
215.2416725824
 11
165.4896824318
 21
215.651212464
  0
LINE
  5
2D5
100
AcDbEntity
  8
BEZUGSACHSEN
100
AcDbLine
 62
7
  6
CONTINUOUS
 10
159.9205328679
 20
216.573760459
 11
160.0328224559
 21
216.8801462951
  0
LINE
  5
2D6
100
AcDbEntity
  8
BEZUGSACHSEN
100
AcDbLine
 62
7
  6
CONTINUOUS
 10
171.0195117062
 20
215.1458245706
 11
171.2317463862
 21
215.6527776641
  0
LINE
  5
2D7
100
AcDbEntity
  8
KONSTRUKTIONSELEMENTE
100
AcDbLine
 62
7
  6
CONTINUOUS
 10
81.6744426362
 20
138.8185728095
 11
83.4422095892
 21
141.880434988
  0
LINE
  5
2D8
100
AcDbEntity
  8
KONSTRUKTIONSELEMENTE
100
AcDbLine
 62
7
  6
CONTINUOUS
 10
82.4792383209
 20
122.9327488534
 11
83.7873858661
 21
125.1985268654
  0
LINE
  5
2D9
100
AcDbEntity
  8
KONSTRUKTIONSELEMENTE
100
AcDbLine
 62
7
  6
CONTINUOUS
 10
82.1459064394
 20
121.440597728
 11
82.3757161433
 21
121.8386398112
  0
LINE
  5
2DA
100
AcDbEntity
  8
0
100
AcDbLine
 62
7
  6
CONTINUOUS
 10
398.3086603422
 20
157.6852089338
 11
386.1241717335
 21
178.7893622683
  0
LINE
  5
2DB
100
AcDbEntity
  8
BEZUGSACHSEN
100
AcDbLine
 62
7
  6
CONTINUOUS
 10
195.5001596712
 20
206.062387697
 11
195.2856159621
 21
205.5077414835
  0
LINE
  5
2DC
100
AcDbEntity
  8
BEZUGSACHSEN
100
AcDbLine
 62
7
  6
CONTINUOUS
 10
192.8722261325
 20
201.7470630019
 11
192.613238819
 21
201.1480228296
  0
LINE
  5
2DD
100
AcDbEntity
  8
BEZUGSACHSEN
100
AcDbLine
 62
7
  6
CONTINUOUS
 10
170.4145140726
 20
215.4119182115
 11
170.6244840912
 21
215.7912317453
  0
LINE
  5
2DE
100
AcDbEntity
  8
BEZUGSACHSEN
100
AcDbLine
 62
7
  6
CONTINUOUS
 10
165.6653067132
 20
214.5157784375
 11
165.9888907923
 21
215.0825396906
  0
LINE
  5
2DF
100
AcDbEntity
  8
0
100
AcDbLine
 62
7
  6
CONTINUOUS
 10
142.4086603422
 20
216.2893622683
 11
130.2241717335
 21
195.1852089338
  0
LINE
  5
2E0
100
AcDbEntity
  8
RUNDUNGEN
100
AcDbLine
 62
7
  6
CONTINUOUS
 10
112.1935259929
 20
152.9552144179
 11
128.1163601516
 21
180.5343721813
  0
LINE
  5
2E1
100
AcDbEntity
  8
KONSTRUKTIONSELEMENTE
100
AcDbLine
 62
7
  6
CONTINUOUS
 10
131.3711139264
 20
159.3104248035
 11
127.4760473886
 21
152.5639716611
  0
LINE
  5
2E2
100
AcDbEntity
  8
0
100
AcDbLine
 62
7
  6
CONTINUOUS
 10
409.9427513656
 20
148.5343721813
 11
425.8655855244
 21
120.9552144179
  0
LINE
  5
2E3
100
AcDbEntity
  8
0
100
AcDbLine
 62
7
  6
CONTINUOUS
 10
429.9506058507
 20
140.7410979444
 11
433.8456723886
 21
133.994644802
  0
LINE
  5
2E4
100
AcDbEntity
  8
0
100
AcDbLine
 62
7
  6
CONTINUOUS
 10
412.7160892381
 20
185.7308100796
 11
344.2160892381
 21
304.3762903981
  0
LINE
  5
2E5
100
AcDbEntity
  8
BEZUGSACHSEN
100
AcDbLine
 62
7
  6
CONTINUOUS
 10
199.154981038
 20
188.0390745668
 11
198.9348109647
 21
187.5148628305
  0
LINE
  5
2E6
100
AcDbEntity
  8
BEZUGSACHSEN
100
AcDbLine
 62
7
  6
CONTINUOUS
 10
198.5224551718
 20
201.1937185392
 11
198.2634678977
 21
200.594678388
  0
LINE
  5
2E7
100
AcDbEntity
  8
BEZUGSACHSEN
100
AcDbLine
 62
7
  6
CONTINUOUS
 10
196.3282866299
 20
190.0868168316
 11
196.1012048045
 21
189.663976654
  0
LINE
  5
2E8
100
AcDbEntity
  8
BEZUGSACHSEN
100
AcDbLine
 62
7
  6
CONTINUOUS
 10
196.8515649136
 20
189.9188186982
 11
196.7380241758
 21
189.7073962904
  0
LINE
  5
2E9
100
AcDbEntity
  8
0
100
AcDbLine
 62
7
  6
CONTINUOUS
 10
230.2160892381
 20
315.3762903981
 11
161.7160892381
 21
196.7308100796
  0
LINE
  5
2EA
100
AcDbEntity
  8
KONSTRUKTIONSELEMENTE
100
AcDbLine
 62
7
  6
CONTINUOUS
 10
90.1386103661
 20
67.7849799957
 11
83.4388984254
 21
56.1807385181
  0
LINE
  5
2EB
100
AcDbEntity
  8
0
100
AcDbLine
 62
7
  6
CONTINUOUS
 10
130.1319553063
 20
134.2254853966
 11
137.4087758129
 21
146.8293082316
  0
LINE
  5
2EC
100
AcDbEntity
  8
KONSTRUKTIONSELEMENTE
100
AcDbLine
 62
7
  6
CONTINUOUS
 10
137.4087758129
 20
146.8293082316
 11
146.3435883129
 21
162.3048574377
  0
LINE
  5
2ED
100
AcDbEntity
  8
KONSTRUKTIONSELEMENTE
100
AcDbLine
 62
7
  6
CONTINUOUS
 10
84.7713256597
 20
53.2885701853
 11
92.125236184
 21
66.0259168478
  0
LINE
  5
2EE
100
AcDbEntity
  8
KONSTRUKTIONSELEMENTE
100
AcDbLine
 62
7
  6
CONTINUOUS
 10
158.6341153002
 20
176.3926746316
 11
157.9624090498
 21
175.2292452781
  0
LINE
  5
2EF
100
AcDbEntity
  8
KONSTRUKTIONSELEMENTE
100
AcDbLine
 62
7
  6
CONTINUOUS
 10
163.7225176324
 20
183.2060460003
 11
159.0116260905
 21
175.0465425008
  0
LINE
  5
2F0
100
AcDbEntity
  8
KONSTRUKTIONSELEMENTE
100
AcDbLine
 62
7
  6
CONTINUOUS
 10
137.7273051703
 20
138.1810172623
 11
130.1970247572
 21
125.1381889915
  0
LINE
  5
2F1
100
AcDbEntity
  8
KONSTRUKTIONSELEMENTE
100
AcDbLine
 62
7
  6
CONTINUOUS
 10
153.9073551837
 20
165.7056859545
 11
145.7438115212
 21
151.5660135614
  0
LINE
  5
2F2
100
AcDbEntity
  8
KONSTRUKTIONSELEMENTE
100
AcDbLine
 62
7
  6
CONTINUOUS
 10
157.8044695007
 20
163.4556859545
 11
149.6409258383
 21
149.3160135614
  0
LINE
  5
2F3
100
AcDbEntity
  8
KONSTRUKTIONSELEMENTE
100
AcDbLine
 62
7
  6
CONTINUOUS
 10
168.0526446514
 20
180.7060460003
 11
163.3417531094
 21
172.5465425008
  0
LINE
  5
2F4
100
AcDbEntity
  8
KONSTRUKTIONSELEMENTE
100
AcDbLine
 62
7
  6
CONTINUOUS
 10
142.0574321892
 20
135.6810172623
 11
134.5271517761
 21
122.6381889915
  0
LINE
  5
2F5
100
AcDbEntity
  8
KONSTRUKTIONSELEMENTE
100
AcDbLine
 62
7
  6
CONTINUOUS
 10
164.0245868763
 20
171.7292452781
 11
164.6962931267
 21
172.8926746316
  0
LINE
  5
2F6
100
AcDbEntity
  8
KONSTRUKTIONSELEMENTE
100
AcDbLine
 62
7
  6
CONTINUOUS
 10
95.0164061864
 20
47.3735701853
 11
102.3703167108
 21
60.1109168478
  0
LINE
  5
2F7
100
AcDbEntity
  8
0
100
AcDbLine
 62
7
  6
CONTINUOUS
 10
149.7063365466
 20
139.7293082316
 11
142.42951604
 21
127.1254853966
  0
LINE
  5
2F8
100
AcDbEntity
  8
KONSTRUKTIONSELEMENTE
100
AcDbLine
 62
7
  6
CONTINUOUS
 10
149.7063365466
 20
139.7293082316
 11
158.6411490466
 21
155.2048574377
  0
LINE
  5
2F9
100
AcDbEntity
  8
KONSTRUKTIONSELEMENTE
100
AcDbLine
 62
7
  6
CONTINUOUS
 10
98.1873110518
 20
47.6657385181
 11
104.8517924645
 21
59.208958931
  0
LINE
  5
2FA
100
AcDbEntity
  8
0
100
AcDbLine
 62
7
  6
CONTINUOUS
 10
249.2686481214
 20
304.3762903981
 11
180.7686481214
 21
185.7308100796
  0
LINE
  5
2FB
100
AcDbEntity
  8
0
100
AcDbLine
 62
7
  6
CONTINUOUS
 10
434.8435883129
 20
155.2048574377
 11
451.0552213195
 21
127.1254853966
  0
LINE
  5
2FC
100
AcDbEntity
  8
0
100
AcDbLine
 62
7
  6
CONTINUOUS
 10
447.1411490466
 20
162.3048574377
 11
463.3527820532
 21
134.2254853966
  0
LINE
  5
2FD
100
AcDbEntity
  8
0
100
AcDbLine
 62
7
  6
CONTINUOUS
 10
431.7686481214
 20
196.7308100796
 11
363.2686481214
 21
315.3762903981
  0
LINE
  5
2FE
100
AcDbEntity
  8
0
100
AcDbLine
 62
7
  6
CONTINUOUS
 10
462.1136234331
 20
159.3104248035
 11
466.0086899709
 21
152.5639716611
  0
LINE
  5
2FF
100
AcDbEntity
  8
BEZUGSACHSEN
100
AcDbLine
 62
7
  6
CONTINUOUS
 10
201.9431631646
 20
188.4328594492
 11
201.716081689
 21
188.0100146336
  0
LINE
  5
300
100
AcDbEntity
  8
KONSTRUKTIONSELEMENTE
100
AcDbLine
 62
7
  6
CONTINUOUS
 10
163.5341315087
 20
140.7410979444
 11
159.6390649709
 21
133.994644802
  0
LINE
  5
301
100
AcDbEntity
  8
RUNDUNGEN
100
AcDbLine
 62
7
  6
CONTINUOUS
 10
183.5419859938
 20
148.5343721813
 11
167.6191518351
 21
120.9552144179
  0
LINE
  5
302
100
AcDbEntity
  8
KONSTRUKTIONSELEMENTE
100
AcDbLine
 62
7
  6
CONTINUOUS
 10
133.2616670988
 20
54.2856781865
 11
131.4939001458
 21
51.223816008
  0
LINE
  5
303
100
AcDbEntity
  8
0
100
AcDbLine
 62
7
  6
CONTINUOUS
 10
195.1760770173
 20
157.6852089338
 11
207.360565626
 21
178.7893622683
  0
LINE
  5
304
100
AcDbEntity
  8
BEZUGSACHSEN
100
AcDbLine
 62
7
  6
CONTINUOUS
 10
193.6267148862
 20
201.6892442056
 11
193.3846128104
 21
201.3295884285
  0
LINE
  5
305
100
AcDbEntity
  8
BEZUGSACHSEN
100
AcDbLine
 62
7
  6
CONTINUOUS
 10
193.2384180719
 20
204.8099955924
 11
191.4885054666
 21
202.2811437616
  0
LINE
  5
306
100
AcDbEntity
  8
BEZUGSACHSEN
100
AcDbLine
 62
7
  6
CONTINUOUS
 10
192.6617953116
 20
205.133003501
 11
191.0504455761
 21
202.841451488
  0
LINE
  5
307
100
AcDbEntity
  8
BEZUGSACHSEN
100
AcDbLine
 62
7
  6
CONTINUOUS
 10
194.9101352375
 20
205.9880062958
 11
194.6710027822
 21
205.6720761943
  0
LINE
  5
308
100
AcDbEntity
  8
BEZUGSACHSEN
100
AcDbLine
 62
7
  6
CONTINUOUS
 10
195.2856159621
 20
205.5077414835
 11
195.0464835068
 21
205.1918113819
  0
LINE
  5
309
100
AcDbEntity
  8
BEZUGSACHSEN
100
AcDbLine
 62
7
  6
CONTINUOUS
 10
160.2183046996
 20
216.0001060443
 11
160.5234258996
 21
216.3705951653
  0
LINE
  5
30A
100
AcDbEntity
  8
BEZUGSACHSEN
100
AcDbLine
 62
7
  6
CONTINUOUS
 10
170.6041021504
 20
214.6424763783
 11
171.0195117062
 21
215.1458245706
  0
LINE
  5
30B
100
AcDbEntity
  8
BEZUGSACHSEN
100
AcDbLine
 62
7
  6
CONTINUOUS
 10
165.085202769
 20
214.9427609311
 11
165.3474044829
 21
215.2416725824
  0
LINE
  5
30C
100
AcDbEntity
  8
0
100
AcDbLine
 62
7
  6
CONTINUOUS
 10
481.2912113666
 20
152.9552144179
 11
465.3683772079
 21
180.5343721813
  0
LINE
  5
30D
100
AcDbEntity
  8
0
100
AcDbLine
 62
7
  6
CONTINUOUS
 10
451.0760770173
 20
216.2893622683
 11
463.260565626
 21
195.1852089338
  0
LINE
  5
30E
100
AcDbEntity
  8
KONSTRUKTIONSELEMENTE
100
AcDbLine
 62
7
  6
CONTINUOUS
 10
182.317061896
 20
79.4119770869
 11
180.549294943
 21
76.3501149084
  0
LINE
  5
30F
100
AcDbEntity
  8
BEZUGSACHSEN
100
AcDbLine
 62
7
  6
CONTINUOUS
 10
196.5622798687
 20
190.4082900893
 11
196.3282866299
 21
190.0868168316
  0
LINE
  5
310
100
AcDbEntity
  8
BEZUGSACHSEN
100
AcDbLine
 62
7
  6
CONTINUOUS
 10
198.7590663412
 20
188.2157612698
 11
198.525073147
 21
187.8942880151
  0
LINE
  5
311
100
AcDbEntity
  8
BEZUGSACHSEN
100
AcDbLine
 62
7
  6
CONTINUOUS
 10
201.299432469
 20
188.4908067388
 11
201.0654392748
 21
188.1693334842
  0
LINE
  5
312
100
AcDbEntity
  8
BEZUGSACHSEN
100
AcDbLine
 62
7
  6
CONTINUOUS
 10
193.2269356305
 20
202.1668565738
 11
192.8722261325
 21
201.7470630019
  0
LINE
  5
313
100
AcDbEntity
  8
BEZUGSACHSEN
100
AcDbLine
 62
7
  6
CONTINUOUS
 10
159.671556324
 20
216.3564642101
 11
159.9205328679
 21
216.573760459
  0
LINE
  5
314
100
AcDbEntity
  8
BEZUGSACHSEN
100
AcDbLine
 62
7
  6
CONTINUOUS
 10
165.3026950189
 20
214.2013358385
 11
165.6653067132
 21
214.5157784375
  0
LINE
  5
315
100
AcDbEntity
  8
BEZUGSACHSEN
100
AcDbLine
 62
7
  6
CONTINUOUS
 10
170.1052212739
 20
215.1620464869
 11
170.4145140726
 21
215.4119182115
  0
LINE
  5
316
100
AcDbEntity
  8
0
100
AcDbLine
 62
7
  6
CONTINUOUS
 10
473.830178897
 20
169.0244980811
 11
463.260565626
 21
195.1852089338
  0
LINE
  5
317
100
AcDbEntity
  8
RUNDUNGEN
100
AcDbLine
 62
7
  6
CONTINUOUS
 10
177.8050434733
 20
135.4512999066
 11
195.1760770173
 21
157.6852089338
  0
LINE
  5
318
100
AcDbEntity
  8
BEZUGSACHSEN
100
AcDbLine
 62
7
  6
CONTINUOUS
 10
197.7510802032
 20
201.0121550548
 11
197.4611156439
 21
200.7421244713
  0
LINE
  5
319
100
AcDbEntity
  8
BEZUGSACHSEN
100
AcDbLine
 62
7
  6
CONTINUOUS
 10
197.0924699157
 20
190.138920398
 11
196.8515649136
 21
189.9188186982
  0
LINE
  5
31A
100
AcDbEntity
  8
BEZUGSACHSEN
100
AcDbLine
 62
7
  6
CONTINUOUS
 10
201.716081689
 20
188.0100146336
 11
201.2342721797
 21
187.5698066059
  0
LINE
  5
31B
100
AcDbEntity
  8
BEZUGSACHSEN
100
AcDbLine
 62
7
  6
CONTINUOUS
 10
194.0292875688
 20
202.019410322
 11
193.6267148862
 21
201.6892442056
  0
LINE
  5
31C
100
AcDbEntity
  8
BEZUGSACHSEN
100
AcDbLine
 62
7
  6
CONTINUOUS
 10
194.6710027822
 20
205.6720761943
 11
194.3692894469
 21
205.4361906185
  0
LINE
  5
31D
100
AcDbEntity
  8
BEZUGSACHSEN
100
AcDbLine
 62
7
  6
CONTINUOUS
 10
195.0464835068
 20
205.1918113819
 11
194.6441991536
 21
204.8772973544
  0
LINE
  5
31E
100
AcDbEntity
  8
BEZUGSACHSEN
100
AcDbLine
 62
7
  6
CONTINUOUS
 10
170.1932219144
 20
214.3944071379
 11
170.6041021504
 21
214.6424763783
  0
LINE
  5
31F
100
AcDbEntity
  8
0
100
AcDbLine
 62
7
  6
CONTINUOUS
 10
421.7423686797
 20
408.6031864295
 11
421.7423686797
 21
618.6031864295
  0
LINE
  5
320
100
AcDbEntity
  8
0
100
AcDbLine
 62
7
  6
CONTINUOUS
 10
386.1241717335
 20
178.7893622683
 11
388.6714234734
 21
203.0248436788
  0
LINE
  5
321
100
AcDbEntity
  8
BEZUGSACHSEN
100
AcDbLine
 62
7
  6
CONTINUOUS
 10
193.7421167518
 20
202.5571583916
 11
193.2269356305
 21
202.1668565738
  0
LINE
  5
322
100
AcDbEntity
  8
BEZUGSACHSEN
100
AcDbLine
 62
7
  6
CONTINUOUS
 10
198.2634678977
 20
200.594678388
 11
197.7482864609
 21
200.2043764017
  0
LINE
  5
323
100
AcDbEntity
  8
BEZUGSACHSEN
100
AcDbLine
 62
7
  6
CONTINUOUS
 10
164.7030772627
 20
214.7544776868
 11
165.085202769
 21
214.9427609311
  0
LINE
  5
324
100
AcDbEntity
  8
0
100
AcDbLine
 62
7
  6
CONTINUOUS
 10
164.6708287866
 20
226.201118257
 11
142.4086603422
 21
216.2893622683
  0
LINE
  5
325
100
AcDbEntity
  8
BEZUGSACHSEN
100
AcDbLine
 62
7
  6
CONTINUOUS
 10
164.820160117
 20
213.9975216692
 11
165.3026950189
 21
214.2013358385
  0
LINE
  5
326
100
AcDbEntity
  8
BEZUGSACHSEN
100
AcDbLine
 62
7
  6
CONTINUOUS
 10
196.9305483238
 20
190.6370803495
 11
196.5622798687
 21
190.4082900893
  0
LINE
  5
327
100
AcDbEntity
  8
BEZUGSACHSEN
100
AcDbLine
 62
7
  6
CONTINUOUS
 10
198.9348109647
 20
187.5148628305
 11
198.5665421932
 21
187.2860772106
  0
LINE
  5
328
100
AcDbEntity
  8
BEZUGSACHSEN
100
AcDbLine
 62
7
  6
CONTINUOUS
 10
201.0654392748
 20
188.1693334842
 11
200.6971708197
 21
187.9405432239
  0
LINE
  5
329
100
AcDbEntity
  8
BEZUGSACHSEN
100
AcDbLine
 62
7
  6
CONTINUOUS
 10
193.7421167518
 20
202.5571583916
 11
195.4312434911
 21
203.4591939972
  0
LINE
  5
32A
100
AcDbEntity
  8
BEZUGSACHSEN
100
AcDbLine
 62
7
  6
CONTINUOUS
 10
194.0292875688
 20
202.019410322
 11
195.718414308
 21
202.9214459276
  0
LINE
  5
32B
100
AcDbEntity
  8
BEZUGSACHSEN
100
AcDbLine
 62
7
  6
CONTINUOUS
 10
196.0168834696
 20
201.0075252629
 11
195.341232837
 21
200.6467110544
  0
LINE
  5
32C
100
AcDbEntity
  8
BEZUGSACHSEN
100
AcDbLine
 62
7
  6
CONTINUOUS
 10
195.7719890624
 20
199.8400889499
 11
194.8711213945
 21
199.3590032543
  0
LINE
  5
32D
100
AcDbEntity
  8
BEZUGSACHSEN
100
AcDbLine
 62
7
  6
CONTINUOUS
 10
196.734810512
 20
199.6631550889
 11
195.0456837727
 21
198.7611194832
  0
LINE
  5
32E
100
AcDbEntity
  8
BEZUGSACHSEN
100
AcDbLine
 62
7
  6
CONTINUOUS
 10
197.3402859144
 20
190.2576598113
 11
197.0924699157
 21
190.138920398
  0
LINE
  5
32F
100
AcDbEntity
  8
BEZUGSACHSEN
100
AcDbLine
 62
7
  6
CONTINUOUS
 10
198.525073147
 20
187.8942880151
 11
198.0294406548
 21
187.6568138165
  0
LINE
  5
330
100
AcDbEntity
  8
BEZUGSACHSEN
100
AcDbLine
 62
7
  6
CONTINUOUS
 10
194.0049957951
 20
205.2803500091
 11
194.3692894469
 21
205.4361906185
  0
LINE
  5
331
100
AcDbEntity
  8
BEZUGSACHSEN
100
AcDbLine
 62
7
  6
CONTINUOUS
 10
194.2799055019
 20
204.721456745
 11
194.6441991536
 21
204.8772973544
  0
LINE
  5
332
100
AcDbEntity
  8
BEZUGSACHSEN
100
AcDbLine
 62
7
  6
CONTINUOUS
 10
195.4312434911
 20
203.4591939972
 11
196.0421470729
 21
203.6702493621
  0
LINE
  5
333
100
AcDbEntity
  8
BEZUGSACHSEN
100
AcDbLine
 62
7
  6
CONTINUOUS
 10
156.4557358547
 20
217.97799735
 11
158.7697174061
 21
218.7472375024
  0
LINE
  5
334
100
AcDbEntity
  8
BEZUGSACHSEN
100
AcDbLine
 62
7
  6
CONTINUOUS
 10
157.2355869923
 20
217.5646012393
 11
159.0674889619
 21
218.173582996
  0
LINE
  5
335
100
AcDbEntity
  8
BEZUGSACHSEN
100
AcDbLine
 62
7
  6
CONTINUOUS
 10
157.8396543544
 20
215.7474824534
 11
159.671556324
 21
216.3564642101
  0
LINE
  5
336
100
AcDbEntity
  8
BEZUGSACHSEN
100
AcDbLine
 62
7
  6
CONTINUOUS
 10
158.0812812541
 20
215.0206350748
 11
159.7203514737
 21
215.5655135008
  0
LINE
  5
337
100
AcDbEntity
  8
BEZUGSACHSEN
100
AcDbLine
 62
7
  6
CONTINUOUS
 10
158.3484801281
 20
212.2843588723
 11
158.926975516
 21
212.4766689104
  0
LINE
  5
338
100
AcDbEntity
  8
BEZUGSACHSEN
100
AcDbLine
 62
7
  6
CONTINUOUS
 10
161.3373728734
 20
213.2779607052
 11
162.0122843431
 21
213.5023224774
  0
LINE
  5
339
100
AcDbEntity
  8
BEZUGSACHSEN
100
AcDbLine
 62
7
  6
CONTINUOUS
 10
169.6966056984
 20
215.0416167503
 11
170.1052212739
 21
215.1620464869
  0
LINE
  5
33A
100
AcDbEntity
  8
0
100
AcDbLine
 62
7
  6
CONTINUOUS
 10
457.7423686797
 20
408.6031864295
 11
457.7423686797
 21
618.6031864295
  0
LINE
  5
33B
100
AcDbEntity
  8
BEZUGSACHSEN
100
AcDbLine
 62
7
  6
CONTINUOUS
 10
197.3057285868
 20
190.7644990549
 11
196.9305483238
 21
190.6370803495
  0
LINE
  5
33C
100
AcDbEntity
  8
BEZUGSACHSEN
100
AcDbLine
 62
7
  6
CONTINUOUS
 10
195.718414308
 20
202.9214459276
 11
196.2167091356
 21
203.0723654226
  0
LINE
  5
33D
100
AcDbEntity
  8
BEZUGSACHSEN
100
AcDbLine
 62
7
  6
CONTINUOUS
 10
194.5473888663
 20
198.6101999461
 11
195.0456837727
 21
198.7611194832
  0
LINE
  5
33E
100
AcDbEntity
  8
0
100
AcDbLine
 62
7
  6
CONTINUOUS
 10
388.6714234734
 20
203.0248436788
 11
397.2382308629
 21
212.5392471778
  0
LINE
  5
33F
100
AcDbEntity
  8
RUNDUNGEN
100
AcDbLine
 62
7
  6
CONTINUOUS
 10
177.8050434733
 20
135.4512999066
 11
176.5312420308
 21
134.9876740972
  0
LINE
  5
340
100
AcDbEntity
  8
0
100
AcDbLine
 62
7
  6
CONTINUOUS
 10
473.5947899046
 20
167.6895407678
 11
473.830178897
 21
169.0244980811
  0
LINE
  5
341
100
AcDbEntity
  8
0
100
AcDbLine
 62
7
  6
CONTINUOUS
 10
481.528776065
 20
151.6079180625
 11
479.6636533804
 21
141.0302816897
  0
LINE
  5
342
100
AcDbEntity
  8
KONSTRUKTIONSELEMENTE
100
AcDbLine
 62
7
  6
CONTINUOUS
 10
126.3386936318
 20
64.6498980916
 11
163.3370734547
 21
83.1747231271
  0
LINE
  5
343
100
AcDbEntity
  8
0
100
AcDbLine
 62
7
  6
CONTINUOUS
 10
156.478078161
 20
116.402254616
 11
165.9822244018
 21
119.8614809497
  0
LINE
  5
344
100
AcDbEntity
  8
RUNDUNGEN
100
AcDbLine
 62
7
  6
CONTINUOUS
 10
165.9822244018
 20
119.8614809497
 11
166.5711413142
 21
120.0758291763
  0
LINE
  5
345
100
AcDbEntity
  8
KONSTRUKTIONSELEMENTE
100
AcDbLine
 62
7
  6
CONTINUOUS
 10
130.9794545333
 20
50.9035020442
 11
131.3440374745
 21
51.0860461239
  0
LINE
  5
346
100
AcDbEntity
  8
KONSTRUKTIONSELEMENTE
100
AcDbLine
 62
7
  6
CONTINUOUS
 10
178.1583139851
 20
74.5256206585
 11
179.0506682295
 21
74.9724160675
  0
LINE
  5
347
100
AcDbEntity
  8
0
100
AcDbLine
 62
7
  6
CONTINUOUS
 10
451.9411490466
 20
153.9910135614
 11
439.6435883129
 21
146.8910135614
  0
LINE
  5
348
100
AcDbEntity
  8
0
100
AcDbLine
 62
7
  6
CONTINUOUS
 10
459.7411490466
 20
140.4810172623
 11
447.4435883129
 21
133.3810172623
  0
LINE
  5
349
100
AcDbEntity
  8
KONSTRUKTIONSELEMENTE
100
AcDbLine
 62
7
  6
CONTINUOUS
 10
438.6906994851
 20
116.54958905
 11
443.5375558064
 21
119.3479228518
  0
LINE
  5
34A
100
AcDbEntity
  8
KONSTRUKTIONSELEMENTE
100
AcDbLine
 62
7
  6
CONTINUOUS
 10
473.8471815531
 20
136.8471934356
 11
478.6940378744
 21
139.6455272375
  0
LINE
  5
34B
100
AcDbEntity
  8
KONSTRUKTIONSELEMENTE
100
AcDbLine
 62
7
  6
CONTINUOUS
 10
585.6598677384
 20
49.4324550855
 11
588.2761628288
 21
47.1666770734
  0
LINE
  5
34C
100
AcDbEntity
  8
KONSTRUKTIONSELEMENTE
100
AcDbLine
 62
7
  6
CONTINUOUS
 10
588.6334986711
 20
47.3735701853
 11
588.1738792634
 21
47.7716122685
  0
LINE
  5
34D
100
AcDbEntity
  8
KONSTRUKTIONSELEMENTE
100
AcDbLine
 62
7
  6
CONTINUOUS
 10
585.0979647652
 20
50.4354323638
 11
585.557584173
 21
50.0373902806
  0
LINE
  5
34E
100
AcDbEntity
  8
KONSTRUKTIONSELEMENTE
100
AcDbLine
 62
7
  6
CONTINUOUS
 10
588.6334986711
 20
53.2885701853
 11
588.1738792634
 21
53.6866122685
  0
LINE
  5
34F
100
AcDbEntity
  8
KONSTRUKTIONSELEMENTE
100
AcDbLine
 62
7
  6
CONTINUOUS
 10
585.0979647652
 20
56.3504323638
 11
585.557584173
 21
55.9523902806
  0
LINE
  5
350
100
AcDbEntity
  8
KONSTRUKTIONSELEMENTE
100
AcDbLine
 62
7
  6
CONTINUOUS
 10
603.8236862942
 20
53.6795249144
 11
607.3592202001
 21
50.6176627359
  0
LINE
  5
351
100
AcDbEntity
  8
KONSTRUKTIONSELEMENTE
100
AcDbLine
 62
7
  6
CONTINUOUS
 10
607.018274982
 20
72.6036967336
 11
606.5586555742
 21
73.0017388168
  0
LINE
  5
352
100
AcDbEntity
  8
KONSTRUKTIONSELEMENTE
100
AcDbLine
 62
7
  6
CONTINUOUS
 10
603.9423604838
 20
75.2675168288
 11
603.4827410761
 21
75.665558912
  0
LWPOLYLINE
  5
353
100
AcDbEntity
  8
0
100
AcDbPolyline
 62
7
  6
CONTINUOUS
 90
15
 70
0
 10
783.7949702781
 20
116.2816410484
 10
784.7381549525
 20
116.2934046719
 10
785.8918186333
 20
116.339958413
 10
787.0508478199
 20
116.4229948185
 10
788.2119003131
 20
116.5438105839
 10
789.3693882446
 20
116.7035598304
 10
790.5175973724
 20
116.9033345501
 10
791.6506342942
 20
117.1441855375
 10
792.7627480822
 20
117.4272428107
 10
793.8466249021
 20
117.7532817638
 10
794.9007205252
 20
118.1252184094
 10
795.9151137512
 20
118.5437226743
 10
796.9014897329
 20
119.0204685184
 10
797.8664390265
 20
119.5719541426
 10
798.6946385127
 20
120.1348469737
  0
LWPOLYLINE
  5
354
100
AcDbEntity
  8
RUNDUNGEN
100
AcDbPolyline
 62
7
  6
CONTINUOUS
 90
15
 70
0
 10
783.7949702792
 20
116.2816410485
 10
784.7351256871
 20
116.2933291592
 10
785.8879892459
 20
116.339744807
 10
787.048727611
 20
116.4228091067
 10
788.2128846263
 20
116.5439294513
 10
789.3740924167
 20
116.7042923361
 10
790.5258940777
 20
116.9049355559
 10
791.6617552085
 20
117.1467787385
 10
792.7754015453
 20
117.4307505343
 10
793.8589881632
 20
117.7573138587
 10
794.9112755121
 20
118.1292477088
 10
795.9219368769
 20
118.5467663814
 10
796.9047138162
 20
119.0221582781
 10
797.8676166062
 20
119.5726891189
 10
798.6946402304
 20
120.1348482489
  0
LINE
  5
355
100
AcDbEntity
  8
RUNDUNGEN
100
AcDbLine
 62
7
  6
CONTINUOUS
 10
782.8534570999
 20
116.2933838246
 11
783.7949702781
 21
116.2816410485
  0
LINE
  5
356
100
AcDbEntity
  8
KONSTRUKTIONSELEMENTE
100
AcDbLine
 62
7
  6
CONTINUOUS
 10
649.9520028084
 20
77.5588989062
 11
653.4875367143
 21
74.4970367277
  0
LINE
  5
357
100
AcDbEntity
  8
KONSTRUKTIONSELEMENTE
100
AcDbLine
 62
7
  6
CONTINUOUS
 10
657.1630362434
 20
134.3796920631
 11
657.0956380852
 21
134.3719953329
  0
LINE
  5
358
100
AcDbEntity
  8
KONSTRUKTIONSELEMENTE
100
AcDbLine
 62
7
  6
CONTINUOUS
 10
646.3421762324
 20
121.440597728
 11
648.8673424497
 21
119.7983054207
  0
LINE
  5
359
100
AcDbEntity
  8
KONSTRUKTIONSELEMENTE
100
AcDbLine
 62
7
  6
CONTINUOUS
 10
645.8825568246
 20
121.8386398112
 11
648.4077230419
 21
120.1963475039
  0
LINE
  5
35A
100
AcDbEntity
  8
KONSTRUKTIONSELEMENTE
100
AcDbLine
 62
7
  6
CONTINUOUS
 10
642.8066423265
 20
124.5024599065
 11
643.3115640176
 21
124.1740739953
  0
LINE
  5
35B
100
AcDbEntity
  8
KONSTRUKTIONSELEMENTE
100
AcDbLine
 62
7
  6
CONTINUOUS
 10
648.1315140835
 20
123.4520475773
 11
650.0739496352
 21
122.1887458024
  0
LINE
  5
35C
100
AcDbEntity
  8
KONSTRUKTIONSELEMENTE
100
AcDbLine
 62
7
  6
CONTINUOUS
 10
645.5152189931
 20
125.7178255894
 11
647.4576545448
 21
124.4545238145
  0
LINE
  5
35D
100
AcDbEntity
  8
KONSTRUKTIONSELEMENTE
100
AcDbLine
 62
7
  6
CONTINUOUS
 10
655.0498405824
 20
133.6928323262
 11
656.9922761342
 21
132.4295305513
  0
LINE
  5
35E
100
AcDbEntity
  8
KONSTRUKTIONSELEMENTE
100
AcDbLine
 62
7
  6
CONTINUOUS
 10
659.6882024607
 20
132.7373997558
 11
657.1630362434
 21
134.3796920631
  0
LINE
  5
35F
100
AcDbEntity
  8
KONSTRUKTIONSELEMENTE
100
AcDbLine
 62
7
  6
CONTINUOUS
 10
655.024175831
 20
133.7114852912
 11
655.0498405824
 21
133.6928323262
  0
LINE
  5
360
100
AcDbEntity
  8
KONSTRUKTIONSELEMENTE
100
AcDbLine
 62
7
  6
CONTINUOUS
 10
646.3421762324
 20
121.440597728
 11
645.8825568246
 21
121.8386398112
  0
LINE
  5
361
100
AcDbEntity
  8
KONSTRUKTIONSELEMENTE
100
AcDbLine
 62
7
  6
CONTINUOUS
 10
642.8066423265
 20
124.5024599065
 11
643.2662617342
 21
124.1044178233
  0
LINE
  5
362
100
AcDbEntity
  8
0
100
AcDbLine
 62
7
  6
CONTINUOUS
 10
779.3630383556
 20
169.0244980811
 11
788.2269022017
 21
169.0244980811
  0
LINE
  5
363
100
AcDbEntity
  8
KONSTRUKTIONSELEMENTE
100
AcDbLine
 62
7
  6
CONTINUOUS
 10
678.7902670581
 20
131.7900680255
 11
665.3217787011
 21
140.5495685559
  0
LINE
  5
364
100
AcDbEntity
  8
KONSTRUKTIONSELEMENTE
100
AcDbLine
 62
7
  6
CONTINUOUS
 10
675.2547331522
 20
134.851930204
 11
661.7862447952
 21
143.6114307344
  0
LINE
  5
365
100
AcDbEntity
  8
BEZUGSACHSEN
100
AcDbLine
 62
7
  6
CONTINUOUS
 10
679.0120255062
 20
131.6225402304
 11
678.7902670581
 21
131.7900680255
  0
LINE
  5
366
100
AcDbEntity
  8
BEZUGSACHSEN
100
AcDbLine
 62
7
  6
CONTINUOUS
 10
675.4764916003
 20
134.6844024089
 11
675.2547331522
 21
134.851930204
  0
LINE
  5
367
100
AcDbEntity
  8
KONSTRUKTIONSELEMENTE
100
AcDbLine
 62
7
  6
CONTINUOUS
 10
657.019780422
 20
132.4084854484
 11
656.9922761342
 21
132.4295305513
  0
LINE
  5
368
100
AcDbEntity
  8
KONSTRUKTIONSELEMENTE
100
AcDbLine
 62
7
  6
CONTINUOUS
 10
654.3093469505
 20
134.3310557371
 11
655.0294180075
 21
133.7074559093
  0
LINE
  5
369
100
AcDbEntity
  8
BEZUGSACHSEN
100
AcDbLine
 62
7
  6
CONTINUOUS
 10
675.4754897706
 20
134.6858807337
 11
678.8027038606
 21
131.804428808
  0
LINE
  5
36A
100
AcDbEntity
  8
0
100
AcDbLine
 62
7
  6
CONTINUOUS
 10
779.4620273612
 20
195.1852089338
 11
788.1279131961
 21
195.1852089338
  0
LWPOLYLINE
  5
36B
100
AcDbEntity
  8
0
100
AcDbPolyline
 62
7
  6
CONTINUOUS
 90
15
 70
0
 10
768.8953020446
 20
120.1348469737
 10
769.7235015307
 20
119.5719541426
 10
770.6884508243
 20
119.0204685184
 10
771.6748268061
 20
118.5437226743
 10
772.6892200321
 20
118.1252184094
 10
773.7433156551
 20
117.7532817638
 10
774.8271924751
 20
117.4272428107
 10
775.9393062631
 20
117.1441855375
 10
777.0723431849
 20
116.9033345501
 10
778.2205523126
 20
116.7035598304
 10
779.3780402441
 20
116.5438105839
 10
780.5390927374
 20
116.4229948185
 10
781.6981219239
 20
116.339958413
 10
782.8517856047
 20
116.2934046719
 10
783.7949702792
 20
116.2816410484
  0
LWPOLYLINE
  5
36C
100
AcDbEntity
  8
RUNDUNGEN
100
AcDbPolyline
 62
7
  6
CONTINUOUS
 90
14
 70
0
 10
768.8953003269
 20
120.1348482489
 10
769.7223239511
 20
119.5726891189
 10
770.6852267411
 20
119.0221582781
 10
771.6680036804
 20
118.5467663814
 10
772.6786650452
 20
118.1292477088
 10
773.7309523941
 20
117.7573138587
 10
774.814539012
 20
117.4307505343
 10
775.9281853488
 20
117.1467787385
 10
777.0640464795
 20
116.9049355559
 10
778.2158481406
 20
116.7042923361
 10
779.377055931
 20
116.5439294513
 10
780.5412129463
 20
116.4228091067
 10
781.7019513114
 20
116.339744807
 10
782.8534570999
 20
116.2933838246
  0
LINE
  5
36D
100
AcDbEntity
  8
BEZUGSACHSEN
100
AcDbLine
 62
7
  6
CONTINUOUS
 10
776.0876888984
 20
212.2843588723
 11
776.0537412267
 21
212.2843588723
  0
LINE
  5
36E
100
AcDbEntity
  8
BEZUGSACHSEN
100
AcDbLine
 62
7
  6
CONTINUOUS
 10
790.9858692705
 20
212.2843588723
 11
791.5361993305
 21
212.2843588723
  0
LINE
  5
36F
100
AcDbEntity
  8
BEZUGSACHSEN
100
AcDbLine
 62
7
  6
CONTINUOUS
 10
776.1356371761
 20
212.4766689104
 11
776.0462799134
 21
212.4766689104
  0
LINE
  5
370
100
AcDbEntity
  8
BEZUGSACHSEN
100
AcDbLine
 62
7
  6
CONTINUOUS
 10
776.335421659
 20
213.2779607052
 11
776.0513599335
 21
213.2779607052
  0
LINE
  5
371
100
AcDbEntity
  8
BEZUGSACHSEN
100
AcDbLine
 62
7
  6
CONTINUOUS
 10
791.3332735771
 20
213.2779607052
 11
791.5385806237
 21
213.2779607052
  0
LINE
  5
372
100
AcDbEntity
  8
BEZUGSACHSEN
100
AcDbLine
 62
7
  6
CONTINUOUS
 10
776.3913613316
 20
213.5023224774
 11
776.063223237
 21
213.5023224774
  0
LINE
  5
373
100
AcDbEntity
  8
BEZUGSACHSEN
100
AcDbLine
 62
7
  6
CONTINUOUS
 10
776.4993391235
 20
213.9353977464
 11
776.0517653836
 21
213.9353977464
  0
LINE
  5
374
100
AcDbEntity
  8
BEZUGSACHSEN
100
AcDbLine
 62
7
  6
CONTINUOUS
 10
791.4030965032
 20
213.9353977464
 11
791.5381751736
 21
213.9353977464
  0
LINE
  5
375
100
AcDbEntity
  8
BEZUGSACHSEN
100
AcDbLine
 62
7
  6
CONTINUOUS
 10
791.3892509529
 20
213.9839022422
 11
791.5052979444
 21
213.9839022422
  0
LINE
  5
376
100
AcDbEntity
  8
BEZUGSACHSEN
100
AcDbLine
 62
7
  6
CONTINUOUS
 10
776.5148283571
 20
213.9975216692
 11
776.0526025101
 21
213.9975216692
  0
LINE
  5
377
100
AcDbEntity
  8
BEZUGSACHSEN
100
AcDbLine
 62
7
  6
CONTINUOUS
 10
791.3348906065
 20
214.1740969957
 11
791.4391625886
 21
214.1740969957
  0
LINE
  5
378
100
AcDbEntity
  8
BEZUGSACHSEN
100
AcDbLine
 62
7
  6
CONTINUOUS
 10
776.5656449369
 20
214.2013358385
 11
776.0875581759
 21
214.2013358385
  0
LINE
  5
379
100
AcDbEntity
  8
BEZUGSACHSEN
100
AcDbLine
 62
7
  6
CONTINUOUS
 10
776.5878288338
 20
214.275779839
 11
776.0619416338
 21
214.275779839
  0
LINE
  5
37A
100
AcDbEntity
  8
BEZUGSACHSEN
100
AcDbLine
 62
7
  6
CONTINUOUS
 10
791.4864655183
 20
214.275779839
 11
791.5279989235
 21
214.275779839
  0
LINE
  5
37B
100
AcDbEntity
  8
BEZUGSACHSEN
100
AcDbLine
 62
7
  6
CONTINUOUS
 10
791.477172543
 20
214.3190382826
 11
791.5140028214
 21
214.3190382826
  0
LINE
  5
37C
100
AcDbEntity
  8
BEZUGSACHSEN
100
AcDbLine
 62
7
  6
CONTINUOUS
 10
776.62270332
 20
214.3944071379
 11
776.0975813648
 21
214.3944071379
  0
LINE
  5
37D
100
AcDbEntity
  8
BEZUGSACHSEN
100
AcDbLine
 62
7
  6
CONTINUOUS
 10
791.2081056041
 20
214.6166104922
 11
791.308023264
 21
214.6166104922
  0
LINE
  5
37E
100
AcDbEntity
  8
BEZUGSACHSEN
100
AcDbLine
 62
7
  6
CONTINUOUS
 10
776.6756336266
 20
214.6424763783
 11
776.1658681499
 21
214.6424763783
  0
LINE
  5
37F
100
AcDbEntity
  8
BEZUGSACHSEN
100
AcDbLine
 62
7
  6
CONTINUOUS
 10
791.3147362982
 20
214.7544776868
 11
791.3463860967
 21
214.7544776868
  0
LINE
  5
380
100
AcDbEntity
  8
BEZUGSACHSEN
100
AcDbLine
 62
7
  6
CONTINUOUS
 10
791.2496711939
 20
214.9427609311
 11
791.3123042105
 21
214.9427609311
  0
LINE
  5
381
100
AcDbEntity
  8
BEZUGSACHSEN
100
AcDbLine
 62
7
  6
CONTINUOUS
 10
791.0720500894
 20
215.0901859054
 11
791.178395991
 21
215.0901859054
  0
LINE
  5
382
100
AcDbEntity
  8
BEZUGSACHSEN
100
AcDbLine
 62
7
  6
CONTINUOUS
 10
776.8011324262
 20
215.1458245706
 11
776.2990382634
 21
215.1458245706
  0
LINE
  5
383
100
AcDbEntity
  8
BEZUGSACHSEN
100
AcDbLine
 62
7
  6
CONTINUOUS
 10
791.1717765452
 20
215.2416725824
 11
791.2460564796
 21
215.2416725824
  0
LINE
  5
384
100
AcDbEntity
  8
BEZUGSACHSEN
100
AcDbLine
 62
7
  6
CONTINUOUS
 10
791.0633840929
 20
215.651212464
 11
791.1484809164
 21
215.651212464
  0
LINE
  5
385
100
AcDbEntity
  8
BEZUGSACHSEN
100
AcDbLine
 62
7
  6
CONTINUOUS
 10
776.9275300285
 20
215.6527776641
 11
776.4295689321
 21
215.6527776641
  0
LINE
  5
386
100
AcDbEntity
  8
BEZUGSACHSEN
100
AcDbLine
 62
7
  6
CONTINUOUS
 10
790.894799076
 20
215.7054515102
 11
791.0181346557
 21
215.7054515102
  0
LINE
  5
387
100
AcDbEntity
  8
BEZUGSACHSEN
100
AcDbLine
 62
7
  6
CONTINUOUS
 10
790.9307882221
 20
216.1713807531
 11
791.0201052515
 21
216.1713807531
  0
LINE
  5
388
100
AcDbEntity
  8
BEZUGSACHSEN
100
AcDbLine
 62
7
  6
CONTINUOUS
 10
777.0862011037
 20
216.2891725874
 11
776.5901436017
 21
216.2891725874
  0
LINE
  5
389
100
AcDbEntity
  8
0
100
AcDbLine
 62
7
  6
CONTINUOUS
 10
779.6113817582
 20
216.2893622683
 11
787.9785587991
 21
216.2893622683
  0
LINE
  5
38A
100
AcDbEntity
  8
BEZUGSACHSEN
100
AcDbLine
 62
7
  6
CONTINUOUS
 10
790.5249114506
 20
216.3564642101
 11
790.6861267871
 21
216.3564642101
  0
LINE
  5
38B
100
AcDbEntity
  8
BEZUGSACHSEN
100
AcDbLine
 62
7
  6
CONTINUOUS
 10
790.4678494542
 20
216.573760459
 11
790.6517864989
 21
216.573760459
  0
LINE
  5
38C
100
AcDbEntity
  8
BEZUGSACHSEN
100
AcDbLine
 62
7
  6
CONTINUOUS
 10
790.3873915678
 20
216.8801462951
 11
790.5860957523
 21
216.8801462951
  0
LINE
  5
38D
100
AcDbEntity
  8
BEZUGSACHSEN
100
AcDbLine
 62
7
  6
CONTINUOUS
 10
790.2835373592
 20
217.2756216268
 11
790.4895529245
 21
217.2756216268
  0
LINE
  5
38E
100
AcDbEntity
  8
BEZUGSACHSEN
100
AcDbLine
 62
7
  6
CONTINUOUS
 10
790.2076488678
 20
217.6390456555
 11
790.394169392
 21
217.6390456555
  0
LINE
  5
38F
100
AcDbEntity
  8
BEZUGSACHSEN
100
AcDbLine
 62
7
  6
CONTINUOUS
 10
790.2114058922
 20
217.9704177024
 11
790.2999044538
 21
217.9704177024
  0
LINE
  5
390
100
AcDbEntity
  8
BEZUGSACHSEN
100
AcDbLine
 62
7
  6
CONTINUOUS
 10
789.492958021
 20
217.97799735
 11
790.0424534747
 21
217.97799735
  0
LINE
  5
391
100
AcDbEntity
  8
BEZUGSACHSEN
100
AcDbLine
 62
7
  6
CONTINUOUS
 10
790.20887201
 20
218.1485967853
 11
790.2382933133
 21
218.1485967853
  0
LINE
  5
392
100
AcDbEntity
  8
BEZUGSACHSEN
100
AcDbLine
 62
7
  6
CONTINUOUS
 10
777.5635625616
 20
218.203764821
 11
777.066342002
 21
218.203764821
  0
LINE
  5
393
100
AcDbEntity
  8
BEZUGSACHSEN
100
AcDbLine
 62
7
  6
CONTINUOUS
 10
789.5059317997
 20
218.7472375024
 11
790.0504097681
 21
218.7472375024
  0
LINE
  5
394
100
AcDbEntity
  8
BEZUGSACHSEN
100
AcDbLine
 62
7
  6
CONTINUOUS
 10
789.5348483504
 20
218.7863546683
 11
790.0783126315
 21
218.7863546683
  0
LINE
  5
395
100
AcDbEntity
  8
BEZUGSACHSEN
100
AcDbLine
 62
7
  6
CONTINUOUS
 10
777.7231325177
 20
218.8437649585
 11
777.2234146113
 21
218.8437649585
  0
LINE
  5
396
100
AcDbEntity
  8
BEZUGSACHSEN
100
AcDbLine
 62
7
  6
CONTINUOUS
 10
777.8513276914
 20
219.3579277169
 11
777.3473652659
 21
219.3579277169
  0
LINE
  5
397
100
AcDbEntity
  8
BEZUGSACHSEN
100
AcDbLine
 62
7
  6
CONTINUOUS
 10
789.494385688
 20
219.6163910083
 11
790.0327008128
 21
219.6163910083
  0
LINE
  5
398
100
AcDbEntity
  8
BEZUGSACHSEN
100
AcDbLine
 62
7
  6
CONTINUOUS
 10
789.5013346042
 20
219.7095768924
 11
790.0385625481
 21
219.7095768924
  0
LINE
  5
399
100
AcDbEntity
  8
BEZUGSACHSEN
100
AcDbLine
 62
7
  6
CONTINUOUS
 10
777.9804216568
 20
219.8756953319
 11
777.4692929154
 21
219.8756953319
  0
LINE
  5
39A
100
AcDbEntity
  8
BEZUGSACHSEN
100
AcDbLine
 62
7
  6
CONTINUOUS
 10
789.5013346016
 20
220.0823202512
 11
790.0344397059
 21
220.0823202512
  0
LINE
  5
39B
100
AcDbEntity
  8
BEZUGSACHSEN
100
AcDbLine
 62
7
  6
CONTINUOUS
 10
778.0543554026
 20
220.1381840063
 11
777.5289752266
 21
220.1381840063
  0
LINE
  5
39C
100
AcDbEntity
  8
BEZUGSACHSEN
100
AcDbLine
 62
7
  6
CONTINUOUS
 10
789.494385688
 20
220.1755060908
 11
790.026521634
 21
220.1755060908
  0
LINE
  5
39D
100
AcDbEntity
  8
BEZUGSACHSEN
100
AcDbLine
 62
7
  6
CONTINUOUS
 10
778.0836609677
 20
220.2748356592
 11
777.5576362168
 21
220.2748356592
  0
LINE
  5
39E
100
AcDbEntity
  8
BEZUGSACHSEN
100
AcDbLine
 62
7
  6
CONTINUOUS
 10
778.0984871068
 20
220.3180941028
 11
777.569138991
 21
220.3180941028
  0
LINE
  5
39F
100
AcDbEntity
  8
BEZUGSACHSEN
100
AcDbLine
 62
7
  6
CONTINUOUS
 10
789.4914534504
 20
220.3180941028
 11
790.0208015662
 21
220.3180941028
  0
LINE
  5
3A0
100
AcDbEntity
  8
0
100
AcDbLine
 62
7
  6
CONTINUOUS
 10
779.6113817582
 20
226.201118257
 11
787.9785587991
 21
226.201118257
  0
LINE
  5
3A1
100
AcDbEntity
  8
0
100
AcDbLine
 62
7
  6
CONTINUOUS
 10
768.6068233775
 20
120.3487955226
 11
768.8958404472
 21
120.1344472961
  0
LINE
  5
3A2
100
AcDbEntity
  8
KONSTRUKTIONSELEMENTE
100
AcDbLine
 62
7
  6
CONTINUOUS
 10
585.0979647652
 20
56.3504323638
 11
585.0979647652
 21
50.4354323638
  0
LINE
  5
3A3
100
AcDbEntity
  8
KONSTRUKTIONSELEMENTE
100
AcDbLine
 62
7
  6
CONTINUOUS
 10
585.557584173
 20
56.2773902806
 11
585.557584173
 21
55.9523902806
  0
LINE
  5
3A4
100
AcDbEntity
  8
KONSTRUKTIONSELEMENTE
100
AcDbLine
 62
7
  6
CONTINUOUS
 10
585.557584173
 20
50.0373902806
 11
585.557584173
 21
49.7123902806
  0
LINE
  5
3A5
100
AcDbEntity
  8
KONSTRUKTIONSELEMENTE
100
AcDbLine
 62
7
  6
CONTINUOUS
 10
588.1738792634
 20
54.0116122685
 11
588.1738792634
 21
53.6866122685
  0
LINE
  5
3A6
100
AcDbEntity
  8
KONSTRUKTIONSELEMENTE
100
AcDbLine
 62
7
  6
CONTINUOUS
 10
588.1738792634
 20
47.7716122685
 11
588.1738792634
 21
47.4466122685
  0
LINE
  5
3A7
100
AcDbEntity
  8
KONSTRUKTIONSELEMENTE
100
AcDbLine
 62
7
  6
CONTINUOUS
 10
588.6334986711
 20
53.2885701853
 11
588.6334986711
 21
47.3735701853
  0
LINE
  5
3A8
100
AcDbEntity
  8
KONSTRUKTIONSELEMENTE
100
AcDbLine
 62
7
  6
CONTINUOUS
 10
603.4827410761
 20
54.6126422315
 11
603.4827410761
 21
59.6917056516
  0
LINE
  5
3A9
100
AcDbEntity
  8
KONSTRUKTIONSELEMENTE
100
AcDbLine
 62
7
  6
CONTINUOUS
 10
603.4827410761
 20
74.8721156919
 11
603.4827410761
 21
75.665558912
  0
LINE
  5
3AA
100
AcDbEntity
  8
KONSTRUKTIONSELEMENTE
100
AcDbLine
 62
7
  6
CONTINUOUS
 10
606.5586555742
 20
59.7932955966
 11
606.5586555742
 21
61.0932955966
  0
LINE
  5
3AB
100
AcDbEntity
  8
KONSTRUKTIONSELEMENTE
100
AcDbLine
 62
7
  6
CONTINUOUS
 10
606.5586555742
 20
72.2082955966
 11
606.5586555742
 21
73.0017388168
  0
LINE
  5
3AC
100
AcDbEntity
  8
KONSTRUKTIONSELEMENTE
100
AcDbLine
 62
7
  6
CONTINUOUS
 10
607.018274982
 20
60.6952535134
 11
607.018274982
 21
51.550780053
  0
LINE
  5
3AD
100
AcDbEntity
  8
KONSTRUKTIONSELEMENTE
100
AcDbLine
 62
7
  6
CONTINUOUS
 10
607.018274982
 20
71.8102535134
 11
607.018274982
 21
72.6036967336
  0
LINE
  5
3AE
100
AcDbEntity
  8
RUNDUNGEN
100
AcDbLine
 62
7
  6
CONTINUOUS
 10
791.9362807146
 20
183.170179095
 11
791.936371056
 21
183.1700884698
  0
LINE
  5
3AF
100
AcDbEntity
  8
KONSTRUKTIONSELEMENTE
100
AcDbLine
 62
7
  6
CONTINUOUS
 10
791.9363687295
 20
183.1700908037
 11
795.3361305114
 21
179.7594825827
  0
LINE
  5
3B0
100
AcDbEntity
  8
0
100
AcDbLine
 62
7
  6
CONTINUOUS
 10
768.1560102528
 20
120.8136551364
 11
766.5825631391
 21
123.0771601721
  0
LINE
  5
3B1
100
AcDbEntity
  8
KONSTRUKTIONSELEMENTE
100
AcDbLine
 62
7
  6
CONTINUOUS
 10
791.9362803203
 20
183.1701798316
 11
791.48942479
 21
183.6393198134
  0
LINE
  5
3B2
100
AcDbEntity
  8
RUNDUNGEN
100
AcDbLine
 62
7
  6
CONTINUOUS
 10
791.7622253802
 20
183.3428068998
 11
791.7612501037
 21
183.3438489309
  0
LINE
  5
3B3
100
AcDbEntity
  8
KONSTRUKTIONSELEMENTE
100
AcDbLine
 62
7
  6
CONTINUOUS
 10
791.48942479
 20
183.6393198134
 11
791.2697676871
 21
183.8880850121
  0
LINE
  5
3B4
100
AcDbEntity
  8
RUNDUNGEN
100
AcDbLine
 62
7
  6
CONTINUOUS
 10
791.2697676871
 20
183.8880850121
 11
791.3060686672
 21
183.8459879123
  0
LINE
  5
3B5
100
AcDbEntity
  8
RUNDUNGEN
100
AcDbLine
 62
7
  6
CONTINUOUS
 10
790.8991864747
 20
184.3454627934
 11
790.9546001173
 21
184.2733779012
  0
LINE
  5
3B6
100
AcDbEntity
  8
KONSTRUKTIONSELEMENTE
100
AcDbLine
 62
7
  6
CONTINUOUS
 10
653.6308148574
 20
137.3726202679
 11
653.6275023375
 21
137.4415542415
  0
LINE
  5
3B7
100
AcDbEntity
  8
KONSTRUKTIONSELEMENTE
100
AcDbLine
 62
7
  6
CONTINUOUS
 10
790.9546001173
 20
184.2733779012
 11
790.7601805614
 21
184.5336434505
  0
LINE
  5
3B8
100
AcDbEntity
  8
KONSTRUKTIONSELEMENTE
100
AcDbLine
 62
7
  6
CONTINUOUS
 10
790.7601805614
 20
184.5336434505
 11
790.5301906935
 21
184.8755474963
  0
LINE
  5
3B9
100
AcDbEntity
  8
RUNDUNGEN
100
AcDbLine
 62
7
  6
CONTINUOUS
 10
800.3872740976
 20
169.5992633816
 11
791.5308676371
 21
182.8838730723
  0
LWPOLYLINE
  5
3BA
100
AcDbEntity
  8
RUNDUNGEN
100
AcDbPolyline
 62
7
  6
CONTINUOUS
 90
7
 70
0
 10
791.5308516278
 20
182.8838882717
 10
791.3933943783
 20
183.094918436
 10
791.1778999298
 20
183.4473531061
 10
790.9784515235
 20
183.8014419374
 10
790.7949250905
 20
184.1566250486
 10
790.6272802502
 20
184.5123938342
 10
790.5365511315
 20
184.7206671786
  0
LINE
  5
3BB
100
AcDbEntity
  8
KONSTRUKTIONSELEMENTE
100
AcDbLine
 62
7
  6
CONTINUOUS
 10
790.5301906935
 20
184.8755474963
 11
790.3709640925
 21
185.1484178826
  0
LWPOLYLINE
  5
3BC
100
AcDbEntity
  8
RUNDUNGEN
100
AcDbPolyline
 62
7
  6
CONTINUOUS
 90
4
 70
0
 10
789.9940116974
 20
185.8353457692
 10
789.954865119
 20
185.9041081585
 10
789.9283922125
 20
185.9558482789
 10
789.9223044171
 20
185.9686569952
  0
LWPOLYLINE
  5
3BD
100
AcDbEntity
  8
RUNDUNGEN
100
AcDbPolyline
 62
7
  6
CONTINUOUS
 90
3
 70
0
 10
790.1898312907
 20
185.505437734
 10
790.1058425908
 20
185.6538972998
 10
789.9940116974
 20
185.8353457692
  0
LINE
  5
3BE
100
AcDbEntity
  8
KONSTRUKTIONSELEMENTE
100
AcDbLine
 62
7
  6
CONTINUOUS
 10
790.3709640925
 20
185.1484178826
 11
790.2954387161
 21
185.2974063361
  0
LWPOLYLINE
  5
3BF
100
AcDbEntity
  8
RUNDUNGEN
100
AcDbPolyline
 62
7
  6
CONTINUOUS
 90
3
 70
0
 10
790.2950241531
 20
185.2981513663
 10
790.2676979161
 20
185.3546508607
 10
790.1898312907
 20
185.505437734
  0
LINE
  5
3C0
100
AcDbEntity
  8
RUNDUNGEN
100
AcDbLine
 62
7
  6
CONTINUOUS
 10
790.2954319859
 20
185.297420516
 11
790.295134821
 21
185.2980462817
  0
LINE
  5
3C1
100
AcDbEntity
  8
RUNDUNGEN
100
AcDbLine
 62
7
  6
CONTINUOUS
 10
789.9243583792
 20
185.9642620797
 11
789.9223022175
 21
185.9686511174
  0
LINE
  5
3C2
100
AcDbEntity
  8
RUNDUNGEN
100
AcDbLine
 62
7
  6
CONTINUOUS
 10
790.5369478216
 20
184.7198033012
 11
790.5366552671
 21
184.7204956461
  0
LINE
  5
3C3
100
AcDbEntity
  8
RUNDUNGEN
100
AcDbLine
 62
7
  6
CONTINUOUS
 10
792.1908147735
 20
182.9148329871
 11
792.1520183167
 21
183.0217485291
  0
LINE
  5
3C4
100
AcDbEntity
  8
0
100
AcDbLine
 62
7
  6
CONTINUOUS
 10
736.7949702786
 20
222.4077246158
 11
736.7949702786
 21
278.6993758618
  0
LINE
  5
3C5
100
AcDbEntity
  8
RUNDUNGEN
100
AcDbLine
 62
7
  6
CONTINUOUS
 10
792.1520183167
 20
183.0217485291
 11
792.1041897626
 21
183.1954267753
  0
LINE
  5
3C6
100
AcDbEntity
  8
0
100
AcDbLine
 62
7
  6
CONTINUOUS
 10
758.7949702786
 20
222.4077246158
 11
758.7949702786
 21
278.6993758618
  0
LINE
  5
3C7
100
AcDbEntity
  8
KONSTRUKTIONSELEMENTE
100
AcDbLine
 62
7
  6
CONTINUOUS
 10
610.6232129924
 20
51.7722137125
 11
613.1483792097
 21
57.7882222057
  0
LINE
  5
3C8
100
AcDbEntity
  8
KONSTRUKTIONSELEMENTE
100
AcDbLine
 62
7
  6
CONTINUOUS
 10
788.2487271578
 20
225.3335329081
 11
789.4987621567
 21
220.3199163679
  0
LINE
  5
3C9
100
AcDbEntity
  8
KONSTRUKTIONSELEMENTE
100
AcDbLine
 62
7
  6
CONTINUOUS
 10
791.5042384872
 20
212.276390139
 11
791.8667446363
 21
210.822457388
  0
LINE
  5
3CA
100
AcDbEntity
  8
RUNDUNGEN
100
AcDbLine
 62
7
  6
CONTINUOUS
 10
792.1041897626
 20
183.1954267753
 11
792.0670024938
 21
183.3973457718
  0
LWPOLYLINE
  5
3CB
100
AcDbEntity
  8
RUNDUNGEN
100
AcDbPolyline
 62
7
  6
CONTINUOUS
 90
3
 70
0
 10
792.0670024938
 20
183.3973457718
 10
792.0468572628
 20
183.6246469789
 10
792.0449708026
 20
183.7161430353
  0
LINE
  5
3CC
100
AcDbEntity
  8
0
100
AcDbLine
 62
7
  6
CONTINUOUS
 10
779.2221060871
 20
201.173088109
 11
779.4620273612
 21
195.1852089338
  0
LINE
  5
3CD
100
AcDbEntity
  8
0
100
AcDbLine
 62
7
  6
CONTINUOUS
 10
765.7949702786
 20
761.5403860502
 11
765.7949702786
 21
265.6659868087
  0
LINE
  5
3CE
100
AcDbEntity
  8
0
100
AcDbLine
 62
7
  6
CONTINUOUS
 10
765.7949702786
 20
140.7410979444
 11
765.7949702786
 21
130.9794132225
  0
LINE
  5
3CF
100
AcDbEntity
  8
0
100
AcDbLine
 62
7
  6
CONTINUOUS
 10
765.7949702786
 20
130.6860154118
 11
765.7949702786
 21
125.5587014537
  0
LINE
  5
3D0
100
AcDbEntity
  8
0
100
AcDbLine
 62
7
  6
CONTINUOUS
 10
765.7949702786
 20
150.1379896849
 11
765.7949702786
 21
165.025761374
  0
LINE
  5
3D1
100
AcDbEntity
  8
0
100
AcDbLine
 62
7
  6
CONTINUOUS
 10
769.2413292654
 20
143.4984989501
 11
769.2413292654
 21
139.7293082316
  0
LINE
  5
3D2
100
AcDbEntity
  8
0
100
AcDbLine
 62
7
  6
CONTINUOUS
 10
770.7949702786
 20
174.98771911
 11
770.7949702786
 21
176.2295839715
  0
LINE
  5
3D3
100
AcDbEntity
  8
0
100
AcDbLine
 62
7
  6
CONTINUOUS
 10
779.4620273612
 20
195.1852089338
 11
779.4620273612
 21
173.7419196135
  0
LINE
  5
3D4
100
AcDbEntity
  8
RUNDUNGEN
100
AcDbLine
 62
7
  6
CONTINUOUS
 10
788.1279131961
 20
195.1852089338
 11
788.1279131961
 21
173.7419196135
  0
LINE
  5
3D5
100
AcDbEntity
  8
0
100
AcDbLine
 62
7
  6
CONTINUOUS
 10
775.5449830726
 20
183.7159631651
 11
775.5449702786
 21
209.3568471496
  0
LWPOLYLINE
  5
3D6
100
AcDbEntity
  8
0
100
AcDbPolyline
 62
7
  6
CONTINUOUS
 90
3
 70
0
 10
775.5449695388
 20
183.7159631817
 10
775.5435330388
 20
183.6366800225
 10
775.5242784472
 20
183.407205459
  0
LINE
  5
3D7
100
AcDbEntity
  8
KONSTRUKTIONSELEMENTE
100
AcDbLine
 62
7
  6
CONTINUOUS
 10
651.742971333
 20
82.0723295473
 11
649.960971046
 21
77.8268550166
  0
LINE
  5
3D8
100
AcDbEntity
  8
BEZUGSACHSEN
100
AcDbLine
 62
7
  6
CONTINUOUS
 10
792.0449702786
 20
209.3568471496
 11
792.0449702786
 21
195.3723448845
  0
LINE
  5
3D9
100
AcDbEntity
  8
RUNDUNGEN
100
AcDbLine
 62
7
  6
CONTINUOUS
 10
792.0449702786
 20
195.3723448621
 11
792.0449702786
 21
183.7194000152
  0
LINE
  5
3DA
100
AcDbEntity
  8
KONSTRUKTIONSELEMENTE
100
AcDbLine
 62
7
  6
CONTINUOUS
 10
792.0449702786
 20
195.3723448845
 11
792.0449702786
 21
183.7194094214
  0
LINE
  5
3DB
100
AcDbEntity
  8
KONSTRUKTIONSELEMENTE
100
AcDbLine
 62
7
  6
CONTINUOUS
 10
796.7949702786
 20
174.98771911
 11
796.7949702786
 21
176.2295839715
  0
LINE
  5
3DC
100
AcDbEntity
  8
KONSTRUKTIONSELEMENTE
100
AcDbLine
 62
7
  6
CONTINUOUS
 10
798.3486112919
 20
143.4984989501
 11
798.3486112919
 21
139.7293082316
  0
LINE
  5
3DD
100
AcDbEntity
  8
0
100
AcDbLine
 62
7
  6
CONTINUOUS
 10
801.7949702786
 20
761.5403860502
 11
801.7949702786
 21
265.6659868087
  0
LINE
  5
3DE
100
AcDbEntity
  8
KONSTRUKTIONSELEMENTE
100
AcDbLine
 62
7
  6
CONTINUOUS
 10
801.7949702786
 20
140.7410979444
 11
801.7949702786
 21
130.9794132225
  0
LINE
  5
3DF
100
AcDbEntity
  8
RUNDUNGEN
100
AcDbLine
 62
7
  6
CONTINUOUS
 10
801.7949702786
 20
130.6860154118
 11
801.7949702786
 21
125.5587014537
  0
LINE
  5
3E0
100
AcDbEntity
  8
RUNDUNGEN
100
AcDbLine
 62
7
  6
CONTINUOUS
 10
801.7949702786
 20
150.1379896849
 11
801.7949702786
 21
165.025761374
  0
LINE
  5
3E1
100
AcDbEntity
  8
0
100
AcDbLine
 62
7
  6
CONTINUOUS
 10
808.7949702786
 20
278.6993758618
 11
808.7949702786
 21
222.4077246158
  0
LINE
  5
3E2
100
AcDbEntity
  8
0
100
AcDbLine
 62
7
  6
CONTINUOUS
 10
788.3678344701
 20
201.173088109
 11
788.1279131961
 21
195.1852089338
  0
LINE
  5
3E3
100
AcDbEntity
  8
KONSTRUKTIONSELEMENTE
100
AcDbLine
 62
7
  6
CONTINUOUS
 10
656.0216711692
 20
80.7810013313
 11
653.496504952
 21
74.7649928381
  0
LINE
  5
3E4
100
AcDbEntity
  8
KONSTRUKTIONSELEMENTE
100
AcDbLine
 62
7
  6
CONTINUOUS
 10
677.323657885
 20
121.5340956533
 11
660.6599333769
 21
81.8340919535
  0
LINE
  5
3E5
100
AcDbEntity
  8
0
100
AcDbLine
 62
7
  6
CONTINUOUS
 10
830.7949702786
 20
278.6993758618
 11
830.7949702786
 21
222.4077246158
  0
LINE
  5
3E6
100
AcDbEntity
  8
0
100
AcDbLine
 62
7
  6
CONTINUOUS
 10
775.5242784472
 20
183.407205459
 11
775.4874883824
 21
183.2029898565
  0
LINE
  5
3E7
100
AcDbEntity
  8
BEZUGSACHSEN
100
AcDbLine
 62
7
  6
CONTINUOUS
 10
776.0622036821
 20
214.2976592591
 11
776.2479963895
 21
215.0428331077
  0
LINE
  5
3E8
100
AcDbEntity
  8
BEZUGSACHSEN
100
AcDbLine
 62
7
  6
CONTINUOUS
 10
777.3673240233
 20
219.5322110397
 11
777.5578725696
 21
220.2964595163
  0
LINE
  5
3E9
100
AcDbEntity
  8
0
100
AcDbLine
 62
7
  6
CONTINUOUS
 10
775.723195921
 20
210.822457388
 11
779.3412133995
 21
225.3335329081
  0
LINE
  5
3EA
100
AcDbEntity
  8
0
100
AcDbLine
 62
7
  6
CONTINUOUS
 10
775.4874883824
 20
183.2029898565
 11
775.4396416945
 21
183.0271282386
  0
LINE
  5
3EB
100
AcDbEntity
  8
0
100
AcDbLine
 62
7
  6
CONTINUOUS
 10
775.4396416945
 20
183.0271282386
 11
775.3992237084
 21
182.9149312242
  0
LINE
  5
3EC
100
AcDbEntity
  8
0
100
AcDbLine
 62
7
  6
CONTINUOUS
 10
777.0529927357
 20
184.7198033012
 11
777.0532819061
 21
184.7204876369
  0
LWPOLYLINE
  5
3ED
100
AcDbEntity
  8
0
100
AcDbPolyline
 62
7
  6
CONTINUOUS
 90
7
 70
0
 10
777.053386045
 20
184.7206591779
 10
776.9676439894
 20
184.5235179061
 10
776.7994137647
 20
184.165541599
 10
776.6150971517
 20
183.8081319988
 10
776.4146539866
 20
183.4518068443
 10
776.1979572358
 20
183.0971370214
 10
776.0590890637
 20
182.8838884731
  0
LINE
  5
3EE
100
AcDbEntity
  8
KONSTRUKTIONSELEMENTE
100
AcDbLine
 62
7
  6
CONTINUOUS
 10
655.67824276
 20
139.8937367628
 11
653.6275023375
 21
137.4415542415
  0
LINE
  5
3EF
100
AcDbEntity
  8
KONSTRUKTIONSELEMENTE
100
AcDbLine
 62
7
  6
CONTINUOUS
 10
642.8066423265
 20
124.5024599065
 11
606.136499602
 21
80.6539639912
  0
LINE
  5
3F0
100
AcDbEntity
  8
KONSTRUKTIONSELEMENTE
100
AcDbLine
 62
7
  6
CONTINUOUS
 10
643.2662617342
 20
124.1044178233
 11
643.6828183826
 21
124.6025173979
  0
LINE
  5
3F1
100
AcDbEntity
  8
KONSTRUKTIONSELEMENTE
100
AcDbLine
 62
7
  6
CONTINUOUS
 10
647.5370391991
 20
124.4212890731
 11
654.9680990355
 21
133.3070138802
  0
LINE
  5
3F2
100
AcDbEntity
  8
KONSTRUKTIONSELEMENTE
100
AcDbLine
 62
7
  6
CONTINUOUS
 10
645.8825568246
 20
121.8386398112
 11
646.299113473
 21
122.3367393858
  0
LINE
  5
3F3
100
AcDbEntity
  8
KONSTRUKTIONSELEMENTE
100
AcDbLine
 62
7
  6
CONTINUOUS
 10
659.213776666
 20
136.8318745844
 11
657.1630362434
 21
134.3796920631
  0
LINE
  5
3F4
100
AcDbEntity
  8
KONSTRUKTIONSELEMENTE
100
AcDbLine
 62
7
  6
CONTINUOUS
 10
646.3421762324
 20
121.440597728
 11
609.672033508
 21
77.5921018127
  0
LINE
  5
3F5
100
AcDbEntity
  8
KONSTRUKTIONSELEMENTE
100
AcDbLine
 62
7
  6
CONTINUOUS
 10
650.2401236524
 20
121.3116556954
 11
651.9063502458
 21
123.3040539939
  0
LINE
  5
3F6
100
AcDbEntity
  8
KONSTRUKTIONSELEMENTE
100
AcDbLine
 62
7
  6
CONTINUOUS
 10
658.5036329415
 20
130.2451517017
 11
650.6997430602
 21
120.9136136122
  0
LINE
  5
3F7
100
AcDbEntity
  8
0
100
AcDbLine
 62
7
  6
CONTINUOUS
 10
777.665582178
 20
185.9642620797
 11
777.6676398815
 21
185.9686544187
  0
LWPOLYLINE
  5
3F8
100
AcDbEntity
  8
0
100
AcDbPolyline
 62
7
  6
CONTINUOUS
 90
5
 70
0
 10
777.6676376819
 20
185.9686602964
 10
777.6625160919
 20
185.957855586
 10
777.6371469131
 20
185.9079726436
 10
777.5995299857
 20
185.8413771754
 10
777.4824518094
 20
185.6511104447
  0
LINE
  5
3F9
100
AcDbEntity
  8
0
100
AcDbLine
 62
7
  6
CONTINUOUS
 10
777.2945096803
 20
185.2974228518
 11
777.2948057299
 21
185.2980462682
  0
LINE
  5
3FA
100
AcDbEntity
  8
0
100
AcDbLine
 62
7
  6
CONTINUOUS
 10
777.2945029498
 20
185.2974086712
 11
777.2189235925
 21
185.1483194174
  0
LWPOLYLINE
  5
3FB
100
AcDbEntity
  8
0
100
AcDbPolyline
 62
7
  6
CONTINUOUS
 90
3
 70
0
 10
777.3978160613
 20
185.5011918318
 10
777.3194211371
 20
185.3489106703
 10
777.2949163978
 20
185.2981513529
  0
LINE
  5
3FC
100
AcDbEntity
  8
0
100
AcDbLine
 62
7
  6
CONTINUOUS
 10
777.4824518094
 20
185.6511104447
 11
777.3978160613
 21
185.5011918318
  0
LINE
  5
3FD
100
AcDbEntity
  8
0
100
AcDbLine
 62
7
  6
CONTINUOUS
 10
777.2189235925
 20
185.1483194174
 11
777.0595664134
 21
184.8752545963
  0
LINE
  5
3FE
100
AcDbEntity
  8
0
100
AcDbLine
 62
7
  6
CONTINUOUS
 10
776.0590729202
 20
182.8838730723
 11
767.2026664597
 21
169.5992633816
  0
LINE
  5
3FF
100
AcDbEntity
  8
0
100
AcDbLine
 62
7
  6
CONTINUOUS
 10
777.0595664134
 20
184.8752545963
 11
776.8292583705
 21
184.5329433504
  0
LINE
  5
400
100
AcDbEntity
  8
0
100
AcDbLine
 62
7
  6
CONTINUOUS
 10
776.8292583705
 20
184.5329433504
 11
776.635153542
 21
184.2731372716
  0
LINE
  5
401
100
AcDbEntity
  8
0
100
AcDbLine
 62
7
  6
CONTINUOUS
 10
776.6907540825
 20
184.3454627934
 11
776.635153542
 21
184.2731372716
  0
LINE
  5
402
100
AcDbEntity
  8
0
100
AcDbLine
 62
7
  6
CONTINUOUS
 10
776.3198711637
 20
183.8877334315
 11
776.2838718901
 21
183.8459879123
  0
LINE
  5
403
100
AcDbEntity
  8
0
100
AcDbLine
 62
7
  6
CONTINUOUS
 10
776.3198711637
 20
183.8877334315
 11
776.0998841931
 21
183.6386239422
  0
LINE
  5
404
100
AcDbEntity
  8
0
100
AcDbLine
 62
7
  6
CONTINUOUS
 10
776.0998841931
 20
183.6386239422
 11
775.6536667068
 21
183.1701863214
  0
LINE
  5
405
100
AcDbEntity
  8
KONSTRUKTIONSELEMENTE
100
AcDbLine
 62
7
  6
CONTINUOUS
 10
672.678450005
 20
136.5274674281
 11
672.9103384085
 21
136.7282886764
  0
LINE
  5
406
100
AcDbEntity
  8
KONSTRUKTIONSELEMENTE
100
AcDbLine
 62
7
  6
CONTINUOUS
 10
673.2638917991
 20
137.0344748942
 11
676.0923189239
 21
139.483964637
  0
LINE
  5
407
100
AcDbEntity
  8
KONSTRUKTIONSELEMENTE
100
AcDbLine
 62
7
  6
CONTINUOUS
 10
727.7111139505
 20
184.1871524428
 11
730.5395410752
 21
186.6366421856
  0
LINE
  5
408
100
AcDbEntity
  8
KONSTRUKTIONSELEMENTE
100
AcDbLine
 62
7
  6
CONTINUOUS
 10
730.8930944658
 20
186.9428284034
 11
733.7215215906
 21
189.3923181462
  0
LINE
  5
409
100
AcDbEntity
  8
KONSTRUKTIONSELEMENTE
100
AcDbLine
 62
7
  6
CONTINUOUS
 10
696.9388556913
 20
157.2068761446
 11
707.5454574091
 21
166.3924626801
  0
LINE
  5
40A
100
AcDbEntity
  8
KONSTRUKTIONSELEMENTE
100
AcDbLine
 62
7
  6
CONTINUOUS
 10
600.3358662779
 20
70.0507580077
 11
586.9364423963
 21
58.4465165302
  0
LINE
  5
40B
100
AcDbEntity
  8
KONSTRUKTIONSELEMENTE
100
AcDbLine
 62
7
  6
CONTINUOUS
 10
585.0979647652
 20
56.3504323638
 11
585.7308916256
 21
56.8985631037
  0
LINE
  5
40C
100
AcDbEntity
  8
KONSTRUKTIONSELEMENTE
100
AcDbLine
 62
7
  6
CONTINUOUS
 10
727.167670587
 20
179.2185147601
 11
716.5610688692
 21
170.0329282247
  0
LINE
  5
40D
100
AcDbEntity
  8
KONSTRUKTIONSELEMENTE
100
AcDbLine
 62
7
  6
CONTINUOUS
 10
696.0549722148
 20
152.2741275895
 11
685.448370497
 21
143.0885410541
  0
LINE
  5
40E
100
AcDbEntity
  8
KONSTRUKTIONSELEMENTE
100
AcDbLine
 62
7
  6
CONTINUOUS
 10
700.673006243
 20
154.4878049341
 11
710.4913989272
 21
162.990782423
  0
LINE
  5
40F
100
AcDbEntity
  8
KONSTRUKTIONSELEMENTE
100
AcDbLine
 62
7
  6
CONTINUOUS
 10
676.8325423932
 20
133.5106386883
 11
679.3655872774
 21
135.7043199069
  0
LINE
  5
410
100
AcDbEntity
  8
KONSTRUKTIONSELEMENTE
100
AcDbLine
 62
7
  6
CONTINUOUS
 10
732.1409105755
 20
181.409090576
 11
733.8128094288
 21
182.8569974555
  0
LINE
  5
411
100
AcDbEntity
  8
KONSTRUKTIONSELEMENTE
100
AcDbLine
 62
7
  6
CONTINUOUS
 10
734.1663628194
 20
183.1631836733
 11
736.3245917148
 21
185.0322647239
  0
LINE
  5
412
100
AcDbEntity
  8
KONSTRUKTIONSELEMENTE
100
AcDbLine
 62
7
  6
CONTINUOUS
 10
602.9521613683
 20
67.7849799957
 11
589.5527374867
 21
56.1807385181
  0
LINE
  5
413
100
AcDbEntity
  8
KONSTRUKTIONSELEMENTE
100
AcDbLine
 62
7
  6
CONTINUOUS
 10
588.1738792634
 20
53.6866122685
 11
602.881700312
 21
66.423958931
  0
LINE
  5
414
100
AcDbEntity
  8
KONSTRUKTIONSELEMENTE
100
AcDbLine
 62
7
  6
CONTINUOUS
 10
730.1136121052
 20
175.816834503
 11
719.5070103874
 21
166.6312479676
  0
LINE
  5
415
100
AcDbEntity
  8
KONSTRUKTIONSELEMENTE
100
AcDbLine
 62
7
  6
CONTINUOUS
 10
699.000913733
 20
148.8724473324
 11
688.3943120152
 21
139.686860797
  0
LINE
  5
416
100
AcDbEntity
  8
KONSTRUKTIONSELEMENTE
100
AcDbLine
 62
7
  6
CONTINUOUS
 10
588.6334986711
 20
53.2885701853
 11
603.3413197198
 21
66.0259168478
  0
LINE
  5
417
100
AcDbEntity
  8
KONSTRUKTIONSELEMENTE
100
AcDbLine
 62
7
  6
CONTINUOUS
 10
741.8532495742
 20
182.3500351357
 11
735.8428419341
 21
177.1448694323
  0
LINE
  5
418
100
AcDbEntity
  8
KONSTRUKTIONSELEMENTE
100
AcDbLine
 62
7
  6
CONTINUOUS
 10
684.2240469075
 20
132.4416816265
 11
678.2136392674
 21
127.2365159231
  0
LINE
  5
419
100
AcDbEntity
  8
KONSTRUKTIONSELEMENTE
100
AcDbLine
 62
7
  6
CONTINUOUS
 10
715.6771853927
 20
159.3501796695
 11
705.0705836749
 21
150.1645931341
  0
LINE
  5
41A
100
AcDbEntity
  8
KONSTRUKTIONSELEMENTE
100
AcDbLine
 62
7
  6
CONTINUOUS
 10
689.9236294311
 20
135.2612885297
 11
699.000913733
 21
143.1224473324
  0
LINE
  5
41B
100
AcDbEntity
  8
KONSTRUKTIONSELEMENTE
100
AcDbLine
 62
7
  6
CONTINUOUS
 10
721.0002090698
 20
162.1743959595
 11
730.1136121052
 21
170.066834503
  0
LINE
  5
41C
100
AcDbEntity
  8
KONSTRUKTIONSELEMENTE
100
AcDbLine
 62
7
  6
CONTINUOUS
 10
588.6334986711
 20
47.3735701853
 11
603.3413197198
 21
60.1109168478
  0
LINE
  5
41D
100
AcDbEntity
  8
KONSTRUKTIONSELEMENTE
100
AcDbLine
 62
7
  6
CONTINUOUS
 10
589.5527374867
 20
47.6657385181
 11
602.881700312
 21
59.208958931
  0
LINE
  5
41E
100
AcDbEntity
  8
KONSTRUKTIONSELEMENTE
100
AcDbLine
 62
7
  6
CONTINUOUS
 10
718.6231269109
 20
155.9484994125
 11
708.0165251931
 21
146.762912877
  0
LINE
  5
41F
100
AcDbEntity
  8
KONSTRUKTIONSELEMENTE
100
AcDbLine
 62
7
  6
CONTINUOUS
 10
745.1265179278
 20
178.5703904056
 11
739.1161102877
 21
173.3652247022
  0
LINE
  5
420
100
AcDbEntity
  8
KONSTRUKTIONSELEMENTE
100
AcDbLine
 62
7
  6
CONTINUOUS
 10
687.4973152611
 20
128.6620368964
 11
681.486907621
 21
123.456871193
  0
LINE
  5
421
100
AcDbEntity
  8
0
100
AcDbLine
 62
7
  6
CONTINUOUS
 10
772.2538100459
 20
179.7594825827
 11
775.6535718277
 21
183.1700908037
  0
LINE
  5
422
100
AcDbEntity
  8
RUNDUNGEN
100
AcDbLine
 62
7
  6
CONTINUOUS
 10
801.0073774181
 20
123.0771601721
 11
799.4339303044
 21
120.8136551364
  0
LINE
  5
423
100
AcDbEntity
  8
KONSTRUKTIONSELEMENTE
100
AcDbLine
 62
7
  6
CONTINUOUS
 10
619.2563812448
 20
64.6498980916
 11
653.7985402376
 21
83.1747231271
  0
LINE
  5
424
100
AcDbEntity
  8
KONSTRUKTIONSELEMENTE
100
AcDbLine
 62
7
  6
CONTINUOUS
 10
609.672033508
 20
50.9035020442
 11
610.0124127889
 21
51.0860461239
  0
LINE
  5
425
100
AcDbEntity
  8
KONSTRUKTIONSELEMENTE
100
AcDbLine
 62
7
  6
CONTINUOUS
 10
653.7188180451
 20
74.5256206585
 11
654.5519313418
 21
74.9724160675
  0
LINE
  5
426
100
AcDbEntity
  8
RUNDUNGEN
100
AcDbLine
 62
7
  6
CONTINUOUS
 10
798.6941001101
 20
120.1344472961
 11
798.9831171797
 21
120.3487955226
  0
ARC
  5
427
100
AcDbEntity
  8
KONSTRUKTIONSELEMENTE
100
AcDbCircle
 62
7
  6
CONTINUOUS
 10
114.0625561797
 20
92.1924696623
 40
45.0
100
AcDbArc
 50
69.0779339621
 51
82.8843724077
  0
ARC
  5
428
100
AcDbEntity
  8
KONSTRUKTIONSELEMENTE
100
AcDbCircle
 62
7
  6
CONTINUOUS
 10
114.0625561797
 20
92.1924696623
 40
45.0
100
AcDbArc
 50
37.1156275923
 51
50.9220660379
  0
ARC
  5
429
100
AcDbEntity
  8
BEZUGSACHSEN
100
AcDbCircle
 62
7
  6
CONTINUOUS
 10
168.7923686797
 20
186.9872856011
 40
16.0
100
AcDbArc
 50
103.4832507211
 51
16.5167492789
  0
ARC
  5
42A
100
AcDbEntity
  8
0
100
AcDbCircle
 62
7
  6
CONTINUOUS
 10
239.7423686797
 20
309.8762903981
 40
11.0
100
AcDbArc
 50
330.0
 51
150.0
  0
ARC
  5
42B
100
AcDbEntity
  8
0
100
AcDbCircle
 62
7
  6
CONTINUOUS
 10
171.2423686797
 20
191.2308100796
 40
11.0
100
AcDbArc
 50
150.0
 51
330.0
  0
ARC
  5
42C
100
AcDbEntity
  8
KONSTRUKTIONSELEMENTE
100
AcDbCircle
 62
7
  6
CONTINUOUS
 10
83.6494973622
 20
66.9233739235
 40
7.2075994745
100
AcDbArc
 50
52.0084828409
 51
54.6969256904
  0
ARC
  5
42D
100
AcDbEntity
  8
KONSTRUKTIONSELEMENTE
100
AcDbCircle
 62
7
  6
CONTINUOUS
 10
152.4923686797
 20
158.7548574377
 40
7.1
100
AcDbArc
 50
330.0
 51
150.0
  0
ARC
  5
42E
100
AcDbEntity
  8
KONSTRUKTIONSELEMENTE
100
AcDbCircle
 62
7
  6
CONTINUOUS
 10
107.8711454179
 20
54.645395482
 40
6.0774483604
100
AcDbArc
 50
81.3149175254
 51
82.0930351415
  0
ARC
  5
42F
100
AcDbEntity
  8
KONSTRUKTIONSELEMENTE
100
AcDbCircle
 62
7
  6
CONTINUOUS
 10
84.8822366905
 20
68.2738970747
 40
5.8195578379
100
AcDbArc
 50
34.748994543
 51
36.8892014811
  0
CIRCLE
  5
430
100
AcDbEntity
  8
BEZUGSACHSEN
100
AcDbCircle
 62
7
  6
CONTINUOUS
 10
163.7109529668
 20
132.1860154118
 40
3.0
  0
ARC
  5
431
100
AcDbEntity
  8
RUNDUNGEN
100
AcDbCircle
 62
7
  6
CONTINUOUS
 10
116.9355241959
 20
167.1685962348
 40
3.0
100
AcDbArc
 50
337.0803074625
 51
10.0
  0
ARC
  5
432
100
AcDbEntity
  8
RUNDUNGEN
100
AcDbCircle
 62
7
  6
CONTINUOUS
 10
177.5573024608
 20
132.1685962348
 40
3.0
100
AcDbArc
 50
110.0
 51
145.2760379204
  0
ARC
  5
433
100
AcDbEntity
  8
KONSTRUKTIONSELEMENTE
100
AcDbCircle
 62
7
  6
CONTINUOUS
 10
89.8216902278
 20
67.3486635724
 40
2.6566396131
100
AcDbArc
 50
337.9702150979
 51
339.9065806721
  0
ARC
  5
434
100
AcDbEntity
  8
KONSTRUKTIONSELEMENTE
100
AcDbCircle
 62
7
  6
CONTINUOUS
 10
89.8598780676
 20
67.3327221384
 40
2.6152604962
100
AcDbArc
 50
330.0208671421
 51
337.9801551546
  0
ARC
  5
435
100
AcDbEntity
  8
KONSTRUKTIONSELEMENTE
100
AcDbCircle
 62
7
  6
CONTINUOUS
 10
132.3620882666
 20
123.8881889915
 40
2.5
100
AcDbArc
 50
150.0
 51
330.0
  0
ARC
  5
436
100
AcDbEntity
  8
KONSTRUKTIONSELEMENTE
100
AcDbCircle
 62
7
  6
CONTINUOUS
 10
161.1766896
 20
173.7965425008
 40
2.5
100
AcDbArc
 50
150.0
 51
163.090119613
  0
ARC
  5
437
100
AcDbEntity
  8
KONSTRUKTIONSELEMENTE
100
AcDbCircle
 62
7
  6
CONTINUOUS
 10
161.1766896
 20
173.7965425008
 40
2.5
100
AcDbArc
 50
316.909880387
 51
330.0
  0
ARC
  5
438
100
AcDbEntity
  8
KONSTRUKTIONSELEMENTE
100
AcDbCircle
 62
7
  6
CONTINUOUS
 10
91.9369257515
 20
126.7448635141
 40
2.3394182334
100
AcDbArc
 50
258.2431310925
 51
260.8424375544
  0
ARC
  5
439
100
AcDbEntity
  8
0
100
AcDbCircle
 62
7
  6
CONTINUOUS
 10
115.7906993865
 20
141.3775786044
 40
2.0
100
AcDbArc
 50
190.0000162712
 51
240.0000104589
  0
ARC
  5
43A
100
AcDbEntity
  8
RUNDUNGEN
100
AcDbCircle
 62
7
  6
CONTINUOUS
 10
113.9255768005
 20
151.9552144179
 40
2.0
100
AcDbArc
 50
150.0
 51
190.0
  0
ARC
  5
43B
100
AcDbEntity
  8
0
100
AcDbCircle
 62
7
  6
CONTINUOUS
 10
155.7940406915
 20
118.2816408829
 40
2.0
100
AcDbArc
 50
239.9999447949
 51
289.999914116
  0
ARC
  5
43C
100
AcDbEntity
  8
RUNDUNGEN
100
AcDbCircle
 62
7
  6
CONTINUOUS
 10
165.8871010275
 20
121.9552144179
 40
2.0
100
AcDbArc
 50
290.0
 51
330.0
  0
ARC
  5
43D
100
AcDbEntity
  8
0
100
AcDbCircle
 62
7
  6
CONTINUOUS
 10
113.9255768005
 20
151.9552144179
 40
2.0
100
AcDbArc
 50
150.0
 51
190.0
  0
ARC
  5
43E
100
AcDbEntity
  8
KONSTRUKTIONSELEMENTE
100
AcDbCircle
 62
7
  6
CONTINUOUS
 10
479.4221811797
 20
92.1924696623
 40
45.0
100
AcDbArc
 50
97.1156275923
 51
110.9220660379
  0
ARC
  5
43F
100
AcDbEntity
  8
KONSTRUKTIONSELEMENTE
100
AcDbCircle
 62
7
  6
CONTINUOUS
 10
479.4221811797
 20
92.1924696623
 40
45.0
100
AcDbArc
 50
129.0779339621
 51
142.8843724077
  0
ARC
  5
440
100
AcDbEntity
  8
0
100
AcDbCircle
 62
7
  6
CONTINUOUS
 10
424.6923686797
 20
186.9872856011
 40
16.0
100
AcDbArc
 50
163.4832507211
 51
76.5167492789
  0
ARC
  5
441
100
AcDbEntity
  8
0
100
AcDbCircle
 62
7
  6
CONTINUOUS
 10
353.7423686797
 20
309.8762903981
 40
11.0
100
AcDbArc
 50
30.0
 51
210.0
  0
ARC
  5
442
100
AcDbEntity
  8
0
100
AcDbCircle
 62
7
  6
CONTINUOUS
 10
422.2423686797
 20
191.2308100796
 40
11.0
100
AcDbArc
 50
210.0
 51
30.0
  0
ARC
  5
443
100
AcDbEntity
  8
0
100
AcDbCircle
 62
7
  6
CONTINUOUS
 10
440.9923686797
 20
158.7548574377
 40
7.1
100
AcDbArc
 50
30.0
 51
210.0
  0
ARC
  5
444
100
AcDbEntity
  8
0
100
AcDbCircle
 62
7
  6
CONTINUOUS
 10
415.9274348987
 20
132.1685962348
 40
3.0
100
AcDbArc
 50
34.7239620796
 51
70.0
  0
ARC
  5
445
100
AcDbEntity
  8
0
100
AcDbCircle
 62
7
  6
CONTINUOUS
 10
476.5492131636
 20
167.1685962348
 40
3.0
100
AcDbArc
 50
170.0
 51
202.9196925375
  0
CIRCLE
  5
446
100
AcDbEntity
  8
BEZUGSACHSEN
100
AcDbCircle
 62
7
  6
CONTINUOUS
 10
429.7737843927
 20
132.1860154118
 40
3.0
  0
ARC
  5
447
100
AcDbEntity
  8
0
100
AcDbCircle
 62
7
  6
CONTINUOUS
 10
427.5976363319
 20
121.9552144179
 40
2.0
100
AcDbArc
 50
210.0
 51
250.0
  0
ARC
  5
448
100
AcDbEntity
  8
0
100
AcDbCircle
 62
7
  6
CONTINUOUS
 10
479.559160559
 20
151.9552144179
 40
2.0
100
AcDbArc
 50
350.0
 51
30.0
  0
ARC
  5
449
100
AcDbEntity
  8
0
100
AcDbCircle
 62
7
  6
CONTINUOUS
 10
477.694037973
 20
141.3775786044
 40
2.0
100
AcDbArc
 50
299.9999895411
 51
349.9999837288
  0
ARC
  5
44A
100
AcDbEntity
  8
0
100
AcDbCircle
 62
7
  6
CONTINUOUS
 10
437.690696668
 20
118.2816408829
 40
2.0
100
AcDbArc
 50
250.000085884
 51
300.0000552051
  0
ARC
  5
44B
100
AcDbEntity
  8
0
100
AcDbCircle
 62
7
  6
CONTINUOUS
 10
296.7423686797
 20
408.6031864295
 40
161.0
100
AcDbArc
 50
180.0
 51
236.0821004744
  0
ARC
  5
44C
100
AcDbEntity
  8
0
100
AcDbCircle
 62
7
  6
CONTINUOUS
 10
296.7423686797
 20
408.6031864295
 40
161.0
100
AcDbArc
 50
243.9181529223
 51
296.0818470777
  0
ARC
  5
44D
100
AcDbEntity
  8
0
100
AcDbCircle
 62
7
  6
CONTINUOUS
 10
296.7423686797
 20
408.6031864295
 40
161.0
100
AcDbArc
 50
303.9178995256
 51
360.0
  0
ARC
  5
44E
100
AcDbEntity
  8
0
100
AcDbCircle
 62
7
  6
CONTINUOUS
 10
296.7423686797
 20
618.6031864295
 40
161.0
100
AcDbArc
 50
0.0
 51
180.0
  0
ARC
  5
44F
100
AcDbEntity
  8
0
100
AcDbCircle
 62
7
  6
CONTINUOUS
 10
296.7423686797
 20
618.6031864295
 40
125.0
100
AcDbArc
 50
0.0
 51
180.0
  0
ARC
  5
450
100
AcDbEntity
  8
0
100
AcDbCircle
 62
7
  6
CONTINUOUS
 10
296.7423686797
 20
408.6031864295
 40
125.0
100
AcDbArc
 50
180.0
 51
234.9508143443
  0
ARC
  5
451
100
AcDbEntity
  8
0
100
AcDbCircle
 62
7
  6
CONTINUOUS
 10
296.7423686797
 20
408.6031864295
 40
125.0
100
AcDbArc
 50
245.0488820997
 51
294.9511179003
  0
ARC
  5
452
100
AcDbEntity
  8
0
100
AcDbCircle
 62
7
  6
CONTINUOUS
 10
296.7423686797
 20
408.6031864295
 40
125.0
100
AcDbArc
 50
305.0491856557
 51
360.0
  0
ARC
  5
453
100
AcDbEntity
  8
BEZUGSACHSEN
100
AcDbCircle
 62
7
  6
CONTINUOUS
 10
164.7353931897
 20
34.9153086276
 40
651.736668848
100
AcDbArc
 50
15.9034503118
 51
16.0475466053
  0
ARC
  5
454
100
AcDbEntity
  8
BEZUGSACHSEN
100
AcDbCircle
 62
7
  6
CONTINUOUS
 10
629.7436423169
 20
166.4961535563
 40
168.5782535398
100
AcDbArc
 50
16.4288108731
 51
16.58567623
  0
ARC
  5
455
100
AcDbEntity
  8
KONSTRUKTIONSELEMENTE
100
AcDbCircle
 62
7
  6
CONTINUOUS
 10
701.0725477584
 20
151.9864540727
 40
6.5947824563
100
AcDbArc
 50
180.0290752758
 51
188.778086953
  0
ARC
  5
456
100
AcDbEntity
  8
KONSTRUKTIONSELEMENTE
100
AcDbCircle
 62
7
  6
CONTINUOUS
 10
670.3070469656
 20
131.12208365
 40
6.5206902006
100
AcDbArc
 50
34.9896799422
 51
37.0084605449
  0
ARC
  5
457
100
AcDbEntity
  8
KONSTRUKTIONSELEMENTE
100
AcDbCircle
 62
7
  6
CONTINUOUS
 10
670.5592105163
 20
131.3002151109
 40
6.2119582838
100
AcDbArc
 50
34.453142093
 51
34.9773455115
  0
ARC
  5
458
100
AcDbEntity
  8
KONSTRUKTIONSELEMENTE
100
AcDbCircle
 62
7
  6
CONTINUOUS
 10
597.9909163899
 20
76.8289521596
 40
6.1602839605
100
AcDbArc
 50
338.4764344788
 51
338.7941164997
  0
ARC
  5
459
100
AcDbEntity
  8
KONSTRUKTIONSELEMENTE
100
AcDbCircle
 62
7
  6
CONTINUOUS
 10
598.3461556326
 20
76.6927566119
 40
5.7798346584
100
AcDbArc
 50
338.7790094631
 51
340.5291890328
  0
ARC
  5
45A
100
AcDbEntity
  8
0
100
AcDbCircle
 62
7
  6
CONTINUOUS
 10
782.0587067991
 20
158.1619981911
 40
5.7660129004
100
AcDbArc
 50
165.275905075
 51
166.2097265042
  0
ARC
  5
45B
100
AcDbEntity
  8
0
100
AcDbCircle
 62
7
  6
CONTINUOUS
 10
785.5312337599
 20
158.1619981916
 40
5.7660128986
100
AcDbArc
 50
13.7902734956
 51
14.724094925
  0
ARC
  5
45C
100
AcDbEntity
  8
0
100
AcDbCircle
 62
7
  6
CONTINUOUS
 10
785.5885939968
 20
158.175320027
 40
5.7071306245
100
AcDbArc
 50
7.6817842816
 51
13.7976528942
  0
ARC
  5
45D
100
AcDbEntity
  8
0
100
AcDbCircle
 62
7
  6
CONTINUOUS
 10
782.0013465604
 20
158.175320027
 40
5.7071306245
100
AcDbArc
 50
166.2023471058
 51
172.3182157184
  0
ARC
  5
45E
100
AcDbEntity
  8
0
100
AcDbCircle
 62
7
  6
CONTINUOUS
 10
770.295993562
 20
125.6586114445
 40
4.5225497429
100
AcDbArc
 50
211.6553724229
 51
214.8057205919
  0
ARC
  5
45F
100
AcDbEntity
  8
KONSTRUKTIONSELEMENTE
100
AcDbCircle
 62
7
  6
CONTINUOUS
 10
702.2318298229
 20
152.9377559906
 40
3.6351988043
100
AcDbArc
 50
238.8071952043
 51
240.6860889464
  0
ARC
  5
460
100
AcDbEntity
  8
KONSTRUKTIONSELEMENTE
100
AcDbCircle
 62
7
  6
CONTINUOUS
 10
712.6350368643
 20
160.5122713781
 40
3.2769193772
100
AcDbArc
 50
125.8441677694
 51
130.856180551
  0
ARC
  5
461
100
AcDbEntity
  8
KONSTRUKTIONSELEMENTE
100
AcDbCircle
 62
7
  6
CONTINUOUS
 10
600.325930343
 20
76.3824927763
 40
3.2371975797
100
AcDbArc
 50
347.2047625044
 51
350.8444577807
  0
ARC
  5
462
100
AcDbEntity
  8
KONSTRUKTIONSELEMENTE
100
AcDbCircle
 62
7
  6
CONTINUOUS
 10
603.8614642489
 20
73.3206305979
 40
3.2371975797
100
AcDbArc
 50
347.2047625044
 51
350.8444577807
  0
ARC
  5
463
100
AcDbEntity
  8
KONSTRUKTIONSELEMENTE
100
AcDbCircle
 62
7
  6
CONTINUOUS
 10
714.2131540901
 20
161.0759183597
 40
2.387091077
100
AcDbArc
 50
23.4715892294
 51
29.1872445596
  0
ARC
  5
464
100
AcDbEntity
  8
0
100
AcDbCircle
 62
7
  6
CONTINUOUS
 10
769.8078070587
 20
121.96445266
 40
2.0131486851
100
AcDbArc
 50
214.8647092426
 51
233.3684037738
  0
ARC
  5
465
100
AcDbEntity
  8
BEZUGSACHSEN
100
AcDbCircle
 62
7
  6
CONTINUOUS
 10
678.1131493914
 20
195.3512528437
 40
114.5727156191
100
AcDbArc
 50
10.3828583317
 51
10.5712747641
  0
ARC
  5
466
100
AcDbEntity
  8
BEZUGSACHSEN
100
AcDbCircle
 62
7
  6
CONTINUOUS
 10
717.5925882745
 20
198.4394576883
 40
75.5717835422
100
AcDbArc
 50
12.038463946
 51
12.2823351255
  0
ARC
  5
467
100
AcDbEntity
  8
BEZUGSACHSEN
100
AcDbCircle
 62
7
  6
CONTINUOUS
 10
723.8349638451
 20
205.9030405625
 40
67.6635208414
100
AcDbArc
 50
8.8872931079
 51
9.0735777585
  0
ARC
  5
468
100
AcDbEntity
  8
BEZUGSACHSEN
100
AcDbCircle
 62
7
  6
CONTINUOUS
 10
731.9224221063
 20
196.0854757639
 40
62.2579311858
100
AcDbArc
 50
17.4513653927
 51
17.6499377024
  0
ARC
  5
469
100
AcDbEntity
  8
KONSTRUKTIONSELEMENTE
100
AcDbCircle
 62
7
  6
CONTINUOUS
 10
732.0180712294
 20
178.7796127236
 40
6.8544496741
100
AcDbArc
 50
180.0468621101
 51
190.0347873196
  0
ARC
  5
46A
100
AcDbEntity
  8
KONSTRUKTIONSELEMENTE
100
AcDbCircle
 62
7
  6
CONTINUOUS
 10
733.1963147033
 20
179.7851670287
 40
3.4480880968
100
AcDbArc
 50
240.3855846735
 51
242.1133696713
  0
ARC
  5
46B
100
AcDbEntity
  8
KONSTRUKTIONSELEMENTE
100
AcDbCircle
 62
7
  6
CONTINUOUS
 10
720.2089680506
 20
224.8072664762
 40
54.1889730932
100
AcDbArc
 50
310.925453933
 51
315.3262886148
  0
ARC
  5
46C
100
AcDbEntity
  8
KONSTRUKTIONSELEMENTE
100
AcDbCircle
 62
7
  6
CONTINUOUS
 10
720.940684842
 20
223.9854344385
 40
47.0886993575
100
AcDbArc
 50
310.9119020465
 51
313.9221447071
  0
ARC
  5
46D
100
AcDbEntity
  8
0
100
AcDbCircle
 62
7
  6
CONTINUOUS
 10
762.512226977
 20
196.0632197972
 40
18.4127752155
100
AcDbArc
 50
315.8410037998
 51
316.3114216167
  0
ARC
  5
46E
100
AcDbEntity
  8
0
100
AcDbCircle
 62
7
  6
CONTINUOUS
 10
764.8855691886
 20
193.8062042965
 40
15.1375946993
100
AcDbArc
 50
316.2837932272
 51
317.8057276678
  0
ARC
  5
46F
100
AcDbEntity
  8
0
100
AcDbCircle
 62
7
  6
CONTINUOUS
 10
766.8431921268
 20
192.0266961857
 40
12.4920450759
100
AcDbArc
 50
317.8606016368
 51
319.0935635275
  0
ARC
  5
470
100
AcDbEntity
  8
KONSTRUKTIONSELEMENTE
100
AcDbCircle
 62
7
  6
CONTINUOUS
 10
740.4709780016
 20
184.1237404281
 40
2.2319350366
100
AcDbArc
 50
329.6480991192
 51
331.3181221811
  0
ARC
  5
471
100
AcDbEntity
  8
KONSTRUKTIONSELEMENTE
100
AcDbCircle
 62
7
  6
CONTINUOUS
 10
742.4990569981
 20
184.8392768781
 40
1.6636945382
100
AcDbArc
 50
266.6436425957
 51
268.9525417715
  0
ARC
  5
472
100
AcDbEntity
  8
BEZUGSACHSEN
100
AcDbCircle
 62
7
  6
CONTINUOUS
 10
742.7707733134
 20
200.3800471128
 40
50.7621456812
100
AcDbArc
 50
20.9752952194
 51
21.2599007569
  0
ARC
  5
473
100
AcDbEntity
  8
BEZUGSACHSEN
100
AcDbCircle
 62
7
  6
CONTINUOUS
 10
763.1678386397
 20
204.2368721243
 40
29.9669183595
100
AcDbArc
 50
18.9813080406
 51
19.3663124526
  0
ARC
  5
474
100
AcDbEntity
  8
0
100
AcDbCircle
 62
7
  6
CONTINUOUS
 10
768.5330293636
 20
190.5800118652
 40
10.2675162858
100
AcDbArc
 50
319.3267004771
 51
322.0992026384
  0
ARC
  5
475
100
AcDbEntity
  8
0
100
AcDbCircle
 62
7
  6
CONTINUOUS
 10
769.737319342
 20
189.636689684
 40
8.7377457403
100
AcDbArc
 50
322.7277272178
 51
323.402276491
  0
ARC
  5
476
100
AcDbEntity
  8
0
100
AcDbCircle
 62
7
  6
CONTINUOUS
 10
769.9051583306
 20
189.511754533
 40
8.5285122351
100
AcDbArc
 50
323.4038798153
 51
323.7100529835
  0
ARC
  5
477
100
AcDbEntity
  8
0
100
AcDbCircle
 62
7
  6
CONTINUOUS
 10
770.1947754167
 20
189.3008497379
 40
8.1702430849
100
AcDbArc
 50
323.700093973
 51
325.5466234015
  0
ARC
  5
478
100
AcDbEntity
  8
0
100
AcDbCircle
 62
7
  6
CONTINUOUS
 10
770.4713663313
 20
189.1095626842
 40
7.8339520993
100
AcDbArc
 50
325.5558058671
 51
326.3079509574
  0
ARC
  5
479
100
AcDbEntity
  8
0
100
AcDbCircle
 62
7
  6
CONTINUOUS
 10
770.5859658748
 20
189.0330967888
 40
7.6961838666
100
AcDbArc
 50
326.3083255519
 51
327.0032565185
  0
ARC
  5
47A
100
AcDbEntity
  8
0
100
AcDbCircle
 62
7
  6
CONTINUOUS
 10
775.7947963151
 20
176.2296258268
 40
4.9998260367
100
AcDbArc
 50
135.0842008593
 51
180.0004796438
  0
ARC
  5
47B
100
AcDbEntity
  8
KONSTRUKTIONSELEMENTE
100
AcDbCircle
 62
7
  6
CONTINUOUS
 10
791.7951442421
 20
176.2296258268
 40
4.9998260367
100
AcDbArc
 50
359.9995203562
 51
44.9157991407
  0
ARC
  5
47C
100
AcDbEntity
  8
BEZUGSACHSEN
100
AcDbCircle
 62
7
  6
CONTINUOUS
 10
772.8497112759
 20
210.8972432552
 40
18.9430506299
100
AcDbArc
 50
9.5758784167
 51
10.0450478226
  0
ARC
  5
47D
100
AcDbEntity
  8
BEZUGSACHSEN
100
AcDbCircle
 62
7
  6
CONTINUOUS
 10
794.6918363132
 20
210.9056572836
 40
18.8939318869
100
AcDbArc
 50
169.9544798081
 51
170.5815729328
  0
ARC
  5
47E
100
AcDbEntity
  8
BEZUGSACHSEN
100
AcDbCircle
 62
7
  6
CONTINUOUS
 10
792.3049939764
 20
216.1824586796
 40
15.3042074888
100
AcDbArc
 50
167.4459121744
 51
167.9626137435
  0
ARC
  5
47F
100
AcDbEntity
  8
BEZUGSACHSEN
100
AcDbCircle
 62
7
  6
CONTINUOUS
 10
776.6426470246
 20
218.5012535118
 40
13.4100190123
100
AcDbArc
 50
357.763762855
 51
1.0510525728
  0
ARC
  5
480
100
AcDbEntity
  8
KONSTRUKTIONSELEMENTE
100
AcDbCircle
 62
7
  6
CONTINUOUS
 10
776.1840063359
 20
218.5871917054
 40
13.3228868013
100
AcDbArc
 50
357.3792136427
 51
0.6883019723
  0
ARC
  5
481
100
AcDbEntity
  8
BEZUGSACHSEN
100
AcDbCircle
 62
7
  6
CONTINUOUS
 10
777.0681108026
 20
217.8954841605
 40
13.1437035904
100
AcDbArc
 50
358.5574691503
 51
1.2123735565
  0
ARC
  5
482
100
AcDbEntity
  8
BEZUGSACHSEN
100
AcDbCircle
 62
7
  6
CONTINUOUS
 10
778.3091432999
 20
216.0783658608
 40
12.3801073878
100
AcDbArc
 50
358.468472044
 51
1.2871618599
  0
ARC
  5
483
100
AcDbEntity
  8
BEZUGSACHSEN
100
AcDbCircle
 62
7
  6
CONTINUOUS
 10
778.8070292999
 20
215.3515251818
 40
12.0731965852
100
AcDbArc
 50
358.429497878
 51
1.0155777296
  0
ARC
  5
484
100
AcDbEntity
  8
BEZUGSACHSEN
100
AcDbCircle
 62
7
  6
CONTINUOUS
 10
787.3199473052
 20
211.925872019
 40
11.4973021241
100
AcDbArc
 50
163.6518917226
 51
164.2763436632
  0
ARC
  5
485
100
AcDbEntity
  8
BEZUGSACHSEN
100
AcDbCircle
 62
7
  6
CONTINUOUS
 10
787.1561876764
 20
212.8032788133
 40
11.1149683804
100
AcDbArc
 50
176.3941685416
 51
177.5523508331
  0
ARC
  5
486
100
AcDbEntity
  8
BEZUGSACHSEN
100
AcDbCircle
 62
7
  6
CONTINUOUS
 10
780.4337528809
 20
212.8032788133
 40
11.1149683804
100
AcDbArc
 50
2.4476491669
 51
3.6058314584
  0
ARC
  5
487
100
AcDbEntity
  8
BEZUGSACHSEN
100
AcDbCircle
 62
7
  6
CONTINUOUS
 10
787.0999064788
 20
212.8092316849
 40
11.0586282262
100
AcDbArc
 50
181.7232984256
 51
182.7204368172
  0
ARC
  5
488
100
AcDbEntity
  8
BEZUGSACHSEN
100
AcDbCircle
 62
7
  6
CONTINUOUS
 10
780.4900340785
 20
212.8092316849
 40
11.0586282262
100
AcDbArc
 50
357.2795631828
 51
358.2767015744
  0
ARC
  5
489
100
AcDbEntity
  8
BEZUGSACHSEN
100
AcDbCircle
 62
7
  6
CONTINUOUS
 10
787.5925811882
 20
218.0987988834
 40
10.2681671504
100
AcDbArc
 50
167.7650682891
 51
168.5441734454
  0
ARC
  5
48A
100
AcDbEntity
  8
BEZUGSACHSEN
100
AcDbCircle
 62
7
  6
CONTINUOUS
 10
782.7908742018
 20
212.3188438195
 40
7.0077194643
100
AcDbArc
 50
162.7715459291
 51
163.7842940228
  0
ARC
  5
48B
100
AcDbEntity
  8
0
100
AcDbCircle
 62
7
  6
CONTINUOUS
 10
781.5449702786
 20
209.3709260144
 40
6.0
100
AcDbArc
 50
166.0
 51
180.0
  0
ARC
  5
48C
100
AcDbEntity
  8
BEZUGSACHSEN
100
AcDbCircle
 62
7
  6
CONTINUOUS
 10
786.0449702786
 20
209.3709260144
 40
6.0
100
AcDbArc
 50
0.0
 51
14.0
  0
ARC
  5
48D
100
AcDbEntity
  8
BEZUGSACHSEN
100
AcDbCircle
 62
7
  6
CONTINUOUS
 10
787.7604212983
 20
212.9141979127
 40
4.0033516019
100
AcDbArc
 50
26.3700428843
 51
27.3975786336
  0
ARC
  5
48E
100
AcDbEntity
  8
BEZUGSACHSEN
100
AcDbCircle
 62
7
  6
CONTINUOUS
 10
786.8472593051
 20
219.8584324224
 40
3.1950343765
100
AcDbArc
 50
4.0182193839
 51
5.695380181
  0
ARC
  5
48F
100
AcDbEntity
  8
BEZUGSACHSEN
100
AcDbCircle
 62
7
  6
CONTINUOUS
 10
788.1631180459
 20
215.7348894932
 40
3.1831329351
100
AcDbArc
 50
49.3128347374
 51
50.0076231198
  0
ARC
  5
490
100
AcDbEntity
  8
BEZUGSACHSEN
100
AcDbCircle
 62
7
  6
CONTINUOUS
 10
786.8685614728
 20
219.8622043301
 40
3.1736732586
100
AcDbArc
 50
355.557770176
 51
357.243483589
  0
ARC
  5
491
100
AcDbEntity
  8
KONSTRUKTIONSELEMENTE
100
AcDbCircle
 62
7
  6
CONTINUOUS
 10
786.3496569586
 20
219.8941501222
 40
3.1572899712
100
AcDbArc
 50
3.416774226
 51
5.1125877548
  0
ARC
  5
492
100
AcDbEntity
  8
KONSTRUKTIONSELEMENTE
100
AcDbCircle
 62
7
  6
CONTINUOUS
 10
786.3496569646
 20
219.8977469765
 40
3.1572899652
100
AcDbArc
 50
354.8874122443
 51
356.5832265841
  0
ARC
  5
493
100
AcDbEntity
  8
BEZUGSACHSEN
100
AcDbCircle
 62
7
  6
CONTINUOUS
 10
788.6891669375
 20
214.6885713927
 40
2.6580363616
100
AcDbArc
 50
0.0815316109
 51
1.4208005516
  0
ARC
  5
494
100
AcDbEntity
  8
BEZUGSACHSEN
100
AcDbCircle
 62
7
  6
CONTINUOUS
 10
778.6380533684
 20
213.9316148444
 40
2.5862907513
100
AcDbArc
 50
178.5397652129
 51
179.9161948829
  0
ARC
  5
495
100
AcDbEntity
  8
BEZUGSACHSEN
100
AcDbCircle
 62
7
  6
CONTINUOUS
 10
788.9518871888
 20
213.9316148444
 40
2.5862907513
100
AcDbArc
 50
0.0838051171
 51
1.4602347871
  0
ARC
  5
496
100
AcDbEntity
  8
BEZUGSACHSEN
100
AcDbCircle
 62
7
  6
CONTINUOUS
 10
790.0402582488
 20
212.955477059
 40
1.7899719739
100
AcDbArc
 50
33.1922678757
 51
35.0679988018
  0
ARC
  5
497
100
AcDbEntity
  8
KONSTRUKTIONSELEMENTE
100
AcDbCircle
 62
7
  6
CONTINUOUS
 10
788.3112854245
 20
219.6606015317
 40
1.5037997911
100
AcDbArc
 50
322.6003660143
 51
324.4538474768
  0
ARC
  5
498
100
AcDbEntity
  8
BEZUGSACHSEN
100
AcDbCircle
 62
7
  6
CONTINUOUS
 10
788.8800528777
 20
219.6115810435
 40
1.4549312726
100
AcDbArc
 50
323.5530242066
 51
325.4453057562
  0
ARC
  5
499
100
AcDbEntity
  8
0
100
AcDbCircle
 62
7
  6
CONTINUOUS
 10
783.7949702786
 20
265.6031864295
 40
18.0
100
AcDbArc
 50
180.0
 51
360.0
  0
ARC
  5
49A
100
AcDbEntity
  8
BEZUGSACHSEN
100
AcDbCircle
 62
7
  6
CONTINUOUS
 10
995.0576642194
 20
156.9998764073
 40
226.3543410627
100
AcDbArc
 50
165.1149756183
 51
165.246768999
  0
ARC
  5
49B
100
AcDbEntity
  8
RUNDUNGEN
100
AcDbCircle
 62
7
  6
CONTINUOUS
 10
797.2939469952
 20
125.6586114445
 40
4.5225497429
100
AcDbArc
 50
325.1942794081
 51
328.3446275771
  0
ARC
  5
49C
100
AcDbEntity
  8
RUNDUNGEN
100
AcDbCircle
 62
7
  6
CONTINUOUS
 10
797.3184011878
 20
125.6435011723
 40
4.493803838
100
AcDbArc
 50
328.3449895819
 51
330.909804925
  0
ARC
  5
49D
100
AcDbEntity
  8
RUNDUNGEN
100
AcDbCircle
 62
7
  6
CONTINUOUS
 10
797.7821334985
 20
121.96445266
 40
2.0131486851
100
AcDbArc
 50
306.6315962262
 51
325.1352907574
  0
ARC
  5
49E
100
AcDbEntity
  8
BEZUGSACHSEN
100
AcDbCircle
 62
7
  6
CONTINUOUS
 10
978.1678172869
 20
172.3404655824
 40
206.2510503058
100
AcDbArc
 50
166.6750987499
 51
166.8191179787
  0
ARC
  5
49F
100
AcDbEntity
  8
BEZUGSACHSEN
100
AcDbCircle
 62
7
  6
CONTINUOUS
 10
865.354732939
 20
191.5440122206
 40
92.1454586388
100
AcDbArc
 50
164.9878290197
 51
165.1085866973
  0
ARC
  5
4A0
100
AcDbEntity
  8
BEZUGSACHSEN
100
AcDbCircle
 62
7
  6
CONTINUOUS
 10
833.5692779839
 20
207.2582152158
 40
57.5013837152
100
AcDbArc
 50
167.0562672619
 51
167.3244931785
  0
ARC
  5
4A1
100
AcDbEntity
  8
BEZUGSACHSEN
100
AcDbCircle
 62
7
  6
CONTINUOUS
 10
823.8236973029
 20
201.3901253644
 40
49.4660842091
100
AcDbArc
 50
164.4601919223
 51
164.7582145811
  0
ARC
  5
4A2
100
AcDbEntity
  8
RUNDUNGEN
100
AcDbCircle
 62
7
  6
CONTINUOUS
 10
805.0777135823
 20
196.0632197991
 40
18.4127752183
100
AcDbArc
 50
223.6885783832
 51
224.1589962001
  0
ARC
  5
4A3
100
AcDbEntity
  8
RUNDUNGEN
100
AcDbCircle
 62
7
  6
CONTINUOUS
 10
802.7021581131
 20
193.8041250626
 40
15.1345580895
100
AcDbArc
 50
222.1916468715
 51
223.7163080056
  0
ARC
  5
4A4
100
AcDbEntity
  8
RUNDUNGEN
100
AcDbCircle
 62
7
  6
CONTINUOUS
 10
800.7351747176
 20
192.0165225327
 40
12.4766359271
100
AcDbArc
 50
220.9059300497
 51
222.1174360761
  0
ARC
  5
4A5
100
AcDbEntity
  8
RUNDUNGEN
100
AcDbCircle
 62
7
  6
CONTINUOUS
 10
799.0555792085
 20
190.5789259321
 40
10.2657978868
100
AcDbArc
 50
217.8988806104
 51
220.6709705717
  0
ARC
  5
4A6
100
AcDbEntity
  8
RUNDUNGEN
100
AcDbCircle
 62
7
  6
CONTINUOUS
 10
797.8526212222
 20
189.6366896893
 40
8.7377457491
100
AcDbArc
 50
216.5977235094
 51
217.2722727819
  0
ARC
  5
4A7
100
AcDbEntity
  8
RUNDUNGEN
100
AcDbCircle
 62
7
  6
CONTINUOUS
 10
797.6844331765
 20
189.5114963051
 40
8.5280780496
100
AcDbArc
 50
216.2877224519
 51
216.5961253787
  0
ARC
  5
4A8
100
AcDbEntity
  8
RUNDUNGEN
100
AcDbCircle
 62
7
  6
CONTINUOUS
 10
797.3943870823
 20
189.3002954243
 40
8.1692878052
100
AcDbArc
 50
214.449065288
 51
216.297691975
  0
ARC
  5
4A9
100
AcDbEntity
  8
RUNDUNGEN
100
AcDbCircle
 62
7
  6
CONTINUOUS
 10
797.118178527
 20
189.1092962944
 40
7.8334750911
100
AcDbArc
 50
213.6919706679
 51
214.4398518011
  0
ARC
  5
4AA
100
AcDbEntity
  8
RUNDUNGEN
100
AcDbCircle
 62
7
  6
CONTINUOUS
 10
797.003969979
 20
189.0330937072
 40
7.6961782436
100
AcDbArc
 50
212.9967433095
 51
213.6916109344
  0
ARC
  5
4AB
100
AcDbEntity
  8
0
100
AcDbCircle
 62
7
  6
CONTINUOUS
 10
783.7949702786
 20
761.6031864295
 40
18.0
100
AcDbArc
 50
0.0
 51
180.0
  0
SPLINE
  5
4AC
100
AcDbEntity
  8
KONSTRUKTIONSELEMENTE
100
AcDbSpline
 62
7
  6
CONTINUOUS
 70
0
 71
3
 72
9
 73
5
 74
0
 42
0.0000001
 43
0.0000001
 44
0.0000000001
 40
0.0
 40
0.0
 40
0.0
 40
0.0
 40
0.4859207637
 40
1.0
 40
1.0
 40
1.0
 40
1.0
 10
153.7056701723
 20
146.9776277406
 30
0.0
 10
153.6121121188
 20
147.8789620225
 30
0.0
 10
152.9941404737
 20
149.6990191458
 30
0.0
 10
151.7975387848
 20
151.1732509995
 30
0.0
 10
151.0938566202
 20
151.8243388546
 30
0.0
  0
SPLINE
  5
4AD
100
AcDbEntity
  8
KONSTRUKTIONSELEMENTE
100
AcDbSpline
 62
7
  6
CONTINUOUS
 70
0
 71
3
 72
9
 73
5
 74
0
 42
0.0000001
 43
0.0000001
 44
0.0000000001
 40
0.0
 40
0.0
 40
0.0
 40
0.0
 40
0.5141023376
 40
1.0
 40
1.0
 40
1.0
 40
1.0
 10
147.1915165858
 20
154.0778538451
 30
0.0
 10
146.2754700793
 20
154.3619831303
 30
0.0
 10
144.3997614269
 20
154.6616939845
 30
0.0
 10
142.5138202148
 20
154.2866452862
 30
0.0
 10
141.6861744462
 20
153.9169022216
 30
0.0
  0
SPLINE
  5
4AE
100
AcDbEntity
  8
KONSTRUKTIONSELEMENTE
100
AcDbSpline
 62
7
  6
CONTINUOUS
 70
0
 71
3
 72
9
 73
5
 74
0
 42
0.0000001
 43
0.0000001
 44
0.0000000001
 40
0.0
 40
0.0
 40
0.0
 40
0.0
 40
0.4858085289
 40
1.0
 40
1.0
 40
1.0
 40
1.0
 10
133.1859906462
 20
139.5188372583
 30
0.0
 10
133.2363888836
 20
138.609743993
 30
0.0
 10
133.7841695619
 20
136.7531194543
 30
0.0
 10
134.9447272591
 20
135.2360937322
 30
0.0
 10
135.634633426
 20
134.5632521495
 30
0.0
  0
SPLINE
  5
4AF
100
AcDbEntity
  8
KONSTRUKTIONSELEMENTE
100
AcDbSpline
 62
7
  6
CONTINUOUS
 70
0
 71
3
 72
10
 73
6
 74
0
 42
0.0000001
 43
0.0000001
 44
0.0000000001
 40
0.0
 40
0.0
 40
0.0
 40
0.0
 40
0.5129092974
 40
0.7594793488
 40
1.0
 40
1.0
 40
1.0
 40
1.0
 10
139.9715975885
 20
132.0595901527
 30
0.0
 10
140.9001307425
 20
131.7983969937
 30
0.0
 10
142.3524400674
 20
131.6138442474
 30
0.0
 10
144.2208101278
 20
131.8948163561
 30
0.0
 10
145.088467404
 20
132.2151976229
 30
0.0
 10
145.4919277287
 20
132.4196799188
 30
0.0
  0
SPLINE
  5
4B0
100
AcDbEntity
  8
KONSTRUKTIONSELEMENTE
100
AcDbSpline
 62
7
  6
CONTINUOUS
 70
0
 71
3
 72
10
 73
6
 74
0
 42
0.0000001
 43
0.0000001
 44
0.0000000001
 40
0.0
 40
0.0
 40
0.0
 40
0.0
 40
0.3192646009
 40
0.6086079864
 40
1.0
 40
1.0
 40
1.0
 40
1.0
 10
164.6962931267
 20
172.8926746316
 30
0.0
 10
164.7821630143
 20
173.0414056397
 30
0.0
 10
164.8195993429
 20
173.390278836
 30
0.0
 10
164.699478211
 20
173.9138349619
 30
0.0
 10
164.5433431999
 20
174.2499768552
 30
0.0
 10
164.4377194243
 20
174.4321037114
 30
0.0
  0
SPLINE
  5
4B1
100
AcDbEntity
  8
KONSTRUKTIONSELEMENTE
100
AcDbSpline
 62
7
  6
CONTINUOUS
 70
0
 71
3
 72
10
 73
6
 74
0
 42
0.0000001
 43
0.0000001
 44
0.0000000001
 40
0.0
 40
0.0
 40
0.0
 40
0.0
 40
0.3914026107
 40
0.6807340322
 40
1.0
 40
1.0
 40
1.0
 40
1.0
 10
160.0964813338
 20
176.9384581031
 30
0.0
 10
159.8859503993
 20
176.938862315
 30
0.0
 10
159.5168076832
 20
176.905967537
 30
0.0
 10
159.0033484795
 20
176.7482715177
 30
0.0
 10
158.719980193
 20
176.5413969885
 30
0.0
 10
158.6341153002
 20
176.3926746316
 30
0.0
  0
SPLINE
  5
4B2
100
AcDbEntity
  8
KONSTRUKTIONSELEMENTE
100
AcDbSpline
 62
7
  6
CONTINUOUS
 70
0
 71
3
 72
11
 73
7
 74
0
 42
0.0000001
 43
0.0000001
 44
0.0000000001
 40
0.0
 40
0.0
 40
0.0
 40
0.0
 40
0.2388488055
 40
0.4826650946
 40
0.7357658276
 40
1.0
 40
1.0
 40
1.0
 40
1.0
 10
168.780737525
 20
170.9987679353
 30
0.0
 10
169.0664209505
 20
171.597703893
 30
0.0
 10
169.4058718721
 20
172.9348403081
 30
0.0
 10
169.1648278435
 20
175.0022246183
 30
0.0
 10
168.2818678745
 20
176.954156896
 30
0.0
 10
167.3616762834
 20
178.0795714058
 30
0.0
 10
166.836124956
 20
178.5921234076
 30
0.0
  0
SPLINE
  5
4B3
100
AcDbEntity
  8
KONSTRUKTIONSELEMENTE
100
AcDbSpline
 62
7
  6
CONTINUOUS
 70
0
 71
3
 72
11
 73
7
 74
0
 42
0.0000001
 43
0.0000001
 44
0.0000000001
 40
0.0
 40
0.0
 40
0.0
 40
0.0
 40
0.2642365791
 40
0.5173197099
 40
0.7611154166
 40
1.0
 40
1.0
 40
1.0
 40
1.0
 10
162.4991607935
 20
181.0957854044
 30
0.0
 10
161.7925509379
 20
181.2945523084
 30
0.0
 10
160.3579979179
 20
181.528632433
 30
0.0
 10
158.2264692399
 20
181.3171626771
 30
0.0
 10
156.3157154347
 20
180.4923955787
 30
0.0
 10
155.3276159608
 20
179.5298294627
 30
0.0
 10
154.9517283838
 20
178.982944209
 30
0.0
  0
SPLINE
  5
4B4
100
AcDbEntity
  8
KONSTRUKTIONSELEMENTE
100
AcDbSpline
 62
7
  6
CONTINUOUS
 70
0
 71
3
 72
9
 73
5
 74
0
 42
0.0000001
 43
0.0000001
 44
0.0000000001
 40
0.0
 40
0.0
 40
0.0
 40
0.0
 40
0.4893425855
 40
1.0
 40
1.0
 40
1.0
 40
1.0
 10
149.0205682987
 20
164.9412363477
 30
0.0
 10
149.2301232448
 20
164.2636974455
 30
0.0
 10
149.8761456461
 20
162.941650718
 30
0.0
 10
150.8336669631
 20
161.8336692796
 30
0.0
 10
151.3769017617
 20
161.3310367025
 30
0.0
  0
SPLINE
  5
4B5
100
AcDbEntity
  8
KONSTRUKTIONSELEMENTE
100
AcDbSpline
 62
7
  6
CONTINUOUS
 70
0
 71
3
 72
9
 73
5
 74
0
 42
0.0000001
 43
0.0000001
 44
0.0000000001
 40
0.0
 40
0.0
 40
0.0
 40
0.0
 40
0.5106765564
 40
1.0
 40
1.0
 40
1.0
 40
1.0
 10
155.2792417962
 20
159.077521712
 30
0.0
 10
155.9861466715
 20
158.8582616903
 30
0.0
 10
157.4243796537
 20
158.5826682131
 30
0.0
 10
158.8923430533
 20
158.6838589067
 30
0.0
 10
159.5839082948
 20
158.8409412149
 30
0.0
  0
SPLINE
  5
4B6
100
AcDbEntity
  8
KONSTRUKTIONSELEMENTE
100
AcDbSpline
 62
7
  6
CONTINUOUS
 70
0
 71
3
 72
9
 73
5
 74
0
 42
0.0000001
 43
0.0000001
 44
0.0000000001
 40
0.0
 40
0.0
 40
0.0
 40
0.0
 40
0.2404990325
 40
1.0
 40
1.0
 40
1.0
 40
1.0
 10
153.5310212946
 20
165.7724467807
 30
0.0
 10
153.5463947667
 20
165.7436517846
 30
0.0
 10
153.6121069775
 20
165.6248813136
 30
0.0
 10
153.6846757624
 20
165.5099381572
 30
0.0
 10
153.7429450225
 20
165.4249029787
 30
0.0
  0
SPLINE
  5
4B7
100
AcDbEntity
  8
KONSTRUKTIONSELEMENTE
100
AcDbSpline
 62
7
  6
CONTINUOUS
 70
0
 71
3
 72
9
 73
5
 74
0
 42
0.0000001
 43
0.0000001
 44
0.0000000001
 40
0.0
 40
0.0
 40
0.0
 40
0.0
 40
0.2593015787
 40
1.0
 40
1.0
 40
1.0
 40
1.0
 10
157.6432432838
 20
163.1729354843
 30
0.0
 10
157.678354262
 20
163.1702185049
 30
0.0
 10
157.8138861434
 20
163.1614986401
 30
0.0
 10
157.9499042694
 20
163.1598106759
 30
0.0
 10
158.0504435822
 20
163.1631518781
 30
0.0
  0
SPLINE
  5
4B8
100
AcDbEntity
  8
KONSTRUKTIONSELEMENTE
100
AcDbSpline
 62
7
  6
CONTINUOUS
 70
0
 71
3
 72
9
 73
5
 74
0
 42
0.0000001
 43
0.0000001
 44
0.0000000001
 40
0.0
 40
0.0
 40
0.0
 40
0.0
 40
0.231757029
 40
1.0
 40
1.0
 40
1.0
 40
1.0
 10
158.2611968575
 20
199.0117958354
 30
0.0
 10
158.3498471546
 20
198.5758856972
 30
0.0
 10
158.8383967921
 20
196.7167487588
 30
0.0
 10
159.7179027682
 20
194.9723735733
 30
0.0
 10
160.5275402887
 20
193.7399702453
 30
0.0
  0
SPLINE
  5
4B9
100
AcDbEntity
  8
KONSTRUKTIONSELEMENTE
100
AcDbSpline
 62
7
  6
CONTINUOUS
 70
0
 71
3
 72
9
 73
5
 74
0
 42
0.0000001
 43
0.0000001
 44
0.0000000001
 40
0.0
 40
0.0
 40
0.0
 40
0.0
 40
0.2686941333
 40
1.0
 40
1.0
 40
1.0
 40
1.0
 10
178.7740151113
 20
183.2060004879
 30
0.0
 10
179.2888663933
 20
183.1763156108
 30
0.0
 10
181.2071052036
 20
183.1437305152
 30
0.0
 10
183.1425824572
 20
183.4342173806
 30
0.0
 10
184.473522956
 20
183.8799642212
 30
0.0
  0
SPLINE
  5
4BA
100
AcDbEntity
  8
KONSTRUKTIONSELEMENTE
100
AcDbSpline
 62
7
  6
CONTINUOUS
 70
0
 71
3
 72
9
 73
5
 74
0
 42
0.0000001
 43
0.0000001
 44
0.0000000001
 40
0.0
 40
0.0
 40
0.0
 40
0.0
 40
0.4866272252
 40
1.0
 40
1.0
 40
1.0
 40
1.0
 10
154.0119826036
 20
193.0774671569
 30
0.0
 10
155.0179802308
 20
191.0098129441
 30
0.0
 10
157.7470842326
 20
187.0691005745
 30
0.0
 10
161.3516240601
 20
183.9401225493
 30
0.0
 10
163.3507825382
 20
182.5661702942
 30
0.0
  0
SPLINE
  5
4BB
100
AcDbEntity
  8
KONSTRUKTIONSELEMENTE
100
AcDbSpline
 62
7
  6
CONTINUOUS
 70
0
 71
3
 72
9
 73
5
 74
0
 42
0.0000001
 43
0.0000001
 44
0.0000000001
 40
0.0
 40
0.0
 40
0.0
 40
0.0
 40
0.5133870922
 40
1.0
 40
1.0
 40
1.0
 40
1.0
 10
167.6837501197
 20
180.0644606285
 30
0.0
 10
169.8743698505
 20
179.0194856413
 30
0.0
 10
174.3888645833
 20
177.4617162902
 30
0.0
 10
179.1688009617
 20
177.069301244
 30
0.0
 10
181.4635097896
 20
177.232665003
 30
0.0
  0
SPLINE
  5
4BC
100
AcDbEntity
  8
BEZUGSACHSEN
100
AcDbSpline
 62
7
  6
CONTINUOUS
 70
0
 71
3
 72
9
 73
5
 74
0
 42
0.0000001
 43
0.0000001
 44
0.0000000001
 40
0.0
 40
0.0
 40
0.0
 40
0.0
 40
0.4734684586
 40
1.0
 40
1.0
 40
1.0
 40
1.0
 10
137.0911279048
 20
122.2838946141
 30
0.0
 10
136.6446144289
 20
122.0838018616
 30
0.0
 10
135.6137016492
 20
121.8506532907
 30
0.0
 10
134.5702236191
 20
121.9333936924
 30
0.0
 10
134.0366459891
 20
122.0400546697
 30
0.0
  0
SPLINE
  5
4BD
100
AcDbEntity
  8
BEZUGSACHSEN
100
AcDbSpline
 62
7
  6
CONTINUOUS
 70
0
 71
3
 72
9
 73
5
 74
0
 42
0.0000001
 43
0.0000001
 44
0.0000000001
 40
0.0
 40
0.0
 40
0.0
 40
0.0
 40
0.5265315414
 40
1.0
 40
1.0
 40
1.0
 40
1.0
 10
129.924278133
 20
124.4143313584
 30
0.0
 10
129.5651182021
 20
124.8230926522
 30
0.0
 10
128.9717238973
 20
125.6854009337
 30
0.0
 10
128.6581800927
 20
126.6947718755
 30
0.0
 10
128.6082087615
 20
127.181510265
 30
0.0
  0
SPLINE
  5
4BE
100
AcDbEntity
  8
KONSTRUKTIONSELEMENTE
100
AcDbSpline
 62
7
  6
CONTINUOUS
 70
0
 71
3
 72
12
 73
8
 74
0
 42
0.0000001
 43
0.0000001
 44
0.0000000001
 40
0.0
 40
0.0
 40
0.0
 40
0.0
 40
0.1037926843
 40
0.2125340317
 40
0.450198811
 40
0.7163761548
 40
1.0
 40
1.0
 40
1.0
 40
1.0
 10
92.3166300616
 20
66.4359701631
 30
0.0
 10
92.3944460519
 20
66.6486746388
 30
0.0
 10
92.4977719237
 20
67.1065528531
 30
0.0
 10
92.4829085487
 20
68.0963261644
 30
0.0
 10
92.0293438432
 20
69.3908951878
 30
0.0
 10
90.9653718643
 20
70.7668568357
 30
0.0
 10
89.9963746389
 20
71.5007978547
 30
0.0
 10
89.4603817154
 20
71.8102535134
 30
0.0
  0
SPLINE
  5
4BF
100
AcDbEntity
  8
KONSTRUKTIONSELEMENTE
100
AcDbSpline
 62
7
  6
CONTINUOUS
 70
0
 71
3
 72
9
 73
5
 74
0
 42
0.0000001
 43
0.0000001
 44
0.0000000001
 40
0.0
 40
0.0
 40
0.0
 40
0.0
 40
0.2444736488
 40
1.0
 40
1.0
 40
1.0
 40
1.0
 10
91.6405056149
 20
120.3173389624
 30
0.0
 10
91.6656205145
 20
120.3608116069
 30
0.0
 10
91.754835573
 20
120.5464374909
 30
0.0
 10
91.7830138182
 20
120.7587299964
 30
0.0
 10
91.7738033584
 20
120.9136136122
 30
0.0
  0
SPLINE
  5
4C0
100
AcDbEntity
  8
KONSTRUKTIONSELEMENTE
100
AcDbSpline
 62
7
  6
CONTINUOUS
 70
0
 71
3
 72
11
 73
7
 74
0
 42
0.0000001
 43
0.0000001
 44
0.0000000001
 40
0.0
 40
0.0
 40
0.0
 40
0.0
 40
0.2200436456
 40
0.4557793627
 40
0.7157728079
 40
1.0
 40
1.0
 40
1.0
 40
1.0
 10
83.7875409582
 20
125.1987920477
 30
0.0
 10
83.8531615043
 20
125.3123779554
 30
0.0
 10
84.0401387931
 20
125.5210142636
 30
0.0
 10
84.4297965398
 20
125.7140016368
 30
0.0
 10
84.8951980293
 20
125.7852661265
 30
0.0
 10
85.2213837619
 20
125.7523341202
 30
0.0
 10
85.387273982
 20
125.7178255894
 30
0.0
  0
SPLINE
  5
4C1
100
AcDbEntity
  8
KONSTRUKTIONSELEMENTE
100
AcDbSpline
 62
7
  6
CONTINUOUS
 70
0
 71
3
 72
11
 73
7
 74
0
 42
0.0000001
 43
0.0000001
 44
0.0000000001
 40
0.0
 40
0.0
 40
0.0
 40
0.0
 40
0.2200599668
 40
0.4557760239
 40
0.7157731965
 40
1.0
 40
1.0
 40
1.0
 40
1.0
 10
83.4422260937
 20
141.8804258152
 30
0.0
 10
83.6609517174
 20
142.2591750802
 30
0.0
 10
84.2840091005
 20
142.9550085629
 30
0.0
 10
85.5830603702
 20
143.5985916644
 30
0.0
 10
87.1346206358
 20
143.8362140698
 30
0.0
 10
88.22210849
 20
143.7264787422
 30
0.0
 10
88.7751699754
 20
143.6114307344
 30
0.0
  0
SPLINE
  5
4C2
100
AcDbEntity
  8
KONSTRUKTIONSELEMENTE
100
AcDbSpline
 62
7
  6
CONTINUOUS
 70
0
 71
3
 72
9
 73
5
 74
0
 42
0.0000001
 43
0.0000001
 44
0.0000000001
 40
0.0
 40
0.0
 40
0.0
 40
0.0
 40
0.4891681133
 40
1.0
 40
1.0
 40
1.0
 40
1.0
 10
81.6743824713
 20
138.818430321
 30
0.0
 10
81.5066067066
 20
138.5278733542
 30
0.0
 10
81.256224358
 20
137.8760299034
 30
0.0
 10
81.2098347027
 20
137.1816333556
 30
0.0
 10
81.230633798
 20
136.8318745844
 30
0.0
  0
SPLINE
  5
4C3
100
AcDbEntity
  8
KONSTRUKTIONSELEMENTE
100
AcDbSpline
 62
7
  6
CONTINUOUS
 70
0
 71
3
 72
9
 73
5
 74
0
 42
0.0000001
 43
0.0000001
 44
0.0000000001
 40
0.0
 40
0.0
 40
0.0
 40
0.0
 40
0.4891683995
 40
1.0
 40
1.0
 40
1.0
 40
1.0
 10
124.8400831143
 20
63.2721895438
 30
0.0
 10
125.0078229756
 20
63.5627961032
 30
0.0
 10
125.4471607674
 20
64.1056117151
 30
0.0
 10
126.0253711192
 20
64.4930197431
 30
0.0
 10
126.3386936318
 20
64.6498980916
 30
0.0
  0
SPLINE
  5
4C4
100
AcDbEntity
  8
KONSTRUKTIONSELEMENTE
100
AcDbSpline
 62
7
  6
CONTINUOUS
 70
0
 71
3
 72
9
 73
5
 74
0
 42
0.0000001
 43
0.0000001
 44
0.0000000001
 40
0.0
 40
0.0
 40
0.0
 40
0.0
 40
0.4694103614
 40
1.0
 40
1.0
 40
1.0
 40
1.0
 10
126.1569928812
 20
64.5511670646
 30
0.0
 10
126.1630575341
 20
63.9090988295
 30
0.0
 10
126.5093609665
 20
62.5409838093
 30
0.0
 10
127.2919319651
 20
61.3915507095
 30
0.0
 10
127.7752277741
 20
60.8500843841
 30
0.0
  0
SPLINE
  5
4C5
100
AcDbEntity
  8
KONSTRUKTIONSELEMENTE
100
AcDbSpline
 62
7
  6
CONTINUOUS
 70
0
 71
3
 72
11
 73
7
 74
0
 42
0.0000001
 43
0.0000001
 44
0.0000000001
 40
0.0
 40
0.0
 40
0.0
 40
0.0
 40
0.2094829334
 40
0.4446557434
 40
0.7120095299
 40
1.0
 40
1.0
 40
1.0
 40
1.0
 10
83.4388984254
 20
56.1807385181
 30
0.0
 10
83.3475337186
 20
56.0224902039
 30
0.0
 10
83.2540772523
 20
55.6232715399
 30
0.0
 10
83.4228750928
 20
55.0068802005
 30
0.0
 10
83.8313428093
 20
54.4378331823
 30
0.0
 10
84.2206641049
 20
54.1372175598
 30
0.0
 10
84.4382188511
 20
54.0116122685
 30
0.0
  0
SPLINE
  5
4C6
100
AcDbEntity
  8
KONSTRUKTIONSELEMENTE
100
AcDbSpline
 62
7
  6
CONTINUOUS
 70
0
 71
3
 72
9
 73
5
 74
0
 42
0.0000001
 43
0.0000001
 44
0.0000000001
 40
0.0
 40
0.0
 40
0.0
 40
0.0
 40
0.4535493247
 40
1.0
 40
1.0
 40
1.0
 40
1.0
 10
133.2616373927
 20
54.2856309099
 30
0.0
 10
133.3061640802
 20
54.3627429431
 30
0.0
 10
133.3249254737
 20
54.5789670653
 30
0.0
 10
133.2163673161
 20
54.7540376595
 30
0.0
 10
133.1449277085
 20
54.834075891
 30
0.0
  0
SPLINE
  5
4C7
100
AcDbEntity
  8
BEZUGSACHSEN
100
AcDbSpline
 62
7
  6
CONTINUOUS
 70
0
 71
3
 72
9
 73
5
 74
0
 42
0.0000001
 43
0.0000001
 44
0.0000000001
 40
0.0
 40
0.0
 40
0.0
 40
0.0
 40
0.2459387646
 40
1.0
 40
1.0
 40
1.0
 40
1.0
 10
142.5959874818
 20
128.0900380161
 30
0.0
 10
142.3578060732
 20
128.3568874481
 30
0.0
 10
141.3597808571
 20
129.4152642784
 30
0.0
 10
140.2497451095
 20
130.3671096924
 30
0.0
 10
139.3668808403
 20
131.0176973268
 30
0.0
  0
SPLINE
  5
4C8
100
AcDbEntity
  8
BEZUGSACHSEN
100
AcDbSpline
 62
7
  6
CONTINUOUS
 70
0
 71
3
 72
9
 73
5
 74
0
 42
0.0000001
 43
0.0000001
 44
0.0000000001
 40
0.0
 40
0.0
 40
0.0
 40
0.0
 40
0.2536983179
 40
1.0
 40
1.0
 40
1.0
 40
1.0
 10
135.0340273146
 20
133.5192714762
 30
0.0
 10
134.6959566953
 20
133.667064292
 30
0.0
 10
133.3491886983
 20
134.2163463242
 30
0.0
 10
131.9466764847
 20
134.6308816443
 30
0.0
 10
130.8840466572
 20
134.851930204
 30
0.0
  0
SPLINE
  5
4C9
100
AcDbEntity
  8
BEZUGSACHSEN
100
AcDbSpline
 62
7
  6
CONTINUOUS
 70
0
 71
3
 72
11
 73
7
 74
0
 42
0.0000001
 43
0.0000001
 44
0.0000000001
 40
0.0
 40
0.0
 40
0.0
 40
0.0
 40
0.221185816
 40
0.4572071684
 40
0.716647289
 40
1.0
 40
1.0
 40
1.0
 40
1.0
 10
127.2035796828
 20
125.9533900331
 30
0.0
 10
127.3826759367
 20
126.2635938442
 30
0.0
 10
127.8870854244
 20
126.8348261911
 30
0.0
 10
128.9365494852
 20
127.3779080762
 30
0.0
 10
130.1936819719
 20
127.6003373587
 30
0.0
 10
131.0792222342
 20
127.5345926515
 30
0.0
 10
131.5309350418
 20
127.4538818088
 30
0.0
  0
SPLINE
  5
4CA
100
AcDbEntity
  8
BEZUGSACHSEN
100
AcDbSpline
 62
7
  6
CONTINUOUS
 70
0
 71
3
 72
11
 73
7
 74
0
 42
0.0000001
 43
0.0000001
 44
0.0000000001
 40
0.0
 40
0.0
 40
0.0
 40
0.0
 40
0.283352711
 40
0.5427928316
 40
0.778814184
 40
1.0
 40
1.0
 40
1.0
 40
1.0
 10
135.8656454409
 20
124.951235593
 30
0.0
 10
136.1613994848
 20
124.6003962478
 30
0.0
 10
136.6611062026
 20
123.8663682382
 30
0.0
 10
137.0970430367
 20
122.6664449275
 30
0.0
 10
137.1514523583
 20
121.4860414479
 30
0.0
 10
136.9089553783
 20
120.7635938442
 30
0.0
 10
136.7298591245
 20
120.4533900331
 30
0.0
  0
SPLINE
  5
4CB
100
AcDbEntity
  8
KONSTRUKTIONSELEMENTE
100
AcDbSpline
 62
7
  6
CONTINUOUS
 70
0
 71
3
 72
9
 73
5
 74
0
 42
0.0000001
 43
0.0000001
 44
0.0000000001
 40
0.0
 40
0.0
 40
0.0
 40
0.0
 40
0.5108269807
 40
1.0
 40
1.0
 40
1.0
 40
1.0
 10
179.0506682295
 20
74.9724160675
 30
0.0
 10
179.363975847
 20
75.1292869582
 30
0.0
 10
179.9421658352
 20
75.51668224
 30
0.0
 10
180.3814828698
 20
76.0594677486
 30
0.0
 10
180.5492544704
 20
76.3500447293
 30
0.0
  0
SPLINE
  5
4CC
100
AcDbEntity
  8
KONSTRUKTIONSELEMENTE
100
AcDbSpline
 62
7
  6
CONTINUOUS
 70
0
 71
3
 72
9
 73
5
 74
0
 42
0.0000001
 43
0.0000001
 44
0.0000000001
 40
0.0
 40
0.0
 40
0.0
 40
0.0
 40
0.5322168521
 40
1.0
 40
1.0
 40
1.0
 40
1.0
 10
177.2990830219
 20
74.7649928381
 30
0.0
 10
177.4094556696
 20
74.6413355026
 30
0.0
 10
177.6849272138
 20
74.4668371568
 30
0.0
 10
178.0280466252
 20
74.46039672
 30
0.0
 10
178.1583139851
 20
74.5256206585
 30
0.0
  0
SPLINE
  5
4CD
100
AcDbEntity
  8
KONSTRUKTIONSELEMENTE
100
AcDbSpline
 62
7
  6
CONTINUOUS
 70
0
 71
3
 72
9
 73
5
 74
0
 42
0.0000001
 43
0.0000001
 44
0.0000000001
 40
0.0
 40
0.0
 40
0.0
 40
0.0
 40
0.2605100871
 40
1.0
 40
1.0
 40
1.0
 40
1.0
 10
131.3440374745
 20
51.0860461239
 30
0.0
 10
131.359965585
 20
51.0940212153
 30
0.0
 10
131.4191035031
 20
51.1284000687
 30
0.0
 10
131.4685855223
 20
51.1799799048
 30
0.0
 10
131.4938704398
 20
51.2237687314
 30
0.0
  0
SPLINE
  5
4CE
100
AcDbEntity
  8
KONSTRUKTIONSELEMENTE
100
AcDbSpline
 62
7
  6
CONTINUOUS
 70
0
 71
3
 72
11
 73
7
 74
0
 42
0.0000001
 43
0.0000001
 44
0.0000000001
 40
0.0
 40
0.0
 40
0.0
 40
0.0
 40
0.2729767978
 40
0.5353848362
 40
0.7789285996
 40
1.0
 40
1.0
 40
1.0
 40
1.0
 10
124.5508190834
 20
51.550780053
 30
0.0
 10
125.0785557211
 20
51.2460911632
 30
0.0
 10
126.175885177
 20
50.749174956
 30
0.0
 10
127.8859086395
 20
50.3675333078
 30
0.0
 10
129.5244319069
 20
50.3833054437
 30
0.0
 10
130.538170696
 20
50.6825543725
 30
0.0
 10
130.9794545333
 20
50.9035020442
 30
0.0
  0
SPLINE
  5
4CF
100
AcDbEntity
  8
KONSTRUKTIONSELEMENTE
100
AcDbSpline
 62
7
  6
CONTINUOUS
 70
0
 71
3
 72
12
 73
8
 74
0
 42
0.0000001
 43
0.0000001
 44
0.0000000001
 40
0.0
 40
0.0
 40
0.0
 40
0.0
 40
0.2874299875
 40
0.5543031619
 40
0.7890514157
 40
0.8964066692
 40
1.0
 40
1.0
 40
1.0
 40
1.0
 10
108.7121264415
 20
60.6952535134
 30
0.0
 10
108.132021882
 20
61.030177037
 30
0.0
 10
106.9182122429
 20
61.5275292874
 30
0.0
 10
105.0613521751
 20
61.7159693859
 30
0.0
 10
103.6435233573
 20
61.3356417515
 30
0.0
 10
102.7988147999
 20
60.7128549546
 30
0.0
 10
102.4910273008
 20
60.3199937227
 30
0.0
 10
102.3703167108
 20
60.1109168478
 30
0.0
  0
SPLINE
  5
4D0
100
AcDbEntity
  8
KONSTRUKTIONSELEMENTE
100
AcDbSpline
 62
7
  6
CONTINUOUS
 70
0
 71
3
 72
11
 73
7
 74
0
 42
0.0000001
 43
0.0000001
 44
0.0000000001
 40
0.0
 40
0.0
 40
0.0
 40
0.0
 40
0.220058334
 40
0.4557781708
 40
0.71578719
 40
1.0
 40
1.0
 40
1.0
 40
1.0
 10
182.3170214233
 20
79.4119069077
 30
0.0
 10
182.5357146002
 20
79.790679017
 30
0.0
 10
182.8267699338
 20
80.6782239089
 30
0.0
 10
182.7346232937
 20
82.1250663762
 30
0.0
 10
182.164607741
 20
83.5875974921
 30
0.0
 10
181.5258205641
 20
84.4745270337
 30
0.0
 10
181.1496679931
 20
84.895954132
 30
0.0
  0
SPLINE
  5
4D1
100
AcDbEntity
  8
KONSTRUKTIONSELEMENTE
100
AcDbSpline
 62
7
  6
CONTINUOUS
 70
0
 71
3
 72
11
 73
7
 74
0
 42
0.0000001
 43
0.0000001
 44
0.0000000001
 40
0.0
 40
0.0
 40
0.0
 40
0.0
 40
0.2879904701
 40
0.5553442566
 40
0.7905170666
 40
1.0
 40
1.0
 40
1.0
 40
1.0
 10
95.8091324028
 20
47.4466122685
 30
0.0
 10
96.026687149
 20
47.3210069772
 30
0.0
 10
96.4816885626
 20
47.1341526563
 30
0.0
 10
97.1787315946
 20
47.0649327463
 30
0.0
 10
97.7969410734
 20
47.226945198
 30
0.0
 10
98.095946345
 20
47.5074902039
 30
0.0
 10
98.1873110518
 20
47.6657385181
 30
0.0
  0
SPLINE
  5
4D2
100
AcDbEntity
  8
KONSTRUKTIONSELEMENTE
100
AcDbSpline
 62
7
  6
CONTINUOUS
 70
0
 71
3
 72
11
 73
7
 74
0
 42
0.0000001
 43
0.0000001
 44
0.0000000001
 40
0.0
 40
0.0
 40
0.0
 40
0.0
 40
0.2820767698
 40
0.5407553301
 40
0.7772666753
 40
1.0
 40
1.0
 40
1.0
 40
1.0
 10
108.7071893042
 20
60.6650640106
 30
0.0
 10
108.3014720932
 20
60.7214061803
 30
0.0
 10
107.5090837595
 20
60.7510453568
 30
0.0
 10
106.3915309824
 20
60.5163751126
 30
0.0
 10
105.461927948
 20
60.0065392265
 30
0.0
 10
105.0135107529
 20
59.4890632231
 30
0.0
 10
104.8517924645
 20
59.208958931
 30
0.0
  0
SPLINE
  5
4D3
100
AcDbEntity
  8
KONSTRUKTIONSELEMENTE
100
AcDbSpline
 62
7
  6
CONTINUOUS
 70
0
 71
3
 72
11
 73
7
 74
0
 42
0.0000001
 43
0.0000001
 44
0.0000000001
 40
0.0
 40
0.0
 40
0.0
 40
0.0
 40
0.2801003604
 40
0.53777009
 40
0.775057129
 40
1.0
 40
1.0
 40
1.0
 40
1.0
 10
89.6639167782
 20
71.5909422911
 30
0.0
 10
89.8786055509
 20
71.2813780287
 30
0.0
 10
90.2342244013
 20
70.6438936884
 30
0.0
 10
90.5168949864
 20
69.6286440368
 30
0.0
 10
90.5056521832
 20
68.6456000766
 30
0.0
 10
90.2898802117
 20
68.0469870538
 30
0.0
 10
90.1386103661
 20
67.7849799957
 30
0.0
  0
SPLINE
  5
4D4
100
AcDbEntity
  8
KONSTRUKTIONSELEMENTE
100
AcDbSpline
 62
7
  6
CONTINUOUS
 70
0
 71
3
 72
9
 73
5
 74
0
 42
0.0000001
 43
0.0000001
 44
0.0000000001
 40
0.0
 40
0.0
 40
0.0
 40
0.0
 40
0.2603055034
 40
1.0
 40
1.0
 40
1.0
 40
1.0
 10
82.3460956695
 20
122.3367393858
 30
0.0
 10
82.3429235499
 20
122.3900819289
 30
0.0
 10
82.3436104812
 20
122.5954453111
 30
0.0
 10
82.4034331807
 20
122.8015306443
 30
0.0
 10
82.479393413
 20
122.9330140356
 30
0.0
  0
SPLINE
  5
4D5
100
AcDbEntity
  8
KONSTRUKTIONSELEMENTE
100
AcDbSpline
 62
7
  6
CONTINUOUS
 70
0
 71
3
 72
10
 73
6
 74
0
 42
0.0000001
 43
0.0000001
 44
0.0000000001
 40
0.0
 40
0.0
 40
0.0
 40
0.0
 40
0.4635439404
 40
0.7255367567
 40
1.0
 40
1.0
 40
1.0
 40
1.0
 10
84.7534437512
 20
77.5921018127
 30
0.0
 10
84.8069390755
 20
76.692521394
 30
0.0
 10
85.3535961329
 20
75.3068807887
 30
0.0
 10
86.5782914072
 20
73.7951024011
 30
0.0
 10
87.3793391275
 20
73.1139259283
 30
0.0
 10
87.8147792966
 20
72.8055433015
 30
0.0
  0
SPLINE
  5
4D6
100
AcDbEntity
  8
KONSTRUKTIONSELEMENTE
100
AcDbSpline
 62
7
  6
CONTINUOUS
 70
0
 71
3
 72
12
 73
8
 74
0
 42
0.0000001
 43
0.0000001
 44
0.0000000001
 40
0.0
 40
0.0
 40
0.0
 40
0.0
 40
0.2199892542
 40
0.4691122488
 40
0.6015677759
 40
0.7360118573
 40
1.0
 40
1.0
 40
1.0
 40
1.0
 10
163.3370734547
 20
83.1747231271
 30
0.0
 10
163.9580594433
 20
83.4856463849
 30
0.0
 10
165.4528959849
 20
83.8151968407
 30
0.0
 10
167.3633794242
 20
83.5534313623
 30
0.0
 10
168.900406594
 20
82.9998849081
 30
0.0
 10
170.3859087555
 20
82.2164353783
 30
0.0
 10
171.3744424179
 20
81.4027358457
 30
0.0
 10
171.9293830875
 20
80.7810013313
 30
0.0
  0
SPLINE
  5
4D7
100
AcDbEntity
  8
KONSTRUKTIONSELEMENTE
100
AcDbSpline
 62
7
  6
CONTINUOUS
 70
0
 71
3
 72
11
 73
7
 74
0
 42
0.0000001
 43
0.0000001
 44
0.0000000001
 40
0.0
 40
0.0
 40
0.0
 40
0.0
 40
0.220058334
 40
0.4557781708
 40
0.71578719
 40
1.0
 40
1.0
 40
1.0
 40
1.0
 10
180.5492544704
 20
76.3500447293
 30
0.0
 10
180.7679476473
 20
76.7288168385
 30
0.0
 10
181.0590029809
 20
77.6163617304
 30
0.0
 10
180.9668563408
 20
79.0632041977
 30
0.0
 10
180.396840788
 20
80.5257353137
 30
0.0
 10
179.7580536111
 20
81.4126648552
 30
0.0
 10
179.3819010401
 20
81.8340919535
 30
0.0
  0
SPLINE
  5
4D8
100
AcDbEntity
  8
KONSTRUKTIONSELEMENTE
100
AcDbSpline
 62
7
  6
CONTINUOUS
 70
0
 71
3
 72
9
 73
5
 74
0
 42
0.0000001
 43
0.0000001
 44
0.0000000001
 40
0.0
 40
0.0
 40
0.0
 40
0.0
 40
0.5328609796
 40
1.0
 40
1.0
 40
1.0
 40
1.0
 10
90.270582295
 20
120.1963475039
 30
0.0
 10
90.4961639467
 20
120.1494219444
 30
0.0
 10
90.9357387661
 20
120.119602652
 30
0.0
 10
91.3629076212
 20
120.256778962
 30
0.0
 10
91.5327649388
 20
120.3660922305
 30
0.0
  0
SPLINE
  5
4D9
100
AcDbEntity
  8
KONSTRUKTIONSELEMENTE
100
AcDbSpline
 62
7
  6
CONTINUOUS
 70
0
 71
3
 72
8
 73
4
 74
0
 42
0.0000001
 43
0.0000001
 44
0.0000000001
 40
0.0
 40
0.0
 40
0.0
 40
0.0
 40
1.0
 40
1.0
 40
1.0
 40
1.0
 10
91.5327649388
 20
120.3660922305
 30
0.0
 10
91.5955448845
 20
120.406494853
 30
0.0
 10
91.6547463105
 20
120.4532786787
 30
0.0
 10
91.7078940492
 20
120.5057096939
 30
0.0
  0
SPLINE
  5
4DA
100
AcDbEntity
  8
KONSTRUKTIONSELEMENTE
100
AcDbSpline
 62
7
  6
CONTINUOUS
 70
0
 71
3
 72
11
 73
7
 74
0
 42
0.0000001
 43
0.0000001
 44
0.0000000001
 40
0.0
 40
0.0
 40
0.0
 40
0.0
 40
0.2816064552
 40
0.5417085427
 40
0.7793419382
 40
1.0
 40
1.0
 40
1.0
 40
1.0
 10
90.1521003996
 20
122.1887458024
 30
0.0
 10
90.3040246851
 20
122.1571424693
 30
0.0
 10
90.6033232992
 20
122.1243459632
 30
0.0
 10
91.0340413633
 20
122.1755065819
 30
0.0
 10
91.4055464506
 20
122.3278497197
 30
0.0
 10
91.6000629777
 20
122.4983470718
 30
0.0
 10
91.6750206879
 20
122.5940854536
 30
0.0
  0
SPLINE
  5
4DB
100
AcDbEntity
  8
BEZUGSACHSEN
100
AcDbSpline
 62
7
  6
CONTINUOUS
 70
0
 71
3
 72
9
 73
5
 74
0
 42
0.0000001
 43
0.0000001
 44
0.0000000001
 40
0.0
 40
0.0
 40
0.0
 40
0.0
 40
0.2459387646
 40
1.0
 40
1.0
 40
1.0
 40
1.0
 10
140.8282205289
 20
125.0281758376
 30
0.0
 10
140.5900391202
 20
125.2950252696
 30
0.0
 10
139.5920139041
 20
126.3534021
 30
0.0
 10
138.4819781565
 20
127.3052475139
 30
0.0
 10
137.5991138873
 20
127.9558351483
 30
0.0
  0
SPLINE
  5
4DC
100
AcDbEntity
  8
BEZUGSACHSEN
100
AcDbSpline
 62
7
  6
CONTINUOUS
 70
0
 71
3
 72
9
 73
5
 74
0
 42
0.0000001
 43
0.0000001
 44
0.0000000001
 40
0.0
 40
0.0
 40
0.0
 40
0.0
 40
0.2536983179
 40
1.0
 40
1.0
 40
1.0
 40
1.0
 10
133.2662603616
 20
130.4574092977
 30
0.0
 10
132.9281897424
 20
130.6052021135
 30
0.0
 10
131.5814217454
 20
131.1544841457
 30
0.0
 10
130.1789095317
 20
131.5690194659
 30
0.0
 10
129.1162797042
 20
131.7900680255
 30
0.0
  0
SPLINE
  5
4DD
100
AcDbEntity
  8
KONSTRUKTIONSELEMENTE
100
AcDbSpline
 62
7
  6
CONTINUOUS
 70
0
 71
3
 72
9
 73
5
 74
0
 42
0.0000001
 43
0.0000001
 44
0.0000000001
 40
0.0
 40
0.0
 40
0.0
 40
0.0
 40
0.4535493247
 40
1.0
 40
1.0
 40
1.0
 40
1.0
 10
131.4938704398
 20
51.2237687314
 30
0.0
 10
131.5383971273
 20
51.3008807646
 30
0.0
 10
131.5571585207
 20
51.5171048868
 30
0.0
 10
131.4486003631
 20
51.6921754811
 30
0.0
 10
131.3771607555
 20
51.7722137125
 30
0.0
  0
SPLINE
  5
4DE
100
AcDbEntity
  8
BEZUGSACHSEN
100
AcDbSpline
 62
7
  6
CONTINUOUS
 70
0
 71
3
 72
19
 73
15
 74
0
 42
0.0000001
 43
0.0000001
 44
0.0000000001
 40
0.0
 40
0.0
 40
0.0
 40
0.0
 40
0.0517234907
 40
0.1053372095
 40
0.1622487312
 40
0.2232163938
 40
0.3564752704
 40
0.5
 40
0.6435247296
 40
0.7767836062
 40
0.8377512688
 40
0.8946627905
 40
0.9482765093
 40
1.0
 40
1.0
 40
1.0
 40
1.0
 10
136.7298591245
 20
120.4533900331
 30
0.0
 10
136.6021960324
 20
120.2322710714
 30
0.0
 10
136.2766682792
 20
119.8167416261
 30
0.0
 10
135.6251044473
 20
119.3365715625
 30
0.0
 10
134.8359114016
 20
119.0101932954
 30
0.0
 10
133.6089748646
 20
118.7862106147
 30
0.0
 10
131.9164915565
 20
118.9547045178
 30
0.0
 10
129.9743390065
 20
119.7524859573
 30
0.0
 10
128.3123637383
 20
121.0355486839
 30
0.0
 10
127.3202020837
 20
122.4170352726
 30
0.0
 10
126.9007085067
 20
123.5915848229
 30
0.0
 10
126.7887638545
 20
124.4382351825
 30
0.0
 10
126.8788214117
 20
125.2425910449
 30
0.0
 10
127.0759165908
 20
125.7322710714
 30
0.0
 10
127.2035796828
 20
125.9533900331
 30
0.0
  0
SPLINE
  5
4DF
100
AcDbEntity
  8
KONSTRUKTIONSELEMENTE
100
AcDbSpline
 62
7
  6
CONTINUOUS
 70
0
 71
3
 72
11
 73
7
 74
0
 42
0.0000001
 43
0.0000001
 44
0.0000000001
 40
0.0
 40
0.0
 40
0.0
 40
0.0
 40
0.2200436456
 40
0.4557793627
 40
0.7157728079
 40
1.0
 40
1.0
 40
1.0
 40
1.0
 10
82.479393413
 20
122.9330140356
 30
0.0
 10
82.5450139591
 20
123.0465999433
 30
0.0
 10
82.7319912479
 20
123.2552362515
 30
0.0
 10
83.1216489946
 20
123.4482236247
 30
0.0
 10
83.5870504841
 20
123.5194881144
 30
0.0
 10
83.9132362167
 20
123.4865561082
 30
0.0
 10
84.0791264368
 20
123.4520475773
 30
0.0
  0
SPLINE
  5
4E0
100
AcDbEntity
  8
KONSTRUKTIONSELEMENTE
100
AcDbSpline
 62
7
  6
CONTINUOUS
 70
0
 71
3
 72
11
 73
7
 74
0
 42
0.0000001
 43
0.0000001
 44
0.0000000001
 40
0.0
 40
0.0
 40
0.0
 40
0.0
 40
0.2842240174
 40
0.5442187073
 40
0.779940343
 40
1.0
 40
1.0
 40
1.0
 40
1.0
 10
87.0074030225
 20
140.5495685559
 30
0.0
 10
86.4543329096
 20
140.6646183584
 30
0.0
 10
85.3668274593
 20
140.774352438
 30
0.0
 10
83.8152274535
 20
140.5367168981
 30
0.0
 10
82.5161481607
 20
139.8930856001
 30
0.0
 10
81.893094485
 20
139.1971995636
 30
0.0
 10
81.6743824713
 20
138.818430321
 30
0.0
  0
SPLINE
  5
4E1
100
AcDbEntity
  8
KONSTRUKTIONSELEMENTE
100
AcDbSpline
 62
7
  6
CONTINUOUS
 70
0
 71
3
 72
11
 73
7
 74
0
 42
0.0000001
 43
0.0000001
 44
0.0000000001
 40
0.0
 40
0.0
 40
0.0
 40
0.0
 40
0.2842271921
 40
0.5442206373
 40
0.7799563544
 40
1.0
 40
1.0
 40
1.0
 40
1.0
 10
90.0407725911
 20
119.7983054207
 30
0.0
 10
90.2066628112
 20
119.7637968898
 30
0.0
 10
90.5328485438
 20
119.7308648836
 30
0.0
 10
90.9982500333
 20
119.8021293733
 30
0.0
 10
91.38790778
 20
119.9951167465
 30
0.0
 10
91.5748850689
 20
120.2037530547
 30
0.0
 10
91.6405056149
 20
120.3173389624
 30
0.0
  0
SPLINE
  5
4E2
100
AcDbEntity
  8
KONSTRUKTIONSELEMENTE
100
AcDbSpline
 62
7
  6
CONTINUOUS
 70
0
 71
3
 72
11
 73
7
 74
0
 42
0.0000001
 43
0.0000001
 44
0.0000000001
 40
0.0
 40
0.0
 40
0.0
 40
0.0
 40
0.2842268035
 40
0.5442239761
 40
0.7799400332
 40
1.0
 40
1.0
 40
1.0
 40
1.0
 10
126.0074608212
 20
57.7882222057
 30
0.0
 10
125.631295581
 20
58.209663498
 30
0.0
 10
124.9925180725
 20
59.0965879422
 30
0.0
 10
124.4225249793
 20
60.5590897505
 30
0.0
 10
124.3303586598
 20
62.0058927016
 30
0.0
 10
124.621439441
 20
62.8933929648
 30
0.0
 10
124.8400831143
 20
63.2721895438
 30
0.0
  0
SPLINE
  5
4E3
100
AcDbEntity
  8
KONSTRUKTIONSELEMENTE
100
AcDbSpline
 62
7
  6
CONTINUOUS
 70
0
 71
3
 72
9
 73
5
 74
0
 42
0.0000001
 43
0.0000001
 44
0.0000000001
 40
0.0
 40
0.0
 40
0.0
 40
0.0
 40
0.4954651683
 40
1.0
 40
1.0
 40
1.0
 40
1.0
 10
123.5313068833
 20
144.6638888931
 30
0.0
 10
123.7723353319
 20
145.1464445093
 30
0.0
 10
124.1180617638
 20
146.1941992358
 30
0.0
 10
124.2177490855
 20
147.2846325811
 30
0.0
 10
124.228369377
 20
147.8338059535
 30
0.0
  0
SPLINE
  5
4E4
100
AcDbEntity
  8
KONSTRUKTIONSELEMENTE
100
AcDbSpline
 62
7
  6
CONTINUOUS
 70
0
 71
3
 72
9
 73
5
 74
0
 42
0.0000001
 43
0.0000001
 44
0.0000000001
 40
0.0
 40
0.0
 40
0.0
 40
0.0
 40
0.5045348317
 40
1.0
 40
1.0
 40
1.0
 40
1.0
 10
157.1664603098
 20
128.8169902868
 30
0.0
 10
156.696172364
 20
128.5332061584
 30
0.0
 10
155.8016730466
 20
127.9016577328
 30
0.0
 10
155.0671540525
 20
127.0783724968
 30
0.0
 10
154.7697628544
 20
126.6283579291
 30
0.0
  0
LINE
  5
4E5
100
AcDbEntity
  8
0
100
AcDbLine
 62
7
  6
CONTINUOUS
 10
119.6406615814
 20
136.8454353397
 11
123.5313068833
 21
144.6638888931
  0
SPLINE
  5
4E6
100
AcDbEntity
  8
KONSTRUKTIONSELEMENTE
100
AcDbSpline
 62
7
  6
CONTINUOUS
 70
0
 71
3
 72
11
 73
7
 74
0
 42
0.0000001
 43
0.0000001
 44
0.0000000001
 40
0.0
 40
0.0
 40
0.0
 40
0.0
 40
0.2552525678
 40
0.5065021805
 40
0.7540277206
 40
1.0
 40
1.0
 40
1.0
 40
1.0
 10
131.3711139264
 20
159.3104248035
 30
0.0
 10
131.6366631221
 20
159.7703695023
 30
0.0
 10
132.3342156677
 20
160.5938603115
 30
0.0
 10
133.6948857679
 20
161.4157071519
 30
0.0
 10
135.1902168912
 20
161.8656137487
 30
0.0
 10
136.2163783433
 20
161.9733587717
 30
0.0
 10
136.7278559868
 20
161.9912110249
 30
0.0
  0
SPLINE
  5
4E7
100
AcDbEntity
  8
KONSTRUKTIONSELEMENTE
100
AcDbSpline
 62
7
  6
CONTINUOUS
 70
0
 71
3
 72
11
 73
7
 74
0
 42
0.0000001
 43
0.0000001
 44
0.0000000001
 40
0.0
 40
0.0
 40
0.0
 40
0.0
 40
0.2459741347
 40
0.4935016246
 40
0.7447505661
 40
1.0
 40
1.0
 40
1.0
 40
1.0
 10
163.1773894484
 20
146.7205657609
 30
0.0
 10
163.4176695784
 20
146.2686835918
 30
0.0
 10
163.83744328
 20
145.3261216983
 30
0.0
 10
164.1954761071
 20
143.80616601
 30
0.0
 10
164.1640639456
 20
142.216871768
 30
0.0
 10
163.7996774449
 20
141.2010369976
 30
0.0
 10
163.5341315087
 20
140.7410979444
 30
0.0
  0
LINE
  5
4E8
100
AcDbEntity
  8
0
100
AcDbLine
 62
7
  6
CONTINUOUS
 10
154.7697628544
 20
126.6283579291
 11
149.9441061098
 21
119.3497334838
  0
SPLINE
  5
4E9
100
AcDbEntity
  8
KONSTRUKTIONSELEMENTE
100
AcDbSpline
 62
7
  6
CONTINUOUS
 70
0
 71
3
 72
9
 73
5
 74
0
 42
0.0000001
 43
0.0000001
 44
0.0000000001
 40
0.0
 40
0.0
 40
0.0
 40
0.0
 40
0.4826289049
 40
1.0
 40
1.0
 40
1.0
 40
1.0
 10
124.228369377
 20
147.8338059535
 30
0.0
 10
124.2365955799
 20
148.2591814354
 30
0.0
 10
124.4605736179
 20
149.1476793348
 30
0.0
 10
125.0452506101
 20
149.8452674996
 30
0.0
 10
125.3949992074
 20
150.1379896849
 30
0.0
  0
SPLINE
  5
4EA
100
AcDbEntity
  8
KONSTRUKTIONSELEMENTE
100
AcDbSpline
 62
7
  6
CONTINUOUS
 70
0
 71
3
 72
9
 73
5
 74
0
 42
0.0000001
 43
0.0000001
 44
0.0000000001
 40
0.0
 40
0.0
 40
0.0
 40
0.0
 40
0.5173710951
 40
1.0
 40
1.0
 40
1.0
 40
1.0
 10
158.578627041
 20
130.9794132225
 30
0.0
 10
158.4999964909
 20
130.5301609597
 30
0.0
 10
158.1882059149
 20
129.6750217491
 30
0.0
 10
157.5307331818
 20
129.0368021285
 30
0.0
 10
157.1664603098
 20
128.8169902868
 30
0.0
  0
SPLINE
  5
4EB
100
AcDbEntity
  8
KONSTRUKTIONSELEMENTE
100
AcDbSpline
 62
7
  6
CONTINUOUS
 70
0
 71
3
 72
9
 73
5
 74
0
 42
0.0000001
 43
0.0000001
 44
0.0000000001
 40
0.0
 40
0.0
 40
0.0
 40
0.0
 40
0.5000928141
 40
1.0
 40
1.0
 40
1.0
 40
1.0
 10
125.3949992074
 20
150.1379896849
 30
0.0
 10
125.8051924628
 20
150.4813010436
 30
0.0
 10
126.5794328584
 20
151.2264087612
 30
0.0
 10
127.2086951743
 20
152.1009040425
 30
0.0
 10
127.4760473886
 20
152.5639716611
 30
0.0
  0
SPLINE
  5
4EC
100
AcDbEntity
  8
KONSTRUKTIONSELEMENTE
100
AcDbSpline
 62
7
  6
CONTINUOUS
 70
0
 71
3
 72
9
 73
5
 74
0
 42
0.0000001
 43
0.0000001
 44
0.0000000001
 40
0.0
 40
0.0
 40
0.0
 40
0.0
 40
0.4999071859
 40
1.0
 40
1.0
 40
1.0
 40
1.0
 10
159.6390649709
 20
133.994644802
 30
0.0
 10
159.3717127566
 20
133.5315771834
 30
0.0
 10
158.9290087855
 20
132.5493723915
 30
0.0
 10
158.6708467713
 20
131.5063066815
 30
0.0
 10
158.578627041
 20
130.9794132225
 30
0.0
  0
LINE
  5
4ED
100
AcDbEntity
  8
0
100
AcDbLine
 62
7
  6
CONTINUOUS
 10
443.5406312497
 20
119.3497334838
 11
438.7149745051
 21
126.6283579291
  0
LINE
  5
4EE
100
AcDbEntity
  8
0
100
AcDbLine
 62
7
  6
CONTINUOUS
 10
469.9534304762
 20
144.6638888931
 11
473.8440757781
 21
136.8454353397
  0
SPLINE
  5
4EF
100
AcDbEntity
  8
0
100
AcDbSpline
 62
7
  6
CONTINUOUS
 70
0
 71
3
 72
9
 73
5
 74
0
 42
0.0000001
 43
0.0000001
 44
0.0000000001
 40
0.0
 40
0.0
 40
0.0
 40
0.0
 40
0.5173710951
 40
1.0
 40
1.0
 40
1.0
 40
1.0
 10
434.9061103185
 20
130.9794132225
 30
0.0
 10
434.9847408686
 20
130.5301609597
 30
0.0
 10
435.2965314446
 20
129.6750217491
 30
0.0
 10
435.9540041777
 20
129.0368021285
 30
0.0
 10
436.3182770497
 20
128.8169902868
 30
0.0
  0
SPLINE
  5
4F0
100
AcDbEntity
  8
0
100
AcDbSpline
 62
7
  6
CONTINUOUS
 70
0
 71
3
 72
9
 73
5
 74
0
 42
0.0000001
 43
0.0000001
 44
0.0000000001
 40
0.0
 40
0.0
 40
0.0
 40
0.0
 40
0.4826289049
 40
1.0
 40
1.0
 40
1.0
 40
1.0
 10
469.2563679825
 20
147.8338059535
 30
0.0
 10
469.2481417796
 20
148.2591814354
 30
0.0
 10
469.0241637415
 20
149.1476793348
 30
0.0
 10
468.4394867494
 20
149.8452674996
 30
0.0
 10
468.0897381521
 20
150.1379896849
 30
0.0
  0
SPLINE
  5
4F1
100
AcDbEntity
  8
0
100
AcDbSpline
 62
7
  6
CONTINUOUS
 70
0
 71
3
 72
11
 73
7
 74
0
 42
0.0000001
 43
0.0000001
 44
0.0000000001
 40
0.0
 40
0.0
 40
0.0
 40
0.0
 40
0.2459741347
 40
0.4935016246
 40
0.7447505661
 40
1.0
 40
1.0
 40
1.0
 40
1.0
 10
430.3073479111
 20
146.7205657609
 30
0.0
 10
430.0670677811
 20
146.2686835918
 30
0.0
 10
429.6472940795
 20
145.3261216983
 30
0.0
 10
429.2892612524
 20
143.80616601
 30
0.0
 10
429.3206734139
 20
142.216871768
 30
0.0
 10
429.6850599146
 20
141.2010369976
 30
0.0
 10
429.9506058507
 20
140.7410979444
 30
0.0
  0
SPLINE
  5
4F2
100
AcDbEntity
  8
0
100
AcDbSpline
 62
7
  6
CONTINUOUS
 70
0
 71
3
 72
11
 73
7
 74
0
 42
0.0000001
 43
0.0000001
 44
0.0000000001
 40
0.0
 40
0.0
 40
0.0
 40
0.0
 40
0.2552525678
 40
0.5065021805
 40
0.7540277206
 40
1.0
 40
1.0
 40
1.0
 40
1.0
 10
462.1136234331
 20
159.3104248035
 30
0.0
 10
461.8480742374
 20
159.7703695023
 30
0.0
 10
461.1505216918
 20
160.5938603115
 30
0.0
 10
459.7898515916
 20
161.4157071519
 30
0.0
 10
458.2945204683
 20
161.8656137487
 30
0.0
 10
457.2683590162
 20
161.9733587717
 30
0.0
 10
456.7568813727
 20
161.9912110249
 30
0.0
  0
SPLINE
  5
4F3
100
AcDbEntity
  8
0
100
AcDbSpline
 62
7
  6
CONTINUOUS
 70
0
 71
3
 72
9
 73
5
 74
0
 42
0.0000001
 43
0.0000001
 44
0.0000000001
 40
0.0
 40
0.0
 40
0.0
 40
0.0
 40
0.4954651683
 40
1.0
 40
1.0
 40
1.0
 40
1.0
 10
469.9534304762
 20
144.6638888931
 30
0.0
 10
469.7124020276
 20
145.1464445093
 30
0.0
 10
469.3666755956
 20
146.1941992358
 30
0.0
 10
469.266988274
 20
147.2846325811
 30
0.0
 10
469.2563679825
 20
147.8338059535
 30
0.0
  0
SPLINE
  5
4F4
100
AcDbEntity
  8
0
100
AcDbSpline
 62
7
  6
CONTINUOUS
 70
0
 71
3
 72
9
 73
5
 74
0
 42
0.0000001
 43
0.0000001
 44
0.0000000001
 40
0.0
 40
0.0
 40
0.0
 40
0.0
 40
0.5045348317
 40
1.0
 40
1.0
 40
1.0
 40
1.0
 10
436.3182770497
 20
128.8169902868
 30
0.0
 10
436.7885649955
 20
128.5332061584
 30
0.0
 10
437.6830643129
 20
127.9016577328
 30
0.0
 10
438.417583307
 20
127.0783724968
 30
0.0
 10
438.7149745051
 20
126.6283579291
 30
0.0
  0
SPLINE
  5
4F5
100
AcDbEntity
  8
0
100
AcDbSpline
 62
7
  6
CONTINUOUS
 70
0
 71
3
 72
9
 73
5
 74
0
 42
0.0000001
 43
0.0000001
 44
0.0000000001
 40
0.0
 40
0.0
 40
0.0
 40
0.0
 40
0.5000928141
 40
1.0
 40
1.0
 40
1.0
 40
1.0
 10
468.0897381521
 20
150.1379896849
 30
0.0
 10
467.6795448967
 20
150.4813010436
 30
0.0
 10
466.9053045011
 20
151.2264087612
 30
0.0
 10
466.2760421852
 20
152.1009040425
 30
0.0
 10
466.0086899709
 20
152.5639716611
 30
0.0
  0
SPLINE
  5
4F6
100
AcDbEntity
  8
0
100
AcDbSpline
 62
7
  6
CONTINUOUS
 70
0
 71
3
 72
9
 73
5
 74
0
 42
0.0000001
 43
0.0000001
 44
0.0000000001
 40
0.0
 40
0.0
 40
0.0
 40
0.0
 40
0.4999071859
 40
1.0
 40
1.0
 40
1.0
 40
1.0
 10
433.8456723886
 20
133.994644802
 30
0.0
 10
434.1130246029
 20
133.5315771834
 30
0.0
 10
434.555728574
 20
132.5493723915
 30
0.0
 10
434.8138905882
 20
131.5063066815
 30
0.0
 10
434.9061103185
 20
130.9794132225
 30
0.0
  0
SPLINE
  5
4F7
100
AcDbEntity
  8
KONSTRUKTIONSELEMENTE
100
AcDbSpline
 62
7
  6
CONTINUOUS
 70
0
 71
3
 72
9
 73
5
 74
0
 42
0.0000001
 43
0.0000001
 44
0.0000000001
 40
0.0
 40
0.0
 40
0.0
 40
0.0
 40
0.272606519
 40
1.0
 40
1.0
 40
1.0
 40
1.0
 10
730.7767847953
 20
186.7311766893
 30
0.0
 10
730.7815746277
 20
186.7529535778
 30
0.0
 10
730.8036412337
 20
186.8315900166
 30
0.0
 10
730.8495449916
 20
186.9049254657
 30
0.0
 10
730.8945622934
 20
186.943825592
 30
0.0
  0
SPLINE
  5
4F8
100
AcDbEntity
  8
KONSTRUKTIONSELEMENTE
100
AcDbSpline
 62
7
  6
CONTINUOUS
 70
0
 71
3
 72
9
 73
5
 74
0
 42
0.0000001
 43
0.0000001
 44
0.0000000001
 40
0.0
 40
0.0
 40
0.0
 40
0.0
 40
0.546991612
 40
1.0
 40
1.0
 40
1.0
 40
1.0
 10
733.943942205
 20
183.2158887313
 30
0.0
 10
733.943942205
 20
183.1443032927
 30
0.0
 10
733.929036986
 20
183.0114145964
 30
0.0
 10
733.8561997925
 20
182.8947629035
 30
0.0
 10
733.8113416012
 20
182.8560002669
 30
0.0
  0
SPLINE
  5
4F9
100
AcDbEntity
  8
KONSTRUKTIONSELEMENTE
100
AcDbSpline
 62
7
  6
CONTINUOUS
 70
0
 71
3
 72
9
 73
5
 74
0
 42
0.0000001
 43
0.0000001
 44
0.0000000001
 40
0.0
 40
0.0
 40
0.0
 40
0.0
 40
0.2337213641
 40
1.0
 40
1.0
 40
1.0
 40
1.0
 10
734.1648949918
 20
183.1621864848
 30
0.0
 10
734.1493904788
 20
183.1487888023
 30
0.0
 10
734.0772481078
 20
183.0979233986
 30
0.0
 10
733.9865061464
 20
183.0791584015
 30
0.0
 10
733.9193603862
 20
183.0769425783
 30
0.0
  0
SPLINE
  5
4FA
100
AcDbEntity
  8
KONSTRUKTIONSELEMENTE
100
AcDbSpline
 62
7
  6
CONTINUOUS
 70
0
 71
3
 72
9
 73
5
 74
0
 42
0.0000001
 43
0.0000001
 44
0.0000000001
 40
0.0
 40
0.0
 40
0.0
 40
0.0
 40
0.4820003923
 40
1.0
 40
1.0
 40
1.0
 40
1.0
 10
742.6745745276
 20
183.9844494024
 30
0.0
 10
742.6743883613
 20
183.8283836735
 30
0.0
 10
742.6323011475
 20
183.5034179855
 30
0.0
 10
742.5095372374
 20
183.1996798742
 30
0.0
 10
742.4290501689
 20
183.0525320472
 30
0.0
  0
SPLINE
  5
4FB
100
AcDbEntity
  8
KONSTRUKTIONSELEMENTE
100
AcDbSpline
 62
7
  6
CONTINUOUS
 70
0
 71
3
 72
9
 73
5
 74
0
 42
0.0000001
 43
0.0000001
 44
0.0000000001
 40
0.0
 40
0.0
 40
0.0
 40
0.0
 40
0.2343643836
 40
1.0
 40
1.0
 40
1.0
 40
1.0
 10
742.3969999477
 20
182.995922415
 30
0.0
 10
742.3635920122
 20
182.938861228
 30
0.0
 10
742.2104542117
 20
182.7016736899
 30
0.0
 10
742.016537851
 20
182.4914469315
 30
0.0
 10
741.8532495742
 20
182.3500351357
 30
0.0
  0
SPLINE
  5
4FC
100
AcDbEntity
  8
KONSTRUKTIONSELEMENTE
100
AcDbSpline
 62
7
  6
CONTINUOUS
 70
0
 71
3
 72
9
 73
5
 74
0
 42
0.0000001
 43
0.0000001
 44
0.0000000001
 40
0.0
 40
0.0
 40
0.0
 40
0.0
 40
0.4959270657
 40
1.0
 40
1.0
 40
1.0
 40
1.0
 10
733.7215215906
 20
189.3923181462
 30
0.0
 10
734.3436420247
 20
189.9310902463
 30
0.0
 10
735.7748764859
 20
190.825629537
 30
0.0
 10
737.3985947944
 20
191.2725859043
 30
0.0
 10
738.2278869208
 20
191.3822073064
 30
0.0
  0
SPLINE
  5
4FD
100
AcDbEntity
  8
KONSTRUKTIONSELEMENTE
100
AcDbSpline
 62
7
  6
CONTINUOUS
 70
0
 71
3
 72
11
 73
7
 74
0
 42
0.0000001
 43
0.0000001
 44
0.0000000001
 40
0.0
 40
0.0
 40
0.0
 40
0.0
 40
0.2544415708
 40
0.5052707429
 40
0.7533584052
 40
1.0
 40
1.0
 40
1.0
 40
1.0
 10
744.2516876647
 20
190.0512280618
 30
0.0
 10
744.7661546464
 20
189.7153027544
 30
0.0
 10
745.7172290831
 20
188.9307832688
 30
0.0
 10
746.8182886866
 20
187.4604373943
 30
0.0
 10
747.5145907712
 20
185.7795306959
 30
0.0
 10
747.6737366428
 20
184.5791290978
 30
0.0
 10
747.6740080302
 20
183.9835363657
 30
0.0
  0
SPLINE
  5
4FE
100
AcDbEntity
  8
KONSTRUKTIONSELEMENTE
100
AcDbSpline
 62
7
  6
CONTINUOUS
 70
0
 71
3
 72
11
 73
7
 74
0
 42
0.0000001
 43
0.0000001
 44
0.0000000001
 40
0.0
 40
0.0
 40
0.0
 40
0.0
 40
0.2474803687
 40
0.4959793074
 40
0.7466457809
 40
1.0
 40
1.0
 40
1.0
 40
1.0
 10
747.6740080302
 20
183.9835363657
 30
0.0
 10
747.6742395595
 20
183.4754173862
 30
0.0
 10
747.5591476884
 20
182.4534853299
 30
0.0
 10
747.0519930753
 20
180.9942014048
 30
0.0
 10
746.2373016245
 20
179.6680774235
 30
0.0
 10
745.5197363214
 20
178.9109275237
 30
0.0
 10
745.1265179278
 20
178.5703904056
 30
0.0
  0
SPLINE
  5
4FF
100
AcDbEntity
  8
KONSTRUKTIONSELEMENTE
100
AcDbSpline
 62
7
  6
CONTINUOUS
 70
0
 71
3
 72
9
 73
5
 74
0
 42
0.0000001
 43
0.0000001
 44
0.0000000001
 40
0.0
 40
0.0
 40
0.0
 40
0.0
 40
0.5226045408
 40
1.0
 40
1.0
 40
1.0
 40
1.0
 10
742.378633609
 20
184.9974632193
 30
0.0
 10
742.4744948824
 20
184.8385689811
 30
0.0
 10
742.6222667495
 20
184.5105752665
 30
0.0
 10
742.6747767407
 20
184.153967455
 30
0.0
 10
742.6745745276
 20
183.9844494024
 30
0.0
  0
SPLINE
  5
500
100
AcDbEntity
  8
KONSTRUKTIONSELEMENTE
100
AcDbSpline
 62
7
  6
CONTINUOUS
 70
0
 71
3
 72
9
 73
5
 74
0
 42
0.0000001
 43
0.0000001
 44
0.0000000001
 40
0.0
 40
0.0
 40
0.0
 40
0.0
 40
0.4872963705
 40
1.0
 40
1.0
 40
1.0
 40
1.0
 10
735.8428419341
 20
177.1448694323
 30
0.0
 10
735.2950237332
 20
176.6704449537
 30
0.0
 10
733.8109708646
 20
176.1024903325
 30
0.0
 10
732.2574767552
 20
176.3808152078
 30
0.0
 10
731.5835625966
 20
176.737488869
 30
0.0
  0
SPLINE
  5
501
100
AcDbEntity
  8
KONSTRUKTIONSELEMENTE
100
AcDbSpline
 62
7
  6
CONTINUOUS
 70
0
 71
3
 72
11
 73
7
 74
0
 42
0.0000001
 43
0.0000001
 44
0.0000000001
 40
0.0
 40
0.0
 40
0.0
 40
0.0
 40
0.2474803687
 40
0.4959793074
 40
0.7466457809
 40
1.0
 40
1.0
 40
1.0
 40
1.0
 10
725.163623848
 20
178.7740064827
 30
0.0
 10
725.1633923188
 20
179.2821254623
 30
0.0
 10
725.2784841898
 20
180.3040575186
 30
0.0
 10
725.785638803
 20
181.7633414437
 30
0.0
 10
726.6003302537
 20
183.089465425
 30
0.0
 10
727.3178955569
 20
183.8466153247
 30
0.0
 10
727.7111139505
 20
184.1871524428
 30
0.0
  0
SPLINE
  5
502
100
AcDbEntity
  8
KONSTRUKTIONSELEMENTE
100
AcDbSpline
 62
7
  6
CONTINUOUS
 70
0
 71
3
 72
11
 73
7
 74
0
 42
0.0000001
 43
0.0000001
 44
0.0000000001
 40
0.0
 40
0.0
 40
0.0
 40
0.0
 40
0.2479799116
 40
0.5004054033
 40
0.7525977831
 40
1.0
 40
1.0
 40
1.0
 40
1.0
 10
739.1161102877
 20
173.3652247022
 30
0.0
 10
738.3286007816
 20
172.6832214643
 30
0.0
 10
736.4503405399
 20
171.6149117966
 30
0.0
 10
733.2656640222
 20
171.1122243682
 30
0.0
 10
730.1006344572
 20
171.715572657
 30
0.0
 10
728.2620064579
 20
172.8457461431
 30
0.0
 10
727.5011109979
 20
173.5537623808
 30
0.0
  0
SPLINE
  5
503
100
AcDbEntity
  8
KONSTRUKTIONSELEMENTE
100
AcDbSpline
 62
7
  6
CONTINUOUS
 70
0
 71
3
 72
9
 73
5
 74
0
 42
0.0000001
 43
0.0000001
 44
0.0000000001
 40
0.0
 40
0.0
 40
0.0
 40
0.0
 40
0.2330082413
 40
1.0
 40
1.0
 40
1.0
 40
1.0
 10
730.5410089028
 20
186.6376393742
 30
0.0
 10
730.5569025907
 20
186.6513733485
 30
0.0
 10
730.631251362
 20
186.7035028509
 30
0.0
 10
730.7249693357
 20
186.7216726873
 30
0.0
 10
730.7940986107
 20
186.7230849043
 30
0.0
  0
SPLINE
  5
504
100
AcDbEntity
  8
KONSTRUKTIONSELEMENTE
100
AcDbSpline
 62
7
  6
CONTINUOUS
 70
0
 71
3
 72
15
 73
11
 74
0
 42
0.0000001
 43
0.0000001
 44
0.0000000001
 40
0.0
 40
0.0
 40
0.0
 40
0.0
 40
0.082699247
 40
0.1957940838
 40
0.333737466
 40
0.4862052534
 40
0.6408263759
 40
0.7848058501
 40
0.9071588123
 40
1.0
 40
1.0
 40
1.0
 40
1.0
 10
730.7940986107
 20
186.7230849043
 30
0.0
 10
730.9304227215
 20
186.7258698205
 30
0.0
 10
731.2506970619
 20
186.6347720236
 30
0.0
 10
731.7291813308
 20
186.3622652697
 30
0.0
 10
732.2531538396
 20
185.9477985859
 30
0.0
 10
732.7721712827
 20
185.4273874344
 30
0.0
 10
733.239883248
 20
184.8474943833
 30
0.0
 10
733.6142457887
 20
184.2603287869
 30
0.0
 10
733.861019453
 20
183.7211593053
 30
0.0
 10
733.943942205
 20
183.3689630762
 30
0.0
 10
733.943942205
 20
183.2158887313
 30
0.0
  0
SPLINE
  5
505
100
AcDbEntity
  8
KONSTRUKTIONSELEMENTE
100
AcDbSpline
 62
7
  6
CONTINUOUS
 70
0
 71
3
 72
19
 73
15
 74
0
 42
0.0000001
 43
0.0000001
 44
0.0000000001
 40
0.0
 40
0.0
 40
0.0
 40
0.0
 40
0.0298938292
 40
0.0650835855
 40
0.108466288
 40
0.1609985436
 40
0.2222349321
 40
0.2911550146
 40
0.4456854225
 40
0.6095823449
 40
0.7660354067
 40
0.8997960834
 40
0.9545408033
 40
1.0
 40
1.0
 40
1.0
 40
1.0
 10
730.8945622934
 20
186.943825592
 30
0.0
 10
730.9339219447
 20
186.9778368576
 30
0.0
 10
731.0405584813
 20
187.0287083292
 30
0.0
 10
731.2323923456
 20
187.0344055996
 30
0.0
 10
731.4563244429
 20
186.9834528711
 30
0.0
 10
731.7093182842
 20
186.8771721903
 30
0.0
 10
731.9860603425
 20
186.719584814
 30
0.0
 10
732.3917014909
 20
186.4342138705
 30
0.0
 10
732.8954227012
 20
185.9828894081
 30
0.0
 10
733.441968891
 20
185.3605702041
 30
0.0
 10
733.8902154952
 20
184.7079241592
 30
0.0
 10
734.1596641345
 20
184.1669151059
 30
0.0
 10
734.2745041509
 20
183.7754354317
 30
0.0
 10
734.2974955956
 20
183.601179225
 30
0.0
 10
734.2974955956
 20
183.5220749492
 30
0.0
  0
SPLINE
  5
506
100
AcDbEntity
  8
KONSTRUKTIONSELEMENTE
100
AcDbSpline
 62
7
  6
CONTINUOUS
 70
0
 71
3
 72
9
 73
5
 74
0
 42
0.0000001
 43
0.0000001
 44
0.0000000001
 40
0.0
 40
0.0
 40
0.0
 40
0.0
 40
0.546991612
 40
1.0
 40
1.0
 40
1.0
 40
1.0
 10
734.2974955956
 20
183.5220749492
 30
0.0
 10
734.2974955956
 20
183.4504895106
 30
0.0
 10
734.2825903766
 20
183.3176008142
 30
0.0
 10
734.2097531831
 20
183.2009491213
 30
0.0
 10
734.1648949918
 20
183.1621864848
 30
0.0
  0
SPLINE
  5
507
100
AcDbEntity
  8
KONSTRUKTIONSELEMENTE
100
AcDbSpline
 62
7
  6
CONTINUOUS
 70
0
 71
3
 72
9
 73
5
 74
0
 42
0.0000001
 43
0.0000001
 44
0.0000000001
 40
0.0
 40
0.0
 40
0.0
 40
0.0
 40
0.272606519
 40
1.0
 40
1.0
 40
1.0
 40
1.0
 10
673.1475821286
 20
136.8228231801
 30
0.0
 10
673.152371961
 20
136.8446000686
 30
0.0
 10
673.174438567
 20
136.9232365074
 30
0.0
 10
673.2203423249
 20
136.9965719565
 30
0.0
 10
673.2653596267
 20
137.0354720828
 30
0.0
  0
SPLINE
  5
508
100
AcDbEntity
  8
KONSTRUKTIONSELEMENTE
100
AcDbSpline
 62
7
  6
CONTINUOUS
 70
0
 71
3
 72
9
 73
5
 74
0
 42
0.0000001
 43
0.0000001
 44
0.0000000001
 40
0.0
 40
0.0
 40
0.0
 40
0.0
 40
0.4536677411
 40
1.0
 40
1.0
 40
1.0
 40
1.0
 10
685.0453718609
 20
134.0760958932
 30
0.0
 10
685.0450340325
 20
133.7928897901
 30
0.0
 10
684.8920341309
 20
133.1629456667
 30
0.0
 10
684.4818587357
 20
132.6649532191
 30
0.0
 10
684.2240469075
 20
132.4416816265
 30
0.0
  0
SPLINE
  5
509
100
AcDbEntity
  8
KONSTRUKTIONSELEMENTE
100
AcDbSpline
 62
7
  6
CONTINUOUS
 70
0
 71
3
 72
11
 73
7
 74
0
 42
0.0000001
 43
0.0000001
 44
0.0000000001
 40
0.0
 40
0.0
 40
0.0
 40
0.0
 40
0.2461895079
 40
0.4959709919
 40
0.7479193338
 40
1.0
 40
1.0
 40
1.0
 40
1.0
 10
676.0923189239
 20
139.483964637
 30
0.0
 10
676.5951700766
 20
139.9194465096
 30
0.0
 10
677.7232861729
 20
140.6715031818
 30
0.0
 10
679.6369696244
 20
141.3728357088
 30
0.0
 10
681.6743786658
 20
141.6285272399
 30
0.0
 10
683.0430761339
 20
141.492713375
 30
0.0
 10
683.7089480767
 20
141.349362933
 30
0.0
  0
SPLINE
  5
50A
100
AcDbEntity
  8
KONSTRUKTIONSELEMENTE
100
AcDbSpline
 62
7
  6
CONTINUOUS
 70
0
 71
3
 72
11
 73
7
 74
0
 42
0.0000001
 43
0.0000001
 44
0.0000000001
 40
0.0
 40
0.0
 40
0.0
 40
0.0
 40
0.2529702904
 40
0.5034560777
 40
0.7521726717
 40
1.0
 40
1.0
 40
1.0
 40
1.0
 10
687.8391836727
 20
139.1698234336
 30
0.0
 10
688.1828979607
 20
138.8346725457
 30
0.0
 10
688.8069013212
 20
138.1022739688
 30
0.0
 10
689.5097685304
 20
136.8495039069
 30
0.0
 10
689.9459252499
 20
135.4906303218
 30
0.0
 10
690.0445910631
 20
134.5454912326
 30
0.0
 10
690.0448053635
 20
134.0751828565
 30
0.0
  0
SPLINE
  5
50B
100
AcDbEntity
  8
KONSTRUKTIONSELEMENTE
100
AcDbSpline
 62
7
  6
CONTINUOUS
 70
0
 71
3
 72
11
 73
7
 74
0
 42
0.0000001
 43
0.0000001
 44
0.0000000001
 40
0.0
 40
0.0
 40
0.0
 40
0.0
 40
0.2474803687
 40
0.4959793074
 40
0.7466457809
 40
1.0
 40
1.0
 40
1.0
 40
1.0
 10
690.0448053635
 20
134.0751828565
 30
0.0
 10
690.0450368928
 20
133.567063877
 30
0.0
 10
689.9299450217
 20
132.5451318207
 30
0.0
 10
689.4227904086
 20
131.0858478956
 30
0.0
 10
688.6080989578
 20
129.7597239143
 30
0.0
 10
687.8905336547
 20
129.0025740145
 30
0.0
 10
687.4973152611
 20
128.6620368964
 30
0.0
  0
SPLINE
  5
50C
100
AcDbEntity
  8
KONSTRUKTIONSELEMENTE
100
AcDbSpline
 62
7
  6
CONTINUOUS
 70
0
 71
3
 72
9
 73
5
 74
0
 42
0.0000001
 43
0.0000001
 44
0.0000000001
 40
0.0
 40
0.0
 40
0.0
 40
0.0
 40
0.2332763521
 40
1.0
 40
1.0
 40
1.0
 40
1.0
 10
679.3655872774
 20
135.7043199069
 30
0.0
 10
679.4619138765
 20
135.7877411888
 30
0.0
 10
679.8981221331
 20
136.1181079798
 30
0.0
 10
680.4158035264
 20
136.3358678762
 30
0.0
 10
680.82251479
 20
136.4358727402
 30
0.0
  0
SPLINE
  5
50D
100
AcDbEntity
  8
KONSTRUKTIONSELEMENTE
100
AcDbSpline
 62
7
  6
CONTINUOUS
 70
0
 71
3
 72
9
 73
5
 74
0
 42
0.0000001
 43
0.0000001
 44
0.0000000001
 40
0.0
 40
0.0
 40
0.0
 40
0.0
 40
0.4874080123
 40
1.0
 40
1.0
 40
1.0
 40
1.0
 10
678.2136392674
 20
127.2365159231
 30
0.0
 10
677.6647433931
 20
126.7611581519
 30
0.0
 10
676.1774506603
 20
126.1929921907
 30
0.0
 10
674.621286521
 20
126.4741581681
 30
0.0
 10
673.9471821674
 20
126.8329449437
 30
0.0
  0
SPLINE
  5
50E
100
AcDbEntity
  8
KONSTRUKTIONSELEMENTE
100
AcDbSpline
 62
7
  6
CONTINUOUS
 70
0
 71
3
 72
11
 73
7
 74
0
 42
0.0000001
 43
0.0000001
 44
0.0000000001
 40
0.0
 40
0.0
 40
0.0
 40
0.0
 40
0.2475804796
 40
0.4995487547
 40
0.7518058018
 40
1.0
 40
1.0
 40
1.0
 40
1.0
 10
681.486907621
 20
123.456871193
 30
0.0
 10
680.7388205145
 20
122.8090087545
 30
0.0
 10
678.9693147503
 20
121.7794550581
 30
0.0
 10
675.9615272826
 20
121.222372978
 30
0.0
 10
672.9325575939
 20
121.6647634366
 30
0.0
 10
671.1203955401
 20
122.6231155107
 30
0.0
 10
670.3434595186
 20
123.2400368166
 30
0.0
  0
SPLINE
  5
50F
100
AcDbEntity
  8
KONSTRUKTIONSELEMENTE
100
AcDbSpline
 62
7
  6
CONTINUOUS
 70
0
 71
3
 72
9
 73
5
 74
0
 42
0.0000001
 43
0.0000001
 44
0.0000000001
 40
0.0
 40
0.0
 40
0.0
 40
0.0
 40
0.2330082413
 40
1.0
 40
1.0
 40
1.0
 40
1.0
 10
672.9118062361
 20
136.729285865
 30
0.0
 10
672.927699924
 20
136.7430198393
 30
0.0
 10
673.0020486953
 20
136.7951493417
 30
0.0
 10
673.095766669
 20
136.8133191781
 30
0.0
 10
673.164895944
 20
136.8147313951
 30
0.0
  0
SPLINE
  5
510
100
AcDbEntity
  8
KONSTRUKTIONSELEMENTE
100
AcDbSpline
 62
7
  6
CONTINUOUS
 70
0
 71
3
 72
12
 73
8
 74
0
 42
0.0000001
 43
0.0000001
 44
0.0000000001
 40
0.0
 40
0.0
 40
0.0
 40
0.0
 40
0.0756075419
 40
0.1692610425
 40
0.407301719
 40
0.6950186639
 40
1.0
 40
1.0
 40
1.0
 40
1.0
 10
673.164895944
 20
136.8147313951
 30
0.0
 10
673.2407146478
 20
136.8162802681
 30
0.0
 10
673.4108418599
 20
136.7892919667
 30
0.0
 10
673.7936893035
 20
136.6429154795
 30
0.0
 10
674.3193951722
 20
136.3010394964
 30
0.0
 10
674.9406750987
 20
135.7435004887
 30
0.0
 10
675.3300474693
 20
135.2914161099
 30
0.0
 10
675.5141221813
 20
135.0471019163
 30
0.0
  0
SPLINE
  5
511
100
AcDbEntity
  8
KONSTRUKTIONSELEMENTE
100
AcDbSpline
 62
7
  6
CONTINUOUS
 70
0
 71
3
 72
9
 73
5
 74
0
 42
0.0000001
 43
0.0000001
 44
0.0000000001
 40
0.0
 40
0.0
 40
0.0
 40
0.0
 40
0.2622844894
 40
1.0
 40
1.0
 40
1.0
 40
1.0
 10
675.681523818
 20
134.8145190475
 30
0.0
 10
675.7174018352
 20
134.7622233494
 30
0.0
 10
675.8510665793
 20
134.560743363
 30
0.0
 10
675.9724662197
 20
134.3508843834
 30
0.0
 10
676.0518433396
 20
134.1911409152
 30
0.0
  0
SPLINE
  5
512
100
AcDbEntity
  8
KONSTRUKTIONSELEMENTE
100
AcDbSpline
 62
7
  6
CONTINUOUS
 70
0
 71
3
 72
18
 73
14
 74
0
 42
0.0000001
 43
0.0000001
 44
0.0000000001
 40
0.0
 40
0.0
 40
0.0
 40
0.0
 40
0.0297694375
 40
0.0647100049
 40
0.10768043
 40
0.1596584826
 40
0.2202475627
 40
0.2884715706
 40
0.4417489812
 40
0.6049919065
 40
0.7618480026
 40
0.8972863474
 40
1.0
 40
1.0
 40
1.0
 40
1.0
 10
673.2653596267
 20
137.0354720828
 30
0.0
 10
673.3042454017
 20
137.0690738647
 30
0.0
 10
673.4091722495
 20
137.1195770617
 30
0.0
 10
673.5980485963
 20
137.1264094994
 30
0.0
 10
673.818478712
 20
137.0777560108
 30
0.0
 10
674.0675235173
 20
136.9748988326
 30
0.0
 10
674.340090492
 20
136.8217048838
 30
0.0
 10
674.7404028333
 20
136.5434054659
 30
0.0
 10
675.2391908376
 20
136.1012326001
 30
0.0
 10
675.78305003
 20
135.4893328075
 30
0.0
 10
676.2351996643
 20
134.8425147741
 30
0.0
 10
676.5453286168
 20
134.2343218634
 30
0.0
 10
676.659604366
 20
133.8309411558
 30
0.0
 10
676.6673933259
 20
133.6537926799
 30
0.0
  0
SPLINE
  5
513
100
AcDbEntity
  8
KONSTRUKTIONSELEMENTE
100
AcDbSpline
 62
7
  6
CONTINUOUS
 70
0
 71
3
 72
9
 73
5
 74
0
 42
0.0000001
 43
0.0000001
 44
0.0000000001
 40
0.0
 40
0.0
 40
0.0
 40
0.0
 40
0.244567645
 40
1.0
 40
1.0
 40
1.0
 40
1.0
 10
730.1136121052
 20
170.066834503
 30
0.0
 10
730.2397123315
 20
170.1760405024
 30
0.0
 10
730.7480356414
 20
170.6309291266
 30
0.0
 10
731.2285659963
 20
171.1166905615
 30
0.0
 10
731.5754089903
 20
171.4977403859
 30
0.0
  0
SPLINE
  5
514
100
AcDbEntity
  8
KONSTRUKTIONSELEMENTE
100
AcDbSpline
 62
7
  6
CONTINUOUS
 70
0
 71
3
 72
11
 73
7
 74
0
 42
0.0000001
 43
0.0000001
 44
0.0000000001
 40
0.0
 40
0.0
 40
0.0
 40
0.0
 40
0.2456161378
 40
0.487829233
 40
0.7390911012
 40
1.0
 40
1.0
 40
1.0
 40
1.0
 10
734.6768787972
 20
176.4989889674
 30
0.0
 10
734.7874145176
 20
176.8514143139
 30
0.0
 10
734.957760508
 20
177.5693045577
 30
0.0
 10
734.9783535832
 20
178.6922868705
 30
0.0
 10
734.6593945517
 20
179.8028496623
 30
0.0
 10
734.1747761146
 20
180.4323572552
 30
0.0
 10
733.878282525
 20
180.689320676
 30
0.0
  0
SPLINE
  5
515
100
AcDbEntity
  8
KONSTRUKTIONSELEMENTE
100
AcDbSpline
 62
7
  6
CONTINUOUS
 70
0
 71
3
 72
23
 73
19
 74
0
 42
0.0000001
 43
0.0000001
 44
0.0000000001
 40
0.0
 40
0.0
 40
0.0
 40
0.0
 40
0.0399693647
 40
0.0656737883
 40
0.0749885225
 40
0.0817696905
 40
0.0908566531
 40
0.1035947661
 40
0.1198800888
 40
0.1395419735
 40
0.1623868192
 40
0.1882221418
 40
0.2481028199
 40
0.3177476512
 40
0.3960861991
 40
0.5751467152
 40
0.7783544951
 40
1.0
 40
1.0
 40
1.0
 40
1.0
 10
731.7002272975
 20
176.9430481238
 30
0.0
 10
731.7303384538
 20
176.9402219793
 30
0.0
 10
731.7867788924
 20
176.9389283645
 30
0.0
 10
731.826006497
 20
176.9378913466
 30
0.0
 10
731.8801827156
 20
176.9447718161
 30
0.0
 10
731.8509004733
 20
176.9389065057
 30
0.0
 10
731.8336637407
 20
176.9339764342
 30
0.0
 10
731.8044936159
 20
176.9253863402
 30
0.0
 10
731.7702607644
 20
176.9134785457
 30
0.0
 10
731.7284257576
 20
176.8977225633
 30
0.0
 10
731.6805995616
 20
176.8782272344
 30
0.0
 10
731.6052369383
 20
176.8454563729
 30
0.0
 10
731.4991154814
 20
176.7948180121
 30
0.0
 10
731.3602752775
 20
176.7208031937
 30
0.0
 10
731.1465283184
 20
176.5960128699
 30
0.0
 10
730.8549170939
 20
176.4046430116
 30
0.0
 10
730.4882912929
 20
176.1315328682
 30
0.0
 10
730.24039031
 20
175.926627649
 30
0.0
 10
730.1136121052
 20
175.816834503
 30
0.0
  0
SPLINE
  5
516
100
AcDbEntity
  8
KONSTRUKTIONSELEMENTE
100
AcDbSpline
 62
7
  6
CONTINUOUS
 70
0
 71
3
 72
13
 73
9
 74
0
 42
0.0000001
 43
0.0000001
 44
0.0000000001
 40
0.0
 40
0.0
 40
0.0
 40
0.0
 40
0.1263256967
 40
0.2494053695
 40
0.4831671239
 40
0.6019464337
 40
0.7268262858
 40
1.0
 40
1.0
 40
1.0
 40
1.0
 10
733.878282525
 20
180.689320676
 30
0.0
 10
733.6404083231
 20
180.8954801707
 30
0.0
 10
733.1008493693
 20
181.2282700742
 30
0.0
 10
731.918488937
 20
181.5279155566
 30
0.0
 10
730.7039350307
 20
181.3484250194
 30
0.0
 10
729.6035373175
 20
180.8959520846
 30
0.0
 10
728.4751232443
 20
180.269215057
 30
0.0
 10
727.6822282515
 20
179.6641347693
 30
0.0
 10
727.167670587
 20
179.2185147601
 30
0.0
  0
SPLINE
  5
517
100
AcDbEntity
  8
KONSTRUKTIONSELEMENTE
100
AcDbSpline
 62
7
  6
CONTINUOUS
 70
0
 71
3
 72
9
 73
5
 74
0
 42
0.0000001
 43
0.0000001
 44
0.0000000001
 40
0.0
 40
0.0
 40
0.0
 40
0.0
 40
0.5091378895
 40
1.0
 40
1.0
 40
1.0
 40
1.0
 10
712.7963984494
 20
159.4104420517
 30
0.0
 10
713.0863771812
 20
159.1591248918
 30
0.0
 10
713.7605977392
 20
158.7755735639
 30
0.0
 10
714.5209962364
 20
158.6604934047
 30
0.0
 10
714.8909501238
 20
158.6613521
 30
0.0
  0
SPLINE
  5
518
100
AcDbEntity
  8
KONSTRUKTIONSELEMENTE
100
AcDbSpline
 62
7
  6
CONTINUOUS
 70
0
 71
3
 72
14
 73
10
 74
0
 42
0.0000001
 43
0.0000001
 44
0.0000000001
 40
0.0
 40
0.0
 40
0.0
 40
0.0
 40
0.3076593044
 40
0.4655740208
 40
0.6174499256
 40
0.7563299601
 40
0.8741882754
 40
0.9604979356
 40
1.0
 40
1.0
 40
1.0
 40
1.0
 10
719.5070103874
 20
166.6312479676
 30
0.0
 10
719.0567489887
 20
166.241310158
 30
0.0
 10
718.4200584829
 20
165.597957683
 30
0.0
 10
717.6621957614
 20
164.6729785158
 30
0.0
 10
717.1571295271
 20
163.9652231316
 30
0.0
 10
716.7455763765
 20
163.2889310959
 30
0.0
 10
716.4477374795
 20
162.6936613289
 30
0.0
 10
716.2840493095
 20
162.250990736
 30
0.0
 10
716.2251036656
 20
162.012860015
 30
0.0
 10
716.2188218627
 20
161.9366409787
 30
0.0
  0
SPLINE
  5
519
100
AcDbEntity
  8
KONSTRUKTIONSELEMENTE
100
AcDbSpline
 62
7
  6
CONTINUOUS
 70
0
 71
3
 72
16
 73
12
 74
0
 42
0.0000001
 43
0.0000001
 44
0.0000000001
 40
0.0
 40
0.0
 40
0.0
 40
0.0
 40
0.1382503286
 40
0.2794921658
 40
0.416953146
 40
0.5450742214
 40
0.6617427928
 40
0.7711235094
 40
0.8823527807
 40
0.9406882304
 40
1.0
 40
1.0
 40
1.0
 40
1.0
 10
716.5610688692
 20
170.0329282247
 30
0.0
 10
716.1262426636
 20
169.6563576844
 30
0.0
 10
715.2883162064
 20
168.8466631743
 30
0.0
 10
714.1583738818
 20
167.5271959829
 30
0.0
 10
713.1828723531
 20
166.1404055678
 30
0.0
 10
712.4108716889
 20
164.74564298
 30
0.0
 10
711.8791122363
 20
163.3645720156
 30
0.0
 10
711.6426121106
 20
161.96760902
 30
0.0
 10
711.8283124652
 20
160.7889176099
 30
0.0
 10
712.2787873923
 20
159.9407610938
 30
0.0
 10
712.6099104383
 20
159.5720664475
 30
0.0
 10
712.7963984494
 20
159.4104420517
 30
0.0
  0
SPLINE
  5
51A
100
AcDbEntity
  8
KONSTRUKTIONSELEMENTE
100
AcDbSpline
 62
7
  6
CONTINUOUS
 70
0
 71
3
 72
9
 73
5
 74
0
 42
0.0000001
 43
0.0000001
 44
0.0000000001
 40
0.0
 40
0.0
 40
0.0
 40
0.0
 40
0.2442277043
 40
1.0
 40
1.0
 40
1.0
 40
1.0
 10
699.000913733
 20
143.1224473324
 30
0.0
 10
699.1566627976
 20
143.257329979
 30
0.0
 10
699.783259551
 20
143.8223674007
 30
0.0
 10
700.3678225846
 20
144.4336951265
 30
0.0
 10
700.7844640932
 20
144.9163223304
 30
0.0
  0
SPLINE
  5
51B
100
AcDbEntity
  8
KONSTRUKTIONSELEMENTE
100
AcDbSpline
 62
7
  6
CONTINUOUS
 70
0
 71
3
 72
11
 73
7
 74
0
 42
0.0000001
 43
0.0000001
 44
0.0000000001
 40
0.0
 40
0.0
 40
0.0
 40
0.0
 40
0.2471730376
 40
0.4889706441
 40
0.7394164903
 40
1.0
 40
1.0
 40
1.0
 40
1.0
 10
703.5073410344
 20
149.3807269246
 30
0.0
 10
703.6317959545
 20
149.7467816686
 30
0.0
 10
703.8274618696
 20
150.4906392217
 30
0.0
 10
703.8795216984
 20
151.6583334622
 30
0.0
 10
703.5725403118
 20
152.8190195471
 30
0.0
 10
703.0736093647
 20
153.477975922
 30
0.0
 10
702.7655841528
 20
153.7449335054
 30
0.0
  0
SPLINE
  5
51C
100
AcDbEntity
  8
KONSTRUKTIONSELEMENTE
100
AcDbSpline
 62
7
  6
CONTINUOUS
 70
0
 71
3
 72
23
 73
19
 74
0
 42
0.0000001
 43
0.0000001
 44
0.0000000001
 40
0.0
 40
0.0
 40
0.0
 40
0.0
 40
0.0399693647
 40
0.0656737883
 40
0.0749885225
 40
0.0817696905
 40
0.0908566531
 40
0.1035947661
 40
0.1198800888
 40
0.1395419735
 40
0.1623868192
 40
0.1882221418
 40
0.2481028199
 40
0.3177476512
 40
0.3960861991
 40
0.5751467152
 40
0.7783544951
 40
1.0
 40
1.0
 40
1.0
 40
1.0
 10
700.5875289253
 20
149.9986609532
 30
0.0
 10
700.6176400816
 20
149.9958348087
 30
0.0
 10
700.6740805202
 20
149.9945411938
 30
0.0
 10
700.7133081247
 20
149.9935041759
 30
0.0
 10
700.7674843434
 20
150.0003846454
 30
0.0
 10
700.7382021011
 20
149.9945193351
 30
0.0
 10
700.7209653685
 20
149.9895892636
 30
0.0
 10
700.6917952437
 20
149.9809991696
 30
0.0
 10
700.6575623922
 20
149.969091375
 30
0.0
 10
700.6157273854
 20
149.9533353927
 30
0.0
 10
700.5679011894
 20
149.9338400638
 30
0.0
 10
700.492538566
 20
149.9010692023
 30
0.0
 10
700.3864171092
 20
149.8504308415
 30
0.0
 10
700.2475769053
 20
149.7764160231
 30
0.0
 10
700.0338299462
 20
149.6516256993
 30
0.0
 10
699.7422187216
 20
149.460255841
 30
0.0
 10
699.3755929207
 20
149.1871456976
 30
0.0
 10
699.1276919378
 20
148.9822404784
 30
0.0
 10
699.000913733
 20
148.8724473324
 30
0.0
  0
SPLINE
  5
51D
100
AcDbEntity
  8
KONSTRUKTIONSELEMENTE
100
AcDbSpline
 62
7
  6
CONTINUOUS
 70
0
 71
3
 72
13
 73
9
 74
0
 42
0.0000001
 43
0.0000001
 44
0.0000000001
 40
0.0
 40
0.0
 40
0.0
 40
0.0
 40
0.1263256967
 40
0.2494053695
 40
0.4831671239
 40
0.6019464337
 40
0.7268262858
 40
1.0
 40
1.0
 40
1.0
 40
1.0
 10
702.7655841528
 20
153.7449335054
 30
0.0
 10
702.5277099509
 20
153.9510930001
 30
0.0
 10
701.988150997
 20
154.2838829036
 30
0.0
 10
700.8057905648
 20
154.583528386
 30
0.0
 10
699.5912366585
 20
154.4040378488
 30
0.0
 10
698.4908389453
 20
153.951564914
 30
0.0
 10
697.362424872
 20
153.3248278864
 30
0.0
 10
696.5695298793
 20
152.7197475987
 30
0.0
 10
696.0549722148
 20
152.2741275895
 30
0.0
  0
SPLINE
  5
51E
100
AcDbEntity
  8
KONSTRUKTIONSELEMENTE
100
AcDbSpline
 62
7
  6
CONTINUOUS
 70
0
 71
3
 72
9
 73
5
 74
0
 42
0.0000001
 43
0.0000001
 44
0.0000000001
 40
0.0
 40
0.0
 40
0.0
 40
0.0
 40
0.5068172679
 40
1.0
 40
1.0
 40
1.0
 40
1.0
 10
681.6837000772
 20
132.4660548811
 30
0.0
 10
681.9274556609
 20
132.2547981429
 30
0.0
 10
682.4814610256
 20
131.9159034035
 30
0.0
 10
683.109974008
 20
131.7643575325
 30
0.0
 10
683.4223586306
 20
131.733711403
 30
0.0
  0
SPLINE
  5
51F
100
AcDbEntity
  8
KONSTRUKTIONSELEMENTE
100
AcDbSpline
 62
7
  6
CONTINUOUS
 70
0
 71
3
 72
14
 73
10
 74
0
 42
0.0000001
 43
0.0000001
 44
0.0000000001
 40
0.0
 40
0.0
 40
0.0
 40
0.0
 40
0.3076593044
 40
0.4655740208
 40
0.6174499256
 40
0.7563299601
 40
0.8741882754
 40
0.9604979356
 40
1.0
 40
1.0
 40
1.0
 40
1.0
 10
688.3943120152
 20
139.686860797
 30
0.0
 10
687.9440506165
 20
139.2969229874
 30
0.0
 10
687.3073601107
 20
138.6535705123
 30
0.0
 10
686.5494973892
 20
137.7285913451
 30
0.0
 10
686.0444311549
 20
137.020835961
 30
0.0
 10
685.6328780043
 20
136.3445439252
 30
0.0
 10
685.3350391073
 20
135.7492741583
 30
0.0
 10
685.1713509373
 20
135.3066035654
 30
0.0
 10
685.1124052933
 20
135.0684728443
 30
0.0
 10
685.1061234905
 20
134.9922538081
 30
0.0
  0
SPLINE
  5
520
100
AcDbEntity
  8
KONSTRUKTIONSELEMENTE
100
AcDbSpline
 62
7
  6
CONTINUOUS
 70
0
 71
3
 72
16
 73
12
 74
0
 42
0.0000001
 43
0.0000001
 44
0.0000000001
 40
0.0
 40
0.0
 40
0.0
 40
0.0
 40
0.1382503286
 40
0.2794921658
 40
0.416953146
 40
0.5450742214
 40
0.6617427928
 40
0.7711235094
 40
0.8823527807
 40
0.9406882304
 40
1.0
 40
1.0
 40
1.0
 40
1.0
 10
685.448370497
 20
143.0885410541
 30
0.0
 10
685.0135442914
 20
142.7119705138
 30
0.0
 10
684.1756178342
 20
141.9022760037
 30
0.0
 10
683.0456755096
 20
140.5828088122
 30
0.0
 10
682.0701739809
 20
139.1960183972
 30
0.0
 10
681.2981733167
 20
137.8012558094
 30
0.0
 10
680.7664138641
 20
136.420184845
 30
0.0
 10
680.5299137384
 20
135.0232218494
 30
0.0
 10
680.715614093
 20
133.8445304393
 30
0.0
 10
681.1660890201
 20
132.9963739232
 30
0.0
 10
681.4972120661
 20
132.6276792769
 30
0.0
 10
681.6837000772
 20
132.4660548811
 30
0.0
  0
SPLINE
  5
521
100
AcDbEntity
  8
KONSTRUKTIONSELEMENTE
100
AcDbSpline
 62
7
  6
CONTINUOUS
 70
0
 71
3
 72
11
 73
7
 74
0
 42
0.0000001
 43
0.0000001
 44
0.0000000001
 40
0.0
 40
0.0
 40
0.0
 40
0.0
 40
0.247258039
 40
0.4956520534
 40
0.7463451021
 40
1.0
 40
1.0
 40
1.0
 40
1.0
 10
694.4777661512
 20
151.9831074892
 30
0.0
 10
694.4775706844
 20
152.4731127686
 30
0.0
 10
694.5886464839
 20
153.4588630701
 30
0.0
 10
695.0785579936
 20
154.8666375373
 30
0.0
 10
695.8655977085
 20
156.146726414
 30
0.0
 10
696.5588635617
 20
156.8777933072
 30
0.0
 10
696.9388556913
 20
157.2068761446
 30
0.0
  0
SPLINE
  5
522
100
AcDbEntity
  8
KONSTRUKTIONSELEMENTE
100
AcDbSpline
 62
7
  6
CONTINUOUS
 70
0
 71
3
 72
11
 73
7
 74
0
 42
0.0000001
 43
0.0000001
 44
0.0000000001
 40
0.0
 40
0.0
 40
0.0
 40
0.0
 40
0.247258039
 40
0.4956520534
 40
0.7463451021
 40
1.0
 40
1.0
 40
1.0
 40
1.0
 10
721.0842164509
 20
161.1722680679
 30
0.0
 10
721.0844119177
 20
160.6822627885
 30
0.0
 10
720.9733361182
 20
159.696512487
 30
0.0
 10
720.4834246086
 20
158.2887380198
 30
0.0
 10
719.6963848936
 20
157.0086491431
 30
0.0
 10
719.0031190404
 20
156.2775822499
 30
0.0
 10
718.6231269109
 20
155.9484994125
 30
0.0
  0
SPLINE
  5
523
100
AcDbEntity
  8
KONSTRUKTIONSELEMENTE
100
AcDbSpline
 62
7
  6
CONTINUOUS
 70
0
 71
3
 72
9
 73
5
 74
0
 42
0.0000001
 43
0.0000001
 44
0.0000000001
 40
0.0
 40
0.0
 40
0.0
 40
0.0
 40
0.2390508737
 40
1.0
 40
1.0
 40
1.0
 40
1.0
 10
710.7161294749
 20
163.1685836782
 30
0.0
 10
710.8117739428
 20
163.237765269
 30
0.0
 10
711.2266180198
 20
163.5065176625
 30
0.0
 10
711.6954677776
 20
163.6892858003
 30
0.0
 10
712.0605511831
 20
163.7781928459
 30
0.0
  0
SPLINE
  5
524
100
AcDbEntity
  8
KONSTRUKTIONSELEMENTE
100
AcDbSpline
 62
7
  6
CONTINUOUS
 70
0
 71
3
 72
9
 73
5
 74
0
 42
0.0000001
 43
0.0000001
 44
0.0000000001
 40
0.0
 40
0.0
 40
0.0
 40
0.0
 40
0.2598514407
 40
1.0
 40
1.0
 40
1.0
 40
1.0
 10
716.4027317276
 20
162.0266830938
 30
0.0
 10
716.4330130896
 20
161.9568473436
 30
0.0
 10
716.536316812
 20
161.6826035929
 30
0.0
 10
716.5847671396
 20
161.3872889475
 30
0.0
 10
716.5847793656
 20
161.170477231
 30
0.0
  0
SPLINE
  5
525
100
AcDbEntity
  8
KONSTRUKTIONSELEMENTE
100
AcDbSpline
 62
7
  6
CONTINUOUS
 70
0
 71
3
 72
9
 73
5
 74
0
 42
0.0000001
 43
0.0000001
 44
0.0000000001
 40
0.0
 40
0.0
 40
0.0
 40
0.0
 40
0.4614411915
 40
1.0
 40
1.0
 40
1.0
 40
1.0
 10
716.5847793656
 20
161.170477231
 30
0.0
 10
716.5847974263
 20
160.8501950489
 30
0.0
 10
716.4133036049
 20
160.1497348175
 30
0.0
 10
715.9597583056
 20
159.5948949905
 30
0.0
 10
715.6771853927
 20
159.3501796695
 30
0.0
  0
SPLINE
  5
526
100
AcDbEntity
  8
KONSTRUKTIONSELEMENTE
100
AcDbSpline
 62
7
  6
CONTINUOUS
 70
0
 71
3
 72
9
 73
5
 74
0
 42
0.0000001
 43
0.0000001
 44
0.0000000001
 40
0.0
 40
0.0
 40
0.0
 40
0.0
 40
0.4898470903
 40
1.0
 40
1.0
 40
1.0
 40
1.0
 10
705.0705836749
 20
150.1645931341
 30
0.0
 10
704.4728747457
 20
149.6469620174
 30
0.0
 10
702.8562550546
 20
149.0344183949
 30
0.0
 10
701.1700661935
 20
149.3648441498
 30
0.0
 10
700.4520576807
 20
149.7680428382
 30
0.0
  0
SPLINE
  5
527
100
AcDbEntity
  8
KONSTRUKTIONSELEMENTE
100
AcDbSpline
 62
7
  6
CONTINUOUS
 70
0
 71
3
 72
11
 73
7
 74
0
 42
0.0000001
 43
0.0000001
 44
0.0000000001
 40
0.0
 40
0.0
 40
0.0
 40
0.0
 40
0.245958326
 40
0.4956468363
 40
0.7476883331
 40
1.0
 40
1.0
 40
1.0
 40
1.0
 10
707.5454574091
 20
166.3924626801
 30
0.0
 10
708.0231513625
 20
166.806157779
 30
0.0
 10
709.092901078
 20
167.5230987053
 30
0.0
 10
710.9066235233
 20
168.2023718399
 30
0.0
 10
712.8408728108
 20
168.4682016204
 30
0.0
 10
714.14455868
 20
168.3606452823
 30
0.0
 10
714.7807864998
 20
168.2363625971
 30
0.0
  0
SPLINE
  5
528
100
AcDbEntity
  8
KONSTRUKTIONSELEMENTE
100
AcDbSpline
 62
7
  6
CONTINUOUS
 70
0
 71
3
 72
11
 73
7
 74
0
 42
0.0000001
 43
0.0000001
 44
0.0000000001
 40
0.0
 40
0.0
 40
0.0
 40
0.0
 40
0.2532343944
 40
0.50377714
 40
0.752387739
 40
1.0
 40
1.0
 40
1.0
 40
1.0
 10
718.9398365347
 20
166.1021305304
 30
0.0
 10
719.2739601875
 20
165.7780687453
 30
0.0
 10
719.8805521571
 20
165.0697760881
 30
0.0
 10
720.5642418699
 20
163.8575062766
 30
0.0
 10
720.9882144638
 20
162.542257987
 30
0.0
 10
721.0840348969
 20
161.6273959405
 30
0.0
 10
721.0842164509
 20
161.1722680679
 30
0.0
  0
SPLINE
  5
529
100
AcDbEntity
  8
KONSTRUKTIONSELEMENTE
100
AcDbSpline
 62
7
  6
CONTINUOUS
 70
0
 71
3
 72
11
 73
7
 74
0
 42
0.0000001
 43
0.0000001
 44
0.0000000001
 40
0.0
 40
0.0
 40
0.0
 40
0.0
 40
0.2478292773
 40
0.5003854856
 40
0.75271631
 40
1.0
 40
1.0
 40
1.0
 40
1.0
 10
708.0165251931
 20
146.762912877
 30
0.0
 10
707.2538625996
 20
146.1024276965
 30
0.0
 10
705.434051801
 20
145.0672464739
 30
0.0
 10
702.3483793138
 20
144.5769802228
 30
0.0
 10
699.2798738805
 20
145.1548598908
 30
0.0
 10
697.4946320967
 20
146.2439632194
 30
0.0
 10
696.7552958967
 20
146.9271909294
 30
0.0
  0
SPLINE
  5
52A
100
AcDbEntity
  8
KONSTRUKTIONSELEMENTE
100
AcDbSpline
 62
7
  6
CONTINUOUS
 70
0
 71
3
 72
12
 73
8
 74
0
 42
0.0000001
 43
0.0000001
 44
0.0000000001
 40
0.0
 40
0.0
 40
0.0
 40
0.0
 40
0.2667022488
 40
0.5135567525
 40
0.7543290993
 40
0.8766592736
 40
1.0
 40
1.0
 40
1.0
 40
1.0
 10
770.6954395865
 20
205.2680862279
 30
0.0
 10
770.9170658797
 20
206.0832453177
 30
0.0
 10
771.245036231
 20
207.6844046622
 30
0.0
 10
771.2783734602
 20
210.0917355232
 30
0.0
 10
770.762442751
 20
211.9942456403
 30
0.0
 10
769.9566025817
 20
213.3181075042
 30
0.0
 10
769.4208989739
 20
213.8919391507
 30
0.0
 10
769.1253234736
 20
214.1473931359
 30
0.0
  0
SPLINE
  5
52B
100
AcDbEntity
  8
KONSTRUKTIONSELEMENTE
100
AcDbSpline
 62
7
  6
CONTINUOUS
 70
0
 71
3
 72
18
 73
14
 74
0
 42
0.0000001
 43
0.0000001
 44
0.0000000001
 40
0.0
 40
0.0
 40
0.0
 40
0.0
 40
0.1463822488
 40
0.2968227272
 40
0.4441473494
 40
0.5816385962
 40
0.7043044355
 40
0.7594741652
 40
0.8108331293
 40
0.8592452862
 40
0.9060289111
 40
0.9526792965
 40
1.0
 40
1.0
 40
1.0
 40
1.0
 10
751.7789710661
 20
208.8996829368
 30
0.0
 10
750.4729916868
 20
207.7686716176
 30
0.0
 10
747.9396559599
 20
205.3403487484
 30
0.0
 10
744.4815844129
 20
201.3930140667
 30
0.0
 10
741.4388550102
 20
197.2449174565
 30
0.0
 10
738.9724169513
 20
193.1077816889
 30
0.0
 10
737.4431465437
 20
189.6996112438
 30
0.0
 10
736.6559678687
 20
187.1078777136
 30
0.0
 10
736.3062615089
 20
185.3088332871
 30
0.0
 10
736.2016130335
 20
183.5759915724
 30
0.0
 10
736.3897214445
 20
181.9016048142
 30
0.0
 10
736.9399976001
 20
180.3170633042
 30
0.0
 10
737.5855340882
 20
179.3918824239
 30
0.0
 10
737.9707868802
 20
178.9875369351
 30
0.0
  0
SPLINE
  5
52C
100
AcDbEntity
  8
KONSTRUKTIONSELEMENTE
100
AcDbSpline
 62
7
  6
CONTINUOUS
 70
0
 71
3
 72
29
 73
25
 74
0
 42
0.0000001
 43
0.0000001
 44
0.0000000001
 40
0.0
 40
0.0
 40
0.0
 40
0.0
 40
0.0038425111
 40
0.006877826
 40
0.0083401759
 40
0.0090978557
 40
0.0122169244
 40
0.0179337516
 40
0.0265411311
 40
0.0382974786
 40
0.0531437932
 40
0.0709517797
 40
0.0916105212
 40
0.1150179064
 40
0.1410570151
 40
0.1696072658
 40
0.2337651466
 40
0.3066512757
 40
0.3874470915
 40
0.475421617
 40
0.5698903892
 40
0.6702089349
 40
0.7757710248
 40
1.0
 40
1.0
 40
1.0
 40
1.0
 10
765.208267936
 20
209.6099261473
 30
0.0
 10
765.219665565
 20
209.6012320504
 30
0.0
 10
765.2431789375
 20
209.5846489819
 30
0.0
 10
765.2596716974
 20
209.570958358
 30
0.0
 10
765.2896747294
 20
209.5524461068
 30
0.0
 10
765.2627556592
 20
209.5586204238
 30
0.0
 10
765.2347075847
 20
209.5673018188
 30
0.0
 10
765.1662661379
 20
209.5787947804
 30
0.0
 10
765.0713444009
 20
209.5875365404
 30
0.0
 10
764.9390207359
 20
209.5895003683
 30
0.0
 10
764.7737603069
 20
209.5819009032
 30
0.0
 10
764.5756769969
 20
209.5617087204
 30
0.0
 10
764.3475711079
 20
209.5258890306
 30
0.0
 10
764.0915139139
 20
209.4720782486
 30
0.0
 10
763.8095921832
 20
209.3997232155
 30
0.0
 10
763.3851815954
 20
209.2723479316
 30
0.0
 10
762.8044867055
 20
209.0598775042
 30
0.0
 10
762.060029216
 20
208.7328543266
 30
0.0
 10
761.2555854697
 20
208.3249544348
 30
0.0
 10
760.401994997
 20
207.8386719504
 30
0.0
 10
759.5085408155
 20
207.2773010618
 30
0.0
 10
758.5835700767
 20
206.644411041
 30
0.0
 10
757.2922028594
 20
205.6916027157
 30
0.0
 10
756.3392414169
 20
204.9117389755
 30
0.0
 10
755.7068930903
 20
204.3641092607
 30
0.0
  0
SPLINE
  5
52D
100
AcDbEntity
  8
KONSTRUKTIONSELEMENTE
100
AcDbSpline
 62
7
  6
CONTINUOUS
 70
0
 71
3
 72
9
 73
5
 74
0
 42
0.0000001
 43
0.0000001
 44
0.0000000001
 40
0.0
 40
0.0
 40
0.0
 40
0.0
 40
0.2986960379
 40
1.0
 40
1.0
 40
1.0
 40
1.0
 10
765.2384327571
 20
208.9761691611
 30
0.0
 10
765.2380097965
 20
209.0230729239
 30
0.0
 10
765.2338739125
 20
209.1800374698
 30
0.0
 10
765.2182631496
 20
209.3368824214
 30
0.0
 10
765.1988687374
 20
209.445290355
 30
0.0
  0
SPLINE
  5
52E
100
AcDbEntity
  8
KONSTRUKTIONSELEMENTE
100
AcDbSpline
 62
7
  6
CONTINUOUS
 70
0
 71
3
 72
9
 73
5
 74
0
 42
0.0000001
 43
0.0000001
 44
0.0000000001
 40
0.0
 40
0.0
 40
0.0
 40
0.0
 40
0.2922909709
 40
1.0
 40
1.0
 40
1.0
 40
1.0
 10
765.1988687374
 20
209.445290355
 30
0.0
 10
765.1963647097
 20
209.459286988
 30
0.0
 10
765.1872888791
 20
209.5070783571
 30
0.0
 10
765.1763710203
 20
209.55453458
 30
0.0
 10
765.1673044606
 20
209.5877466594
 30
0.0
  0
SPLINE
  5
52F
100
AcDbEntity
  8
KONSTRUKTIONSELEMENTE
100
AcDbSpline
 62
7
  6
CONTINUOUS
 70
0
 71
3
 72
9
 73
5
 74
0
 42
0.0000001
 43
0.0000001
 44
0.0000000001
 40
0.0
 40
0.0
 40
0.0
 40
0.0
 40
0.2129668983
 40
1.0
 40
1.0
 40
1.0
 40
1.0
 10
742.2981677147
 20
183.1890316717
 30
0.0
 10
742.3054692281
 20
183.1879162217
 30
0.0
 10
742.3398192458
 20
183.1831085134
 30
0.0
 10
742.3744065591
 20
183.1800622581
 30
0.0
 10
742.401654354
 20
183.1784360545
 30
0.0
  0
SPLINE
  5
530
100
AcDbEntity
  8
KONSTRUKTIONSELEMENTE
100
AcDbSpline
 62
7
  6
CONTINUOUS
 70
0
 71
3
 72
9
 73
5
 74
0
 42
0.0000001
 43
0.0000001
 44
0.0000000001
 40
0.0
 40
0.0
 40
0.0
 40
0.0
 40
0.4751668021
 40
1.0
 40
1.0
 40
1.0
 40
1.0
 10
747.5429262738
 20
185.2156798804
 30
0.0
 10
748.2538246131
 20
185.6630157939
 30
0.0
 10
749.7051663862
 20
186.6761562312
 30
0.0
 10
751.0776767122
 20
187.7923442108
 30
0.0
 10
751.7789710661
 20
188.3996829368
 30
0.0
  0
SPLINE
  5
531
100
AcDbEntity
  8
KONSTRUKTIONSELEMENTE
100
AcDbSpline
 62
7
  6
CONTINUOUS
 70
0
 71
3
 72
17
 73
13
 74
0
 42
0.0000001
 43
0.0000001
 44
0.0000000001
 40
0.0
 40
0.0
 40
0.0
 40
0.0
 40
0.054272456
 40
0.1081063965
 40
0.1614219537
 40
0.2144031746
 40
0.3216905582
 40
0.4354499083
 40
0.5594736346
 40
0.6952881283
 40
0.8426555219
 40
1.0
 40
1.0
 40
1.0
 40
1.0
 10
769.1253234736
 20
214.1473931359
 30
0.0
 10
768.8577976327
 20
214.3786049317
 30
0.0
 10
768.2800508587
 20
214.7902747879
 30
0.0
 10
767.3188898107
 20
215.2305011827
 30
0.0
 10
766.3057813116
 20
215.4987373694
 30
0.0
 10
764.9170722309
 20
215.6425615064
 30
0.0
 10
763.1227525847
 20
215.4692762132
 30
0.0
 10
760.9589517855
 20
214.8279550895
 30
0.0
 10
758.7364834962
 20
213.8212264739
 30
0.0
 10
756.443826165
 20
212.4788648642
 30
0.0
 10
754.0944970874
 20
210.8255252276
 30
0.0
 10
752.5538936776
 20
209.5707856044
 30
0.0
 10
751.7789710661
 20
208.8996829368
 30
0.0
  0
SPLINE
  5
532
100
AcDbEntity
  8
KONSTRUKTIONSELEMENTE
100
AcDbSpline
 62
7
  6
CONTINUOUS
 70
0
 71
3
 72
21
 73
17
 74
0
 42
0.0000001
 43
0.0000001
 44
0.0000000001
 40
0.0
 40
0.0
 40
0.0
 40
0.0
 40
0.162330695
 40
0.3306430881
 40
0.496728874
 40
0.6523814433
 40
0.7894763847
 40
0.8485252566
 40
0.8997431222
 40
0.9418632845
 40
0.9590723476
 40
0.9734522828
 40
0.984800752
 40
0.993021243
 40
0.9980485772
 40
1.0
 40
1.0
 40
1.0
 40
1.0
 10
755.7068930903
 20
204.3641092607
 30
0.0
 10
754.6527016182
 20
203.4511526654
 30
0.0
 10
752.5908362659
 20
201.4914818407
 30
0.0
 10
749.7379332252
 20
198.3126761331
 30
0.0
 10
747.175240736
 20
194.9665708283
 30
0.0
 10
745.0449121177
 20
191.6446163609
 30
0.0
 10
743.6626442188
 20
188.9487307841
 30
0.0
 10
742.8869471483
 20
186.9683550348
 30
0.0
 10
742.5062170086
 20
185.714353309
 30
0.0
 10
742.3168182609
 20
184.7813568906
 30
0.0
 10
742.2537493322
 20
184.15084781
 30
0.0
 10
742.2426804763
 20
183.7817336549
 30
0.0
 10
742.2590542794
 20
183.4902172571
 30
0.0
 10
742.2910379441
 20
183.2807814542
 30
0.0
 10
742.323742697
 20
183.1545034163
 30
0.0
 10
742.3428194097
 20
183.0972674625
 30
0.0
 10
742.3506402558
 20
183.0824390755
 30
0.0
  0
SPLINE
  5
533
100
AcDbEntity
  8
KONSTRUKTIONSELEMENTE
100
AcDbSpline
 62
7
  6
CONTINUOUS
 70
0
 71
3
 72
11
 73
7
 74
0
 42
0.0000001
 43
0.0000001
 44
0.0000000001
 40
0.0
 40
0.0
 40
0.0
 40
0.0
 40
0.2097914905
 40
0.4448755675
 40
0.7092742741
 40
1.0
 40
1.0
 40
1.0
 40
1.0
 10
743.6099147332
 20
177.2441501203
 30
0.0
 10
744.5785964256
 20
177.3631427101
 30
0.0
 10
746.5957784304
 20
177.9173897599
 30
0.0
 10
749.5751640136
 20
179.3567654301
 30
0.0
 10
752.664141105
 20
181.3641759255
 30
0.0
 10
754.6845189618
 20
182.9787072933
 30
0.0
 10
755.7068930903
 20
183.8641092607
 30
0.0
  0
SPLINE
  5
534
100
AcDbEntity
  8
BEZUGSACHSEN
100
AcDbSpline
 62
7
  6
CONTINUOUS
 70
0
 71
3
 72
8
 73
4
 74
0
 42
0.0000001
 43
0.0000001
 44
0.0000000001
 40
0.0
 40
0.0
 40
0.0
 40
0.0
 40
1.0
 40
1.0
 40
1.0
 40
1.0
 10
777.366692444
 20
219.5296778072
 30
0.0
 10
777.3650245058
 20
219.5229896615
 30
0.0
 10
777.3650239501
 20
219.5156872181
 30
0.0
 10
777.3666909456
 20
219.5089988373
 30
0.0
  0
LINE
  5
535
100
AcDbEntity
  8
BEZUGSACHSEN
100
AcDbLine
 62
7
  6
CONTINUOUS
 10
776.1867756099
 20
213.9354106455
 11
776.1765918027
 21
213.8997589033
  0
LINE
  5
536
100
AcDbEntity
  8
BEZUGSACHSEN
100
AcDbLine
 62
7
  6
CONTINUOUS
 10
776.1765918027
 20
213.8997589033
 11
776.063223237
 21
213.5023224774
  0
LINE
  5
537
100
AcDbEntity
  8
BEZUGSACHSEN
100
AcDbLine
 62
7
  6
CONTINUOUS
 10
776.0462799134
 20
212.4766689104
 11
776.2434252706
 21
213.2275308135
  0
LINE
  5
538
100
AcDbEntity
  8
BEZUGSACHSEN
100
AcDbLine
 62
7
  6
CONTINUOUS
 10
776.2434252706
 20
213.2275308135
 11
776.2566663934
 21
213.2779608439
  0
LINE
  5
539
100
AcDbEntity
  8
BEZUGSACHSEN
100
AcDbLine
 62
7
  6
CONTINUOUS
 10
776.0875581759
 20
214.2013358385
 11
776.1034728711
 21
214.2757800384
  0
SPLINE
  5
53A
100
AcDbEntity
  8
BEZUGSACHSEN
100
AcDbSpline
 62
7
  6
CONTINUOUS
 70
0
 71
3
 72
8
 73
4
 74
0
 42
0.0000001
 43
0.0000001
 44
0.0000000001
 40
0.0
 40
0.0
 40
0.0
 40
0.0
 40
1.0
 40
1.0
 40
1.0
 40
1.0
 10
777.569138991
 20
220.3180941028
 30
0.0
 10
777.5640151101
 20
220.3114799032
 30
0.0
 10
777.5597207138
 20
220.3038719981
 30
0.0
 10
777.5576966216
 20
220.2957538184
 30
0.0
  0
LINE
  5
53B
100
AcDbEntity
  8
BEZUGSACHSEN
100
AcDbLine
 62
7
  6
CONTINUOUS
 10
777.3372995742
 20
219.3741496333
 11
777.306675269
 21
219.2435885963
  0
LINE
  5
53C
100
AcDbEntity
  8
BEZUGSACHSEN
100
AcDbLine
 62
7
  6
CONTINUOUS
 10
776.3541227648
 20
215.4119182115
 11
776.4519376159
 21
215.7912317453
  0
LINE
  5
53D
100
AcDbEntity
  8
BEZUGSACHSEN
100
AcDbLine
 62
7
  6
CONTINUOUS
 10
776.2874892406
 20
215.1620464869
 11
776.3040160211
 21
215.2242859557
  0
SPLINE
  5
53E
100
AcDbEntity
  8
BEZUGSACHSEN
100
AcDbSpline
 62
7
  6
CONTINUOUS
 70
0
 71
3
 72
9
 73
5
 74
0
 42
0.0000001
 43
0.0000001
 44
0.0000000001
 40
0.0
 40
0.0
 40
0.0
 40
0.0
 40
0.5113161758
 40
1.0
 40
1.0
 40
1.0
 40
1.0
 10
776.2582015061
 20
215.074060583
 30
0.0
 10
776.257388542
 20
215.0727418468
 30
0.0
 10
776.2559005718
 20
215.0700979343
 30
0.0
 10
776.2546564463
 20
215.0673296812
 30
0.0
 10
776.2541178207
 20
215.0659505147
 30
0.0
  0
LINE
  5
53F
100
AcDbEntity
  8
BEZUGSACHSEN
100
AcDbLine
 62
7
  6
CONTINUOUS
 10
776.2541178207
 20
215.0659505147
 11
776.2524983434
 21
215.0608893622
  0
LINE
  5
540
100
AcDbEntity
  8
BEZUGSACHSEN
100
AcDbLine
 62
7
  6
CONTINUOUS
 10
776.2582015061
 20
215.074060583
 11
776.2805518417
 21
215.1637748485
  0
LINE
  5
541
100
AcDbEntity
  8
BEZUGSACHSEN
100
AcDbLine
 62
7
  6
CONTINUOUS
 10
776.2805518417
 20
215.1637748485
 11
776.3430587214
 21
215.4146746722
  0
LINE
  5
542
100
AcDbEntity
  8
BEZUGSACHSEN
100
AcDbLine
 62
7
  6
CONTINUOUS
 10
776.3430587214
 20
215.4146746722
 11
776.4377530423
 21
215.794765645
  0
LINE
  5
543
100
AcDbEntity
  8
BEZUGSACHSEN
100
AcDbLine
 62
7
  6
CONTINUOUS
 10
776.4377530423
 20
215.794765645
 11
776.5325547489
 21
216.1752785338
  0
LINE
  5
544
100
AcDbEntity
  8
BEZUGSACHSEN
100
AcDbLine
 62
7
  6
CONTINUOUS
 10
776.5325547489
 20
216.1752785338
 11
776.5646063739
 21
216.3039245985
  0
LINE
  5
545
100
AcDbEntity
  8
BEZUGSACHSEN
100
AcDbLine
 62
7
  6
CONTINUOUS
 10
776.5646063739
 20
216.3039245985
 11
777.0416316462
 21
218.2184575658
  0
LINE
  5
546
100
AcDbEntity
  8
BEZUGSACHSEN
100
AcDbLine
 62
7
  6
CONTINUOUS
 10
777.0416316462
 20
218.2184575658
 11
777.0891021766
 21
218.4089692534
  0
LINE
  5
547
100
AcDbEntity
  8
BEZUGSACHSEN
100
AcDbLine
 62
7
  6
CONTINUOUS
 10
777.0891021766
 20
218.4089692534
 11
777.1691982129
 21
218.7304116605
  0
LINE
  5
548
100
AcDbEntity
  8
BEZUGSACHSEN
100
AcDbLine
 62
7
  6
CONTINUOUS
 10
777.1691982129
 20
218.7304116605
 11
777.2653310709
 21
219.116206809
  0
LINE
  5
549
100
AcDbEntity
  8
BEZUGSACHSEN
100
AcDbLine
 62
7
  6
CONTINUOUS
 10
777.2653310709
 20
219.116206809
 11
777.3300562495
 21
219.375954541
  0
LINE
  5
54A
100
AcDbEntity
  8
BEZUGSACHSEN
100
AcDbLine
 62
7
  6
CONTINUOUS
 10
777.3300562495
 20
219.375954541
 11
777.3634127074
 21
219.509815716
  0
SPLINE
  5
54B
100
AcDbEntity
  8
BEZUGSACHSEN
100
AcDbSpline
 62
7
  6
CONTINUOUS
 70
0
 71
3
 72
8
 73
4
 74
0
 42
0.0000001
 43
0.0000001
 44
0.0000000001
 40
0.0
 40
0.0
 40
0.0
 40
0.0
 40
1.0
 40
1.0
 40
1.0
 40
1.0
 10
777.5576966216
 20
220.2957538184
 30
0.0
 10
777.5560097588
 20
220.2889881906
 30
0.0
 10
777.5559861666
 20
220.2816103592
 30
0.0
 10
777.5576362168
 20
220.2748356592
 30
0.0
  0
SPLINE
  5
54C
100
AcDbEntity
  8
BEZUGSACHSEN
100
AcDbSpline
 62
7
  6
CONTINUOUS
 70
0
 71
3
 72
9
 73
5
 74
0
 42
0.0000001
 43
0.0000001
 44
0.0000000001
 40
0.0
 40
0.0
 40
0.0
 40
0.0
 40
0.5035926131
 40
1.0
 40
1.0
 40
1.0
 40
1.0
 10
776.2524983434
 20
215.0608893622
 30
0.0
 10
776.2520416432
 20
215.0590581632
 30
0.0
 10
776.251397587
 20
215.055349905
 30
0.0
 10
776.251337798
 20
215.0515853848
 30
0.0
 10
776.2514530961
 20
215.0497285984
 30
0.0
  0
SPLINE
  5
54D
100
AcDbEntity
  8
BEZUGSACHSEN
100
AcDbSpline
 62
7
  6
CONTINUOUS
 70
0
 71
3
 72
9
 73
5
 74
0
 42
0.0000001
 43
0.0000001
 44
0.0000000001
 40
0.0
 40
0.0
 40
0.0
 40
0.0
 40
0.4952047052
 40
1.0
 40
1.0
 40
1.0
 40
1.0
 10
776.2514530961
 20
215.0497285984
 30
0.0
 10
776.2515374746
 20
215.0483697463
 30
0.0
 10
776.2518642286
 20
215.0456333559
 30
0.0
 10
776.2524902858
 20
215.0429502187
 30
0.0
 10
776.2528749325
 20
215.0416167503
 30
0.0
  0
LINE
  5
54E
100
AcDbEntity
  8
BEZUGSACHSEN
100
AcDbLine
 62
7
  6
CONTINUOUS
 10
776.2990382634
 20
215.1458245706
 11
776.4295689321
 21
215.6527776641
  0
LINE
  5
54F
100
AcDbEntity
  8
BEZUGSACHSEN
100
AcDbLine
 62
7
  6
CONTINUOUS
 10
776.4295689321
 20
215.6527776641
 11
776.5901436017
 21
216.2891725874
  0
LINE
  5
550
100
AcDbEntity
  8
BEZUGSACHSEN
100
AcDbLine
 62
7
  6
CONTINUOUS
 10
777.066342002
 20
218.203764821
 11
776.5901436017
 21
216.2891725874
  0
LINE
  5
551
100
AcDbEntity
  8
BEZUGSACHSEN
100
AcDbLine
 62
7
  6
CONTINUOUS
 10
777.2234146112
 20
218.8437649585
 11
777.066342002
 21
218.203764821
  0
LINE
  5
552
100
AcDbEntity
  8
BEZUGSACHSEN
100
AcDbLine
 62
7
  6
CONTINUOUS
 10
777.3473652659
 20
219.3579277169
 11
777.2234146112
 21
218.8437649585
  0
LINE
  5
553
100
AcDbEntity
  8
BEZUGSACHSEN
100
AcDbLine
 62
7
  6
CONTINUOUS
 10
777.350442055
 20
219.3710679303
 11
777.3473652659
 21
219.3579277169
  0
SPLINE
  5
554
100
AcDbEntity
  8
KONSTRUKTIONSELEMENTE
100
AcDbSpline
 62
7
  6
CONTINUOUS
 70
0
 71
3
 72
9
 73
5
 74
0
 42
0.0000001
 43
0.0000001
 44
0.0000000001
 40
0.0
 40
0.0
 40
0.0
 40
0.0
 40
0.2415875307
 40
1.0
 40
1.0
 40
1.0
 40
1.0
 10
799.216173717
 20
144.6638888931
 30
0.0
 10
799.3813076741
 20
144.9097339877
 30
0.0
 10
800.0458290356
 20
145.9401602154
 30
0.0
 10
800.6450705081
 20
147.0113691223
 30
0.0
 10
801.0786379004
 20
147.8338059535
 30
0.0
  0
SPLINE
  5
555
100
AcDbEntity
  8
0
100
AcDbSpline
 62
7
  6
CONTINUOUS
 70
0
 71
3
 72
13
 73
9
 74
0
 42
0.0000001
 43
0.0000001
 44
0.0000000001
 40
0.0
 40
0.0
 40
0.0
 40
0.0
 40
0.1163022989
 40
0.2340384143
 40
0.3543787598
 40
0.4780390196
 40
0.7344045068
 40
1.0
 40
1.0
 40
1.0
 40
1.0
 10
791.2949700961
 20
159.6858543431
 30
0.0
 10
791.2949637615
 20
159.2607549979
 30
0.0
 10
791.1967865306
 20
158.4022291745
 30
0.0
 10
790.7626371731
 20
157.1711745893
 30
0.0
 10
790.0596881193
 20
156.0393181831
 30
0.0
 10
788.7904907922
 20
154.7071496142
 30
0.0
 10
786.6892003665
 20
153.5129615893
 30
0.0
 10
784.765754789
 20
153.1908248834
 30
0.0
 10
783.7949702786
 20
153.1908248834
 30
0.0
  0
SPLINE
  5
556
100
AcDbEntity
  8
BEZUGSACHSEN
100
AcDbSpline
 62
7
  6
CONTINUOUS
 70
0
 71
3
 72
8
 73
4
 74
0
 42
0.0000001
 43
0.0000001
 44
0.0000000001
 40
0.0
 40
0.0
 40
0.0
 40
0.0
 40
1.0
 40
1.0
 40
1.0
 40
1.0
 10
791.52844715
 20
214.2948103372
 30
0.0
 10
791.5299822341
 20
214.2886535666
 30
0.0
 10
791.5298024097
 20
214.2818634025
 30
0.0
 10
791.5279989235
 20
214.275779839
 30
0.0
  0
SPLINE
  5
557
100
AcDbEntity
  8
0
100
AcDbSpline
 62
7
  6
CONTINUOUS
 70
0
 71
3
 72
13
 73
9
 74
0
 42
0.0000001
 43
0.0000001
 44
0.0000000001
 40
0.0
 40
0.0
 40
0.0
 40
0.0
 40
0.2655954932
 40
0.5219609804
 40
0.6456212402
 40
0.7659615857
 40
0.8836977011
 40
1.0
 40
1.0
 40
1.0
 40
1.0
 10
783.7949702786
 20
153.1908248834
 30
0.0
 10
782.8241857682
 20
153.1908248834
 30
0.0
 10
780.9007401908
 20
153.5129615894
 30
0.0
 10
778.7994497651
 20
154.7071496142
 30
0.0
 10
777.5302524379
 20
156.0393181831
 30
0.0
 10
776.8273033841
 20
157.1711745893
 30
0.0
 10
776.3931540267
 20
158.4022291745
 30
0.0
 10
776.2949767958
 20
159.2607549979
 30
0.0
 10
776.2949704611
 20
159.6858543431
 30
0.0
  0
SPLINE
  5
558
100
AcDbEntity
  8
KONSTRUKTIONSELEMENTE
100
AcDbSpline
 62
7
  6
CONTINUOUS
 70
0
 71
3
 72
10
 73
6
 74
0
 42
0.0000001
 43
0.0000001
 44
0.0000000001
 40
0.0
 40
0.0
 40
0.0
 40
0.0
 40
0.4958514465
 40
0.7559167494
 40
1.0
 40
1.0
 40
1.0
 40
1.0
 10
800.4618059676
 20
146.7015624202
 30
0.0
 10
800.7933200065
 20
145.7439293467
 30
0.0
 10
801.2701654377
 20
144.2711818467
 30
0.0
 10
801.6958327195
 20
142.2702819904
 30
0.0
 10
801.7949702786
 20
141.2399407589
 30
0.0
 10
801.7949702786
 20
140.7410979444
 30
0.0
  0
SPLINE
  5
559
100
AcDbEntity
  8
KONSTRUKTIONSELEMENTE
100
AcDbSpline
 62
7
  6
CONTINUOUS
 70
0
 71
3
 72
9
 73
5
 74
0
 42
0.0000001
 43
0.0000001
 44
0.0000000001
 40
0.0
 40
0.0
 40
0.0
 40
0.0
 40
0.554631862
 40
1.0
 40
1.0
 40
1.0
 40
1.0
 10
801.0786379004
 20
147.8338059535
 30
0.0
 10
801.2880565982
 20
148.2310536555
 30
0.0
 10
801.6214906672
 20
148.971109354
 30
0.0
 10
801.7949702786
 20
149.7773892167
 30
0.0
 10
801.7949702786
 20
150.1379896849
 30
0.0
  0
LINE
  5
55A
100
AcDbEntity
  8
0
100
AcDbLine
 62
7
  6
CONTINUOUS
 10
776.106226676
 20
183.6453251094
 11
776.1005853469
 21
183.6390913411
  0
SPLINE
  5
55B
100
AcDbEntity
  8
0
100
AcDbSpline
 62
7
  6
CONTINUOUS
 70
0
 71
3
 72
9
 73
5
 74
0
 42
0.0000001
 43
0.0000001
 44
0.0000000001
 40
0.0
 40
0.0
 40
0.0
 40
0.0
 40
0.498849579
 40
1.0
 40
1.0
 40
1.0
 40
1.0
 10
765.7949702786
 20
125.5587014537
 30
0.0
 10
765.7949702786
 20
125.161638538
 30
0.0
 10
765.9079985316
 20
124.361713946
 30
0.0
 10
766.2369750133
 20
123.6246906399
 30
0.0
 10
766.4463081358
 20
123.2851375566
 30
0.0
  0
SPLINE
  5
55C
100
AcDbEntity
  8
0
100
AcDbSpline
 62
7
  6
CONTINUOUS
 70
0
 71
3
 72
9
 73
5
 74
0
 42
0.0000001
 43
0.0000001
 44
0.0000000001
 40
0.0
 40
0.0
 40
0.0
 40
0.0
 40
0.5028158989
 40
1.0
 40
1.0
 40
1.0
 40
1.0
 10
767.2026664597
 20
169.5992633816
 30
0.0
 10
766.7528961563
 20
168.9246079265
 30
0.0
 10
766.0415175865
 20
167.4492193897
 30
0.0
 10
765.7949702786
 20
165.8275145493
 30
0.0
 10
765.7949702786
 20
165.025761374
 30
0.0
  0
SPLINE
  5
55D
100
AcDbEntity
  8
0
100
AcDbSpline
 62
7
  6
CONTINUOUS
 70
0
 71
3
 72
9
 73
5
 74
0
 42
0.0000001
 43
0.0000001
 44
0.0000000001
 40
0.0
 40
0.0
 40
0.0
 40
0.0
 40
0.2470538752
 40
1.0
 40
1.0
 40
1.0
 40
1.0
 10
779.3392584535
 20
225.3256900017
 30
0.0
 10
779.3575327381
 20
225.3989630075
 30
0.0
 10
779.4359266337
 20
225.6944381574
 30
0.0
 10
779.5314072254
 20
225.9853054569
 30
0.0
 10
779.6113817582
 20
226.201118257
 30
0.0
  0
LINE
  5
55E
100
AcDbEntity
  8
RUNDUNGEN
100
AcDbLine
 62
7
  6
CONTINUOUS
 10
791.4803582221
 20
183.6490369073
 11
791.4889259114
 21
183.6395654481
  0
SPLINE
  5
55F
100
AcDbEntity
  8
RUNDUNGEN
100
AcDbSpline
 62
7
  6
CONTINUOUS
 70
0
 71
3
 72
9
 73
5
 74
0
 42
0.0000001
 43
0.0000001
 44
0.0000000001
 40
0.0
 40
0.0
 40
0.0
 40
0.0
 40
0.4990356833
 40
1.0
 40
1.0
 40
1.0
 40
1.0
 10
801.7949702786
 20
125.5587014537
 30
0.0
 10
801.7949702786
 20
125.1946658105
 30
0.0
 10
801.7002092713
 20
124.4621357212
 30
0.0
 10
801.4229998098
 20
123.7780264629
 30
0.0
 10
801.2453360998
 20
123.4586773506
 30
0.0
  0
SPLINE
  5
560
100
AcDbEntity
  8
0
100
AcDbSpline
 62
7
  6
CONTINUOUS
 70
0
 71
3
 72
9
 73
5
 74
0
 42
0.0000001
 43
0.0000001
 44
0.0000000001
 40
0.0
 40
0.0
 40
0.0
 40
0.0
 40
0.2470390465
 40
1.0
 40
1.0
 40
1.0
 40
1.0
 10
768.3737668402
 20
144.6638888931
 30
0.0
 10
768.6185485065
 20
144.2994673474
 30
0.0
 10
769.6700340837
 20
142.8656416881
 30
0.0
 10
770.9565977479
 20
141.6067205393
 30
0.0
 10
772.0134338755
 20
140.786069339
 30
0.0
  0
SPLINE
  5
561
100
AcDbEntity
  8
RUNDUNGEN
100
AcDbSpline
 62
7
  6
CONTINUOUS
 70
0
 71
3
 72
9
 73
5
 74
0
 42
0.0000001
 43
0.0000001
 44
0.0000000001
 40
0.0
 40
0.0
 40
0.0
 40
0.0
 40
0.5028158989
 40
1.0
 40
1.0
 40
1.0
 40
1.0
 10
800.3872740976
 20
169.5992633816
 30
0.0
 10
800.8370444009
 20
168.9246079265
 30
0.0
 10
801.5484229708
 20
167.4492193897
 30
0.0
 10
801.7949702786
 20
165.8275145493
 30
0.0
 10
801.7949702786
 20
165.025761374
 30
0.0
  0
SPLINE
  5
562
100
AcDbEntity
  8
0
100
AcDbSpline
 62
7
  6
CONTINUOUS
 70
0
 71
3
 72
15
 73
11
 74
0
 42
0.0000001
 43
0.0000001
 44
0.0000000001
 40
0.0
 40
0.0
 40
0.0
 40
0.0
 40
0.1179873313
 40
0.2411539706
 40
0.369148516
 40
0.5
 40
0.630851484
 40
0.7588460294
 40
0.8820126687
 40
1.0
 40
1.0
 40
1.0
 40
1.0
 10
770.133059612
 20
142.4852930928
 30
0.0
 10
770.6498975313
 20
141.2663410755
 30
0.0
 10
772.1491044698
 20
138.9446870203
 30
0.0
 10
775.4070451911
 20
136.2923895914
 30
0.0
 10
779.4089944879
 20
134.6080925028
 30
0.0
 10
783.7949702786
 20
134.0320703855
 30
0.0
 10
788.1809460693
 20
134.6080925028
 30
0.0
 10
792.1828953662
 20
136.2923895914
 30
0.0
 10
795.4408360875
 20
138.9446870203
 30
0.0
 10
796.9400430259
 20
141.2663410755
 30
0.0
 10
797.4568809452
 20
142.4852930928
 30
0.0
  0
SPLINE
  5
563
100
AcDbEntity
  8
0
100
AcDbSpline
 62
7
  6
CONTINUOUS
 70
0
 71
3
 72
9
 73
5
 74
0
 42
0.0000001
 43
0.0000001
 44
0.0000000001
 40
0.0
 40
0.0
 40
0.0
 40
0.0
 40
0.2536916473
 40
1.0
 40
1.0
 40
1.0
 40
1.0
 10
795.5733187193
 20
140.7835944181
 30
0.0
 10
795.9297117273
 20
141.0602086043
 30
0.0
 10
797.2922433594
 20
142.2037180903
 30
0.0
 10
798.4761561146
 20
143.5621791017
 30
0.0
 10
799.216173717
 20
144.6638888931
 30
0.0
  0
SPLINE
  5
564
100
AcDbEntity
  8
0
100
AcDbSpline
 62
7
  6
CONTINUOUS
 70
0
 71
3
 72
9
 73
5
 74
0
 42
0.0000001
 43
0.0000001
 44
0.0000000001
 40
0.0
 40
0.0
 40
0.0
 40
0.0
 40
0.2470538752
 40
1.0
 40
1.0
 40
1.0
 40
1.0
 10
788.2506821038
 20
225.3256900017
 30
0.0
 10
788.2324078191
 20
225.3989630075
 30
0.0
 10
788.1540139235
 20
225.6944381574
 30
0.0
 10
788.0585333318
 20
225.9853054569
 30
0.0
 10
787.9785587991
 20
226.201118257
 30
0.0
  0
SPLINE
  5
565
100
AcDbEntity
  8
0
100
AcDbSpline
 62
7
  6
CONTINUOUS
 70
0
 71
3
 72
9
 73
5
 74
0
 42
0.0000001
 43
0.0000001
 44
0.0000000001
 40
0.0
 40
0.0
 40
0.0
 40
0.0
 40
0.2415875307
 40
1.0
 40
1.0
 40
1.0
 40
1.0
 10
768.3737668402
 20
144.6638888931
 30
0.0
 10
768.2086328831
 20
144.9097339877
 30
0.0
 10
767.5441115216
 20
145.9401602154
 30
0.0
 10
766.9448700491
 20
147.0113691223
 30
0.0
 10
766.5113026568
 20
147.8338059535
 30
0.0
  0
SPLINE
  5
566
100
AcDbEntity
  8
0
100
AcDbSpline
 62
7
  6
CONTINUOUS
 70
0
 71
3
 72
10
 73
6
 74
0
 42
0.0000001
 43
0.0000001
 44
0.0000000001
 40
0.0
 40
0.0
 40
0.0
 40
0.0
 40
0.4958514465
 40
0.7559167494
 40
1.0
 40
1.0
 40
1.0
 40
1.0
 10
767.1281345896
 20
146.7015624202
 30
0.0
 10
766.7966205508
 20
145.7439293467
 30
0.0
 10
766.3197751195
 20
144.2711818467
 30
0.0
 10
765.8941078377
 20
142.2702819904
 30
0.0
 10
765.7949702786
 20
141.2399407589
 30
0.0
 10
765.7949702786
 20
140.7410979444
 30
0.0
  0
SPLINE
  5
567
100
AcDbEntity
  8
0
100
AcDbSpline
 62
7
  6
CONTINUOUS
 70
0
 71
3
 72
9
 73
5
 74
0
 42
0.0000001
 43
0.0000001
 44
0.0000000001
 40
0.0
 40
0.0
 40
0.0
 40
0.0
 40
0.554631862
 40
1.0
 40
1.0
 40
1.0
 40
1.0
 10
766.5113026568
 20
147.8338059535
 30
0.0
 10
766.301883959
 20
148.2310536555
 30
0.0
 10
765.96844989
 20
148.971109354
 30
0.0
 10
765.7949702786
 20
149.7773892167
 30
0.0
 10
765.7949702786
 20
150.1379896849
 30
0.0
  0
LINE
  5
568
100
AcDbEntity
  8
BEZUGSACHSEN
100
AcDbLine
 62
7
  6
CONTINUOUS
 10
790.8097865455
 20
216.0001060443
 11
790.9043459208
 21
215.6726148561
  0
LINE
  5
569
100
AcDbEntity
  8
BEZUGSACHSEN
100
AcDbLine
 62
7
  6
CONTINUOUS
 10
790.9043459208
 20
215.6726148561
 11
790.9308672943
 21
215.5806654391
  0
LINE
  5
56A
100
AcDbEntity
  8
BEZUGSACHSEN
100
AcDbLine
 62
7
  6
CONTINUOUS
 10
790.9308672943
 20
215.5806654391
 11
790.9951613178
 21
215.3575771182
  0
LINE
  5
56B
100
AcDbEntity
  8
BEZUGSACHSEN
100
AcDbLine
 62
7
  6
CONTINUOUS
 10
790.9951613178
 20
215.3575771182
 11
791.0755973071
 21
215.0781078598
  0
LINE
  5
56C
100
AcDbEntity
  8
BEZUGSACHSEN
100
AcDbLine
 62
7
  6
CONTINUOUS
 10
790.7412738217
 20
216.3705951653
 11
790.6096629412
 21
216.9513151034
  0
LINE
  5
56D
100
AcDbEntity
  8
BEZUGSACHSEN
100
AcDbLine
 62
7
  6
CONTINUOUS
 10
790.6096629412
 20
216.9513151034
 11
790.5127295544
 21
217.3467904352
  0
LINE
  5
56E
100
AcDbEntity
  8
BEZUGSACHSEN
100
AcDbLine
 62
7
  6
CONTINUOUS
 10
790.3856885794
 20
217.8313556936
 11
790.5127295544
 21
217.3467904352
  0
LINE
  5
56F
100
AcDbEntity
  8
BEZUGSACHSEN
100
AcDbLine
 62
7
  6
CONTINUOUS
 10
790.2919960211
 20
218.1627277404
 11
790.3155054846
 21
218.0796196722
  0
LINE
  5
570
100
AcDbEntity
  8
BEZUGSACHSEN
100
AcDbLine
 62
7
  6
CONTINUOUS
 10
790.3155054846
 20
218.0796196722
 11
790.3856885794
 21
217.8313556936
  0
LINE
  5
571
100
AcDbEntity
  8
BEZUGSACHSEN
100
AcDbLine
 62
7
  6
CONTINUOUS
 10
790.1691583407
 20
218.5511376405
 11
790.2813649926
 21
218.1964490712
  0
LINE
  5
572
100
AcDbEntity
  8
BEZUGSACHSEN
100
AcDbLine
 62
7
  6
CONTINUOUS
 10
790.2813649926
 20
218.1964490712
 11
790.2919960211
 21
218.1627277404
  0
LINE
  5
573
100
AcDbEntity
  8
BEZUGSACHSEN
100
AcDbLine
 62
7
  6
CONTINUOUS
 10
791.5436606438
 20
212.4766689104
 11
790.8756906805
 21
215.0206350748
  0
LINE
  5
574
100
AcDbEntity
  8
BEZUGSACHSEN
100
AcDbLine
 62
7
  6
CONTINUOUS
 10
790.6848281337
 20
215.7474824534
 11
790.2076488678
 21
217.5646012393
  0
LINE
  5
575
100
AcDbEntity
  8
BEZUGSACHSEN
100
AcDbLine
 62
7
  6
CONTINUOUS
 10
790.049060567
 20
220.0860018896
 11
790.1375714527
 21
219.7345080734
  0
LINE
  5
576
100
AcDbEntity
  8
BEZUGSACHSEN
100
AcDbLine
 62
7
  6
CONTINUOUS
 10
790.1375714527
 20
219.7345080734
 11
790.4196536765
 21
218.6142060588
  0
LINE
  5
577
100
AcDbEntity
  8
BEZUGSACHSEN
100
AcDbLine
 62
7
  6
CONTINUOUS
 10
790.4196536765
 20
218.6142060588
 11
790.5189356201
 21
218.2198654329
  0
LINE
  5
578
100
AcDbEntity
  8
BEZUGSACHSEN
100
AcDbLine
 62
7
  6
CONTINUOUS
 10
790.5189356201
 20
218.2198654329
 11
790.6029738483
 21
217.8860553935
  0
LINE
  5
579
100
AcDbEntity
  8
BEZUGSACHSEN
100
AcDbLine
 62
7
  6
CONTINUOUS
 10
790.6029738483
 20
217.8860553935
 11
790.7252597444
 21
217.4002930878
  0
LINE
  5
57A
100
AcDbEntity
  8
BEZUGSACHSEN
100
AcDbLine
 62
7
  6
CONTINUOUS
 10
790.7252597444
 20
217.4002930878
 11
790.8246561422
 21
217.005430475
  0
LINE
  5
57B
100
AcDbEntity
  8
BEZUGSACHSEN
100
AcDbLine
 62
7
  6
CONTINUOUS
 10
790.8246561422
 20
217.005430475
 11
790.9699589378
 21
216.4281569011
  0
LINE
  5
57C
100
AcDbEntity
  8
BEZUGSACHSEN
100
AcDbLine
 62
7
  6
CONTINUOUS
 10
790.9699589378
 20
216.4281569011
 11
791.0111330577
 21
216.2645665928
  0
LINE
  5
57D
100
AcDbEntity
  8
BEZUGSACHSEN
100
AcDbLine
 62
7
  6
CONTINUOUS
 10
791.1528397829
 20
215.3095310222
 11
791.2496711939
 21
214.9621150633
  0
LINE
  5
57E
100
AcDbEntity
  8
BEZUGSACHSEN
100
AcDbLine
 62
7
  6
CONTINUOUS
 10
791.0247779156
 20
215.7986373943
 11
791.1528397829
 21
215.3095310222
  0
LINE
  5
57F
100
AcDbEntity
  8
BEZUGSACHSEN
100
AcDbLine
 62
7
  6
CONTINUOUS
 10
791.0247779156
 20
215.7986373943
 11
790.9641615328
 21
216.0390327095
  0
LINE
  5
580
100
AcDbEntity
  8
BEZUGSACHSEN
100
AcDbLine
 62
7
  6
CONTINUOUS
 10
790.9641615328
 20
216.0390327095
 11
790.8722296241
 21
216.4036165271
  0
LINE
  5
581
100
AcDbEntity
  8
BEZUGSACHSEN
100
AcDbLine
 62
7
  6
CONTINUOUS
 10
790.8722296241
 20
216.4036165271
 11
790.7808622995
 21
216.7659565781
  0
LINE
  5
582
100
AcDbEntity
  8
BEZUGSACHSEN
100
AcDbLine
 62
7
  6
CONTINUOUS
 10
790.7808622995
 20
216.7659565781
 11
790.7266812499
 21
216.9808229608
  0
LINE
  5
583
100
AcDbEntity
  8
BEZUGSACHSEN
100
AcDbLine
 62
7
  6
CONTINUOUS
 10
790.7266812499
 20
216.9808229608
 11
790.6271234134
 21
217.3756364989
  0
LINE
  5
584
100
AcDbEntity
  8
BEZUGSACHSEN
100
AcDbLine
 62
7
  6
CONTINUOUS
 10
790.6271234134
 20
217.3756364989
 11
790.5351875037
 21
217.7402194665
  0
LINE
  5
585
100
AcDbEntity
  8
BEZUGSACHSEN
100
AcDbLine
 62
7
  6
CONTINUOUS
 10
790.5351875037
 20
217.7402194665
 11
790.5046415201
 21
217.8613523265
  0
LINE
  5
586
100
AcDbEntity
  8
BEZUGSACHSEN
100
AcDbLine
 62
7
  6
CONTINUOUS
 10
790.5046415201
 20
217.8613523265
 11
790.4204734244
 21
218.1951261765
  0
LINE
  5
587
100
AcDbEntity
  8
BEZUGSACHSEN
100
AcDbLine
 62
7
  6
CONTINUOUS
 10
790.4204734244
 20
218.1951261765
 11
790.3210384197
 21
218.5894375861
  0
LINE
  5
588
100
AcDbEntity
  8
BEZUGSACHSEN
100
AcDbLine
 62
7
  6
CONTINUOUS
 10
790.3210384197
 20
218.5894375861
 11
790.2877540932
 21
218.7214261985
  0
LINE
  5
589
100
AcDbEntity
  8
BEZUGSACHSEN
100
AcDbLine
 62
7
  6
CONTINUOUS
 10
790.2877540932
 20
218.7214261985
 11
790.259836821
 21
218.8321314322
  0
LINE
  5
58A
100
AcDbEntity
  8
BEZUGSACHSEN
100
AcDbLine
 62
7
  6
CONTINUOUS
 10
790.259836821
 20
218.8321314322
 11
790.0603068082
 21
219.623352686
  0
LINE
  5
58B
100
AcDbEntity
  8
BEZUGSACHSEN
100
AcDbLine
 62
7
  6
CONTINUOUS
 10
790.0603068082
 20
219.623352686
 11
790.0385625481
 21
219.7095768924
  0
LINE
  5
58C
100
AcDbEntity
  8
BEZUGSACHSEN
100
AcDbLine
 62
7
  6
CONTINUOUS
 10
791.5373380472
 20
213.9975216692
 11
791.5288124598
 21
214.048488426
  0
LINE
  5
58D
100
AcDbEntity
  8
BEZUGSACHSEN
100
AcDbLine
 62
7
  6
CONTINUOUS
 10
791.43462494
 20
214.5157784375
 11
791.3688093888
 21
214.7976027326
  0
LINE
  5
58E
100
AcDbEntity
  8
BEZUGSACHSEN
100
AcDbLine
 62
7
  6
CONTINUOUS
 10
791.3688093888
 20
214.7976027326
 11
791.3355103907
 21
214.9396821444
  0
LINE
  5
58F
100
AcDbEntity
  8
BEZUGSACHSEN
100
AcDbLine
 62
7
  6
CONTINUOUS
 10
791.3355103907
 20
214.9396821444
 11
791.3260342541
 21
214.9800537546
  0
LINE
  5
590
100
AcDbEntity
  8
BEZUGSACHSEN
100
AcDbLine
 62
7
  6
CONTINUOUS
 10
791.3260342541
 20
214.9800537546
 11
791.3019503417
 21
215.0825396906
  0
LINE
  5
591
100
AcDbEntity
  8
BEZUGSACHSEN
100
AcDbLine
 62
7
  6
CONTINUOUS
 10
791.3019503417
 20
215.0825396906
 11
791.2370372827
 21
215.3495161515
  0
LINE
  5
592
100
AcDbEntity
  8
BEZUGSACHSEN
100
AcDbLine
 62
7
  6
CONTINUOUS
 10
791.2370372827
 20
215.3495161515
 11
791.2043979774
 21
215.483659264
  0
LINE
  5
593
100
AcDbEntity
  8
BEZUGSACHSEN
100
AcDbLine
 62
7
  6
CONTINUOUS
 10
791.2043979774
 20
215.483659264
 11
791.1716368969
 21
215.6182389821
  0
LINE
  5
594
100
AcDbEntity
  8
BEZUGSACHSEN
100
AcDbLine
 62
7
  6
CONTINUOUS
 10
791.1716368969
 20
215.6182389821
 11
791.120912875
 21
215.8225102553
  0
LINE
  5
595
100
AcDbEntity
  8
BEZUGSACHSEN
100
AcDbLine
 62
7
  6
CONTINUOUS
 10
791.120912875
 20
215.8225102553
 11
791.0915450732
 21
215.9407723677
  0
LINE
  5
596
100
AcDbEntity
  8
BEZUGSACHSEN
100
AcDbLine
 62
7
  6
CONTINUOUS
 10
791.0915450732
 20
215.9407723677
 11
791.0111330577
 21
216.2645665928
  0
SPLINE
  5
597
100
AcDbEntity
  8
0
100
AcDbSpline
 62
7
  6
CONTINUOUS
 70
0
 71
3
 72
11
 73
7
 74
0
 42
0.0000001
 43
0.0000001
 44
0.0000000001
 40
0.0
 40
0.0
 40
0.0
 40
0.0
 40
0.2642372364
 40
0.5182086343
 40
0.7622007161
 40
1.0
 40
1.0
 40
1.0
 40
1.0
 10
786.7152959902
 20
165.6685962348
 30
0.0
 10
787.3765531963
 20
165.4265076014
 30
0.0
 10
788.6193913224
 20
164.7802135791
 30
0.0
 10
790.1107875101
 20
163.359406708
 30
0.0
 10
791.0722046585
 20
161.6133409327
 30
0.0
 10
791.2949795396
 20
160.3195774823
 30
0.0
 10
791.2949700961
 20
159.6858543431
 30
0.0
  0
SPLINE
  5
598
100
AcDbEntity
  8
KONSTRUKTIONSELEMENTE
100
AcDbSpline
 62
7
  6
CONTINUOUS
 70
0
 71
3
 72
9
 73
5
 74
0
 42
0.0000001
 43
0.0000001
 44
0.0000000001
 40
0.0
 40
0.0
 40
0.0
 40
0.0
 40
0.2218857587
 40
1.0
 40
1.0
 40
1.0
 40
1.0
 10
801.0786379004
 20
128.8169902868
 30
0.0
 10
800.9267427919
 20
128.6680993173
 30
0.0
 10
800.2564667977
 20
127.9825280773
 30
0.0
 10
799.6521121508
 20
127.2336005689
 30
0.0
 10
799.216173717
 20
126.6283579291
 30
0.0
  0
SPLINE
  5
599
100
AcDbEntity
  8
0
100
AcDbSpline
 62
7
  6
CONTINUOUS
 70
0
 71
3
 72
9
 73
5
 74
0
 42
0.0000001
 43
0.0000001
 44
0.0000000001
 40
0.0
 40
0.0
 40
0.0
 40
0.0
 40
0.5000000002
 40
1.0
 40
1.0
 40
1.0
 40
1.0
 10
779.6113817582
 20
226.201118257
 30
0.0
 10
779.3024791516
 20
224.5703905485
 30
0.0
 10
778.9579613453
 20
221.2452402619
 30
0.0
 10
779.3024791519
 20
217.9200899754
 30
0.0
 10
779.6113817582
 20
216.2893622683
 30
0.0
  0
SPLINE
  5
59A
100
AcDbEntity
  8
0
100
AcDbSpline
 62
7
  6
CONTINUOUS
 70
0
 71
3
 72
9
 73
5
 74
0
 42
0.0000001
 43
0.0000001
 44
0.0000000001
 40
0.0
 40
0.0
 40
0.0
 40
0.0
 40
0.5001080858
 40
1.0
 40
1.0
 40
1.0
 40
1.0
 10
779.6113817582
 20
216.2893622683
 30
0.0
 10
779.3878838629
 20
213.7771828857
 30
0.0
 10
779.085512806
 20
208.7394352575
 30
0.0
 10
779.1211756366
 20
203.6920783266
 30
0.0
 10
779.2221060871
 20
201.173088109
 30
0.0
  0
SPLINE
  5
59B
100
AcDbEntity
  8
0
100
AcDbSpline
 62
7
  6
CONTINUOUS
 70
0
 71
3
 72
19
 73
15
 74
0
 42
0.0000001
 43
0.0000001
 44
0.0000000001
 40
0.0
 40
0.0
 40
0.0
 40
0.0
 40
0.0581529382
 40
0.1170186733
 40
0.1771895919
 40
0.2390194491
 40
0.3672020887
 40
0.5
 40
0.6327979113
 40
0.7609805509
 40
0.8228104081
 40
0.8829813267
 40
0.9418470618
 40
1.0
 40
1.0
 40
1.0
 40
1.0
 10
798.3486112919
 20
139.7293082316
 30
0.0
 10
798.3486112919
 20
138.9043727754
 30
0.0
 10
798.158178163
 20
137.2383874199
 30
0.0
 10
797.3156969974
 20
134.8495210806
 30
0.0
 10
795.9516018233
 20
132.6531183006
 30
0.0
 10
793.4892753573
 20
130.0680142414
 30
0.0
 10
789.4071974993
 20
127.7506194748
 30
0.0
 10
783.7949702786
 20
126.8073908121
 30
0.0
 10
778.1827430579
 20
127.7506194748
 30
0.0
 10
774.1006652
 20
130.0680142414
 30
0.0
 10
771.638338734
 20
132.6531183006
 30
0.0
 10
770.2742435598
 20
134.8495210806
 30
0.0
 10
769.4317623943
 20
137.2383874199
 30
0.0
 10
769.2413292654
 20
138.9043727754
 30
0.0
 10
769.2413292654
 20
139.7293082316
 30
0.0
  0
SPLINE
  5
59C
100
AcDbEntity
  8
0
100
AcDbSpline
 62
7
  6
CONTINUOUS
 70
0
 71
3
 72
9
 73
5
 74
0
 42
0.0000001
 43
0.0000001
 44
0.0000000001
 40
0.0
 40
0.0
 40
0.0
 40
0.0
 40
0.5073891696
 40
1.0
 40
1.0
 40
1.0
 40
1.0
 10
783.7949702786
 20
133.3810172623
 30
0.0
 10
782.8780957042
 20
133.3810172623
 30
0.0
 10
781.0598078651
 20
133.657506674
 30
0.0
 10
779.4131360693
 20
134.4885127077
 30
0.0
 10
778.6999929789
 20
135.0212683821
 30
0.0
  0
SPLINE
  5
59D
100
AcDbEntity
  8
0
100
AcDbSpline
 62
7
  6
CONTINUOUS
 70
0
 71
3
 72
15
 73
11
 74
0
 42
0.0000001
 43
0.0000001
 44
0.0000000001
 40
0.0
 40
0.0
 40
0.0
 40
0.0
 40
0.1179972678
 40
0.2414548469
 40
0.3694525932
 40
0.5
 40
0.6305474068
 40
0.7585451531
 40
0.8820027322
 40
1.0
 40
1.0
 40
1.0
 40
1.0
 10
799.216173717
 20
126.6283579291
 30
0.0
 10
798.4047569399
 20
125.5018134582
 30
0.0
 10
796.4096985395
 20
123.4241986785
 30
0.0
 10
792.6789084999
 20
121.117464147
 30
0.0
 10
788.3819365934
 20
119.6752060934
 30
0.0
 10
783.7949702786
 20
119.185392344
 30
0.0
 10
779.2080039639
 20
119.6752060934
 30
0.0
 10
774.9110320574
 20
121.117464147
 30
0.0
 10
771.1802420177
 20
123.4241986785
 30
0.0
 10
769.1851836174
 20
125.5018134582
 30
0.0
 10
768.3737668402
 20
126.6283579291
 30
0.0
  0
SPLINE
  5
59E
100
AcDbEntity
  8
0
100
AcDbSpline
 62
7
  6
CONTINUOUS
 70
0
 71
3
 72
11
 73
7
 74
0
 42
0.0000001
 43
0.0000001
 44
0.0000000001
 40
0.0
 40
0.0
 40
0.0
 40
0.0
 40
0.2377992839
 40
0.4817913657
 40
0.7357627636
 40
1.0
 40
1.0
 40
1.0
 40
1.0
 10
776.2949704611
 20
159.6858543431
 30
0.0
 10
776.2949610177
 20
160.3195774823
 30
0.0
 10
776.5177358988
 20
161.6133409327
 30
0.0
 10
777.4791530471
 20
163.359406708
 30
0.0
 10
778.9705492348
 20
164.7802135791
 30
0.0
 10
780.2133873609
 20
165.4265076014
 30
0.0
 10
780.874644567
 20
165.6685962348
 30
0.0
  0
SPLINE
  5
59F
100
AcDbEntity
  8
0
100
AcDbSpline
 62
7
  6
CONTINUOUS
 70
0
 71
3
 72
11
 73
7
 74
0
 42
0.0000001
 43
0.0000001
 44
0.0000000001
 40
0.0
 40
0.0
 40
0.0
 40
0.0
 40
0.2470761523
 40
0.4999962979
 40
0.7529185071
 40
1.0
 40
1.0
 40
1.0
 40
1.0
 10
772.0134338755
 20
140.786069339
 30
0.0
 10
773.6514509795
 20
139.5141212409
 30
0.0
 10
777.4489977675
 20
137.5162667577
 30
0.0
 10
783.7928426963
 20
136.5064343639
 30
0.0
 10
790.136940912
 20
137.5149469579
 30
0.0
 10
793.9349744475
 20
139.5119946469
 30
0.0
 10
795.5733187193
 20
140.7835944181
 30
0.0
  0
SPLINE
  5
5A0
100
AcDbEntity
  8
KONSTRUKTIONSELEMENTE
100
AcDbSpline
 62
7
  6
CONTINUOUS
 70
0
 71
3
 72
9
 73
5
 74
0
 42
0.0000001
 43
0.0000001
 44
0.0000000001
 40
0.0
 40
0.0
 40
0.0
 40
0.0
 40
0.5552810041
 40
1.0
 40
1.0
 40
1.0
 40
1.0
 10
801.7949702786
 20
130.9794132225
 30
0.0
 10
801.7949702786
 20
130.5495603736
 30
0.0
 10
801.7115805338
 20
129.7674502496
 30
0.0
 10
801.324488951
 20
129.0579789642
 30
0.0
 10
801.0786379004
 20
128.8169902868
 30
0.0
  0
SPLINE
  5
5A1
100
AcDbEntity
  8
0
100
AcDbSpline
 62
7
  6
CONTINUOUS
 70
0
 71
3
 72
9
 73
5
 74
0
 42
0.0000001
 43
0.0000001
 44
0.0000000001
 40
0.0
 40
0.0
 40
0.0
 40
0.0
 40
0.5019420666
 40
1.0
 40
1.0
 40
1.0
 40
1.0
 10
783.7949702786
 20
166.2106922783
 30
0.0
 10
784.2938814155
 20
166.2106922783
 30
0.0
 10
785.290051554
 20
166.1130077273
 30
0.0
 10
786.2504202925
 20
165.8387888941
 30
0.0
 10
786.7152959902
 20
165.6685962348
 30
0.0
  0
SPLINE
  5
5A2
100
AcDbEntity
  8
0
100
AcDbSpline
 62
7
  6
CONTINUOUS
 70
0
 71
3
 72
9
 73
5
 74
0
 42
0.0000001
 43
0.0000001
 44
0.0000000001
 40
0.0
 40
0.0
 40
0.0
 40
0.0
 40
0.4980582343
 40
1.0
 40
1.0
 40
1.0
 40
1.0
 10
780.874644567
 20
165.6685962348
 30
0.0
 10
781.3395205455
 20
165.8387889969
 30
0.0
 10
782.2998893094
 20
166.1130077687
 30
0.0
 10
783.2960594411
 20
166.2106922783
 30
0.0
 10
783.7949702786
 20
166.2106922783
 30
0.0
  0
SPLINE
  5
5A3
100
AcDbEntity
  8
0
100
AcDbSpline
 62
7
  6
CONTINUOUS
 70
0
 71
3
 72
9
 73
5
 74
0
 42
0.0000001
 43
0.0000001
 44
0.0000000001
 40
0.0
 40
0.0
 40
0.0
 40
0.0
 40
0.5078964165
 40
1.0
 40
1.0
 40
1.0
 40
1.0
 10
778.6880221476
 20
167.6895407678
 30
0.0
 10
778.408211655
 20
167.317124729
 30
0.0
 10
777.8147173719
 20
166.6155230296
 30
0.0
 10
777.1614549153
 20
165.9698910808
 30
0.0
 10
776.8254124338
 20
165.6685962348
 30
0.0
  0
SPLINE
  5
5A4
100
AcDbEntity
  8
RUNDUNGEN
100
AcDbSpline
 62
7
  6
CONTINUOUS
 70
0
 71
3
 72
9
 73
5
 74
0
 42
0.0000001
 43
0.0000001
 44
0.0000000001
 40
0.0
 40
0.0
 40
0.0
 40
0.0
 40
0.5078964165
 40
1.0
 40
1.0
 40
1.0
 40
1.0
 10
788.9019184096
 20
167.6895407678
 30
0.0
 10
789.1817289023
 20
167.317124729
 30
0.0
 10
789.7752231854
 20
166.6155230296
 30
0.0
 10
790.428485642
 20
165.9698910808
 30
0.0
 10
790.7645281234
 20
165.6685962348
 30
0.0
  0
SPLINE
  5
5A5
100
AcDbEntity
  8
0
100
AcDbSpline
 62
7
  6
CONTINUOUS
 70
0
 71
3
 72
9
 73
5
 74
0
 42
0.0000001
 43
0.0000001
 44
0.0000000001
 40
0.0
 40
0.0
 40
0.0
 40
0.0
 40
0.4926108304
 40
1.0
 40
1.0
 40
1.0
 40
1.0
 10
788.8899475783
 20
135.0212683821
 30
0.0
 10
788.176804488
 20
134.4885127077
 30
0.0
 10
786.5301326921
 20
133.657506674
 30
0.0
 10
784.7118448531
 20
133.3810172623
 30
0.0
 10
783.7949702786
 20
133.3810172623
 30
0.0
  0
LINE
  5
5A6
100
AcDbEntity
  8
BEZUGSACHSEN
100
AcDbLine
 62
7
  6
CONTINUOUS
 10
790.8783293452
 20
215.5655135008
 11
791.0238100516
 21
215.0635550244
  0
LINE
  5
5A7
100
AcDbEntity
  8
BEZUGSACHSEN
100
AcDbLine
 62
7
  6
CONTINUOUS
 10
791.0238100516
 20
215.0635550244
 11
791.0482216497
 21
214.979219727
  0
SPLINE
  5
5A8
100
AcDbEntity
  8
BEZUGSACHSEN
100
AcDbSpline
 62
7
  6
CONTINUOUS
 70
0
 71
3
 72
8
 73
4
 74
0
 42
0.0000001
 43
0.0000001
 44
0.0000000001
 40
0.0
 40
0.0
 40
0.0
 40
0.0
 40
1.0
 40
1.0
 40
1.0
 40
1.0
 10
791.0482216497
 20
214.979219727
 30
0.0
 10
791.1920030026
 20
214.4824022205
 30
0.0
 10
791.335347028
 20
213.9854578511
 30
0.0
 10
791.4781653084
 20
213.4883626379
 30
0.0
  0
LINE
  5
5A9
100
AcDbEntity
  8
BEZUGSACHSEN
100
AcDbLine
 62
7
  6
CONTINUOUS
 10
791.4781653084
 20
213.4883626379
 11
791.5385806237
 21
213.2779607052
  0
SPLINE
  5
5AA
100
AcDbEntity
  8
0
100
AcDbSpline
 62
7
  6
CONTINUOUS
 70
0
 71
3
 72
9
 73
5
 74
0
 42
0.0000001
 43
0.0000001
 44
0.0000000001
 40
0.0
 40
0.0
 40
0.0
 40
0.0
 40
0.2218857587
 40
1.0
 40
1.0
 40
1.0
 40
1.0
 10
766.5113026568
 20
128.8169902868
 30
0.0
 10
766.6631977653
 20
128.6680993173
 30
0.0
 10
767.3334737596
 20
127.9825280773
 30
0.0
 10
767.9378284065
 20
127.2336005689
 30
0.0
 10
768.3737668402
 20
126.6283579291
 30
0.0
  0
LINE
  5
5AB
100
AcDbEntity
  8
BEZUGSACHSEN
100
AcDbLine
 62
7
  6
CONTINUOUS
 10
791.5361993305
 20
212.2843588723
 11
791.4894883577
 21
212.4624602214
  0
LINE
  5
5AC
100
AcDbEntity
  8
BEZUGSACHSEN
100
AcDbLine
 62
7
  6
CONTINUOUS
 10
791.4894883577
 20
212.4624602214
 11
790.822123755
 21
215.0065821429
  0
LINE
  5
5AD
100
AcDbEntity
  8
BEZUGSACHSEN
100
AcDbLine
 62
7
  6
CONTINUOUS
 10
790.822123755
 20
215.0065821429
 11
790.800235214
 21
215.0900131457
  0
LINE
  5
5AE
100
AcDbEntity
  8
BEZUGSACHSEN
100
AcDbLine
 62
7
  6
CONTINUOUS
 10
790.800235214
 20
215.0900131457
 11
790.6885459585
 21
215.5157202424
  0
LINE
  5
5AF
100
AcDbEntity
  8
BEZUGSACHSEN
100
AcDbLine
 62
7
  6
CONTINUOUS
 10
790.6885459585
 20
215.5157202424
 11
790.6314153251
 21
215.7334685515
  0
LINE
  5
5B0
100
AcDbEntity
  8
BEZUGSACHSEN
100
AcDbLine
 62
7
  6
CONTINUOUS
 10
790.6314153251
 20
215.7334685515
 11
790.1545901514
 21
217.5506778457
  0
LINE
  5
5B1
100
AcDbEntity
  8
BEZUGSACHSEN
100
AcDbLine
 62
7
  6
CONTINUOUS
 10
790.1545901514
 20
217.5506778457
 11
790.0424534747
 21
217.97799735
  0
SPLINE
  5
5B2
100
AcDbEntity
  8
KONSTRUKTIONSELEMENTE
100
AcDbSpline
 62
7
  6
CONTINUOUS
 70
0
 71
3
 72
8
 73
4
 74
0
 42
0.0000001
 43
0.0000001
 44
0.0000000001
 40
0.0
 40
0.0
 40
0.0
 40
0.0
 40
1.0
 40
1.0
 40
1.0
 40
1.0
 10
789.492958021
 20
217.97799735
 30
0.0
 10
789.9907664144
 20
216.0801627844
 30
0.0
 10
790.488440994
 20
214.1822931031
 30
0.0
 10
790.9858692705
 20
212.2843588723
 30
0.0
  0
LINE
  5
5B3
100
AcDbEntity
  8
BEZUGSACHSEN
100
AcDbLine
 62
7
  6
CONTINUOUS
 10
790.2382933133
 20
218.1485967853
 11
790.2692199213
 21
218.0592824936
  0
LINE
  5
5B4
100
AcDbEntity
  8
BEZUGSACHSEN
100
AcDbLine
 62
7
  6
CONTINUOUS
 10
790.2692199213
 20
218.0592824936
 11
790.2845924271
 21
218.0147939084
  0
LINE
  5
5B5
100
AcDbEntity
  8
BEZUGSACHSEN
100
AcDbLine
 62
7
  6
CONTINUOUS
 10
790.2845924271
 20
218.0147939084
 11
790.2999044538
 21
217.9704177024
  0
LINE
  5
5B6
100
AcDbEntity
  8
BEZUGSACHSEN
100
AcDbLine
 62
7
  6
CONTINUOUS
 10
790.2999044538
 20
217.9704177024
 11
790.34714734
 21
217.804391109
  0
LINE
  5
5B7
100
AcDbEntity
  8
BEZUGSACHSEN
100
AcDbLine
 62
7
  6
CONTINUOUS
 10
790.34714734
 20
217.804391109
 11
790.394169392
 21
217.6390456555
  0
LINE
  5
5B8
100
AcDbEntity
  8
BEZUGSACHSEN
100
AcDbLine
 62
7
  6
CONTINUOUS
 10
790.394169392
 20
217.6390456555
 11
790.4895529245
 21
217.2756216268
  0
LINE
  5
5B9
100
AcDbEntity
  8
BEZUGSACHSEN
100
AcDbLine
 62
7
  6
CONTINUOUS
 10
790.5860957523
 20
216.8801462951
 11
790.4895529245
 21
217.2756216268
  0
LINE
  5
5BA
100
AcDbEntity
  8
BEZUGSACHSEN
100
AcDbLine
 62
7
  6
CONTINUOUS
 10
790.6517864989
 20
216.573760459
 11
790.5860957523
 21
216.8801462951
  0
SPLINE
  5
5BB
100
AcDbEntity
  8
0
100
AcDbSpline
 62
7
  6
CONTINUOUS
 70
0
 71
3
 72
9
 73
5
 74
0
 42
0.0000001
 43
0.0000001
 44
0.0000000001
 40
0.0
 40
0.0
 40
0.0
 40
0.0
 40
0.5001080858
 40
1.0
 40
1.0
 40
1.0
 40
1.0
 10
787.9785587991
 20
216.2893622683
 30
0.0
 10
788.2020566944
 20
213.7771828857
 30
0.0
 10
788.5044277513
 20
208.7394352575
 30
0.0
 10
788.4687649206
 20
203.6920783266
 30
0.0
 10
788.3678344701
 20
201.173088109
 30
0.0
  0
LINE
  5
5BC
100
AcDbEntity
  8
BEZUGSACHSEN
100
AcDbLine
 62
7
  6
CONTINUOUS
 10
790.0344397059
 20
220.0823202512
 11
790.1230260146
 21
219.7308661022
  0
LINE
  5
5BD
100
AcDbEntity
  8
BEZUGSACHSEN
100
AcDbLine
 62
7
  6
CONTINUOUS
 10
790.1230260146
 20
219.7308661022
 11
790.4053663253
 21
218.610670564
  0
LINE
  5
5BE
100
AcDbEntity
  8
BEZUGSACHSEN
100
AcDbLine
 62
7
  6
CONTINUOUS
 10
790.4053663253
 20
218.610670564
 11
790.5047485968
 21
218.2163490602
  0
LINE
  5
5BF
100
AcDbEntity
  8
BEZUGSACHSEN
100
AcDbLine
 62
7
  6
CONTINUOUS
 10
790.5047485968
 20
218.2163490602
 11
790.5888721522
 21
217.8825619057
  0
LINE
  5
5C0
100
AcDbEntity
  8
BEZUGSACHSEN
100
AcDbLine
 62
7
  6
CONTINUOUS
 10
790.5888721522
 20
217.8825619057
 11
790.7112863618
 21
217.3968306097
  0
LINE
  5
5C1
100
AcDbEntity
  8
BEZUGSACHSEN
100
AcDbLine
 62
7
  6
CONTINUOUS
 10
790.7112863618
 20
217.3968306097
 11
790.776758653
 21
217.137034068
  0
LINE
  5
5C2
100
AcDbEntity
  8
BEZUGSACHSEN
100
AcDbLine
 62
7
  6
CONTINUOUS
 10
790.776758653
 20
217.137034068
 11
790.8107887635
 21
217.0019993325
  0
LINE
  5
5C3
100
AcDbEntity
  8
BEZUGSACHSEN
100
AcDbLine
 62
7
  6
CONTINUOUS
 10
790.8107887635
 20
217.0019993325
 11
790.9562523422
 21
216.424770309
  0
LINE
  5
5C4
100
AcDbEntity
  8
BEZUGSACHSEN
100
AcDbLine
 62
7
  6
CONTINUOUS
 10
790.9562523422
 20
216.424770309
 11
790.9974894481
 21
216.2611283625
  0
LINE
  5
5C5
100
AcDbEntity
  8
BEZUGSACHSEN
100
AcDbLine
 62
7
  6
CONTINUOUS
 10
790.9974894481
 20
216.2611283625
 11
791.0201052515
 21
216.1713807531
  0
LINE
  5
5C6
100
AcDbEntity
  8
KONSTRUKTIONSELEMENTE
100
AcDbLine
 62
7
  6
CONTINUOUS
 10
789.5953113568
 20
219.7095771421
 11
789.5896948603
 21
219.7318541998
  0
LINE
  5
5C7
100
AcDbEntity
  8
KONSTRUKTIONSELEMENTE
100
AcDbLine
 62
7
  6
CONTINUOUS
 10
789.5896948603
 20
219.7318541998
 11
789.5013346016
 21
220.0823202512
  0
LINE
  5
5C8
100
AcDbEntity
  8
BEZUGSACHSEN
100
AcDbLine
 62
7
  6
CONTINUOUS
 10
791.1484809164
 20
215.651212464
 11
791.0844279037
 21
215.910775954
  0
LINE
  5
5C9
100
AcDbEntity
  8
BEZUGSACHSEN
100
AcDbLine
 62
7
  6
CONTINUOUS
 10
791.0844279037
 20
215.910775954
 11
791.052300272
 21
216.0409481873
  0
LINE
  5
5CA
100
AcDbEntity
  8
BEZUGSACHSEN
100
AcDbLine
 62
7
  6
CONTINUOUS
 10
791.052300272
 20
216.0409481873
 11
791.0201052515
 21
216.1713807531
  0
LINE
  5
5CB
100
AcDbEntity
  8
BEZUGSACHSEN
100
AcDbLine
 62
7
  6
CONTINUOUS
 10
791.2460564796
 20
215.2416725824
 11
791.2218046595
 21
215.3435792472
  0
LINE
  5
5CC
100
AcDbEntity
  8
BEZUGSACHSEN
100
AcDbLine
 62
7
  6
CONTINUOUS
 10
791.2218046595
 20
215.3435792472
 11
791.1730168637
 21
215.5483491849
  0
LINE
  5
5CD
100
AcDbEntity
  8
BEZUGSACHSEN
100
AcDbLine
 62
7
  6
CONTINUOUS
 10
791.1730168637
 20
215.5483491849
 11
791.1484809164
 21
215.651212464
  0
LINE
  5
5CE
100
AcDbEntity
  8
BEZUGSACHSEN
100
AcDbLine
 62
7
  6
CONTINUOUS
 10
791.3123042105
 20
214.9427609311
 11
791.2958732317
 21
215.0172203677
  0
LINE
  5
5CF
100
AcDbEntity
  8
BEZUGSACHSEN
100
AcDbLine
 62
7
  6
CONTINUOUS
 10
791.2958732317
 20
215.0172203677
 11
791.2793549573
 21
215.0918587893
  0
LINE
  5
5D0
100
AcDbEntity
  8
BEZUGSACHSEN
100
AcDbLine
 62
7
  6
CONTINUOUS
 10
791.2793549573
 20
215.0918587893
 11
791.2627493765
 21
215.1666761946
  0
LINE
  5
5D1
100
AcDbEntity
  8
BEZUGSACHSEN
100
AcDbLine
 62
7
  6
CONTINUOUS
 10
791.2627493765
 20
215.1666761946
 11
791.2460564796
 21
215.2416725824
  0
LINE
  5
5D2
100
AcDbEntity
  8
BEZUGSACHSEN
100
AcDbLine
 62
7
  6
CONTINUOUS
 10
791.3463860967
 20
214.7544776868
 11
791.3295231968
 21
214.8486218821
  0
LINE
  5
5D3
100
AcDbEntity
  8
BEZUGSACHSEN
100
AcDbLine
 62
7
  6
CONTINUOUS
 10
791.3295231968
 20
214.8486218821
 11
791.3209580506
 21
214.895692044
  0
LINE
  5
5D4
100
AcDbEntity
  8
BEZUGSACHSEN
100
AcDbLine
 62
7
  6
CONTINUOUS
 10
791.3209580506
 20
214.895692044
 11
791.3123042105
 21
214.9427609311
  0
SPLINE
  5
5D5
100
AcDbEntity
  8
0
100
AcDbSpline
 62
7
  6
CONTINUOUS
 70
0
 71
3
 72
9
 73
5
 74
0
 42
0.0000001
 43
0.0000001
 44
0.0000000001
 40
0.0
 40
0.0
 40
0.0
 40
0.0
 40
0.5000000002
 40
1.0
 40
1.0
 40
1.0
 40
1.0
 10
787.9785587991
 20
226.201118257
 30
0.0
 10
788.2874614056
 20
224.5703905485
 30
0.0
 10
788.631979212
 20
221.2452402619
 30
0.0
 10
788.2874614054
 20
217.9200899754
 30
0.0
 10
787.9785587991
 20
216.2893622683
 30
0.0
  0
LINE
  5
5D6
100
AcDbEntity
  8
BEZUGSACHSEN
100
AcDbLine
 62
7
  6
CONTINUOUS
 10
791.0181346557
 20
215.7054515102
 11
790.9964562421
 21
215.7915020904
  0
LINE
  5
5D7
100
AcDbEntity
  8
BEZUGSACHSEN
100
AcDbLine
 62
7
  6
CONTINUOUS
 10
790.9964562421
 20
215.7915020904
 11
790.9358981588
 21
216.0318783043
  0
LINE
  5
5D8
100
AcDbEntity
  8
BEZUGSACHSEN
100
AcDbLine
 62
7
  6
CONTINUOUS
 10
790.9358981588
 20
216.0318783043
 11
790.8440397806
 21
216.3964857738
  0
LINE
  5
5D9
100
AcDbEntity
  8
BEZUGSACHSEN
100
AcDbLine
 62
7
  6
CONTINUOUS
 10
790.8440397806
 20
216.3964857738
 11
790.6986051655
 21
216.9737248279
  0
LINE
  5
5DA
100
AcDbEntity
  8
BEZUGSACHSEN
100
AcDbLine
 62
7
  6
CONTINUOUS
 10
790.6986051655
 20
216.9737248279
 11
790.599123196
 21
217.3685580253
  0
LINE
  5
5DB
100
AcDbEntity
  8
BEZUGSACHSEN
100
AcDbLine
 62
7
  6
CONTINUOUS
 10
790.599123196
 20
217.3685580253
 11
790.5298753385
 21
217.6433875133
  0
LINE
  5
5DC
100
AcDbEntity
  8
BEZUGSACHSEN
100
AcDbLine
 62
7
  6
CONTINUOUS
 10
790.5298753385
 20
217.6433875133
 11
790.4767321962
 21
217.8542967345
  0
LINE
  5
5DD
100
AcDbEntity
  8
BEZUGSACHSEN
100
AcDbLine
 62
7
  6
CONTINUOUS
 10
790.4767321962
 20
217.8542967345
 11
790.3926253924
 21
218.1880841841
  0
LINE
  5
5DE
100
AcDbEntity
  8
BEZUGSACHSEN
100
AcDbLine
 62
7
  6
CONTINUOUS
 10
790.3926253924
 20
218.1880841841
 11
790.293261729
 21
218.5824090479
  0
LINE
  5
5DF
100
AcDbEntity
  8
BEZUGSACHSEN
100
AcDbLine
 62
7
  6
CONTINUOUS
 10
790.293261729
 20
218.5824090479
 11
790.2824018758
 21
218.6255056764
  0
LINE
  5
5E0
100
AcDbEntity
  8
BEZUGSACHSEN
100
AcDbLine
 62
7
  6
CONTINUOUS
 10
790.2824018758
 20
218.6255056764
 11
790.2321034984
 21
218.8251097439
  0
LINE
  5
5E1
100
AcDbEntity
  8
BEZUGSACHSEN
100
AcDbLine
 62
7
  6
CONTINUOUS
 10
790.2321034984
 20
218.8251097439
 11
790.0327008128
 21
219.6163910083
  0
LINE
  5
5E2
100
AcDbEntity
  8
KONSTRUKTIONSELEMENTE
100
AcDbLine
 62
7
  6
CONTINUOUS
 10
789.494385688
 20
219.6163910083
 11
789.6934133637
 21
218.8262975656
  0
LINE
  5
5E3
100
AcDbEntity
  8
KONSTRUKTIONSELEMENTE
100
AcDbLine
 62
7
  6
CONTINUOUS
 10
789.6934133637
 20
218.8262975656
 11
789.7034746832
 21
218.7863548812
  0
LINE
  5
5E4
100
AcDbEntity
  8
BEZUGSACHSEN
100
AcDbLine
 62
7
  6
CONTINUOUS
 10
791.0181346557
 20
215.7054515102
 11
791.178395991
 21
215.0901859054
  0
LINE
  5
5E5
100
AcDbEntity
  8
BEZUGSACHSEN
100
AcDbLine
 62
7
  6
CONTINUOUS
 10
791.178395991
 20
215.0901859054
 11
791.308023264
 21
214.6166104922
  0
SPLINE
  5
5E6
100
AcDbEntity
  8
0
100
AcDbSpline
 62
7
  6
CONTINUOUS
 70
0
 71
3
 72
9
 73
5
 74
0
 42
0.0000001
 43
0.0000001
 44
0.0000000001
 40
0.0
 40
0.0
 40
0.0
 40
0.0
 40
0.5552810041
 40
1.0
 40
1.0
 40
1.0
 40
1.0
 10
765.7949702786
 20
130.9794132225
 30
0.0
 10
765.7949702786
 20
130.5495603736
 30
0.0
 10
765.8783600234
 20
129.7674502496
 30
0.0
 10
766.2654516062
 20
129.0579789642
 30
0.0
 10
766.5113026568
 20
128.8169902868
 30
0.0
  0
SPLINE
  5
5E7
100
AcDbEntity
  8
0
100
AcDbSpline
 62
7
  6
CONTINUOUS
 70
0
 71
3
 72
11
 73
7
 74
0
 42
0.0000001
 43
0.0000001
 44
0.0000000001
 40
0.0
 40
0.0
 40
0.0
 40
0.0
 40
0.2635270784
 40
0.5201066425
 40
0.7654740308
 40
1.0
 40
1.0
 40
1.0
 40
1.0
 10
783.7949702786
 20
164.6812059402
 30
0.0
 10
784.6299569876
 20
164.6812059402
 30
0.0
 10
786.288379666
 20
164.4414277558
 30
0.0
 10
788.5152718284
 20
163.3899302292
 30
0.0
 10
790.2367206733
 20
161.7516198693
 30
0.0
 10
790.9190300721
 20
160.3462097801
 30
0.0
 10
791.1078962897
 20
159.6275150888
 30
0.0
  0
SPLINE
  5
5E8
100
AcDbEntity
  8
0
100
AcDbSpline
 62
7
  6
CONTINUOUS
 70
0
 71
3
 72
11
 73
7
 74
0
 42
0.0000001
 43
0.0000001
 44
0.0000000001
 40
0.0
 40
0.0
 40
0.0
 40
0.0
 40
0.2635270784
 40
0.5201066425
 40
0.7654740308
 40
1.0
 40
1.0
 40
1.0
 40
1.0
 10
783.7949702786
 20
164.6812059402
 30
0.0
 10
782.9599835696
 20
164.6812059402
 30
0.0
 10
781.3015608912
 20
164.4414277558
 30
0.0
 10
779.0746687288
 20
163.3899302292
 30
0.0
 10
777.353219884
 20
161.7516198693
 30
0.0
 10
776.6709104852
 20
160.3462097801
 30
0.0
 10
776.4820442676
 20
159.6275150888
 30
0.0
  0
LINE
  5
5E9
100
AcDbEntity
  8
BEZUGSACHSEN
100
AcDbLine
 62
7
  6
CONTINUOUS
 10
791.5140028214
 20
214.3190382826
 11
791.4632779314
 21
214.5229080582
  0
LINE
  5
5EA
100
AcDbEntity
  8
BEZUGSACHSEN
100
AcDbLine
 62
7
  6
CONTINUOUS
 10
791.4632779314
 20
214.5229080582
 11
791.4168072721
 21
214.7096737398
  0
LINE
  5
5EB
100
AcDbEntity
  8
BEZUGSACHSEN
100
AcDbLine
 62
7
  6
CONTINUOUS
 10
791.4168072721
 20
214.7096737398
 11
791.3999099628
 21
214.7775827083
  0
LINE
  5
5EC
100
AcDbEntity
  8
BEZUGSACHSEN
100
AcDbLine
 62
7
  6
CONTINUOUS
 10
791.3999099628
 20
214.7775827083
 11
791.3479106017
 21
214.9865596219
  0
LINE
  5
5ED
100
AcDbEntity
  8
BEZUGSACHSEN
100
AcDbLine
 62
7
  6
CONTINUOUS
 10
791.3479106017
 20
214.9865596219
 11
791.3227402462
 21
215.0877127676
  0
LINE
  5
5EE
100
AcDbEntity
  8
BEZUGSACHSEN
100
AcDbLine
 62
7
  6
CONTINUOUS
 10
791.3227402462
 20
215.0877127676
 11
791.2715585266
 21
215.2933941305
  0
LINE
  5
5EF
100
AcDbEntity
  8
BEZUGSACHSEN
100
AcDbLine
 62
7
  6
CONTINUOUS
 10
791.2715585266
 20
215.2933941305
 11
791.2608539178
 21
215.3364114042
  0
LINE
  5
5F0
100
AcDbEntity
  8
BEZUGSACHSEN
100
AcDbLine
 62
7
  6
CONTINUOUS
 10
791.2608539178
 20
215.3364114042
 11
791.1896080835
 21
215.6227112887
  0
LINE
  5
5F1
100
AcDbEntity
  8
BEZUGSACHSEN
100
AcDbLine
 62
7
  6
CONTINUOUS
 10
791.1896080835
 20
215.6227112887
 11
791.1387677666
 21
215.8270048921
  0
LINE
  5
5F2
100
AcDbEntity
  8
BEZUGSACHSEN
100
AcDbLine
 62
7
  6
CONTINUOUS
 10
791.1387677666
 20
215.8270048921
 11
791.0790145629
 21
216.0671060902
  0
LINE
  5
5F3
100
AcDbEntity
  8
BEZUGSACHSEN
100
AcDbLine
 62
7
  6
CONTINUOUS
 10
791.0790145629
 20
216.0671060902
 11
791.0287788511
 21
216.2689579224
  0
LINE
  5
5F4
100
AcDbEntity
  8
BEZUGSACHSEN
100
AcDbLine
 62
7
  6
CONTINUOUS
 10
791.0287788511
 20
216.2689579224
 11
790.9881883094
 21
216.4320506101
  0
LINE
  5
5F5
100
AcDbEntity
  8
BEZUGSACHSEN
100
AcDbLine
 62
7
  6
CONTINUOUS
 10
790.9881883094
 20
216.4320506101
 11
790.844405736
 21
217.0097410913
  0
LINE
  5
5F6
100
AcDbEntity
  8
BEZUGSACHSEN
100
AcDbLine
 62
7
  6
CONTINUOUS
 10
790.844405736
 20
217.0097410913
 11
790.7460551724
 21
217.4048707119
  0
LINE
  5
5F7
100
AcDbEntity
  8
BEZUGSACHSEN
100
AcDbLine
 62
7
  6
CONTINUOUS
 10
790.7460551724
 20
217.4048707119
 11
790.625062391
 21
217.890941509
  0
LINE
  5
5F8
100
AcDbEntity
  8
BEZUGSACHSEN
100
AcDbLine
 62
7
  6
CONTINUOUS
 10
790.625062391
 20
217.890941509
 11
790.164503935
 21
219.7409334172
  0
LINE
  5
5F9
100
AcDbEntity
  8
BEZUGSACHSEN
100
AcDbLine
 62
7
  6
CONTINUOUS
 10
790.164503935
 20
219.7409334172
 11
790.0545655753
 21
220.1824883908
  0
LINE
  5
5FA
100
AcDbEntity
  8
BEZUGSACHSEN
100
AcDbLine
 62
7
  6
CONTINUOUS
 10
790.0545655753
 20
220.1824883908
 11
790.0208015662
 21
220.3180941028
  0
LINE
  5
5FB
100
AcDbEntity
  8
KONSTRUKTIONSELEMENTE
100
AcDbLine
 62
7
  6
CONTINUOUS
 10
789.4914534504
 20
220.3180941028
 11
789.525044638
 21
220.1831368155
  0
SPLINE
  5
5FC
100
AcDbEntity
  8
BEZUGSACHSEN
100
AcDbSpline
 62
7
  6
CONTINUOUS
 70
0
 71
3
 72
8
 73
4
 74
0
 42
0.0000001
 43
0.0000001
 44
0.0000000001
 40
0.0
 40
0.0
 40
0.0
 40
0.0
 40
1.0
 40
1.0
 40
1.0
 40
1.0
 10
791.5140028214
 20
214.3190382826
 30
0.0
 10
791.5204508664
 20
214.3121953105
 30
0.0
 10
791.5261724835
 20
214.3039333545
 30
0.0
 10
791.52844715
 20
214.2948103372
 30
0.0
  0
SPLINE
  5
5FD
100
AcDbEntity
  8
KONSTRUKTIONSELEMENTE
100
AcDbSpline
 62
7
  6
CONTINUOUS
 70
0
 71
3
 72
11
 73
7
 74
0
 42
0.0000001
 43
0.0000001
 44
0.0000000001
 40
0.0
 40
0.0
 40
0.0
 40
0.0
 40
0.3553378805
 40
0.4919447206
 40
0.6464666697
 40
1.0
 40
1.0
 40
1.0
 40
1.0
 10
606.7454774263
 20
61.4417844889
 30
0.0
 10
606.4043497179
 20
61.7371067523
 30
0.0
 10
605.6150761484
 20
61.5684298088
 30
0.0
 10
604.899602754
 20
61.2245323342
 30
0.0
 10
604.1890769076
 20
60.8015435855
 30
0.0
 10
603.6806643361
 20
60.4047979062
 30
0.0
 10
603.3413197198
 20
60.1109168478
 30
0.0
  0
SPLINE
  5
5FE
100
AcDbEntity
  8
KONSTRUKTIONSELEMENTE
100
AcDbSpline
 62
7
  6
CONTINUOUS
 70
0
 71
3
 72
9
 73
5
 74
0
 42
0.0000001
 43
0.0000001
 44
0.0000000001
 40
0.0
 40
0.0
 40
0.0
 40
0.0
 40
0.5612670596
 40
1.0
 40
1.0
 40
1.0
 40
1.0
 10
602.9988391515
 20
73.163803052
 30
0.0
 10
603.1421865783
 20
73.4654829147
 30
0.0
 10
603.3660096398
 20
74.0182397418
 30
0.0
 10
603.4827410761
 20
74.6110297841
 30
0.0
 10
603.4827410761
 20
74.8721156919
 30
0.0
  0
SPLINE
  5
5FF
100
AcDbEntity
  8
KONSTRUKTIONSELEMENTE
100
AcDbSpline
 62
7
  6
CONTINUOUS
 70
0
 71
3
 72
9
 73
5
 74
0
 42
0.0000001
 43
0.0000001
 44
0.0000000001
 40
0.0
 40
0.0
 40
0.0
 40
0.0
 40
0.5487156268
 40
1.0
 40
1.0
 40
1.0
 40
1.0
 10
603.4827410761
 20
54.6126422315
 30
0.0
 10
603.4827410761
 20
54.4265964079
 30
0.0
 10
603.5195170347
 20
54.0820834226
 30
0.0
 10
603.7080960708
 20
53.7796286715
 30
0.0
 10
603.8237656525
 20
53.6794641083
 30
0.0
  0
SPLINE
  5
600
100
AcDbEntity
  8
KONSTRUKTIONSELEMENTE
100
AcDbSpline
 62
7
  6
CONTINUOUS
 70
0
 71
3
 72
11
 73
7
 74
0
 42
0.0000001
 43
0.0000001
 44
0.0000000001
 40
0.0
 40
0.0
 40
0.0
 40
0.0
 40
0.3553378805
 40
0.4919447206
 40
0.6464666697
 40
1.0
 40
1.0
 40
1.0
 40
1.0
 10
606.2858580185
 20
60.5398265721
 30
0.0
 10
605.9447303101
 20
60.8351488355
 30
0.0
 10
605.1554567406
 20
60.666471892
 30
0.0
 10
604.4399833462
 20
60.3225744174
 30
0.0
 10
603.7294574998
 20
59.8995856687
 30
0.0
 10
603.2210449284
 20
59.5028399894
 30
0.0
 10
602.881700312
 20
59.208958931
 30
0.0
  0
SPLINE
  5
601
100
AcDbEntity
  8
KONSTRUKTIONSELEMENTE
100
AcDbSpline
 62
7
  6
CONTINUOUS
 70
0
 71
3
 72
9
 73
5
 74
0
 42
0.0000001
 43
0.0000001
 44
0.0000000001
 40
0.0
 40
0.0
 40
0.0
 40
0.0
 40
0.6167870211
 40
1.0
 40
1.0
 40
1.0
 40
1.0
 10
649.960971046
 20
77.8268550166
 30
0.0
 10
649.938777778
 20
77.7739813135
 30
0.0
 10
649.9059650498
 20
77.6877329312
 30
0.0
 10
649.9250550084
 20
77.582246275
 30
0.0
 10
649.9519823867
 20
77.5589178374
 30
0.0
  0
SPLINE
  5
602
100
AcDbEntity
  8
KONSTRUKTIONSELEMENTE
100
AcDbSpline
 62
7
  6
CONTINUOUS
 70
0
 71
3
 72
10
 73
6
 74
0
 42
0.0000001
 43
0.0000001
 44
0.0000000001
 40
0.0
 40
0.0
 40
0.0
 40
0.0
 40
0.1889346049
 40
0.5351285558
 40
1.0
 40
1.0
 40
1.0
 40
1.0
 10
588.2761485965
 20
47.1666914907
 30
0.0
 10
588.3054302963
 20
47.1413333188
 30
0.0
 10
588.4075926561
 20
47.0906473421
 30
0.0
 10
588.619930649
 20
47.1017366882
 30
0.0
 10
588.7766455349
 20
47.1596356277
 30
0.0
 10
588.863308375
 20
47.1993006246
 30
0.0
  0
SPLINE
  5
603
100
AcDbEntity
  8
KONSTRUKTIONSELEMENTE
100
AcDbSpline
 62
7
  6
CONTINUOUS
 70
0
 71
3
 72
9
 73
5
 74
0
 42
0.0000001
 43
0.0000001
 44
0.0000000001
 40
0.0
 40
0.0
 40
0.0
 40
0.0
 40
0.2183282735
 40
1.0
 40
1.0
 40
1.0
 40
1.0
 10
588.863308375
 20
47.1993006246
 30
0.0
 10
588.9184973438
 20
47.2245602431
 30
0.0
 10
589.1649941524
 20
47.3539238678
 30
0.0
 10
589.3884715243
 20
47.5234800218
 30
0.0
 10
589.5527374867
 20
47.6657385181
 30
0.0
  0
SPLINE
  5
604
100
AcDbEntity
  8
KONSTRUKTIONSELEMENTE
100
AcDbSpline
 62
7
  6
CONTINUOUS
 70
0
 71
3
 72
11
 73
7
 74
0
 42
0.0000001
 43
0.0000001
 44
0.0000000001
 40
0.0
 40
0.0
 40
0.0
 40
0.0
 40
0.1801343243
 40
0.3968155518
 40
0.6687400903
 40
1.0
 40
1.0
 40
1.0
 40
1.0
 10
607.3592995584
 20
50.6176019298
 30
0.0
 10
607.4704993501
 20
50.5213080001
 30
0.0
 10
607.7800804268
 20
50.3810812292
 30
0.0
 10
608.335976024
 20
50.3882411263
 30
0.0
 10
608.9856629498
 20
50.5661322125
 30
0.0
 10
609.4336438864
 20
50.7756546207
 30
0.0
 10
609.672033508
 20
50.9035020442
 30
0.0
  0
SPLINE
  5
605
100
AcDbEntity
  8
BEZUGSACHSEN
100
AcDbSpline
 62
7
  6
CONTINUOUS
 70
0
 71
3
 72
11
 73
7
 74
0
 42
0.0000001
 43
0.0000001
 44
0.0000000001
 40
0.0
 40
0.0
 40
0.0
 40
0.0
 40
0.3535251165
 40
0.508042702
 40
0.6446321057
 40
1.0
 40
1.0
 40
1.0
 40
1.0
 10
672.7792056323
 20
125.9533900331
 30
0.0
 10
673.1380972129
 20
126.2641992591
 30
0.0
 10
673.6757986042
 20
126.6837827043
 30
0.0
 10
674.4272066088
 20
127.1311861004
 30
0.0
 10
675.183943998
 20
127.4948234905
 30
0.0
 10
676.0186983054
 20
127.6735418238
 30
0.0
 10
676.3795355737
 20
127.3611990306
 30
0.0
  0
SPLINE
  5
606
100
AcDbEntity
  8
BEZUGSACHSEN
100
AcDbSpline
 62
7
  6
CONTINUOUS
 70
0
 71
3
 72
11
 73
7
 74
0
 42
0.0000001
 43
0.0000001
 44
0.0000000001
 40
0.0
 40
0.0
 40
0.0
 40
0.0
 40
0.3015812786
 40
0.5624690806
 40
0.7906401043
 40
1.0
 40
1.0
 40
1.0
 40
1.0
 10
679.8101292461
 20
128.6190312329
 30
0.0
 10
679.8449801265
 20
128.9411453349
 30
0.0
 10
679.8728194746
 20
129.5474704981
 30
0.0
 10
679.7604133332
 20
130.3953146954
 30
0.0
 10
679.4851923715
 20
131.1030802801
 30
0.0
 10
679.182150676
 20
131.4754146376
 30
0.0
 10
679.0122919811
 20
131.6228478425
 30
0.0
  0
SPLINE
  5
607
100
AcDbEntity
  8
KONSTRUKTIONSELEMENTE
100
AcDbSpline
 62
7
  6
CONTINUOUS
 70
0
 71
3
 72
11
 73
7
 74
0
 42
0.0000001
 43
0.0000001
 44
0.0000000001
 40
0.0
 40
0.0
 40
0.0
 40
0.0
 40
0.22751792
 40
0.4932532384
 40
0.7625600707
 40
1.0
 40
1.0
 40
1.0
 40
1.0
 10
654.5519313418
 20
74.9724160675
 30
0.0
 10
655.1745022593
 20
75.3062984204
 30
0.0
 10
656.4237280625
 20
76.2137848496
 30
0.0
 10
658.1148095788
 20
77.8791492877
 30
0.0
 10
659.5906551736
 20
79.7777699426
 30
0.0
 10
660.3745925684
 20
81.1542900792
 30
0.0
 10
660.6599333769
 20
81.8340919535
 30
0.0
  0
SPLINE
  5
608
100
AcDbEntity
  8
KONSTRUKTIONSELEMENTE
100
AcDbSpline
 62
7
  6
CONTINUOUS
 70
0
 71
3
 72
9
 73
5
 74
0
 42
0.0000001
 43
0.0000001
 44
0.0000000001
 40
0.0
 40
0.0
 40
0.0
 40
0.0
 40
0.4931623953
 40
1.0
 40
1.0
 40
1.0
 40
1.0
 10
610.0124127889
 20
51.0860461239
 30
0.0
 10
610.1469191226
 20
51.1581813456
 30
0.0
 10
610.3786873863
 20
51.3726445094
 30
0.0
 10
610.5625032313
 20
51.6275775155
 30
0.0
 10
610.6232129924
 20
51.7722137125
 30
0.0
  0
SPLINE
  5
609
100
AcDbEntity
  8
KONSTRUKTIONSELEMENTE
100
AcDbSpline
 62
7
  6
CONTINUOUS
 70
0
 71
3
 72
10
 73
6
 74
0
 42
0.0000001
 43
0.0000001
 44
0.0000000001
 40
0.0
 40
0.0
 40
0.0
 40
0.0
 40
0.1805529782
 40
0.5248657058
 40
1.0
 40
1.0
 40
1.0
 40
1.0
 10
653.4875162927
 20
74.4970556589
 30
0.0
 10
653.4986356478
 20
74.4874224454
 30
0.0
 10
653.5395445578
 20
74.4690681719
 30
0.0
 10
653.6235784643
 20
74.4801494565
 30
0.0
 10
653.6846998084
 20
74.5073231813
 30
0.0
 10
653.7188180451
 20
74.5256206585
 30
0.0
  0
SPLINE
  5
60A
100
AcDbEntity
  8
BEZUGSACHSEN
100
AcDbSpline
 62
7
  6
CONTINUOUS
 70
0
 71
3
 72
17
 73
13
 74
0
 42
0.0000001
 43
0.0000001
 44
0.0000000001
 40
0.0
 40
0.0
 40
0.0
 40
0.0
 40
0.0291579765
 40
0.0611213738
 40
0.0979231462
 40
0.1406918411
 40
0.2452305574
 40
0.373688919
 40
0.5209585942
 40
0.6799306931
 40
0.8424232186
 40
1.0
 40
1.0
 40
1.0
 40
1.0
 10
669.178875691
 20
119.0455810357
 30
0.0
 10
669.1181466797
 20
119.0981484135
 30
0.0
 10
669.0101990614
 20
119.2323565817
 30
0.0
 10
668.9153590577
 20
119.4885101795
 30
0.0
 10
668.8806208614
 20
119.7960017601
 30
0.0
 10
668.9148074697
 20
120.3039406241
 30
0.0
 10
669.1208013002
 20
121.0418738251
 30
0.0
 10
669.5556970346
 20
121.9971018573
 30
0.0
 10
670.1743190186
 20
123.0251336114
 30
0.0
 10
670.9415152861
 20
124.0657113049
 30
0.0
 10
671.8133444031
 20
125.0582763349
 30
0.0
 10
672.4510794743
 20
125.6692244446
 30
0.0
 10
672.7792056323
 20
125.9533900331
 30
0.0
  0
SPLINE
  5
60B
100
AcDbEntity
  8
KONSTRUKTIONSELEMENTE
100
AcDbSpline
 62
7
  6
CONTINUOUS
 70
0
 71
3
 72
11
 73
7
 74
0
 42
0.0000001
 43
0.0000001
 44
0.0000000001
 40
0.0
 40
0.0
 40
0.0
 40
0.0
 40
0.2374427088
 40
0.5067456734
 40
0.7724796148
 40
1.0
 40
1.0
 40
1.0
 40
1.0
 10
613.1483792097
 20
57.7882222057
 30
0.0
 10
613.4337233904
 20
58.468032114
 30
0.0
 10
614.2176578441
 20
59.8445504556
 30
0.0
 10
615.6935008982
 20
61.7431634567
 30
0.0
 10
617.3845736333
 20
63.4085248839
 30
0.0
 10
618.6338035118
 20
64.3160120836
 30
0.0
 10
619.2563812448
 20
64.6498980916
 30
0.0
  0
SPLINE
  5
60C
100
AcDbEntity
  8
KONSTRUKTIONSELEMENTE
100
AcDbSpline
 62
7
  6
CONTINUOUS
 70
0
 71
3
 72
11
 73
7
 74
0
 42
0.0000001
 43
0.0000001
 44
0.0000000001
 40
0.0
 40
0.0
 40
0.0
 40
0.0
 40
0.3312528237
 40
0.6032079657
 40
0.8198699068
 40
1.0
 40
1.0
 40
1.0
 40
1.0
 10
653.7985402376
 20
83.1747231271
 30
0.0
 10
654.0369483459
 20
83.3025804649
 30
0.0
 10
654.4849972318
 20
83.512117956
 30
0.0
 10
655.1347490112
 20
83.6900334082
 30
0.0
 10
655.6907290481
 20
83.6971114851
 30
0.0
 10
656.000260988
 20
83.5567663343
 30
0.0
 10
656.111462123
 20
83.460457002
 30
0.0
  0
SPLINE
  5
60D
100
AcDbEntity
  8
KONSTRUKTIONSELEMENTE
100
AcDbSpline
 62
7
  6
CONTINUOUS
 70
0
 71
3
 72
11
 73
7
 74
0
 42
0.0000001
 43
0.0000001
 44
0.0000000001
 40
0.0
 40
0.0
 40
0.0
 40
0.0
 40
0.1960877347
 40
0.4356994004
 40
0.7083543662
 40
1.0
 40
1.0
 40
1.0
 40
1.0
 10
603.5218861073
 20
75.86740548
 30
0.0
 10
603.5787408355
 20
76.2227051609
 30
0.0
 10
603.8143409395
 20
76.9937256768
 30
0.0
 10
604.3780246126
 20
78.1675932892
 30
0.0
 10
605.1628569438
 20
79.4199426568
 30
0.0
 10
605.7931770903
 20
80.2434344805
 30
0.0
 10
606.136499602
 20
80.6539639912
 30
0.0
  0
SPLINE
  5
60E
100
AcDbEntity
  8
KONSTRUKTIONSELEMENTE
100
AcDbSpline
 62
7
  6
CONTINUOUS
 70
0
 71
3
 72
14
 73
10
 74
0
 42
0.0000001
 43
0.0000001
 44
0.0000000001
 40
0.0
 40
0.0
 40
0.0
 40
0.0
 40
0.3348342454
 40
0.4904765909
 40
0.6314752165
 40
0.7538658132
 40
0.8552007529
 40
0.9356064293
 40
1.0
 40
1.0
 40
1.0
 40
1.0
 10
655.67824276
 20
139.8937367628
 30
0.0
 10
656.2154282436
 20
140.5360788355
 30
0.0
 10
657.0663510721
 20
141.4272432558
 30
0.0
 10
658.2806339785
 20
142.4389779225
 30
0.0
 10
659.1432709688
 20
143.0369216494
 30
0.0
 10
659.9477339726
 20
143.4720828047
 30
0.0
 10
660.6679582445
 20
143.7287778265
 30
0.0
 10
661.2869378395
 20
143.8026750584
 30
0.0
 10
661.6512474512
 20
143.6992289545
 30
0.0
 10
661.7862447952
 20
143.6114307344
 30
0.0
  0
SPLINE
  5
60F
100
AcDbEntity
  8
KONSTRUKTIONSELEMENTE
100
AcDbSpline
 62
7
  6
CONTINUOUS
 70
0
 71
3
 72
9
 73
5
 74
0
 42
0.0000001
 43
0.0000001
 44
0.0000000001
 40
0.0
 40
0.0
 40
0.0
 40
0.0
 40
0.2933152047
 40
1.0
 40
1.0
 40
1.0
 40
1.0
 10
585.557584173
 20
49.7123902806
 30
0.0
 10
585.557584173
 20
49.6827855075
 30
0.0
 10
585.5631832146
 20
49.5827901033
 30
0.0
 10
585.605935015
 20
49.479163321
 30
0.0
 10
585.6598535061
 20
49.4324695028
 30
0.0
  0
SPLINE
  5
610
100
AcDbEntity
  8
KONSTRUKTIONSELEMENTE
100
AcDbSpline
 62
7
  6
CONTINUOUS
 70
0
 71
3
 72
11
 73
7
 74
0
 42
0.0000001
 43
0.0000001
 44
0.0000000001
 40
0.0
 40
0.0
 40
0.0
 40
0.0
 40
0.2857886869
 40
0.5710293088
 40
0.8184092914
 40
1.0
 40
1.0
 40
1.0
 40
1.0
 10
586.9364423963
 20
58.4465165302
 30
0.0
 10
586.7477662442
 20
58.2831181894
 30
0.0
 10
586.3966963471
 20
57.9264490432
 30
0.0
 10
585.9643738394
 20
57.3533331114
 30
0.0
 10
585.6668955219
 20
56.8052656226
 30
0.0
 10
585.557584173
 20
56.4359835036
 30
0.0
 10
585.557584173
 20
56.2773902806
 30
0.0
  0
SPLINE
  5
611
100
AcDbEntity
  8
KONSTRUKTIONSELEMENTE
100
AcDbSpline
 62
7
  6
CONTINUOUS
 70
0
 71
3
 72
9
 73
5
 74
0
 42
0.0000001
 43
0.0000001
 44
0.0000000001
 40
0.0
 40
0.0
 40
0.0
 40
0.0
 40
0.2366663301
 40
1.0
 40
1.0
 40
1.0
 40
1.0
 10
603.9423604838
 20
75.2675168288
 30
0.0
 10
603.933274604
 20
75.2273041987
 30
0.0
 10
603.8919351863
 20
75.0580601259
 30
0.0
 10
603.8397375791
 20
74.8915614971
 30
0.0
 10
603.7954497825
 20
74.7661840218
 30
0.0
  0
SPLINE
  5
612
100
AcDbEntity
  8
KONSTRUKTIONSELEMENTE
100
AcDbSpline
 62
7
  6
CONTINUOUS
 70
0
 71
3
 72
11
 73
7
 74
0
 42
0.0000001
 43
0.0000001
 44
0.0000000001
 40
0.0
 40
0.0
 40
0.0
 40
0.0
 40
0.2214501299
 40
0.4742604085
 40
0.7403367523
 40
1.0
 40
1.0
 40
1.0
 40
1.0
 10
603.7216237216
 20
74.5688433234
 30
0.0
 10
603.567531645
 20
74.1781178743
 30
0.0
 10
603.157391427
 20
73.3729617319
 30
0.0
 10
602.3718015572
 20
72.206314563
 30
0.0
 10
601.4231380877
 20
71.0715017223
 30
0.0
 10
600.7081534205
 20
70.3731681307
 30
0.0
 10
600.3358662779
 20
70.0507580077
 30
0.0
  0
SPLINE
  5
613
100
AcDbEntity
  8
KONSTRUKTIONSELEMENTE
100
AcDbSpline
 62
7
  6
CONTINUOUS
 70
0
 71
3
 72
12
 73
8
 74
0
 42
0.0000001
 43
0.0000001
 44
0.0000000001
 40
0.0
 40
0.0
 40
0.0
 40
0.0
 40
0.3358890466
 40
0.6331184293
 40
0.7558878341
 40
0.8575228726
 40
1.0
 40
1.0
 40
1.0
 40
1.0
 10
643.6828183826
 20
124.6025173979
 30
0.0
 10
643.8439840009
 20
124.7952319452
 30
0.0
 10
644.1728141755
 20
125.1383078434
 30
0.0
 10
644.6186481457
 20
125.4897562795
 30
0.0
 10
644.9649994078
 20
125.6759244812
 30
0.0
 10
645.2186180774
 20
125.7690007265
 30
0.0
 10
645.4258863828
 20
125.7759248375
 30
0.0
 10
645.5152189931
 20
125.7178255894
 30
0.0
  0
SPLINE
  5
614
100
AcDbEntity
  8
KONSTRUKTIONSELEMENTE
100
AcDbSpline
 62
7
  6
CONTINUOUS
 70
0
 71
3
 72
12
 73
8
 74
0
 42
0.0000001
 43
0.0000001
 44
0.0000000001
 40
0.0
 40
0.0
 40
0.0
 40
0.0
 40
0.1424771274
 40
0.2441121659
 40
0.3668815707
 40
0.6641109534
 40
1.0
 40
1.0
 40
1.0
 40
1.0
 10
647.4576545448
 20
124.4545238145
 30
0.0
 10
647.5469871551
 20
124.3964245664
 30
0.0
 10
647.7542554605
 20
124.4033486774
 30
0.0
 10
648.0078741301
 20
124.4964249227
 30
0.0
 10
648.3542253923
 20
124.6825931244
 30
0.0
 10
648.8000593624
 20
125.0340415605
 30
0.0
 10
649.1288895371
 20
125.3771174586
 30
0.0
 10
649.2900551554
 20
125.569832006
 30
0.0
  0
SPLINE
  5
615
100
AcDbEntity
  8
BEZUGSACHSEN
100
AcDbSpline
 62
7
  6
CONTINUOUS
 70
0
 71
3
 72
11
 73
7
 74
0
 42
0.0000001
 43
0.0000001
 44
0.0000000001
 40
0.0
 40
0.0
 40
0.0
 40
0.0
 40
0.3535251165
 40
0.508042702
 40
0.6446321057
 40
1.0
 40
1.0
 40
1.0
 40
1.0
 10
672.7792056323
 20
120.4533900331
 30
0.0
 10
672.4203140518
 20
120.1425808071
 30
0.0
 10
671.8826126605
 20
119.7229973619
 30
0.0
 10
671.1312046558
 20
119.2755939658
 30
0.0
 10
670.3744672667
 20
118.9119565757
 30
0.0
 10
669.5397129593
 20
118.7332382424
 30
0.0
 10
669.178875691
 20
119.0455810357
 30
0.0
  0
SPLINE
  5
616
100
AcDbEntity
  8
KONSTRUKTIONSELEMENTE
100
AcDbSpline
 62
7
  6
CONTINUOUS
 70
0
 71
3
 72
9
 73
5
 74
0
 42
0.0000001
 43
0.0000001
 44
0.0000000001
 40
0.0
 40
0.0
 40
0.0
 40
0.0
 40
0.5487156268
 40
1.0
 40
1.0
 40
1.0
 40
1.0
 10
607.018274982
 20
51.550780053
 30
0.0
 10
607.018274982
 20
51.3647342294
 30
0.0
 10
607.0550509406
 20
51.0202212441
 30
0.0
 10
607.2436299767
 20
50.7177664931
 30
0.0
 10
607.3592995584
 20
50.6176019298
 30
0.0
  0
SPLINE
  5
617
100
AcDbEntity
  8
BEZUGSACHSEN
100
AcDbSpline
 62
7
  6
CONTINUOUS
 70
0
 71
3
 72
9
 73
5
 74
0
 42
0.0000001
 43
0.0000001
 44
0.0000000001
 40
0.0
 40
0.0
 40
0.0
 40
0.0
 40
0.4460531606
 40
1.0
 40
1.0
 40
1.0
 40
1.0
 10
676.3795355737
 20
127.3611990306
 30
0.0
 10
676.4849760673
 20
127.2699291392
 30
0.0
 10
676.6530464476
 20
126.9852195828
 30
0.0
 10
676.6734065241
 20
126.6662376413
 30
0.0
 10
676.6667655809
 20
126.4931770428
 30
0.0
  0
SPLINE
  5
618
100
AcDbEntity
  8
BEZUGSACHSEN
100
AcDbSpline
 62
7
  6
CONTINUOUS
 70
0
 71
3
 72
9
 73
5
 74
0
 42
0.0000001
 43
0.0000001
 44
0.0000000001
 40
0.0
 40
0.0
 40
0.0
 40
0.0
 40
0.2554176355
 40
1.0
 40
1.0
 40
1.0
 40
1.0
 10
673.9457576029
 20
121.590280037
 30
0.0
 10
673.851899625
 20
121.4881258706
 30
0.0
 10
673.4790363319
 20
121.0931916136
 30
0.0
 10
673.0849084711
 20
120.7181364575
 30
0.0
 10
672.7792056323
 20
120.4533900331
 30
0.0
  0
SPLINE
  5
619
100
AcDbEntity
  8
KONSTRUKTIONSELEMENTE
100
AcDbSpline
 62
7
  6
CONTINUOUS
 70
0
 71
3
 72
9
 73
5
 74
0
 42
0.0000001
 43
0.0000001
 44
0.0000000001
 40
0.0
 40
0.0
 40
0.0
 40
0.0
 40
0.5486959742
 40
1.0
 40
1.0
 40
1.0
 40
1.0
 10
607.018274982
 20
60.6952535134
 30
0.0
 10
607.018274982
 20
60.8440806692
 30
0.0
 10
606.9888427525
 20
61.1196695931
 30
0.0
 10
606.8380250946
 20
61.3616638004
 30
0.0
 10
606.7454774263
 20
61.4417844889
 30
0.0
  0
SPLINE
  5
61A
100
AcDbEntity
  8
KONSTRUKTIONSELEMENTE
100
AcDbSpline
 62
7
  6
CONTINUOUS
 70
0
 71
3
 72
11
 73
7
 74
0
 42
0.0000001
 43
0.0000001
 44
0.0000000001
 40
0.0
 40
0.0
 40
0.0
 40
0.0
 40
0.1734515454
 40
0.3882688685
 40
0.663174106
 40
1.0
 40
1.0
 40
1.0
 40
1.0
 10
656.111462123
 20
83.460457002
 30
0.0
 10
656.2348447336
 20
83.3535975095
 30
0.0
 10
656.4316613788
 20
83.0211904291
 30
0.0
 10
656.4772673251
 20
82.3872087499
 30
0.0
 10
656.3392991097
 20
81.6173627497
 30
0.0
 10
656.1443463345
 20
81.0732651954
 30
0.0
 10
656.0216711692
 20
80.7810013313
 30
0.0
  0
SPLINE
  5
61B
100
AcDbEntity
  8
KONSTRUKTIONSELEMENTE
100
AcDbSpline
 62
7
  6
CONTINUOUS
 70
0
 71
3
 72
12
 73
8
 74
0
 42
0.0000001
 43
0.0000001
 44
0.0000000001
 40
0.0
 40
0.0
 40
0.0
 40
0.0
 40
0.285559551
 40
0.5706148512
 40
0.8178318854
 40
0.9180775674
 40
1.0
 40
1.0
 40
1.0
 40
1.0
 10
603.3413197198
 20
66.0259168478
 30
0.0
 10
603.844417911
 20
66.4616126619
 30
0.0
 10
604.7814289458
 20
67.4134473875
 30
0.0
 10
605.93080723
 20
68.9386710335
 30
0.0
 10
606.6429700359
 20
70.2420419086
 30
0.0
 10
606.9553834059
 20
71.1951674901
 30
0.0
 10
607.018274982
 20
71.6193218617
 30
0.0
 10
607.018274982
 20
71.8102535134
 30
0.0
  0
SPLINE
  5
61C
100
AcDbEntity
  8
KONSTRUKTIONSELEMENTE
100
AcDbSpline
 62
7
  6
CONTINUOUS
 70
0
 71
3
 72
12
 73
8
 74
0
 42
0.0000001
 43
0.0000001
 44
0.0000000001
 40
0.0
 40
0.0
 40
0.0
 40
0.0
 40
0.1424771274
 40
0.2441121659
 40
0.3668815707
 40
0.6641109534
 40
1.0
 40
1.0
 40
1.0
 40
1.0
 10
648.8673424497
 20
119.7983054207
 30
0.0
 10
648.9566750599
 20
119.7402061725
 30
0.0
 10
649.1639433653
 20
119.7471302836
 30
0.0
 10
649.417562035
 20
119.8402065288
 30
0.0
 10
649.7639132971
 20
120.0263747305
 30
0.0
 10
650.2097472672
 20
120.3778231666
 30
0.0
 10
650.5385774419
 20
120.7208990648
 30
0.0
 10
650.6997430602
 20
120.9136136122
 30
0.0
  0
SPLINE
  5
61D
100
AcDbEntity
  8
KONSTRUKTIONSELEMENTE
100
AcDbSpline
 62
7
  6
CONTINUOUS
 70
0
 71
3
 72
11
 73
7
 74
0
 42
0.0000001
 43
0.0000001
 44
0.0000000001
 40
0.0
 40
0.0
 40
0.0
 40
0.0
 40
0.2916456338
 40
0.5643005996
 40
0.8039122653
 40
1.0
 40
1.0
 40
1.0
 40
1.0
 10
609.672033508
 20
77.5921018127
 30
0.0
 10
609.3287109963
 20
77.181572302
 30
0.0
 10
608.6983908497
 20
76.3580804783
 30
0.0
 10
607.9135585186
 20
75.1057311107
 30
0.0
 10
607.3498748454
 20
73.9318634983
 30
0.0
 10
607.1142747414
 20
73.1608429824
 30
0.0
 10
607.0574200132
 20
72.8055433015
 30
0.0
  0
SPLINE
  5
61E
100
AcDbEntity
  8
KONSTRUKTIONSELEMENTE
100
AcDbSpline
 62
7
  6
CONTINUOUS
 70
0
 71
3
 72
14
 73
10
 74
0
 42
0.0000001
 43
0.0000001
 44
0.0000000001
 40
0.0
 40
0.0
 40
0.0
 40
0.0
 40
0.0643929979
 40
0.1447975566
 40
0.2461315598
 40
0.3685259667
 40
0.5095271747
 40
0.6651688664
 40
1.0
 40
1.0
 40
1.0
 40
1.0
 10
665.3217787011
 20
140.5495685559
 30
0.0
 10
665.1867825547
 20
140.6373659972
 30
0.0
 10
664.8224777724
 20
140.7408123051
 30
0.0
 10
664.2035044787
 20
140.6669178945
 30
0.0
 10
663.4832748124
 20
140.4102249476
 30
0.0
 10
662.6787995736
 20
139.9750569974
 30
0.0
 10
661.8161517257
 20
139.3771037048
 30
0.0
 10
660.6018730848
 20
138.3653684876
 30
0.0
 10
659.7509571709
 20
137.4742107037
 30
0.0
 10
659.213776666
 20
136.8318745844
 30
0.0
  0
SPLINE
  5
61F
100
AcDbEntity
  8
KONSTRUKTIONSELEMENTE
100
AcDbSpline
 62
7
  6
CONTINUOUS
 70
0
 71
3
 72
9
 73
5
 74
0
 42
0.0000001
 43
0.0000001
 44
0.0000000001
 40
0.0
 40
0.0
 40
0.0
 40
0.0
 40
0.6167870211
 40
1.0
 40
1.0
 40
1.0
 40
1.0
 10
653.496504952
 20
74.7649928381
 30
0.0
 10
653.474311684
 20
74.7121191351
 30
0.0
 10
653.4414989557
 20
74.6258707527
 30
0.0
 10
653.4605889144
 20
74.5203840965
 30
0.0
 10
653.4875162927
 20
74.4970556589
 30
0.0
  0
SPLINE
  5
620
100
AcDbEntity
  8
KONSTRUKTIONSELEMENTE
100
AcDbSpline
 62
7
  6
CONTINUOUS
 70
0
 71
3
 72
11
 73
7
 74
0
 42
0.0000001
 43
0.0000001
 44
0.0000000001
 40
0.0
 40
0.0
 40
0.0
 40
0.0
 40
0.3244592118
 40
0.6118608502
 40
0.8417534778
 40
1.0
 40
1.0
 40
1.0
 40
1.0
 10
655.0470882968
 20
131.6632370184
 30
0.0
 10
655.2179667428
 20
131.7570539589
 30
0.0
 10
655.5330038122
 20
131.9468751329
 30
0.0
 10
655.9402160971
 20
132.2509981572
 30
0.0
 10
656.227997238
 20
132.534343157
 30
0.0
 10
656.356753939
 20
132.7418172643
 30
0.0
 10
656.3724120582
 20
132.8355952568
 30
0.0
  0
SPLINE
  5
621
100
AcDbEntity
  8
KONSTRUKTIONSELEMENTE
100
AcDbSpline
 62
7
  6
CONTINUOUS
 70
0
 71
3
 72
12
 73
8
 74
0
 42
0.0000001
 43
0.0000001
 44
0.0000000001
 40
0.0
 40
0.0
 40
0.0
 40
0.0
 40
0.3170063993
 40
0.6103325802
 40
0.8455669766
 40
0.9329438759
 40
1.0
 40
1.0
 40
1.0
 40
1.0
 10
656.8964786314
 20
130.0616180072
 30
0.0
 10
656.9791119763
 20
130.3038353334
 30
0.0
 10
657.1119894336
 20
130.7800598756
 30
0.0
 10
657.215035931
 20
131.4553059717
 30
0.0
 10
657.2131786878
 20
131.9590660187
 30
0.0
 10
657.1303051514
 20
132.2641815386
 30
0.0
 10
657.0609024357
 20
132.3729484505
 30
0.0
 10
657.020065402
 20
132.4084871285
 30
0.0
  0
SPLINE
  5
622
100
AcDbEntity
  8
KONSTRUKTIONSELEMENTE
100
AcDbSpline
 62
7
  6
CONTINUOUS
 70
0
 71
3
 72
12
 73
8
 74
0
 42
0.0000001
 43
0.0000001
 44
0.0000000001
 40
0.0
 40
0.0
 40
0.0
 40
0.0
 40
0.3358890466
 40
0.6331184293
 40
0.7558878341
 40
0.8575228726
 40
1.0
 40
1.0
 40
1.0
 40
1.0
 10
646.299113473
 20
122.3367393858
 30
0.0
 10
646.4602790913
 20
122.5294539332
 30
0.0
 10
646.7891092659
 20
122.8725298313
 30
0.0
 10
647.234943236
 20
123.2239782675
 30
0.0
 10
647.5812944982
 20
123.4101464692
 30
0.0
 10
647.8349131678
 20
123.5032227144
 30
0.0
 10
648.0421814732
 20
123.5101468254
 30
0.0
 10
648.1315140835
 20
123.4520475773
 30
0.0
  0
SPLINE
  5
623
100
AcDbEntity
  8
KONSTRUKTIONSELEMENTE
100
AcDbSpline
 62
7
  6
CONTINUOUS
 70
0
 71
3
 72
12
 73
8
 74
0
 42
0.0000001
 43
0.0000001
 44
0.0000000001
 40
0.0
 40
0.0
 40
0.0
 40
0.0
 40
0.1424771274
 40
0.2441121659
 40
0.3668815707
 40
0.6641109534
 40
1.0
 40
1.0
 40
1.0
 40
1.0
 10
650.0739496352
 20
122.1887458024
 30
0.0
 10
650.1632822455
 20
122.1306465543
 30
0.0
 10
650.3705505509
 20
122.1375706653
 30
0.0
 10
650.6241692205
 20
122.2306469106
 30
0.0
 10
650.9705204827
 20
122.4168151123
 30
0.0
 10
651.4163544528
 20
122.7682635484
 30
0.0
 10
651.7451846275
 20
123.1113394466
 30
0.0
 10
651.9063502458
 20
123.3040539939
 30
0.0
  0
SPLINE
  5
624
100
AcDbEntity
  8
KONSTRUKTIONSELEMENTE
100
AcDbSpline
 62
7
  6
CONTINUOUS
 70
0
 71
3
 72
12
 73
8
 74
0
 42
0.0000001
 43
0.0000001
 44
0.0000000001
 40
0.0
 40
0.0
 40
0.0
 40
0.0
 40
0.1424811492
 40
0.2441177604
 40
0.3669057908
 40
0.6640959048
 40
1.0
 40
1.0
 40
1.0
 40
1.0
 10
648.4077230419
 20
120.1963475039
 30
0.0
 10
648.4970582172
 20
120.1382465875
 30
0.0
 10
648.704326827
 20
120.1451672647
 30
0.0
 10
648.9579757178
 20
120.2382264377
 30
0.0
 10
649.3042471617
 20
120.4245133479
 30
0.0
 10
649.7501633121
 20
120.7758239971
 30
0.0
 10
650.0789507354
 20
121.1189324205
 30
0.0
 10
650.2401236524
 20
121.3116556954
 30
0.0
  0
SPLINE
  5
625
100
AcDbEntity
  8
KONSTRUKTIONSELEMENTE
100
AcDbSpline
 62
7
  6
CONTINUOUS
 70
0
 71
3
 72
11
 73
7
 74
0
 42
0.0000001
 43
0.0000001
 44
0.0000000001
 40
0.0
 40
0.0
 40
0.0
 40
0.0
 40
0.2857886869
 40
0.5710293088
 40
0.8184092914
 40
1.0
 40
1.0
 40
1.0
 40
1.0
 10
589.5527374867
 20
56.1807385181
 30
0.0
 10
589.3640613346
 20
56.0173401774
 30
0.0
 10
589.0129914375
 20
55.6606710311
 30
0.0
 10
588.5806689298
 20
55.0875550993
 30
0.0
 10
588.2831906123
 20
54.5394876105
 30
0.0
 10
588.1738792634
 20
54.1702054915
 30
0.0
 10
588.1738792634
 20
54.0116122685
 30
0.0
  0
SPLINE
  5
626
100
AcDbEntity
  8
KONSTRUKTIONSELEMENTE
100
AcDbSpline
 62
7
  6
CONTINUOUS
 70
0
 71
3
 72
11
 73
7
 74
0
 42
0.0000001
 43
0.0000001
 44
0.0000000001
 40
0.0
 40
0.0
 40
0.0
 40
0.0
 40
0.2028669078
 40
0.4536008687
 40
0.7286103745
 40
1.0
 40
1.0
 40
1.0
 40
1.0
 10
606.5586555742
 20
73.0017388168
 30
0.0
 10
606.4629742991
 20
72.5782690127
 30
0.0
 10
606.0947010584
 20
71.6688005904
 30
0.0
 10
605.2846826147
 20
70.3331174325
 30
0.0
 10
604.2218428712
 20
68.9931917461
 30
0.0
 10
603.3911946726
 20
68.1651939903
 30
0.0
 10
602.9521613683
 20
67.7849799957
 30
0.0
  0
SPLINE
  5
627
100
AcDbEntity
  8
KONSTRUKTIONSELEMENTE
100
AcDbSpline
 62
7
  6
CONTINUOUS
 70
0
 71
3
 72
12
 73
8
 74
0
 42
0.0000001
 43
0.0000001
 44
0.0000000001
 40
0.0
 40
0.0
 40
0.0
 40
0.0
 40
0.2855672817
 40
0.5706138983
 40
0.8178266478
 40
0.9180835819
 40
1.0
 40
1.0
 40
1.0
 40
1.0
 10
602.881700312
 20
66.423958931
 30
0.0
 10
603.3848118641
 20
66.859666316
 30
0.0
 10
604.3218270637
 20
67.8114964853
 30
0.0
 10
605.4711640371
 20
69.3367277511
 30
0.0
 10
606.1833725375
 20
70.6400750852
 30
0.0
 10
606.4957398948
 20
71.5932157636
 30
0.0
 10
606.5586555742
 20
72.0173780608
 30
0.0
 10
606.5586555742
 20
72.2082955966
 30
0.0
  0
SPLINE
  5
628
100
AcDbEntity
  8
KONSTRUKTIONSELEMENTE
100
AcDbSpline
 62
7
  6
CONTINUOUS
 70
0
 71
3
 72
9
 73
5
 74
0
 42
0.0000001
 43
0.0000001
 44
0.0000000001
 40
0.0
 40
0.0
 40
0.0
 40
0.0
 40
0.2756955256
 40
1.0
 40
1.0
 40
1.0
 40
1.0
 10
606.5586555742
 20
61.0932955966
 30
0.0
 10
606.5586555742
 20
61.1390638768
 30
0.0
 10
606.5524653875
 20
61.3047476971
 30
0.0
 10
606.518646718
 20
61.4713426607
 30
0.0
 10
606.4709850173
 20
61.5817351017
 30
0.0
  0
SPLINE
  5
629
100
AcDbEntity
  8
KONSTRUKTIONSELEMENTE
100
AcDbSpline
 62
7
  6
CONTINUOUS
 70
0
 71
3
 72
9
 73
5
 74
0
 42
0.0000001
 43
0.0000001
 44
0.0000000001
 40
0.0
 40
0.0
 40
0.0
 40
0.0
 40
0.5486959742
 40
1.0
 40
1.0
 40
1.0
 40
1.0
 10
606.5586555742
 20
59.7932955966
 30
0.0
 10
606.5586555742
 20
59.9421227524
 30
0.0
 10
606.5292233447
 20
60.2177116763
 30
0.0
 10
606.3784056868
 20
60.4597058836
 30
0.0
 10
606.2858580185
 20
60.5398265721
 30
0.0
  0
SPLINE
  5
62A
100
AcDbEntity
  8
KONSTRUKTIONSELEMENTE
100
AcDbSpline
 62
7
  6
CONTINUOUS
 70
0
 71
3
 72
9
 73
5
 74
0
 42
0.0000001
 43
0.0000001
 44
0.0000000001
 40
0.0
 40
0.0
 40
0.0
 40
0.0
 40
0.2933152047
 40
1.0
 40
1.0
 40
1.0
 40
1.0
 10
588.1738792634
 20
47.4466122685
 30
0.0
 10
588.1738792634
 20
47.4170074954
 30
0.0
 10
588.179478305
 20
47.3170120912
 30
0.0
 10
588.2222301054
 20
47.2133853089
 30
0.0
 10
588.2761485965
 20
47.1666914907
 30
0.0
  0
SPLINE
  5
62B
100
AcDbEntity
  8
0
100
AcDbSpline
 62
7
  6
CONTINUOUS
 70
0
 71
3
 72
11
 73
7
 74
0
 42
0.0000001
 43
0.0000001
 44
0.0000000001
 40
0.0
 40
0.0
 40
0.0
 40
0.0
 40
0.2316969182
 40
0.4718932513
 40
0.7270076514
 40
1.0
 40
1.0
 40
1.0
 40
1.0
 10
758.7949702786
 20
278.6993758618
 30
0.0
 10
758.7949702786
 20
279.9416399517
 30
0.0
 10
759.0938331662
 20
282.4810658788
 30
0.0
 10
760.4363058885
 20
286.1746411732
 30
0.0
 10
762.6730057714
 20
289.6705143655
 30
0.0
 10
764.6747444679
 20
291.7047719663
 30
0.0
 10
765.7949294456
 20
292.6468574862
 30
0.0
  0
SPLINE
  5
62C
100
AcDbEntity
  8
0
100
AcDbSpline
 62
7
  6
CONTINUOUS
 70
0
 71
3
 72
11
 73
7
 74
0
 42
0.0000001
 43
0.0000001
 44
0.0000000001
 40
0.0
 40
0.0
 40
0.0
 40
0.0
 40
0.2729893033
 40
0.5281026148
 40
0.7683000216
 40
1.0
 40
1.0
 40
1.0
 40
1.0
 10
801.7970557734
 20
292.6451375605
 30
0.0
 10
802.9169287412
 20
291.7030822484
 30
0.0
 10
804.918111785
 20
289.668979425
 30
0.0
 10
807.1541396131
 20
286.1735177344
 30
0.0
 10
808.4962029689
 20
282.4804774235
 30
0.0
 10
808.7949702786
 20
279.9414510516
 30
0.0
 10
808.7949702786
 20
278.6993758618
 30
0.0
  0
SPLINE
  5
62D
100
AcDbEntity
  8
0
100
AcDbSpline
 62
7
  6
CONTINUOUS
 70
0
 71
3
 72
15
 73
11
 74
0
 42
0.0000001
 43
0.0000001
 44
0.0000000001
 40
0.0
 40
0.0
 40
0.0
 40
0.0
 40
0.1217652047
 40
0.2439046099
 40
0.3667757952
 40
0.4906909956
 40
0.6158906015
 40
0.7425177664
 40
0.8705921556
 40
1.0
 40
1.0
 40
1.0
 40
1.0
 10
736.7949702786
 20
278.6993758618
 30
0.0
 10
736.7949702786
 20
280.7966802847
 30
0.0
 10
737.1448166972
 20
285.0059650353
 30
0.0
 10
738.7024480541
 20
291.1561567784
 30
0.0
 10
741.2477361146
 20
297.0086964563
 30
0.0
 10
744.7102731463
 20
302.4303294555
 30
0.0
 10
749.00029057
 20
307.308488814
 30
0.0
 10
754.0148703831
 20
311.5481608113
 30
0.0
 10
759.6392118007
 20
315.0711459326
 30
0.0
 10
763.699859364
 20
316.893832656
 30
0.0
 10
765.789561779
 20
317.6692864922
 30
0.0
  0
SPLINE
  5
62E
100
AcDbEntity
  8
0
100
AcDbSpline
 62
7
  6
CONTINUOUS
 70
0
 71
3
 72
15
 73
11
 74
0
 42
0.0000001
 43
0.0000001
 44
0.0000000001
 40
0.0
 40
0.0
 40
0.0
 40
0.0
 40
0.1294081727
 40
0.2574826389
 40
0.3841095797
 40
0.5093088902
 40
0.6332237324
 40
0.7560946579
 40
0.8782341424
 40
1.0
 40
1.0
 40
1.0
 40
1.0
 10
801.7966078248
 20
317.6706887735
 30
0.0
 10
803.8865438521
 20
316.8953506365
 30
0.0
 10
807.9476491481
 20
315.0728139997
 30
0.0
 10
813.5726682068
 20
311.5499327229
 30
0.0
 10
818.5878961241
 20
307.3102448119
 30
0.0
 10
822.8784890184
 20
302.4319352099
 30
0.0
 10
826.3415145178
 20
297.0100367442
 30
0.0
 10
828.8871893923
 20
291.1571307635
 30
0.0
 10
830.4450664819
 20
285.0064800053
 30
0.0
 10
830.7949702786
 20
280.7968544266
 30
0.0
 10
830.7949702786
 20
278.6993758618
 30
0.0
  0
SPLINE
  5
62F
100
AcDbEntity
  8
0
100
AcDbSpline
 62
7
  6
CONTINUOUS
 70
0
 71
3
 72
15
 73
11
 74
0
 42
0.0000001
 43
0.0000001
 44
0.0000000001
 40
0.0
 40
0.0
 40
0.0
 40
0.0
 40
0.1210610265
 40
0.2426160233
 40
0.3651256776
 40
0.4889695023
 40
0.6143995886
 40
0.7414947701
 40
0.8701330792
 40
1.0
 40
1.0
 40
1.0
 40
1.0
 10
830.7949702786
 20
222.4077246158
 30
0.0
 10
830.7949702786
 20
219.9913918043
 30
0.0
 10
830.3294732916
 20
215.1363170532
 30
0.0
 10
828.2642756709
 20
208.1044877707
 30
0.0
 10
824.9113004554
 20
201.524689087
 30
0.0
 10
820.3914648591
 20
195.5910730554
 30
0.0
 10
814.8550718676
 20
190.4608388286
 30
0.0
 10
808.4713028347
 20
186.2607075962
 30
0.0
 10
801.4260310357
 20
183.0887269308
 30
0.0
 10
796.429369096
 20
181.7108703896
 30
0.0
 10
793.8859533572
 20
181.210876653
 30
0.0
  0
SPLINE
  5
630
100
AcDbEntity
  8
0
100
AcDbSpline
 62
7
  6
CONTINUOUS
 70
0
 71
3
 72
11
 73
7
 74
0
 42
0.0000001
 43
0.0000001
 44
0.0000000001
 40
0.0
 40
0.0
 40
0.0
 40
0.0
 40
0.2540583159
 40
0.5057547979
 40
0.754483655
 40
1.0
 40
1.0
 40
1.0
 40
1.0
 10
773.7066028576
 20
181.2103617537
 30
0.0
 10
771.1968290255
 20
181.7036207497
 30
0.0
 10
766.265149781
 20
183.0579513704
 30
0.0
 10
759.3025017559
 20
186.1666543987
 30
0.0
 10
752.9805733599
 20
190.2767099897
 30
0.0
 10
749.2843408252
 20
193.6485844662
 30
0.0
 10
747.606901343
 20
195.4640546777
 30
0.0
  0
SPLINE
  5
631
100
AcDbEntity
  8
0
100
AcDbSpline
 62
7
  6
CONTINUOUS
 70
0
 71
3
 72
11
 73
7
 74
0
 42
0.0000001
 43
0.0000001
 44
0.0000000001
 40
0.0
 40
0.0
 40
0.0
 40
0.0
 40
0.2521987722
 40
0.5025435313
 40
0.75159912
 40
1.0
 40
1.0
 40
1.0
 40
1.0
 10
743.7360506274
 20
200.316828983
 30
0.0
 10
742.6217783717
 20
201.9467454911
 30
0.0
 10
740.630141906
 20
205.3585364546
 30
0.0
 10
738.4353429486
 20
210.8407992407
 30
0.0
 10
737.0953914047
 20
216.5620936689
 30
0.0
 10
736.7949702786
 20
220.463063552
 30
0.0
 10
736.7949702786
 20
222.4077246158
 30
0.0
  0
SPLINE
  5
632
100
AcDbEntity
  8
0
100
AcDbSpline
 62
7
  6
CONTINUOUS
 70
0
 71
3
 72
14
 73
10
 74
0
 42
0.0000001
 43
0.0000001
 44
0.0000000001
 40
0.0
 40
0.0
 40
0.0
 40
0.0
 40
0.1078259079
 40
0.2181660442
 40
0.3331577066
 40
0.454187284
 40
0.5818617131
 40
0.7160485367
 40
1.0
 40
1.0
 40
1.0
 40
1.0
 10
808.7949702786
 20
222.4077246158
 30
0.0
 10
808.7949702786
 20
221.4322122425
 30
0.0
 10
808.6128673123
 20
219.4538233718
 30
0.0
 10
807.7929176895
 20
216.5373128263
 30
0.0
 10
806.4199944928
 20
213.7027027989
 30
0.0
 10
804.4962868323
 20
211.0148549924
 30
0.0
 10
802.0411093063
 20
208.5495719409
 30
0.0
 10
798.0504329372
 20
205.6172856281
 30
0.0
 10
794.5191572152
 20
204.0819197873
 30
0.0
 10
792.0489985444
 20
203.3763965432
 30
0.0
  0
SPLINE
  5
633
100
AcDbEntity
  8
0
100
AcDbSpline
 62
7
  6
CONTINUOUS
 70
0
 71
3
 72
9
 73
5
 74
0
 42
0.0000001
 43
0.0000001
 44
0.0000000001
 40
0.0
 40
0.0
 40
0.0
 40
0.0
 40
0.516614772
 40
1.0
 40
1.0
 40
1.0
 40
1.0
 10
775.5407142333
 20
203.3764651352
 30
0.0
 10
773.4424455434
 20
203.975787661
 30
0.0
 10
769.4951982208
 20
205.5977397859
 30
0.0
 10
766.0495663999
 20
208.1306196034
 30
0.0
 10
764.5852185924
 20
209.5535448894
 30
0.0
  0
SPLINE
  5
634
100
AcDbEntity
  8
0
100
AcDbSpline
 62
7
  6
CONTINUOUS
 70
0
 71
3
 72
9
 73
5
 74
0
 42
0.0000001
 43
0.0000001
 44
0.0000000001
 40
0.0
 40
0.0
 40
0.0
 40
0.0
 40
0.5099491102
 40
1.0
 40
1.0
 40
1.0
 40
1.0
 10
760.7338155221
 20
214.6720964495
 30
0.0
 10
760.1031858406
 20
215.8832715453
 30
0.0
 10
759.1291177913
 20
218.4079453176
 30
0.0
 10
758.7949702786
 20
221.0954893205
 30
0.0
 10
758.7949702786
 20
222.4077246158
 30
0.0
  0
ELLIPSE
  5
635
100
AcDbEntity
  8
KONSTRUKTIONSELEMENTE
100
AcDbEllipse
 62
7
  6
CONTINUOUS
 10
83.2183060255
 20
133.9930048005
 30
0.0
 11
1.980963632
 21
-0.4682215726
 31
0.0
 40
0.0607989098
 41
-2.7235007144
 42
-1.1527043876
  0
ELLIPSE
  5
636
100
AcDbEntity
  8
KONSTRUKTIONSELEMENTE
100
AcDbEllipse
 62
7
  6
CONTINUOUS
 10
89.3969928483
 20
130.6241422342
 30
0.0
 11
-1.0679387289
 21
1.9951776436
 31
0.0
 40
0.7424978488
 41
4.1566475332
 42
5.72744386
  0
ELLIPSE
  5
637
100
AcDbEntity
  8
KONSTRUKTIONSELEMENTE
100
AcDbEllipse
 62
7
  6
CONTINUOUS
 10
113.2939873786
 20
90.8612694497
 30
0.0
 11
38.9711431703
 21
67.5
 31
0.0
 40
0.5773502692
 41
-0.346223333
 42
-0.1584398369
  0
ELLIPSE
  5
638
100
AcDbEntity
  8
KONSTRUKTIONSELEMENTE
100
AcDbEllipse
 62
7
  6
CONTINUOUS
 10
113.2939873786
 20
90.8612694497
 30
0.0
 11
38.9711431703
 21
67.5
 31
0.0
 40
0.5773502692
 41
0.1584398369
 42
0.346223333
  0
ELLIPSE
  5
639
100
AcDbEntity
  8
0
100
AcDbEllipse
 62
7
  6
CONTINUOUS
 10
480.1907499809
 20
90.8612694497
 30
0.0
 11
-38.9711431703
 21
67.5
 31
0.0
 40
0.5773502692
 41
-0.346223333
 42
-0.1584398369
  0
ELLIPSE
  5
63A
100
AcDbEntity
  8
0
100
AcDbEllipse
 62
7
  6
CONTINUOUS
 10
480.1907499809
 20
90.8612694497
 30
0.0
 11
-38.9711431703
 21
67.5
 31
0.0
 40
0.5773502692
 41
0.1584398369
 42
0.346223333
  0
ELLIPSE
  5
63B
100
AcDbEntity
  8
0
100
AcDbEllipse
 62
7
  6
CONTINUOUS
 10
776.3701864731
 20
178.5299815915
 30
0.0
 11
-0.7577623572
 21
19.9859496715
 31
0.0
 40
0.1499826174
 41
-2.0721294977
 42
-1.8184032029
  0
ELLIPSE
  5
63C
100
AcDbEntity
  8
0
100
AcDbEllipse
 62
7
  6
CONTINUOUS
 10
776.6634627441
 20
171.2104853008
 30
0.0
 11
-0.2160298241
 21
4.5941061937
 31
0.0
 40
0.6522685966
 41
-2.4741231321
 42
-2.0971051843
  0
ELLIPSE
  5
63D
100
AcDbEntity
  8
RUNDUNGEN
100
AcDbEllipse
 62
7
  6
CONTINUOUS
 10
790.9264778131
 20
171.2104853008
 30
0.0
 11
0.2160298241
 21
4.5941061937
 31
0.0
 40
0.6522685966
 41
-4.1860801229
 42
-3.8090621751
  0
ELLIPSE
  5
63E
100
AcDbEntity
  8
RUNDUNGEN
100
AcDbEllipse
 62
7
  6
CONTINUOUS
 10
791.2197540841
 20
178.5299815915
 30
0.0
 11
0.7577623572
 21
19.9859496715
 31
0.0
 40
0.1499826174
 41
-4.4647821042
 42
-4.2110558095
  0
ELLIPSE
  5
63F
100
AcDbEntity
  8
KONSTRUKTIONSELEMENTE
100
AcDbEllipse
 62
7
  6
CONTINUOUS
 10
654.2135455229
 20
136.9936297354
 30
0.0
 11
-0.21844181
 21
2.7146389778
 31
0.0
 40
0.2046205075
 41
1.414284035
 42
2.9366360375
  0
ELLIPSE
  5
640
100
AcDbEntity
  8
KONSTRUKTIONSELEMENTE
100
AcDbEllipse
 62
7
  6
CONTINUOUS
 10
654.38536837
 20
133.6860044126
 30
0.0
 11
1.7851318869
 21
2.0999716065
 31
0.0
 40
0.2502772103
 41
4.7445645141
 42
4.8795928328
  0
ELLIPSE
  5
641
100
AcDbEntity
  8
KONSTRUKTIONSELEMENTE
100
AcDbEllipse
 62
7
  6
CONTINUOUS
 10
657.6783687508
 20
133.9930048005
 30
0.0
 11
2.6921229081
 21
0.2166299849
 31
0.0
 40
0.1605475814
 41
1.7760442449
 42
3.2983962474
  0
ELLIPSE
  5
642
100
AcDbEntity
  8
KONSTRUKTIONSELEMENTE
100
AcDbEllipse
 62
7
  6
CONTINUOUS
 10
657.9209022759
 20
130.6241422342
 30
0.0
 11
1.7851318869
 21
2.0999716065
 31
0.0
 40
0.2502772103
 41
-1.538620793
 42
0.0321755338
  0
ENDSEC
  0
SECTION
  2
OBJECTS
  0
DICTIONARY
  5
C
100
AcDbDictionary
280
0
281
1
  3
ACAD_GROUP
350
D
  3
ACAD_MLINESTYLE
350
17
  3
ACAD_LAYOUT
350
1A
  3
ACAD_PLOTSETTINGS
350
19
  3
ACAD_PLOTSTYLENAME
350
E
  0
DICTIONARY
  5
D
102
{ACAD_REACTORS
330
C
102
}
100
AcDbDictionary
280
0
281
1
  0
ACDBDICTIONARYWDFLT
  5
E
102
{ACAD_REACTORS
330
C
102
}
100
AcDbDictionary
281
1
  3
Normal
350
F
100
AcDbDictionaryWithDefault
340
F
  0
DICTIONARY
  5
17
102
{ACAD_REACTORS
330
C
102
}
100
AcDbDictionary
280
0
281
1
  3
Standard
350
18
  0
DICTIONARY
  5
19
102
{ACAD_REACTORS
330
C
102
}
100
AcDbDictionary
281
1
  0
DICTIONARY
  5
1A
102
{ACAD_REACTORS
330
C
102
}
100
AcDbDictionary
281
1
  3
Model
350
643
  3
Layout1
350
644
  0
ACDBPLACEHOLDER
  5
F
102
{ACAD_REACTORS
330
E
102
}
  0
MLINESTYLE
  5
18
102
{ACAD_REACTORS
330
17
102
}
100
AcDbMlineStyle
  2
STANDARD
 70
0
  3

 62
256
 51
90.0
 52
90.0
 71
2
 49
0.5
 62
256
  6
BYLAYER
 49
-0.5
 62
256
  6
BYLAYER
  0
LAYOUT
  5
643
102
{ACAD_REACTORS
330
1A
102
}
100
AcDbPlotSettings
  1

  2
none_device
  4
ISO_A0_(1189.00_x_841.00_MM)
  6

 40
0.0
 41
0.0
 42
0.0
 43
0.0
 44
1189.0
 45
841.0
 46
0.0
 47
0.0
 48
0.0
 49
0.0
140
0.0
141
0.0
142
1.0
143
1.0
 70
1024
 72
1
 73
0
 74
0
  7

 75
0
147
1.0
148
0.0
149
0.0
100
AcDbLayout
  1
Model
 70
0
 71
0
 10
0.0
 20
0.0
 11
1189.0
 21
841.0
 12
0.0
 22
0.0
 32
0.0
 14
0.0
 24
0.0
 34
0.0
 15
0.0
 25
0.0
 35
0.0
146
0.0
 13
0.0
 23
0.0
 33
0.0
 16
1.0
 26
0.0
 36
0.0
 17
0.0
 27
1.0
 37
0.0
 76
0
330
20C
345
0
346
0
  0
LAYOUT
  5
644
102
{ACAD_REACTORS
330
1A
102
}
100
AcDbPlotSettings
  1

  2
none_device
  4
ISO_A0_(1189.00_x_841.00_MM)
  6

 40
0.0
 41
0.0
 42
0.0
 43
0.0
 44
1189.0
 45
841.0
 46
0.0
 47
0.0
 48
0.0
 49
0.0
140
0.0
141
0.0
142
1.0
143
1.0
 70
0
 72
1
 73
0
 74
0
  7

 75
0
147
1.0
148
0.0
149
0.0
100
AcDbLayout
  1
Layout1
 70
0
 71
1
 10
0.0
 20
0.0
 11
1189.0
 21
841.0
 12
0.0
 22
0.0
 32
0.0
 14
0.0
 24
0.0
 34
0.0
 15
0.0
 25
0.0
 35
0.0
146
0.0
 13
0.0
 23
0.0
 33
0.0
 16
1.0
 26
0.0
 36
0.0
 17
0.0
 27
1.0
 37
0.0
 76
0
330
20D
345
0
346
0
  0
ENDSEC
  0
EOF
