999
DXF file: VSAK-2-13_190_7994077_M32394-P-3.dxf
999
Pro/ENGINEER 2010140 by Parametric Technology Corporation
  0
SECTION
  2
HEADER
  9
$ACADVER
  1
AC1015
  9
$DWGCODEPAGE
  3
ANSI_1252
  9
$EXTMAX
 10
1189.0
 20
841.0
 30
0.0
  9
$EXTMIN
 10
0.0
 20
0.0
 30
0.0
  9
$LIMMIN
 10
0.0
 20
0.0
  9
$LIMMAX
 10
1189.0
 20
841.0
  9
$VIEWCTR
 10
594.5
 20
420.5
  9
$VIEWSIZE
 40
841.0
  9
$CLAYER
  8
0
  9
$LTSCALE
 40
65.395
  9
$CELTYPE
  6
BYLAYER
  9
$DIMSCALE
 40
1.0
  9
$DIMASZ
 40
3.5
  9
$DIMEXO
 40
7.43125
  9
$DIMDLI
 40
45.182
  9
$DIMEXE
 40
21.402
  9
$DIMCEN
 40
10.701
  9
$DIMLFAC
 40
1.0
  9
$DIMBLK
  1
_FILLED
  9
$DIMTXT
 40
3.5
  9
$DIMTOL
 70
1
  9
$DIMLIM
 70
0
  9
$DIMTFAC
 40
1.0
  9
$DIMTP
 40
0.005
  9
$DIMTM
 40
0.005
  9
$PDMODE
 70
3
  9
$PDSIZE
 40
0.3125
  9
$HANDSEED
  5
645
  9
$TILEMODE
 70
1
  9
$MEASUREMENT
 70
1
  9
$INSUNITS
 70
4
  0
ENDSEC
  0
SECTION
  2
CLASSES
  0
CLASS
  1
ACDBDICTIONARYWDFLT
  2
AcDbDictionaryWithDefault
  3
AutoCAD 2000
 90
0
280
0
281
0
  0
CLASS
  1
ACDBPLACEHOLDER
  2
AcDbPlaceHolder
  3
AutoCAD 2000
 90
0
280
0
281
0
  0
CLASS
  1
LAYOUT
  2
AcDbLayout
  3
AutoCAD 2000
 90
0
280
0
281
0
  0
ENDSEC
  0
SECTION
  2
TABLES
  0
TABLE
  2
VPORT
  5
8
100
AcDbSymbolTable
 70
2
  0
VPORT
  5
1F4
100
AcDbSymbolTableRecord
100
AcDbViewportTableRecord
  2
*ACTIVE
 70
0
 10
0.0
 20
0.0
 11
1.0
 21
1.0
 12
594.5
 22
420.5
 13
0.0
 23
0.0
 14
1.0
 24
1.0
 15
0.0
 25
0.0
 16
0.0
 26
0.0
 36
1.0
 17
0.0
 27
0.0
 37
0.0
 40
841.0
 41
1.4137931034
 42
50.0
 43
0.0
 44
0.0
 50
0.0
 51
0.0
 71
0
 72
100
 73
1
 74
1
 75
0
 76
0
 77
0
 78
0
  0
ENDTAB
  0
TABLE
  2
LTYPE
  5
5
100
AcDbSymbolTable
 70
6
  0
LTYPE
  5
14
100
AcDbSymbolTableRecord
100
AcDbLinetypeTableRecord
  2
BYBLOCK
 70
0
  3

 72
65
 73
0
 40
0.0
  0
LTYPE
  5
15
100
AcDbSymbolTableRecord
100
AcDbLinetypeTableRecord
  2
BYLAYER
 70
0
  3

 72
65
 73
0
 40
0.0
  0
LTYPE
  5
16
100
AcDbSymbolTableRecord
100
AcDbLinetypeTableRecord
  2
CONTINUOUS
 70
64
  3
Solid line
 72
65
 73
0
 40
0.0
  0
LTYPE
  5
1F5
100
AcDbSymbolTableRecord
100
AcDbLinetypeTableRecord
  2
CENTER
 70
64
  3
____ _ ____ _ ____ _ ____ _ ____ _ ____ _ ____
 72
65
 73
4
 40
0.6
 49
0.375
 74
0
 49
-0.075
 74
0
 49
0.075
 74
0
 49
-0.075
 74
0
  0
LTYPE
  5
1F6
100
AcDbSymbolTableRecord
100
AcDbLinetypeTableRecord
  2
HIDDEN
 70
64
  3
- - - - - - - - - - - - - - - - - - - -
 72
65
 73
2
 40
0.2
 49
0.1
 74
0
 49
-0.1
 74
0
  0
LTYPE
  5
1F7
100
AcDbSymbolTableRecord
100
AcDbLinetypeTableRecord
  2
PHANTOM
 70
64
  3
_____ _ _ _____ _ _ _____ _ _ _____
 72
65
 73
6
 40
0.8
 49
0.45
 74
0
 49
-0.05
 74
0
 49
0.1
 74
0
 49
-0.05
 74
0
 49
0.1
 74
0
 49
-0.05
 74
0
  0
LTYPE
  5
1F8
100
AcDbSymbolTableRecord
100
AcDbLinetypeTableRecord
  2
DOT
 70
64
  3
. . . . . . . . . . . . . . . . . . . .
 72
65
 73
2
 40
0.2
 49
0.1
 74
0
 49
-0.1
 74
0
  0
LTYPE
  5
1F9
100
AcDbSymbolTableRecord
100
AcDbLinetypeTableRecord
  2
DASHED
 70
64
  3
- - - - - - - - - - - - - - - - - - - -
 72
65
 73
2
 40
0.2
 49
0.1
 74
0
 49
-0.1
 74
0
  0
ENDTAB
  0
TABLE
  2
LAYER
  5
2
100
AcDbSymbolTable
 70
36
  0
LAYER
  5
10
100
AcDbSymbolTableRecord
100
AcDbLayerTableRecord
  2
0
 70
0
 62
7
  6
CONTINUOUS
370
-3
390
F
  0
LAYER
  5
1FA
100
AcDbSymbolTableRecord
100
AcDbLayerTableRecord
  2
DEFAULT_1
 70
0
 62
7
  6
CENTER
370
-3
390
F
  0
LAYER
  5
1FB
100
AcDbSymbolTableRecord
100
AcDbLayerTableRecord
  2
DEFAULT_2
 70
0
 62
8
  6
HIDDEN
370
-3
390
F
  0
LAYER
  5
1FC
100
AcDbSymbolTableRecord
100
AcDbLayerTableRecord
  2
DEFAULT_3
 70
0
 62
7
  6
PHANTOM
370
-3
390
F
  0
LAYER
  5
1FD
100
AcDbSymbolTableRecord
100
AcDbLayerTableRecord
  2
AUSFORMSCHRAEGEN
 70
0
 62
7
  6
CONTINUOUS
370
-3
390
F
  0
LAYER
  5
1FE
100
AcDbSymbolTableRecord
100
AcDbLayerTableRecord
  2
BEZUGSACHSEN
 70
0
 62
7
  6
CONTINUOUS
370
-3
390
F
  0
LAYER
  5
1FF
100
AcDbSymbolTableRecord
100
AcDbLayerTableRecord
  2
BEZUGSEBENEN
 70
0
 62
7
  6
CONTINUOUS
370
-3
390
F
  0
LAYER
  5
200
100
AcDbSymbolTableRecord
100
AcDbLayerTableRecord
  2
BG_STARTBEZUEGE
 70
0
 62
7
  6
CONTINUOUS
370
-3
390
F
  0
LAYER
  5
201
100
AcDbSymbolTableRecord
100
AcDbLayerTableRecord
  2
FASEN
 70
0
 62
7
  6
CONTINUOUS
370
-3
390
F
  0
LAYER
  5
202
100
AcDbSymbolTableRecord
100
AcDbLayerTableRecord
  2
HILFEN
 70
0
 62
7
  6
CONTINUOUS
370
-3
390
F
  0
LAYER
  5
203
100
AcDbSymbolTableRecord
100
AcDbLayerTableRecord
  2
KONSTRUKTIONSELEMENTE
 70
0
 62
7
  6
CONTINUOUS
370
-3
390
F
  0
LAYER
  5
204
100
AcDbSymbolTableRecord
100
AcDbLayerTableRecord
  2
NORM
 70
0
 62
7
  6
CONTINUOUS
370
-3
390
F
  0
LAYER
  5
205
100
AcDbSymbolTableRecord
100
AcDbLayerTableRecord
  2
PLATZIERUNG
 70
0
 62
7
  6
CONTINUOUS
370
-3
390
F
  0
LAYER
  5
206
100
AcDbSymbolTableRecord
100
AcDbLayerTableRecord
  2
PLAZIERUNG
 70
0
 62
7
  6
CONTINUOUS
370
-3
390
F
  0
LAYER
  5
207
100
AcDbSymbolTableRecord
100
AcDbLayerTableRecord
  2
RUNDUNGEN
 70
0
 62
7
  6
CONTINUOUS
370
-3
390
F
  0
LAYER
  5
208
100
AcDbSymbolTableRecord
100
AcDbLayerTableRecord
  2
TEIL_STARTBEZUEGE
 70
0
 62
7
  6
CONTINUOUS
370
-3
390
F
  0
LAYER
  5
209
100
AcDbSymbolTableRecord
100
AcDbLayerTableRecord
  2
T_STARTBEZUEGE
 70
0
 62
7
  6
CONTINUOUS
370
-3
390
F
  0
ENDTAB
  0
TABLE
  2
STYLE
  5
3
100
AcDbSymbolTable
 70
1
  0
STYLE
  5
11
100
AcDbSymbolTableRecord
100
AcDbTextStyleTableRecord
  2
STANDARD
 70
0
 40
0.0
 41
0.7
 50
0.0
 71
0
 42
0.2
  3
txt
  4

  0
STYLE
  5
20A
100
AcDbSymbolTableRecord
100
AcDbTextStyleTableRecord
  2
TEXTSTYLE_1
 70
0
 40
0.0
 41
0.8
 50
0.0
 71
0
 42
0.2
  3
gdt
  4

  0
ENDTAB
  0
TABLE
  2
VIEW
  5
6
100
AcDbSymbolTable
 70
0
  0
ENDTAB
  0
TABLE
  2
UCS
  5
7
100
AcDbSymbolTable
 70
0
  0
ENDTAB
  0
TABLE
  2
APPID
  5
9
100
AcDbSymbolTable
 70
1
  0
APPID
  5
20B
100
AcDbSymbolTableRecord
100
AcDbRegAppTableRecord
  2
ACAD
 70
0
  0
ENDTAB
  0
TABLE
  2
BLOCK_RECORD
  5
1
100
AcDbSymbolTable
 70
0
  0
BLOCK_RECORD
  5
20C
100
AcDbSymbolTableRecord
100
AcDbBlockTableRecord
  2
*Model_Space
  0
BLOCK_RECORD
  5
20D
100
AcDbSymbolTableRecord
100
AcDbBlockTableRecord
  2
*Paper_Space
  0
ENDTAB
  0
TABLE
  2
DIMSTYLE
  5
A
100
AcDbSymbolTable
 70
1
100
AcDbDimStyleTable
 71
0
  0
DIMSTYLE
105
20E
100
AcDbSymbolTableRecord
100
AcDbDimStyleTableRecord
  2
STANDARD
 70
0
  3

  4

 40
1.0
 41
3.5
 42
0.0625
 43
0.38
 44
0.18
 45
0.0
 46
0.0
 47
0.005
 48
0.005
140
3.5
141
0.09
142
0.0
143
25.4
144
1.0
145
0.0
146
1.0
147
0.09
 71
1.0
 72
0.0
 73
0
 74
0
 75
0
 76
0
 77
1
 78
8
170
0
171
2
172
0
173
0
174
0
175
0
176
0
177
0
178
5
270
2
271
3
272
3
273
2
274
2
275
0
280
0
281
0
282
0
283
1
284
8
285
0
286
0
287
3
288
0
340
11
  0
ENDTAB
  0
ENDSEC
  0
SECTION
  2
BLOCKS
  0
BLOCK
  5
20
100
AcDbEntity
  8
0
100
AcDbBlockBegin
  2
*Model_Space
 70
0
 10
0.0
 20
0.0
 30
0.0
  3
*Model_Space
  1

  0
ENDBLK
  5
21
100
AcDbEntity
  8
0
100
AcDbBlockEnd
  0
BLOCK
  5
1C
100
AcDbEntity
  8
0
100
AcDbBlockBegin
  2
*Paper_Space
 70
0
 10
0.0
 20
0.0
 30
0.0
  3
*Paper_Space
  1

  0
ENDBLK
  5
1D
100
AcDbEntity
  8
0
100
AcDbBlockEnd
  0
ENDSEC
  0
SECTION
  2
ENTITIES
  0
MTEXT
  5
20F
100
AcDbEntity
  8
0
100
AcDbMText
 62
5
  6
CONTINUOUS
  7
STANDARD
 71
1
 72
1
 10
181.4592227105
 20
515.0658634161
 30
0.0
 11
0.0
 21
1.0
 31
0.0
 44
0.9
  1
RUD
 40
8.0
 41
21.3333333333
  0
MTEXT
  5
210
100
AcDbEntity
  8
0
100
AcDbMText
 62
5
  6
CONTINUOUS
  7
STANDARD
 71
1
 72
1
 10
403.7839911192
 20
487.0046278539
 30
0.0
 11
0.0
 21
1.0
 31
0.0
 44
0.9
  1
VSAK 2-13/190
 40
8.0
 41
79.4285714286
  0
MTEXT
  5
211
100
AcDbEntity
  8
0
100
AcDbMText
 62
5
  6
CONTINUOUS
  7
STANDARD
 71
1
 72
1
 10
743.0317826633
 20
476.1077920496
 30
0.0
 11
0.0
 21
1.0
 31
0.0
 44
0.9
  1
RUD VSAK 2-13/190
 40
8.0
 41
105.5238095238
  0
LINE
  5
212
100
AcDbEntity
  8
0
100
AcDbLine
 62
7
  6
CONTINUOUS
 10
0.0
 20
0.0
 11
0.0
 21
841.0
  0
LINE
  5
213
100
AcDbEntity
  8
0
100
AcDbLine
 62
7
  6
CONTINUOUS
 10
0.0
 20
0.0
 11
1189.0
 21
0.0
  0
LINE
  5
214
100
AcDbEntity
  8
0
100
AcDbLine
 62
7
  6
CONTINUOUS
 10
0.0
 20
841.0
 11
1189.0
 21
841.0
  0
LINE
  5
215
100
AcDbEntity
  8
0
100
AcDbLine
 62
7
  6
CONTINUOUS
 10
1189.0
 20
0.0
 11
1189.0
 21
841.0
  0
LINE
  5
216
100
AcDbEntity
  8
KONSTRUKTIONSELEMENTE
100
AcDbLine
 62
7
  6
CONTINUOUS
 10
99.7713256597
 20
108.2789512421
 11
110.0164061864
 21
102.3639512421
  0
LINE
  5
217
100
AcDbEntity
  8
KONSTRUKTIONSELEMENTE
100
AcDbLine
 62
7
  6
CONTINUOUS
 10
99.4382188511
 20
109.0019933253
 11
100.0011353635
 21
108.6769933253
  0
LINE
  5
218
100
AcDbEntity
  8
KONSTRUKTIONSELEMENTE
100
AcDbLine
 62
7
  6
CONTINUOUS
 10
110.2462158903
 20
102.7619933253
 11
110.8091324028
 21
102.4369933253
  0
LINE
  5
219
100
AcDbEntity
  8
KONSTRUKTIONSELEMENTE
100
AcDbLine
 62
7
  6
CONTINUOUS
 10
123.7121264415
 20
115.6856345702
 11
139.5508190834
 21
106.5411611098
  0
LINE
  5
21A
100
AcDbEntity
  8
KONSTRUKTIONSELEMENTE
100
AcDbLine
 62
7
  6
CONTINUOUS
 10
104.4603817154
 20
126.8006345702
 11
103.0860977452
 21
127.5940777903
  0
LINE
  5
21B
100
AcDbEntity
  8
KONSTRUKTIONSELEMENTE
100
AcDbLine
 62
7
  6
CONTINUOUS
 10
146.3771607555
 20
106.7625947693
 11
141.0074608212
 21
112.7786032624
  0
LINE
  5
21C
100
AcDbEntity
  8
KONSTRUKTIONSELEMENTE
100
AcDbLine
 62
7
  6
CONTINUOUS
 10
148.1449277085
 20
109.8244569477
 11
142.7752277741
 21
115.8404654409
  0
LINE
  5
21D
100
AcDbEntity
  8
KONSTRUKTIONSELEMENTE
100
AcDbLine
 62
7
  6
CONTINUOUS
 10
97.1459064394
 20
176.4309787847
 11
105.0407725911
 21
174.7886864774
  0
LINE
  5
21E
100
AcDbEntity
  8
KONSTRUKTIONSELEMENTE
100
AcDbLine
 62
7
  6
CONTINUOUS
 10
97.3757161433
 20
176.8290208679
 11
105.270582295
 21
175.1867285607
  0
LINE
  5
21F
100
AcDbEntity
  8
KONSTRUKTIONSELEMENTE
100
AcDbLine
 62
7
  6
CONTINUOUS
 10
99.0791264368
 20
178.4424286341
 11
105.1521003996
 21
177.1791268592
  0
LINE
  5
220
100
AcDbEntity
  8
KONSTRUKTIONSELEMENTE
100
AcDbLine
 62
7
  6
CONTINUOUS
 10
100.387273982
 20
180.7082066461
 11
106.4602479448
 21
179.4449048713
  0
LINE
  5
221
100
AcDbEntity
  8
KONSTRUKTIONSELEMENTE
100
AcDbLine
 62
7
  6
CONTINUOUS
 10
96.3764576692
 20
189.3700731198
 11
96.3964138367
 21
189.3623763897
  0
LINE
  5
222
100
AcDbEntity
  8
KONSTRUKTIONSELEMENTE
100
AcDbLine
 62
7
  6
CONTINUOUS
 10
169.7940378744
 20
171.5399701067
 11
164.9471815531
 21
174.3383039086
  0
LINE
  5
223
100
AcDbEntity
  8
KONSTRUKTIONSELEMENTE
100
AcDbLine
 62
7
  6
CONTINUOUS
 10
134.6375558064
 20
191.8375744924
 11
129.7906994851
 21
194.6359082942
  0
LINE
  5
224
100
AcDbEntity
  8
KONSTRUKTIONSELEMENTE
100
AcDbLine
 62
7
  6
CONTINUOUS
 10
98.9965965587
 20
188.6832133829
 11
104.9342165487
 21
187.4480679801
  0
LINE
  5
225
100
AcDbEntity
  8
KONSTRUKTIONSELEMENTE
100
AcDbLine
 62
7
  6
CONTINUOUS
 10
104.2713238208
 20
187.7277808125
 11
96.3764576692
 21
189.3700731198
  0
LINE
  5
226
100
AcDbEntity
  8
KONSTRUKTIONSELEMENTE
100
AcDbLine
 62
7
  6
CONTINUOUS
 10
144.1162797042
 20
186.7804490822
 11
102.0074030225
 21
195.5399496127
  0
LINE
  5
227
100
AcDbEntity
  8
KONSTRUKTIONSELEMENTE
100
AcDbLine
 62
7
  6
CONTINUOUS
 10
145.8840466572
 20
189.8423112607
 11
145.5354946753
 21
189.9148171433
  0
LINE
  5
228
100
AcDbEntity
  8
KONSTRUKTIONSELEMENTE
100
AcDbLine
 62
7
  6
CONTINUOUS
 10
133.7055031281
 20
192.3756953571
 11
103.7751699754
 21
198.6018117912
  0
LINE
  5
229
100
AcDbEntity
  8
0
100
AcDbLine
 62
7
  6
CONTINUOUS
 10
148.7435883129
 20
195.4713983191
 11
161.0411490466
 21
188.3713983191
  0
LINE
  5
22A
100
AcDbEntity
  8
0
100
AcDbLine
 62
7
  6
CONTINUOUS
 10
156.5435883129
 20
208.9813946181
 11
168.8411490466
 21
201.8813946181
  0
LINE
  5
22B
100
AcDbEntity
  8
KONSTRUKTIONSELEMENTE
100
AcDbLine
 62
7
  6
CONTINUOUS
 10
186.9293830875
 20
135.771382388
 11
192.2990830219
 21
129.7553738949
  0
LINE
  5
22C
100
AcDbEntity
  8
KONSTRUKTIONSELEMENTE
100
AcDbLine
 62
7
  6
CONTINUOUS
 10
155.8282205289
 20
180.0185568944
 11
194.3819010401
 21
136.8244730103
  0
LINE
  5
22D
100
AcDbEntity
  8
KONSTRUKTIONSELEMENTE
100
AcDbLine
 62
7
  6
CONTINUOUS
 10
196.1496679931
 20
139.8863351888
 11
165.8792342313
 21
173.8001830438
  0
LINE
  5
22E
100
AcDbEntity
  8
KONSTRUKTIONSELEMENTE
100
AcDbLine
 62
7
  6
CONTINUOUS
 10
157.833055409
 20
182.8148171433
 11
157.5959874818
 21
183.0804190729
  0
LINE
  5
22F
100
AcDbEntity
  8
KONSTRUKTIONSELEMENTE
100
AcDbLine
 62
7
  6
CONTINUOUS
 10
96.230633798
 20
191.8222556411
 11
96.3764576692
 21
189.3700731198
  0
LINE
  5
230
100
AcDbEntity
  8
KONSTRUKTIONSELEMENTE
100
AcDbLine
 62
7
  6
CONTINUOUS
 10
97.1459064394
 20
176.4309787847
 11
99.7534437512
 21
132.5824828695
  0
LINE
  5
231
100
AcDbEntity
  8
KONSTRUKTIONSELEMENTE
100
AcDbLine
 62
7
  6
CONTINUOUS
 10
97.3757161433
 20
176.8290208679
 11
97.3460956695
 21
177.3271204426
  0
LINE
  5
232
100
AcDbEntity
  8
KONSTRUKTIONSELEMENTE
100
AcDbLine
 62
7
  6
CONTINUOUS
 10
106.2188850371
 20
185.2355327585
 11
106.7738033584
 21
175.9039946689
  0
LINE
  5
233
100
AcDbEntity
  8
BEZUGSACHSEN
100
AcDbLine
 62
7
  6
CONTINUOUS
 10
213.0639982988
 20
242.1403509895
 11
212.5545428641
 21
242.1056152846
  0
LINE
  5
234
100
AcDbEntity
  8
BEZUGSACHSEN
100
AcDbLine
 62
7
  6
CONTINUOUS
 10
215.7317281473
 20
242.4240850372
 11
215.4770000731
 21
242.4067171604
  0
LINE
  5
235
100
AcDbEntity
  8
BEZUGSACHSEN
100
AcDbLine
 62
7
  6
CONTINUOUS
 10
214.9606332362
 20
242.4733483763
 11
215.4770000731
 21
242.4067171604
  0
LINE
  5
236
100
AcDbEntity
  8
BEZUGSACHSEN
100
AcDbLine
 62
7
  6
CONTINUOUS
 10
215.4967369908
 20
245.8706113826
 11
216.0131038277
 21
245.8039801667
  0
LINE
  5
237
100
AcDbEntity
  8
BEZUGSACHSEN
100
AcDbLine
 62
7
  6
CONTINUOUS
 10
208.9055085908
 20
253.7185355217
 11
209.5473888663
 21
253.6005810029
  0
LINE
  5
238
100
AcDbEntity
  8
BEZUGSACHSEN
100
AcDbLine
 62
7
  6
CONTINUOUS
 10
212.1655394803
 20
242.1809350609
 11
212.5545428641
 21
242.1056152846
  0
LINE
  5
239
100
AcDbEntity
  8
BEZUGSACHSEN
100
AcDbLine
 62
7
  6
CONTINUOUS
 10
212.2583461006
 20
242.6964582367
 11
212.5199852201
 21
242.6124591685
  0
LINE
  5
23A
100
AcDbEntity
  8
BEZUGSACHSEN
100
AcDbLine
 62
7
  6
CONTINUOUS
 10
214.91916419
 20
243.0815591808
 11
215.4424427455
 21
242.913556404
  0
LINE
  5
23B
100
AcDbEntity
  8
BEZUGSACHSEN
100
AcDbLine
 62
7
  6
CONTINUOUS
 10
208.2384180719
 20
259.8003766492
 11
208.6898810682
 21
259.6374564006
  0
LINE
  5
23C
100
AcDbEntity
  8
0
100
AcDbLine
 62
7
  6
CONTINUOUS
 10
422.0066591985
 20
171.3926356727
 11
411.9135960453
 21
175.0662102331
  0
LINE
  5
23D
100
AcDbEntity
  8
0
100
AcDbLine
 62
7
  6
CONTINUOUS
 10
400.6796938862
 20
190.4416809634
 11
401.9534953287
 21
189.9780551539
  0
LINE
  5
23E
100
AcDbEntity
  8
BEZUGSACHSEN
100
AcDbLine
 62
7
  6
CONTINUOUS
 10
209.1166326408
 20
254.4072031073
 11
209.4854350057
 21
254.2586005175
  0
LINE
  5
23F
100
AcDbEntity
  8
BEZUGSACHSEN
100
AcDbLine
 62
7
  6
CONTINUOUS
 10
211.6502580079
 20
258.0639050794
 11
212.0190602939
 21
257.9153024474
  0
LINE
  5
240
100
AcDbEntity
  8
BEZUGSACHSEN
100
AcDbLine
 62
7
  6
CONTINUOUS
 10
178.4562913536
 20
269.1644780525
 11
178.8969582852
 21
268.974283299
  0
LINE
  5
241
100
AcDbEntity
  8
BEZUGSACHSEN
100
AcDbLine
 62
7
  6
CONTINUOUS
 10
214.5158710193
 20
248.4168388565
 11
215.5073203218
 21
247.9841493898
  0
LINE
  5
242
100
AcDbEntity
  8
BEZUGSACHSEN
100
AcDbLine
 62
7
  6
CONTINUOUS
 10
215.5193104925
 20
248.6068798799
 11
216.5107594436
 21
248.1741903467
  0
LINE
  5
243
100
AcDbEntity
  8
BEZUGSACHSEN
100
AcDbLine
 62
7
  6
CONTINUOUS
 10
211.7696250998
 20
242.3576171236
 11
212.1655394803
 21
242.1809350609
  0
LINE
  5
244
100
AcDbEntity
  8
BEZUGSACHSEN
100
AcDbLine
 62
7
  6
CONTINUOUS
 10
214.5647185394
 20
242.6500350792
 11
214.9606332362
 21
242.4733483763
  0
LINE
  5
245
100
AcDbEntity
  8
BEZUGSACHSEN
100
AcDbLine
 62
7
  6
CONTINUOUS
 10
215.5312946348
 20
245.3637674987
 11
215.9272090152
 21
245.187085436
  0
LINE
  5
246
100
AcDbEntity
  8
BEZUGSACHSEN
100
AcDbLine
 62
7
  6
CONTINUOUS
 10
174.2920681378
 20
273.776735725
 11
174.7985450876
 21
273.5415186972
  0
LINE
  5
247
100
AcDbEntity
  8
BEZUGSACHSEN
100
AcDbLine
 62
7
  6
CONTINUOUS
 10
208.3903826151
 20
260.4350657766
 11
208.6786939953
 21
260.2735618223
  0
LINE
  5
248
100
AcDbEntity
  8
BEZUGSACHSEN
100
AcDbLine
 62
7
  6
CONTINUOUS
 10
208.4888430117
 20
253.9567655512
 11
208.9055085908
 21
253.7185355217
  0
LINE
  5
249
100
AcDbEntity
  8
BEZUGSACHSEN
100
AcDbLine
 62
7
  6
CONTINUOUS
 10
212.2301854
 20
258.6039679607
 11
212.646849854
 21
258.3657399666
  0
LINE
  5
24A
100
AcDbEntity
  8
BEZUGSACHSEN
100
AcDbLine
 62
7
  6
CONTINUOUS
 10
178.5400284362
 20
269.9524961201
 11
178.8802854045
 21
269.7467703085
  0
LINE
  5
24B
100
AcDbEntity
  8
BEZUGSACHSEN
100
AcDbLine
 62
7
  6
CONTINUOUS
 10
174.3970078057
 20
273.1389778421
 11
174.6703819935
 21
272.9607987591
  0
LINE
  5
24C
100
AcDbEntity
  8
BEZUGSACHSEN
100
AcDbLine
 62
7
  6
CONTINUOUS
 10
185.295131619
 20
275.1285650631
 11
185.6969532151
 21
274.8660763887
  0
LINE
  5
24D
100
AcDbEntity
  8
BEZUGSACHSEN
100
AcDbLine
 62
7
  6
CONTINUOUS
 10
211.9897951732
 20
242.8818288598
 11
212.2583461006
 21
242.6964582367
  0
LINE
  5
24E
100
AcDbEntity
  8
BEZUGSACHSEN
100
AcDbLine
 62
7
  6
CONTINUOUS
 10
214.6506133518
 20
243.2669298099
 11
214.91916419
 21
243.0815591808
  0
LINE
  5
24F
100
AcDbEntity
  8
BEZUGSACHSEN
100
AcDbLine
 62
7
  6
CONTINUOUS
 10
216.0131038277
 20
245.8039801667
 11
216.5502055041
 21
245.4332389083
  0
LINE
  5
250
100
AcDbEntity
  8
BEZUGSACHSEN
100
AcDbLine
 62
7
  6
CONTINUOUS
 10
174.7985450876
 20
273.5415186972
 11
175.2488773814
 21
273.1531087972
  0
LINE
  5
251
100
AcDbEntity
  8
BEZUGSACHSEN
100
AcDbLine
 62
7
  6
CONTINUOUS
 10
185.1799550592
 20
274.36453069
 11
185.480189217
 21
274.1038444439
  0
LINE
  5
252
100
AcDbEntity
  8
BEZUGSACHSEN
100
AcDbLine
 62
7
  6
CONTINUOUS
 10
177.9765973812
 20
269.606991549
 11
178.4562913536
 21
269.1644780525
  0
LINE
  5
253
100
AcDbEntity
  8
BEZUGSACHSEN
100
AcDbLine
 62
7
  6
CONTINUOUS
 10
214.154981038
 20
243.0294556235
 11
214.5647185394
 21
242.6500350792
  0
LINE
  5
254
100
AcDbEntity
  8
BEZUGSACHSEN
100
AcDbLine
 62
7
  6
CONTINUOUS
 10
211.4941628148
 20
242.6443546704
 11
211.7696250998
 21
242.3576171236
  0
LINE
  5
255
100
AcDbEntity
  8
BEZUGSACHSEN
100
AcDbLine
 62
7
  6
CONTINUOUS
 10
178.2806670721
 20
270.2999120789
 11
178.5400284362
 21
269.9524961201
  0
LINE
  5
256
100
AcDbEntity
  8
BEZUGSACHSEN
100
AcDbLine
 62
7
  6
CONTINUOUS
 10
175.2183046996
 20
270.990487101
 11
177.0122843431
 21
268.4927035342
  0
LINE
  5
257
100
AcDbEntity
  8
BEZUGSACHSEN
100
AcDbLine
 62
7
  6
CONTINUOUS
 10
174.7203514737
 20
270.5558945576
 11
176.3373728734
 21
268.2683417619
  0
LINE
  5
258
100
AcDbEntity
  8
BEZUGSACHSEN
100
AcDbLine
 62
7
  6
CONTINUOUS
 10
174.6703819935
 20
272.9607987591
 11
174.8876112494
 21
272.6294267123
  0
LINE
  5
259
100
AcDbEntity
  8
RUNDUNGEN
100
AcDbLine
 62
7
  6
CONTINUOUS
 10
126.9559612945
 20
206.5982991193
 11
127.0647887412
 21
205.9811079991
  0
LINE
  5
25A
100
AcDbEntity
  8
0
100
AcDbLine
 62
7
  6
CONTINUOUS
 10
127.0647887412
 20
205.9811079991
 11
128.8210839791
 21
196.0206627465
  0
LINE
  5
25B
100
AcDbEntity
  8
RUNDUNGEN
100
AcDbLine
 62
7
  6
CONTINUOUS
 10
134.8899474549
 20
222.6799218246
 11
134.6545584625
 21
224.0148791379
  0
LINE
  5
25C
100
AcDbEntity
  8
BEZUGSACHSEN
100
AcDbLine
 62
7
  6
CONTINUOUS
 10
216.2342721797
 20
242.5601876626
 11
215.7317281473
 21
242.4240850372
  0
LINE
  5
25D
100
AcDbEntity
  8
BEZUGSACHSEN
100
AcDbLine
 62
7
  6
CONTINUOUS
 10
213.5665421932
 20
242.2764582674
 11
213.0639982988
 21
242.1403509895
  0
LINE
  5
25E
100
AcDbEntity
  8
0
100
AcDbLine
 62
7
  6
CONTINUOUS
 10
401.2907897462
 20
278.5296282345
 11
413.8139085729
 21
281.1914993137
  0
LINE
  5
25F
100
AcDbEntity
  8
BEZUGSACHSEN
100
AcDbLine
 62
7
  6
CONTINUOUS
 10
216.6241991631
 20
247.5752149761
 11
210.7289936201
 21
246.4587242214
  0
LINE
  5
260
100
AcDbEntity
  8
BEZUGSACHSEN
100
AcDbLine
 62
7
  6
CONTINUOUS
 10
210.6155539005
 20
247.0576995919
 11
215.5073203218
 21
247.9841493898
  0
LINE
  5
261
100
AcDbEntity
  8
BEZUGSACHSEN
100
AcDbLine
 62
7
  6
CONTINUOUS
 10
214.5158710193
 20
248.4168388565
 11
215.5193104925
 21
248.6068798799
  0
LINE
  5
262
100
AcDbEntity
  8
BEZUGSACHSEN
100
AcDbLine
 62
7
  6
CONTINUOUS
 10
208.6898810682
 20
259.6374564006
 11
209.2799055019
 21
259.7118378017
  0
LINE
  5
263
100
AcDbEntity
  8
BEZUGSACHSEN
100
AcDbLine
 62
7
  6
CONTINUOUS
 10
211.0421470729
 20
258.6606304189
 11
211.5883051639
 21
258.7219225005
  0
LINE
  5
264
100
AcDbEntity
  8
BEZUGSACHSEN
100
AcDbLine
 62
7
  6
CONTINUOUS
 10
213.0294406548
 20
242.6471948733
 11
212.5199852201
 21
242.6124591685
  0
LINE
  5
265
100
AcDbEntity
  8
BEZUGSACHSEN
100
AcDbLine
 62
7
  6
CONTINUOUS
 10
215.6971708197
 20
242.9309242807
 11
215.4424427455
 21
242.913556404
  0
LINE
  5
266
100
AcDbEntity
  8
BEZUGSACHSEN
100
AcDbLine
 62
7
  6
CONTINUOUS
 10
213.8173152283
 20
244.2285093801
 11
214.3267706629
 21
244.2632450849
  0
LINE
  5
267
100
AcDbEntity
  8
BEZUGSACHSEN
100
AcDbLine
 62
7
  6
CONTINUOUS
 10
211.2167091356
 20
258.0627464794
 11
211.6502580079
 21
258.0639050794
  0
LINE
  5
268
100
AcDbEntity
  8
BEZUGSACHSEN
100
AcDbLine
 62
7
  6
CONTINUOUS
 10
208.6786939953
 20
260.2735618223
 11
209.0049957951
 21
260.2707310659
  0
LINE
  5
269
100
AcDbEntity
  8
BEZUGSACHSEN
100
AcDbLine
 62
7
  6
CONTINUOUS
 10
182.2449099184
 20
269.3094193394
 11
184.6830177378
 21
269.2661608958
  0
LINE
  5
26A
100
AcDbEntity
  8
BEZUGSACHSEN
100
AcDbLine
 62
7
  6
CONTINUOUS
 10
182.8680248338
 20
270.0644416398
 11
184.6966056984
 21
270.0319978071
  0
LINE
  5
26B
100
AcDbEntity
  8
BEZUGSACHSEN
100
AcDbLine
 62
7
  6
CONTINUOUS
 10
174.0674889619
 20
273.1639640528
 11
174.3970078057
 21
273.1389778421
  0
LINE
  5
26C
100
AcDbEntity
  8
BEZUGSACHSEN
100
AcDbLine
 62
7
  6
CONTINUOUS
 10
178.8969582852
 20
268.974283299
 11
179.418520804
 21
268.9257788032
  0
LINE
  5
26D
100
AcDbEntity
  8
BEZUGSACHSEN
100
AcDbLine
 62
7
  6
CONTINUOUS
 10
178.8802854045
 20
269.7467703085
 11
179.3014379497
 21
269.6827348208
  0
LINE
  5
26E
100
AcDbEntity
  8
BEZUGSACHSEN
100
AcDbLine
 62
7
  6
CONTINUOUS
 10
211.5883051639
 20
258.7219225005
 11
212.2301854
 21
258.6039679607
  0
LINE
  5
26F
100
AcDbEntity
  8
0
100
AcDbLine
 62
7
  6
CONTINUOUS
 10
192.1939476133
 20
278.5296282345
 11
179.6708287866
 21
281.1914993137
  0
LINE
  5
270
100
AcDbEntity
  8
BEZUGSACHSEN
100
AcDbLine
 62
7
  6
CONTINUOUS
 10
184.7894567622
 20
275.265216716
 11
185.295131619
 21
275.1285650631
  0
LINE
  5
271
100
AcDbEntity
  8
BEZUGSACHSEN
100
AcDbLine
 62
7
  6
CONTINUOUS
 10
184.7758688033
 20
274.4993798941
 11
185.1799550592
 21
274.36453069
  0
LINE
  5
272
100
AcDbEntity
  8
BEZUGSACHSEN
100
AcDbLine
 62
7
  6
CONTINUOUS
 10
208.8125777211
 20
254.7055647514
 11
209.1166326408
 21
254.4072031073
  0
LINE
  5
273
100
AcDbEntity
  8
BEZUGSACHSEN
100
AcDbLine
 62
7
  6
CONTINUOUS
 10
212.0190602939
 20
257.9153024474
 11
212.3231174046
 21
257.6169367006
  0
LINE
  5
274
100
AcDbEntity
  8
BEZUGSACHSEN
100
AcDbLine
 62
7
  6
CONTINUOUS
 10
215.9272090152
 20
245.187085436
 11
216.2026712557
 21
244.9003478862
  0
LINE
  5
275
100
AcDbEntity
  8
BEZUGSACHSEN
100
AcDbLine
 62
7
  6
CONTINUOUS
 10
208.1369270096
 20
254.3447505008
 11
208.4888430117
 21
253.9567655512
  0
LINE
  5
276
100
AcDbEntity
  8
BEZUGSACHSEN
100
AcDbLine
 62
7
  6
CONTINUOUS
 10
212.646849854
 20
258.3657399666
 11
212.9987680372
 21
257.9777509092
  0
LINE
  5
277
100
AcDbEntity
  8
0
100
AcDbLine
 62
7
  6
CONTINUOUS
 10
219.8133138861
 20
258.0152247356
 11
211.2465064966
 21
267.5296282345
  0
LINE
  5
278
100
AcDbEntity
  8
BEZUGSACHSEN
100
AcDbLine
 62
7
  6
CONTINUOUS
 10
206.0504455761
 20
257.8318325447
 11
206.4885054666
 21
257.2715248184
  0
LINE
  5
279
100
AcDbEntity
  8
BEZUGSACHSEN
100
AcDbLine
 62
7
  6
CONTINUOUS
 10
207.264154949
 20
260.6319930205
 11
207.6617953116
 21
260.1233845578
  0
LINE
  5
27A
100
AcDbEntity
  8
BEZUGSACHSEN
100
AcDbLine
 62
7
  6
CONTINUOUS
 10
207.6771554072
 20
261.3473307977
 11
208.3903826151
 21
260.4350657766
  0
LINE
  5
27B
100
AcDbEntity
  8
BEZUGSACHSEN
100
AcDbLine
 62
7
  6
CONTINUOUS
 10
208.7099253925
 20
263.1353319573
 11
209.8989481646
 21
261.6144927743
  0
LINE
  5
27C
100
AcDbEntity
  8
BEZUGSACHSEN
100
AcDbLine
 62
7
  6
CONTINUOUS
 10
209.0538237941
 20
263.7317903889
 11
210.3392226557
 21
262.0876797795
  0
LINE
  5
27D
100
AcDbEntity
  8
BEZUGSACHSEN
100
AcDbLine
 62
7
  6
CONTINUOUS
 10
185.6969532151
 20
274.8660763887
 11
186.0942454915
 21
274.3483087737
  0
LINE
  5
27E
100
AcDbEntity
  8
BEZUGSACHSEN
100
AcDbLine
 62
7
  6
CONTINUOUS
 10
211.2117888223
 20
243.0324637789
 11
211.4941628148
 21
242.6443546704
  0
LINE
  5
27F
100
AcDbEntity
  8
BEZUGSACHSEN
100
AcDbLine
 62
7
  6
CONTINUOUS
 10
211.8486081936
 20
243.0758834152
 11
211.9897951732
 21
242.8818288598
  0
LINE
  5
280
100
AcDbEntity
  8
BEZUGSACHSEN
100
AcDbLine
 62
7
  6
CONTINUOUS
 10
216.5502055041
 20
245.4332389083
 11
216.8325791468
 21
245.0451344378
  0
LINE
  5
281
100
AcDbEntity
  8
BEZUGSACHSEN
100
AcDbLine
 62
7
  6
CONTINUOUS
 10
175.2488773814
 20
273.1531087972
 11
175.4661066373
 21
272.8217367504
  0
LINE
  5
282
100
AcDbEntity
  8
BEZUGSACHSEN
100
AcDbLine
 62
7
  6
CONTINUOUS
 10
177.6977224839
 20
270.0805669621
 11
177.9765973812
 21
269.606991549
  0
LINE
  5
283
100
AcDbEntity
  8
BEZUGSACHSEN
100
AcDbLine
 62
7
  6
CONTINUOUS
 10
185.480189217
 20
274.1038444439
 11
185.6765712703
 21
273.7173207982
  0
LINE
  5
284
100
AcDbEntity
  8
BEZUGSACHSEN
100
AcDbLine
 62
7
  6
CONTINUOUS
 10
178.1022024477
 20
270.7890184511
 11
178.2806670721
 21
270.2999120789
  0
LINE
  5
285
100
AcDbEntity
  8
BEZUGSACHSEN
100
AcDbLine
 62
7
  6
CONTINUOUS
 10
173.3484801281
 20
267.274739929
 11
171.4557358547
 21
272.9683784068
  0
LINE
  5
286
100
AcDbEntity
  8
BEZUGSACHSEN
100
AcDbLine
 62
7
  6
CONTINUOUS
 10
173.926975516
 20
267.4670499671
 11
173.0812812541
 21
270.0110161316
  0
LINE
  5
287
100
AcDbEntity
  8
BEZUGSACHSEN
100
AcDbLine
 62
7
  6
CONTINUOUS
 10
172.8396543544
 20
270.7378635102
 11
172.2355869923
 21
272.554982296
  0
LINE
  5
288
100
AcDbEntity
  8
BEZUGSACHSEN
100
AcDbLine
 62
7
  6
CONTINUOUS
 10
174.8876112494
 20
272.6294267123
 11
175.0084248121
 21
272.2660026836
  0
LINE
  5
289
100
AcDbEntity
  8
BEZUGSACHSEN
100
AcDbLine
 62
7
  6
CONTINUOUS
 10
175.4661066373
 20
272.8217367504
 11
175.6271913499
 21
272.3371714919
  0
LINE
  5
28A
100
AcDbEntity
  8
BEZUGSACHSEN
100
AcDbLine
 62
7
  6
CONTINUOUS
 10
177.4997434782
 20
270.695832567
 11
177.6977224839
 21
270.0805669621
  0
LINE
  5
28B
100
AcDbEntity
  8
BEZUGSACHSEN
100
AcDbLine
 62
7
  6
CONTINUOUS
 10
209.4854350057
 20
254.2586005175
 11
209.8711213945
 21
254.3493843111
  0
LINE
  5
28C
100
AcDbEntity
  8
BEZUGSACHSEN
100
AcDbLine
 62
7
  6
CONTINUOUS
 10
184.6830177378
 20
269.2661608958
 11
185.1932219144
 21
269.3847881946
  0
LINE
  5
28D
100
AcDbEntity
  8
BEZUGSACHSEN
100
AcDbLine
 62
7
  6
CONTINUOUS
 10
179.418520804
 20
268.9257788032
 11
179.820160117
 21
268.9879027259
  0
LINE
  5
28E
100
AcDbEntity
  8
BEZUGSACHSEN
100
AcDbLine
 62
7
  6
CONTINUOUS
 10
179.3014379497
 20
269.6827348208
 11
179.7030772627
 21
269.7448587436
  0
LINE
  5
28F
100
AcDbEntity
  8
BEZUGSACHSEN
100
AcDbLine
 62
7
  6
CONTINUOUS
 10
176.8948153863
 20
274.606772065
 11
177.4972743558
 21
274.6999579492
  0
LINE
  5
290
100
AcDbEntity
  8
BEZUGSACHSEN
100
AcDbLine
 62
7
  6
CONTINUOUS
 10
179.9071090847
 20
275.0727013079
 11
180.5095677669
 21
275.1658871476
  0
LINE
  5
291
100
AcDbEntity
  8
BEZUGSACHSEN
100
AcDbLine
 62
7
  6
CONTINUOUS
 10
173.7697174061
 20
273.7376185592
 11
174.2920681378
 21
273.776735725
  0
LINE
  5
292
100
AcDbEntity
  8
BEZUGSACHSEN
100
AcDbLine
 62
7
  6
CONTINUOUS
 10
182.9472879387
 20
274.5318237268
 11
184.7758688033
 21
274.4993798941
  0
LINE
  5
293
100
AcDbEntity
  8
BEZUGSACHSEN
100
AcDbLine
 62
7
  6
CONTINUOUS
 10
182.3513489428
 20
275.3084751596
 11
184.7894567622
 21
275.265216716
  0
LINE
  5
294
100
AcDbEntity
  8
BEZUGSACHSEN
100
AcDbLine
 62
7
  6
CONTINUOUS
 10
207.7061707841
 20
255.1513726052
 11
208.1369270096
 21
254.3447505008
  0
LINE
  5
295
100
AcDbEntity
  8
BEZUGSACHSEN
100
AcDbLine
 62
7
  6
CONTINUOUS
 10
208.3818214956
 20
255.5121868559
 11
208.8125777211
 21
254.7055647514
  0
LINE
  5
296
100
AcDbEntity
  8
BEZUGSACHSEN
100
AcDbLine
 62
7
  6
CONTINUOUS
 10
210.341232837
 20
255.6370921111
 11
210.7719890624
 21
254.8304700067
  0
LINE
  5
297
100
AcDbEntity
  8
BEZUGSACHSEN
100
AcDbLine
 62
7
  6
CONTINUOUS
 10
211.0168834696
 20
255.9979063197
 11
211.734810512
 21
254.6535361456
  0
LINE
  5
298
100
AcDbEntity
  8
BEZUGSACHSEN
100
AcDbLine
 62
7
  6
CONTINUOUS
 10
212.4611156439
 20
255.7325055281
 11
212.7482864609
 21
255.1947574585
  0
LINE
  5
299
100
AcDbEntity
  8
BEZUGSACHSEN
100
AcDbLine
 62
7
  6
CONTINUOUS
 10
212.3231174046
 20
257.6169367006
 11
212.75387363
 21
256.8103145962
  0
LINE
  5
29A
100
AcDbEntity
  8
BEZUGSACHSEN
100
AcDbLine
 62
7
  6
CONTINUOUS
 10
212.9987680372
 20
257.9777509092
 11
213.4295242626
 21
257.1711288047
  0
LINE
  5
29B
100
AcDbEntity
  8
BEZUGSACHSEN
100
AcDbLine
 62
7
  6
CONTINUOUS
 10
214.3544165883
 20
243.857772762
 11
214.6506133518
 21
243.2669298099
  0
LINE
  5
29C
100
AcDbEntity
  8
BEZUGSACHSEN
100
AcDbLine
 62
7
  6
CONTINUOUS
 10
210.3392226557
 20
262.0876797795
 11
210.5515517642
 21
261.6088312614
  0
LINE
  5
29D
100
AcDbEntity
  8
BEZUGSACHSEN
100
AcDbLine
 62
7
  6
CONTINUOUS
 10
211.0567790271
 20
243.4292521748
 11
211.2117888223
 21
243.0324637789
  0
LINE
  5
29E
100
AcDbEntity
  8
BEZUGSACHSEN
100
AcDbLine
 62
7
  6
CONTINUOUS
 10
186.0942454915
 20
274.3483087737
 11
186.2883628913
 21
273.8341460152
  0
LINE
  5
29F
100
AcDbEntity
  8
BEZUGSACHSEN
100
AcDbLine
 62
7
  6
CONTINUOUS
 10
211.6866870074
 20
243.5740387326
 11
211.8486081936
 21
243.0758834152
  0
LINE
  5
2A0
100
AcDbEntity
  8
BEZUGSACHSEN
100
AcDbLine
 62
7
  6
CONTINUOUS
 10
185.6765712703
 20
273.7173207982
 11
185.7691000693
 21
273.2049604887
  0
LINE
  5
2A1
100
AcDbEntity
  8
BEZUGSACHSEN
100
AcDbLine
 62
7
  6
CONTINUOUS
 10
177.4997434782
 20
270.695832567
 11
176.8948153863
 21
274.606772065
  0
LINE
  5
2A2
100
AcDbEntity
  8
BEZUGSACHSEN
100
AcDbLine
 62
7
  6
CONTINUOUS
 10
178.1022024477
 20
270.7890184511
 11
177.4972743558
 21
274.6999579492
  0
LINE
  5
2A3
100
AcDbEntity
  8
BEZUGSACHSEN
100
AcDbLine
 62
7
  6
CONTINUOUS
 10
179.9071090847
 20
275.0727013079
 11
180.5120371766
 21
271.1617618098
  0
LINE
  5
2A4
100
AcDbEntity
  8
BEZUGSACHSEN
100
AcDbLine
 62
7
  6
CONTINUOUS
 10
180.5095677669
 20
275.1658871476
 11
181.1144958588
 21
271.2549476495
  0
LINE
  5
2A5
100
AcDbEntity
  8
BEZUGSACHSEN
100
AcDbLine
 62
7
  6
CONTINUOUS
 10
175.0328224559
 20
271.8705273519
 11
175.0084248121
 21
272.2660026836
  0
LINE
  5
2A6
100
AcDbEntity
  8
BEZUGSACHSEN
100
AcDbLine
 62
7
  6
CONTINUOUS
 10
175.6515889937
 20
271.9416961602
 11
175.6271913499
 21
272.3371714919
  0
LINE
  5
2A7
100
AcDbEntity
  8
0
100
AcDbLine
 62
7
  6
CONTINUOUS
 10
169.7423686797
 20
597.6128053727
 11
169.7423686797
 21
437.6128053727
  0
LINE
  5
2A8
100
AcDbEntity
  8
BEZUGSACHSEN
100
AcDbLine
 62
7
  6
CONTINUOUS
 10
181.1116549208
 20
270.6086200389
 11
181.1144958588
 21
271.2549476495
  0
LINE
  5
2A9
100
AcDbEntity
  8
BEZUGSACHSEN
100
AcDbLine
 62
7
  6
CONTINUOUS
 10
182.2449099184
 20
269.3094193394
 11
182.3513489428
 21
275.3084751596
  0
LINE
  5
2AA
100
AcDbEntity
  8
BEZUGSACHSEN
100
AcDbLine
 62
7
  6
CONTINUOUS
 10
182.8680248338
 20
270.0644416398
 11
182.9472879387
 21
274.5318237268
  0
LINE
  5
2AB
100
AcDbEntity
  8
BEZUGSACHSEN
100
AcDbLine
 62
7
  6
CONTINUOUS
 10
180.4896824318
 20
270.6415935207
 11
180.5120371766
 21
271.1617618098
  0
LINE
  5
2AC
100
AcDbEntity
  8
BEZUGSACHSEN
100
AcDbLine
 62
7
  6
CONTINUOUS
 10
216.2026712557
 20
244.9003478862
 11
216.3645927583
 21
244.4021879285
  0
LINE
  5
2AD
100
AcDbEntity
  8
BEZUGSACHSEN
100
AcDbLine
 62
7
  6
CONTINUOUS
 10
209.8989481646
 20
261.6144927743
 11
209.9861175091
 21
261.2957319163
  0
LINE
  5
2AE
100
AcDbEntity
  8
BEZUGSACHSEN
100
AcDbLine
 62
7
  6
CONTINUOUS
 10
216.8325791468
 20
245.0451344378
 11
217.0083234539
 21
244.3442406389
  0
LINE
  5
2AF
100
AcDbEntity
  8
BEZUGSACHSEN
100
AcDbLine
 62
7
  6
CONTINUOUS
 10
207.5794694883
 20
255.6596330708
 11
207.7061707841
 21
255.1513726052
  0
LINE
  5
2B0
100
AcDbEntity
  8
BEZUGSACHSEN
100
AcDbLine
 62
7
  6
CONTINUOUS
 10
213.4295242626
 20
257.1711288047
 11
213.5562233774
 21
256.662872447
  0
LINE
  5
2B1
100
AcDbEntity
  8
BEZUGSACHSEN
100
AcDbLine
 62
7
  6
CONTINUOUS
 10
210.6155539005
 20
247.0576995919
 11
210.7289936201
 21
246.4587242214
  0
LINE
  5
2B2
100
AcDbEntity
  8
BEZUGSACHSEN
100
AcDbLine
 62
7
  6
CONTINUOUS
 10
216.5107594436
 20
248.1741903467
 11
216.6241991631
 21
247.5752149761
  0
LINE
  5
2B3
100
AcDbEntity
  8
BEZUGSACHSEN
100
AcDbLine
 62
7
  6
CONTINUOUS
 10
208.3029812625
 20
255.9308240055
 11
208.3818214956
 21
255.5121868559
  0
LINE
  5
2B4
100
AcDbEntity
  8
BEZUGSACHSEN
100
AcDbLine
 62
7
  6
CONTINUOUS
 10
212.75387363
 20
256.8103145962
 11
212.8327116723
 21
256.3916815492
  0
LINE
  5
2B5
100
AcDbEntity
  8
BEZUGSACHSEN
100
AcDbLine
 62
7
  6
CONTINUOUS
 10
186.2883628913
 20
273.8341460152
 11
186.3786270241
 21
273.1941458778
  0
LINE
  5
2B6
100
AcDbEntity
  8
0
100
AcDbLine
 62
7
  6
CONTINUOUS
 10
222.360565626
 20
233.7797433251
 11
219.8133138861
 21
258.0152247356
  0
LINE
  5
2B7
100
AcDbEntity
  8
BEZUGSACHSEN
100
AcDbLine
 62
7
  6
CONTINUOUS
 10
211.00148686
 20
244.2402014609
 11
211.0567790271
 21
243.4292521748
  0
LINE
  5
2B8
100
AcDbEntity
  8
BEZUGSACHSEN
100
AcDbLine
 62
7
  6
CONTINUOUS
 10
211.6452179611
 20
244.1822495371
 11
211.6866870074
 21
243.5740387326
  0
LINE
  5
2B9
100
AcDbEntity
  8
BEZUGSACHSEN
100
AcDbLine
 62
7
  6
CONTINUOUS
 10
212.3057285868
 20
245.7548801116
 11
212.3402859144
 21
245.2480408681
  0
LINE
  5
2BA
100
AcDbEntity
  8
BEZUGSACHSEN
100
AcDbLine
 62
7
  6
CONTINUOUS
 10
213.8173152283
 20
244.2285093801
 11
213.8449611536
 21
243.8230370572
  0
LINE
  5
2BB
100
AcDbEntity
  8
BEZUGSACHSEN
100
AcDbLine
 62
7
  6
CONTINUOUS
 10
214.3267706629
 20
244.2632450849
 11
214.3544165883
 21
243.857772762
  0
LINE
  5
2BC
100
AcDbEntity
  8
BEZUGSACHSEN
100
AcDbLine
 62
7
  6
CONTINUOUS
 10
215.4967369908
 20
245.8706113826
 11
215.5312946348
 21
245.3637674987
  0
LINE
  5
2BD
100
AcDbEntity
  8
BEZUGSACHSEN
100
AcDbLine
 62
7
  6
CONTINUOUS
 10
216.3645927583
 20
244.4021879285
 11
216.3922386837
 21
243.9967156056
  0
LINE
  5
2BE
100
AcDbEntity
  8
BEZUGSACHSEN
100
AcDbLine
 62
7
  6
CONTINUOUS
 10
217.0083234539
 20
244.3442406389
 11
217.0221465748
 21
244.1415021573
  0
LINE
  5
2BF
100
AcDbEntity
  8
0
100
AcDbLine
 62
7
  6
CONTINUOUS
 10
201.7423686797
 20
597.6128053727
 11
201.7423686797
 21
437.6128053727
  0
LINE
  5
2C0
100
AcDbEntity
  8
BEZUGSACHSEN
100
AcDbLine
 62
7
  6
CONTINUOUS
 10
185.7691000693
 20
273.2049604887
 11
185.7351301688
 21
271.2903682551
  0
LINE
  5
2C1
100
AcDbEntity
  8
BEZUGSACHSEN
100
AcDbLine
 62
7
  6
CONTINUOUS
 10
186.3786270241
 20
273.1941458778
 11
186.3446571236
 21
271.2795536442
  0
LINE
  5
2C2
100
AcDbEntity
  8
BEZUGSACHSEN
100
AcDbLine
 62
7
  6
CONTINUOUS
 10
175.5234258996
 20
271.3609762221
 11
175.6515889937
 21
271.9416961602
  0
LINE
  5
2C3
100
AcDbEntity
  8
BEZUGSACHSEN
100
AcDbLine
 62
7
  6
CONTINUOUS
 10
207.613238819
 20
256.1384038863
 11
207.5794694883
 21
255.6596330708
  0
LINE
  5
2C4
100
AcDbEntity
  8
BEZUGSACHSEN
100
AcDbLine
 62
7
  6
CONTINUOUS
 10
213.5562233774
 20
256.662872447
 11
213.5224551718
 21
256.184099596
  0
LINE
  5
2C5
100
AcDbEntity
  8
BEZUGSACHSEN
100
AcDbLine
 62
7
  6
CONTINUOUS
 10
210.5515517642
 20
261.6088312614
 11
210.5001596712
 21
261.0527687537
  0
LINE
  5
2C6
100
AcDbEntity
  8
BEZUGSACHSEN
100
AcDbLine
 62
7
  6
CONTINUOUS
 10
217.0221465748
 20
244.1415021573
 11
216.9431631646
 21
243.4232405059
  0
LINE
  5
2C7
100
AcDbEntity
  8
BEZUGSACHSEN
100
AcDbLine
 62
7
  6
CONTINUOUS
 10
186.2317463862
 20
270.6431587209
 11
186.3446571236
 21
271.2795536442
  0
LINE
  5
2C8
100
AcDbEntity
  8
BEZUGSACHSEN
100
AcDbLine
 62
7
  6
CONTINUOUS
 10
185.6244840912
 20
270.7816128021
 11
185.7351301688
 21
271.2903682551
  0
LINE
  5
2C9
100
AcDbEntity
  8
BEZUGSACHSEN
100
AcDbLine
 62
7
  6
CONTINUOUS
 10
180.9888907923
 20
270.0729207474
 11
181.1116549208
 21
270.6086200389
  0
LINE
  5
2CA
100
AcDbEntity
  8
BEZUGSACHSEN
100
AcDbLine
 62
7
  6
CONTINUOUS
 10
180.3474044829
 20
270.2320536392
 11
180.4896824318
 21
270.6415935207
  0
LINE
  5
2CB
100
AcDbEntity
  8
BEZUGSACHSEN
100
AcDbLine
 62
7
  6
CONTINUOUS
 10
174.9205328679
 20
271.5641415157
 11
175.0328224559
 21
271.8705273519
  0
LINE
  5
2CC
100
AcDbEntity
  8
RUNDUNGEN
100
AcDbLine
 62
7
  6
CONTINUOUS
 10
134.6545584625
 20
224.0148791379
 11
145.2241717335
 21
250.1755899905
  0
LINE
  5
2CD
100
AcDbEntity
  8
KONSTRUKTIONSELEMENTE
100
AcDbLine
 62
7
  6
CONTINUOUS
 10
96.6744426362
 20
193.8089538663
 11
98.4422095892
 21
196.8708160448
  0
LINE
  5
2CE
100
AcDbEntity
  8
0
100
AcDbLine
 62
7
  6
CONTINUOUS
 10
413.8139085729
 20
281.1914993137
 11
436.0760770173
 21
271.2797433251
  0
LINE
  5
2CF
100
AcDbEntity
  8
BEZUGSACHSEN
100
AcDbLine
 62
7
  6
CONTINUOUS
 10
213.8449611536
 20
243.8230370572
 11
213.7590663412
 21
243.2061423265
  0
LINE
  5
2D0
100
AcDbEntity
  8
BEZUGSACHSEN
100
AcDbLine
 62
7
  6
CONTINUOUS
 10
211.7380241758
 20
244.6977773471
 11
211.6452179611
 21
244.1822495371
  0
LINE
  5
2D1
100
AcDbEntity
  8
BEZUGSACHSEN
100
AcDbLine
 62
7
  6
CONTINUOUS
 10
216.3922386837
 20
243.9967156056
 11
216.299432469
 21
243.4811877956
  0
LINE
  5
2D2
100
AcDbEntity
  8
BEZUGSACHSEN
100
AcDbLine
 62
7
  6
CONTINUOUS
 10
208.3846128104
 20
256.3199694853
 11
208.3029812625
 21
255.9308240055
  0
LINE
  5
2D3
100
AcDbEntity
  8
BEZUGSACHSEN
100
AcDbLine
 62
7
  6
CONTINUOUS
 10
212.8327116723
 20
256.3916815492
 11
212.7510802032
 21
256.0025361115
  0
LINE
  5
2D4
100
AcDbEntity
  8
BEZUGSACHSEN
100
AcDbLine
 62
7
  6
CONTINUOUS
 10
209.9861175091
 20
261.2957319163
 11
209.9101352375
 21
260.9783873526
  0
LINE
  5
2D5
100
AcDbEntity
  8
BEZUGSACHSEN
100
AcDbLine
 62
7
  6
CONTINUOUS
 10
211.1012048045
 20
244.6543577108
 11
211.00148686
 21
244.2402014609
  0
LINE
  5
2D6
100
AcDbEntity
  8
BEZUGSACHSEN
100
AcDbLine
 62
7
  6
CONTINUOUS
 10
186.0195117062
 20
270.1362056274
 11
186.2317463862
 21
270.6431587209
  0
LINE
  5
2D7
100
AcDbEntity
  8
KONSTRUKTIONSELEMENTE
100
AcDbLine
 62
7
  6
CONTINUOUS
 10
97.4792383209
 20
177.9231299101
 11
98.7873858661
 21
180.1889079222
  0
LINE
  5
2D8
100
AcDbEntity
  8
KONSTRUKTIONSELEMENTE
100
AcDbLine
 62
7
  6
CONTINUOUS
 10
97.1459064394
 20
176.4309787847
 11
97.3757161433
 21
176.8290208679
  0
LINE
  5
2D9
100
AcDbEntity
  8
0
100
AcDbLine
 62
7
  6
CONTINUOUS
 10
157.4086603422
 20
271.2797433251
 11
145.2241717335
 21
250.1755899905
  0
LINE
  5
2DA
100
AcDbEntity
  8
RUNDUNGEN
100
AcDbLine
 62
7
  6
CONTINUOUS
 10
127.1935259929
 20
207.9455954746
 11
143.1163601516
 21
235.524753238
  0
LINE
  5
2DB
100
AcDbEntity
  8
0
100
AcDbLine
 62
7
  6
CONTINUOUS
 10
383.3086603422
 20
212.6755899905
 11
400.6796938862
 21
190.4416809634
  0
LINE
  5
2DC
100
AcDbEntity
  8
BEZUGSACHSEN
100
AcDbLine
 62
7
  6
CONTINUOUS
 10
210.5001596712
 20
261.0527687537
 11
210.2856159621
 21
260.4981225403
  0
LINE
  5
2DD
100
AcDbEntity
  8
BEZUGSACHSEN
100
AcDbLine
 62
7
  6
CONTINUOUS
 10
207.8722261325
 20
256.7374440586
 11
207.613238819
 21
256.1384038863
  0
LINE
  5
2DE
100
AcDbEntity
  8
BEZUGSACHSEN
100
AcDbLine
 62
7
  6
CONTINUOUS
 10
213.5224551718
 20
256.184099596
 11
213.2634678977
 21
255.5850594448
  0
LINE
  5
2DF
100
AcDbEntity
  8
BEZUGSACHSEN
100
AcDbLine
 62
7
  6
CONTINUOUS
 10
185.4145140726
 20
270.4022992683
 11
185.6244840912
 21
270.7816128021
  0
LINE
  5
2E0
100
AcDbEntity
  8
BEZUGSACHSEN
100
AcDbLine
 62
7
  6
CONTINUOUS
 10
180.6653067132
 20
269.5061594943
 11
180.9888907923
 21
270.0729207474
  0
LINE
  5
2E1
100
AcDbEntity
  8
KONSTRUKTIONSELEMENTE
100
AcDbLine
 62
7
  6
CONTINUOUS
 10
146.3711139264
 20
214.3008058603
 11
142.4760473886
 21
207.5543527179
  0
LINE
  5
2E2
100
AcDbEntity
  8
0
100
AcDbLine
 62
7
  6
CONTINUOUS
 10
245.2160892381
 20
370.3666714548
 11
176.7160892381
 21
251.7211911364
  0
LINE
  5
2E3
100
AcDbEntity
  8
KONSTRUKTIONSELEMENTE
100
AcDbLine
 62
7
  6
CONTINUOUS
 10
105.1386103661
 20
122.7753610524
 11
98.4388984254
 21
111.1711195749
  0
LINE
  5
2E4
100
AcDbEntity
  8
0
100
AcDbLine
 62
7
  6
CONTINUOUS
 10
145.1319553063
 20
189.2158664533
 11
152.4087758129
 21
201.8196892883
  0
LINE
  5
2E5
100
AcDbEntity
  8
KONSTRUKTIONSELEMENTE
100
AcDbLine
 62
7
  6
CONTINUOUS
 10
152.4087758129
 20
201.8196892883
 11
161.3435883129
 21
217.2952384944
  0
LINE
  5
2E6
100
AcDbEntity
  8
KONSTRUKTIONSELEMENTE
100
AcDbLine
 62
7
  6
CONTINUOUS
 10
99.7713256597
 20
108.2789512421
 11
107.125236184
 21
121.0162979046
  0
LINE
  5
2E7
100
AcDbEntity
  8
KONSTRUKTIONSELEMENTE
100
AcDbLine
 62
7
  6
CONTINUOUS
 10
173.6341153002
 20
231.3830556883
 11
172.9624090498
 21
230.2196263349
  0
LINE
  5
2E8
100
AcDbEntity
  8
KONSTRUKTIONSELEMENTE
100
AcDbLine
 62
7
  6
CONTINUOUS
 10
178.7225176324
 20
238.1964270571
 11
174.0116260905
 21
230.0369235575
  0
LINE
  5
2E9
100
AcDbEntity
  8
KONSTRUKTIONSELEMENTE
100
AcDbLine
 62
7
  6
CONTINUOUS
 10
152.7273051703
 20
193.1713983191
 11
145.1970247572
 21
180.1285700483
  0
LINE
  5
2EA
100
AcDbEntity
  8
KONSTRUKTIONSELEMENTE
100
AcDbLine
 62
7
  6
CONTINUOUS
 10
168.9073551837
 20
220.6960670113
 11
160.7438115212
 21
206.5563946181
  0
LINE
  5
2EB
100
AcDbEntity
  8
0
100
AcDbLine
 62
7
  6
CONTINUOUS
 10
383.3086603422
 20
212.6755899905
 11
371.1241717335
 21
233.7797433251
  0
LINE
  5
2EC
100
AcDbEntity
  8
0
100
AcDbLine
 62
7
  6
CONTINUOUS
 10
394.9427513656
 20
203.524753238
 11
410.8655855244
 21
175.9455954746
  0
LINE
  5
2ED
100
AcDbEntity
  8
BEZUGSACHSEN
100
AcDbLine
 62
7
  6
CONTINUOUS
 10
214.154981038
 20
243.0294556235
 11
213.9348109647
 21
242.5052438873
  0
LINE
  5
2EE
100
AcDbEntity
  8
BEZUGSACHSEN
100
AcDbLine
 62
7
  6
CONTINUOUS
 10
211.3282866299
 20
245.0771978884
 11
211.1012048045
 21
244.6543577108
  0
LINE
  5
2EF
100
AcDbEntity
  8
BEZUGSACHSEN
100
AcDbLine
 62
7
  6
CONTINUOUS
 10
211.8515649136
 20
244.9091997549
 11
211.7380241758
 21
244.6977773471
  0
LINE
  5
2F0
100
AcDbEntity
  8
BEZUGSACHSEN
100
AcDbLine
 62
7
  6
CONTINUOUS
 10
216.9431631646
 20
243.4232405059
 11
216.716081689
 21
243.0003956903
  0
LINE
  5
2F1
100
AcDbEntity
  8
KONSTRUKTIONSELEMENTE
100
AcDbLine
 62
7
  6
CONTINUOUS
 10
172.8044695007
 20
218.4460670113
 11
164.6409258383
 21
204.3063946181
  0
LINE
  5
2F2
100
AcDbEntity
  8
KONSTRUKTIONSELEMENTE
100
AcDbLine
 62
7
  6
CONTINUOUS
 10
183.0526446514
 20
235.6964270571
 11
178.3417531094
 21
227.5369235575
  0
LINE
  5
2F3
100
AcDbEntity
  8
KONSTRUKTIONSELEMENTE
100
AcDbLine
 62
7
  6
CONTINUOUS
 10
157.0574321892
 20
190.6713983191
 11
149.5271517761
 21
177.6285700483
  0
LINE
  5
2F4
100
AcDbEntity
  8
KONSTRUKTIONSELEMENTE
100
AcDbLine
 62
7
  6
CONTINUOUS
 10
179.0245868763
 20
226.7196263349
 11
179.6962931267
 21
227.8830556883
  0
LINE
  5
2F5
100
AcDbEntity
  8
KONSTRUKTIONSELEMENTE
100
AcDbLine
 62
7
  6
CONTINUOUS
 10
110.0164061864
 20
102.3639512421
 11
117.3703167108
 21
115.1012979046
  0
LINE
  5
2F6
100
AcDbEntity
  8
0
100
AcDbLine
 62
7
  6
CONTINUOUS
 10
164.7063365466
 20
194.7196892883
 11
157.42951604
 21
182.1158664533
  0
LINE
  5
2F7
100
AcDbEntity
  8
KONSTRUKTIONSELEMENTE
100
AcDbLine
 62
7
  6
CONTINUOUS
 10
164.7063365466
 20
194.7196892883
 11
173.6411490466
 21
210.1952384944
  0
LINE
  5
2F8
100
AcDbEntity
  8
KONSTRUKTIONSELEMENTE
100
AcDbLine
 62
7
  6
CONTINUOUS
 10
113.1873110518
 20
102.6561195749
 11
119.8517924645
 21
114.1993399878
  0
LINE
  5
2F9
100
AcDbEntity
  8
0
100
AcDbLine
 62
7
  6
CONTINUOUS
 10
264.2686481214
 20
359.3666714548
 11
195.7686481214
 21
240.7211911364
  0
LINE
  5
2FA
100
AcDbEntity
  8
KONSTRUKTIONSELEMENTE
100
AcDbLine
 62
7
  6
CONTINUOUS
 10
178.5341315087
 20
195.7314790012
 11
174.6390649709
 21
188.9850258588
  0
LINE
  5
2FB
100
AcDbEntity
  8
BEZUGSACHSEN
100
AcDbLine
 62
7
  6
CONTINUOUS
 10
208.6267148862
 20
256.6796252624
 11
208.3846128104
 21
256.3199694853
  0
LINE
  5
2FC
100
AcDbEntity
  8
BEZUGSACHSEN
100
AcDbLine
 62
7
  6
CONTINUOUS
 10
208.2384180719
 20
259.8003766492
 11
206.4885054666
 21
257.2715248184
  0
LINE
  5
2FD
100
AcDbEntity
  8
BEZUGSACHSEN
100
AcDbLine
 62
7
  6
CONTINUOUS
 10
175.2183046996
 20
270.990487101
 11
175.5234258996
 21
271.3609762221
  0
LINE
  5
2FE
100
AcDbEntity
  8
BEZUGSACHSEN
100
AcDbLine
 62
7
  6
CONTINUOUS
 10
185.6041021504
 20
269.6328574351
 11
186.0195117062
 21
270.1362056274
  0
LINE
  5
2FF
100
AcDbEntity
  8
BEZUGSACHSEN
100
AcDbLine
 62
7
  6
CONTINUOUS
 10
180.085202769
 20
269.9331419879
 11
180.3474044829
 21
270.2320536392
  0
LINE
  5
300
100
AcDbEntity
  8
0
100
AcDbLine
 62
7
  6
CONTINUOUS
 10
414.9506058507
 20
195.7314790012
 11
418.8456723886
 21
188.9850258588
  0
LINE
  5
301
100
AcDbEntity
  8
0
100
AcDbLine
 62
7
  6
CONTINUOUS
 10
397.7160892381
 20
240.7211911364
 11
329.2160892381
 21
359.3666714548
  0
LINE
  5
302
100
AcDbEntity
  8
0
100
AcDbLine
 62
7
  6
CONTINUOUS
 10
436.0552213195
 20
182.1158664533
 11
419.8435883129
 21
210.1952384944
  0
LINE
  5
303
100
AcDbEntity
  8
RUNDUNGEN
100
AcDbLine
 62
7
  6
CONTINUOUS
 10
198.5419859938
 20
203.524753238
 11
182.6191518351
 21
175.9455954746
  0
LINE
  5
304
100
AcDbEntity
  8
KONSTRUKTIONSELEMENTE
100
AcDbLine
 62
7
  6
CONTINUOUS
 10
148.2616670988
 20
109.2760592432
 11
146.4939001458
 21
106.2141970648
  0
LINE
  5
305
100
AcDbEntity
  8
0
100
AcDbLine
 62
7
  6
CONTINUOUS
 10
210.1760770173
 20
212.6755899905
 11
222.360565626
 21
233.7797433251
  0
LINE
  5
306
100
AcDbEntity
  8
BEZUGSACHSEN
100
AcDbLine
 62
7
  6
CONTINUOUS
 10
207.6617953116
 20
260.1233845578
 11
206.0504455761
 21
257.8318325447
  0
LINE
  5
307
100
AcDbEntity
  8
BEZUGSACHSEN
100
AcDbLine
 62
7
  6
CONTINUOUS
 10
211.5622798687
 20
245.3986711461
 11
211.3282866299
 21
245.0771978884
  0
LINE
  5
308
100
AcDbEntity
  8
BEZUGSACHSEN
100
AcDbLine
 62
7
  6
CONTINUOUS
 10
213.7590663412
 20
243.2061423265
 11
213.525073147
 21
242.8846690719
  0
LINE
  5
309
100
AcDbEntity
  8
BEZUGSACHSEN
100
AcDbLine
 62
7
  6
CONTINUOUS
 10
216.299432469
 20
243.4811877956
 11
216.0654392748
 21
243.1597145409
  0
LINE
  5
30A
100
AcDbEntity
  8
BEZUGSACHSEN
100
AcDbLine
 62
7
  6
CONTINUOUS
 10
209.9101352375
 20
260.9783873526
 11
209.6710027822
 21
260.662457251
  0
LINE
  5
30B
100
AcDbEntity
  8
BEZUGSACHSEN
100
AcDbLine
 62
7
  6
CONTINUOUS
 10
210.2856159621
 20
260.4981225403
 11
210.0464835068
 21
260.1821924387
  0
LINE
  5
30C
100
AcDbEntity
  8
BEZUGSACHSEN
100
AcDbLine
 62
7
  6
CONTINUOUS
 10
208.2269356305
 20
257.1572376306
 11
207.8722261325
 21
256.7374440586
  0
LINE
  5
30D
100
AcDbEntity
  8
BEZUGSACHSEN
100
AcDbLine
 62
7
  6
CONTINUOUS
 10
174.671556324
 20
271.3468452669
 11
174.9205328679
 21
271.5641415157
  0
LINE
  5
30E
100
AcDbEntity
  8
BEZUGSACHSEN
100
AcDbLine
 62
7
  6
CONTINUOUS
 10
180.3026950189
 20
269.1917168953
 11
180.6653067132
 21
269.5061594943
  0
LINE
  5
30F
100
AcDbEntity
  8
BEZUGSACHSEN
100
AcDbLine
 62
7
  6
CONTINUOUS
 10
185.1052212739
 20
270.1524275437
 11
185.4145140726
 21
270.4022992683
  0
LINE
  5
310
100
AcDbEntity
  8
0
100
AcDbLine
 62
7
  6
CONTINUOUS
 10
448.3527820532
 20
189.2158664533
 11
432.1411490466
 21
217.2952384944
  0
LINE
  5
311
100
AcDbEntity
  8
0
100
AcDbLine
 62
7
  6
CONTINUOUS
 10
416.7686481214
 20
251.7211911364
 11
348.2686481214
 21
370.3666714548
  0
LINE
  5
312
100
AcDbEntity
  8
0
100
AcDbLine
 62
7
  6
CONTINUOUS
 10
447.1136234331
 20
214.3008058603
 11
451.0086899709
 21
207.5543527179
  0
LINE
  5
313
100
AcDbEntity
  8
KONSTRUKTIONSELEMENTE
100
AcDbLine
 62
7
  6
CONTINUOUS
 10
197.317061896
 20
134.4023581437
 11
195.549294943
 21
131.3404959652
  0
LINE
  5
314
100
AcDbEntity
  8
RUNDUNGEN
100
AcDbLine
 62
7
  6
CONTINUOUS
 10
192.8050434733
 20
190.4416809634
 11
210.1760770173
 21
212.6755899905
  0
LINE
  5
315
100
AcDbEntity
  8
BEZUGSACHSEN
100
AcDbLine
 62
7
  6
CONTINUOUS
 10
212.7510802032
 20
256.0025361115
 11
212.4611156439
 21
255.7325055281
  0
LINE
  5
316
100
AcDbEntity
  8
BEZUGSACHSEN
100
AcDbLine
 62
7
  6
CONTINUOUS
 10
209.0292875688
 20
257.0097913788
 11
208.6267148862
 21
256.6796252624
  0
LINE
  5
317
100
AcDbEntity
  8
BEZUGSACHSEN
100
AcDbLine
 62
7
  6
CONTINUOUS
 10
185.1932219144
 20
269.3847881946
 11
185.6041021504
 21
269.6328574351
  0
LINE
  5
318
100
AcDbEntity
  8
0
100
AcDbLine
 62
7
  6
CONTINUOUS
 10
466.2912113666
 20
207.9455954746
 11
450.3683772079
 21
235.524753238
  0
LINE
  5
319
100
AcDbEntity
  8
0
100
AcDbLine
 62
7
  6
CONTINUOUS
 10
436.0760770173
 20
271.2797433251
 11
448.260565626
 21
250.1755899905
  0
LINE
  5
31A
100
AcDbEntity
  8
BEZUGSACHSEN
100
AcDbLine
 62
7
  6
CONTINUOUS
 10
212.0924699157
 20
245.1293014547
 11
211.8515649136
 21
244.9091997549
  0
LINE
  5
31B
100
AcDbEntity
  8
BEZUGSACHSEN
100
AcDbLine
 62
7
  6
CONTINUOUS
 10
216.716081689
 20
243.0003956903
 11
216.2342721797
 21
242.5601876626
  0
LINE
  5
31C
100
AcDbEntity
  8
BEZUGSACHSEN
100
AcDbLine
 62
7
  6
CONTINUOUS
 10
209.6710027822
 20
260.662457251
 11
209.3692894469
 21
260.4265716753
  0
LINE
  5
31D
100
AcDbEntity
  8
BEZUGSACHSEN
100
AcDbLine
 62
7
  6
CONTINUOUS
 10
210.0464835068
 20
260.1821924387
 11
209.6441991536
 21
259.8676784111
  0
LINE
  5
31E
100
AcDbEntity
  8
BEZUGSACHSEN
100
AcDbLine
 62
7
  6
CONTINUOUS
 10
208.7421167518
 20
257.5475394484
 11
208.2269356305
 21
257.1572376306
  0
LINE
  5
31F
100
AcDbEntity
  8
BEZUGSACHSEN
100
AcDbLine
 62
7
  6
CONTINUOUS
 10
213.2634678977
 20
255.5850594448
 11
212.7482864609
 21
255.1947574585
  0
LINE
  5
320
100
AcDbEntity
  8
BEZUGSACHSEN
100
AcDbLine
 62
7
  6
CONTINUOUS
 10
179.7030772627
 20
269.7448587436
 11
180.085202769
 21
269.9331419879
  0
LINE
  5
321
100
AcDbEntity
  8
0
100
AcDbLine
 62
7
  6
CONTINUOUS
 10
179.6708287866
 20
281.1914993137
 11
157.4086603422
 21
271.2797433251
  0
LINE
  5
322
100
AcDbEntity
  8
BEZUGSACHSEN
100
AcDbLine
 62
7
  6
CONTINUOUS
 10
179.820160117
 20
268.9879027259
 11
180.3026950189
 21
269.1917168953
  0
LINE
  5
323
100
AcDbEntity
  8
BEZUGSACHSEN
100
AcDbLine
 62
7
  6
CONTINUOUS
 10
171.4557358547
 20
272.9683784068
 11
173.7697174061
 21
273.7376185592
  0
LINE
  5
324
100
AcDbEntity
  8
BEZUGSACHSEN
100
AcDbLine
 62
7
  6
CONTINUOUS
 10
172.2355869923
 20
272.554982296
 11
174.0674889619
 21
273.1639640528
  0
LINE
  5
325
100
AcDbEntity
  8
0
100
AcDbLine
 62
7
  6
CONTINUOUS
 10
458.830178897
 20
224.0148791379
 11
448.260565626
 21
250.1755899905
  0
LINE
  5
326
100
AcDbEntity
  8
0
100
AcDbLine
 62
7
  6
CONTINUOUS
 10
391.7423686797
 20
437.6128053727
 11
391.7423686797
 21
597.6128053727
  0
LINE
  5
327
100
AcDbEntity
  8
0
100
AcDbLine
 62
7
  6
CONTINUOUS
 10
371.1241717335
 20
233.7797433251
 11
373.6714234734
 21
258.0152247356
  0
LINE
  5
328
100
AcDbEntity
  8
BEZUGSACHSEN
100
AcDbLine
 62
7
  6
CONTINUOUS
 10
211.9305483238
 20
245.6274614063
 11
211.5622798687
 21
245.3986711461
  0
LINE
  5
329
100
AcDbEntity
  8
BEZUGSACHSEN
100
AcDbLine
 62
7
  6
CONTINUOUS
 10
213.9348109647
 20
242.5052438873
 11
213.5665421932
 21
242.2764582674
  0
LINE
  5
32A
100
AcDbEntity
  8
BEZUGSACHSEN
100
AcDbLine
 62
7
  6
CONTINUOUS
 10
216.0654392748
 20
243.1597145409
 11
215.6971708197
 21
242.9309242807
  0
LINE
  5
32B
100
AcDbEntity
  8
BEZUGSACHSEN
100
AcDbLine
 62
7
  6
CONTINUOUS
 10
208.7421167518
 20
257.5475394484
 11
210.4312434911
 21
258.449575054
  0
LINE
  5
32C
100
AcDbEntity
  8
BEZUGSACHSEN
100
AcDbLine
 62
7
  6
CONTINUOUS
 10
209.0292875688
 20
257.0097913788
 11
210.718414308
 21
257.9118269844
  0
LINE
  5
32D
100
AcDbEntity
  8
BEZUGSACHSEN
100
AcDbLine
 62
7
  6
CONTINUOUS
 10
211.0168834696
 20
255.9979063197
 11
210.341232837
 21
255.6370921111
  0
LINE
  5
32E
100
AcDbEntity
  8
BEZUGSACHSEN
100
AcDbLine
 62
7
  6
CONTINUOUS
 10
210.7719890624
 20
254.8304700067
 11
209.8711213945
 21
254.3493843111
  0
LINE
  5
32F
100
AcDbEntity
  8
BEZUGSACHSEN
100
AcDbLine
 62
7
  6
CONTINUOUS
 10
211.734810512
 20
254.6535361456
 11
210.0456837727
 21
253.75150054
  0
LINE
  5
330
100
AcDbEntity
  8
BEZUGSACHSEN
100
AcDbLine
 62
7
  6
CONTINUOUS
 10
212.3402859144
 20
245.2480408681
 11
212.0924699157
 21
245.1293014547
  0
LINE
  5
331
100
AcDbEntity
  8
BEZUGSACHSEN
100
AcDbLine
 62
7
  6
CONTINUOUS
 10
209.0049957951
 20
260.2707310659
 11
209.3692894469
 21
260.4265716753
  0
LINE
  5
332
100
AcDbEntity
  8
BEZUGSACHSEN
100
AcDbLine
 62
7
  6
CONTINUOUS
 10
209.2799055019
 20
259.7118378017
 11
209.6441991536
 21
259.8676784111
  0
LINE
  5
333
100
AcDbEntity
  8
BEZUGSACHSEN
100
AcDbLine
 62
7
  6
CONTINUOUS
 10
210.4312434911
 20
258.449575054
 11
211.0421470729
 21
258.6606304189
  0
LINE
  5
334
100
AcDbEntity
  8
BEZUGSACHSEN
100
AcDbLine
 62
7
  6
CONTINUOUS
 10
172.8396543544
 20
270.7378635102
 11
174.671556324
 21
271.3468452669
  0
LINE
  5
335
100
AcDbEntity
  8
BEZUGSACHSEN
100
AcDbLine
 62
7
  6
CONTINUOUS
 10
173.0812812541
 20
270.0110161316
 11
174.7203514737
 21
270.5558945576
  0
LINE
  5
336
100
AcDbEntity
  8
BEZUGSACHSEN
100
AcDbLine
 62
7
  6
CONTINUOUS
 10
173.3484801281
 20
267.274739929
 11
173.926975516
 21
267.4670499671
  0
LINE
  5
337
100
AcDbEntity
  8
BEZUGSACHSEN
100
AcDbLine
 62
7
  6
CONTINUOUS
 10
176.3373728734
 20
268.2683417619
 11
177.0122843431
 21
268.4927035342
  0
LINE
  5
338
100
AcDbEntity
  8
BEZUGSACHSEN
100
AcDbLine
 62
7
  6
CONTINUOUS
 10
184.6966056984
 20
270.0319978071
 11
185.1052212739
 21
270.1524275437
  0
LINE
  5
339
100
AcDbEntity
  8
0
100
AcDbLine
 62
7
  6
CONTINUOUS
 10
423.7423686797
 20
437.6128053727
 11
423.7423686797
 21
597.6128053727
  0
LINE
  5
33A
100
AcDbEntity
  8
BEZUGSACHSEN
100
AcDbLine
 62
7
  6
CONTINUOUS
 10
213.525073147
 20
242.8846690719
 11
213.0294406548
 21
242.6471948733
  0
LINE
  5
33B
100
AcDbEntity
  8
BEZUGSACHSEN
100
AcDbLine
 62
7
  6
CONTINUOUS
 10
212.3057285868
 20
245.7548801116
 11
211.9305483238
 21
245.6274614063
  0
LINE
  5
33C
100
AcDbEntity
  8
BEZUGSACHSEN
100
AcDbLine
 62
7
  6
CONTINUOUS
 10
210.718414308
 20
257.9118269844
 11
211.2167091356
 21
258.0627464794
  0
LINE
  5
33D
100
AcDbEntity
  8
BEZUGSACHSEN
100
AcDbLine
 62
7
  6
CONTINUOUS
 10
209.5473888663
 20
253.6005810029
 11
210.0456837727
 21
253.75150054
  0
LINE
  5
33E
100
AcDbEntity
  8
0
100
AcDbLine
 62
7
  6
CONTINUOUS
 10
373.6714234734
 20
258.0152247356
 11
382.2382308629
 21
267.5296282345
  0
LINE
  5
33F
100
AcDbEntity
  8
RUNDUNGEN
100
AcDbLine
 62
7
  6
CONTINUOUS
 10
192.8050434733
 20
190.4416809634
 11
191.5312420308
 21
189.9780551539
  0
LINE
  5
340
100
AcDbEntity
  8
0
100
AcDbLine
 62
7
  6
CONTINUOUS
 10
171.478078161
 20
171.3926356727
 11
180.9822244018
 21
174.8518620065
  0
LINE
  5
341
100
AcDbEntity
  8
RUNDUNGEN
100
AcDbLine
 62
7
  6
CONTINUOUS
 10
180.9822244018
 20
174.8518620065
 11
181.5711413142
 21
175.0662102331
  0
LINE
  5
342
100
AcDbEntity
  8
0
100
AcDbLine
 62
7
  6
CONTINUOUS
 10
458.5947899046
 20
222.6799218246
 11
458.830178897
 21
224.0148791379
  0
LINE
  5
343
100
AcDbEntity
  8
0
100
AcDbLine
 62
7
  6
CONTINUOUS
 10
466.528776065
 20
206.5982991193
 11
464.6636533804
 21
196.0206627465
  0
LINE
  5
344
100
AcDbEntity
  8
KONSTRUKTIONSELEMENTE
100
AcDbLine
 62
7
  6
CONTINUOUS
 10
141.3386936318
 20
119.6402791484
 11
178.3370734547
 21
138.1651041838
  0
LINE
  5
345
100
AcDbEntity
  8
KONSTRUKTIONSELEMENTE
100
AcDbLine
 62
7
  6
CONTINUOUS
 10
145.9794545333
 20
105.8938831009
 11
146.3440374745
 21
106.0764271807
  0
LINE
  5
346
100
AcDbEntity
  8
KONSTRUKTIONSELEMENTE
100
AcDbLine
 62
7
  6
CONTINUOUS
 10
193.1583139851
 20
129.5160017153
 11
194.0506682295
 21
129.9627971243
  0
LINE
  5
347
100
AcDbEntity
  8
0
100
AcDbLine
 62
7
  6
CONTINUOUS
 10
436.9411490466
 20
208.9813946181
 11
424.6435883129
 21
201.8813946181
  0
LINE
  5
348
100
AcDbEntity
  8
0
100
AcDbLine
 62
7
  6
CONTINUOUS
 10
444.7411490466
 20
195.4713983191
 11
432.4435883129
 21
188.3713983191
  0
LINE
  5
349
100
AcDbEntity
  8
KONSTRUKTIONSELEMENTE
100
AcDbLine
 62
7
  6
CONTINUOUS
 10
423.6906994851
 20
171.5399701067
 11
428.5375558064
 21
174.3383039086
  0
LINE
  5
34A
100
AcDbEntity
  8
KONSTRUKTIONSELEMENTE
100
AcDbLine
 62
7
  6
CONTINUOUS
 10
458.8471815531
 20
191.8375744924
 11
463.6940378744
 21
194.6359082942
  0
LINE
  5
34B
100
AcDbEntity
  8
KONSTRUKTIONSELEMENTE
100
AcDbLine
 62
7
  6
CONTINUOUS
 10
549.0460447457
 20
104.4228361422
 11
551.6623398361
 21
102.1570581302
  0
LINE
  5
34C
100
AcDbEntity
  8
KONSTRUKTIONSELEMENTE
100
AcDbLine
 62
7
  6
CONTINUOUS
 10
552.0196756784
 20
102.3639512421
 11
551.5600562707
 21
102.7619933253
  0
LINE
  5
34D
100
AcDbEntity
  8
KONSTRUKTIONSELEMENTE
100
AcDbLine
 62
7
  6
CONTINUOUS
 10
548.4841417725
 20
105.4258134206
 11
548.9437611803
 21
105.0277713374
  0
LINE
  5
34E
100
AcDbEntity
  8
KONSTRUKTIONSELEMENTE
100
AcDbLine
 62
7
  6
CONTINUOUS
 10
552.0196756784
 20
108.2789512421
 11
551.5600562707
 21
108.6769933253
  0
LINE
  5
34F
100
AcDbEntity
  8
KONSTRUKTIONSELEMENTE
100
AcDbLine
 62
7
  6
CONTINUOUS
 10
548.4841417725
 20
111.3408134206
 11
548.9437611803
 21
110.9427713374
  0
LINE
  5
350
100
AcDbEntity
  8
KONSTRUKTIONSELEMENTE
100
AcDbLine
 62
7
  6
CONTINUOUS
 10
567.2098633015
 20
108.6699059712
 11
570.7453972074
 21
105.6080437927
  0
LINE
  5
351
100
AcDbEntity
  8
KONSTRUKTIONSELEMENTE
100
AcDbLine
 62
7
  6
CONTINUOUS
 10
570.4044519893
 20
127.5940777903
 11
569.9448325815
 21
127.9921198735
  0
LINE
  5
352
100
AcDbEntity
  8
KONSTRUKTIONSELEMENTE
100
AcDbLine
 62
7
  6
CONTINUOUS
 10
567.3285374911
 20
130.2578978856
 11
566.8689180834
 21
130.6559399688
  0
LWPOLYLINE
  5
353
100
AcDbEntity
  8
0
100
AcDbPolyline
 62
7
  6
CONTINUOUS
 90
15
 70
0
 10
747.1811472854
 20
171.2720221051
 10
748.1243319598
 20
171.2837857286
 10
749.2779956406
 20
171.3303394697
 10
750.4370248272
 20
171.4133758753
 10
751.5980773204
 20
171.5341916407
 10
752.7555652519
 20
171.6939408871
 10
753.9037743797
 20
171.8937156068
 10
755.0368113015
 20
172.1345665943
 10
756.1489250895
 20
172.4176238675
 10
757.2328019094
 20
172.7436628205
 10
758.2868975325
 20
173.1155994661
 10
759.3012907585
 20
173.5341037311
 10
760.2876667402
 20
174.0108495751
 10
761.2526160338
 20
174.5623351994
 10
762.08081552
 20
175.1252280305
  0
LWPOLYLINE
  5
354
100
AcDbEntity
  8
RUNDUNGEN
100
AcDbPolyline
 62
7
  6
CONTINUOUS
 90
15
 70
0
 10
747.1811472865
 20
171.2720221053
 10
748.1213026944
 20
171.2837102159
 10
749.2741662532
 20
171.3301258638
 10
750.4349046183
 20
171.4131901635
 10
751.5990616336
 20
171.534310508
 10
752.760269424
 20
171.6946733929
 10
753.912071085
 20
171.8953166127
 10
755.0479322158
 20
172.1371597953
 10
756.1615785526
 20
172.421131591
 10
757.2451651705
 20
172.7476949155
 10
758.2974525194
 20
173.1196287656
 10
759.3081138842
 20
173.5371474382
 10
760.2908908235
 20
174.0125393349
 10
761.2537936135
 20
174.5630701756
 10
762.0808172377
 20
175.1252293056
  0
LINE
  5
355
100
AcDbEntity
  8
KONSTRUKTIONSELEMENTE
100
AcDbLine
 62
7
  6
CONTINUOUS
 10
613.3381798157
 20
132.5492799629
 11
616.8737137216
 21
129.4874177845
  0
LINE
  5
356
100
AcDbEntity
  8
RUNDUNGEN
100
AcDbLine
 62
7
  6
CONTINUOUS
 10
746.2396341072
 20
171.2837648814
 11
747.1811472854
 21
171.2720221053
  0
LINE
  5
357
100
AcDbEntity
  8
KONSTRUKTIONSELEMENTE
100
AcDbLine
 62
7
  6
CONTINUOUS
 10
609.7283532397
 20
176.4309787847
 11
612.253519457
 21
174.7886864774
  0
LINE
  5
358
100
AcDbEntity
  8
KONSTRUKTIONSELEMENTE
100
AcDbLine
 62
7
  6
CONTINUOUS
 10
609.2687338319
 20
176.8290208679
 11
611.7939000492
 21
175.1867285607
  0
LINE
  5
359
100
AcDbEntity
  8
KONSTRUKTIONSELEMENTE
100
AcDbLine
 62
7
  6
CONTINUOUS
 10
606.1928193338
 20
179.4928409632
 11
606.6977410249
 21
179.1644550521
  0
LINE
  5
35A
100
AcDbEntity
  8
KONSTRUKTIONSELEMENTE
100
AcDbLine
 62
7
  6
CONTINUOUS
 10
611.5176910908
 20
178.4424286341
 11
613.4601266425
 21
177.1791268592
  0
LINE
  5
35B
100
AcDbEntity
  8
KONSTRUKTIONSELEMENTE
100
AcDbLine
 62
7
  6
CONTINUOUS
 10
608.9013960004
 20
180.7082066461
 11
610.8438315521
 21
179.4449048713
  0
LINE
  5
35C
100
AcDbEntity
  8
KONSTRUKTIONSELEMENTE
100
AcDbLine
 62
7
  6
CONTINUOUS
 10
620.5492132507
 20
189.3700731198
 11
620.4818150925
 21
189.3623763897
  0
LINE
  5
35D
100
AcDbEntity
  8
KONSTRUKTIONSELEMENTE
100
AcDbLine
 62
7
  6
CONTINUOUS
 10
618.4360175897
 20
188.6832133829
 11
620.3784531415
 21
187.4199116081
  0
LINE
  5
35E
100
AcDbEntity
  8
KONSTRUKTIONSELEMENTE
100
AcDbLine
 62
7
  6
CONTINUOUS
 10
623.074379468
 20
187.7277808125
 11
620.5492132507
 21
189.3700731198
  0
LINE
  5
35F
100
AcDbEntity
  8
KONSTRUKTIONSELEMENTE
100
AcDbLine
 62
7
  6
CONTINUOUS
 10
642.1764440654
 20
186.7804490822
 11
628.7079557084
 21
195.5399496127
  0
LINE
  5
360
100
AcDbEntity
  8
KONSTRUKTIONSELEMENTE
100
AcDbLine
 62
7
  6
CONTINUOUS
 10
638.6409101595
 20
189.8423112607
 11
625.1724218025
 21
198.6018117912
  0
LINE
  5
361
100
AcDbEntity
  8
KONSTRUKTIONSELEMENTE
100
AcDbLine
 62
7
  6
CONTINUOUS
 10
618.4103528383
 20
188.701866348
 11
618.4360175897
 21
188.6832133829
  0
LINE
  5
362
100
AcDbEntity
  8
BEZUGSACHSEN
100
AcDbLine
 62
7
  6
CONTINUOUS
 10
642.3982025135
 20
186.6129212872
 11
642.1764440654
 21
186.7804490822
  0
LINE
  5
363
100
AcDbEntity
  8
BEZUGSACHSEN
100
AcDbLine
 62
7
  6
CONTINUOUS
 10
638.8626686076
 20
189.6747834656
 11
638.6409101595
 21
189.8423112607
  0
LINE
  5
364
100
AcDbEntity
  8
KONSTRUKTIONSELEMENTE
100
AcDbLine
 62
7
  6
CONTINUOUS
 10
620.4059574293
 20
187.3988665051
 11
620.3784531415
 21
187.4199116081
  0
LINE
  5
365
100
AcDbEntity
  8
KONSTRUKTIONSELEMENTE
100
AcDbLine
 62
7
  6
CONTINUOUS
 10
609.7283532397
 20
176.4309787847
 11
609.2687338319
 21
176.8290208679
  0
LINE
  5
366
100
AcDbEntity
  8
KONSTRUKTIONSELEMENTE
100
AcDbLine
 62
7
  6
CONTINUOUS
 10
606.1928193338
 20
179.4928409632
 11
606.6524387415
 21
179.09479888
  0
LINE
  5
367
100
AcDbEntity
  8
KONSTRUKTIONSELEMENTE
100
AcDbLine
 62
7
  6
CONTINUOUS
 10
617.6955239578
 20
189.3214367939
 11
618.4155950148
 21
188.697836966
  0
LINE
  5
368
100
AcDbEntity
  8
0
100
AcDbLine
 62
7
  6
CONTINUOUS
 10
742.7492153629
 20
224.0148791379
 11
751.613079209
 21
224.0148791379
  0
LINE
  5
369
100
AcDbEntity
  8
BEZUGSACHSEN
100
AcDbLine
 62
7
  6
CONTINUOUS
 10
638.8616667779
 20
189.6762617905
 11
642.1888808679
 21
186.7948098647
  0
LINE
  5
36A
100
AcDbEntity
  8
0
100
AcDbLine
 62
7
  6
CONTINUOUS
 10
742.8482043685
 20
250.1755899905
 11
751.5140902034
 21
250.1755899905
  0
LWPOLYLINE
  5
36B
100
AcDbEntity
  8
0
100
AcDbPolyline
 62
7
  6
CONTINUOUS
 90
15
 70
0
 10
732.2814790519
 20
175.1252280305
 10
733.109678538
 20
174.5623351994
 10
734.0746278316
 20
174.0108495751
 10
735.0610038133
 20
173.5341037311
 10
736.0753970394
 20
173.1155994661
 10
737.1294926624
 20
172.7436628205
 10
738.2133694824
 20
172.4176238675
 10
739.3254832704
 20
172.1345665943
 10
740.4585201922
 20
171.8937156068
 10
741.6067293199
 20
171.6939408871
 10
742.7642172514
 20
171.5341916407
 10
743.9252697447
 20
171.4133758753
 10
745.0842989312
 20
171.3303394697
 10
746.237962612
 20
171.2837857286
 10
747.1811472865
 20
171.2720221051
  0
LWPOLYLINE
  5
36C
100
AcDbEntity
  8
RUNDUNGEN
100
AcDbPolyline
 62
7
  6
CONTINUOUS
 90
14
 70
0
 10
732.2814773342
 20
175.1252293056
 10
733.1085009584
 20
174.5630701756
 10
734.0714037484
 20
174.0125393349
 10
735.0541806877
 20
173.5371474382
 10
736.0648420525
 20
173.1196287656
 10
737.1171294014
 20
172.7476949155
 10
738.2007160193
 20
172.421131591
 10
739.3143623561
 20
172.1371597953
 10
740.4502234868
 20
171.8953166127
 10
741.6020251479
 20
171.6946733929
 10
742.7632329383
 20
171.534310508
 10
743.9273899536
 20
171.4131901635
 10
745.0881283187
 20
171.3301258638
 10
746.2396341072
 20
171.2837648814
  0
LINE
  5
36D
100
AcDbEntity
  8
0
100
AcDbLine
 62
7
  6
CONTINUOUS
 10
731.9930003848
 20
175.3391765794
 11
732.2820174545
 21
175.1248283528
  0
LINE
  5
36E
100
AcDbEntity
  8
BEZUGSACHSEN
100
AcDbLine
 62
7
  6
CONTINUOUS
 10
739.4738659057
 20
267.274739929
 11
739.439918234
 21
267.274739929
  0
LINE
  5
36F
100
AcDbEntity
  8
BEZUGSACHSEN
100
AcDbLine
 62
7
  6
CONTINUOUS
 10
754.3720462778
 20
267.274739929
 11
754.9223763378
 21
267.274739929
  0
LINE
  5
370
100
AcDbEntity
  8
BEZUGSACHSEN
100
AcDbLine
 62
7
  6
CONTINUOUS
 10
739.5218141834
 20
267.4670499671
 11
739.4324569207
 21
267.4670499671
  0
LINE
  5
371
100
AcDbEntity
  8
BEZUGSACHSEN
100
AcDbLine
 62
7
  6
CONTINUOUS
 10
739.7215986663
 20
268.2683417619
 11
739.4375369408
 21
268.2683417619
  0
LINE
  5
372
100
AcDbEntity
  8
BEZUGSACHSEN
100
AcDbLine
 62
7
  6
CONTINUOUS
 10
754.7194505844
 20
268.2683417619
 11
754.924757631
 21
268.2683417619
  0
LINE
  5
373
100
AcDbEntity
  8
BEZUGSACHSEN
100
AcDbLine
 62
7
  6
CONTINUOUS
 10
739.7775383389
 20
268.4927035342
 11
739.4494002443
 21
268.4927035342
  0
LINE
  5
374
100
AcDbEntity
  8
BEZUGSACHSEN
100
AcDbLine
 62
7
  6
CONTINUOUS
 10
739.8855161308
 20
268.9257788032
 11
739.4379423909
 21
268.9257788032
  0
LINE
  5
375
100
AcDbEntity
  8
BEZUGSACHSEN
100
AcDbLine
 62
7
  6
CONTINUOUS
 10
754.7892735105
 20
268.9257788032
 11
754.9243521809
 21
268.9257788032
  0
LINE
  5
376
100
AcDbEntity
  8
BEZUGSACHSEN
100
AcDbLine
 62
7
  6
CONTINUOUS
 10
754.7754279602
 20
268.974283299
 11
754.8914749517
 21
268.974283299
  0
LINE
  5
377
100
AcDbEntity
  8
BEZUGSACHSEN
100
AcDbLine
 62
7
  6
CONTINUOUS
 10
739.9010053644
 20
268.9879027259
 11
739.4387795174
 21
268.9879027259
  0
LINE
  5
378
100
AcDbEntity
  8
BEZUGSACHSEN
100
AcDbLine
 62
7
  6
CONTINUOUS
 10
754.7210676138
 20
269.1644780525
 11
754.8253395959
 21
269.1644780525
  0
LINE
  5
379
100
AcDbEntity
  8
BEZUGSACHSEN
100
AcDbLine
 62
7
  6
CONTINUOUS
 10
739.9518219442
 20
269.1917168953
 11
739.4737351832
 21
269.1917168953
  0
LINE
  5
37A
100
AcDbEntity
  8
BEZUGSACHSEN
100
AcDbLine
 62
7
  6
CONTINUOUS
 10
739.9740058411
 20
269.2661608958
 11
739.4481186411
 21
269.2661608958
  0
LINE
  5
37B
100
AcDbEntity
  8
BEZUGSACHSEN
100
AcDbLine
 62
7
  6
CONTINUOUS
 10
754.8726425256
 20
269.2661608958
 11
754.9141759308
 21
269.2661608958
  0
LINE
  5
37C
100
AcDbEntity
  8
BEZUGSACHSEN
100
AcDbLine
 62
7
  6
CONTINUOUS
 10
754.8633495503
 20
269.3094193394
 11
754.9001798287
 21
269.3094193394
  0
LINE
  5
37D
100
AcDbEntity
  8
BEZUGSACHSEN
100
AcDbLine
 62
7
  6
CONTINUOUS
 10
740.0088803273
 20
269.3847881946
 11
739.4837583721
 21
269.3847881946
  0
LINE
  5
37E
100
AcDbEntity
  8
BEZUGSACHSEN
100
AcDbLine
 62
7
  6
CONTINUOUS
 10
754.5942826114
 20
269.606991549
 11
754.6942002713
 21
269.606991549
  0
LINE
  5
37F
100
AcDbEntity
  8
BEZUGSACHSEN
100
AcDbLine
 62
7
  6
CONTINUOUS
 10
740.0618106339
 20
269.6328574351
 11
739.5520451572
 21
269.6328574351
  0
LINE
  5
380
100
AcDbEntity
  8
BEZUGSACHSEN
100
AcDbLine
 62
7
  6
CONTINUOUS
 10
754.7009133055
 20
269.7448587436
 11
754.732563104
 21
269.7448587436
  0
LINE
  5
381
100
AcDbEntity
  8
BEZUGSACHSEN
100
AcDbLine
 62
7
  6
CONTINUOUS
 10
754.6358482012
 20
269.9331419879
 11
754.6984812178
 21
269.9331419879
  0
LINE
  5
382
100
AcDbEntity
  8
BEZUGSACHSEN
100
AcDbLine
 62
7
  6
CONTINUOUS
 10
754.4582270967
 20
270.0805669621
 11
754.5645729983
 21
270.0805669621
  0
LINE
  5
383
100
AcDbEntity
  8
BEZUGSACHSEN
100
AcDbLine
 62
7
  6
CONTINUOUS
 10
740.1873094335
 20
270.1362056274
 11
739.6852152707
 21
270.1362056274
  0
LINE
  5
384
100
AcDbEntity
  8
BEZUGSACHSEN
100
AcDbLine
 62
7
  6
CONTINUOUS
 10
754.5579535525
 20
270.2320536392
 11
754.6322334869
 21
270.2320536392
  0
LINE
  5
385
100
AcDbEntity
  8
BEZUGSACHSEN
100
AcDbLine
 62
7
  6
CONTINUOUS
 10
754.4495611002
 20
270.6415935207
 11
754.5346579237
 21
270.6415935207
  0
LINE
  5
386
100
AcDbEntity
  8
BEZUGSACHSEN
100
AcDbLine
 62
7
  6
CONTINUOUS
 10
740.3137070358
 20
270.6431587209
 11
739.8157459394
 21
270.6431587209
  0
LINE
  5
387
100
AcDbEntity
  8
BEZUGSACHSEN
100
AcDbLine
 62
7
  6
CONTINUOUS
 10
754.2809760833
 20
270.695832567
 11
754.404311663
 21
270.695832567
  0
LINE
  5
388
100
AcDbEntity
  8
BEZUGSACHSEN
100
AcDbLine
 62
7
  6
CONTINUOUS
 10
754.3169652294
 20
271.1617618098
 11
754.4062822588
 21
271.1617618098
  0
LINE
  5
389
100
AcDbEntity
  8
BEZUGSACHSEN
100
AcDbLine
 62
7
  6
CONTINUOUS
 10
740.472378111
 20
271.2795536442
 11
739.976320609
 21
271.2795536442
  0
LINE
  5
38A
100
AcDbEntity
  8
0
100
AcDbLine
 62
7
  6
CONTINUOUS
 10
742.9975587655
 20
271.2797433251
 11
751.3647358064
 21
271.2797433251
  0
LINE
  5
38B
100
AcDbEntity
  8
BEZUGSACHSEN
100
AcDbLine
 62
7
  6
CONTINUOUS
 10
753.9110884579
 20
271.3468452669
 11
754.0723037944
 21
271.3468452669
  0
LINE
  5
38C
100
AcDbEntity
  8
BEZUGSACHSEN
100
AcDbLine
 62
7
  6
CONTINUOUS
 10
753.8540264615
 20
271.5641415157
 11
754.0379635062
 21
271.5641415157
  0
LINE
  5
38D
100
AcDbEntity
  8
BEZUGSACHSEN
100
AcDbLine
 62
7
  6
CONTINUOUS
 10
753.7735685751
 20
271.8705273519
 11
753.9722727596
 21
271.8705273519
  0
LINE
  5
38E
100
AcDbEntity
  8
BEZUGSACHSEN
100
AcDbLine
 62
7
  6
CONTINUOUS
 10
753.6697143665
 20
272.2660026836
 11
753.8757299318
 21
272.2660026836
  0
LINE
  5
38F
100
AcDbEntity
  8
BEZUGSACHSEN
100
AcDbLine
 62
7
  6
CONTINUOUS
 10
753.5938258751
 20
272.6294267123
 11
753.7803463993
 21
272.6294267123
  0
LINE
  5
390
100
AcDbEntity
  8
BEZUGSACHSEN
100
AcDbLine
 62
7
  6
CONTINUOUS
 10
753.5975828995
 20
272.9607987591
 11
753.6860814611
 21
272.9607987591
  0
LINE
  5
391
100
AcDbEntity
  8
BEZUGSACHSEN
100
AcDbLine
 62
7
  6
CONTINUOUS
 10
752.8791350283
 20
272.9683784068
 11
753.428630482
 21
272.9683784068
  0
LINE
  5
392
100
AcDbEntity
  8
BEZUGSACHSEN
100
AcDbLine
 62
7
  6
CONTINUOUS
 10
753.5950490173
 20
273.1389778421
 11
753.6244703206
 21
273.1389778421
  0
LINE
  5
393
100
AcDbEntity
  8
BEZUGSACHSEN
100
AcDbLine
 62
7
  6
CONTINUOUS
 10
740.9497395689
 20
273.1941458778
 11
740.4525190093
 21
273.1941458778
  0
LINE
  5
394
100
AcDbEntity
  8
BEZUGSACHSEN
100
AcDbLine
 62
7
  6
CONTINUOUS
 10
752.892108807
 20
273.7376185592
 11
753.4365867754
 21
273.7376185592
  0
LINE
  5
395
100
AcDbEntity
  8
BEZUGSACHSEN
100
AcDbLine
 62
7
  6
CONTINUOUS
 10
752.9210253577
 20
273.776735725
 11
753.4644896388
 21
273.776735725
  0
LINE
  5
396
100
AcDbEntity
  8
BEZUGSACHSEN
100
AcDbLine
 62
7
  6
CONTINUOUS
 10
741.109309525
 20
273.8341460152
 11
740.6095916185
 21
273.8341460152
  0
LINE
  5
397
100
AcDbEntity
  8
BEZUGSACHSEN
100
AcDbLine
 62
7
  6
CONTINUOUS
 10
741.2375046987
 20
274.3483087737
 11
740.7335422732
 21
274.3483087737
  0
LINE
  5
398
100
AcDbEntity
  8
BEZUGSACHSEN
100
AcDbLine
 62
7
  6
CONTINUOUS
 10
752.8805626953
 20
274.606772065
 11
753.4188778201
 21
274.606772065
  0
LINE
  5
399
100
AcDbEntity
  8
BEZUGSACHSEN
100
AcDbLine
 62
7
  6
CONTINUOUS
 10
752.8875116115
 20
274.6999579492
 11
753.4247395554
 21
274.6999579492
  0
LINE
  5
39A
100
AcDbEntity
  8
BEZUGSACHSEN
100
AcDbLine
 62
7
  6
CONTINUOUS
 10
741.3665986641
 20
274.8660763887
 11
740.8554699227
 21
274.8660763887
  0
LINE
  5
39B
100
AcDbEntity
  8
BEZUGSACHSEN
100
AcDbLine
 62
7
  6
CONTINUOUS
 10
752.8875116089
 20
275.0727013079
 11
753.4206167132
 21
275.0727013079
  0
LINE
  5
39C
100
AcDbEntity
  8
BEZUGSACHSEN
100
AcDbLine
 62
7
  6
CONTINUOUS
 10
741.4405324099
 20
275.1285650631
 11
740.9151522339
 21
275.1285650631
  0
LINE
  5
39D
100
AcDbEntity
  8
BEZUGSACHSEN
100
AcDbLine
 62
7
  6
CONTINUOUS
 10
752.8805626953
 20
275.1658871476
 11
753.4126986413
 21
275.1658871476
  0
LINE
  5
39E
100
AcDbEntity
  8
BEZUGSACHSEN
100
AcDbLine
 62
7
  6
CONTINUOUS
 10
741.469837975
 20
275.265216716
 11
740.9438132241
 21
275.265216716
  0
LINE
  5
39F
100
AcDbEntity
  8
BEZUGSACHSEN
100
AcDbLine
 62
7
  6
CONTINUOUS
 10
741.4846641141
 20
275.3084751596
 11
740.9553159983
 21
275.3084751596
  0
LINE
  5
3A0
100
AcDbEntity
  8
BEZUGSACHSEN
100
AcDbLine
 62
7
  6
CONTINUOUS
 10
752.8776304577
 20
275.3084751596
 11
753.4069785735
 21
275.3084751596
  0
LINE
  5
3A1
100
AcDbEntity
  8
0
100
AcDbLine
 62
7
  6
CONTINUOUS
 10
742.9975587655
 20
281.1914993137
 11
751.3647358064
 21
281.1914993137
  0
LINE
  5
3A2
100
AcDbEntity
  8
KONSTRUKTIONSELEMENTE
100
AcDbLine
 62
7
  6
CONTINUOUS
 10
548.4841417725
 20
111.3408134206
 11
548.4841417725
 21
105.4258134206
  0
LINE
  5
3A3
100
AcDbEntity
  8
KONSTRUKTIONSELEMENTE
100
AcDbLine
 62
7
  6
CONTINUOUS
 10
548.9437611803
 20
111.2677713374
 11
548.9437611803
 21
110.9427713374
  0
LINE
  5
3A4
100
AcDbEntity
  8
KONSTRUKTIONSELEMENTE
100
AcDbLine
 62
7
  6
CONTINUOUS
 10
548.9437611803
 20
105.0277713374
 11
548.9437611803
 21
104.7027713374
  0
LINE
  5
3A5
100
AcDbEntity
  8
KONSTRUKTIONSELEMENTE
100
AcDbLine
 62
7
  6
CONTINUOUS
 10
551.5600562707
 20
109.0019933253
 11
551.5600562707
 21
108.6769933253
  0
LINE
  5
3A6
100
AcDbEntity
  8
KONSTRUKTIONSELEMENTE
100
AcDbLine
 62
7
  6
CONTINUOUS
 10
551.5600562707
 20
102.7619933253
 11
551.5600562707
 21
102.4369933253
  0
LINE
  5
3A7
100
AcDbEntity
  8
KONSTRUKTIONSELEMENTE
100
AcDbLine
 62
7
  6
CONTINUOUS
 10
552.0196756784
 20
108.2789512421
 11
552.0196756784
 21
102.3639512421
  0
LINE
  5
3A8
100
AcDbEntity
  8
KONSTRUKTIONSELEMENTE
100
AcDbLine
 62
7
  6
CONTINUOUS
 10
566.8689180834
 20
109.6030232883
 11
566.8689180834
 21
114.6820867084
  0
LINE
  5
3A9
100
AcDbEntity
  8
KONSTRUKTIONSELEMENTE
100
AcDbLine
 62
7
  6
CONTINUOUS
 10
566.8689180834
 20
129.8624967487
 11
566.8689180834
 21
130.6559399688
  0
LINE
  5
3AA
100
AcDbEntity
  8
KONSTRUKTIONSELEMENTE
100
AcDbLine
 62
7
  6
CONTINUOUS
 10
569.9448325815
 20
114.7836766534
 11
569.9448325815
 21
116.0836766534
  0
LINE
  5
3AB
100
AcDbEntity
  8
KONSTRUKTIONSELEMENTE
100
AcDbLine
 62
7
  6
CONTINUOUS
 10
569.9448325815
 20
127.1986766534
 11
569.9448325815
 21
127.9921198735
  0
LINE
  5
3AC
100
AcDbEntity
  8
KONSTRUKTIONSELEMENTE
100
AcDbLine
 62
7
  6
CONTINUOUS
 10
570.4044519893
 20
115.6856345702
 11
570.4044519893
 21
106.5411611098
  0
LINE
  5
3AD
100
AcDbEntity
  8
KONSTRUKTIONSELEMENTE
100
AcDbLine
 62
7
  6
CONTINUOUS
 10
570.4044519893
 20
126.8006345702
 11
570.4044519893
 21
127.5940777903
  0
LINE
  5
3AE
100
AcDbEntity
  8
KONSTRUKTIONSELEMENTE
100
AcDbLine
 62
7
  6
CONTINUOUS
 10
617.0169918647
 20
192.3630013246
 11
617.0136793448
 21
192.4319352983
  0
LINE
  5
3AF
100
AcDbEntity
  8
RUNDUNGEN
100
AcDbLine
 62
7
  6
CONTINUOUS
 10
755.3224577219
 20
238.1605601518
 11
755.3225480633
 21
238.1604695265
  0
LINE
  5
3B0
100
AcDbEntity
  8
KONSTRUKTIONSELEMENTE
100
AcDbLine
 62
7
  6
CONTINUOUS
 10
755.3225457368
 20
238.1604718605
 11
758.7223075187
 21
234.7498636395
  0
LINE
  5
3B1
100
AcDbEntity
  8
0
100
AcDbLine
 62
7
  6
CONTINUOUS
 10
731.5421872601
 20
175.8040361932
 11
729.9687401464
 21
178.0675412289
  0
LINE
  5
3B2
100
AcDbEntity
  8
KONSTRUKTIONSELEMENTE
100
AcDbLine
 62
7
  6
CONTINUOUS
 10
755.3224573276
 20
238.1605608883
 11
754.8756017973
 21
238.6297008701
  0
LINE
  5
3B3
100
AcDbEntity
  8
RUNDUNGEN
100
AcDbLine
 62
7
  6
CONTINUOUS
 10
755.1484023875
 20
238.3331879565
 11
755.147427111
 21
238.3342299877
  0
LINE
  5
3B4
100
AcDbEntity
  8
KONSTRUKTIONSELEMENTE
100
AcDbLine
 62
7
  6
CONTINUOUS
 10
754.8756017973
 20
238.6297008701
 11
754.6559446944
 21
238.8784660689
  0
LINE
  5
3B5
100
AcDbEntity
  8
RUNDUNGEN
100
AcDbLine
 62
7
  6
CONTINUOUS
 10
754.6559446944
 20
238.8784660689
 11
754.6922456745
 21
238.8363689691
  0
LINE
  5
3B6
100
AcDbEntity
  8
RUNDUNGEN
100
AcDbLine
 62
7
  6
CONTINUOUS
 10
754.285363482
 20
239.3358438501
 11
754.3407771246
 21
239.2637589579
  0
LINE
  5
3B7
100
AcDbEntity
  8
KONSTRUKTIONSELEMENTE
100
AcDbLine
 62
7
  6
CONTINUOUS
 10
754.3407771246
 20
239.2637589579
 11
754.1463575687
 21
239.5240245073
  0
LINE
  5
3B8
100
AcDbEntity
  8
KONSTRUKTIONSELEMENTE
100
AcDbLine
 62
7
  6
CONTINUOUS
 10
754.1463575687
 20
239.5240245073
 11
753.9163677008
 21
239.8659285531
  0
LINE
  5
3B9
100
AcDbEntity
  8
RUNDUNGEN
100
AcDbLine
 62
7
  6
CONTINUOUS
 10
763.7734511049
 20
224.5896444383
 11
754.9170446444
 21
237.8742541291
  0
LWPOLYLINE
  5
3BA
100
AcDbEntity
  8
RUNDUNGEN
100
AcDbPolyline
 62
7
  6
CONTINUOUS
 90
7
 70
0
 10
754.9170286351
 20
237.8742693285
 10
754.7795713856
 20
238.0852994928
 10
754.5640769371
 20
238.4377341629
 10
754.3646285308
 20
238.7918229942
 10
754.1811020978
 20
239.1470061054
 10
754.0134572575
 20
239.502774891
 10
753.9227281388
 20
239.7110482354
  0
LINE
  5
3BB
100
AcDbEntity
  8
KONSTRUKTIONSELEMENTE
100
AcDbLine
 62
7
  6
CONTINUOUS
 10
753.9163677008
 20
239.8659285531
 11
753.7571410998
 21
240.1387989394
  0
LWPOLYLINE
  5
3BC
100
AcDbEntity
  8
RUNDUNGEN
100
AcDbPolyline
 62
7
  6
CONTINUOUS
 90
4
 70
0
 10
753.3801887047
 20
240.8257268259
 10
753.3410421263
 20
240.8944892153
 10
753.3145692198
 20
240.9462293356
 10
753.3084814244
 20
240.959038052
  0
LWPOLYLINE
  5
3BD
100
AcDbEntity
  8
RUNDUNGEN
100
AcDbPolyline
 62
7
  6
CONTINUOUS
 90
3
 70
0
 10
753.576008298
 20
240.4958187908
 10
753.4920195981
 20
240.6442783566
 10
753.3801887047
 20
240.8257268259
  0
LINE
  5
3BE
100
AcDbEntity
  8
KONSTRUKTIONSELEMENTE
100
AcDbLine
 62
7
  6
CONTINUOUS
 10
753.7571410998
 20
240.1387989394
 11
753.6816157234
 21
240.2877873929
  0
LWPOLYLINE
  5
3BF
100
AcDbEntity
  8
RUNDUNGEN
100
AcDbPolyline
 62
7
  6
CONTINUOUS
 90
3
 70
0
 10
753.6812011604
 20
240.2885324231
 10
753.6538749234
 20
240.3450319175
 10
753.576008298
 20
240.4958187908
  0
LINE
  5
3C0
100
AcDbEntity
  8
RUNDUNGEN
100
AcDbLine
 62
7
  6
CONTINUOUS
 10
753.6816089932
 20
240.2878015728
 11
753.6813118283
 21
240.2884273384
  0
LINE
  5
3C1
100
AcDbEntity
  8
RUNDUNGEN
100
AcDbLine
 62
7
  6
CONTINUOUS
 10
753.3105353865
 20
240.9546431365
 11
753.3084792248
 21
240.9590321742
  0
LINE
  5
3C2
100
AcDbEntity
  8
RUNDUNGEN
100
AcDbLine
 62
7
  6
CONTINUOUS
 10
753.9231248289
 20
239.710184358
 11
753.9228322744
 21
239.7108767028
  0
LINE
  5
3C3
100
AcDbEntity
  8
RUNDUNGEN
100
AcDbLine
 62
7
  6
CONTINUOUS
 10
755.5769917808
 20
237.9052140438
 11
755.538195324
 21
238.0121295858
  0
LINE
  5
3C4
100
AcDbEntity
  8
0
100
AcDbLine
 62
7
  6
CONTINUOUS
 10
700.1811472859
 20
277.3981056726
 11
700.1811472859
 21
333.6897569186
  0
LINE
  5
3C5
100
AcDbEntity
  8
KONSTRUKTIONSELEMENTE
100
AcDbLine
 62
7
  6
CONTINUOUS
 10
574.0093899997
 20
106.7625947693
 11
576.534556217
 21
112.7786032624
  0
LINE
  5
3C6
100
AcDbEntity
  8
RUNDUNGEN
100
AcDbLine
 62
7
  6
CONTINUOUS
 10
755.538195324
 20
238.0121295858
 11
755.4903667699
 21
238.1858078321
  0
LINE
  5
3C7
100
AcDbEntity
  8
KONSTRUKTIONSELEMENTE
100
AcDbLine
 62
7
  6
CONTINUOUS
 10
751.6349041651
 20
280.3239139648
 11
752.884939164
 21
275.3102974247
  0
LINE
  5
3C8
100
AcDbEntity
  8
KONSTRUKTIONSELEMENTE
100
AcDbLine
 62
7
  6
CONTINUOUS
 10
754.8904154945
 20
267.2667711958
 11
755.2529216436
 21
265.8128384448
  0
LWPOLYLINE
  5
3C9
100
AcDbEntity
  8
RUNDUNGEN
100
AcDbPolyline
 62
7
  6
CONTINUOUS
 90
3
 70
0
 10
755.4531795011
 20
238.3877268285
 10
755.4330342701
 20
238.6150280357
 10
755.4311478099
 20
238.706524092
  0
LINE
  5
3CA
100
AcDbEntity
  8
0
100
AcDbLine
 62
7
  6
CONTINUOUS
 10
742.6082830944
 20
256.1634691658
 11
742.8482043685
 21
250.1755899905
  0
LINE
  5
3CB
100
AcDbEntity
  8
0
100
AcDbLine
 62
7
  6
CONTINUOUS
 10
722.1811472859
 20
277.3981056726
 11
722.1811472859
 21
333.6897569186
  0
LINE
  5
3CC
100
AcDbEntity
  8
0
100
AcDbLine
 62
7
  6
CONTINUOUS
 10
729.1811472859
 20
195.7314790012
 11
729.1811472859
 21
185.9697942793
  0
LINE
  5
3CD
100
AcDbEntity
  8
0
100
AcDbLine
 62
7
  6
CONTINUOUS
 10
729.1811472859
 20
185.6763964686
 11
729.1811472859
 21
180.5490825105
  0
LINE
  5
3CE
100
AcDbEntity
  8
0
100
AcDbLine
 62
7
  6
CONTINUOUS
 10
729.1811472859
 20
205.1283707417
 11
729.1811472859
 21
220.0161424308
  0
LINE
  5
3CF
100
AcDbEntity
  8
0
100
AcDbLine
 62
7
  6
CONTINUOUS
 10
731.1811472859
 20
708.5508189468
 11
731.1811472859
 21
326.6747917987
  0
LINE
  5
3D0
100
AcDbEntity
  8
0
100
AcDbLine
 62
7
  6
CONTINUOUS
 10
732.6275062727
 20
198.4888800068
 11
732.6275062727
 21
194.7196892883
  0
LINE
  5
3D1
100
AcDbEntity
  8
0
100
AcDbLine
 62
7
  6
CONTINUOUS
 10
734.1811472859
 20
229.9781001668
 11
734.1811472859
 21
231.2199650282
  0
LINE
  5
3D2
100
AcDbEntity
  8
0
100
AcDbLine
 62
7
  6
CONTINUOUS
 10
738.9311600799
 20
238.7063442219
 11
738.9311472859
 21
264.3472282064
  0
LINE
  5
3D3
100
AcDbEntity
  8
KONSTRUKTIONSELEMENTE
100
AcDbLine
 62
7
  6
CONTINUOUS
 10
615.1291483403
 20
137.062710604
 11
613.3471480533
 21
132.8172360733
  0
LINE
  5
3D4
100
AcDbEntity
  8
KONSTRUKTIONSELEMENTE
100
AcDbLine
 62
7
  6
CONTINUOUS
 10
619.4078481765
 20
135.771382388
 11
616.8826819593
 21
129.7553738949
  0
LINE
  5
3D5
100
AcDbEntity
  8
KONSTRUKTIONSELEMENTE
100
AcDbLine
 62
7
  6
CONTINUOUS
 10
640.7098348923
 20
176.5244767101
 11
624.0461103842
 21
136.8244730103
  0
LINE
  5
3D6
100
AcDbEntity
  8
RUNDUNGEN
100
AcDbLine
 62
7
  6
CONTINUOUS
 10
755.4903667699
 20
238.1858078321
 11
755.4531795011
 21
238.3877268285
  0
LINE
  5
3D7
100
AcDbEntity
  8
0
100
AcDbLine
 62
7
  6
CONTINUOUS
 10
742.8482043685
 20
250.1755899905
 11
742.8482043685
 21
228.7323006703
  0
LINE
  5
3D8
100
AcDbEntity
  8
RUNDUNGEN
100
AcDbLine
 62
7
  6
CONTINUOUS
 10
751.5140902034
 20
250.1755899905
 11
751.5140902034
 21
228.7323006703
  0
LINE
  5
3D9
100
AcDbEntity
  8
BEZUGSACHSEN
100
AcDbLine
 62
7
  6
CONTINUOUS
 10
755.4311472859
 20
264.3472282064
 11
755.4311472859
 21
250.3627259413
  0
LINE
  5
3DA
100
AcDbEntity
  8
RUNDUNGEN
100
AcDbLine
 62
7
  6
CONTINUOUS
 10
755.4311472859
 20
250.3627259189
 11
755.4311472859
 21
238.709781072
  0
LINE
  5
3DB
100
AcDbEntity
  8
KONSTRUKTIONSELEMENTE
100
AcDbLine
 62
7
  6
CONTINUOUS
 10
755.4311472859
 20
250.3627259413
 11
755.4311472859
 21
238.7097904781
  0
LINE
  5
3DC
100
AcDbEntity
  8
KONSTRUKTIONSELEMENTE
100
AcDbLine
 62
7
  6
CONTINUOUS
 10
760.1811472859
 20
229.9781001668
 11
760.1811472859
 21
231.2199650282
  0
LINE
  5
3DD
100
AcDbEntity
  8
KONSTRUKTIONSELEMENTE
100
AcDbLine
 62
7
  6
CONTINUOUS
 10
761.7347882992
 20
198.4888800068
 11
761.7347882992
 21
194.7196892883
  0
LINE
  5
3DE
100
AcDbEntity
  8
0
100
AcDbLine
 62
7
  6
CONTINUOUS
 10
763.1811472859
 20
708.5508189468
 11
763.1811472859
 21
326.6747917987
  0
LWPOLYLINE
  5
3DF
100
AcDbEntity
  8
0
100
AcDbPolyline
 62
7
  6
CONTINUOUS
 90
3
 70
0
 10
738.9311465461
 20
238.7063442385
 10
738.9297100461
 20
238.6270610793
 10
738.9104554545
 20
238.3975865157
  0
LINE
  5
3E0
100
AcDbEntity
  8
0
100
AcDbLine
 62
7
  6
CONTINUOUS
 10
751.7540114774
 20
256.1634691658
 11
751.5140902034
 21
250.1755899905
  0
LINE
  5
3E1
100
AcDbEntity
  8
KONSTRUKTIONSELEMENTE
100
AcDbLine
 62
7
  6
CONTINUOUS
 10
765.1811472859
 20
195.7314790012
 11
765.1811472859
 21
185.9697942793
  0
LINE
  5
3E2
100
AcDbEntity
  8
RUNDUNGEN
100
AcDbLine
 62
7
  6
CONTINUOUS
 10
765.1811472859
 20
185.6763964686
 11
765.1811472859
 21
180.5490825105
  0
LINE
  5
3E3
100
AcDbEntity
  8
RUNDUNGEN
100
AcDbLine
 62
7
  6
CONTINUOUS
 10
765.1811472859
 20
205.1283707417
 11
765.1811472859
 21
220.0161424308
  0
LINE
  5
3E4
100
AcDbEntity
  8
0
100
AcDbLine
 62
7
  6
CONTINUOUS
 10
772.1811472859
 20
333.6897569186
 11
772.1811472859
 21
277.3981056726
  0
LINE
  5
3E5
100
AcDbEntity
  8
0
100
AcDbLine
 62
7
  6
CONTINUOUS
 10
738.9104554545
 20
238.3975865157
 11
738.8736653897
 21
238.1933709133
  0
LINE
  5
3E6
100
AcDbEntity
  8
BEZUGSACHSEN
100
AcDbLine
 62
7
  6
CONTINUOUS
 10
739.4483806894
 20
269.2880403159
 11
739.6341733968
 21
270.0332141645
  0
LINE
  5
3E7
100
AcDbEntity
  8
BEZUGSACHSEN
100
AcDbLine
 62
7
  6
CONTINUOUS
 10
740.7535010306
 20
274.5225920964
 11
740.9440495769
 21
275.2868405731
  0
LINE
  5
3E8
100
AcDbEntity
  8
0
100
AcDbLine
 62
7
  6
CONTINUOUS
 10
739.1093729283
 20
265.8128384448
 11
742.7273904068
 21
280.3239139648
  0
LINE
  5
3E9
100
AcDbEntity
  8
0
100
AcDbLine
 62
7
  6
CONTINUOUS
 10
738.8736653897
 20
238.1933709133
 11
738.8258187018
 21
238.0175092954
  0
LINE
  5
3EA
100
AcDbEntity
  8
KONSTRUKTIONSELEMENTE
100
AcDbLine
 62
7
  6
CONTINUOUS
 10
619.0644197673
 20
194.8841178196
 11
617.0136793448
 21
192.4319352983
  0
LINE
  5
3EB
100
AcDbEntity
  8
KONSTRUKTIONSELEMENTE
100
AcDbLine
 62
7
  6
CONTINUOUS
 10
606.1928193338
 20
179.4928409632
 11
569.5226766093
 21
135.644345048
  0
LINE
  5
3EC
100
AcDbEntity
  8
KONSTRUKTIONSELEMENTE
100
AcDbLine
 62
7
  6
CONTINUOUS
 10
606.6524387415
 20
179.09479888
 11
607.0689953899
 21
179.5928984547
  0
LINE
  5
3ED
100
AcDbEntity
  8
KONSTRUKTIONSELEMENTE
100
AcDbLine
 62
7
  6
CONTINUOUS
 10
610.9232162064
 20
179.4116701299
 11
618.3542760428
 21
188.2973949369
  0
LINE
  5
3EE
100
AcDbEntity
  8
KONSTRUKTIONSELEMENTE
100
AcDbLine
 62
7
  6
CONTINUOUS
 10
609.2687338319
 20
176.8290208679
 11
609.6852904803
 21
177.3271204426
  0
LINE
  5
3EF
100
AcDbEntity
  8
KONSTRUKTIONSELEMENTE
100
AcDbLine
 62
7
  6
CONTINUOUS
 10
622.5999536733
 20
191.8222556411
 11
620.5492132507
 21
189.3700731198
  0
LINE
  5
3F0
100
AcDbEntity
  8
KONSTRUKTIONSELEMENTE
100
AcDbLine
 62
7
  6
CONTINUOUS
 10
609.7283532397
 20
176.4309787847
 11
573.0582105153
 21
132.5824828695
  0
LINE
  5
3F1
100
AcDbEntity
  8
KONSTRUKTIONSELEMENTE
100
AcDbLine
 62
7
  6
CONTINUOUS
 10
613.6263006597
 20
176.3020367521
 11
615.2925272531
 21
178.2944350507
  0
LINE
  5
3F2
100
AcDbEntity
  8
KONSTRUKTIONSELEMENTE
100
AcDbLine
 62
7
  6
CONTINUOUS
 10
621.8898099488
 20
185.2355327585
 11
614.0859200675
 21
175.9039946689
  0
LINE
  5
3F3
100
AcDbEntity
  8
0
100
AcDbLine
 62
7
  6
CONTINUOUS
 10
794.1811472859
 20
333.6897569186
 11
794.1811472859
 21
277.3981056726
  0
LINE
  5
3F4
100
AcDbEntity
  8
0
100
AcDbLine
 62
7
  6
CONTINUOUS
 10
738.8258187018
 20
238.0175092954
 11
738.7854007157
 21
237.9053122809
  0
LINE
  5
3F5
100
AcDbEntity
  8
0
100
AcDbLine
 62
7
  6
CONTINUOUS
 10
740.439169743
 20
239.710184358
 11
740.4394589134
 21
239.7108686937
  0
LWPOLYLINE
  5
3F6
100
AcDbEntity
  8
0
100
AcDbPolyline
 62
7
  6
CONTINUOUS
 90
7
 70
0
 10
740.4395630523
 20
239.7110402347
 10
740.3538209967
 20
239.5138989629
 10
740.185590772
 20
239.1559226558
 10
740.001274159
 20
238.7985130556
 10
739.8008309939
 20
238.442187901
 10
739.5841342431
 20
238.0875180781
 10
739.445266071
 20
237.8742695299
  0
LINE
  5
3F7
100
AcDbEntity
  8
0
100
AcDbLine
 62
7
  6
CONTINUOUS
 10
741.0517591853
 20
240.9546431365
 11
741.0538168888
 21
240.9590354755
  0
LWPOLYLINE
  5
3F8
100
AcDbEntity
  8
0
100
AcDbPolyline
 62
7
  6
CONTINUOUS
 90
5
 70
0
 10
741.0538146892
 20
240.9590413531
 10
741.0486930992
 20
240.9482366428
 10
741.0233239204
 20
240.8983537003
 10
740.985706993
 20
240.8317582322
 10
740.8686288167
 20
240.6414915015
  0
LINE
  5
3F9
100
AcDbEntity
  8
0
100
AcDbLine
 62
7
  6
CONTINUOUS
 10
740.6806866876
 20
240.2878039086
 11
740.6809827372
 21
240.2884273249
  0
LINE
  5
3FA
100
AcDbEntity
  8
0
100
AcDbLine
 62
7
  6
CONTINUOUS
 10
740.6806799571
 20
240.2877897279
 11
740.6051005998
 21
240.1387004741
  0
LWPOLYLINE
  5
3FB
100
AcDbEntity
  8
0
100
AcDbPolyline
 62
7
  6
CONTINUOUS
 90
3
 70
0
 10
740.7839930686
 20
240.4915728885
 10
740.7055981444
 20
240.339291727
 10
740.6810934051
 20
240.2885324097
  0
LINE
  5
3FC
100
AcDbEntity
  8
0
100
AcDbLine
 62
7
  6
CONTINUOUS
 10
740.8686288167
 20
240.6414915015
 11
740.7839930686
 21
240.4915728885
  0
LINE
  5
3FD
100
AcDbEntity
  8
0
100
AcDbLine
 62
7
  6
CONTINUOUS
 10
740.6051005998
 20
240.1387004741
 11
740.4457434207
 21
239.8656356531
  0
LINE
  5
3FE
100
AcDbEntity
  8
0
100
AcDbLine
 62
7
  6
CONTINUOUS
 10
739.4452499275
 20
237.8742541291
 11
730.588843467
 21
224.5896444383
  0
LINE
  5
3FF
100
AcDbEntity
  8
0
100
AcDbLine
 62
7
  6
CONTINUOUS
 10
740.4457434207
 20
239.8656356531
 11
740.2154353778
 21
239.5233244072
  0
LINE
  5
400
100
AcDbEntity
  8
KONSTRUKTIONSELEMENTE
100
AcDbLine
 62
7
  6
CONTINUOUS
 10
636.0646270123
 20
191.5178484848
 11
636.2965154158
 21
191.7186697332
  0
LINE
  5
401
100
AcDbEntity
  8
KONSTRUKTIONSELEMENTE
100
AcDbLine
 62
7
  6
CONTINUOUS
 10
636.6500688064
 20
192.024855951
 11
639.4784959312
 21
194.4743456938
  0
LINE
  5
402
100
AcDbEntity
  8
KONSTRUKTIONSELEMENTE
100
AcDbLine
 62
7
  6
CONTINUOUS
 10
691.0972909578
 20
239.1775334996
 11
693.9257180825
 21
241.6270232424
  0
LINE
  5
403
100
AcDbEntity
  8
KONSTRUKTIONSELEMENTE
100
AcDbLine
 62
7
  6
CONTINUOUS
 10
694.2792714731
 20
241.9332094602
 11
697.1076985979
 21
244.382699203
  0
LINE
  5
404
100
AcDbEntity
  8
KONSTRUKTIONSELEMENTE
100
AcDbLine
 62
7
  6
CONTINUOUS
 10
660.3250326986
 20
212.1972572014
 11
670.9316344164
 21
221.3828437368
  0
LINE
  5
405
100
AcDbEntity
  8
KONSTRUKTIONSELEMENTE
100
AcDbLine
 62
7
  6
CONTINUOUS
 10
563.7220432852
 20
125.0411390645
 11
550.3226194036
 21
113.436897587
  0
LINE
  5
406
100
AcDbEntity
  8
KONSTRUKTIONSELEMENTE
100
AcDbLine
 62
7
  6
CONTINUOUS
 10
548.4841417725
 20
111.3408134206
 11
549.1170686329
 21
111.8889441604
  0
LINE
  5
407
100
AcDbEntity
  8
KONSTRUKTIONSELEMENTE
100
AcDbLine
 62
7
  6
CONTINUOUS
 10
690.5538475943
 20
234.2088958169
 11
679.9472458765
 21
225.0233092814
  0
LINE
  5
408
100
AcDbEntity
  8
KONSTRUKTIONSELEMENTE
100
AcDbLine
 62
7
  6
CONTINUOUS
 10
659.4411492221
 20
207.2645086463
 11
648.8345475043
 21
198.0789221108
  0
LINE
  5
409
100
AcDbEntity
  8
KONSTRUKTIONSELEMENTE
100
AcDbLine
 62
7
  6
CONTINUOUS
 10
664.0591832503
 20
209.4781859909
 11
673.8775759345
 21
217.9811634797
  0
LINE
  5
40A
100
AcDbEntity
  8
KONSTRUKTIONSELEMENTE
100
AcDbLine
 62
7
  6
CONTINUOUS
 10
640.2187194005
 20
188.501019745
 11
642.7517642847
 21
190.6947009637
  0
LINE
  5
40B
100
AcDbEntity
  8
KONSTRUKTIONSELEMENTE
100
AcDbLine
 62
7
  6
CONTINUOUS
 10
695.5270875828
 20
236.3994716328
 11
697.1989864361
 21
237.8473785123
  0
LINE
  5
40C
100
AcDbEntity
  8
KONSTRUKTIONSELEMENTE
100
AcDbLine
 62
7
  6
CONTINUOUS
 10
697.5525398267
 20
238.1535647301
 11
699.7107687221
 21
240.0226457807
  0
LINE
  5
40D
100
AcDbEntity
  8
KONSTRUKTIONSELEMENTE
100
AcDbLine
 62
7
  6
CONTINUOUS
 10
566.3383383756
 20
122.7753610524
 11
552.938914494
 21
111.1711195749
  0
LINE
  5
40E
100
AcDbEntity
  8
KONSTRUKTIONSELEMENTE
100
AcDbLine
 62
7
  6
CONTINUOUS
 10
551.5600562707
 20
108.6769933253
 11
566.2678773193
 21
121.4143399878
  0
LINE
  5
40F
100
AcDbEntity
  8
KONSTRUKTIONSELEMENTE
100
AcDbLine
 62
7
  6
CONTINUOUS
 10
693.4997891125
 20
230.8072155598
 11
682.8931873947
 21
221.6216290244
  0
LINE
  5
410
100
AcDbEntity
  8
KONSTRUKTIONSELEMENTE
100
AcDbLine
 62
7
  6
CONTINUOUS
 10
662.3870907403
 20
203.8628283892
 11
651.7804890225
 21
194.6772418537
  0
LINE
  5
411
100
AcDbEntity
  8
KONSTRUKTIONSELEMENTE
100
AcDbLine
 62
7
  6
CONTINUOUS
 10
552.0196756784
 20
108.2789512421
 11
566.7274967271
 21
121.0162979046
  0
LINE
  5
412
100
AcDbEntity
  8
KONSTRUKTIONSELEMENTE
100
AcDbLine
 62
7
  6
CONTINUOUS
 10
705.2394265815
 20
237.3404161925
 11
699.2290189414
 21
232.1352504891
  0
LINE
  5
413
100
AcDbEntity
  8
KONSTRUKTIONSELEMENTE
100
AcDbLine
 62
7
  6
CONTINUOUS
 10
647.6102239148
 20
187.4320626833
 11
641.5998162747
 21
182.2268969799
  0
LINE
  5
414
100
AcDbEntity
  8
KONSTRUKTIONSELEMENTE
100
AcDbLine
 62
7
  6
CONTINUOUS
 10
679.0633624
 20
214.3405607263
 11
668.4567606822
 21
205.1549741909
  0
LINE
  5
415
100
AcDbEntity
  8
KONSTRUKTIONSELEMENTE
100
AcDbLine
 62
7
  6
CONTINUOUS
 10
653.3098064384
 20
190.2516695864
 11
662.3870907403
 21
198.1128283892
  0
LINE
  5
416
100
AcDbEntity
  8
KONSTRUKTIONSELEMENTE
100
AcDbLine
 62
7
  6
CONTINUOUS
 10
684.3863860771
 20
217.1647770162
 11
693.4997891125
 21
225.0572155598
  0
LINE
  5
417
100
AcDbEntity
  8
KONSTRUKTIONSELEMENTE
100
AcDbLine
 62
7
  6
CONTINUOUS
 10
552.0196756784
 20
102.3639512421
 11
566.7274967271
 21
115.1012979046
  0
LINE
  5
418
100
AcDbEntity
  8
KONSTRUKTIONSELEMENTE
100
AcDbLine
 62
7
  6
CONTINUOUS
 10
552.938914494
 20
102.6561195749
 11
566.2678773193
 21
114.1993399878
  0
LINE
  5
419
100
AcDbEntity
  8
0
100
AcDbLine
 62
7
  6
CONTINUOUS
 10
740.2154353778
 20
239.5233244072
 11
740.0213305493
 21
239.2635183284
  0
LINE
  5
41A
100
AcDbEntity
  8
0
100
AcDbLine
 62
7
  6
CONTINUOUS
 10
740.0769310898
 20
239.3358438501
 11
740.0213305493
 21
239.2635183284
  0
LINE
  5
41B
100
AcDbEntity
  8
0
100
AcDbLine
 62
7
  6
CONTINUOUS
 10
739.706048171
 20
238.8781144883
 11
739.6700488974
 21
238.8363689691
  0
LINE
  5
41C
100
AcDbEntity
  8
0
100
AcDbLine
 62
7
  6
CONTINUOUS
 10
739.706048171
 20
238.8781144883
 11
739.4860612004
 21
238.6290049989
  0
LINE
  5
41D
100
AcDbEntity
  8
0
100
AcDbLine
 62
7
  6
CONTINUOUS
 10
739.4860612004
 20
238.6290049989
 11
739.0398437141
 21
238.1605673782
  0
LINE
  5
41E
100
AcDbEntity
  8
0
100
AcDbLine
 62
7
  6
CONTINUOUS
 10
735.6399870532
 20
234.7498636395
 11
739.039748835
 21
238.1604718605
  0
LINE
  5
41F
100
AcDbEntity
  8
KONSTRUKTIONSELEMENTE
100
AcDbLine
 62
7
  6
CONTINUOUS
 10
682.0093039182
 20
210.9388804692
 11
671.4027022004
 21
201.7532939338
  0
LINE
  5
420
100
AcDbEntity
  8
KONSTRUKTIONSELEMENTE
100
AcDbLine
 62
7
  6
CONTINUOUS
 10
708.5126949351
 20
233.5607714624
 11
702.502287295
 21
228.355605759
  0
LINE
  5
421
100
AcDbEntity
  8
KONSTRUKTIONSELEMENTE
100
AcDbLine
 62
7
  6
CONTINUOUS
 10
650.8834922684
 20
183.6524179532
 11
644.8730846283
 21
178.4472522498
  0
LINE
  5
422
100
AcDbEntity
  8
RUNDUNGEN
100
AcDbLine
 62
7
  6
CONTINUOUS
 10
764.3935544254
 20
178.0675412289
 11
762.8201073117
 21
175.8040361932
  0
LINE
  5
423
100
AcDbEntity
  8
KONSTRUKTIONSELEMENTE
100
AcDbLine
 62
7
  6
CONTINUOUS
 10
582.6425582521
 20
119.6402791484
 11
617.1847172449
 21
138.1651041838
  0
LINE
  5
424
100
AcDbEntity
  8
KONSTRUKTIONSELEMENTE
100
AcDbLine
 62
7
  6
CONTINUOUS
 10
573.0582105153
 20
105.8938831009
 11
573.3985897962
 21
106.0764271807
  0
LINE
  5
425
100
AcDbEntity
  8
KONSTRUKTIONSELEMENTE
100
AcDbLine
 62
7
  6
CONTINUOUS
 10
617.1049950524
 20
129.5160017153
 11
617.9381083491
 21
129.9627971243
  0
LINE
  5
426
100
AcDbEntity
  8
RUNDUNGEN
100
AcDbLine
 62
7
  6
CONTINUOUS
 10
762.0802771174
 20
175.1248283528
 11
762.369294187
 21
175.3391765794
  0
ARC
  5
427
100
AcDbEntity
  8
KONSTRUKTIONSELEMENTE
100
AcDbCircle
 62
7
  6
CONTINUOUS
 10
129.0625561797
 20
147.1828507191
 40
45.0
100
AcDbArc
 50
69.0779339621
 51
82.8843724077
  0
ARC
  5
428
100
AcDbEntity
  8
KONSTRUKTIONSELEMENTE
100
AcDbCircle
 62
7
  6
CONTINUOUS
 10
129.0625561797
 20
147.1828507191
 40
45.0
100
AcDbArc
 50
37.1156275923
 51
50.9220660379
  0
ARC
  5
429
100
AcDbEntity
  8
BEZUGSACHSEN
100
AcDbCircle
 62
7
  6
CONTINUOUS
 10
183.7923686797
 20
241.9776666578
 40
16.0
100
AcDbArc
 50
103.4832507211
 51
16.5167492789
  0
ARC
  5
42A
100
AcDbEntity
  8
0
100
AcDbCircle
 62
7
  6
CONTINUOUS
 10
186.2423686797
 20
246.2211911364
 40
11.0
100
AcDbArc
 50
150.0
 51
330.0
  0
ARC
  5
42B
100
AcDbEntity
  8
KONSTRUKTIONSELEMENTE
100
AcDbCircle
 62
7
  6
CONTINUOUS
 10
98.6494973622
 20
121.9137549802
 40
7.2075994745
100
AcDbArc
 50
52.0084828409
 51
54.6969256904
  0
ARC
  5
42C
100
AcDbEntity
  8
KONSTRUKTIONSELEMENTE
100
AcDbCircle
 62
7
  6
CONTINUOUS
 10
167.4923686797
 20
213.7452384944
 40
7.1
100
AcDbArc
 50
330.0
 51
150.0
  0
ARC
  5
42D
100
AcDbEntity
  8
KONSTRUKTIONSELEMENTE
100
AcDbCircle
 62
7
  6
CONTINUOUS
 10
122.871145418
 20
109.6357765395
 40
6.0774483597
100
AcDbArc
 50
81.3149175254
 51
82.0930351415
  0
ARC
  5
42E
100
AcDbEntity
  8
KONSTRUKTIONSELEMENTE
100
AcDbCircle
 62
7
  6
CONTINUOUS
 10
99.8822366904
 20
123.2642781315
 40
5.819557838
100
AcDbArc
 50
34.748994543
 51
36.8892014811
  0
CIRCLE
  5
42F
100
AcDbEntity
  8
BEZUGSACHSEN
100
AcDbCircle
 62
7
  6
CONTINUOUS
 10
178.7109529668
 20
187.1763964686
 40
3.0
  0
ARC
  5
430
100
AcDbEntity
  8
RUNDUNGEN
100
AcDbCircle
 62
7
  6
CONTINUOUS
 10
131.9355241959
 20
222.1589772916
 40
3.0
100
AcDbArc
 50
337.0803074625
 51
10.0
  0
ARC
  5
431
100
AcDbEntity
  8
RUNDUNGEN
100
AcDbCircle
 62
7
  6
CONTINUOUS
 10
192.5573024608
 20
187.1589772916
 40
3.0
100
AcDbArc
 50
110.0
 51
145.2760379204
  0
ARC
  5
432
100
AcDbEntity
  8
KONSTRUKTIONSELEMENTE
100
AcDbCircle
 62
7
  6
CONTINUOUS
 10
104.821690228
 20
122.3390446291
 40
2.6566396129
100
AcDbArc
 50
337.9702150979
 51
339.9065806722
  0
ARC
  5
433
100
AcDbEntity
  8
KONSTRUKTIONSELEMENTE
100
AcDbCircle
 62
7
  6
CONTINUOUS
 10
104.8598780676
 20
122.3231031952
 40
2.6152604962
100
AcDbArc
 50
330.0208671421
 51
337.9801551546
  0
ARC
  5
434
100
AcDbEntity
  8
KONSTRUKTIONSELEMENTE
100
AcDbCircle
 62
7
  6
CONTINUOUS
 10
147.3620882666
 20
178.8785700483
 40
2.5
100
AcDbArc
 50
150.0
 51
330.0
  0
ARC
  5
435
100
AcDbEntity
  8
KONSTRUKTIONSELEMENTE
100
AcDbCircle
 62
7
  6
CONTINUOUS
 10
176.1766896
 20
228.7869235575
 40
2.5
100
AcDbArc
 50
150.0
 51
163.090119613
  0
ARC
  5
436
100
AcDbEntity
  8
KONSTRUKTIONSELEMENTE
100
AcDbCircle
 62
7
  6
CONTINUOUS
 10
176.1766896
 20
228.7869235575
 40
2.5
100
AcDbArc
 50
316.909880387
 51
330.0
  0
ARC
  5
437
100
AcDbEntity
  8
KONSTRUKTIONSELEMENTE
100
AcDbCircle
 62
7
  6
CONTINUOUS
 10
106.9369257514
 20
181.7352445708
 40
2.3394182333
100
AcDbArc
 50
258.2431310925
 51
260.8424375544
  0
ARC
  5
438
100
AcDbEntity
  8
0
100
AcDbCircle
 62
7
  6
CONTINUOUS
 10
130.7906993865
 20
196.3679596611
 40
2.0
100
AcDbArc
 50
190.0000162712
 51
240.0000104589
  0
ARC
  5
439
100
AcDbEntity
  8
RUNDUNGEN
100
AcDbCircle
 62
7
  6
CONTINUOUS
 10
128.9255768005
 20
206.9455954746
 40
2.0
100
AcDbArc
 50
150.0
 51
190.0
  0
ARC
  5
43A
100
AcDbEntity
  8
0
100
AcDbCircle
 62
7
  6
CONTINUOUS
 10
170.7940406915
 20
173.2720219396
 40
2.0
100
AcDbArc
 50
239.9999447949
 51
289.999914116
  0
ARC
  5
43B
100
AcDbEntity
  8
RUNDUNGEN
100
AcDbCircle
 62
7
  6
CONTINUOUS
 10
180.8871010275
 20
176.9455954746
 40
2.0
100
AcDbArc
 50
290.0
 51
330.0
  0
ARC
  5
43C
100
AcDbEntity
  8
0
100
AcDbCircle
 62
7
  6
CONTINUOUS
 10
254.7423686797
 20
364.8666714548
 40
11.0
100
AcDbArc
 50
330.0
 51
150.0
  0
ARC
  5
43D
100
AcDbEntity
  8
KONSTRUKTIONSELEMENTE
100
AcDbCircle
 62
7
  6
CONTINUOUS
 10
464.4221811797
 20
147.1828507191
 40
45.0
100
AcDbArc
 50
97.1156275923
 51
110.9220660379
  0
ARC
  5
43E
100
AcDbEntity
  8
KONSTRUKTIONSELEMENTE
100
AcDbCircle
 62
7
  6
CONTINUOUS
 10
464.4221811797
 20
147.1828507191
 40
45.0
100
AcDbArc
 50
129.0779339621
 51
142.8843724077
  0
ARC
  5
43F
100
AcDbEntity
  8
0
100
AcDbCircle
 62
7
  6
CONTINUOUS
 10
409.6923686797
 20
241.9776666578
 40
16.0
100
AcDbArc
 50
163.4832507211
 51
76.5167492789
  0
ARC
  5
440
100
AcDbEntity
  8
0
100
AcDbCircle
 62
7
  6
CONTINUOUS
 10
407.2423686797
 20
246.2211911364
 40
11.0
100
AcDbArc
 50
210.0
 51
30.0
  0
ARC
  5
441
100
AcDbEntity
  8
0
100
AcDbCircle
 62
7
  6
CONTINUOUS
 10
425.9923686797
 20
213.7452384944
 40
7.1
100
AcDbArc
 50
30.0
 51
210.0
  0
ARC
  5
442
100
AcDbEntity
  8
0
100
AcDbCircle
 62
7
  6
CONTINUOUS
 10
400.9274348987
 20
187.1589772916
 40
3.0
100
AcDbArc
 50
34.7239620796
 51
70.0
  0
ARC
  5
443
100
AcDbEntity
  8
0
100
AcDbCircle
 62
7
  6
CONTINUOUS
 10
461.5492131636
 20
222.1589772916
 40
3.0
100
AcDbArc
 50
170.0
 51
202.9196925375
  0
CIRCLE
  5
444
100
AcDbEntity
  8
BEZUGSACHSEN
100
AcDbCircle
 62
7
  6
CONTINUOUS
 10
414.7737843927
 20
187.1763964686
 40
3.0
  0
ARC
  5
445
100
AcDbEntity
  8
RUNDUNGEN
100
AcDbCircle
 62
7
  6
CONTINUOUS
 10
412.5976363319
 20
176.9455954746
 40
2.0
100
AcDbArc
 50
210.799451936
 51
250.0
  0
ARC
  5
446
100
AcDbEntity
  8
0
100
AcDbCircle
 62
7
  6
CONTINUOUS
 10
412.5976363319
 20
176.9455954746
 40
2.0
100
AcDbArc
 50
210.0
 51
250.0
  0
ARC
  5
447
100
AcDbEntity
  8
0
100
AcDbCircle
 62
7
  6
CONTINUOUS
 10
464.559160559
 20
206.9455954746
 40
2.0
100
AcDbArc
 50
350.0
 51
30.0
  0
ARC
  5
448
100
AcDbEntity
  8
0
100
AcDbCircle
 62
7
  6
CONTINUOUS
 10
462.694037973
 20
196.3679596611
 40
2.0
100
AcDbArc
 50
299.9999895411
 51
349.9999837288
  0
ARC
  5
449
100
AcDbEntity
  8
0
100
AcDbCircle
 62
7
  6
CONTINUOUS
 10
422.690696668
 20
173.2720219396
 40
2.0
100
AcDbArc
 50
250.000085884
 51
300.0000552051
  0
ARC
  5
44A
100
AcDbEntity
  8
0
100
AcDbCircle
 62
7
  6
CONTINUOUS
 10
296.7423686797
 20
437.6128053727
 40
127.0
100
AcDbArc
 50
180.0
 51
235.0308414042
  0
ARC
  5
44B
100
AcDbEntity
  8
0
100
AcDbCircle
 62
7
  6
CONTINUOUS
 10
296.7423686797
 20
437.6128053727
 40
127.0
100
AcDbArc
 50
244.9693856109
 51
295.0306143891
  0
ARC
  5
44C
100
AcDbEntity
  8
0
100
AcDbCircle
 62
7
  6
CONTINUOUS
 10
296.7423686797
 20
437.6128053727
 40
127.0
100
AcDbArc
 50
304.9691585958
 51
360.0
  0
ARC
  5
44D
100
AcDbEntity
  8
0
100
AcDbCircle
 62
7
  6
CONTINUOUS
 10
296.7423686797
 20
597.6128053727
 40
127.0
100
AcDbArc
 50
0.0
 51
180.0
  0
ARC
  5
44E
100
AcDbEntity
  8
0
100
AcDbCircle
 62
7
  6
CONTINUOUS
 10
296.7423686797
 20
597.6128053727
 40
95.0
100
AcDbArc
 50
0.0
 51
180.0
  0
ARC
  5
44F
100
AcDbEntity
  8
0
100
AcDbCircle
 62
7
  6
CONTINUOUS
 10
296.7423686797
 20
437.6128053727
 40
95.0
100
AcDbArc
 50
180.0
 51
233.3505425768
  0
ARC
  5
450
100
AcDbEntity
  8
0
100
AcDbCircle
 62
7
  6
CONTINUOUS
 10
296.7423686797
 20
437.6128053727
 40
95.0
100
AcDbArc
 50
246.6501787042
 51
293.3498212958
  0
ARC
  5
451
100
AcDbEntity
  8
0
100
AcDbCircle
 62
7
  6
CONTINUOUS
 10
296.7423686797
 20
437.6128053727
 40
95.0
100
AcDbArc
 50
306.6494574232
 51
360.0
  0
ARC
  5
452
100
AcDbEntity
  8
0
100
AcDbCircle
 62
7
  6
CONTINUOUS
 10
338.7423686797
 20
364.8666714548
 40
11.0
100
AcDbArc
 50
30.0
 51
210.0
  0
ARC
  5
453
100
AcDbEntity
  8
BEZUGSACHSEN
100
AcDbCircle
 62
7
  6
CONTINUOUS
 10
128.1215702026
 20
89.9056896859
 40
651.7366688422
100
AcDbArc
 50
15.9034503118
 51
16.0475466053
  0
ARC
  5
454
100
AcDbEntity
  8
BEZUGSACHSEN
100
AcDbCircle
 62
7
  6
CONTINUOUS
 10
593.1298193291
 20
221.4865346145
 40
168.5782535347
100
AcDbArc
 50
16.4288108731
 51
16.58567623
  0
ARC
  5
455
100
AcDbEntity
  8
KONSTRUKTIONSELEMENTE
100
AcDbCircle
 62
7
  6
CONTINUOUS
 10
664.4587247657
 20
206.9768351295
 40
6.5947824563
100
AcDbArc
 50
180.0290752758
 51
188.778086953
  0
ARC
  5
456
100
AcDbEntity
  8
KONSTRUKTIONSELEMENTE
100
AcDbCircle
 62
7
  6
CONTINUOUS
 10
633.6932239729
 20
186.1124647067
 40
6.5206902006
100
AcDbArc
 50
34.9896799422
 51
37.0084605449
  0
ARC
  5
457
100
AcDbEntity
  8
KONSTRUKTIONSELEMENTE
100
AcDbCircle
 62
7
  6
CONTINUOUS
 10
633.9453875243
 20
186.2905961682
 40
6.2119582829
100
AcDbArc
 50
34.4531420929
 51
34.9773455115
  0
ARC
  5
458
100
AcDbEntity
  8
KONSTRUKTIONSELEMENTE
100
AcDbCircle
 62
7
  6
CONTINUOUS
 10
561.3770933895
 20
131.8193332194
 40
6.1602839687
100
AcDbArc
 50
338.4764344789
 51
338.7941164993
  0
ARC
  5
459
100
AcDbEntity
  8
KONSTRUKTIONSELEMENTE
100
AcDbCircle
 62
7
  6
CONTINUOUS
 10
561.7323326399
 20
131.6831376687
 40
5.7798346584
100
AcDbArc
 50
338.7790094631
 51
340.5291890328
  0
ARC
  5
45A
100
AcDbEntity
  8
0
100
AcDbCircle
 62
7
  6
CONTINUOUS
 10
745.4448838065
 20
213.1523792479
 40
5.7660129006
100
AcDbArc
 50
165.2759050751
 51
166.2097265042
  0
ARC
  5
45B
100
AcDbEntity
  8
0
100
AcDbCircle
 62
7
  6
CONTINUOUS
 10
748.9174107671
 20
213.1523792483
 40
5.7660128987
100
AcDbArc
 50
13.7902734956
 51
14.724094925
  0
ARC
  5
45C
100
AcDbEntity
  8
0
100
AcDbCircle
 62
7
  6
CONTINUOUS
 10
748.9747710041
 20
213.1657010838
 40
5.7071306245
100
AcDbArc
 50
7.6817842817
 51
13.7976528942
  0
ARC
  5
45D
100
AcDbEntity
  8
0
100
AcDbCircle
 62
7
  6
CONTINUOUS
 10
745.3875235678
 20
213.1657010838
 40
5.7071306245
100
AcDbArc
 50
166.2023471058
 51
172.3182157183
  0
ARC
  5
45E
100
AcDbEntity
  8
0
100
AcDbCircle
 62
7
  6
CONTINUOUS
 10
733.6821705693
 20
180.6489925012
 40
4.5225497429
100
AcDbArc
 50
211.6553724229
 51
214.8057205919
  0
ARC
  5
45F
100
AcDbEntity
  8
KONSTRUKTIONSELEMENTE
100
AcDbCircle
 62
7
  6
CONTINUOUS
 10
665.6180068304
 20
207.9281370476
 40
3.6351988047
100
AcDbArc
 50
238.8071952043
 51
240.6860889462
  0
ARC
  5
460
100
AcDbEntity
  8
KONSTRUKTIONSELEMENTE
100
AcDbCircle
 62
7
  6
CONTINUOUS
 10
676.0212138716
 20
215.5026524349
 40
3.2769193772
100
AcDbArc
 50
125.8441677694
 51
130.856180551
  0
ARC
  5
461
100
AcDbEntity
  8
KONSTRUKTIONSELEMENTE
100
AcDbCircle
 62
7
  6
CONTINUOUS
 10
563.7121073503
 20
131.3728738331
 40
3.2371975797
100
AcDbArc
 50
347.2047625044
 51
350.8444577807
  0
ARC
  5
462
100
AcDbEntity
  8
KONSTRUKTIONSELEMENTE
100
AcDbCircle
 62
7
  6
CONTINUOUS
 10
567.2476412562
 20
128.3110116546
 40
3.2371975797
100
AcDbArc
 50
347.2047625044
 51
350.8444577807
  0
ARC
  5
463
100
AcDbEntity
  8
KONSTRUKTIONSELEMENTE
100
AcDbCircle
 62
7
  6
CONTINUOUS
 10
677.5993310974
 20
216.0662994165
 40
2.387091077
100
AcDbArc
 50
23.4715892294
 51
29.1872445596
  0
ARC
  5
464
100
AcDbEntity
  8
0
100
AcDbCircle
 62
7
  6
CONTINUOUS
 10
733.193984066
 20
176.9548337167
 40
2.0131486851
100
AcDbArc
 50
214.8647092426
 51
233.3684037738
  0
ARC
  5
465
100
AcDbEntity
  8
BEZUGSACHSEN
100
AcDbCircle
 62
7
  6
CONTINUOUS
 10
641.499326392
 20
250.3416338992
 40
114.5727156259
100
AcDbArc
 50
10.3828583317
 51
10.5712747641
  0
ARC
  5
466
100
AcDbEntity
  8
BEZUGSACHSEN
100
AcDbCircle
 62
7
  6
CONTINUOUS
 10
680.9787652833
 20
253.4298387454
 40
75.5717835406
100
AcDbArc
 50
12.038463946
 51
12.2823351255
  0
ARC
  5
467
100
AcDbEntity
  8
BEZUGSACHSEN
100
AcDbCircle
 62
7
  6
CONTINUOUS
 10
687.2211408485
 20
260.8934216187
 40
67.6635208454
100
AcDbArc
 50
8.8872931079
 51
9.0735777585
  0
ARC
  5
468
100
AcDbEntity
  8
BEZUGSACHSEN
100
AcDbCircle
 62
7
  6
CONTINUOUS
 10
695.3085991104
 20
251.0758568196
 40
62.2579311892
100
AcDbArc
 50
17.4513653927
 51
17.6499377023
  0
ARC
  5
469
100
AcDbEntity
  8
KONSTRUKTIONSELEMENTE
100
AcDbCircle
 62
7
  6
CONTINUOUS
 10
695.4042482367
 20
233.7699937803
 40
6.8544496741
100
AcDbArc
 50
180.0468621101
 51
190.0347873196
  0
ARC
  5
46A
100
AcDbEntity
  8
KONSTRUKTIONSELEMENTE
100
AcDbCircle
 62
7
  6
CONTINUOUS
 10
696.5824917106
 20
234.7755480853
 40
3.4480880966
100
AcDbArc
 50
240.3855846733
 51
242.1133696713
  0
ARC
  5
46B
100
AcDbEntity
  8
KONSTRUKTIONSELEMENTE
100
AcDbCircle
 62
7
  6
CONTINUOUS
 10
683.5951450579
 20
279.7976475329
 40
54.1889730932
100
AcDbArc
 50
310.925453933
 51
315.3262886148
  0
ARC
  5
46C
100
AcDbEntity
  8
KONSTRUKTIONSELEMENTE
100
AcDbCircle
 62
7
  6
CONTINUOUS
 10
684.3268618492
 20
278.9758154954
 40
47.0886993577
100
AcDbArc
 50
310.9119020465
 51
313.9221447071
  0
ARC
  5
46D
100
AcDbEntity
  8
0
100
AcDbCircle
 62
7
  6
CONTINUOUS
 10
725.8984039813
 20
251.0536008568
 40
18.4127752196
100
AcDbArc
 50
315.8410037999
 51
316.3114216167
  0
ARC
  5
46E
100
AcDbEntity
  8
0
100
AcDbCircle
 62
7
  6
CONTINUOUS
 10
728.2717461959
 20
248.7965853533
 40
15.1375946993
100
AcDbArc
 50
316.2837932271
 51
317.8057276678
  0
ARC
  5
46F
100
AcDbEntity
  8
0
100
AcDbCircle
 62
7
  6
CONTINUOUS
 10
730.2293691333
 20
247.0170772432
 40
12.492045077
100
AcDbArc
 50
317.8606016368
 51
319.0935635275
  0
ARC
  5
470
100
AcDbEntity
  8
KONSTRUKTIONSELEMENTE
100
AcDbCircle
 62
7
  6
CONTINUOUS
 10
703.8571550092
 20
239.1141214847
 40
2.2319350363
100
AcDbArc
 50
329.6480991189
 51
331.3181221811
  0
ARC
  5
471
100
AcDbEntity
  8
KONSTRUKTIONSELEMENTE
100
AcDbCircle
 62
7
  6
CONTINUOUS
 10
705.8852340054
 20
239.8296579349
 40
1.6636945382
100
AcDbArc
 50
266.6436425957
 51
268.9525417715
  0
ARC
  5
472
100
AcDbEntity
  8
BEZUGSACHSEN
100
AcDbCircle
 62
7
  6
CONTINUOUS
 10
706.1569503263
 20
255.3704281717
 40
50.7621456753
100
AcDbArc
 50
20.9752952194
 51
21.259900757
  0
ARC
  5
473
100
AcDbEntity
  8
BEZUGSACHSEN
100
AcDbCircle
 62
7
  6
CONTINUOUS
 10
726.5540156488
 20
259.2272531817
 40
29.9669183576
100
AcDbArc
 50
18.9813080406
 51
19.3663124526
  0
ARC
  5
474
100
AcDbEntity
  8
0
100
AcDbCircle
 62
7
  6
CONTINUOUS
 10
731.919206371
 20
245.5703929219
 40
10.2675162857
100
AcDbArc
 50
319.3267004771
 51
322.0992026384
  0
ARC
  5
475
100
AcDbEntity
  8
0
100
AcDbCircle
 62
7
  6
CONTINUOUS
 10
733.1234963484
 20
244.6270707415
 40
8.7377457414
100
AcDbArc
 50
322.7277272179
 51
323.402276491
  0
ARC
  5
476
100
AcDbEntity
  8
0
100
AcDbCircle
 62
7
  6
CONTINUOUS
 10
733.2913353379
 20
244.5021355898
 40
8.5285122351
100
AcDbArc
 50
323.4038798153
 51
323.7100529835
  0
ARC
  5
477
100
AcDbEntity
  8
0
100
AcDbCircle
 62
7
  6
CONTINUOUS
 10
733.5809524241
 20
244.2912307945
 40
8.1702430848
100
AcDbArc
 50
323.700093973
 51
325.5466234016
  0
ARC
  5
478
100
AcDbEntity
  8
0
100
AcDbCircle
 62
7
  6
CONTINUOUS
 10
733.8575433393
 20
244.0999437405
 40
7.8339520984
100
AcDbArc
 50
325.555805867
 51
326.3079509574
  0
ARC
  5
479
100
AcDbEntity
  8
0
100
AcDbCircle
 62
7
  6
CONTINUOUS
 10
733.9721428821
 20
244.0234778456
 40
7.6961838666
100
AcDbArc
 50
326.3083255519
 51
327.0032565186
  0
ARC
  5
47A
100
AcDbEntity
  8
0
100
AcDbCircle
 62
7
  6
CONTINUOUS
 10
739.1809733224
 20
231.2200068836
 40
4.9998260367
100
AcDbArc
 50
135.0842008593
 51
180.0004796438
  0
ARC
  5
47B
100
AcDbEntity
  8
KONSTRUKTIONSELEMENTE
100
AcDbCircle
 62
7
  6
CONTINUOUS
 10
755.1813212494
 20
231.2200068836
 40
4.9998260367
100
AcDbArc
 50
359.9995203562
 51
44.9157991407
  0
ARC
  5
47C
100
AcDbEntity
  8
BEZUGSACHSEN
100
AcDbCircle
 62
7
  6
CONTINUOUS
 10
736.2358882836
 20
265.887624312
 40
18.9430506295
100
AcDbArc
 50
9.5758784167
 51
10.0450478226
  0
ARC
  5
47D
100
AcDbEntity
  8
BEZUGSACHSEN
100
AcDbCircle
 62
7
  6
CONTINUOUS
 10
758.0780133205
 20
265.8960383404
 40
18.8939318869
100
AcDbArc
 50
169.9544798081
 51
170.5815729328
  0
ARC
  5
47E
100
AcDbEntity
  8
BEZUGSACHSEN
100
AcDbCircle
 62
7
  6
CONTINUOUS
 10
755.6911709833
 20
271.1728397365
 40
15.3042074884
100
AcDbArc
 50
167.4459121744
 51
167.9626137435
  0
ARC
  5
47F
100
AcDbEntity
  8
BEZUGSACHSEN
100
AcDbCircle
 62
7
  6
CONTINUOUS
 10
740.0288240319
 20
273.4916345686
 40
13.4100190123
100
AcDbArc
 50
357.763762855
 51
1.0510525728
  0
ARC
  5
480
100
AcDbEntity
  8
KONSTRUKTIONSELEMENTE
100
AcDbCircle
 62
7
  6
CONTINUOUS
 10
739.5701833432
 20
273.5775727621
 40
13.3228868013
100
AcDbArc
 50
357.3792136427
 51
0.6883019723
  0
ARC
  5
481
100
AcDbEntity
  8
BEZUGSACHSEN
100
AcDbCircle
 62
7
  6
CONTINUOUS
 10
740.4542878099
 20
272.8858652173
 40
13.1437035904
100
AcDbArc
 50
358.5574691503
 51
1.2123735565
  0
ARC
  5
482
100
AcDbEntity
  8
BEZUGSACHSEN
100
AcDbCircle
 62
7
  6
CONTINUOUS
 10
741.6953203072
 20
271.0687469176
 40
12.3801073878
100
AcDbArc
 50
358.468472044
 51
1.2871618599
  0
ARC
  5
483
100
AcDbEntity
  8
BEZUGSACHSEN
100
AcDbCircle
 62
7
  6
CONTINUOUS
 10
742.1932063072
 20
270.3419062386
 40
12.0731965852
100
AcDbArc
 50
358.429497878
 51
1.0155777296
  0
ARC
  5
484
100
AcDbEntity
  8
BEZUGSACHSEN
100
AcDbCircle
 62
7
  6
CONTINUOUS
 10
750.7061243125
 20
266.9162530758
 40
11.4973021241
100
AcDbArc
 50
163.6518917226
 51
164.2763436632
  0
ARC
  5
485
100
AcDbEntity
  8
BEZUGSACHSEN
100
AcDbCircle
 62
7
  6
CONTINUOUS
 10
750.5423646836
 20
267.79365987
 40
11.1149683803
100
AcDbArc
 50
176.3941685416
 51
177.5523508331
  0
ARC
  5
486
100
AcDbEntity
  8
BEZUGSACHSEN
100
AcDbCircle
 62
7
  6
CONTINUOUS
 10
743.8199298882
 20
267.79365987
 40
11.1149683803
100
AcDbArc
 50
2.4476491669
 51
3.6058314584
  0
ARC
  5
487
100
AcDbEntity
  8
BEZUGSACHSEN
100
AcDbCircle
 62
7
  6
CONTINUOUS
 10
750.486083486
 20
267.7996127417
 40
11.0586282261
100
AcDbArc
 50
181.7232984256
 51
182.7204368172
  0
ARC
  5
488
100
AcDbEntity
  8
BEZUGSACHSEN
100
AcDbCircle
 62
7
  6
CONTINUOUS
 10
743.8762110858
 20
267.7996127417
 40
11.0586282261
100
AcDbArc
 50
357.2795631828
 51
358.2767015744
  0
ARC
  5
489
100
AcDbEntity
  8
BEZUGSACHSEN
100
AcDbCircle
 62
7
  6
CONTINUOUS
 10
750.9787581951
 20
273.0891799403
 40
10.26816715
100
AcDbArc
 50
167.7650682891
 51
168.5441734455
  0
ARC
  5
48A
100
AcDbEntity
  8
BEZUGSACHSEN
100
AcDbCircle
 62
7
  6
CONTINUOUS
 10
746.1770512087
 20
267.3092248764
 40
7.0077194638
100
AcDbArc
 50
162.7715459291
 51
163.7842940229
  0
ARC
  5
48B
100
AcDbEntity
  8
0
100
AcDbCircle
 62
7
  6
CONTINUOUS
 10
744.9311472859
 20
264.3613070712
 40
6.0
100
AcDbArc
 50
166.0
 51
180.0
  0
ARC
  5
48C
100
AcDbEntity
  8
BEZUGSACHSEN
100
AcDbCircle
 62
7
  6
CONTINUOUS
 10
749.4311472859
 20
264.3613070712
 40
6.0
100
AcDbArc
 50
0.0
 51
14.0
  0
ARC
  5
48D
100
AcDbEntity
  8
BEZUGSACHSEN
100
AcDbCircle
 62
7
  6
CONTINUOUS
 10
751.1465983052
 20
267.9045789693
 40
4.0033516023
100
AcDbArc
 50
26.3700428843
 51
27.3975786336
  0
ARC
  5
48E
100
AcDbEntity
  8
BEZUGSACHSEN
100
AcDbCircle
 62
7
  6
CONTINUOUS
 10
750.2334363124
 20
274.8488134791
 40
3.1950343765
100
AcDbArc
 50
4.0182193839
 51
5.695380181
  0
ARC
  5
48F
100
AcDbEntity
  8
BEZUGSACHSEN
100
AcDbCircle
 62
7
  6
CONTINUOUS
 10
751.5492950532
 20
270.72527055
 40
3.1831329351
100
AcDbArc
 50
49.3128347374
 51
50.0076231198
  0
ARC
  5
490
100
AcDbEntity
  8
BEZUGSACHSEN
100
AcDbCircle
 62
7
  6
CONTINUOUS
 10
750.25473848
 20
274.8525853868
 40
3.1736732586
100
AcDbArc
 50
355.557770176
 51
357.243483589
  0
ARC
  5
491
100
AcDbEntity
  8
KONSTRUKTIONSELEMENTE
100
AcDbCircle
 62
7
  6
CONTINUOUS
 10
749.735833966
 20
274.884531179
 40
3.1572899712
100
AcDbArc
 50
3.416774226
 51
5.1125877548
  0
ARC
  5
492
100
AcDbEntity
  8
KONSTRUKTIONSELEMENTE
100
AcDbCircle
 62
7
  6
CONTINUOUS
 10
749.7358339719
 20
274.8881280332
 40
3.1572899652
100
AcDbArc
 50
354.8874122443
 51
356.5832265841
  0
ARC
  5
493
100
AcDbEntity
  8
BEZUGSACHSEN
100
AcDbCircle
 62
7
  6
CONTINUOUS
 10
752.0753439448
 20
269.6789524495
 40
2.6580363616
100
AcDbArc
 50
0.0815316109
 51
1.4208005516
  0
ARC
  5
494
100
AcDbEntity
  8
BEZUGSACHSEN
100
AcDbCircle
 62
7
  6
CONTINUOUS
 10
742.0242303757
 20
268.9219959011
 40
2.5862907513
100
AcDbArc
 50
178.5397652129
 51
179.9161948829
  0
ARC
  5
495
100
AcDbEntity
  8
BEZUGSACHSEN
100
AcDbCircle
 62
7
  6
CONTINUOUS
 10
752.3380641961
 20
268.9219959011
 40
2.5862907513
100
AcDbArc
 50
0.0838051171
 51
1.4602347871
  0
ARC
  5
496
100
AcDbEntity
  8
BEZUGSACHSEN
100
AcDbCircle
 62
7
  6
CONTINUOUS
 10
753.426435256
 20
267.9458581156
 40
1.789971974
100
AcDbArc
 50
33.1922678757
 51
35.0679988017
  0
ARC
  5
497
100
AcDbEntity
  8
KONSTRUKTIONSELEMENTE
100
AcDbCircle
 62
7
  6
CONTINUOUS
 10
751.6974624319
 20
274.6509825885
 40
1.5037997911
100
AcDbArc
 50
322.6003660142
 51
324.4538474768
  0
ARC
  5
498
100
AcDbEntity
  8
BEZUGSACHSEN
100
AcDbCircle
 62
7
  6
CONTINUOUS
 10
752.266229885
 20
274.6019621003
 40
1.4549312727
100
AcDbArc
 50
323.5530242066
 51
325.4453057562
  0
ARC
  5
499
100
AcDbEntity
  8
0
100
AcDbCircle
 62
7
  6
CONTINUOUS
 10
747.1811472859
 20
326.6128053727
 40
16.0
100
AcDbArc
 50
180.0
 51
360.0
  0
ARC
  5
49A
100
AcDbEntity
  8
BEZUGSACHSEN
100
AcDbCircle
 62
7
  6
CONTINUOUS
 10
958.4438412393
 20
211.9902574608
 40
226.3543410758
100
AcDbArc
 50
165.1149756183
 51
165.246768999
  0
ARC
  5
49B
100
AcDbEntity
  8
BEZUGSACHSEN
100
AcDbCircle
 62
7
  6
CONTINUOUS
 10
941.5539942942
 20
227.3308466392
 40
206.2510503058
100
AcDbArc
 50
166.6750987499
 51
166.8191179787
  0
ARC
  5
49C
100
AcDbEntity
  8
RUNDUNGEN
100
AcDbCircle
 62
7
  6
CONTINUOUS
 10
760.6801240026
 20
180.6489925012
 40
4.5225497428
100
AcDbArc
 50
325.194279408
 51
328.3446275771
  0
ARC
  5
49D
100
AcDbEntity
  8
RUNDUNGEN
100
AcDbCircle
 62
7
  6
CONTINUOUS
 10
760.7045781957
 20
180.6338822287
 40
4.4938038373
100
AcDbArc
 50
328.3449895818
 51
330.9098049252
  0
ARC
  5
49E
100
AcDbEntity
  8
RUNDUNGEN
100
AcDbCircle
 62
7
  6
CONTINUOUS
 10
761.1683105058
 20
176.9548337167
 40
2.0131486851
100
AcDbArc
 50
306.6315962262
 51
325.1352907574
  0
ARC
  5
49F
100
AcDbEntity
  8
BEZUGSACHSEN
100
AcDbCircle
 62
7
  6
CONTINUOUS
 10
828.7409099463
 20
246.5343932774
 40
92.1454586388
100
AcDbArc
 50
164.9878290197
 51
165.1085866973
  0
ARC
  5
4A0
100
AcDbEntity
  8
BEZUGSACHSEN
100
AcDbCircle
 62
7
  6
CONTINUOUS
 10
796.9554550394
 20
262.2485962616
 40
57.5013837647
100
AcDbArc
 50
167.056267262
 51
167.3244931783
  0
ARC
  5
4A1
100
AcDbEntity
  8
BEZUGSACHSEN
100
AcDbCircle
 62
7
  6
CONTINUOUS
 10
787.2098743051
 20
256.3805064226
 40
49.4660842038
100
AcDbArc
 50
164.4601919223
 51
164.7582145811
  0
ARC
  5
4A2
100
AcDbEntity
  8
RUNDUNGEN
100
AcDbCircle
 62
7
  6
CONTINUOUS
 10
768.4638905946
 20
251.0536008607
 40
18.4127752252
100
AcDbArc
 50
223.6885783834
 51
224.1589962001
  0
ARC
  5
4A3
100
AcDbEntity
  8
RUNDUNGEN
100
AcDbCircle
 62
7
  6
CONTINUOUS
 10
766.0883351209
 20
248.7945061197
 40
15.1345580902
100
AcDbArc
 50
222.1916468715
 51
223.7163080056
  0
ARC
  5
4A4
100
AcDbEntity
  8
RUNDUNGEN
100
AcDbCircle
 62
7
  6
CONTINUOUS
 10
764.1213517238
 20
247.0069035884
 40
12.4766359255
100
AcDbArc
 50
220.9059300497
 51
222.1174360762
  0
ARC
  5
4A5
100
AcDbEntity
  8
RUNDUNGEN
100
AcDbCircle
 62
7
  6
CONTINUOUS
 10
762.4417562158
 20
245.5693069888
 40
10.2657978867
100
AcDbArc
 50
217.8988806104
 51
220.6709705717
  0
ARC
  5
4A6
100
AcDbEntity
  8
RUNDUNGEN
100
AcDbCircle
 62
7
  6
CONTINUOUS
 10
761.23879823
 20
244.6270707464
 40
8.7377457496
100
AcDbArc
 50
216.5977235094
 51
217.2722727818
  0
ARC
  5
4A7
100
AcDbEntity
  8
RUNDUNGEN
100
AcDbCircle
 62
7
  6
CONTINUOUS
 10
761.0706101883
 20
244.5018773652
 40
8.5280780552
100
AcDbArc
 50
216.2877224519
 51
216.5961253785
  0
ARC
  5
4A8
100
AcDbEntity
  8
RUNDUNGEN
100
AcDbCircle
 62
7
  6
CONTINUOUS
 10
760.7805640897
 20
244.2906764811
 40
8.1692878052
100
AcDbArc
 50
214.449065288
 51
216.297691975
  0
ARC
  5
4A9
100
AcDbEntity
  8
RUNDUNGEN
100
AcDbCircle
 62
7
  6
CONTINUOUS
 10
760.5043555346
 20
244.0996773514
 40
7.8334750916
100
AcDbArc
 50
213.6919706679
 51
214.4398518011
  0
ARC
  5
4AA
100
AcDbEntity
  8
RUNDUNGEN
100
AcDbCircle
 62
7
  6
CONTINUOUS
 10
760.3901469872
 20
244.0234747645
 40
7.6961782446
100
AcDbArc
 50
212.9967433096
 51
213.6916109344
  0
ARC
  5
4AB
100
AcDbEntity
  8
0
100
AcDbCircle
 62
7
  6
CONTINUOUS
 10
747.1811472859
 20
708.6128053727
 40
16.0
100
AcDbArc
 50
0.0
 51
180.0
  0
SPLINE
  5
4AC
100
AcDbEntity
  8
KONSTRUKTIONSELEMENTE
100
AcDbSpline
 62
7
  6
CONTINUOUS
 70
0
 71
3
 72
9
 73
5
 74
0
 42
0.0000001
 43
0.0000001
 44
0.0000000001
 40
0.0
 40
0.0
 40
0.0
 40
0.0
 40
0.4859207637
 40
1.0
 40
1.0
 40
1.0
 40
1.0
 10
168.7056701723
 20
201.9680087974
 30
0.0
 10
168.6121121188
 20
202.8693430793
 30
0.0
 10
167.9941404737
 20
204.6894002025
 30
0.0
 10
166.7975387848
 20
206.1636320563
 30
0.0
 10
166.0938566202
 20
206.8147199114
 30
0.0
  0
SPLINE
  5
4AD
100
AcDbEntity
  8
KONSTRUKTIONSELEMENTE
100
AcDbSpline
 62
7
  6
CONTINUOUS
 70
0
 71
3
 72
9
 73
5
 74
0
 42
0.0000001
 43
0.0000001
 44
0.0000000001
 40
0.0
 40
0.0
 40
0.0
 40
0.0
 40
0.5141023376
 40
1.0
 40
1.0
 40
1.0
 40
1.0
 10
162.1915165858
 20
209.0682349018
 30
0.0
 10
161.2754700793
 20
209.352364187
 30
0.0
 10
159.3997614269
 20
209.6520750413
 30
0.0
 10
157.5138202148
 20
209.2770263429
 30
0.0
 10
156.6861744462
 20
208.9072832784
 30
0.0
  0
SPLINE
  5
4AE
100
AcDbEntity
  8
KONSTRUKTIONSELEMENTE
100
AcDbSpline
 62
7
  6
CONTINUOUS
 70
0
 71
3
 72
9
 73
5
 74
0
 42
0.0000001
 43
0.0000001
 44
0.0000000001
 40
0.0
 40
0.0
 40
0.0
 40
0.0
 40
0.4858085289
 40
1.0
 40
1.0
 40
1.0
 40
1.0
 10
148.1859906462
 20
194.5092183151
 30
0.0
 10
148.2363888836
 20
193.6001250498
 30
0.0
 10
148.7841695619
 20
191.7435005111
 30
0.0
 10
149.9447272591
 20
190.2264747889
 30
0.0
 10
150.634633426
 20
189.5536332062
 30
0.0
  0
SPLINE
  5
4AF
100
AcDbEntity
  8
KONSTRUKTIONSELEMENTE
100
AcDbSpline
 62
7
  6
CONTINUOUS
 70
0
 71
3
 72
10
 73
6
 74
0
 42
0.0000001
 43
0.0000001
 44
0.0000000001
 40
0.0
 40
0.0
 40
0.0
 40
0.0
 40
0.5129092974
 40
0.7594793488
 40
1.0
 40
1.0
 40
1.0
 40
1.0
 10
154.9715975885
 20
187.0499712095
 30
0.0
 10
155.9001307425
 20
186.7887780505
 30
0.0
 10
157.3524400674
 20
186.6042253041
 30
0.0
 10
159.2208101278
 20
186.8851974129
 30
0.0
 10
160.088467404
 20
187.2055786796
 30
0.0
 10
160.4919277287
 20
187.4100609756
 30
0.0
  0
SPLINE
  5
4B0
100
AcDbEntity
  8
KONSTRUKTIONSELEMENTE
100
AcDbSpline
 62
7
  6
CONTINUOUS
 70
0
 71
3
 72
10
 73
6
 74
0
 42
0.0000001
 43
0.0000001
 44
0.0000000001
 40
0.0
 40
0.0
 40
0.0
 40
0.0
 40
0.3192646009
 40
0.6086079864
 40
1.0
 40
1.0
 40
1.0
 40
1.0
 10
179.6962931267
 20
227.8830556883
 30
0.0
 10
179.7821630143
 20
228.0317866965
 30
0.0
 10
179.8195993429
 20
228.3806598927
 30
0.0
 10
179.699478211
 20
228.9042160186
 30
0.0
 10
179.5433431999
 20
229.2403579119
 30
0.0
 10
179.4377194243
 20
229.4224847682
 30
0.0
  0
SPLINE
  5
4B1
100
AcDbEntity
  8
KONSTRUKTIONSELEMENTE
100
AcDbSpline
 62
7
  6
CONTINUOUS
 70
0
 71
3
 72
10
 73
6
 74
0
 42
0.0000001
 43
0.0000001
 44
0.0000000001
 40
0.0
 40
0.0
 40
0.0
 40
0.0
 40
0.3914026107
 40
0.6807340322
 40
1.0
 40
1.0
 40
1.0
 40
1.0
 10
175.0964813338
 20
231.9288391599
 30
0.0
 10
174.8859503993
 20
231.9292433717
 30
0.0
 10
174.5168076832
 20
231.8963485937
 30
0.0
 10
174.0033484795
 20
231.7386525745
 30
0.0
 10
173.719980193
 20
231.5317780453
 30
0.0
 10
173.6341153002
 20
231.3830556883
 30
0.0
  0
SPLINE
  5
4B2
100
AcDbEntity
  8
KONSTRUKTIONSELEMENTE
100
AcDbSpline
 62
7
  6
CONTINUOUS
 70
0
 71
3
 72
11
 73
7
 74
0
 42
0.0000001
 43
0.0000001
 44
0.0000000001
 40
0.0
 40
0.0
 40
0.0
 40
0.0
 40
0.2388488055
 40
0.4826650946
 40
0.7357658276
 40
1.0
 40
1.0
 40
1.0
 40
1.0
 10
183.780737525
 20
225.989148992
 30
0.0
 10
184.0664209505
 20
226.5880849498
 30
0.0
 10
184.4058718721
 20
227.9252213648
 30
0.0
 10
184.1648278435
 20
229.9926056751
 30
0.0
 10
183.2818678745
 20
231.9445379528
 30
0.0
 10
182.3616762834
 20
233.0699524625
 30
0.0
 10
181.836124956
 20
233.5825044644
 30
0.0
  0
SPLINE
  5
4B3
100
AcDbEntity
  8
KONSTRUKTIONSELEMENTE
100
AcDbSpline
 62
7
  6
CONTINUOUS
 70
0
 71
3
 72
11
 73
7
 74
0
 42
0.0000001
 43
0.0000001
 44
0.0000000001
 40
0.0
 40
0.0
 40
0.0
 40
0.0
 40
0.2642365791
 40
0.5173197099
 40
0.7611154166
 40
1.0
 40
1.0
 40
1.0
 40
1.0
 10
177.4991607935
 20
236.0861664611
 30
0.0
 10
176.7925509379
 20
236.2849333652
 30
0.0
 10
175.3579979179
 20
236.5190134898
 30
0.0
 10
173.2264692399
 20
236.3075437339
 30
0.0
 10
171.3157154347
 20
235.4827766355
 30
0.0
 10
170.3276159608
 20
234.5202105195
 30
0.0
 10
169.9517283838
 20
233.9733252658
 30
0.0
  0
SPLINE
  5
4B4
100
AcDbEntity
  8
KONSTRUKTIONSELEMENTE
100
AcDbSpline
 62
7
  6
CONTINUOUS
 70
0
 71
3
 72
9
 73
5
 74
0
 42
0.0000001
 43
0.0000001
 44
0.0000000001
 40
0.0
 40
0.0
 40
0.0
 40
0.0
 40
0.4893425855
 40
1.0
 40
1.0
 40
1.0
 40
1.0
 10
164.0205682987
 20
219.9316174045
 30
0.0
 10
164.2301232448
 20
219.2540785023
 30
0.0
 10
164.8761456461
 20
217.9320317747
 30
0.0
 10
165.8336669631
 20
216.8240503363
 30
0.0
 10
166.3769017617
 20
216.3214177592
 30
0.0
  0
SPLINE
  5
4B5
100
AcDbEntity
  8
KONSTRUKTIONSELEMENTE
100
AcDbSpline
 62
7
  6
CONTINUOUS
 70
0
 71
3
 72
9
 73
5
 74
0
 42
0.0000001
 43
0.0000001
 44
0.0000000001
 40
0.0
 40
0.0
 40
0.0
 40
0.0
 40
0.5106765564
 40
1.0
 40
1.0
 40
1.0
 40
1.0
 10
170.2792417962
 20
214.0679027688
 30
0.0
 10
170.9861466715
 20
213.848642747
 30
0.0
 10
172.4243796537
 20
213.5730492699
 30
0.0
 10
173.8923430533
 20
213.6742399635
 30
0.0
 10
174.5839082948
 20
213.8313222716
 30
0.0
  0
SPLINE
  5
4B6
100
AcDbEntity
  8
KONSTRUKTIONSELEMENTE
100
AcDbSpline
 62
7
  6
CONTINUOUS
 70
0
 71
3
 72
9
 73
5
 74
0
 42
0.0000001
 43
0.0000001
 44
0.0000000001
 40
0.0
 40
0.0
 40
0.0
 40
0.0
 40
0.2404990325
 40
1.0
 40
1.0
 40
1.0
 40
1.0
 10
168.5310212946
 20
220.7628278374
 30
0.0
 10
168.5463947667
 20
220.7340328414
 30
0.0
 10
168.6121069775
 20
220.6152623704
 30
0.0
 10
168.6846757624
 20
220.500319214
 30
0.0
 10
168.7429450225
 20
220.4152840355
 30
0.0
  0
SPLINE
  5
4B7
100
AcDbEntity
  8
KONSTRUKTIONSELEMENTE
100
AcDbSpline
 62
7
  6
CONTINUOUS
 70
0
 71
3
 72
9
 73
5
 74
0
 42
0.0000001
 43
0.0000001
 44
0.0000000001
 40
0.0
 40
0.0
 40
0.0
 40
0.0
 40
0.2593015787
 40
1.0
 40
1.0
 40
1.0
 40
1.0
 10
172.6432432838
 20
218.163316541
 30
0.0
 10
172.678354262
 20
218.1605995617
 30
0.0
 10
172.8138861434
 20
218.1518796969
 30
0.0
 10
172.9499042694
 20
218.1501917326
 30
0.0
 10
173.0504435822
 20
218.1535329349
 30
0.0
  0
SPLINE
  5
4B8
100
AcDbEntity
  8
KONSTRUKTIONSELEMENTE
100
AcDbSpline
 62
7
  6
CONTINUOUS
 70
0
 71
3
 72
9
 73
5
 74
0
 42
0.0000001
 43
0.0000001
 44
0.0000000001
 40
0.0
 40
0.0
 40
0.0
 40
0.0
 40
0.231757029
 40
1.0
 40
1.0
 40
1.0
 40
1.0
 10
173.2611968575
 20
254.0021768921
 30
0.0
 10
173.3498471546
 20
253.566266754
 30
0.0
 10
173.8383967921
 20
251.7071298155
 30
0.0
 10
174.7179027682
 20
249.96275463
 30
0.0
 10
175.5275402887
 20
248.7303513021
 30
0.0
  0
SPLINE
  5
4B9
100
AcDbEntity
  8
KONSTRUKTIONSELEMENTE
100
AcDbSpline
 62
7
  6
CONTINUOUS
 70
0
 71
3
 72
9
 73
5
 74
0
 42
0.0000001
 43
0.0000001
 44
0.0000000001
 40
0.0
 40
0.0
 40
0.0
 40
0.0
 40
0.2686941333
 40
1.0
 40
1.0
 40
1.0
 40
1.0
 10
193.7740151113
 20
238.1963815447
 30
0.0
 10
194.2888663933
 20
238.1666966676
 30
0.0
 10
196.2071052036
 20
238.134111572
 30
0.0
 10
198.1425824572
 20
238.4245984374
 30
0.0
 10
199.473522956
 20
238.870345278
 30
0.0
  0
SPLINE
  5
4BA
100
AcDbEntity
  8
KONSTRUKTIONSELEMENTE
100
AcDbSpline
 62
7
  6
CONTINUOUS
 70
0
 71
3
 72
9
 73
5
 74
0
 42
0.0000001
 43
0.0000001
 44
0.0000000001
 40
0.0
 40
0.0
 40
0.0
 40
0.0
 40
0.4866272252
 40
1.0
 40
1.0
 40
1.0
 40
1.0
 10
169.0119826036
 20
248.0678482136
 30
0.0
 10
170.0179802308
 20
246.0001940009
 30
0.0
 10
172.7470842326
 20
242.0594816313
 30
0.0
 10
176.3516240601
 20
238.9305036061
 30
0.0
 10
178.3507825382
 20
237.5565513509
 30
0.0
  0
SPLINE
  5
4BB
100
AcDbEntity
  8
KONSTRUKTIONSELEMENTE
100
AcDbSpline
 62
7
  6
CONTINUOUS
 70
0
 71
3
 72
9
 73
5
 74
0
 42
0.0000001
 43
0.0000001
 44
0.0000000001
 40
0.0
 40
0.0
 40
0.0
 40
0.0
 40
0.5133870922
 40
1.0
 40
1.0
 40
1.0
 40
1.0
 10
182.6837501197
 20
235.0548416853
 30
0.0
 10
184.8743698505
 20
234.0098666981
 30
0.0
 10
189.3888645833
 20
232.452097347
 30
0.0
 10
194.1688009617
 20
232.0596823007
 30
0.0
 10
196.4635097896
 20
232.2230460597
 30
0.0
  0
SPLINE
  5
4BC
100
AcDbEntity
  8
BEZUGSACHSEN
100
AcDbSpline
 62
7
  6
CONTINUOUS
 70
0
 71
3
 72
9
 73
5
 74
0
 42
0.0000001
 43
0.0000001
 44
0.0000000001
 40
0.0
 40
0.0
 40
0.0
 40
0.0
 40
0.4734684586
 40
1.0
 40
1.0
 40
1.0
 40
1.0
 10
152.0911279048
 20
177.2742756708
 30
0.0
 10
151.6446144289
 20
177.0741829184
 30
0.0
 10
150.6137016492
 20
176.8410343475
 30
0.0
 10
149.5702236191
 20
176.9237747491
 30
0.0
 10
149.0366459891
 20
177.0304357264
 30
0.0
  0
SPLINE
  5
4BD
100
AcDbEntity
  8
BEZUGSACHSEN
100
AcDbSpline
 62
7
  6
CONTINUOUS
 70
0
 71
3
 72
9
 73
5
 74
0
 42
0.0000001
 43
0.0000001
 44
0.0000000001
 40
0.0
 40
0.0
 40
0.0
 40
0.0
 40
0.5265315414
 40
1.0
 40
1.0
 40
1.0
 40
1.0
 10
144.924278133
 20
179.4047124151
 30
0.0
 10
144.5651182021
 20
179.813473709
 30
0.0
 10
143.9717238973
 20
180.6757819905
 30
0.0
 10
143.6581800927
 20
181.6851529322
 30
0.0
 10
143.6082087615
 20
182.1718913217
 30
0.0
  0
SPLINE
  5
4BE
100
AcDbEntity
  8
KONSTRUKTIONSELEMENTE
100
AcDbSpline
 62
7
  6
CONTINUOUS
 70
0
 71
3
 72
12
 73
8
 74
0
 42
0.0000001
 43
0.0000001
 44
0.0000000001
 40
0.0
 40
0.0
 40
0.0
 40
0.0
 40
0.1037926843
 40
0.2125340317
 40
0.450198811
 40
0.7163761548
 40
1.0
 40
1.0
 40
1.0
 40
1.0
 10
107.3166300616
 20
121.4263512199
 30
0.0
 10
107.3944460519
 20
121.6390556955
 30
0.0
 10
107.4977719237
 20
122.0969339099
 30
0.0
 10
107.4829085487
 20
123.0867072211
 30
0.0
 10
107.0293438432
 20
124.3812762446
 30
0.0
 10
105.9653718643
 20
125.7572378925
 30
0.0
 10
104.9963746389
 20
126.4911789115
 30
0.0
 10
104.4603817154
 20
126.8006345702
 30
0.0
  0
SPLINE
  5
4BF
100
AcDbEntity
  8
KONSTRUKTIONSELEMENTE
100
AcDbSpline
 62
7
  6
CONTINUOUS
 70
0
 71
3
 72
9
 73
5
 74
0
 42
0.0000001
 43
0.0000001
 44
0.0000000001
 40
0.0
 40
0.0
 40
0.0
 40
0.0
 40
0.2444736488
 40
1.0
 40
1.0
 40
1.0
 40
1.0
 10
106.6405056149
 20
175.3077200191
 30
0.0
 10
106.6656205145
 20
175.3511926637
 30
0.0
 10
106.754835573
 20
175.5368185477
 30
0.0
 10
106.7830138182
 20
175.7491110531
 30
0.0
 10
106.7738033584
 20
175.9039946689
 30
0.0
  0
SPLINE
  5
4C0
100
AcDbEntity
  8
KONSTRUKTIONSELEMENTE
100
AcDbSpline
 62
7
  6
CONTINUOUS
 70
0
 71
3
 72
11
 73
7
 74
0
 42
0.0000001
 43
0.0000001
 44
0.0000000001
 40
0.0
 40
0.0
 40
0.0
 40
0.0
 40
0.2200436456
 40
0.4557793627
 40
0.7157728079
 40
1.0
 40
1.0
 40
1.0
 40
1.0
 10
98.7875409582
 20
180.1891731045
 30
0.0
 10
98.8531615043
 20
180.3027590121
 30
0.0
 10
99.0401387931
 20
180.5113953203
 30
0.0
 10
99.4297965398
 20
180.7043826935
 30
0.0
 10
99.8951980293
 20
180.7756471832
 30
0.0
 10
100.2213837619
 20
180.742715177
 30
0.0
 10
100.387273982
 20
180.7082066461
 30
0.0
  0
SPLINE
  5
4C1
100
AcDbEntity
  8
KONSTRUKTIONSELEMENTE
100
AcDbSpline
 62
7
  6
CONTINUOUS
 70
0
 71
3
 72
11
 73
7
 74
0
 42
0.0000001
 43
0.0000001
 44
0.0000000001
 40
0.0
 40
0.0
 40
0.0
 40
0.0
 40
0.2200599668
 40
0.4557760239
 40
0.7157731965
 40
1.0
 40
1.0
 40
1.0
 40
1.0
 10
98.4422260937
 20
196.870806872
 30
0.0
 10
98.6609517174
 20
197.249556137
 30
0.0
 10
99.2840091005
 20
197.9453896197
 30
0.0
 10
100.5830603702
 20
198.5889727212
 30
0.0
 10
102.1346206358
 20
198.8265951266
 30
0.0
 10
103.22210849
 20
198.716859799
 30
0.0
 10
103.7751699754
 20
198.6018117912
 30
0.0
  0
SPLINE
  5
4C2
100
AcDbEntity
  8
KONSTRUKTIONSELEMENTE
100
AcDbSpline
 62
7
  6
CONTINUOUS
 70
0
 71
3
 72
9
 73
5
 74
0
 42
0.0000001
 43
0.0000001
 44
0.0000000001
 40
0.0
 40
0.0
 40
0.0
 40
0.0
 40
0.4891681133
 40
1.0
 40
1.0
 40
1.0
 40
1.0
 10
96.6743824713
 20
193.8088113778
 30
0.0
 10
96.5066067066
 20
193.518254411
 30
0.0
 10
96.256224358
 20
192.8664109601
 30
0.0
 10
96.2098347027
 20
192.1720144123
 30
0.0
 10
96.230633798
 20
191.8222556411
 30
0.0
  0
SPLINE
  5
4C3
100
AcDbEntity
  8
KONSTRUKTIONSELEMENTE
100
AcDbSpline
 62
7
  6
CONTINUOUS
 70
0
 71
3
 72
9
 73
5
 74
0
 42
0.0000001
 43
0.0000001
 44
0.0000000001
 40
0.0
 40
0.0
 40
0.0
 40
0.0
 40
0.4891683995
 40
1.0
 40
1.0
 40
1.0
 40
1.0
 10
139.8400831143
 20
118.2625706006
 30
0.0
 10
140.0078229756
 20
118.5531771599
 30
0.0
 10
140.4471607674
 20
119.0959927718
 30
0.0
 10
141.0253711192
 20
119.4834007999
 30
0.0
 10
141.3386936318
 20
119.6402791484
 30
0.0
  0
SPLINE
  5
4C4
100
AcDbEntity
  8
KONSTRUKTIONSELEMENTE
100
AcDbSpline
 62
7
  6
CONTINUOUS
 70
0
 71
3
 72
9
 73
5
 74
0
 42
0.0000001
 43
0.0000001
 44
0.0000000001
 40
0.0
 40
0.0
 40
0.0
 40
0.0
 40
0.4694103614
 40
1.0
 40
1.0
 40
1.0
 40
1.0
 10
141.1569928812
 20
119.5415481213
 30
0.0
 10
141.1630575341
 20
118.8994798863
 30
0.0
 10
141.5093609665
 20
117.5313648661
 30
0.0
 10
142.2919319651
 20
116.3819317663
 30
0.0
 10
142.7752277741
 20
115.8404654409
 30
0.0
  0
SPLINE
  5
4C5
100
AcDbEntity
  8
KONSTRUKTIONSELEMENTE
100
AcDbSpline
 62
7
  6
CONTINUOUS
 70
0
 71
3
 72
11
 73
7
 74
0
 42
0.0000001
 43
0.0000001
 44
0.0000000001
 40
0.0
 40
0.0
 40
0.0
 40
0.0
 40
0.2094829334
 40
0.4446557434
 40
0.7120095299
 40
1.0
 40
1.0
 40
1.0
 40
1.0
 10
98.4388984254
 20
111.1711195749
 30
0.0
 10
98.3475337186
 20
111.0128712607
 30
0.0
 10
98.2540772523
 20
110.6136525967
 30
0.0
 10
98.4228750928
 20
109.9972612573
 30
0.0
 10
98.8313428093
 20
109.428214239
 30
0.0
 10
99.2206641049
 20
109.1275986166
 30
0.0
 10
99.4382188511
 20
109.0019933253
 30
0.0
  0
SPLINE
  5
4C6
100
AcDbEntity
  8
KONSTRUKTIONSELEMENTE
100
AcDbSpline
 62
7
  6
CONTINUOUS
 70
0
 71
3
 72
9
 73
5
 74
0
 42
0.0000001
 43
0.0000001
 44
0.0000000001
 40
0.0
 40
0.0
 40
0.0
 40
0.0
 40
0.4535493247
 40
1.0
 40
1.0
 40
1.0
 40
1.0
 10
148.2616373927
 20
109.2760119666
 30
0.0
 10
148.3061640802
 20
109.3531239998
 30
0.0
 10
148.3249254737
 20
109.569348122
 30
0.0
 10
148.2163673161
 20
109.7444187163
 30
0.0
 10
148.1449277085
 20
109.8244569477
 30
0.0
  0
SPLINE
  5
4C7
100
AcDbEntity
  8
BEZUGSACHSEN
100
AcDbSpline
 62
7
  6
CONTINUOUS
 70
0
 71
3
 72
9
 73
5
 74
0
 42
0.0000001
 43
0.0000001
 44
0.0000000001
 40
0.0
 40
0.0
 40
0.0
 40
0.0
 40
0.2459387646
 40
1.0
 40
1.0
 40
1.0
 40
1.0
 10
157.5959874818
 20
183.0804190729
 30
0.0
 10
157.3578060732
 20
183.3472685049
 30
0.0
 10
156.3597808571
 20
184.4056453352
 30
0.0
 10
155.2497451095
 20
185.3574907492
 30
0.0
 10
154.3668808403
 20
186.0080783836
 30
0.0
  0
SPLINE
  5
4C8
100
AcDbEntity
  8
BEZUGSACHSEN
100
AcDbSpline
 62
7
  6
CONTINUOUS
 70
0
 71
3
 72
9
 73
5
 74
0
 42
0.0000001
 43
0.0000001
 44
0.0000000001
 40
0.0
 40
0.0
 40
0.0
 40
0.0
 40
0.2536983179
 40
1.0
 40
1.0
 40
1.0
 40
1.0
 10
150.0340273146
 20
188.5096525329
 30
0.0
 10
149.6959566953
 20
188.6574453487
 30
0.0
 10
148.3491886983
 20
189.2067273809
 30
0.0
 10
146.9466764847
 20
189.6212627011
 30
0.0
 10
145.8840466572
 20
189.8423112607
 30
0.0
  0
SPLINE
  5
4C9
100
AcDbEntity
  8
BEZUGSACHSEN
100
AcDbSpline
 62
7
  6
CONTINUOUS
 70
0
 71
3
 72
11
 73
7
 74
0
 42
0.0000001
 43
0.0000001
 44
0.0000000001
 40
0.0
 40
0.0
 40
0.0
 40
0.0
 40
0.221185816
 40
0.4572071684
 40
0.716647289
 40
1.0
 40
1.0
 40
1.0
 40
1.0
 10
142.2035796828
 20
180.9437710899
 30
0.0
 10
142.3826759367
 20
181.253974901
 30
0.0
 10
142.8870854244
 20
181.8252072479
 30
0.0
 10
143.9365494852
 20
182.368289133
 30
0.0
 10
145.1936819719
 20
182.5907184155
 30
0.0
 10
146.0792222342
 20
182.5249737083
 30
0.0
 10
146.5309350418
 20
182.4442628655
 30
0.0
  0
SPLINE
  5
4CA
100
AcDbEntity
  8
BEZUGSACHSEN
100
AcDbSpline
 62
7
  6
CONTINUOUS
 70
0
 71
3
 72
11
 73
7
 74
0
 42
0.0000001
 43
0.0000001
 44
0.0000000001
 40
0.0
 40
0.0
 40
0.0
 40
0.0
 40
0.283352711
 40
0.5427928316
 40
0.778814184
 40
1.0
 40
1.0
 40
1.0
 40
1.0
 10
150.8656454409
 20
179.9416166497
 30
0.0
 10
151.1613994848
 20
179.5907773046
 30
0.0
 10
151.6611062026
 20
178.8567492949
 30
0.0
 10
152.0970430367
 20
177.6568259843
 30
0.0
 10
152.1514523583
 20
176.4764225047
 30
0.0
 10
151.9089553783
 20
175.753974901
 30
0.0
 10
151.7298591245
 20
175.4437710899
 30
0.0
  0
SPLINE
  5
4CB
100
AcDbEntity
  8
KONSTRUKTIONSELEMENTE
100
AcDbSpline
 62
7
  6
CONTINUOUS
 70
0
 71
3
 72
9
 73
5
 74
0
 42
0.0000001
 43
0.0000001
 44
0.0000000001
 40
0.0
 40
0.0
 40
0.0
 40
0.0
 40
0.5108269807
 40
1.0
 40
1.0
 40
1.0
 40
1.0
 10
194.0506682295
 20
129.9627971243
 30
0.0
 10
194.363975847
 20
130.119668015
 30
0.0
 10
194.9421658352
 20
130.5070632968
 30
0.0
 10
195.3814828698
 20
131.0498488054
 30
0.0
 10
195.5492544704
 20
131.340425786
 30
0.0
  0
SPLINE
  5
4CC
100
AcDbEntity
  8
KONSTRUKTIONSELEMENTE
100
AcDbSpline
 62
7
  6
CONTINUOUS
 70
0
 71
3
 72
9
 73
5
 74
0
 42
0.0000001
 43
0.0000001
 44
0.0000000001
 40
0.0
 40
0.0
 40
0.0
 40
0.0
 40
0.5322168521
 40
1.0
 40
1.0
 40
1.0
 40
1.0
 10
192.2990830219
 20
129.7553738949
 30
0.0
 10
192.4094556696
 20
129.6317165594
 30
0.0
 10
192.6849272138
 20
129.4572182136
 30
0.0
 10
193.0280466252
 20
129.4507777768
 30
0.0
 10
193.1583139851
 20
129.5160017153
 30
0.0
  0
SPLINE
  5
4CD
100
AcDbEntity
  8
KONSTRUKTIONSELEMENTE
100
AcDbSpline
 62
7
  6
CONTINUOUS
 70
0
 71
3
 72
9
 73
5
 74
0
 42
0.0000001
 43
0.0000001
 44
0.0000000001
 40
0.0
 40
0.0
 40
0.0
 40
0.0
 40
0.2605100871
 40
1.0
 40
1.0
 40
1.0
 40
1.0
 10
146.3440374745
 20
106.0764271807
 30
0.0
 10
146.359965585
 20
106.0844022721
 30
0.0
 10
146.4191035031
 20
106.1187811255
 30
0.0
 10
146.4685855223
 20
106.1703609616
 30
0.0
 10
146.4938704398
 20
106.2141497881
 30
0.0
  0
SPLINE
  5
4CE
100
AcDbEntity
  8
KONSTRUKTIONSELEMENTE
100
AcDbSpline
 62
7
  6
CONTINUOUS
 70
0
 71
3
 72
11
 73
7
 74
0
 42
0.0000001
 43
0.0000001
 44
0.0000000001
 40
0.0
 40
0.0
 40
0.0
 40
0.0
 40
0.2729767978
 40
0.5353848362
 40
0.7789285996
 40
1.0
 40
1.0
 40
1.0
 40
1.0
 10
139.5508190834
 20
106.5411611098
 30
0.0
 10
140.0785557211
 20
106.2364722199
 30
0.0
 10
141.175885177
 20
105.7395560128
 30
0.0
 10
142.8859086395
 20
105.3579143645
 30
0.0
 10
144.5244319069
 20
105.3736865005
 30
0.0
 10
145.538170696
 20
105.6729354293
 30
0.0
 10
145.9794545333
 20
105.8938831009
 30
0.0
  0
SPLINE
  5
4CF
100
AcDbEntity
  8
KONSTRUKTIONSELEMENTE
100
AcDbSpline
 62
7
  6
CONTINUOUS
 70
0
 71
3
 72
12
 73
8
 74
0
 42
0.0000001
 43
0.0000001
 44
0.0000000001
 40
0.0
 40
0.0
 40
0.0
 40
0.0
 40
0.2874299875
 40
0.5543031619
 40
0.7890514157
 40
0.8964066692
 40
1.0
 40
1.0
 40
1.0
 40
1.0
 10
123.7121264415
 20
115.6856345702
 30
0.0
 10
123.132021882
 20
116.0205580938
 30
0.0
 10
121.9182122429
 20
116.5179103442
 30
0.0
 10
120.0613521751
 20
116.7063504427
 30
0.0
 10
118.6435233573
 20
116.3260228082
 30
0.0
 10
117.7988147999
 20
115.7032360113
 30
0.0
 10
117.4910273008
 20
115.3103747795
 30
0.0
 10
117.3703167108
 20
115.1012979046
 30
0.0
  0
SPLINE
  5
4D0
100
AcDbEntity
  8
KONSTRUKTIONSELEMENTE
100
AcDbSpline
 62
7
  6
CONTINUOUS
 70
0
 71
3
 72
11
 73
7
 74
0
 42
0.0000001
 43
0.0000001
 44
0.0000000001
 40
0.0
 40
0.0
 40
0.0
 40
0.0
 40
0.220058334
 40
0.4557781708
 40
0.71578719
 40
1.0
 40
1.0
 40
1.0
 40
1.0
 10
197.3170214233
 20
134.4022879645
 30
0.0
 10
197.5357146002
 20
134.7810600738
 30
0.0
 10
197.8267699338
 20
135.6686049656
 30
0.0
 10
197.7346232937
 20
137.1154474329
 30
0.0
 10
197.164607741
 20
138.5779785489
 30
0.0
 10
196.5258205641
 20
139.4649080905
 30
0.0
 10
196.1496679931
 20
139.8863351888
 30
0.0
  0
SPLINE
  5
4D1
100
AcDbEntity
  8
KONSTRUKTIONSELEMENTE
100
AcDbSpline
 62
7
  6
CONTINUOUS
 70
0
 71
3
 72
11
 73
7
 74
0
 42
0.0000001
 43
0.0000001
 44
0.0000000001
 40
0.0
 40
0.0
 40
0.0
 40
0.0
 40
0.2879904701
 40
0.5553442566
 40
0.7905170666
 40
1.0
 40
1.0
 40
1.0
 40
1.0
 10
110.8091324028
 20
102.4369933253
 30
0.0
 10
111.026687149
 20
102.311388034
 30
0.0
 10
111.4816885626
 20
102.1245337131
 30
0.0
 10
112.1787315946
 20
102.055313803
 30
0.0
 10
112.7969410734
 20
102.2173262548
 30
0.0
 10
113.095946345
 20
102.4978712607
 30
0.0
 10
113.1873110518
 20
102.6561195749
 30
0.0
  0
SPLINE
  5
4D2
100
AcDbEntity
  8
KONSTRUKTIONSELEMENTE
100
AcDbSpline
 62
7
  6
CONTINUOUS
 70
0
 71
3
 72
11
 73
7
 74
0
 42
0.0000001
 43
0.0000001
 44
0.0000000001
 40
0.0
 40
0.0
 40
0.0
 40
0.0
 40
0.2820767698
 40
0.5407553301
 40
0.7772666753
 40
1.0
 40
1.0
 40
1.0
 40
1.0
 10
123.7071893042
 20
115.6554450673
 30
0.0
 10
123.3014720932
 20
115.7117872371
 30
0.0
 10
122.5090837595
 20
115.7414264136
 30
0.0
 10
121.3915309824
 20
115.5067561694
 30
0.0
 10
120.461927948
 20
114.9969202833
 30
0.0
 10
120.0135107529
 20
114.4794442798
 30
0.0
 10
119.8517924645
 20
114.1993399878
 30
0.0
  0
SPLINE
  5
4D3
100
AcDbEntity
  8
KONSTRUKTIONSELEMENTE
100
AcDbSpline
 62
7
  6
CONTINUOUS
 70
0
 71
3
 72
11
 73
7
 74
0
 42
0.0000001
 43
0.0000001
 44
0.0000000001
 40
0.0
 40
0.0
 40
0.0
 40
0.0
 40
0.2801003604
 40
0.53777009
 40
0.775057129
 40
1.0
 40
1.0
 40
1.0
 40
1.0
 10
104.6639167782
 20
126.5813233479
 30
0.0
 10
104.8786055509
 20
126.2717590855
 30
0.0
 10
105.2342244013
 20
125.6342747451
 30
0.0
 10
105.5168949864
 20
124.6190250936
 30
0.0
 10
105.5056521832
 20
123.6359811333
 30
0.0
 10
105.2898802117
 20
123.0373681106
 30
0.0
 10
105.1386103661
 20
122.7753610524
 30
0.0
  0
SPLINE
  5
4D4
100
AcDbEntity
  8
KONSTRUKTIONSELEMENTE
100
AcDbSpline
 62
7
  6
CONTINUOUS
 70
0
 71
3
 72
9
 73
5
 74
0
 42
0.0000001
 43
0.0000001
 44
0.0000000001
 40
0.0
 40
0.0
 40
0.0
 40
0.0
 40
0.2603055034
 40
1.0
 40
1.0
 40
1.0
 40
1.0
 10
97.3460956695
 20
177.3271204426
 30
0.0
 10
97.3429235499
 20
177.3804629857
 30
0.0
 10
97.3436104812
 20
177.5858263678
 30
0.0
 10
97.4034331807
 20
177.791911701
 30
0.0
 10
97.479393413
 20
177.9233950924
 30
0.0
  0
SPLINE
  5
4D5
100
AcDbEntity
  8
KONSTRUKTIONSELEMENTE
100
AcDbSpline
 62
7
  6
CONTINUOUS
 70
0
 71
3
 72
10
 73
6
 74
0
 42
0.0000001
 43
0.0000001
 44
0.0000000001
 40
0.0
 40
0.0
 40
0.0
 40
0.0
 40
0.4635439404
 40
0.7255367567
 40
1.0
 40
1.0
 40
1.0
 40
1.0
 10
99.7534437512
 20
132.5824828695
 30
0.0
 10
99.8069390755
 20
131.6829024508
 30
0.0
 10
100.3535961329
 20
130.2972618455
 30
0.0
 10
101.5782914072
 20
128.7854834579
 30
0.0
 10
102.3793391275
 20
128.1043069851
 30
0.0
 10
102.8147792966
 20
127.7959243583
 30
0.0
  0
SPLINE
  5
4D6
100
AcDbEntity
  8
KONSTRUKTIONSELEMENTE
100
AcDbSpline
 62
7
  6
CONTINUOUS
 70
0
 71
3
 72
12
 73
8
 74
0
 42
0.0000001
 43
0.0000001
 44
0.0000000001
 40
0.0
 40
0.0
 40
0.0
 40
0.0
 40
0.2199892542
 40
0.4691122488
 40
0.6015677759
 40
0.7360118573
 40
1.0
 40
1.0
 40
1.0
 40
1.0
 10
178.3370734547
 20
138.1651041838
 30
0.0
 10
178.9580594433
 20
138.4760274416
 30
0.0
 10
180.4528959849
 20
138.8055778975
 30
0.0
 10
182.3633794242
 20
138.5438124191
 30
0.0
 10
183.900406594
 20
137.9902659649
 30
0.0
 10
185.3859087555
 20
137.2068164351
 30
0.0
 10
186.3744424179
 20
136.3931169025
 30
0.0
 10
186.9293830875
 20
135.771382388
 30
0.0
  0
SPLINE
  5
4D7
100
AcDbEntity
  8
KONSTRUKTIONSELEMENTE
100
AcDbSpline
 62
7
  6
CONTINUOUS
 70
0
 71
3
 72
11
 73
7
 74
0
 42
0.0000001
 43
0.0000001
 44
0.0000000001
 40
0.0
 40
0.0
 40
0.0
 40
0.0
 40
0.220058334
 40
0.4557781708
 40
0.71578719
 40
1.0
 40
1.0
 40
1.0
 40
1.0
 10
195.5492544704
 20
131.340425786
 30
0.0
 10
195.7679476473
 20
131.7191978953
 30
0.0
 10
196.0590029809
 20
132.6067427872
 30
0.0
 10
195.9668563408
 20
134.0535852545
 30
0.0
 10
195.396840788
 20
135.5161163704
 30
0.0
 10
194.7580536111
 20
136.403045912
 30
0.0
 10
194.3819010401
 20
136.8244730103
 30
0.0
  0
SPLINE
  5
4D8
100
AcDbEntity
  8
KONSTRUKTIONSELEMENTE
100
AcDbSpline
 62
7
  6
CONTINUOUS
 70
0
 71
3
 72
9
 73
5
 74
0
 42
0.0000001
 43
0.0000001
 44
0.0000000001
 40
0.0
 40
0.0
 40
0.0
 40
0.0
 40
0.5328609796
 40
1.0
 40
1.0
 40
1.0
 40
1.0
 10
105.270582295
 20
175.1867285607
 30
0.0
 10
105.4961639467
 20
175.1398030012
 30
0.0
 10
105.9357387661
 20
175.1099837088
 30
0.0
 10
106.3629076212
 20
175.2471600187
 30
0.0
 10
106.5327649388
 20
175.3564732873
 30
0.0
  0
SPLINE
  5
4D9
100
AcDbEntity
  8
KONSTRUKTIONSELEMENTE
100
AcDbSpline
 62
7
  6
CONTINUOUS
 70
0
 71
3
 72
8
 73
4
 74
0
 42
0.0000001
 43
0.0000001
 44
0.0000000001
 40
0.0
 40
0.0
 40
0.0
 40
0.0
 40
1.0
 40
1.0
 40
1.0
 40
1.0
 10
106.5327649388
 20
175.3564732873
 30
0.0
 10
106.5955448845
 20
175.3968759097
 30
0.0
 10
106.6547463105
 20
175.4436597354
 30
0.0
 10
106.7078940492
 20
175.4960907507
 30
0.0
  0
SPLINE
  5
4DA
100
AcDbEntity
  8
KONSTRUKTIONSELEMENTE
100
AcDbSpline
 62
7
  6
CONTINUOUS
 70
0
 71
3
 72
11
 73
7
 74
0
 42
0.0000001
 43
0.0000001
 44
0.0000000001
 40
0.0
 40
0.0
 40
0.0
 40
0.0
 40
0.2816064552
 40
0.5417085427
 40
0.7793419382
 40
1.0
 40
1.0
 40
1.0
 40
1.0
 10
105.1521003996
 20
177.1791268592
 30
0.0
 10
105.3040246851
 20
177.147523526
 30
0.0
 10
105.6033232992
 20
177.1147270199
 30
0.0
 10
106.0340413633
 20
177.1658876387
 30
0.0
 10
106.4055464506
 20
177.3182307765
 30
0.0
 10
106.6000629777
 20
177.4887281286
 30
0.0
 10
106.6750206879
 20
177.5844665104
 30
0.0
  0
SPLINE
  5
4DB
100
AcDbEntity
  8
BEZUGSACHSEN
100
AcDbSpline
 62
7
  6
CONTINUOUS
 70
0
 71
3
 72
9
 73
5
 74
0
 42
0.0000001
 43
0.0000001
 44
0.0000000001
 40
0.0
 40
0.0
 40
0.0
 40
0.0
 40
0.2459387646
 40
1.0
 40
1.0
 40
1.0
 40
1.0
 10
155.8282205289
 20
180.0185568944
 30
0.0
 10
155.5900391202
 20
180.2854063264
 30
0.0
 10
154.5920139041
 20
181.3437831567
 30
0.0
 10
153.4819781565
 20
182.2956285707
 30
0.0
 10
152.5991138873
 20
182.9462162051
 30
0.0
  0
SPLINE
  5
4DC
100
AcDbEntity
  8
BEZUGSACHSEN
100
AcDbSpline
 62
7
  6
CONTINUOUS
 70
0
 71
3
 72
9
 73
5
 74
0
 42
0.0000001
 43
0.0000001
 44
0.0000000001
 40
0.0
 40
0.0
 40
0.0
 40
0.0
 40
0.2536983179
 40
1.0
 40
1.0
 40
1.0
 40
1.0
 10
148.2662603616
 20
185.4477903545
 30
0.0
 10
147.9281897424
 20
185.5955831703
 30
0.0
 10
146.5814217454
 20
186.1448652025
 30
0.0
 10
145.1789095317
 20
186.5594005226
 30
0.0
 10
144.1162797042
 20
186.7804490822
 30
0.0
  0
SPLINE
  5
4DD
100
AcDbEntity
  8
KONSTRUKTIONSELEMENTE
100
AcDbSpline
 62
7
  6
CONTINUOUS
 70
0
 71
3
 72
9
 73
5
 74
0
 42
0.0000001
 43
0.0000001
 44
0.0000000001
 40
0.0
 40
0.0
 40
0.0
 40
0.0
 40
0.4535493247
 40
1.0
 40
1.0
 40
1.0
 40
1.0
 10
146.4938704398
 20
106.2141497881
 30
0.0
 10
146.5383971273
 20
106.2912618214
 30
0.0
 10
146.5571585207
 20
106.5074859436
 30
0.0
 10
146.4486003631
 20
106.6825565378
 30
0.0
 10
146.3771607555
 20
106.7625947693
 30
0.0
  0
SPLINE
  5
4DE
100
AcDbEntity
  8
BEZUGSACHSEN
100
AcDbSpline
 62
7
  6
CONTINUOUS
 70
0
 71
3
 72
19
 73
15
 74
0
 42
0.0000001
 43
0.0000001
 44
0.0000000001
 40
0.0
 40
0.0
 40
0.0
 40
0.0
 40
0.0517234907
 40
0.1053372095
 40
0.1622487312
 40
0.2232163938
 40
0.3564752704
 40
0.5
 40
0.6435247296
 40
0.7767836062
 40
0.8377512688
 40
0.8946627905
 40
0.9482765093
 40
1.0
 40
1.0
 40
1.0
 40
1.0
 10
151.7298591245
 20
175.4437710899
 30
0.0
 10
151.6021960324
 20
175.2226521282
 30
0.0
 10
151.2766682792
 20
174.8071226829
 30
0.0
 10
150.6251044473
 20
174.3269526193
 30
0.0
 10
149.8359114016
 20
174.0005743522
 30
0.0
 10
148.6089748646
 20
173.7765916714
 30
0.0
 10
146.9164915565
 20
173.9450855746
 30
0.0
 10
144.9743390065
 20
174.7428670141
 30
0.0
 10
143.3123637383
 20
176.0259297406
 30
0.0
 10
142.3202020837
 20
177.4074163294
 30
0.0
 10
141.9007085067
 20
178.5819658796
 30
0.0
 10
141.7887638545
 20
179.4286162392
 30
0.0
 10
141.8788214117
 20
180.2329721016
 30
0.0
 10
142.0759165908
 20
180.7226521282
 30
0.0
 10
142.2035796828
 20
180.9437710899
 30
0.0
  0
SPLINE
  5
4DF
100
AcDbEntity
  8
KONSTRUKTIONSELEMENTE
100
AcDbSpline
 62
7
  6
CONTINUOUS
 70
0
 71
3
 72
11
 73
7
 74
0
 42
0.0000001
 43
0.0000001
 44
0.0000000001
 40
0.0
 40
0.0
 40
0.0
 40
0.0
 40
0.2200436456
 40
0.4557793627
 40
0.7157728079
 40
1.0
 40
1.0
 40
1.0
 40
1.0
 10
97.479393413
 20
177.9233950924
 30
0.0
 10
97.5450139591
 20
178.0369810001
 30
0.0
 10
97.7319912479
 20
178.2456173083
 30
0.0
 10
98.1216489946
 20
178.4386046815
 30
0.0
 10
98.5870504841
 20
178.5098691712
 30
0.0
 10
98.9132362167
 20
178.4769371649
 30
0.0
 10
99.0791264368
 20
178.4424286341
 30
0.0
  0
SPLINE
  5
4E0
100
AcDbEntity
  8
KONSTRUKTIONSELEMENTE
100
AcDbSpline
 62
7
  6
CONTINUOUS
 70
0
 71
3
 72
11
 73
7
 74
0
 42
0.0000001
 43
0.0000001
 44
0.0000000001
 40
0.0
 40
0.0
 40
0.0
 40
0.0
 40
0.2842240174
 40
0.5442187073
 40
0.779940343
 40
1.0
 40
1.0
 40
1.0
 40
1.0
 10
102.0074030225
 20
195.5399496127
 30
0.0
 10
101.4543329096
 20
195.6549994152
 30
0.0
 10
100.3668274593
 20
195.7647334948
 30
0.0
 10
98.8152274535
 20
195.5270979549
 30
0.0
 10
97.5161481607
 20
194.8834666569
 30
0.0
 10
96.893094485
 20
194.1875806204
 30
0.0
 10
96.6743824713
 20
193.8088113778
 30
0.0
  0
SPLINE
  5
4E1
100
AcDbEntity
  8
KONSTRUKTIONSELEMENTE
100
AcDbSpline
 62
7
  6
CONTINUOUS
 70
0
 71
3
 72
11
 73
7
 74
0
 42
0.0000001
 43
0.0000001
 44
0.0000000001
 40
0.0
 40
0.0
 40
0.0
 40
0.0
 40
0.2842271921
 40
0.5442206373
 40
0.7799563544
 40
1.0
 40
1.0
 40
1.0
 40
1.0
 10
105.0407725911
 20
174.7886864774
 30
0.0
 10
105.2066628112
 20
174.7541779466
 30
0.0
 10
105.5328485438
 20
174.7212459403
 30
0.0
 10
105.9982500333
 20
174.7925104301
 30
0.0
 10
106.38790778
 20
174.9854978032
 30
0.0
 10
106.5748850689
 20
175.1941341114
 30
0.0
 10
106.6405056149
 20
175.3077200191
 30
0.0
  0
SPLINE
  5
4E2
100
AcDbEntity
  8
KONSTRUKTIONSELEMENTE
100
AcDbSpline
 62
7
  6
CONTINUOUS
 70
0
 71
3
 72
11
 73
7
 74
0
 42
0.0000001
 43
0.0000001
 44
0.0000000001
 40
0.0
 40
0.0
 40
0.0
 40
0.0
 40
0.2842268035
 40
0.5442239761
 40
0.7799400332
 40
1.0
 40
1.0
 40
1.0
 40
1.0
 10
141.0074608212
 20
112.7786032624
 30
0.0
 10
140.631295581
 20
113.2000445547
 30
0.0
 10
139.9925180725
 20
114.086968999
 30
0.0
 10
139.4225249793
 20
115.5494708073
 30
0.0
 10
139.3303586598
 20
116.9962737584
 30
0.0
 10
139.621439441
 20
117.8837740215
 30
0.0
 10
139.8400831143
 20
118.2625706006
 30
0.0
  0
SPLINE
  5
4E3
100
AcDbEntity
  8
KONSTRUKTIONSELEMENTE
100
AcDbSpline
 62
7
  6
CONTINUOUS
 70
0
 71
3
 72
9
 73
5
 74
0
 42
0.0000001
 43
0.0000001
 44
0.0000000001
 40
0.0
 40
0.0
 40
0.0
 40
0.0
 40
0.4954651683
 40
1.0
 40
1.0
 40
1.0
 40
1.0
 10
138.5313068833
 20
199.6542699499
 30
0.0
 10
138.7723353319
 20
200.1368255661
 30
0.0
 10
139.1180617638
 20
201.1845802926
 30
0.0
 10
139.2177490855
 20
202.2750136379
 30
0.0
 10
139.228369377
 20
202.8241870103
 30
0.0
  0
SPLINE
  5
4E4
100
AcDbEntity
  8
KONSTRUKTIONSELEMENTE
100
AcDbSpline
 62
7
  6
CONTINUOUS
 70
0
 71
3
 72
9
 73
5
 74
0
 42
0.0000001
 43
0.0000001
 44
0.0000000001
 40
0.0
 40
0.0
 40
0.0
 40
0.0
 40
0.5045348317
 40
1.0
 40
1.0
 40
1.0
 40
1.0
 10
172.1664603098
 20
183.8073713436
 30
0.0
 10
171.696172364
 20
183.5235872152
 30
0.0
 10
170.8016730466
 20
182.8920387896
 30
0.0
 10
170.0671540525
 20
182.0687535535
 30
0.0
 10
169.7697628544
 20
181.6187389858
 30
0.0
  0
LINE
  5
4E5
100
AcDbEntity
  8
0
100
AcDbLine
 62
7
  6
CONTINUOUS
 10
134.6406615814
 20
191.8358163964
 11
138.5313068833
 21
199.6542699499
  0
SPLINE
  5
4E6
100
AcDbEntity
  8
KONSTRUKTIONSELEMENTE
100
AcDbSpline
 62
7
  6
CONTINUOUS
 70
0
 71
3
 72
11
 73
7
 74
0
 42
0.0000001
 43
0.0000001
 44
0.0000000001
 40
0.0
 40
0.0
 40
0.0
 40
0.0
 40
0.2552525678
 40
0.5065021805
 40
0.7540277206
 40
1.0
 40
1.0
 40
1.0
 40
1.0
 10
146.3711139264
 20
214.3008058603
 30
0.0
 10
146.6366631221
 20
214.7607505591
 30
0.0
 10
147.3342156677
 20
215.5842413682
 30
0.0
 10
148.6948857679
 20
216.4060882086
 30
0.0
 10
150.1902168912
 20
216.8559948055
 30
0.0
 10
151.2163783433
 20
216.9637398285
 30
0.0
 10
151.7278559868
 20
216.9815920817
 30
0.0
  0
SPLINE
  5
4E7
100
AcDbEntity
  8
KONSTRUKTIONSELEMENTE
100
AcDbSpline
 62
7
  6
CONTINUOUS
 70
0
 71
3
 72
11
 73
7
 74
0
 42
0.0000001
 43
0.0000001
 44
0.0000000001
 40
0.0
 40
0.0
 40
0.0
 40
0.0
 40
0.2459741347
 40
0.4935016246
 40
0.7447505661
 40
1.0
 40
1.0
 40
1.0
 40
1.0
 10
178.1773894484
 20
201.7109468177
 30
0.0
 10
178.4176695784
 20
201.2590646486
 30
0.0
 10
178.83744328
 20
200.3165027551
 30
0.0
 10
179.1954761071
 20
198.7965470668
 30
0.0
 10
179.1640639456
 20
197.2072528247
 30
0.0
 10
178.7996774449
 20
196.1914180544
 30
0.0
 10
178.5341315087
 20
195.7314790012
 30
0.0
  0
LINE
  5
4E8
100
AcDbEntity
  8
0
100
AcDbLine
 62
7
  6
CONTINUOUS
 10
169.7697628544
 20
181.6187389858
 11
164.9441061098
 21
174.3401145406
  0
SPLINE
  5
4E9
100
AcDbEntity
  8
KONSTRUKTIONSELEMENTE
100
AcDbSpline
 62
7
  6
CONTINUOUS
 70
0
 71
3
 72
9
 73
5
 74
0
 42
0.0000001
 43
0.0000001
 44
0.0000000001
 40
0.0
 40
0.0
 40
0.0
 40
0.0
 40
0.4826289049
 40
1.0
 40
1.0
 40
1.0
 40
1.0
 10
139.228369377
 20
202.8241870103
 30
0.0
 10
139.2365955799
 20
203.2495624922
 30
0.0
 10
139.4605736179
 20
204.1380603916
 30
0.0
 10
140.0452506101
 20
204.8356485564
 30
0.0
 10
140.3949992074
 20
205.1283707417
 30
0.0
  0
SPLINE
  5
4EA
100
AcDbEntity
  8
KONSTRUKTIONSELEMENTE
100
AcDbSpline
 62
7
  6
CONTINUOUS
 70
0
 71
3
 72
9
 73
5
 74
0
 42
0.0000001
 43
0.0000001
 44
0.0000000001
 40
0.0
 40
0.0
 40
0.0
 40
0.0
 40
0.5173710951
 40
1.0
 40
1.0
 40
1.0
 40
1.0
 10
173.578627041
 20
185.9697942793
 30
0.0
 10
173.4999964909
 20
185.5205420165
 30
0.0
 10
173.1882059149
 20
184.6654028058
 30
0.0
 10
172.5307331818
 20
184.0271831853
 30
0.0
 10
172.1664603098
 20
183.8073713436
 30
0.0
  0
SPLINE
  5
4EB
100
AcDbEntity
  8
KONSTRUKTIONSELEMENTE
100
AcDbSpline
 62
7
  6
CONTINUOUS
 70
0
 71
3
 72
9
 73
5
 74
0
 42
0.0000001
 43
0.0000001
 44
0.0000000001
 40
0.0
 40
0.0
 40
0.0
 40
0.0
 40
0.5000928141
 40
1.0
 40
1.0
 40
1.0
 40
1.0
 10
140.3949992074
 20
205.1283707417
 30
0.0
 10
140.8051924628
 20
205.4716821004
 30
0.0
 10
141.5794328584
 20
206.216789818
 30
0.0
 10
142.2086951743
 20
207.0912850992
 30
0.0
 10
142.4760473886
 20
207.5543527179
 30
0.0
  0
SPLINE
  5
4EC
100
AcDbEntity
  8
KONSTRUKTIONSELEMENTE
100
AcDbSpline
 62
7
  6
CONTINUOUS
 70
0
 71
3
 72
9
 73
5
 74
0
 42
0.0000001
 43
0.0000001
 44
0.0000000001
 40
0.0
 40
0.0
 40
0.0
 40
0.0
 40
0.4999071859
 40
1.0
 40
1.0
 40
1.0
 40
1.0
 10
174.6390649709
 20
188.9850258588
 30
0.0
 10
174.3717127566
 20
188.5219582401
 30
0.0
 10
173.9290087855
 20
187.5397534483
 30
0.0
 10
173.6708467713
 20
186.4966877383
 30
0.0
 10
173.578627041
 20
185.9697942793
 30
0.0
  0
LINE
  5
4ED
100
AcDbEntity
  8
0
100
AcDbLine
 62
7
  6
CONTINUOUS
 10
428.5406312497
 20
174.3401145406
 11
423.7149745051
 21
181.6187389858
  0
LINE
  5
4EE
100
AcDbEntity
  8
0
100
AcDbLine
 62
7
  6
CONTINUOUS
 10
454.9534304762
 20
199.6542699499
 11
458.8440757781
 21
191.8358163964
  0
SPLINE
  5
4EF
100
AcDbEntity
  8
0
100
AcDbSpline
 62
7
  6
CONTINUOUS
 70
0
 71
3
 72
9
 73
5
 74
0
 42
0.0000001
 43
0.0000001
 44
0.0000000001
 40
0.0
 40
0.0
 40
0.0
 40
0.0
 40
0.5173710951
 40
1.0
 40
1.0
 40
1.0
 40
1.0
 10
419.9061103185
 20
185.9697942793
 30
0.0
 10
419.9847408686
 20
185.5205420165
 30
0.0
 10
420.2965314446
 20
184.6654028058
 30
0.0
 10
420.9540041777
 20
184.0271831853
 30
0.0
 10
421.3182770497
 20
183.8073713436
 30
0.0
  0
SPLINE
  5
4F0
100
AcDbEntity
  8
0
100
AcDbSpline
 62
7
  6
CONTINUOUS
 70
0
 71
3
 72
9
 73
5
 74
0
 42
0.0000001
 43
0.0000001
 44
0.0000000001
 40
0.0
 40
0.0
 40
0.0
 40
0.0
 40
0.4826289049
 40
1.0
 40
1.0
 40
1.0
 40
1.0
 10
454.2563679825
 20
202.8241870103
 30
0.0
 10
454.2481417796
 20
203.2495624922
 30
0.0
 10
454.0241637415
 20
204.1380603916
 30
0.0
 10
453.4394867494
 20
204.8356485564
 30
0.0
 10
453.0897381521
 20
205.1283707417
 30
0.0
  0
SPLINE
  5
4F1
100
AcDbEntity
  8
0
100
AcDbSpline
 62
7
  6
CONTINUOUS
 70
0
 71
3
 72
11
 73
7
 74
0
 42
0.0000001
 43
0.0000001
 44
0.0000000001
 40
0.0
 40
0.0
 40
0.0
 40
0.0
 40
0.2459741347
 40
0.4935016246
 40
0.7447505661
 40
1.0
 40
1.0
 40
1.0
 40
1.0
 10
415.3073479111
 20
201.7109468177
 30
0.0
 10
415.0670677811
 20
201.2590646486
 30
0.0
 10
414.6472940795
 20
200.3165027551
 30
0.0
 10
414.2892612524
 20
198.7965470668
 30
0.0
 10
414.3206734139
 20
197.2072528247
 30
0.0
 10
414.6850599146
 20
196.1914180544
 30
0.0
 10
414.9506058507
 20
195.7314790012
 30
0.0
  0
SPLINE
  5
4F2
100
AcDbEntity
  8
0
100
AcDbSpline
 62
7
  6
CONTINUOUS
 70
0
 71
3
 72
11
 73
7
 74
0
 42
0.0000001
 43
0.0000001
 44
0.0000000001
 40
0.0
 40
0.0
 40
0.0
 40
0.0
 40
0.2552525678
 40
0.5065021805
 40
0.7540277206
 40
1.0
 40
1.0
 40
1.0
 40
1.0
 10
447.1136234331
 20
214.3008058603
 30
0.0
 10
446.8480742374
 20
214.7607505591
 30
0.0
 10
446.1505216918
 20
215.5842413682
 30
0.0
 10
444.7898515916
 20
216.4060882086
 30
0.0
 10
443.2945204683
 20
216.8559948055
 30
0.0
 10
442.2683590162
 20
216.9637398285
 30
0.0
 10
441.7568813727
 20
216.9815920817
 30
0.0
  0
SPLINE
  5
4F3
100
AcDbEntity
  8
0
100
AcDbSpline
 62
7
  6
CONTINUOUS
 70
0
 71
3
 72
9
 73
5
 74
0
 42
0.0000001
 43
0.0000001
 44
0.0000000001
 40
0.0
 40
0.0
 40
0.0
 40
0.0
 40
0.4954651683
 40
1.0
 40
1.0
 40
1.0
 40
1.0
 10
454.9534304762
 20
199.6542699499
 30
0.0
 10
454.7124020276
 20
200.1368255661
 30
0.0
 10
454.3666755956
 20
201.1845802926
 30
0.0
 10
454.266988274
 20
202.2750136379
 30
0.0
 10
454.2563679825
 20
202.8241870103
 30
0.0
  0
SPLINE
  5
4F4
100
AcDbEntity
  8
0
100
AcDbSpline
 62
7
  6
CONTINUOUS
 70
0
 71
3
 72
9
 73
5
 74
0
 42
0.0000001
 43
0.0000001
 44
0.0000000001
 40
0.0
 40
0.0
 40
0.0
 40
0.0
 40
0.5045348317
 40
1.0
 40
1.0
 40
1.0
 40
1.0
 10
421.3182770497
 20
183.8073713436
 30
0.0
 10
421.7885649955
 20
183.5235872152
 30
0.0
 10
422.6830643129
 20
182.8920387896
 30
0.0
 10
423.417583307
 20
182.0687535535
 30
0.0
 10
423.7149745051
 20
181.6187389858
 30
0.0
  0
SPLINE
  5
4F5
100
AcDbEntity
  8
0
100
AcDbSpline
 62
7
  6
CONTINUOUS
 70
0
 71
3
 72
9
 73
5
 74
0
 42
0.0000001
 43
0.0000001
 44
0.0000000001
 40
0.0
 40
0.0
 40
0.0
 40
0.0
 40
0.5000928141
 40
1.0
 40
1.0
 40
1.0
 40
1.0
 10
453.0897381521
 20
205.1283707417
 30
0.0
 10
452.6795448967
 20
205.4716821004
 30
0.0
 10
451.9053045011
 20
206.216789818
 30
0.0
 10
451.2760421852
 20
207.0912850992
 30
0.0
 10
451.0086899709
 20
207.5543527179
 30
0.0
  0
SPLINE
  5
4F6
100
AcDbEntity
  8
0
100
AcDbSpline
 62
7
  6
CONTINUOUS
 70
0
 71
3
 72
9
 73
5
 74
0
 42
0.0000001
 43
0.0000001
 44
0.0000000001
 40
0.0
 40
0.0
 40
0.0
 40
0.0
 40
0.4999071859
 40
1.0
 40
1.0
 40
1.0
 40
1.0
 10
418.8456723886
 20
188.9850258588
 30
0.0
 10
419.1130246029
 20
188.5219582401
 30
0.0
 10
419.555728574
 20
187.5397534483
 30
0.0
 10
419.8138905882
 20
186.4966877383
 30
0.0
 10
419.9061103185
 20
185.9697942793
 30
0.0
  0
SPLINE
  5
4F7
100
AcDbEntity
  8
KONSTRUKTIONSELEMENTE
100
AcDbSpline
 62
7
  6
CONTINUOUS
 70
0
 71
3
 72
9
 73
5
 74
0
 42
0.0000001
 43
0.0000001
 44
0.0000000001
 40
0.0
 40
0.0
 40
0.0
 40
0.0
 40
0.272606519
 40
1.0
 40
1.0
 40
1.0
 40
1.0
 10
694.1629618026
 20
241.721557746
 30
0.0
 10
694.167751635
 20
241.7433346345
 30
0.0
 10
694.189818241
 20
241.8219710734
 30
0.0
 10
694.2357219989
 20
241.8953065225
 30
0.0
 10
694.2807393007
 20
241.9342066488
 30
0.0
  0
SPLINE
  5
4F8
100
AcDbEntity
  8
KONSTRUKTIONSELEMENTE
100
AcDbSpline
 62
7
  6
CONTINUOUS
 70
0
 71
3
 72
9
 73
5
 74
0
 42
0.0000001
 43
0.0000001
 44
0.0000000001
 40
0.0
 40
0.0
 40
0.0
 40
0.0
 40
0.546991612
 40
1.0
 40
1.0
 40
1.0
 40
1.0
 10
697.3301192123
 20
238.2062697881
 30
0.0
 10
697.3301192123
 20
238.1346843495
 30
0.0
 10
697.3152139933
 20
238.0017956531
 30
0.0
 10
697.2423767998
 20
237.8851439603
 30
0.0
 10
697.1975186085
 20
237.8463813237
 30
0.0
  0
SPLINE
  5
4F9
100
AcDbEntity
  8
KONSTRUKTIONSELEMENTE
100
AcDbSpline
 62
7
  6
CONTINUOUS
 70
0
 71
3
 72
9
 73
5
 74
0
 42
0.0000001
 43
0.0000001
 44
0.0000000001
 40
0.0
 40
0.0
 40
0.0
 40
0.0
 40
0.2337213641
 40
1.0
 40
1.0
 40
1.0
 40
1.0
 10
697.5510719991
 20
238.1525675415
 30
0.0
 10
697.5355674861
 20
238.1391698591
 30
0.0
 10
697.4634251151
 20
238.0883044554
 30
0.0
 10
697.3726831537
 20
238.0695394583
 30
0.0
 10
697.3055373935
 20
238.067323635
 30
0.0
  0
SPLINE
  5
4FA
100
AcDbEntity
  8
KONSTRUKTIONSELEMENTE
100
AcDbSpline
 62
7
  6
CONTINUOUS
 70
0
 71
3
 72
9
 73
5
 74
0
 42
0.0000001
 43
0.0000001
 44
0.0000000001
 40
0.0
 40
0.0
 40
0.0
 40
0.0
 40
0.4820003923
 40
1.0
 40
1.0
 40
1.0
 40
1.0
 10
706.0607515349
 20
238.9748304592
 30
0.0
 10
706.0605653686
 20
238.8187647303
 30
0.0
 10
706.0184781548
 20
238.4937990423
 30
0.0
 10
705.8957142447
 20
238.190060931
 30
0.0
 10
705.8152271762
 20
238.042913104
 30
0.0
  0
SPLINE
  5
4FB
100
AcDbEntity
  8
KONSTRUKTIONSELEMENTE
100
AcDbSpline
 62
7
  6
CONTINUOUS
 70
0
 71
3
 72
9
 73
5
 74
0
 42
0.0000001
 43
0.0000001
 44
0.0000000001
 40
0.0
 40
0.0
 40
0.0
 40
0.0
 40
0.2343643836
 40
1.0
 40
1.0
 40
1.0
 40
1.0
 10
705.783176955
 20
237.9863034717
 30
0.0
 10
705.7497690195
 20
237.9292422847
 30
0.0
 10
705.596631219
 20
237.6920547467
 30
0.0
 10
705.4027148583
 20
237.4818279883
 30
0.0
 10
705.2394265815
 20
237.3404161925
 30
0.0
  0
SPLINE
  5
4FC
100
AcDbEntity
  8
KONSTRUKTIONSELEMENTE
100
AcDbSpline
 62
7
  6
CONTINUOUS
 70
0
 71
3
 72
9
 73
5
 74
0
 42
0.0000001
 43
0.0000001
 44
0.0000000001
 40
0.0
 40
0.0
 40
0.0
 40
0.0
 40
0.4959270657
 40
1.0
 40
1.0
 40
1.0
 40
1.0
 10
697.1076985979
 20
244.382699203
 30
0.0
 10
697.729819032
 20
244.9214713031
 30
0.0
 10
699.1610534932
 20
245.8160105937
 30
0.0
 10
700.7847718017
 20
246.2629669611
 30
0.0
 10
701.6140639281
 20
246.3725883631
 30
0.0
  0
SPLINE
  5
4FD
100
AcDbEntity
  8
KONSTRUKTIONSELEMENTE
100
AcDbSpline
 62
7
  6
CONTINUOUS
 70
0
 71
3
 72
11
 73
7
 74
0
 42
0.0000001
 43
0.0000001
 44
0.0000000001
 40
0.0
 40
0.0
 40
0.0
 40
0.0
 40
0.2544415708
 40
0.5052707429
 40
0.7533584052
 40
1.0
 40
1.0
 40
1.0
 40
1.0
 10
707.637864672
 20
245.0416091185
 30
0.0
 10
708.1523316537
 20
244.7056838111
 30
0.0
 10
709.1034060904
 20
243.9211643256
 30
0.0
 10
710.2044656939
 20
242.4508184511
 30
0.0
 10
710.9007677785
 20
240.7699117526
 30
0.0
 10
711.0599136501
 20
239.5695101545
 30
0.0
 10
711.0601850375
 20
238.9739174225
 30
0.0
  0
SPLINE
  5
4FE
100
AcDbEntity
  8
KONSTRUKTIONSELEMENTE
100
AcDbSpline
 62
7
  6
CONTINUOUS
 70
0
 71
3
 72
11
 73
7
 74
0
 42
0.0000001
 43
0.0000001
 44
0.0000000001
 40
0.0
 40
0.0
 40
0.0
 40
0.0
 40
0.2474803687
 40
0.4959793074
 40
0.7466457809
 40
1.0
 40
1.0
 40
1.0
 40
1.0
 10
711.0601850375
 20
238.9739174225
 30
0.0
 10
711.0604165668
 20
238.4657984429
 30
0.0
 10
710.9453246957
 20
237.4438663866
 30
0.0
 10
710.4381700826
 20
235.9845824615
 30
0.0
 10
709.6234786318
 20
234.6584584802
 30
0.0
 10
708.9059133287
 20
233.9013085805
 30
0.0
 10
708.5126949351
 20
233.5607714624
 30
0.0
  0
SPLINE
  5
4FF
100
AcDbEntity
  8
KONSTRUKTIONSELEMENTE
100
AcDbSpline
 62
7
  6
CONTINUOUS
 70
0
 71
3
 72
9
 73
5
 74
0
 42
0.0000001
 43
0.0000001
 44
0.0000000001
 40
0.0
 40
0.0
 40
0.0
 40
0.0
 40
0.5226045408
 40
1.0
 40
1.0
 40
1.0
 40
1.0
 10
705.7648106163
 20
239.9878442761
 30
0.0
 10
705.8606718897
 20
239.8289500379
 30
0.0
 10
706.0084437568
 20
239.5009563233
 30
0.0
 10
706.060953748
 20
239.1443485118
 30
0.0
 10
706.0607515349
 20
238.9748304592
 30
0.0
  0
SPLINE
  5
500
100
AcDbEntity
  8
KONSTRUKTIONSELEMENTE
100
AcDbSpline
 62
7
  6
CONTINUOUS
 70
0
 71
3
 72
9
 73
5
 74
0
 42
0.0000001
 43
0.0000001
 44
0.0000000001
 40
0.0
 40
0.0
 40
0.0
 40
0.0
 40
0.4872963705
 40
1.0
 40
1.0
 40
1.0
 40
1.0
 10
699.2290189414
 20
232.1352504891
 30
0.0
 10
698.6812007405
 20
231.6608260104
 30
0.0
 10
697.1971478719
 20
231.0928713893
 30
0.0
 10
695.6436537625
 20
231.3711962646
 30
0.0
 10
694.9697396039
 20
231.7278699258
 30
0.0
  0
SPLINE
  5
501
100
AcDbEntity
  8
KONSTRUKTIONSELEMENTE
100
AcDbSpline
 62
7
  6
CONTINUOUS
 70
0
 71
3
 72
11
 73
7
 74
0
 42
0.0000001
 43
0.0000001
 44
0.0000000001
 40
0.0
 40
0.0
 40
0.0
 40
0.0
 40
0.2474803687
 40
0.4959793074
 40
0.7466457809
 40
1.0
 40
1.0
 40
1.0
 40
1.0
 10
688.5498008553
 20
233.7643875395
 30
0.0
 10
688.5495693261
 20
234.272506519
 30
0.0
 10
688.6646611971
 20
235.2944385753
 30
0.0
 10
689.1718158103
 20
236.7537225004
 30
0.0
 10
689.986507261
 20
238.0798464817
 30
0.0
 10
690.7040725642
 20
238.8369963815
 30
0.0
 10
691.0972909578
 20
239.1775334996
 30
0.0
  0
SPLINE
  5
502
100
AcDbEntity
  8
KONSTRUKTIONSELEMENTE
100
AcDbSpline
 62
7
  6
CONTINUOUS
 70
0
 71
3
 72
11
 73
7
 74
0
 42
0.0000001
 43
0.0000001
 44
0.0000000001
 40
0.0
 40
0.0
 40
0.0
 40
0.0
 40
0.2479799116
 40
0.5004054033
 40
0.7525977831
 40
1.0
 40
1.0
 40
1.0
 40
1.0
 10
702.502287295
 20
228.355605759
 30
0.0
 10
701.7147777889
 20
227.673602521
 30
0.0
 10
699.8365175472
 20
226.6052928534
 30
0.0
 10
696.6518410295
 20
226.102605425
 30
0.0
 10
693.4868114645
 20
226.7059537137
 30
0.0
 10
691.6481834652
 20
227.8361271999
 30
0.0
 10
690.8872880052
 20
228.5441434376
 30
0.0
  0
SPLINE
  5
503
100
AcDbEntity
  8
KONSTRUKTIONSELEMENTE
100
AcDbSpline
 62
7
  6
CONTINUOUS
 70
0
 71
3
 72
9
 73
5
 74
0
 42
0.0000001
 43
0.0000001
 44
0.0000000001
 40
0.0
 40
0.0
 40
0.0
 40
0.0
 40
0.2330082413
 40
1.0
 40
1.0
 40
1.0
 40
1.0
 10
693.9271859101
 20
241.6280204309
 30
0.0
 10
693.943079598
 20
241.6417544053
 30
0.0
 10
694.0174283693
 20
241.6938839077
 30
0.0
 10
694.111146343
 20
241.712053744
 30
0.0
 10
694.180275618
 20
241.7134659611
 30
0.0
  0
SPLINE
  5
504
100
AcDbEntity
  8
KONSTRUKTIONSELEMENTE
100
AcDbSpline
 62
7
  6
CONTINUOUS
 70
0
 71
3
 72
15
 73
11
 74
0
 42
0.0000001
 43
0.0000001
 44
0.0000000001
 40
0.0
 40
0.0
 40
0.0
 40
0.0
 40
0.082699247
 40
0.1957940838
 40
0.333737466
 40
0.4862052534
 40
0.6408263759
 40
0.7848058501
 40
0.9071588123
 40
1.0
 40
1.0
 40
1.0
 40
1.0
 10
694.180275618
 20
241.7134659611
 30
0.0
 10
694.3165997288
 20
241.7162508773
 30
0.0
 10
694.6368740692
 20
241.6251530804
 30
0.0
 10
695.1153583381
 20
241.3526463265
 30
0.0
 10
695.6393308469
 20
240.9381796427
 30
0.0
 10
696.15834829
 20
240.4177684912
 30
0.0
 10
696.6260602553
 20
239.83787544
 30
0.0
 10
697.000422796
 20
239.2507098437
 30
0.0
 10
697.2471964603
 20
238.7115403621
 30
0.0
 10
697.3301192123
 20
238.3593441329
 30
0.0
 10
697.3301192123
 20
238.2062697881
 30
0.0
  0
SPLINE
  5
505
100
AcDbEntity
  8
KONSTRUKTIONSELEMENTE
100
AcDbSpline
 62
7
  6
CONTINUOUS
 70
0
 71
3
 72
19
 73
15
 74
0
 42
0.0000001
 43
0.0000001
 44
0.0000000001
 40
0.0
 40
0.0
 40
0.0
 40
0.0
 40
0.0298938292
 40
0.0650835855
 40
0.108466288
 40
0.1609985436
 40
0.2222349321
 40
0.2911550146
 40
0.4456854225
 40
0.6095823449
 40
0.7660354067
 40
0.8997960834
 40
0.9545408033
 40
1.0
 40
1.0
 40
1.0
 40
1.0
 10
694.2807393007
 20
241.9342066488
 30
0.0
 10
694.320098952
 20
241.9682179144
 30
0.0
 10
694.4267354886
 20
242.019089386
 30
0.0
 10
694.6185693529
 20
242.0247866564
 30
0.0
 10
694.8425014502
 20
241.9738339278
 30
0.0
 10
695.0954952915
 20
241.867553247
 30
0.0
 10
695.3722373498
 20
241.7099658708
 30
0.0
 10
695.7778784982
 20
241.4245949272
 30
0.0
 10
696.2815997085
 20
240.9732704648
 30
0.0
 10
696.8281458983
 20
240.3509512609
 30
0.0
 10
697.2763925025
 20
239.698305216
 30
0.0
 10
697.5458411418
 20
239.1572961627
 30
0.0
 10
697.6606811582
 20
238.7658164885
 30
0.0
 10
697.6836726029
 20
238.5915602818
 30
0.0
 10
697.6836726029
 20
238.5124560059
 30
0.0
  0
SPLINE
  5
506
100
AcDbEntity
  8
KONSTRUKTIONSELEMENTE
100
AcDbSpline
 62
7
  6
CONTINUOUS
 70
0
 71
3
 72
9
 73
5
 74
0
 42
0.0000001
 43
0.0000001
 44
0.0000000001
 40
0.0
 40
0.0
 40
0.0
 40
0.0
 40
0.546991612
 40
1.0
 40
1.0
 40
1.0
 40
1.0
 10
697.6836726029
 20
238.5124560059
 30
0.0
 10
697.6836726029
 20
238.4408705673
 30
0.0
 10
697.6687673839
 20
238.307981871
 30
0.0
 10
697.5959301904
 20
238.1913301781
 30
0.0
 10
697.5510719991
 20
238.1525675415
 30
0.0
  0
SPLINE
  5
507
100
AcDbEntity
  8
KONSTRUKTIONSELEMENTE
100
AcDbSpline
 62
7
  6
CONTINUOUS
 70
0
 71
3
 72
9
 73
5
 74
0
 42
0.0000001
 43
0.0000001
 44
0.0000000001
 40
0.0
 40
0.0
 40
0.0
 40
0.0
 40
0.272606519
 40
1.0
 40
1.0
 40
1.0
 40
1.0
 10
636.5337591359
 20
191.8132042368
 30
0.0
 10
636.5385489683
 20
191.8349811253
 30
0.0
 10
636.5606155743
 20
191.9136175642
 30
0.0
 10
636.6065193322
 20
191.9869530133
 30
0.0
 10
636.651536634
 20
192.0258531396
 30
0.0
  0
SPLINE
  5
508
100
AcDbEntity
  8
KONSTRUKTIONSELEMENTE
100
AcDbSpline
 62
7
  6
CONTINUOUS
 70
0
 71
3
 72
9
 73
5
 74
0
 42
0.0000001
 43
0.0000001
 44
0.0000000001
 40
0.0
 40
0.0
 40
0.0
 40
0.0
 40
0.4536677411
 40
1.0
 40
1.0
 40
1.0
 40
1.0
 10
648.4315488682
 20
189.0664769499
 30
0.0
 10
648.4312110398
 20
188.7832708469
 30
0.0
 10
648.2782111382
 20
188.1533267234
 30
0.0
 10
647.868035743
 20
187.6553342759
 30
0.0
 10
647.6102239148
 20
187.4320626833
 30
0.0
  0
SPLINE
  5
509
100
AcDbEntity
  8
KONSTRUKTIONSELEMENTE
100
AcDbSpline
 62
7
  6
CONTINUOUS
 70
0
 71
3
 72
11
 73
7
 74
0
 42
0.0000001
 43
0.0000001
 44
0.0000000001
 40
0.0
 40
0.0
 40
0.0
 40
0.0
 40
0.2461895079
 40
0.4959709919
 40
0.7479193338
 40
1.0
 40
1.0
 40
1.0
 40
1.0
 10
639.4784959312
 20
194.4743456938
 30
0.0
 10
639.9813470839
 20
194.9098275664
 30
0.0
 10
641.1094631802
 20
195.6618842386
 30
0.0
 10
643.0231466317
 20
196.3632167656
 30
0.0
 10
645.0605556731
 20
196.6189082966
 30
0.0
 10
646.4292531412
 20
196.4830944318
 30
0.0
 10
647.095125084
 20
196.3397439898
 30
0.0
  0
SPLINE
  5
50A
100
AcDbEntity
  8
KONSTRUKTIONSELEMENTE
100
AcDbSpline
 62
7
  6
CONTINUOUS
 70
0
 71
3
 72
11
 73
7
 74
0
 42
0.0000001
 43
0.0000001
 44
0.0000000001
 40
0.0
 40
0.0
 40
0.0
 40
0.0
 40
0.2529702904
 40
0.5034560777
 40
0.7521726717
 40
1.0
 40
1.0
 40
1.0
 40
1.0
 10
651.22536068
 20
194.1602044903
 30
0.0
 10
651.569074968
 20
193.8250536024
 30
0.0
 10
652.1930783285
 20
193.0926550255
 30
0.0
 10
652.8959455377
 20
191.8398849636
 30
0.0
 10
653.3321022572
 20
190.4810113786
 30
0.0
 10
653.4307680704
 20
189.5358722894
 30
0.0
 10
653.4309823708
 20
189.0655639133
 30
0.0
  0
SPLINE
  5
50B
100
AcDbEntity
  8
KONSTRUKTIONSELEMENTE
100
AcDbSpline
 62
7
  6
CONTINUOUS
 70
0
 71
3
 72
11
 73
7
 74
0
 42
0.0000001
 43
0.0000001
 44
0.0000000001
 40
0.0
 40
0.0
 40
0.0
 40
0.0
 40
0.2474803687
 40
0.4959793074
 40
0.7466457809
 40
1.0
 40
1.0
 40
1.0
 40
1.0
 10
653.4309823708
 20
189.0655639133
 30
0.0
 10
653.4312139001
 20
188.5574449337
 30
0.0
 10
653.316122029
 20
187.5355128774
 30
0.0
 10
652.8089674159
 20
186.0762289523
 30
0.0
 10
651.9942759651
 20
184.750104971
 30
0.0
 10
651.276710662
 20
183.9929550713
 30
0.0
 10
650.8834922684
 20
183.6524179532
 30
0.0
  0
SPLINE
  5
50C
100
AcDbEntity
  8
KONSTRUKTIONSELEMENTE
100
AcDbSpline
 62
7
  6
CONTINUOUS
 70
0
 71
3
 72
9
 73
5
 74
0
 42
0.0000001
 43
0.0000001
 44
0.0000000001
 40
0.0
 40
0.0
 40
0.0
 40
0.0
 40
0.2332763521
 40
1.0
 40
1.0
 40
1.0
 40
1.0
 10
642.7517642847
 20
190.6947009637
 30
0.0
 10
642.8480908838
 20
190.7781222455
 30
0.0
 10
643.2842991404
 20
191.1084890365
 30
0.0
 10
643.8019805337
 20
191.3262489329
 30
0.0
 10
644.2086917973
 20
191.426253797
 30
0.0
  0
SPLINE
  5
50D
100
AcDbEntity
  8
KONSTRUKTIONSELEMENTE
100
AcDbSpline
 62
7
  6
CONTINUOUS
 70
0
 71
3
 72
9
 73
5
 74
0
 42
0.0000001
 43
0.0000001
 44
0.0000000001
 40
0.0
 40
0.0
 40
0.0
 40
0.0
 40
0.4874080123
 40
1.0
 40
1.0
 40
1.0
 40
1.0
 10
641.5998162747
 20
182.2268969799
 30
0.0
 10
641.0509204004
 20
181.7515392087
 30
0.0
 10
639.5636276676
 20
181.1833732474
 30
0.0
 10
638.0074635283
 20
181.4645392249
 30
0.0
 10
637.3333591747
 20
181.8233260004
 30
0.0
  0
SPLINE
  5
50E
100
AcDbEntity
  8
KONSTRUKTIONSELEMENTE
100
AcDbSpline
 62
7
  6
CONTINUOUS
 70
0
 71
3
 72
11
 73
7
 74
0
 42
0.0000001
 43
0.0000001
 44
0.0000000001
 40
0.0
 40
0.0
 40
0.0
 40
0.0
 40
0.2475804796
 40
0.4995487547
 40
0.7518058018
 40
1.0
 40
1.0
 40
1.0
 40
1.0
 10
644.8730846283
 20
178.4472522498
 30
0.0
 10
644.1249975218
 20
177.7993898113
 30
0.0
 10
642.3554917576
 20
176.7698361149
 30
0.0
 10
639.3477042899
 20
176.2127540348
 30
0.0
 10
636.3187346012
 20
176.6551444933
 30
0.0
 10
634.5065725474
 20
177.6134965674
 30
0.0
 10
633.7296365259
 20
178.2304178733
 30
0.0
  0
SPLINE
  5
50F
100
AcDbEntity
  8
KONSTRUKTIONSELEMENTE
100
AcDbSpline
 62
7
  6
CONTINUOUS
 70
0
 71
3
 72
9
 73
5
 74
0
 42
0.0000001
 43
0.0000001
 44
0.0000000001
 40
0.0
 40
0.0
 40
0.0
 40
0.0
 40
0.2330082413
 40
1.0
 40
1.0
 40
1.0
 40
1.0
 10
636.2979832434
 20
191.7196669217
 30
0.0
 10
636.3138769313
 20
191.7334008961
 30
0.0
 10
636.3882257026
 20
191.7855303985
 30
0.0
 10
636.4819436763
 20
191.8037002348
 30
0.0
 10
636.5510729513
 20
191.8051124519
 30
0.0
  0
SPLINE
  5
510
100
AcDbEntity
  8
KONSTRUKTIONSELEMENTE
100
AcDbSpline
 62
7
  6
CONTINUOUS
 70
0
 71
3
 72
12
 73
8
 74
0
 42
0.0000001
 43
0.0000001
 44
0.0000000001
 40
0.0
 40
0.0
 40
0.0
 40
0.0
 40
0.0756075419
 40
0.1692610425
 40
0.407301719
 40
0.6950186639
 40
1.0
 40
1.0
 40
1.0
 40
1.0
 10
636.5510729513
 20
191.8051124519
 30
0.0
 10
636.6268916551
 20
191.8066613249
 30
0.0
 10
636.7970188672
 20
191.7796730234
 30
0.0
 10
637.1798663108
 20
191.6332965363
 30
0.0
 10
637.7055721795
 20
191.2914205531
 30
0.0
 10
638.326852106
 20
190.7338815455
 30
0.0
 10
638.7162244766
 20
190.2817971666
 30
0.0
 10
638.9002991886
 20
190.037482973
 30
0.0
  0
SPLINE
  5
511
100
AcDbEntity
  8
KONSTRUKTIONSELEMENTE
100
AcDbSpline
 62
7
  6
CONTINUOUS
 70
0
 71
3
 72
9
 73
5
 74
0
 42
0.0000001
 43
0.0000001
 44
0.0000000001
 40
0.0
 40
0.0
 40
0.0
 40
0.0
 40
0.2622844894
 40
1.0
 40
1.0
 40
1.0
 40
1.0
 10
639.0677008253
 20
189.8049001042
 30
0.0
 10
639.1035788425
 20
189.7526044062
 30
0.0
 10
639.2372435866
 20
189.5511244197
 30
0.0
 10
639.358643227
 20
189.3412654401
 30
0.0
 10
639.4380203469
 20
189.181521972
 30
0.0
  0
SPLINE
  5
512
100
AcDbEntity
  8
KONSTRUKTIONSELEMENTE
100
AcDbSpline
 62
7
  6
CONTINUOUS
 70
0
 71
3
 72
18
 73
14
 74
0
 42
0.0000001
 43
0.0000001
 44
0.0000000001
 40
0.0
 40
0.0
 40
0.0
 40
0.0
 40
0.0297694375
 40
0.0647100049
 40
0.10768043
 40
0.1596584826
 40
0.2202475627
 40
0.2884715706
 40
0.4417489812
 40
0.6049919065
 40
0.7618480026
 40
0.8972863474
 40
1.0
 40
1.0
 40
1.0
 40
1.0
 10
636.651536634
 20
192.0258531396
 30
0.0
 10
636.690422409
 20
192.0594549215
 30
0.0
 10
636.7953492568
 20
192.1099581185
 30
0.0
 10
636.9842256036
 20
192.1167905562
 30
0.0
 10
637.2046557193
 20
192.0681370676
 30
0.0
 10
637.4537005246
 20
191.9652798894
 30
0.0
 10
637.7262674993
 20
191.8120859406
 30
0.0
 10
638.1265798406
 20
191.5337865227
 30
0.0
 10
638.6253678449
 20
191.0916136569
 30
0.0
 10
639.1692270373
 20
190.4797138643
 30
0.0
 10
639.6213766716
 20
189.8328958308
 30
0.0
 10
639.9315056241
 20
189.2247029202
 30
0.0
 10
640.0457813733
 20
188.8213222126
 30
0.0
 10
640.0535703332
 20
188.6441737367
 30
0.0
  0
SPLINE
  5
513
100
AcDbEntity
  8
KONSTRUKTIONSELEMENTE
100
AcDbSpline
 62
7
  6
CONTINUOUS
 70
0
 71
3
 72
9
 73
5
 74
0
 42
0.0000001
 43
0.0000001
 44
0.0000000001
 40
0.0
 40
0.0
 40
0.0
 40
0.0
 40
0.244567645
 40
1.0
 40
1.0
 40
1.0
 40
1.0
 10
693.4997891125
 20
225.0572155598
 30
0.0
 10
693.6258893388
 20
225.1664215592
 30
0.0
 10
694.1342126487
 20
225.6213101834
 30
0.0
 10
694.6147430036
 20
226.1070716183
 30
0.0
 10
694.9615859976
 20
226.4881214427
 30
0.0
  0
SPLINE
  5
514
100
AcDbEntity
  8
KONSTRUKTIONSELEMENTE
100
AcDbSpline
 62
7
  6
CONTINUOUS
 70
0
 71
3
 72
11
 73
7
 74
0
 42
0.0000001
 43
0.0000001
 44
0.0000000001
 40
0.0
 40
0.0
 40
0.0
 40
0.0
 40
0.2456161378
 40
0.487829233
 40
0.7390911012
 40
1.0
 40
1.0
 40
1.0
 40
1.0
 10
698.0630558045
 20
231.4893700242
 30
0.0
 10
698.1735915249
 20
231.8417953707
 30
0.0
 10
698.3439375153
 20
232.5596856145
 30
0.0
 10
698.3645305905
 20
233.6826679272
 30
0.0
 10
698.045571559
 20
234.7932307191
 30
0.0
 10
697.5609531219
 20
235.422738312
 30
0.0
 10
697.2644595323
 20
235.6797017327
 30
0.0
  0
SPLINE
  5
515
100
AcDbEntity
  8
KONSTRUKTIONSELEMENTE
100
AcDbSpline
 62
7
  6
CONTINUOUS
 70
0
 71
3
 72
23
 73
19
 74
0
 42
0.0000001
 43
0.0000001
 44
0.0000000001
 40
0.0
 40
0.0
 40
0.0
 40
0.0
 40
0.0399693647
 40
0.0656737883
 40
0.0749885225
 40
0.0817696905
 40
0.0908566531
 40
0.1035947661
 40
0.1198800888
 40
0.1395419735
 40
0.1623868192
 40
0.1882221418
 40
0.2481028199
 40
0.3177476512
 40
0.3960861991
 40
0.5751467152
 40
0.7783544951
 40
1.0
 40
1.0
 40
1.0
 40
1.0
 10
695.0864043048
 20
231.9334291806
 30
0.0
 10
695.1165154611
 20
231.9306030361
 30
0.0
 10
695.1729558997
 20
231.9293094212
 30
0.0
 10
695.2121835043
 20
231.9282724033
 30
0.0
 10
695.2663597229
 20
231.9351528728
 30
0.0
 10
695.2370774806
 20
231.9292875625
 30
0.0
 10
695.219840748
 20
231.9243574909
 30
0.0
 10
695.1906706232
 20
231.9157673969
 30
0.0
 10
695.1564377717
 20
231.9038596024
 30
0.0
 10
695.1146027649
 20
231.8881036201
 30
0.0
 10
695.0667765689
 20
231.8686082912
 30
0.0
 10
694.9914139456
 20
231.8358374297
 30
0.0
 10
694.8852924887
 20
231.7851990689
 30
0.0
 10
694.7464522848
 20
231.7111842505
 30
0.0
 10
694.5327053257
 20
231.5863939267
 30
0.0
 10
694.2410941012
 20
231.3950240684
 30
0.0
 10
693.8744683002
 20
231.121913925
 30
0.0
 10
693.6265673173
 20
230.9170087058
 30
0.0
 10
693.4997891125
 20
230.8072155598
 30
0.0
  0
SPLINE
  5
516
100
AcDbEntity
  8
KONSTRUKTIONSELEMENTE
100
AcDbSpline
 62
7
  6
CONTINUOUS
 70
0
 71
3
 72
13
 73
9
 74
0
 42
0.0000001
 43
0.0000001
 44
0.0000000001
 40
0.0
 40
0.0
 40
0.0
 40
0.0
 40
0.1263256967
 40
0.2494053695
 40
0.4831671239
 40
0.6019464337
 40
0.7268262858
 40
1.0
 40
1.0
 40
1.0
 40
1.0
 10
697.2644595323
 20
235.6797017327
 30
0.0
 10
697.0265853304
 20
235.8858612275
 30
0.0
 10
696.4870263766
 20
236.2186511309
 30
0.0
 10
695.3046659443
 20
236.5182966134
 30
0.0
 10
694.090112038
 20
236.3388060761
 30
0.0
 10
692.9897143248
 20
235.8863331414
 30
0.0
 10
691.8613002515
 20
235.2595961137
 30
0.0
 10
691.0684052588
 20
234.654515826
 30
0.0
 10
690.5538475943
 20
234.2088958169
 30
0.0
  0
SPLINE
  5
517
100
AcDbEntity
  8
KONSTRUKTIONSELEMENTE
100
AcDbSpline
 62
7
  6
CONTINUOUS
 70
0
 71
3
 72
9
 73
5
 74
0
 42
0.0000001
 43
0.0000001
 44
0.0000000001
 40
0.0
 40
0.0
 40
0.0
 40
0.0
 40
0.5091378895
 40
1.0
 40
1.0
 40
1.0
 40
1.0
 10
676.1825754567
 20
214.4008231085
 30
0.0
 10
676.4725541885
 20
214.1495059485
 30
0.0
 10
677.1467747465
 20
213.7659546207
 30
0.0
 10
677.9071732437
 20
213.6508744614
 30
0.0
 10
678.2771271311
 20
213.6517331567
 30
0.0
  0
SPLINE
  5
518
100
AcDbEntity
  8
KONSTRUKTIONSELEMENTE
100
AcDbSpline
 62
7
  6
CONTINUOUS
 70
0
 71
3
 72
14
 73
10
 74
0
 42
0.0000001
 43
0.0000001
 44
0.0000000001
 40
0.0
 40
0.0
 40
0.0
 40
0.0
 40
0.3076593044
 40
0.4655740208
 40
0.6174499256
 40
0.7563299601
 40
0.8741882754
 40
0.9604979356
 40
1.0
 40
1.0
 40
1.0
 40
1.0
 10
682.8931873947
 20
221.6216290244
 30
0.0
 10
682.442925996
 20
221.2316912148
 30
0.0
 10
681.8062354902
 20
220.5883387397
 30
0.0
 10
681.0483727687
 20
219.6633595725
 30
0.0
 10
680.5433065344
 20
218.9556041884
 30
0.0
 10
680.1317533838
 20
218.2793121526
 30
0.0
 10
679.8339144868
 20
217.6840423857
 30
0.0
 10
679.6702263168
 20
217.2413717928
 30
0.0
 10
679.6112806729
 20
217.0032410717
 30
0.0
 10
679.60499887
 20
216.9270220355
 30
0.0
  0
SPLINE
  5
519
100
AcDbEntity
  8
KONSTRUKTIONSELEMENTE
100
AcDbSpline
 62
7
  6
CONTINUOUS
 70
0
 71
3
 72
16
 73
12
 74
0
 42
0.0000001
 43
0.0000001
 44
0.0000000001
 40
0.0
 40
0.0
 40
0.0
 40
0.0
 40
0.1382503286
 40
0.2794921658
 40
0.416953146
 40
0.5450742214
 40
0.6617427928
 40
0.7711235094
 40
0.8823527807
 40
0.9406882304
 40
1.0
 40
1.0
 40
1.0
 40
1.0
 10
679.9472458765
 20
225.0233092814
 30
0.0
 10
679.5124196709
 20
224.6467387412
 30
0.0
 10
678.6744932137
 20
223.8370442311
 30
0.0
 10
677.5445508891
 20
222.5175770396
 30
0.0
 10
676.5690493604
 20
221.1307866246
 30
0.0
 10
675.7970486962
 20
219.7360240368
 30
0.0
 10
675.2652892436
 20
218.3549530723
 30
0.0
 10
675.0287891179
 20
216.9579900768
 30
0.0
 10
675.2144894725
 20
215.7792986667
 30
0.0
 10
675.6649643996
 20
214.9311421506
 30
0.0
 10
675.9960874456
 20
214.5624475043
 30
0.0
 10
676.1825754567
 20
214.4008231085
 30
0.0
  0
SPLINE
  5
51A
100
AcDbEntity
  8
KONSTRUKTIONSELEMENTE
100
AcDbSpline
 62
7
  6
CONTINUOUS
 70
0
 71
3
 72
9
 73
5
 74
0
 42
0.0000001
 43
0.0000001
 44
0.0000000001
 40
0.0
 40
0.0
 40
0.0
 40
0.0
 40
0.2442277043
 40
1.0
 40
1.0
 40
1.0
 40
1.0
 10
662.3870907403
 20
198.1128283892
 30
0.0
 10
662.5428398049
 20
198.2477110358
 30
0.0
 10
663.1694365583
 20
198.8127484575
 30
0.0
 10
663.7539995919
 20
199.4240761833
 30
0.0
 10
664.1706411005
 20
199.9067033872
 30
0.0
  0
SPLINE
  5
51B
100
AcDbEntity
  8
KONSTRUKTIONSELEMENTE
100
AcDbSpline
 62
7
  6
CONTINUOUS
 70
0
 71
3
 72
11
 73
7
 74
0
 42
0.0000001
 43
0.0000001
 44
0.0000000001
 40
0.0
 40
0.0
 40
0.0
 40
0.0
 40
0.2471730376
 40
0.4889706441
 40
0.7394164903
 40
1.0
 40
1.0
 40
1.0
 40
1.0
 10
666.8935180417
 20
204.3711079814
 30
0.0
 10
667.0179729618
 20
204.7371627253
 30
0.0
 10
667.2136388769
 20
205.4810202785
 30
0.0
 10
667.2656987057
 20
206.648714519
 30
0.0
 10
666.9587173191
 20
207.8094006038
 30
0.0
 10
666.459786372
 20
208.4683569788
 30
0.0
 10
666.1517611601
 20
208.7353145621
 30
0.0
  0
SPLINE
  5
51C
100
AcDbEntity
  8
KONSTRUKTIONSELEMENTE
100
AcDbSpline
 62
7
  6
CONTINUOUS
 70
0
 71
3
 72
23
 73
19
 74
0
 42
0.0000001
 43
0.0000001
 44
0.0000000001
 40
0.0
 40
0.0
 40
0.0
 40
0.0
 40
0.0399693647
 40
0.0656737883
 40
0.0749885225
 40
0.0817696905
 40
0.0908566531
 40
0.1035947661
 40
0.1198800888
 40
0.1395419735
 40
0.1623868192
 40
0.1882221418
 40
0.2481028199
 40
0.3177476512
 40
0.3960861991
 40
0.5751467152
 40
0.7783544951
 40
1.0
 40
1.0
 40
1.0
 40
1.0
 10
663.9737059326
 20
204.98904201
 30
0.0
 10
664.0038170889
 20
204.9862158655
 30
0.0
 10
664.0602575275
 20
204.9849222506
 30
0.0
 10
664.099485132
 20
204.9838852327
 30
0.0
 10
664.1536613507
 20
204.9907657022
 30
0.0
 10
664.1243791084
 20
204.9849003919
 30
0.0
 10
664.1071423758
 20
204.9799703203
 30
0.0
 10
664.077972251
 20
204.9713802263
 30
0.0
 10
664.0437393995
 20
204.9594724318
 30
0.0
 10
664.0019043927
 20
204.9437164495
 30
0.0
 10
663.9540781967
 20
204.9242211206
 30
0.0
 10
663.8787155733
 20
204.8914502591
 30
0.0
 10
663.7725941165
 20
204.8408118983
 30
0.0
 10
663.6337539126
 20
204.7667970799
 30
0.0
 10
663.4200069535
 20
204.642006756
 30
0.0
 10
663.1283957289
 20
204.4506368977
 30
0.0
 10
662.761769928
 20
204.1775267544
 30
0.0
 10
662.5138689451
 20
203.9726215352
 30
0.0
 10
662.3870907403
 20
203.8628283892
 30
0.0
  0
SPLINE
  5
51D
100
AcDbEntity
  8
KONSTRUKTIONSELEMENTE
100
AcDbSpline
 62
7
  6
CONTINUOUS
 70
0
 71
3
 72
13
 73
9
 74
0
 42
0.0000001
 43
0.0000001
 44
0.0000000001
 40
0.0
 40
0.0
 40
0.0
 40
0.0
 40
0.1263256967
 40
0.2494053695
 40
0.4831671239
 40
0.6019464337
 40
0.7268262858
 40
1.0
 40
1.0
 40
1.0
 40
1.0
 10
666.1517611601
 20
208.7353145621
 30
0.0
 10
665.9138869582
 20
208.9414740569
 30
0.0
 10
665.3743280043
 20
209.2742639603
 30
0.0
 10
664.1919675721
 20
209.5739094427
 30
0.0
 10
662.9774136658
 20
209.3944189055
 30
0.0
 10
661.8770159526
 20
208.9419459708
 30
0.0
 10
660.7486018793
 20
208.3152089431
 30
0.0
 10
659.9557068866
 20
207.7101286554
 30
0.0
 10
659.4411492221
 20
207.2645086463
 30
0.0
  0
SPLINE
  5
51E
100
AcDbEntity
  8
KONSTRUKTIONSELEMENTE
100
AcDbSpline
 62
7
  6
CONTINUOUS
 70
0
 71
3
 72
9
 73
5
 74
0
 42
0.0000001
 43
0.0000001
 44
0.0000000001
 40
0.0
 40
0.0
 40
0.0
 40
0.0
 40
0.5068172679
 40
1.0
 40
1.0
 40
1.0
 40
1.0
 10
645.0698770845
 20
187.4564359379
 30
0.0
 10
645.3136326682
 20
187.2451791997
 30
0.0
 10
645.8676380329
 20
186.9062844603
 30
0.0
 10
646.4961510153
 20
186.7547385893
 30
0.0
 10
646.8085356379
 20
186.7240924598
 30
0.0
  0
SPLINE
  5
51F
100
AcDbEntity
  8
KONSTRUKTIONSELEMENTE
100
AcDbSpline
 62
7
  6
CONTINUOUS
 70
0
 71
3
 72
14
 73
10
 74
0
 42
0.0000001
 43
0.0000001
 44
0.0000000001
 40
0.0
 40
0.0
 40
0.0
 40
0.0
 40
0.3076593044
 40
0.4655740208
 40
0.6174499256
 40
0.7563299601
 40
0.8741882754
 40
0.9604979356
 40
1.0
 40
1.0
 40
1.0
 40
1.0
 10
651.7804890225
 20
194.6772418537
 30
0.0
 10
651.3302276238
 20
194.2873040442
 30
0.0
 10
650.693537118
 20
193.6439515691
 30
0.0
 10
649.9356743965
 20
192.7189724019
 30
0.0
 10
649.4306081622
 20
192.0112170178
 30
0.0
 10
649.0190550116
 20
191.334924982
 30
0.0
 10
648.7212161146
 20
190.7396552151
 30
0.0
 10
648.5575279446
 20
190.2969846222
 30
0.0
 10
648.4985823006
 20
190.0588539011
 30
0.0
 10
648.4923004978
 20
189.9826348648
 30
0.0
  0
SPLINE
  5
520
100
AcDbEntity
  8
KONSTRUKTIONSELEMENTE
100
AcDbSpline
 62
7
  6
CONTINUOUS
 70
0
 71
3
 72
16
 73
12
 74
0
 42
0.0000001
 43
0.0000001
 44
0.0000000001
 40
0.0
 40
0.0
 40
0.0
 40
0.0
 40
0.1382503286
 40
0.2794921658
 40
0.416953146
 40
0.5450742214
 40
0.6617427928
 40
0.7711235094
 40
0.8823527807
 40
0.9406882304
 40
1.0
 40
1.0
 40
1.0
 40
1.0
 10
648.8345475043
 20
198.0789221108
 30
0.0
 10
648.3997212987
 20
197.7023515706
 30
0.0
 10
647.5617948415
 20
196.8926570605
 30
0.0
 10
646.4318525169
 20
195.573189869
 30
0.0
 10
645.4563509882
 20
194.186399454
 30
0.0
 10
644.684350324
 20
192.7916368662
 30
0.0
 10
644.1525908714
 20
191.4105659017
 30
0.0
 10
643.9160907457
 20
190.0136029062
 30
0.0
 10
644.1017911003
 20
188.8349114961
 30
0.0
 10
644.5522660274
 20
187.9867549799
 30
0.0
 10
644.8833890734
 20
187.6180603336
 30
0.0
 10
645.0698770845
 20
187.4564359379
 30
0.0
  0
SPLINE
  5
521
100
AcDbEntity
  8
KONSTRUKTIONSELEMENTE
100
AcDbSpline
 62
7
  6
CONTINUOUS
 70
0
 71
3
 72
11
 73
7
 74
0
 42
0.0000001
 43
0.0000001
 44
0.0000000001
 40
0.0
 40
0.0
 40
0.0
 40
0.0
 40
0.247258039
 40
0.4956520534
 40
0.7463451021
 40
1.0
 40
1.0
 40
1.0
 40
1.0
 10
657.8639431585
 20
206.973488546
 30
0.0
 10
657.8637476917
 20
207.4634938253
 30
0.0
 10
657.9748234912
 20
208.4492441268
 30
0.0
 10
658.4647350009
 20
209.857018594
 30
0.0
 10
659.2517747158
 20
211.1371074707
 30
0.0
 10
659.945040569
 20
211.868174364
 30
0.0
 10
660.3250326986
 20
212.1972572014
 30
0.0
  0
SPLINE
  5
522
100
AcDbEntity
  8
KONSTRUKTIONSELEMENTE
100
AcDbSpline
 62
7
  6
CONTINUOUS
 70
0
 71
3
 72
11
 73
7
 74
0
 42
0.0000001
 43
0.0000001
 44
0.0000000001
 40
0.0
 40
0.0
 40
0.0
 40
0.0
 40
0.247258039
 40
0.4956520534
 40
0.7463451021
 40
1.0
 40
1.0
 40
1.0
 40
1.0
 10
684.4703934582
 20
216.1626491246
 30
0.0
 10
684.470588925
 20
215.6726438453
 30
0.0
 10
684.3595131255
 20
214.6868935438
 30
0.0
 10
683.8696016159
 20
213.2791190766
 30
0.0
 10
683.0825619009
 20
211.9990301999
 30
0.0
 10
682.3892960477
 20
211.2679633066
 30
0.0
 10
682.0093039182
 20
210.9388804692
 30
0.0
  0
SPLINE
  5
523
100
AcDbEntity
  8
KONSTRUKTIONSELEMENTE
100
AcDbSpline
 62
7
  6
CONTINUOUS
 70
0
 71
3
 72
9
 73
5
 74
0
 42
0.0000001
 43
0.0000001
 44
0.0000000001
 40
0.0
 40
0.0
 40
0.0
 40
0.0
 40
0.2390508737
 40
1.0
 40
1.0
 40
1.0
 40
1.0
 10
674.1023064822
 20
218.158964735
 30
0.0
 10
674.1979509501
 20
218.2281463258
 30
0.0
 10
674.6127950271
 20
218.4968987193
 30
0.0
 10
675.0816447849
 20
218.6796668571
 30
0.0
 10
675.4467281904
 20
218.7685739027
 30
0.0
  0
SPLINE
  5
524
100
AcDbEntity
  8
KONSTRUKTIONSELEMENTE
100
AcDbSpline
 62
7
  6
CONTINUOUS
 70
0
 71
3
 72
9
 73
5
 74
0
 42
0.0000001
 43
0.0000001
 44
0.0000000001
 40
0.0
 40
0.0
 40
0.0
 40
0.0
 40
0.2598514407
 40
1.0
 40
1.0
 40
1.0
 40
1.0
 10
679.7889087349
 20
217.0170641506
 30
0.0
 10
679.8191900969
 20
216.9472284004
 30
0.0
 10
679.9224938193
 20
216.6729846496
 30
0.0
 10
679.9709441469
 20
216.3776700043
 30
0.0
 10
679.9709563729
 20
216.1608582878
 30
0.0
  0
SPLINE
  5
525
100
AcDbEntity
  8
KONSTRUKTIONSELEMENTE
100
AcDbSpline
 62
7
  6
CONTINUOUS
 70
0
 71
3
 72
9
 73
5
 74
0
 42
0.0000001
 43
0.0000001
 44
0.0000000001
 40
0.0
 40
0.0
 40
0.0
 40
0.0
 40
0.4614411915
 40
1.0
 40
1.0
 40
1.0
 40
1.0
 10
679.9709563729
 20
216.1608582878
 30
0.0
 10
679.9709744336
 20
215.8405761057
 30
0.0
 10
679.7994806122
 20
215.1401158742
 30
0.0
 10
679.3459353129
 20
214.5852760473
 30
0.0
 10
679.0633624
 20
214.3405607263
 30
0.0
  0
SPLINE
  5
526
100
AcDbEntity
  8
KONSTRUKTIONSELEMENTE
100
AcDbSpline
 62
7
  6
CONTINUOUS
 70
0
 71
3
 72
9
 73
5
 74
0
 42
0.0000001
 43
0.0000001
 44
0.0000000001
 40
0.0
 40
0.0
 40
0.0
 40
0.0
 40
0.4898470903
 40
1.0
 40
1.0
 40
1.0
 40
1.0
 10
668.4567606822
 20
205.1549741909
 30
0.0
 10
667.859051753
 20
204.6373430741
 30
0.0
 10
666.2424320619
 20
204.0247994517
 30
0.0
 10
664.5562432008
 20
204.3552252065
 30
0.0
 10
663.838234688
 20
204.7584238949
 30
0.0
  0
SPLINE
  5
527
100
AcDbEntity
  8
KONSTRUKTIONSELEMENTE
100
AcDbSpline
 62
7
  6
CONTINUOUS
 70
0
 71
3
 72
11
 73
7
 74
0
 42
0.0000001
 43
0.0000001
 44
0.0000000001
 40
0.0
 40
0.0
 40
0.0
 40
0.0
 40
0.245958326
 40
0.4956468363
 40
0.7476883331
 40
1.0
 40
1.0
 40
1.0
 40
1.0
 10
670.9316344164
 20
221.3828437368
 30
0.0
 10
671.4093283698
 20
221.7965388358
 30
0.0
 10
672.4790780853
 20
222.5134797621
 30
0.0
 10
674.2928005306
 20
223.1927528967
 30
0.0
 10
676.2270498181
 20
223.4585826772
 30
0.0
 10
677.5307356873
 20
223.351026339
 30
0.0
 10
678.1669635071
 20
223.2267436538
 30
0.0
  0
SPLINE
  5
528
100
AcDbEntity
  8
KONSTRUKTIONSELEMENTE
100
AcDbSpline
 62
7
  6
CONTINUOUS
 70
0
 71
3
 72
11
 73
7
 74
0
 42
0.0000001
 43
0.0000001
 44
0.0000000001
 40
0.0
 40
0.0
 40
0.0
 40
0.0
 40
0.2532343944
 40
0.50377714
 40
0.752387739
 40
1.0
 40
1.0
 40
1.0
 40
1.0
 10
682.326013542
 20
221.0925115872
 30
0.0
 10
682.6601371948
 20
220.7684498021
 30
0.0
 10
683.2667291644
 20
220.0601571449
 30
0.0
 10
683.9504188772
 20
218.8478873334
 30
0.0
 10
684.3743914711
 20
217.5326390438
 30
0.0
 10
684.4702119042
 20
216.6177769973
 30
0.0
 10
684.4703934582
 20
216.1626491246
 30
0.0
  0
SPLINE
  5
529
100
AcDbEntity
  8
KONSTRUKTIONSELEMENTE
100
AcDbSpline
 62
7
  6
CONTINUOUS
 70
0
 71
3
 72
11
 73
7
 74
0
 42
0.0000001
 43
0.0000001
 44
0.0000000001
 40
0.0
 40
0.0
 40
0.0
 40
0.0
 40
0.2478292773
 40
0.5003854856
 40
0.75271631
 40
1.0
 40
1.0
 40
1.0
 40
1.0
 10
671.4027022004
 20
201.7532939338
 30
0.0
 10
670.6400396069
 20
201.0928087533
 30
0.0
 10
668.8202288083
 20
200.0576275307
 30
0.0
 10
665.7345563211
 20
199.5673612795
 30
0.0
 10
662.6660508878
 20
200.1452409475
 30
0.0
 10
660.880809104
 20
201.2343442762
 30
0.0
 10
660.141472904
 20
201.9175719862
 30
0.0
  0
SPLINE
  5
52A
100
AcDbEntity
  8
KONSTRUKTIONSELEMENTE
100
AcDbSpline
 62
7
  6
CONTINUOUS
 70
0
 71
3
 72
12
 73
8
 74
0
 42
0.0000001
 43
0.0000001
 44
0.0000000001
 40
0.0
 40
0.0
 40
0.0
 40
0.0
 40
0.2667022488
 40
0.5135567525
 40
0.7543290993
 40
0.8766592736
 40
1.0
 40
1.0
 40
1.0
 40
1.0
 10
734.0816165938
 20
260.2584672847
 30
0.0
 10
734.303242887
 20
261.0736263745
 30
0.0
 10
734.6312132383
 20
262.674785719
 30
0.0
 10
734.6645504675
 20
265.08211658
 30
0.0
 10
734.1486197583
 20
266.9846266971
 30
0.0
 10
733.342779589
 20
268.3084885609
 30
0.0
 10
732.8070759812
 20
268.8823202074
 30
0.0
 10
732.5115004809
 20
269.1377741927
 30
0.0
  0
SPLINE
  5
52B
100
AcDbEntity
  8
KONSTRUKTIONSELEMENTE
100
AcDbSpline
 62
7
  6
CONTINUOUS
 70
0
 71
3
 72
18
 73
14
 74
0
 42
0.0000001
 43
0.0000001
 44
0.0000000001
 40
0.0
 40
0.0
 40
0.0
 40
0.0
 40
0.1463822488
 40
0.2968227272
 40
0.4441473494
 40
0.5816385962
 40
0.7043044355
 40
0.7594741652
 40
0.8108331293
 40
0.8592452862
 40
0.9060289111
 40
0.9526792965
 40
1.0
 40
1.0
 40
1.0
 40
1.0
 10
715.1651480734
 20
263.8900639936
 30
0.0
 10
713.8591686941
 20
262.7590526744
 30
0.0
 10
711.3258329672
 20
260.3307298051
 30
0.0
 10
707.8677614202
 20
256.3833951235
 30
0.0
 10
704.8250320175
 20
252.2352985133
 30
0.0
 10
702.3585939586
 20
248.0981627457
 30
0.0
 10
700.829323551
 20
244.6899923006
 30
0.0
 10
700.042144876
 20
242.0982587704
 30
0.0
 10
699.6924385162
 20
240.2992143439
 30
0.0
 10
699.5877900408
 20
238.5663726292
 30
0.0
 10
699.7758984518
 20
236.891985871
 30
0.0
 10
700.3261746074
 20
235.307444361
 30
0.0
 10
700.9717110955
 20
234.3822634806
 30
0.0
 10
701.3569638875
 20
233.9779179918
 30
0.0
  0
SPLINE
  5
52C
100
AcDbEntity
  8
KONSTRUKTIONSELEMENTE
100
AcDbSpline
 62
7
  6
CONTINUOUS
 70
0
 71
3
 72
29
 73
25
 74
0
 42
0.0000001
 43
0.0000001
 44
0.0000000001
 40
0.0
 40
0.0
 40
0.0
 40
0.0
 40
0.0038425111
 40
0.006877826
 40
0.0083401759
 40
0.0090978557
 40
0.0122169244
 40
0.0179337516
 40
0.0265411311
 40
0.0382974786
 40
0.0531437932
 40
0.0709517797
 40
0.0916105212
 40
0.1150179064
 40
0.1410570151
 40
0.1696072658
 40
0.2337651466
 40
0.3066512757
 40
0.3874470915
 40
0.475421617
 40
0.5698903892
 40
0.6702089349
 40
0.7757710248
 40
1.0
 40
1.0
 40
1.0
 40
1.0
 10
728.5944449433
 20
264.600307204
 30
0.0
 10
728.6058425723
 20
264.5916131072
 30
0.0
 10
728.6293559448
 20
264.5750300387
 30
0.0
 10
728.6458487047
 20
264.5613394147
 30
0.0
 10
728.6758517367
 20
264.5428271635
 30
0.0
 10
728.6489326665
 20
264.5490014806
 30
0.0
 10
728.620884592
 20
264.5576828756
 30
0.0
 10
728.5524431452
 20
264.5691758372
 30
0.0
 10
728.4575214082
 20
264.5779175972
 30
0.0
 10
728.3251977432
 20
264.5798814251
 30
0.0
 10
728.1599373142
 20
264.5722819599
 30
0.0
 10
727.9618540042
 20
264.5520897771
 30
0.0
 10
727.7337481152
 20
264.5162700874
 30
0.0
 10
727.4776909212
 20
264.4624593054
 30
0.0
 10
727.1957691905
 20
264.3901042723
 30
0.0
 10
726.7713586027
 20
264.2627289883
 30
0.0
 10
726.1906637128
 20
264.050258561
 30
0.0
 10
725.4462062233
 20
263.7232353833
 30
0.0
 10
724.641762477
 20
263.3153354915
 30
0.0
 10
723.7881720043
 20
262.8290530071
 30
0.0
 10
722.8947178228
 20
262.2676821186
 30
0.0
 10
721.969747084
 20
261.6347920977
 30
0.0
 10
720.6783798667
 20
260.6819837725
 30
0.0
 10
719.7254184242
 20
259.9021200323
 30
0.0
 10
719.0930700976
 20
259.3544903175
 30
0.0
  0
SPLINE
  5
52D
100
AcDbEntity
  8
KONSTRUKTIONSELEMENTE
100
AcDbSpline
 62
7
  6
CONTINUOUS
 70
0
 71
3
 72
9
 73
5
 74
0
 42
0.0000001
 43
0.0000001
 44
0.0000000001
 40
0.0
 40
0.0
 40
0.0
 40
0.0
 40
0.2986960379
 40
1.0
 40
1.0
 40
1.0
 40
1.0
 10
728.6246097644
 20
263.9665502178
 30
0.0
 10
728.6241868038
 20
264.0134539807
 30
0.0
 10
728.6200509198
 20
264.1704185265
 30
0.0
 10
728.6044401569
 20
264.3272634782
 30
0.0
 10
728.5850457447
 20
264.4356714118
 30
0.0
  0
SPLINE
  5
52E
100
AcDbEntity
  8
KONSTRUKTIONSELEMENTE
100
AcDbSpline
 62
7
  6
CONTINUOUS
 70
0
 71
3
 72
9
 73
5
 74
0
 42
0.0000001
 43
0.0000001
 44
0.0000000001
 40
0.0
 40
0.0
 40
0.0
 40
0.0
 40
0.2922909709
 40
1.0
 40
1.0
 40
1.0
 40
1.0
 10
728.5850457447
 20
264.4356714118
 30
0.0
 10
728.582541717
 20
264.4496680447
 30
0.0
 10
728.5734658864
 20
264.4974594138
 30
0.0
 10
728.5625480276
 20
264.5449156368
 30
0.0
 10
728.5534814679
 20
264.5781277162
 30
0.0
  0
SPLINE
  5
52F
100
AcDbEntity
  8
KONSTRUKTIONSELEMENTE
100
AcDbSpline
 62
7
  6
CONTINUOUS
 70
0
 71
3
 72
9
 73
5
 74
0
 42
0.0000001
 43
0.0000001
 44
0.0000000001
 40
0.0
 40
0.0
 40
0.0
 40
0.0
 40
0.2129668983
 40
1.0
 40
1.0
 40
1.0
 40
1.0
 10
705.684344722
 20
238.1794127285
 30
0.0
 10
705.6916462354
 20
238.1782972784
 30
0.0
 10
705.7259962531
 20
238.1734895701
 30
0.0
 10
705.7605835664
 20
238.1704433149
 30
0.0
 10
705.7878313613
 20
238.1688171113
 30
0.0
  0
SPLINE
  5
530
100
AcDbEntity
  8
KONSTRUKTIONSELEMENTE
100
AcDbSpline
 62
7
  6
CONTINUOUS
 70
0
 71
3
 72
9
 73
5
 74
0
 42
0.0000001
 43
0.0000001
 44
0.0000000001
 40
0.0
 40
0.0
 40
0.0
 40
0.0
 40
0.4751668021
 40
1.0
 40
1.0
 40
1.0
 40
1.0
 10
710.9291032811
 20
240.2060609372
 30
0.0
 10
711.6400016204
 20
240.6533968506
 30
0.0
 10
713.0913433935
 20
241.666537288
 30
0.0
 10
714.4638537195
 20
242.7827252676
 30
0.0
 10
715.1651480734
 20
243.3900639936
 30
0.0
  0
SPLINE
  5
531
100
AcDbEntity
  8
KONSTRUKTIONSELEMENTE
100
AcDbSpline
 62
7
  6
CONTINUOUS
 70
0
 71
3
 72
17
 73
13
 74
0
 42
0.0000001
 43
0.0000001
 44
0.0000000001
 40
0.0
 40
0.0
 40
0.0
 40
0.0
 40
0.054272456
 40
0.1081063965
 40
0.1614219537
 40
0.2144031746
 40
0.3216905582
 40
0.4354499083
 40
0.5594736346
 40
0.6952881283
 40
0.8426555219
 40
1.0
 40
1.0
 40
1.0
 40
1.0
 10
732.5115004809
 20
269.1377741927
 30
0.0
 10
732.24397464
 20
269.3689859885
 30
0.0
 10
731.666227866
 20
269.7806558446
 30
0.0
 10
730.705066818
 20
270.2208822395
 30
0.0
 10
729.6919583189
 20
270.4891184262
 30
0.0
 10
728.3032492382
 20
270.6329425632
 30
0.0
 10
726.508929592
 20
270.4596572699
 30
0.0
 10
724.3451287928
 20
269.8183361462
 30
0.0
 10
722.1226605035
 20
268.8116075306
 30
0.0
 10
719.8300031723
 20
267.469245921
 30
0.0
 10
717.4806740947
 20
265.8159062844
 30
0.0
 10
715.9400706849
 20
264.5611666611
 30
0.0
 10
715.1651480734
 20
263.8900639936
 30
0.0
  0
SPLINE
  5
532
100
AcDbEntity
  8
KONSTRUKTIONSELEMENTE
100
AcDbSpline
 62
7
  6
CONTINUOUS
 70
0
 71
3
 72
21
 73
17
 74
0
 42
0.0000001
 43
0.0000001
 44
0.0000000001
 40
0.0
 40
0.0
 40
0.0
 40
0.0
 40
0.162330695
 40
0.3306430881
 40
0.496728874
 40
0.6523814433
 40
0.7894763847
 40
0.8485252566
 40
0.8997431222
 40
0.9418632845
 40
0.9590723476
 40
0.9734522828
 40
0.984800752
 40
0.993021243
 40
0.9980485772
 40
1.0
 40
1.0
 40
1.0
 40
1.0
 10
719.0930700976
 20
259.3544903175
 30
0.0
 10
718.0388786255
 20
258.4415337222
 30
0.0
 10
715.9770132732
 20
256.4818628975
 30
0.0
 10
713.1241102325
 20
253.3030571899
 30
0.0
 10
710.5614177433
 20
249.9569518851
 30
0.0
 10
708.431089125
 20
246.6349974177
 30
0.0
 10
707.0488212261
 20
243.9391118409
 30
0.0
 10
706.2731241556
 20
241.9587360916
 30
0.0
 10
705.8923940159
 20
240.7047343658
 30
0.0
 10
705.7029952682
 20
239.7717379474
 30
0.0
 10
705.6399263395
 20
239.1412288667
 30
0.0
 10
705.6288574836
 20
238.7721147117
 30
0.0
 10
705.6452312867
 20
238.4805983139
 30
0.0
 10
705.6772149514
 20
238.2711625109
 30
0.0
 10
705.7099197043
 20
238.1448844731
 30
0.0
 10
705.728996417
 20
238.0876485193
 30
0.0
 10
705.7368172631
 20
238.0728201322
 30
0.0
  0
SPLINE
  5
533
100
AcDbEntity
  8
KONSTRUKTIONSELEMENTE
100
AcDbSpline
 62
7
  6
CONTINUOUS
 70
0
 71
3
 72
11
 73
7
 74
0
 42
0.0000001
 43
0.0000001
 44
0.0000000001
 40
0.0
 40
0.0
 40
0.0
 40
0.0
 40
0.2097914905
 40
0.4448755675
 40
0.7092742741
 40
1.0
 40
1.0
 40
1.0
 40
1.0
 10
706.9960917405
 20
232.2345311771
 30
0.0
 10
707.9647734329
 20
232.3535237669
 30
0.0
 10
709.9819554377
 20
232.9077708167
 30
0.0
 10
712.9613410209
 20
234.3471464869
 30
0.0
 10
716.0503181123
 20
236.3545569822
 30
0.0
 10
718.0706959691
 20
237.96908835
 30
0.0
 10
719.0930700976
 20
238.8544903175
 30
0.0
  0
SPLINE
  5
534
100
AcDbEntity
  8
BEZUGSACHSEN
100
AcDbSpline
 62
7
  6
CONTINUOUS
 70
0
 71
3
 72
8
 73
4
 74
0
 42
0.0000001
 43
0.0000001
 44
0.0000000001
 40
0.0
 40
0.0
 40
0.0
 40
0.0
 40
1.0
 40
1.0
 40
1.0
 40
1.0
 10
740.7528694513
 20
274.520058864
 30
0.0
 10
740.7512015131
 20
274.5133707183
 30
0.0
 10
740.7512009574
 20
274.5060682748
 30
0.0
 10
740.7528679529
 20
274.4993798941
 30
0.0
  0
LINE
  5
535
100
AcDbEntity
  8
BEZUGSACHSEN
100
AcDbLine
 62
7
  6
CONTINUOUS
 10
739.5729526172
 20
268.9257917022
 11
739.56276881
 21
268.89013996
  0
LINE
  5
536
100
AcDbEntity
  8
BEZUGSACHSEN
100
AcDbLine
 62
7
  6
CONTINUOUS
 10
739.56276881
 20
268.89013996
 11
739.4494002443
 21
268.4927035342
  0
LINE
  5
537
100
AcDbEntity
  8
BEZUGSACHSEN
100
AcDbLine
 62
7
  6
CONTINUOUS
 10
739.4324569207
 20
267.4670499671
 11
739.6296022779
 21
268.2179118702
  0
LINE
  5
538
100
AcDbEntity
  8
BEZUGSACHSEN
100
AcDbLine
 62
7
  6
CONTINUOUS
 10
739.6296022779
 20
268.2179118702
 11
739.6428434007
 21
268.2683419007
  0
LINE
  5
539
100
AcDbEntity
  8
BEZUGSACHSEN
100
AcDbLine
 62
7
  6
CONTINUOUS
 10
739.4737351832
 20
269.1917168953
 11
739.4896498784
 21
269.2661610952
  0
SPLINE
  5
53A
100
AcDbEntity
  8
BEZUGSACHSEN
100
AcDbSpline
 62
7
  6
CONTINUOUS
 70
0
 71
3
 72
8
 73
4
 74
0
 42
0.0000001
 43
0.0000001
 44
0.0000000001
 40
0.0
 40
0.0
 40
0.0
 40
0.0
 40
1.0
 40
1.0
 40
1.0
 40
1.0
 10
740.9553159983
 20
275.3084751596
 30
0.0
 10
740.9501921174
 20
275.30186096
 30
0.0
 10
740.9458977211
 20
275.2942530549
 30
0.0
 10
740.9438736289
 20
275.2861348752
 30
0.0
  0
LINE
  5
53B
100
AcDbEntity
  8
BEZUGSACHSEN
100
AcDbLine
 62
7
  6
CONTINUOUS
 10
740.7234765815
 20
274.36453069
 11
740.6928522763
 21
274.233969653
  0
LINE
  5
53C
100
AcDbEntity
  8
BEZUGSACHSEN
100
AcDbLine
 62
7
  6
CONTINUOUS
 10
739.7402997721
 20
270.4022992683
 11
739.8381146232
 21
270.7816128021
  0
LINE
  5
53D
100
AcDbEntity
  8
BEZUGSACHSEN
100
AcDbLine
 62
7
  6
CONTINUOUS
 10
739.6736662479
 20
270.1524275437
 11
739.6901930284
 21
270.2146670125
  0
SPLINE
  5
53E
100
AcDbEntity
  8
BEZUGSACHSEN
100
AcDbSpline
 62
7
  6
CONTINUOUS
 70
0
 71
3
 72
9
 73
5
 74
0
 42
0.0000001
 43
0.0000001
 44
0.0000000001
 40
0.0
 40
0.0
 40
0.0
 40
0.0
 40
0.5113161758
 40
1.0
 40
1.0
 40
1.0
 40
1.0
 10
739.6443785134
 20
270.0644416398
 30
0.0
 10
739.6435655493
 20
270.0631229035
 30
0.0
 10
739.6420775791
 20
270.060478991
 30
0.0
 10
739.6408334536
 20
270.057710738
 30
0.0
 10
739.640294828
 20
270.0563315714
 30
0.0
  0
LINE
  5
53F
100
AcDbEntity
  8
BEZUGSACHSEN
100
AcDbLine
 62
7
  6
CONTINUOUS
 10
739.640294828
 20
270.0563315714
 11
739.6386753507
 21
270.051270419
  0
LINE
  5
540
100
AcDbEntity
  8
BEZUGSACHSEN
100
AcDbLine
 62
7
  6
CONTINUOUS
 10
739.6443785134
 20
270.0644416398
 11
739.666728849
 21
270.1541559053
  0
LINE
  5
541
100
AcDbEntity
  8
BEZUGSACHSEN
100
AcDbLine
 62
7
  6
CONTINUOUS
 10
739.666728849
 20
270.1541559053
 11
739.7292357287
 21
270.405055729
  0
LINE
  5
542
100
AcDbEntity
  8
BEZUGSACHSEN
100
AcDbLine
 62
7
  6
CONTINUOUS
 10
739.7292357287
 20
270.405055729
 11
739.8239300496
 21
270.7851467018
  0
LINE
  5
543
100
AcDbEntity
  8
BEZUGSACHSEN
100
AcDbLine
 62
7
  6
CONTINUOUS
 10
739.8239300496
 20
270.7851467018
 11
739.9187317562
 21
271.1656595906
  0
LINE
  5
544
100
AcDbEntity
  8
BEZUGSACHSEN
100
AcDbLine
 62
7
  6
CONTINUOUS
 10
739.9187317562
 20
271.1656595906
 11
739.9507833812
 21
271.2943056553
  0
LINE
  5
545
100
AcDbEntity
  8
BEZUGSACHSEN
100
AcDbLine
 62
7
  6
CONTINUOUS
 10
739.9507833812
 20
271.2943056553
 11
740.4278086535
 21
273.2088386225
  0
LINE
  5
546
100
AcDbEntity
  8
BEZUGSACHSEN
100
AcDbLine
 62
7
  6
CONTINUOUS
 10
740.4278086535
 20
273.2088386225
 11
740.4752791839
 21
273.3993503101
  0
LINE
  5
547
100
AcDbEntity
  8
BEZUGSACHSEN
100
AcDbLine
 62
7
  6
CONTINUOUS
 10
740.4752791839
 20
273.3993503101
 11
740.5553752202
 21
273.7207927173
  0
LINE
  5
548
100
AcDbEntity
  8
BEZUGSACHSEN
100
AcDbLine
 62
7
  6
CONTINUOUS
 10
740.5553752202
 20
273.7207927173
 11
740.6515080782
 21
274.1065878658
  0
LINE
  5
549
100
AcDbEntity
  8
BEZUGSACHSEN
100
AcDbLine
 62
7
  6
CONTINUOUS
 10
740.6515080782
 20
274.1065878658
 11
740.7162332568
 21
274.3663355977
  0
LINE
  5
54A
100
AcDbEntity
  8
BEZUGSACHSEN
100
AcDbLine
 62
7
  6
CONTINUOUS
 10
740.7162332568
 20
274.3663355977
 11
740.7495897147
 21
274.5001967727
  0
SPLINE
  5
54B
100
AcDbEntity
  8
BEZUGSACHSEN
100
AcDbSpline
 62
7
  6
CONTINUOUS
 70
0
 71
3
 72
8
 73
4
 74
0
 42
0.0000001
 43
0.0000001
 44
0.0000000001
 40
0.0
 40
0.0
 40
0.0
 40
0.0
 40
1.0
 40
1.0
 40
1.0
 40
1.0
 10
740.9438736289
 20
275.2861348752
 30
0.0
 10
740.9421867661
 20
275.2793692473
 30
0.0
 10
740.9421631739
 20
275.271991416
 30
0.0
 10
740.9438132241
 20
275.265216716
 30
0.0
  0
SPLINE
  5
54C
100
AcDbEntity
  8
BEZUGSACHSEN
100
AcDbSpline
 62
7
  6
CONTINUOUS
 70
0
 71
3
 72
9
 73
5
 74
0
 42
0.0000001
 43
0.0000001
 44
0.0000000001
 40
0.0
 40
0.0
 40
0.0
 40
0.0
 40
0.5035926131
 40
1.0
 40
1.0
 40
1.0
 40
1.0
 10
739.6386753507
 20
270.051270419
 30
0.0
 10
739.6382186505
 20
270.04943922
 30
0.0
 10
739.6375745943
 20
270.0457309618
 30
0.0
 10
739.6375148053
 20
270.0419664415
 30
0.0
 10
739.6376301034
 20
270.0401096552
 30
0.0
  0
SPLINE
  5
54D
100
AcDbEntity
  8
BEZUGSACHSEN
100
AcDbSpline
 62
7
  6
CONTINUOUS
 70
0
 71
3
 72
9
 73
5
 74
0
 42
0.0000001
 43
0.0000001
 44
0.0000000001
 40
0.0
 40
0.0
 40
0.0
 40
0.0
 40
0.4952047052
 40
1.0
 40
1.0
 40
1.0
 40
1.0
 10
739.6376301034
 20
270.0401096552
 30
0.0
 10
739.6377144819
 20
270.0387508031
 30
0.0
 10
739.6380412359
 20
270.0360144126
 30
0.0
 10
739.6386672931
 20
270.0333312755
 30
0.0
 10
739.6390519398
 20
270.0319978071
 30
0.0
  0
LINE
  5
54E
100
AcDbEntity
  8
BEZUGSACHSEN
100
AcDbLine
 62
7
  6
CONTINUOUS
 10
739.6852152707
 20
270.1362056274
 11
739.8157459394
 21
270.6431587209
  0
LINE
  5
54F
100
AcDbEntity
  8
BEZUGSACHSEN
100
AcDbLine
 62
7
  6
CONTINUOUS
 10
739.8157459394
 20
270.6431587209
 11
739.976320609
 21
271.2795536442
  0
LINE
  5
550
100
AcDbEntity
  8
BEZUGSACHSEN
100
AcDbLine
 62
7
  6
CONTINUOUS
 10
740.4525190093
 20
273.1941458778
 11
739.976320609
 21
271.2795536442
  0
LINE
  5
551
100
AcDbEntity
  8
BEZUGSACHSEN
100
AcDbLine
 62
7
  6
CONTINUOUS
 10
740.6095916185
 20
273.8341460152
 11
740.4525190093
 21
273.1941458778
  0
LINE
  5
552
100
AcDbEntity
  8
BEZUGSACHSEN
100
AcDbLine
 62
7
  6
CONTINUOUS
 10
740.7335422732
 20
274.3483087737
 11
740.6095916185
 21
273.8341460152
  0
LINE
  5
553
100
AcDbEntity
  8
BEZUGSACHSEN
100
AcDbLine
 62
7
  6
CONTINUOUS
 10
740.7366190623
 20
274.3614489871
 11
740.7335422732
 21
274.3483087737
  0
SPLINE
  5
554
100
AcDbEntity
  8
KONSTRUKTIONSELEMENTE
100
AcDbSpline
 62
7
  6
CONTINUOUS
 70
0
 71
3
 72
9
 73
5
 74
0
 42
0.0000001
 43
0.0000001
 44
0.0000000001
 40
0.0
 40
0.0
 40
0.0
 40
0.0
 40
0.2415875307
 40
1.0
 40
1.0
 40
1.0
 40
1.0
 10
762.6023507243
 20
199.6542699499
 30
0.0
 10
762.7674846814
 20
199.9001150444
 30
0.0
 10
763.4320060429
 20
200.9305412721
 30
0.0
 10
764.0312475154
 20
202.0017501791
 30
0.0
 10
764.4648149077
 20
202.8241870103
 30
0.0
  0
SPLINE
  5
555
100
AcDbEntity
  8
0
100
AcDbSpline
 62
7
  6
CONTINUOUS
 70
0
 71
3
 72
13
 73
9
 74
0
 42
0.0000001
 43
0.0000001
 44
0.0000000001
 40
0.0
 40
0.0
 40
0.0
 40
0.0
 40
0.1163022989
 40
0.2340384143
 40
0.3543787598
 40
0.4780390196
 40
0.7344045068
 40
1.0
 40
1.0
 40
1.0
 40
1.0
 10
754.6811471034
 20
214.6762353999
 30
0.0
 10
754.6811407688
 20
214.2511360546
 30
0.0
 10
754.5829635379
 20
213.3926102312
 30
0.0
 10
754.1488141804
 20
212.1615556461
 30
0.0
 10
753.4458651266
 20
211.0296992399
 30
0.0
 10
752.1766677995
 20
209.697530671
 30
0.0
 10
750.0753773738
 20
208.5033426461
 30
0.0
 10
748.1519317963
 20
208.1812059402
 30
0.0
 10
747.1811472859
 20
208.1812059402
 30
0.0
  0
SPLINE
  5
556
100
AcDbEntity
  8
BEZUGSACHSEN
100
AcDbSpline
 62
7
  6
CONTINUOUS
 70
0
 71
3
 72
8
 73
4
 74
0
 42
0.0000001
 43
0.0000001
 44
0.0000000001
 40
0.0
 40
0.0
 40
0.0
 40
0.0
 40
1.0
 40
1.0
 40
1.0
 40
1.0
 10
754.9146241573
 20
269.285191394
 30
0.0
 10
754.9161592414
 20
269.2790346234
 30
0.0
 10
754.915979417
 20
269.2722444593
 30
0.0
 10
754.9141759308
 20
269.2661608958
 30
0.0
  0
SPLINE
  5
557
100
AcDbEntity
  8
0
100
AcDbSpline
 62
7
  6
CONTINUOUS
 70
0
 71
3
 72
13
 73
9
 74
0
 42
0.0000001
 43
0.0000001
 44
0.0000000001
 40
0.0
 40
0.0
 40
0.0
 40
0.0
 40
0.2655954932
 40
0.5219609804
 40
0.6456212402
 40
0.7659615857
 40
0.8836977011
 40
1.0
 40
1.0
 40
1.0
 40
1.0
 10
747.1811472859
 20
208.1812059402
 30
0.0
 10
746.2103627755
 20
208.1812059402
 30
0.0
 10
744.2869171981
 20
208.5033426461
 30
0.0
 10
742.1856267724
 20
209.697530671
 30
0.0
 10
740.9164294452
 20
211.0296992399
 30
0.0
 10
740.2134803914
 20
212.1615556461
 30
0.0
 10
739.779331034
 20
213.3926102312
 30
0.0
 10
739.6811538031
 20
214.2511360546
 30
0.0
 10
739.6811474684
 20
214.6762353999
 30
0.0
  0
SPLINE
  5
558
100
AcDbEntity
  8
KONSTRUKTIONSELEMENTE
100
AcDbSpline
 62
7
  6
CONTINUOUS
 70
0
 71
3
 72
10
 73
6
 74
0
 42
0.0000001
 43
0.0000001
 44
0.0000000001
 40
0.0
 40
0.0
 40
0.0
 40
0.0
 40
0.4958514465
 40
0.7559167494
 40
1.0
 40
1.0
 40
1.0
 40
1.0
 10
763.8479829749
 20
201.691943477
 30
0.0
 10
764.1794970138
 20
200.7343104035
 30
0.0
 10
764.656342445
 20
199.2615629035
 30
0.0
 10
765.0820097268
 20
197.2606630472
 30
0.0
 10
765.1811472859
 20
196.2303218157
 30
0.0
 10
765.1811472859
 20
195.7314790012
 30
0.0
  0
SPLINE
  5
559
100
AcDbEntity
  8
KONSTRUKTIONSELEMENTE
100
AcDbSpline
 62
7
  6
CONTINUOUS
 70
0
 71
3
 72
9
 73
5
 74
0
 42
0.0000001
 43
0.0000001
 44
0.0000000001
 40
0.0
 40
0.0
 40
0.0
 40
0.0
 40
0.554631862
 40
1.0
 40
1.0
 40
1.0
 40
1.0
 10
764.4648149077
 20
202.8241870103
 30
0.0
 10
764.6742336055
 20
203.2214347123
 30
0.0
 10
765.0076676745
 20
203.9614904107
 30
0.0
 10
765.1811472859
 20
204.7677702734
 30
0.0
 10
765.1811472859
 20
205.1283707417
 30
0.0
  0
LINE
  5
55A
100
AcDbEntity
  8
0
100
AcDbLine
 62
7
  6
CONTINUOUS
 10
739.4924036833
 20
238.6357061662
 11
739.4867623542
 21
238.6294723979
  0
SPLINE
  5
55B
100
AcDbEntity
  8
0
100
AcDbSpline
 62
7
  6
CONTINUOUS
 70
0
 71
3
 72
9
 73
5
 74
0
 42
0.0000001
 43
0.0000001
 44
0.0000000001
 40
0.0
 40
0.0
 40
0.0
 40
0.0
 40
0.498849579
 40
1.0
 40
1.0
 40
1.0
 40
1.0
 10
729.1811472859
 20
180.5490825105
 30
0.0
 10
729.1811472859
 20
180.1520195948
 30
0.0
 10
729.2941755389
 20
179.3520950028
 30
0.0
 10
729.6231520206
 20
178.6150716967
 30
0.0
 10
729.8324851431
 20
178.2755186134
 30
0.0
  0
SPLINE
  5
55C
100
AcDbEntity
  8
0
100
AcDbSpline
 62
7
  6
CONTINUOUS
 70
0
 71
3
 72
9
 73
5
 74
0
 42
0.0000001
 43
0.0000001
 44
0.0000000001
 40
0.0
 40
0.0
 40
0.0
 40
0.0
 40
0.5028158989
 40
1.0
 40
1.0
 40
1.0
 40
1.0
 10
730.588843467
 20
224.5896444383
 30
0.0
 10
730.1390731636
 20
223.9149889833
 30
0.0
 10
729.4276945938
 20
222.4396004465
 30
0.0
 10
729.1811472859
 20
220.817895606
 30
0.0
 10
729.1811472859
 20
220.0161424308
 30
0.0
  0
SPLINE
  5
55D
100
AcDbEntity
  8
0
100
AcDbSpline
 62
7
  6
CONTINUOUS
 70
0
 71
3
 72
9
 73
5
 74
0
 42
0.0000001
 43
0.0000001
 44
0.0000000001
 40
0.0
 40
0.0
 40
0.0
 40
0.0
 40
0.2470538752
 40
1.0
 40
1.0
 40
1.0
 40
1.0
 10
742.7254354608
 20
280.3160710585
 30
0.0
 10
742.7437097454
 20
280.3893440643
 30
0.0
 10
742.822103641
 20
280.6848192141
 30
0.0
 10
742.9175842327
 20
280.9756865137
 30
0.0
 10
742.9975587655
 20
281.1914993137
 30
0.0
  0
LINE
  5
55E
100
AcDbEntity
  8
RUNDUNGEN
100
AcDbLine
 62
7
  6
CONTINUOUS
 10
754.8665352294
 20
238.639417964
 11
754.8751029187
 21
238.6299465048
  0
SPLINE
  5
55F
100
AcDbEntity
  8
RUNDUNGEN
100
AcDbSpline
 62
7
  6
CONTINUOUS
 70
0
 71
3
 72
9
 73
5
 74
0
 42
0.0000001
 43
0.0000001
 44
0.0000000001
 40
0.0
 40
0.0
 40
0.0
 40
0.0
 40
0.4990356833
 40
1.0
 40
1.0
 40
1.0
 40
1.0
 10
765.1811472859
 20
180.5490825105
 30
0.0
 10
765.1811472859
 20
180.1850468673
 30
0.0
 10
765.0863862786
 20
179.452516778
 30
0.0
 10
764.8091768171
 20
178.7684075197
 30
0.0
 10
764.631513107
 20
178.4490584073
 30
0.0
  0
SPLINE
  5
560
100
AcDbEntity
  8
0
100
AcDbSpline
 62
7
  6
CONTINUOUS
 70
0
 71
3
 72
9
 73
5
 74
0
 42
0.0000001
 43
0.0000001
 44
0.0000000001
 40
0.0
 40
0.0
 40
0.0
 40
0.0
 40
0.2470390465
 40
1.0
 40
1.0
 40
1.0
 40
1.0
 10
731.7599438475
 20
199.6542699499
 30
0.0
 10
732.0047255138
 20
199.2898484042
 30
0.0
 10
733.056211091
 20
197.8560227449
 30
0.0
 10
734.3427747552
 20
196.597101596
 30
0.0
 10
735.3996108828
 20
195.7764503958
 30
0.0
  0
SPLINE
  5
561
100
AcDbEntity
  8
RUNDUNGEN
100
AcDbSpline
 62
7
  6
CONTINUOUS
 70
0
 71
3
 72
9
 73
5
 74
0
 42
0.0000001
 43
0.0000001
 44
0.0000000001
 40
0.0
 40
0.0
 40
0.0
 40
0.0
 40
0.5028158989
 40
1.0
 40
1.0
 40
1.0
 40
1.0
 10
763.7734511049
 20
224.5896444383
 30
0.0
 10
764.2232214082
 20
223.9149889833
 30
0.0
 10
764.9345999781
 20
222.4396004465
 30
0.0
 10
765.1811472859
 20
220.817895606
 30
0.0
 10
765.1811472859
 20
220.0161424308
 30
0.0
  0
SPLINE
  5
562
100
AcDbEntity
  8
0
100
AcDbSpline
 62
7
  6
CONTINUOUS
 70
0
 71
3
 72
15
 73
11
 74
0
 42
0.0000001
 43
0.0000001
 44
0.0000000001
 40
0.0
 40
0.0
 40
0.0
 40
0.0
 40
0.1179873313
 40
0.2411539706
 40
0.369148516
 40
0.5
 40
0.630851484
 40
0.7588460294
 40
0.8820126687
 40
1.0
 40
1.0
 40
1.0
 40
1.0
 10
733.5192366193
 20
197.4756741495
 30
0.0
 10
734.0360745386
 20
196.2567221322
 30
0.0
 10
735.5352814771
 20
193.9350680771
 30
0.0
 10
738.7932221984
 20
191.2827706481
 30
0.0
 10
742.7951714952
 20
189.5984735596
 30
0.0
 10
747.1811472859
 20
189.0224514422
 30
0.0
 10
751.5671230766
 20
189.5984735596
 30
0.0
 10
755.5690723735
 20
191.2827706481
 30
0.0
 10
758.8270130948
 20
193.9350680771
 30
0.0
 10
760.3262200332
 20
196.2567221322
 30
0.0
 10
760.8430579525
 20
197.4756741495
 30
0.0
  0
SPLINE
  5
563
100
AcDbEntity
  8
0
100
AcDbSpline
 62
7
  6
CONTINUOUS
 70
0
 71
3
 72
9
 73
5
 74
0
 42
0.0000001
 43
0.0000001
 44
0.0000000001
 40
0.0
 40
0.0
 40
0.0
 40
0.0
 40
0.2536916473
 40
1.0
 40
1.0
 40
1.0
 40
1.0
 10
758.9594957266
 20
195.7739754748
 30
0.0
 10
759.3158887346
 20
196.050589661
 30
0.0
 10
760.6784203667
 20
197.1940991471
 30
0.0
 10
761.8623331219
 20
198.5525601585
 30
0.0
 10
762.6023507243
 20
199.6542699499
 30
0.0
  0
SPLINE
  5
564
100
AcDbEntity
  8
0
100
AcDbSpline
 62
7
  6
CONTINUOUS
 70
0
 71
3
 72
9
 73
5
 74
0
 42
0.0000001
 43
0.0000001
 44
0.0000000001
 40
0.0
 40
0.0
 40
0.0
 40
0.0
 40
0.2470538752
 40
1.0
 40
1.0
 40
1.0
 40
1.0
 10
751.6368591111
 20
280.3160710585
 30
0.0
 10
751.6185848264
 20
280.3893440643
 30
0.0
 10
751.5401909308
 20
280.6848192141
 30
0.0
 10
751.4447103391
 20
280.9756865137
 30
0.0
 10
751.3647358064
 20
281.1914993137
 30
0.0
  0
SPLINE
  5
565
100
AcDbEntity
  8
0
100
AcDbSpline
 62
7
  6
CONTINUOUS
 70
0
 71
3
 72
9
 73
5
 74
0
 42
0.0000001
 43
0.0000001
 44
0.0000000001
 40
0.0
 40
0.0
 40
0.0
 40
0.0
 40
0.2415875307
 40
1.0
 40
1.0
 40
1.0
 40
1.0
 10
731.7599438475
 20
199.6542699499
 30
0.0
 10
731.5948098904
 20
199.9001150444
 30
0.0
 10
730.9302885289
 20
200.9305412721
 30
0.0
 10
730.3310470564
 20
202.0017501791
 30
0.0
 10
729.8974796641
 20
202.8241870103
 30
0.0
  0
SPLINE
  5
566
100
AcDbEntity
  8
0
100
AcDbSpline
 62
7
  6
CONTINUOUS
 70
0
 71
3
 72
10
 73
6
 74
0
 42
0.0000001
 43
0.0000001
 44
0.0000000001
 40
0.0
 40
0.0
 40
0.0
 40
0.0
 40
0.4958514465
 40
0.7559167494
 40
1.0
 40
1.0
 40
1.0
 40
1.0
 10
730.5143115969
 20
201.691943477
 30
0.0
 10
730.1827975581
 20
200.7343104035
 30
0.0
 10
729.7059521268
 20
199.2615629035
 30
0.0
 10
729.280284845
 20
197.2606630472
 30
0.0
 10
729.1811472859
 20
196.2303218157
 30
0.0
 10
729.1811472859
 20
195.7314790012
 30
0.0
  0
SPLINE
  5
567
100
AcDbEntity
  8
0
100
AcDbSpline
 62
7
  6
CONTINUOUS
 70
0
 71
3
 72
9
 73
5
 74
0
 42
0.0000001
 43
0.0000001
 44
0.0000000001
 40
0.0
 40
0.0
 40
0.0
 40
0.0
 40
0.554631862
 40
1.0
 40
1.0
 40
1.0
 40
1.0
 10
729.8974796641
 20
202.8241870103
 30
0.0
 10
729.6880609663
 20
203.2214347123
 30
0.0
 10
729.3546268973
 20
203.9614904107
 30
0.0
 10
729.1811472859
 20
204.7677702734
 30
0.0
 10
729.1811472859
 20
205.1283707417
 30
0.0
  0
LINE
  5
568
100
AcDbEntity
  8
BEZUGSACHSEN
100
AcDbLine
 62
7
  6
CONTINUOUS
 10
754.1959635528
 20
270.990487101
 11
754.2905229281
 21
270.6629959129
  0
LINE
  5
569
100
AcDbEntity
  8
BEZUGSACHSEN
100
AcDbLine
 62
7
  6
CONTINUOUS
 10
754.2905229281
 20
270.6629959129
 11
754.3170443016
 21
270.5710464958
  0
LINE
  5
56A
100
AcDbEntity
  8
BEZUGSACHSEN
100
AcDbLine
 62
7
  6
CONTINUOUS
 10
754.3170443016
 20
270.5710464958
 11
754.3813383251
 21
270.3479581749
  0
LINE
  5
56B
100
AcDbEntity
  8
BEZUGSACHSEN
100
AcDbLine
 62
7
  6
CONTINUOUS
 10
754.3813383251
 20
270.3479581749
 11
754.4617743144
 21
270.0684889165
  0
LINE
  5
56C
100
AcDbEntity
  8
BEZUGSACHSEN
100
AcDbLine
 62
7
  6
CONTINUOUS
 10
754.127450829
 20
271.3609762221
 11
753.9958399485
 21
271.9416961602
  0
LINE
  5
56D
100
AcDbEntity
  8
BEZUGSACHSEN
100
AcDbLine
 62
7
  6
CONTINUOUS
 10
753.9958399485
 20
271.9416961602
 11
753.8989065617
 21
272.3371714919
  0
LINE
  5
56E
100
AcDbEntity
  8
BEZUGSACHSEN
100
AcDbLine
 62
7
  6
CONTINUOUS
 10
753.7718655867
 20
272.8217367504
 11
753.8989065617
 21
272.3371714919
  0
LINE
  5
56F
100
AcDbEntity
  8
BEZUGSACHSEN
100
AcDbLine
 62
7
  6
CONTINUOUS
 10
753.6781730284
 20
273.1531087972
 11
753.7016824919
 21
273.070000729
  0
LINE
  5
570
100
AcDbEntity
  8
BEZUGSACHSEN
100
AcDbLine
 62
7
  6
CONTINUOUS
 10
753.7016824919
 20
273.070000729
 11
753.7718655867
 21
272.8217367504
  0
LINE
  5
571
100
AcDbEntity
  8
BEZUGSACHSEN
100
AcDbLine
 62
7
  6
CONTINUOUS
 10
753.555335348
 20
273.5415186972
 11
753.6675419999
 21
273.186830128
  0
LINE
  5
572
100
AcDbEntity
  8
BEZUGSACHSEN
100
AcDbLine
 62
7
  6
CONTINUOUS
 10
753.6675419999
 20
273.186830128
 11
753.6781730284
 21
273.1531087972
  0
LINE
  5
573
100
AcDbEntity
  8
BEZUGSACHSEN
100
AcDbLine
 62
7
  6
CONTINUOUS
 10
754.9298376511
 20
267.4670499671
 11
754.2618676878
 21
270.0110161316
  0
LINE
  5
574
100
AcDbEntity
  8
BEZUGSACHSEN
100
AcDbLine
 62
7
  6
CONTINUOUS
 10
754.071005141
 20
270.7378635102
 11
753.5938258751
 21
272.554982296
  0
LINE
  5
575
100
AcDbEntity
  8
BEZUGSACHSEN
100
AcDbLine
 62
7
  6
CONTINUOUS
 10
753.4352375743
 20
275.0763829464
 11
753.52374846
 21
274.7248891301
  0
LINE
  5
576
100
AcDbEntity
  8
BEZUGSACHSEN
100
AcDbLine
 62
7
  6
CONTINUOUS
 10
753.52374846
 20
274.7248891301
 11
753.8058306838
 21
273.6045871155
  0
LINE
  5
577
100
AcDbEntity
  8
BEZUGSACHSEN
100
AcDbLine
 62
7
  6
CONTINUOUS
 10
753.8058306838
 20
273.6045871155
 11
753.9051126274
 21
273.2102464897
  0
LINE
  5
578
100
AcDbEntity
  8
BEZUGSACHSEN
100
AcDbLine
 62
7
  6
CONTINUOUS
 10
753.9051126274
 20
273.2102464897
 11
753.9891508556
 21
272.8764364503
  0
LINE
  5
579
100
AcDbEntity
  8
BEZUGSACHSEN
100
AcDbLine
 62
7
  6
CONTINUOUS
 10
753.9891508556
 20
272.8764364503
 11
754.1114367517
 21
272.3906741446
  0
LINE
  5
57A
100
AcDbEntity
  8
BEZUGSACHSEN
100
AcDbLine
 62
7
  6
CONTINUOUS
 10
754.1114367517
 20
272.3906741446
 11
754.2108331495
 21
271.9958115318
  0
LINE
  5
57B
100
AcDbEntity
  8
BEZUGSACHSEN
100
AcDbLine
 62
7
  6
CONTINUOUS
 10
754.2108331495
 20
271.9958115318
 11
754.3561359451
 21
271.4185379579
  0
LINE
  5
57C
100
AcDbEntity
  8
BEZUGSACHSEN
100
AcDbLine
 62
7
  6
CONTINUOUS
 10
754.3561359451
 20
271.4185379579
 11
754.397310065
 21
271.2549476495
  0
LINE
  5
57D
100
AcDbEntity
  8
BEZUGSACHSEN
100
AcDbLine
 62
7
  6
CONTINUOUS
 10
754.5390167902
 20
270.2999120789
 11
754.6358482012
 21
269.9524961201
  0
LINE
  5
57E
100
AcDbEntity
  8
BEZUGSACHSEN
100
AcDbLine
 62
7
  6
CONTINUOUS
 10
754.4109549229
 20
270.7890184511
 11
754.5390167902
 21
270.2999120789
  0
LINE
  5
57F
100
AcDbEntity
  8
BEZUGSACHSEN
100
AcDbLine
 62
7
  6
CONTINUOUS
 10
754.4109549229
 20
270.7890184511
 11
754.3503385401
 21
271.0294137662
  0
LINE
  5
580
100
AcDbEntity
  8
BEZUGSACHSEN
100
AcDbLine
 62
7
  6
CONTINUOUS
 10
754.3503385401
 20
271.0294137662
 11
754.2584066314
 21
271.3939975838
  0
LINE
  5
581
100
AcDbEntity
  8
BEZUGSACHSEN
100
AcDbLine
 62
7
  6
CONTINUOUS
 10
754.2584066314
 20
271.3939975838
 11
754.1670393068
 21
271.7563376349
  0
LINE
  5
582
100
AcDbEntity
  8
BEZUGSACHSEN
100
AcDbLine
 62
7
  6
CONTINUOUS
 10
754.1670393068
 20
271.7563376349
 11
754.1128582572
 21
271.9712040176
  0
LINE
  5
583
100
AcDbEntity
  8
BEZUGSACHSEN
100
AcDbLine
 62
7
  6
CONTINUOUS
 10
754.1128582572
 20
271.9712040176
 11
754.0133004207
 21
272.3660175556
  0
LINE
  5
584
100
AcDbEntity
  8
BEZUGSACHSEN
100
AcDbLine
 62
7
  6
CONTINUOUS
 10
754.0133004207
 20
272.3660175556
 11
753.921364511
 21
272.7306005232
  0
LINE
  5
585
100
AcDbEntity
  8
BEZUGSACHSEN
100
AcDbLine
 62
7
  6
CONTINUOUS
 10
753.921364511
 20
272.7306005232
 11
753.8908185274
 21
272.8517333833
  0
LINE
  5
586
100
AcDbEntity
  8
BEZUGSACHSEN
100
AcDbLine
 62
7
  6
CONTINUOUS
 10
753.8908185274
 20
272.8517333833
 11
753.8066504317
 21
273.1855072333
  0
LINE
  5
587
100
AcDbEntity
  8
BEZUGSACHSEN
100
AcDbLine
 62
7
  6
CONTINUOUS
 10
753.8066504317
 20
273.1855072333
 11
753.707215427
 21
273.5798186428
  0
LINE
  5
588
100
AcDbEntity
  8
BEZUGSACHSEN
100
AcDbLine
 62
7
  6
CONTINUOUS
 10
753.707215427
 20
273.5798186428
 11
753.6739311005
 21
273.7118072552
  0
LINE
  5
589
100
AcDbEntity
  8
BEZUGSACHSEN
100
AcDbLine
 62
7
  6
CONTINUOUS
 10
753.6739311005
 20
273.7118072552
 11
753.6460138283
 21
273.8225124889
  0
LINE
  5
58A
100
AcDbEntity
  8
BEZUGSACHSEN
100
AcDbLine
 62
7
  6
CONTINUOUS
 10
753.6460138283
 20
273.8225124889
 11
753.4464838155
 21
274.6137337428
  0
LINE
  5
58B
100
AcDbEntity
  8
BEZUGSACHSEN
100
AcDbLine
 62
7
  6
CONTINUOUS
 10
753.4464838155
 20
274.6137337428
 11
753.4247395554
 21
274.6999579492
  0
LINE
  5
58C
100
AcDbEntity
  8
BEZUGSACHSEN
100
AcDbLine
 62
7
  6
CONTINUOUS
 10
754.9235150545
 20
268.9879027259
 11
754.9149894671
 21
269.0388694828
  0
LINE
  5
58D
100
AcDbEntity
  8
BEZUGSACHSEN
100
AcDbLine
 62
7
  6
CONTINUOUS
 10
754.8208019473
 20
269.5061594943
 11
754.7549863961
 21
269.7879837894
  0
LINE
  5
58E
100
AcDbEntity
  8
BEZUGSACHSEN
100
AcDbLine
 62
7
  6
CONTINUOUS
 10
754.7549863961
 20
269.7879837894
 11
754.721687398
 21
269.9300632012
  0
LINE
  5
58F
100
AcDbEntity
  8
BEZUGSACHSEN
100
AcDbLine
 62
7
  6
CONTINUOUS
 10
754.721687398
 20
269.9300632012
 11
754.7122112614
 21
269.9704348114
  0
LINE
  5
590
100
AcDbEntity
  8
BEZUGSACHSEN
100
AcDbLine
 62
7
  6
CONTINUOUS
 10
754.7122112614
 20
269.9704348114
 11
754.688127349
 21
270.0729207474
  0
LINE
  5
591
100
AcDbEntity
  8
BEZUGSACHSEN
100
AcDbLine
 62
7
  6
CONTINUOUS
 10
754.688127349
 20
270.0729207474
 11
754.62321429
 21
270.3398972082
  0
LINE
  5
592
100
AcDbEntity
  8
BEZUGSACHSEN
100
AcDbLine
 62
7
  6
CONTINUOUS
 10
754.62321429
 20
270.3398972082
 11
754.5905749847
 21
270.4740403208
  0
LINE
  5
593
100
AcDbEntity
  8
BEZUGSACHSEN
100
AcDbLine
 62
7
  6
CONTINUOUS
 10
754.5905749847
 20
270.4740403208
 11
754.5578139042
 21
270.6086200389
  0
LINE
  5
594
100
AcDbEntity
  8
BEZUGSACHSEN
100
AcDbLine
 62
7
  6
CONTINUOUS
 10
754.5578139042
 20
270.6086200389
 11
754.5070898823
 21
270.812891312
  0
LINE
  5
595
100
AcDbEntity
  8
BEZUGSACHSEN
100
AcDbLine
 62
7
  6
CONTINUOUS
 10
754.5070898823
 20
270.812891312
 11
754.4777220805
 21
270.9311534245
  0
LINE
  5
596
100
AcDbEntity
  8
BEZUGSACHSEN
100
AcDbLine
 62
7
  6
CONTINUOUS
 10
754.4777220805
 20
270.9311534245
 11
754.397310065
 21
271.2549476495
  0
SPLINE
  5
597
100
AcDbEntity
  8
0
100
AcDbSpline
 62
7
  6
CONTINUOUS
 70
0
 71
3
 72
11
 73
7
 74
0
 42
0.0000001
 43
0.0000001
 44
0.0000000001
 40
0.0
 40
0.0
 40
0.0
 40
0.0
 40
0.2642372364
 40
0.5182086343
 40
0.7622007161
 40
1.0
 40
1.0
 40
1.0
 40
1.0
 10
750.1014729975
 20
220.6589772916
 30
0.0
 10
750.7627302036
 20
220.4168886582
 30
0.0
 10
752.0055683297
 20
219.7705946359
 30
0.0
 10
753.4969645174
 20
218.3497877647
 30
0.0
 10
754.4583816658
 20
216.6037219895
 30
0.0
 10
754.6811565469
 20
215.3099585391
 30
0.0
 10
754.6811471034
 20
214.6762353999
 30
0.0
  0
SPLINE
  5
598
100
AcDbEntity
  8
KONSTRUKTIONSELEMENTE
100
AcDbSpline
 62
7
  6
CONTINUOUS
 70
0
 71
3
 72
9
 73
5
 74
0
 42
0.0000001
 43
0.0000001
 44
0.0000000001
 40
0.0
 40
0.0
 40
0.0
 40
0.0
 40
0.2218857587
 40
1.0
 40
1.0
 40
1.0
 40
1.0
 10
764.4648149077
 20
183.8073713436
 30
0.0
 10
764.3129197992
 20
183.658480374
 30
0.0
 10
763.642643805
 20
182.9729091341
 30
0.0
 10
763.0382891581
 20
182.2239816257
 30
0.0
 10
762.6023507243
 20
181.6187389858
 30
0.0
  0
SPLINE
  5
599
100
AcDbEntity
  8
0
100
AcDbSpline
 62
7
  6
CONTINUOUS
 70
0
 71
3
 72
9
 73
5
 74
0
 42
0.0000001
 43
0.0000001
 44
0.0000000001
 40
0.0
 40
0.0
 40
0.0
 40
0.0
 40
0.5000000002
 40
1.0
 40
1.0
 40
1.0
 40
1.0
 10
742.9975587655
 20
281.1914993137
 30
0.0
 10
742.6886561589
 20
279.5607716053
 30
0.0
 10
742.3441383526
 20
276.2356213187
 30
0.0
 10
742.6886561592
 20
272.9104710321
 30
0.0
 10
742.9975587655
 20
271.2797433251
 30
0.0
  0
SPLINE
  5
59A
100
AcDbEntity
  8
0
100
AcDbSpline
 62
7
  6
CONTINUOUS
 70
0
 71
3
 72
9
 73
5
 74
0
 42
0.0000001
 43
0.0000001
 44
0.0000000001
 40
0.0
 40
0.0
 40
0.0
 40
0.0
 40
0.5001080858
 40
1.0
 40
1.0
 40
1.0
 40
1.0
 10
742.9975587655
 20
271.2797433251
 30
0.0
 10
742.7740608702
 20
268.7675639424
 30
0.0
 10
742.4716898133
 20
263.7298163143
 30
0.0
 10
742.5073526439
 20
258.6824593834
 30
0.0
 10
742.6082830944
 20
256.1634691658
 30
0.0
  0
SPLINE
  5
59B
100
AcDbEntity
  8
0
100
AcDbSpline
 62
7
  6
CONTINUOUS
 70
0
 71
3
 72
19
 73
15
 74
0
 42
0.0000001
 43
0.0000001
 44
0.0000000001
 40
0.0
 40
0.0
 40
0.0
 40
0.0
 40
0.0581529382
 40
0.1170186733
 40
0.1771895919
 40
0.2390194491
 40
0.3672020887
 40
0.5
 40
0.6327979113
 40
0.7609805509
 40
0.8228104081
 40
0.8829813267
 40
0.9418470618
 40
1.0
 40
1.0
 40
1.0
 40
1.0
 10
761.7347882992
 20
194.7196892883
 30
0.0
 10
761.7347882992
 20
193.8947538322
 30
0.0
 10
761.5443551703
 20
192.2287684766
 30
0.0
 10
760.7018740047
 20
189.8399021373
 30
0.0
 10
759.3377788306
 20
187.6434993574
 30
0.0
 10
756.8754523646
 20
185.0583952982
 30
0.0
 10
752.7933745066
 20
182.7410005315
 30
0.0
 10
747.1811472859
 20
181.7977718688
 30
0.0
 10
741.5689200652
 20
182.7410005315
 30
0.0
 10
737.4868422073
 20
185.0583952982
 30
0.0
 10
735.0245157413
 20
187.6434993574
 30
0.0
 10
733.6604205671
 20
189.8399021373
 30
0.0
 10
732.8179394016
 20
192.2287684766
 30
0.0
 10
732.6275062727
 20
193.8947538322
 30
0.0
 10
732.6275062727
 20
194.7196892883
 30
0.0
  0
SPLINE
  5
59C
100
AcDbEntity
  8
0
100
AcDbSpline
 62
7
  6
CONTINUOUS
 70
0
 71
3
 72
9
 73
5
 74
0
 42
0.0000001
 43
0.0000001
 44
0.0000000001
 40
0.0
 40
0.0
 40
0.0
 40
0.0
 40
0.5073891696
 40
1.0
 40
1.0
 40
1.0
 40
1.0
 10
747.1811472859
 20
188.3713983191
 30
0.0
 10
746.2642727115
 20
188.3713983191
 30
0.0
 10
744.4459848724
 20
188.6478877307
 30
0.0
 10
742.7993130766
 20
189.4788937644
 30
0.0
 10
742.0861699862
 20
190.0116494389
 30
0.0
  0
SPLINE
  5
59D
100
AcDbEntity
  8
0
100
AcDbSpline
 62
7
  6
CONTINUOUS
 70
0
 71
3
 72
15
 73
11
 74
0
 42
0.0000001
 43
0.0000001
 44
0.0000000001
 40
0.0
 40
0.0
 40
0.0
 40
0.0
 40
0.1179972678
 40
0.2414548469
 40
0.3694525932
 40
0.5
 40
0.6305474068
 40
0.7585451531
 40
0.8820027322
 40
1.0
 40
1.0
 40
1.0
 40
1.0
 10
762.6023507243
 20
181.6187389858
 30
0.0
 10
761.7909339472
 20
180.492194515
 30
0.0
 10
759.7958755468
 20
178.4145797353
 30
0.0
 10
756.0650855072
 20
176.1078452038
 30
0.0
 10
751.7681136007
 20
174.6655871501
 30
0.0
 10
747.1811472859
 20
174.1757734007
 30
0.0
 10
742.5941809712
 20
174.6655871501
 30
0.0
 10
738.2972090647
 20
176.1078452038
 30
0.0
 10
734.566419025
 20
178.4145797353
 30
0.0
 10
732.5713606247
 20
180.492194515
 30
0.0
 10
731.7599438475
 20
181.6187389858
 30
0.0
  0
SPLINE
  5
59E
100
AcDbEntity
  8
0
100
AcDbSpline
 62
7
  6
CONTINUOUS
 70
0
 71
3
 72
11
 73
7
 74
0
 42
0.0000001
 43
0.0000001
 44
0.0000000001
 40
0.0
 40
0.0
 40
0.0
 40
0.0
 40
0.2377992839
 40
0.4817913657
 40
0.7357627636
 40
1.0
 40
1.0
 40
1.0
 40
1.0
 10
739.6811474684
 20
214.6762353999
 30
0.0
 10
739.681138025
 20
215.3099585391
 30
0.0
 10
739.9039129061
 20
216.6037219895
 30
0.0
 10
740.8653300544
 20
218.3497877647
 30
0.0
 10
742.3567262421
 20
219.7705946359
 30
0.0
 10
743.5995643682
 20
220.4168886582
 30
0.0
 10
744.2608215743
 20
220.6589772916
 30
0.0
  0
SPLINE
  5
59F
100
AcDbEntity
  8
0
100
AcDbSpline
 62
7
  6
CONTINUOUS
 70
0
 71
3
 72
11
 73
7
 74
0
 42
0.0000001
 43
0.0000001
 44
0.0000000001
 40
0.0
 40
0.0
 40
0.0
 40
0.0
 40
0.2470761523
 40
0.4999962979
 40
0.7529185071
 40
1.0
 40
1.0
 40
1.0
 40
1.0
 10
735.3996108828
 20
195.7764503958
 30
0.0
 10
737.0376279868
 20
194.5045022976
 30
0.0
 10
740.8351747748
 20
192.5066478144
 30
0.0
 10
747.1790197036
 20
191.4968154207
 30
0.0
 10
753.5231179193
 20
192.5053280147
 30
0.0
 10
757.3211514548
 20
194.5023757036
 30
0.0
 10
758.9594957266
 20
195.7739754748
 30
0.0
  0
SPLINE
  5
5A0
100
AcDbEntity
  8
KONSTRUKTIONSELEMENTE
100
AcDbSpline
 62
7
  6
CONTINUOUS
 70
0
 71
3
 72
9
 73
5
 74
0
 42
0.0000001
 43
0.0000001
 44
0.0000000001
 40
0.0
 40
0.0
 40
0.0
 40
0.0
 40
0.5552810041
 40
1.0
 40
1.0
 40
1.0
 40
1.0
 10
765.1811472859
 20
185.9697942793
 30
0.0
 10
765.1811472859
 20
185.5399414304
 30
0.0
 10
765.0977575411
 20
184.7578313064
 30
0.0
 10
764.7106659583
 20
184.048360021
 30
0.0
 10
764.4648149077
 20
183.8073713436
 30
0.0
  0
SPLINE
  5
5A1
100
AcDbEntity
  8
0
100
AcDbSpline
 62
7
  6
CONTINUOUS
 70
0
 71
3
 72
9
 73
5
 74
0
 42
0.0000001
 43
0.0000001
 44
0.0000000001
 40
0.0
 40
0.0
 40
0.0
 40
0.0
 40
0.5019420666
 40
1.0
 40
1.0
 40
1.0
 40
1.0
 10
747.1811472859
 20
221.201073335
 30
0.0
 10
747.6800584228
 20
221.201073335
 30
0.0
 10
748.6762285613
 20
221.103388784
 30
0.0
 10
749.6365972998
 20
220.8291699509
 30
0.0
 10
750.1014729975
 20
220.6589772916
 30
0.0
  0
SPLINE
  5
5A2
100
AcDbEntity
  8
0
100
AcDbSpline
 62
7
  6
CONTINUOUS
 70
0
 71
3
 72
9
 73
5
 74
0
 42
0.0000001
 43
0.0000001
 44
0.0000000001
 40
0.0
 40
0.0
 40
0.0
 40
0.0
 40
0.4980582343
 40
1.0
 40
1.0
 40
1.0
 40
1.0
 10
744.2608215743
 20
220.6589772916
 30
0.0
 10
744.7256975528
 20
220.8291700536
 30
0.0
 10
745.6860663167
 20
221.1033888255
 30
0.0
 10
746.6822364484
 20
221.201073335
 30
0.0
 10
747.1811472859
 20
221.201073335
 30
0.0
  0
SPLINE
  5
5A3
100
AcDbEntity
  8
0
100
AcDbSpline
 62
7
  6
CONTINUOUS
 70
0
 71
3
 72
9
 73
5
 74
0
 42
0.0000001
 43
0.0000001
 44
0.0000000001
 40
0.0
 40
0.0
 40
0.0
 40
0.0
 40
0.5078964165
 40
1.0
 40
1.0
 40
1.0
 40
1.0
 10
742.0741991549
 20
222.6799218246
 30
0.0
 10
741.7943886623
 20
222.3075057858
 30
0.0
 10
741.2008943792
 20
221.6059040864
 30
0.0
 10
740.5476319226
 20
220.9602721376
 30
0.0
 10
740.2115894411
 20
220.6589772916
 30
0.0
  0
SPLINE
  5
5A4
100
AcDbEntity
  8
RUNDUNGEN
100
AcDbSpline
 62
7
  6
CONTINUOUS
 70
0
 71
3
 72
9
 73
5
 74
0
 42
0.0000001
 43
0.0000001
 44
0.0000000001
 40
0.0
 40
0.0
 40
0.0
 40
0.0
 40
0.5078964165
 40
1.0
 40
1.0
 40
1.0
 40
1.0
 10
752.2880954169
 20
222.6799218246
 30
0.0
 10
752.5679059096
 20
222.3075057858
 30
0.0
 10
753.1614001927
 20
221.6059040864
 30
0.0
 10
753.8146626493
 20
220.9602721376
 30
0.0
 10
754.1507051307
 20
220.6589772916
 30
0.0
  0
SPLINE
  5
5A5
100
AcDbEntity
  8
0
100
AcDbSpline
 62
7
  6
CONTINUOUS
 70
0
 71
3
 72
9
 73
5
 74
0
 42
0.0000001
 43
0.0000001
 44
0.0000000001
 40
0.0
 40
0.0
 40
0.0
 40
0.0
 40
0.4926108304
 40
1.0
 40
1.0
 40
1.0
 40
1.0
 10
752.2761245856
 20
190.0116494389
 30
0.0
 10
751.5629814953
 20
189.4788937644
 30
0.0
 10
749.9163096994
 20
188.6478877307
 30
0.0
 10
748.0980218604
 20
188.3713983191
 30
0.0
 10
747.1811472859
 20
188.3713983191
 30
0.0
  0
LINE
  5
5A6
100
AcDbEntity
  8
BEZUGSACHSEN
100
AcDbLine
 62
7
  6
CONTINUOUS
 10
754.2645063525
 20
270.5558945576
 11
754.4099870589
 21
270.0539360812
  0
LINE
  5
5A7
100
AcDbEntity
  8
BEZUGSACHSEN
100
AcDbLine
 62
7
  6
CONTINUOUS
 10
754.4099870589
 20
270.0539360812
 11
754.434398657
 21
269.9696007837
  0
SPLINE
  5
5A8
100
AcDbEntity
  8
BEZUGSACHSEN
100
AcDbSpline
 62
7
  6
CONTINUOUS
 70
0
 71
3
 72
8
 73
4
 74
0
 42
0.0000001
 43
0.0000001
 44
0.0000000001
 40
0.0
 40
0.0
 40
0.0
 40
0.0
 40
1.0
 40
1.0
 40
1.0
 40
1.0
 10
754.434398657
 20
269.9696007837
 30
0.0
 10
754.5781800099
 20
269.4727832773
 30
0.0
 10
754.7215240353
 20
268.9758389078
 30
0.0
 10
754.8643423157
 20
268.4787436946
 30
0.0
  0
LINE
  5
5A9
100
AcDbEntity
  8
BEZUGSACHSEN
100
AcDbLine
 62
7
  6
CONTINUOUS
 10
754.8643423157
 20
268.4787436946
 11
754.924757631
 21
268.2683417619
  0
SPLINE
  5
5AA
100
AcDbEntity
  8
0
100
AcDbSpline
 62
7
  6
CONTINUOUS
 70
0
 71
3
 72
9
 73
5
 74
0
 42
0.0000001
 43
0.0000001
 44
0.0000000001
 40
0.0
 40
0.0
 40
0.0
 40
0.0
 40
0.2218857587
 40
1.0
 40
1.0
 40
1.0
 40
1.0
 10
729.8974796641
 20
183.8073713436
 30
0.0
 10
730.0493747726
 20
183.658480374
 30
0.0
 10
730.7196507669
 20
182.9729091341
 30
0.0
 10
731.3240054138
 20
182.2239816257
 30
0.0
 10
731.7599438475
 20
181.6187389858
 30
0.0
  0
LINE
  5
5AB
100
AcDbEntity
  8
BEZUGSACHSEN
100
AcDbLine
 62
7
  6
CONTINUOUS
 10
754.9223763378
 20
267.274739929
 11
754.875665365
 21
267.4528412781
  0
LINE
  5
5AC
100
AcDbEntity
  8
BEZUGSACHSEN
100
AcDbLine
 62
7
  6
CONTINUOUS
 10
754.875665365
 20
267.4528412781
 11
754.2083007623
 21
269.9969631997
  0
LINE
  5
5AD
100
AcDbEntity
  8
BEZUGSACHSEN
100
AcDbLine
 62
7
  6
CONTINUOUS
 10
754.2083007623
 20
269.9969631997
 11
754.1864122213
 21
270.0803942024
  0
LINE
  5
5AE
100
AcDbEntity
  8
BEZUGSACHSEN
100
AcDbLine
 62
7
  6
CONTINUOUS
 10
754.1864122213
 20
270.0803942024
 11
754.0747229658
 21
270.5061012992
  0
LINE
  5
5AF
100
AcDbEntity
  8
BEZUGSACHSEN
100
AcDbLine
 62
7
  6
CONTINUOUS
 10
754.0747229658
 20
270.5061012992
 11
754.0175923324
 21
270.7238496083
  0
LINE
  5
5B0
100
AcDbEntity
  8
BEZUGSACHSEN
100
AcDbLine
 62
7
  6
CONTINUOUS
 10
754.0175923324
 20
270.7238496083
 11
753.5407671587
 21
272.5410589024
  0
LINE
  5
5B1
100
AcDbEntity
  8
BEZUGSACHSEN
100
AcDbLine
 62
7
  6
CONTINUOUS
 10
753.5407671587
 20
272.5410589024
 11
753.428630482
 21
272.9683784068
  0
SPLINE
  5
5B2
100
AcDbEntity
  8
KONSTRUKTIONSELEMENTE
100
AcDbSpline
 62
7
  6
CONTINUOUS
 70
0
 71
3
 72
8
 73
4
 74
0
 42
0.0000001
 43
0.0000001
 44
0.0000000001
 40
0.0
 40
0.0
 40
0.0
 40
0.0
 40
1.0
 40
1.0
 40
1.0
 40
1.0
 10
752.8791350283
 20
272.9683784068
 30
0.0
 10
753.3769434217
 20
271.0705438412
 30
0.0
 10
753.8746180013
 20
269.1726741599
 30
0.0
 10
754.3720462778
 20
267.274739929
 30
0.0
  0
LINE
  5
5B3
100
AcDbEntity
  8
BEZUGSACHSEN
100
AcDbLine
 62
7
  6
CONTINUOUS
 10
753.6244703206
 20
273.1389778421
 11
753.6553969286
 21
273.0496635504
  0
LINE
  5
5B4
100
AcDbEntity
  8
BEZUGSACHSEN
100
AcDbLine
 62
7
  6
CONTINUOUS
 10
753.6553969286
 20
273.0496635504
 11
753.6707694344
 21
273.0051749652
  0
LINE
  5
5B5
100
AcDbEntity
  8
BEZUGSACHSEN
100
AcDbLine
 62
7
  6
CONTINUOUS
 10
753.6707694344
 20
273.0051749652
 11
753.6860814611
 21
272.9607987591
  0
LINE
  5
5B6
100
AcDbEntity
  8
BEZUGSACHSEN
100
AcDbLine
 62
7
  6
CONTINUOUS
 10
753.6860814611
 20
272.9607987591
 11
753.7333243473
 21
272.7947721657
  0
LINE
  5
5B7
100
AcDbEntity
  8
BEZUGSACHSEN
100
AcDbLine
 62
7
  6
CONTINUOUS
 10
753.7333243473
 20
272.7947721657
 11
753.7803463993
 21
272.6294267123
  0
LINE
  5
5B8
100
AcDbEntity
  8
BEZUGSACHSEN
100
AcDbLine
 62
7
  6
CONTINUOUS
 10
753.7803463993
 20
272.6294267123
 11
753.8757299318
 21
272.2660026836
  0
LINE
  5
5B9
100
AcDbEntity
  8
BEZUGSACHSEN
100
AcDbLine
 62
7
  6
CONTINUOUS
 10
753.9722727596
 20
271.8705273519
 11
753.8757299318
 21
272.2660026836
  0
LINE
  5
5BA
100
AcDbEntity
  8
BEZUGSACHSEN
100
AcDbLine
 62
7
  6
CONTINUOUS
 10
754.0379635062
 20
271.5641415157
 11
753.9722727596
 21
271.8705273519
  0
SPLINE
  5
5BB
100
AcDbEntity
  8
0
100
AcDbSpline
 62
7
  6
CONTINUOUS
 70
0
 71
3
 72
9
 73
5
 74
0
 42
0.0000001
 43
0.0000001
 44
0.0000000001
 40
0.0
 40
0.0
 40
0.0
 40
0.0
 40
0.5001080858
 40
1.0
 40
1.0
 40
1.0
 40
1.0
 10
751.3647358064
 20
271.2797433251
 30
0.0
 10
751.5882337017
 20
268.7675639424
 30
0.0
 10
751.8906047586
 20
263.7298163143
 30
0.0
 10
751.8549419279
 20
258.6824593834
 30
0.0
 10
751.7540114774
 20
256.1634691658
 30
0.0
  0
LINE
  5
5BC
100
AcDbEntity
  8
BEZUGSACHSEN
100
AcDbLine
 62
7
  6
CONTINUOUS
 10
753.4206167132
 20
275.0727013079
 11
753.5092030219
 21
274.721247159
  0
LINE
  5
5BD
100
AcDbEntity
  8
BEZUGSACHSEN
100
AcDbLine
 62
7
  6
CONTINUOUS
 10
753.5092030219
 20
274.721247159
 11
753.7915433326
 21
273.6010516207
  0
LINE
  5
5BE
100
AcDbEntity
  8
BEZUGSACHSEN
100
AcDbLine
 62
7
  6
CONTINUOUS
 10
753.7915433326
 20
273.6010516207
 11
753.8909256041
 21
273.206730117
  0
LINE
  5
5BF
100
AcDbEntity
  8
BEZUGSACHSEN
100
AcDbLine
 62
7
  6
CONTINUOUS
 10
753.8909256041
 20
273.206730117
 11
753.9750491595
 21
272.8729429625
  0
LINE
  5
5C0
100
AcDbEntity
  8
BEZUGSACHSEN
100
AcDbLine
 62
7
  6
CONTINUOUS
 10
753.9750491595
 20
272.8729429625
 11
754.0974633691
 21
272.3872116664
  0
LINE
  5
5C1
100
AcDbEntity
  8
BEZUGSACHSEN
100
AcDbLine
 62
7
  6
CONTINUOUS
 10
754.0974633691
 20
272.3872116664
 11
754.1629356603
 21
272.1274151248
  0
LINE
  5
5C2
100
AcDbEntity
  8
BEZUGSACHSEN
100
AcDbLine
 62
7
  6
CONTINUOUS
 10
754.1629356603
 20
272.1274151248
 11
754.1969657708
 21
271.9923803892
  0
LINE
  5
5C3
100
AcDbEntity
  8
BEZUGSACHSEN
100
AcDbLine
 62
7
  6
CONTINUOUS
 10
754.1969657708
 20
271.9923803892
 11
754.3424293495
 21
271.4151513657
  0
LINE
  5
5C4
100
AcDbEntity
  8
BEZUGSACHSEN
100
AcDbLine
 62
7
  6
CONTINUOUS
 10
754.3424293495
 20
271.4151513657
 11
754.3836664554
 21
271.2515094193
  0
LINE
  5
5C5
100
AcDbEntity
  8
BEZUGSACHSEN
100
AcDbLine
 62
7
  6
CONTINUOUS
 10
754.3836664554
 20
271.2515094193
 11
754.4062822588
 21
271.1617618098
  0
LINE
  5
5C6
100
AcDbEntity
  8
KONSTRUKTIONSELEMENTE
100
AcDbLine
 62
7
  6
CONTINUOUS
 10
752.9814883641
 20
274.6999581989
 11
752.9758718676
 21
274.7222352565
  0
LINE
  5
5C7
100
AcDbEntity
  8
KONSTRUKTIONSELEMENTE
100
AcDbLine
 62
7
  6
CONTINUOUS
 10
752.9758718676
 20
274.7222352565
 11
752.8875116089
 21
275.0727013079
  0
LINE
  5
5C8
100
AcDbEntity
  8
BEZUGSACHSEN
100
AcDbLine
 62
7
  6
CONTINUOUS
 10
754.5346579237
 20
270.6415935207
 11
754.470604911
 21
270.9011570107
  0
LINE
  5
5C9
100
AcDbEntity
  8
BEZUGSACHSEN
100
AcDbLine
 62
7
  6
CONTINUOUS
 10
754.470604911
 20
270.9011570107
 11
754.4384772793
 21
271.031329244
  0
LINE
  5
5CA
100
AcDbEntity
  8
BEZUGSACHSEN
100
AcDbLine
 62
7
  6
CONTINUOUS
 10
754.4384772793
 20
271.031329244
 11
754.4062822588
 21
271.1617618098
  0
LINE
  5
5CB
100
AcDbEntity
  8
BEZUGSACHSEN
100
AcDbLine
 62
7
  6
CONTINUOUS
 10
754.6322334869
 20
270.2320536392
 11
754.6079816668
 21
270.3339603039
  0
LINE
  5
5CC
100
AcDbEntity
  8
BEZUGSACHSEN
100
AcDbLine
 62
7
  6
CONTINUOUS
 10
754.6079816668
 20
270.3339603039
 11
754.559193871
 21
270.5387302417
  0
LINE
  5
5CD
100
AcDbEntity
  8
BEZUGSACHSEN
100
AcDbLine
 62
7
  6
CONTINUOUS
 10
754.559193871
 20
270.5387302417
 11
754.5346579237
 21
270.6415935207
  0
LINE
  5
5CE
100
AcDbEntity
  8
BEZUGSACHSEN
100
AcDbLine
 62
7
  6
CONTINUOUS
 10
754.6984812178
 20
269.9331419879
 11
754.682050239
 21
270.0076014244
  0
LINE
  5
5CF
100
AcDbEntity
  8
BEZUGSACHSEN
100
AcDbLine
 62
7
  6
CONTINUOUS
 10
754.682050239
 20
270.0076014244
 11
754.6655319646
 21
270.0822398461
  0
LINE
  5
5D0
100
AcDbEntity
  8
BEZUGSACHSEN
100
AcDbLine
 62
7
  6
CONTINUOUS
 10
754.6655319646
 20
270.0822398461
 11
754.6489263838
 21
270.1570572514
  0
LINE
  5
5D1
100
AcDbEntity
  8
BEZUGSACHSEN
100
AcDbLine
 62
7
  6
CONTINUOUS
 10
754.6489263838
 20
270.1570572514
 11
754.6322334869
 21
270.2320536392
  0
LINE
  5
5D2
100
AcDbEntity
  8
BEZUGSACHSEN
100
AcDbLine
 62
7
  6
CONTINUOUS
 10
754.732563104
 20
269.7448587436
 11
754.7157002041
 21
269.8390029388
  0
LINE
  5
5D3
100
AcDbEntity
  8
BEZUGSACHSEN
100
AcDbLine
 62
7
  6
CONTINUOUS
 10
754.7157002041
 20
269.8390029388
 11
754.7071350579
 21
269.8860731008
  0
LINE
  5
5D4
100
AcDbEntity
  8
BEZUGSACHSEN
100
AcDbLine
 62
7
  6
CONTINUOUS
 10
754.7071350579
 20
269.8860731008
 11
754.6984812178
 21
269.9331419879
  0
SPLINE
  5
5D5
100
AcDbEntity
  8
0
100
AcDbSpline
 62
7
  6
CONTINUOUS
 70
0
 71
3
 72
9
 73
5
 74
0
 42
0.0000001
 43
0.0000001
 44
0.0000000001
 40
0.0
 40
0.0
 40
0.0
 40
0.0
 40
0.5000000002
 40
1.0
 40
1.0
 40
1.0
 40
1.0
 10
751.3647358064
 20
281.1914993137
 30
0.0
 10
751.6736384129
 20
279.5607716053
 30
0.0
 10
752.0181562193
 20
276.2356213187
 30
0.0
 10
751.6736384127
 20
272.9104710321
 30
0.0
 10
751.3647358064
 20
271.2797433251
 30
0.0
  0
LINE
  5
5D6
100
AcDbEntity
  8
BEZUGSACHSEN
100
AcDbLine
 62
7
  6
CONTINUOUS
 10
754.404311663
 20
270.695832567
 11
754.3826332494
 21
270.7818831472
  0
LINE
  5
5D7
100
AcDbEntity
  8
BEZUGSACHSEN
100
AcDbLine
 62
7
  6
CONTINUOUS
 10
754.3826332494
 20
270.7818831472
 11
754.3220751661
 21
271.022259361
  0
LINE
  5
5D8
100
AcDbEntity
  8
BEZUGSACHSEN
100
AcDbLine
 62
7
  6
CONTINUOUS
 10
754.3220751661
 20
271.022259361
 11
754.2302167879
 21
271.3868668306
  0
LINE
  5
5D9
100
AcDbEntity
  8
BEZUGSACHSEN
100
AcDbLine
 62
7
  6
CONTINUOUS
 10
754.2302167879
 20
271.3868668306
 11
754.0847821728
 21
271.9641058847
  0
LINE
  5
5DA
100
AcDbEntity
  8
BEZUGSACHSEN
100
AcDbLine
 62
7
  6
CONTINUOUS
 10
754.0847821728
 20
271.9641058847
 11
753.9853002033
 21
272.3589390821
  0
LINE
  5
5DB
100
AcDbEntity
  8
BEZUGSACHSEN
100
AcDbLine
 62
7
  6
CONTINUOUS
 10
753.9853002033
 20
272.3589390821
 11
753.9160523458
 21
272.6337685701
  0
LINE
  5
5DC
100
AcDbEntity
  8
BEZUGSACHSEN
100
AcDbLine
 62
7
  6
CONTINUOUS
 10
753.9160523458
 20
272.6337685701
 11
753.8629092035
 21
272.8446777913
  0
LINE
  5
5DD
100
AcDbEntity
  8
BEZUGSACHSEN
100
AcDbLine
 62
7
  6
CONTINUOUS
 10
753.8629092035
 20
272.8446777913
 11
753.7788023997
 21
273.1784652409
  0
LINE
  5
5DE
100
AcDbEntity
  8
BEZUGSACHSEN
100
AcDbLine
 62
7
  6
CONTINUOUS
 10
753.7788023997
 20
273.1784652409
 11
753.6794387363
 21
273.5727901046
  0
LINE
  5
5DF
100
AcDbEntity
  8
BEZUGSACHSEN
100
AcDbLine
 62
7
  6
CONTINUOUS
 10
753.6794387363
 20
273.5727901046
 11
753.6685788831
 21
273.6158867332
  0
LINE
  5
5E0
100
AcDbEntity
  8
BEZUGSACHSEN
100
AcDbLine
 62
7
  6
CONTINUOUS
 10
753.6685788831
 20
273.6158867332
 11
753.6182805057
 21
273.8154908007
  0
LINE
  5
5E1
100
AcDbEntity
  8
BEZUGSACHSEN
100
AcDbLine
 62
7
  6
CONTINUOUS
 10
753.6182805057
 20
273.8154908007
 11
753.4188778201
 21
274.606772065
  0
LINE
  5
5E2
100
AcDbEntity
  8
KONSTRUKTIONSELEMENTE
100
AcDbLine
 62
7
  6
CONTINUOUS
 10
752.8805626953
 20
274.606772065
 11
753.079590371
 21
273.8166786223
  0
LINE
  5
5E3
100
AcDbEntity
  8
KONSTRUKTIONSELEMENTE
100
AcDbLine
 62
7
  6
CONTINUOUS
 10
753.079590371
 20
273.8166786223
 11
753.0896516905
 21
273.7767359379
  0
LINE
  5
5E4
100
AcDbEntity
  8
BEZUGSACHSEN
100
AcDbLine
 62
7
  6
CONTINUOUS
 10
754.404311663
 20
270.695832567
 11
754.5645729983
 21
270.0805669621
  0
LINE
  5
5E5
100
AcDbEntity
  8
BEZUGSACHSEN
100
AcDbLine
 62
7
  6
CONTINUOUS
 10
754.5645729983
 20
270.0805669621
 11
754.6942002713
 21
269.606991549
  0
SPLINE
  5
5E6
100
AcDbEntity
  8
0
100
AcDbSpline
 62
7
  6
CONTINUOUS
 70
0
 71
3
 72
9
 73
5
 74
0
 42
0.0000001
 43
0.0000001
 44
0.0000000001
 40
0.0
 40
0.0
 40
0.0
 40
0.0
 40
0.5552810041
 40
1.0
 40
1.0
 40
1.0
 40
1.0
 10
729.1811472859
 20
185.9697942793
 30
0.0
 10
729.1811472859
 20
185.5399414304
 30
0.0
 10
729.2645370307
 20
184.7578313064
 30
0.0
 10
729.6516286135
 20
184.048360021
 30
0.0
 10
729.8974796641
 20
183.8073713436
 30
0.0
  0
SPLINE
  5
5E7
100
AcDbEntity
  8
0
100
AcDbSpline
 62
7
  6
CONTINUOUS
 70
0
 71
3
 72
11
 73
7
 74
0
 42
0.0000001
 43
0.0000001
 44
0.0000000001
 40
0.0
 40
0.0
 40
0.0
 40
0.0
 40
0.2635270784
 40
0.5201066425
 40
0.7654740308
 40
1.0
 40
1.0
 40
1.0
 40
1.0
 10
747.1811472859
 20
219.671586997
 30
0.0
 10
748.0161339949
 20
219.671586997
 30
0.0
 10
749.6745566733
 20
219.4318088126
 30
0.0
 10
751.9014488357
 20
218.380311286
 30
0.0
 10
753.6228976806
 20
216.742000926
 30
0.0
 10
754.3052070794
 20
215.3365908368
 30
0.0
 10
754.494073297
 20
214.6178961456
 30
0.0
  0
SPLINE
  5
5E8
100
AcDbEntity
  8
0
100
AcDbSpline
 62
7
  6
CONTINUOUS
 70
0
 71
3
 72
11
 73
7
 74
0
 42
0.0000001
 43
0.0000001
 44
0.0000000001
 40
0.0
 40
0.0
 40
0.0
 40
0.0
 40
0.2635270784
 40
0.5201066425
 40
0.7654740308
 40
1.0
 40
1.0
 40
1.0
 40
1.0
 10
747.1811472859
 20
219.671586997
 30
0.0
 10
746.3461605769
 20
219.671586997
 30
0.0
 10
744.6877378985
 20
219.4318088126
 30
0.0
 10
742.4608457361
 20
218.380311286
 30
0.0
 10
740.7393968913
 20
216.742000926
 30
0.0
 10
740.0570874925
 20
215.3365908368
 30
0.0
 10
739.8682212749
 20
214.6178961456
 30
0.0
  0
LINE
  5
5E9
100
AcDbEntity
  8
BEZUGSACHSEN
100
AcDbLine
 62
7
  6
CONTINUOUS
 10
754.9001798287
 20
269.3094193394
 11
754.8494549387
 21
269.5132891149
  0
LINE
  5
5EA
100
AcDbEntity
  8
BEZUGSACHSEN
100
AcDbLine
 62
7
  6
CONTINUOUS
 10
754.8494549387
 20
269.5132891149
 11
754.8029842794
 21
269.7000547966
  0
LINE
  5
5EB
100
AcDbEntity
  8
BEZUGSACHSEN
100
AcDbLine
 62
7
  6
CONTINUOUS
 10
754.8029842794
 20
269.7000547966
 11
754.7860869701
 21
269.7679637651
  0
LINE
  5
5EC
100
AcDbEntity
  8
BEZUGSACHSEN
100
AcDbLine
 62
7
  6
CONTINUOUS
 10
754.7860869701
 20
269.7679637651
 11
754.734087609
 21
269.9769406787
  0
LINE
  5
5ED
100
AcDbEntity
  8
BEZUGSACHSEN
100
AcDbLine
 62
7
  6
CONTINUOUS
 10
754.734087609
 20
269.9769406787
 11
754.7089172535
 21
270.0780938244
  0
LINE
  5
5EE
100
AcDbEntity
  8
BEZUGSACHSEN
100
AcDbLine
 62
7
  6
CONTINUOUS
 10
754.7089172535
 20
270.0780938244
 11
754.6577355339
 21
270.2837751872
  0
LINE
  5
5EF
100
AcDbEntity
  8
BEZUGSACHSEN
100
AcDbLine
 62
7
  6
CONTINUOUS
 10
754.6577355339
 20
270.2837751872
 11
754.6470309251
 21
270.326792461
  0
LINE
  5
5F0
100
AcDbEntity
  8
BEZUGSACHSEN
100
AcDbLine
 62
7
  6
CONTINUOUS
 10
754.6470309251
 20
270.326792461
 11
754.5757850908
 21
270.6130923455
  0
LINE
  5
5F1
100
AcDbEntity
  8
BEZUGSACHSEN
100
AcDbLine
 62
7
  6
CONTINUOUS
 10
754.5757850908
 20
270.6130923455
 11
754.5249447739
 21
270.8173859488
  0
LINE
  5
5F2
100
AcDbEntity
  8
BEZUGSACHSEN
100
AcDbLine
 62
7
  6
CONTINUOUS
 10
754.5249447739
 20
270.8173859488
 11
754.4651915702
 21
271.0574871469
  0
LINE
  5
5F3
100
AcDbEntity
  8
BEZUGSACHSEN
100
AcDbLine
 62
7
  6
CONTINUOUS
 10
754.4651915702
 20
271.0574871469
 11
754.4149558584
 21
271.2593389791
  0
LINE
  5
5F4
100
AcDbEntity
  8
BEZUGSACHSEN
100
AcDbLine
 62
7
  6
CONTINUOUS
 10
754.4149558584
 20
271.2593389791
 11
754.3743653167
 21
271.4224316668
  0
LINE
  5
5F5
100
AcDbEntity
  8
BEZUGSACHSEN
100
AcDbLine
 62
7
  6
CONTINUOUS
 10
754.3743653167
 20
271.4224316668
 11
754.2305827433
 21
272.000122148
  0
LINE
  5
5F6
100
AcDbEntity
  8
BEZUGSACHSEN
100
AcDbLine
 62
7
  6
CONTINUOUS
 10
754.2305827433
 20
272.000122148
 11
754.1322321797
 21
272.3952517687
  0
LINE
  5
5F7
100
AcDbEntity
  8
BEZUGSACHSEN
100
AcDbLine
 62
7
  6
CONTINUOUS
 10
754.1322321797
 20
272.3952517687
 11
754.0112393983
 21
272.8813225658
  0
LINE
  5
5F8
100
AcDbEntity
  8
BEZUGSACHSEN
100
AcDbLine
 62
7
  6
CONTINUOUS
 10
754.0112393983
 20
272.8813225658
 11
753.5506809423
 21
274.7313144739
  0
LINE
  5
5F9
100
AcDbEntity
  8
BEZUGSACHSEN
100
AcDbLine
 62
7
  6
CONTINUOUS
 10
753.5506809423
 20
274.7313144739
 11
753.4407425826
 21
275.1728694475
  0
LINE
  5
5FA
100
AcDbEntity
  8
BEZUGSACHSEN
100
AcDbLine
 62
7
  6
CONTINUOUS
 10
753.4407425826
 20
275.1728694475
 11
753.4069785735
 21
275.3084751596
  0
LINE
  5
5FB
100
AcDbEntity
  8
KONSTRUKTIONSELEMENTE
100
AcDbLine
 62
7
  6
CONTINUOUS
 10
752.8776304577
 20
275.3084751596
 11
752.9112216453
 21
275.1735178723
  0
SPLINE
  5
5FC
100
AcDbEntity
  8
BEZUGSACHSEN
100
AcDbSpline
 62
7
  6
CONTINUOUS
 70
0
 71
3
 72
8
 73
4
 74
0
 42
0.0000001
 43
0.0000001
 44
0.0000000001
 40
0.0
 40
0.0
 40
0.0
 40
0.0
 40
1.0
 40
1.0
 40
1.0
 40
1.0
 10
754.9001798287
 20
269.3094193394
 30
0.0
 10
754.9066278737
 20
269.3025763672
 30
0.0
 10
754.9123494908
 20
269.2943144113
 30
0.0
 10
754.9146241573
 20
269.285191394
 30
0.0
  0
SPLINE
  5
5FD
100
AcDbEntity
  8
KONSTRUKTIONSELEMENTE
100
AcDbSpline
 62
7
  6
CONTINUOUS
 70
0
 71
3
 72
11
 73
7
 74
0
 42
0.0000001
 43
0.0000001
 44
0.0000000001
 40
0.0
 40
0.0
 40
0.0
 40
0.0
 40
0.3553378805
 40
0.4919447206
 40
0.6464666697
 40
1.0
 40
1.0
 40
1.0
 40
1.0
 10
570.1316544336
 20
116.4321655457
 30
0.0
 10
569.7905267252
 20
116.7274878091
 30
0.0
 10
569.0012531557
 20
116.5588108656
 30
0.0
 10
568.2857797613
 20
116.214913391
 30
0.0
 10
567.5752539149
 20
115.7919246423
 30
0.0
 10
567.0668413434
 20
115.3951789629
 30
0.0
 10
566.7274967271
 20
115.1012979046
 30
0.0
  0
SPLINE
  5
5FE
100
AcDbEntity
  8
KONSTRUKTIONSELEMENTE
100
AcDbSpline
 62
7
  6
CONTINUOUS
 70
0
 71
3
 72
9
 73
5
 74
0
 42
0.0000001
 43
0.0000001
 44
0.0000000001
 40
0.0
 40
0.0
 40
0.0
 40
0.0
 40
0.5612670596
 40
1.0
 40
1.0
 40
1.0
 40
1.0
 10
566.3850161588
 20
128.1541841087
 30
0.0
 10
566.5283635856
 20
128.4558639714
 30
0.0
 10
566.7521866471
 20
129.0086207986
 30
0.0
 10
566.8689180834
 20
129.6014108409
 30
0.0
 10
566.8689180834
 20
129.8624967487
 30
0.0
  0
SPLINE
  5
5FF
100
AcDbEntity
  8
KONSTRUKTIONSELEMENTE
100
AcDbSpline
 62
7
  6
CONTINUOUS
 70
0
 71
3
 72
9
 73
5
 74
0
 42
0.0000001
 43
0.0000001
 44
0.0000000001
 40
0.0
 40
0.0
 40
0.0
 40
0.0
 40
0.5487156268
 40
1.0
 40
1.0
 40
1.0
 40
1.0
 10
566.8689180834
 20
109.6030232883
 30
0.0
 10
566.8689180834
 20
109.4169774647
 30
0.0
 10
566.905694042
 20
109.0724644794
 30
0.0
 10
567.0942730781
 20
108.7700097283
 30
0.0
 10
567.2099426598
 20
108.6698451651
 30
0.0
  0
SPLINE
  5
600
100
AcDbEntity
  8
KONSTRUKTIONSELEMENTE
100
AcDbSpline
 62
7
  6
CONTINUOUS
 70
0
 71
3
 72
11
 73
7
 74
0
 42
0.0000001
 43
0.0000001
 44
0.0000000001
 40
0.0
 40
0.0
 40
0.0
 40
0.0
 40
0.3553378805
 40
0.4919447206
 40
0.6464666697
 40
1.0
 40
1.0
 40
1.0
 40
1.0
 10
569.6720350258
 20
115.5302076289
 30
0.0
 10
569.3309073174
 20
115.8255298923
 30
0.0
 10
568.5416337479
 20
115.6568529488
 30
0.0
 10
567.8261603535
 20
115.3129554742
 30
0.0
 10
567.1156345071
 20
114.8899667255
 30
0.0
 10
566.6072219357
 20
114.4932210461
 30
0.0
 10
566.2678773193
 20
114.1993399878
 30
0.0
  0
SPLINE
  5
601
100
AcDbEntity
  8
KONSTRUKTIONSELEMENTE
100
AcDbSpline
 62
7
  6
CONTINUOUS
 70
0
 71
3
 72
9
 73
5
 74
0
 42
0.0000001
 43
0.0000001
 44
0.0000000001
 40
0.0
 40
0.0
 40
0.0
 40
0.0
 40
0.6167870211
 40
1.0
 40
1.0
 40
1.0
 40
1.0
 10
613.3471480533
 20
132.8172360733
 30
0.0
 10
613.3249547853
 20
132.7643623703
 30
0.0
 10
613.2921420571
 20
132.6781139879
 30
0.0
 10
613.3112320157
 20
132.5726273317
 30
0.0
 10
613.338159394
 20
132.5492988941
 30
0.0
  0
SPLINE
  5
602
100
AcDbEntity
  8
KONSTRUKTIONSELEMENTE
100
AcDbSpline
 62
7
  6
CONTINUOUS
 70
0
 71
3
 72
10
 73
6
 74
0
 42
0.0000001
 43
0.0000001
 44
0.0000000001
 40
0.0
 40
0.0
 40
0.0
 40
0.0
 40
0.1889346049
 40
0.5351285558
 40
1.0
 40
1.0
 40
1.0
 40
1.0
 10
551.6623256038
 20
102.1570725475
 30
0.0
 10
551.6916073035
 20
102.1317143755
 30
0.0
 10
551.7937696634
 20
102.0810283989
 30
0.0
 10
552.0061076563
 20
102.092117745
 30
0.0
 10
552.1628225422
 20
102.1500166845
 30
0.0
 10
552.2494853823
 20
102.1896816814
 30
0.0
  0
SPLINE
  5
603
100
AcDbEntity
  8
KONSTRUKTIONSELEMENTE
100
AcDbSpline
 62
7
  6
CONTINUOUS
 70
0
 71
3
 72
9
 73
5
 74
0
 42
0.0000001
 43
0.0000001
 44
0.0000000001
 40
0.0
 40
0.0
 40
0.0
 40
0.0
 40
0.2183282735
 40
1.0
 40
1.0
 40
1.0
 40
1.0
 10
552.2494853823
 20
102.1896816814
 30
0.0
 10
552.3046743511
 20
102.2149412999
 30
0.0
 10
552.5511711597
 20
102.3443049246
 30
0.0
 10
552.7746485316
 20
102.5138610785
 30
0.0
 10
552.938914494
 20
102.6561195749
 30
0.0
  0
SPLINE
  5
604
100
AcDbEntity
  8
KONSTRUKTIONSELEMENTE
100
AcDbSpline
 62
7
  6
CONTINUOUS
 70
0
 71
3
 72
11
 73
7
 74
0
 42
0.0000001
 43
0.0000001
 44
0.0000000001
 40
0.0
 40
0.0
 40
0.0
 40
0.0
 40
0.1801343243
 40
0.3968155518
 40
0.6687400903
 40
1.0
 40
1.0
 40
1.0
 40
1.0
 10
570.7454765657
 20
105.6079829866
 30
0.0
 10
570.8566763574
 20
105.5116890569
 30
0.0
 10
571.1662574341
 20
105.3714622859
 30
0.0
 10
571.7221530313
 20
105.378622183
 30
0.0
 10
572.3718399571
 20
105.5565132693
 30
0.0
 10
572.8198208937
 20
105.7660356774
 30
0.0
 10
573.0582105153
 20
105.8938831009
 30
0.0
  0
SPLINE
  5
605
100
AcDbEntity
  8
BEZUGSACHSEN
100
AcDbSpline
 62
7
  6
CONTINUOUS
 70
0
 71
3
 72
11
 73
7
 74
0
 42
0.0000001
 43
0.0000001
 44
0.0000000001
 40
0.0
 40
0.0
 40
0.0
 40
0.0
 40
0.3535251165
 40
0.508042702
 40
0.6446321057
 40
1.0
 40
1.0
 40
1.0
 40
1.0
 10
636.1653826396
 20
180.9437710899
 30
0.0
 10
636.5242742202
 20
181.2545803159
 30
0.0
 10
637.0619756115
 20
181.6741637611
 30
0.0
 10
637.8133836161
 20
182.1215671572
 30
0.0
 10
638.5701210053
 20
182.4852045473
 30
0.0
 10
639.4048753127
 20
182.6639228806
 30
0.0
 10
639.765712581
 20
182.3515800873
 30
0.0
  0
SPLINE
  5
606
100
AcDbEntity
  8
BEZUGSACHSEN
100
AcDbSpline
 62
7
  6
CONTINUOUS
 70
0
 71
3
 72
11
 73
7
 74
0
 42
0.0000001
 43
0.0000001
 44
0.0000000001
 40
0.0
 40
0.0
 40
0.0
 40
0.0
 40
0.3015812786
 40
0.5624690806
 40
0.7906401043
 40
1.0
 40
1.0
 40
1.0
 40
1.0
 10
643.1963062534
 20
183.6094122897
 30
0.0
 10
643.2311571338
 20
183.9315263916
 30
0.0
 10
643.2589964819
 20
184.5378515549
 30
0.0
 10
643.1465903405
 20
185.3856957522
 30
0.0
 10
642.8713693788
 20
186.0934613368
 30
0.0
 10
642.5683276833
 20
186.4657956943
 30
0.0
 10
642.3984689884
 20
186.6132288993
 30
0.0
  0
SPLINE
  5
607
100
AcDbEntity
  8
KONSTRUKTIONSELEMENTE
100
AcDbSpline
 62
7
  6
CONTINUOUS
 70
0
 71
3
 72
11
 73
7
 74
0
 42
0.0000001
 43
0.0000001
 44
0.0000000001
 40
0.0
 40
0.0
 40
0.0
 40
0.0
 40
0.22751792
 40
0.4932532384
 40
0.7625600707
 40
1.0
 40
1.0
 40
1.0
 40
1.0
 10
617.9381083491
 20
129.9627971243
 30
0.0
 10
618.5606792666
 20
130.2966794772
 30
0.0
 10
619.8099050698
 20
131.2041659064
 30
0.0
 10
621.5009865861
 20
132.8695303445
 30
0.0
 10
622.9768321809
 20
134.7681509993
 30
0.0
 10
623.7607695757
 20
136.144671136
 30
0.0
 10
624.0461103842
 20
136.8244730103
 30
0.0
  0
SPLINE
  5
608
100
AcDbEntity
  8
KONSTRUKTIONSELEMENTE
100
AcDbSpline
 62
7
  6
CONTINUOUS
 70
0
 71
3
 72
9
 73
5
 74
0
 42
0.0000001
 43
0.0000001
 44
0.0000000001
 40
0.0
 40
0.0
 40
0.0
 40
0.0
 40
0.4931623953
 40
1.0
 40
1.0
 40
1.0
 40
1.0
 10
573.3985897962
 20
106.0764271807
 30
0.0
 10
573.5330961299
 20
106.1485624024
 30
0.0
 10
573.7648643936
 20
106.3630255662
 30
0.0
 10
573.9486802386
 20
106.6179585722
 30
0.0
 10
574.0093899997
 20
106.7625947693
 30
0.0
  0
SPLINE
  5
609
100
AcDbEntity
  8
KONSTRUKTIONSELEMENTE
100
AcDbSpline
 62
7
  6
CONTINUOUS
 70
0
 71
3
 72
10
 73
6
 74
0
 42
0.0000001
 43
0.0000001
 44
0.0000000001
 40
0.0
 40
0.0
 40
0.0
 40
0.0
 40
0.1805529782
 40
0.5248657058
 40
1.0
 40
1.0
 40
1.0
 40
1.0
 10
616.8736933
 20
129.4874367156
 30
0.0
 10
616.8848126551
 20
129.4778035022
 30
0.0
 10
616.9257215651
 20
129.4594492287
 30
0.0
 10
617.0097554716
 20
129.4705305133
 30
0.0
 10
617.0708768157
 20
129.4977042381
 30
0.0
 10
617.1049950524
 20
129.5160017153
 30
0.0
  0
SPLINE
  5
60A
100
AcDbEntity
  8
BEZUGSACHSEN
100
AcDbSpline
 62
7
  6
CONTINUOUS
 70
0
 71
3
 72
17
 73
13
 74
0
 42
0.0000001
 43
0.0000001
 44
0.0000000001
 40
0.0
 40
0.0
 40
0.0
 40
0.0
 40
0.0291579765
 40
0.0611213738
 40
0.0979231462
 40
0.1406918411
 40
0.2452305574
 40
0.373688919
 40
0.5209585942
 40
0.6799306931
 40
0.8424232186
 40
1.0
 40
1.0
 40
1.0
 40
1.0
 10
632.5650526983
 20
174.0359620924
 30
0.0
 10
632.504323687
 20
174.0885294702
 30
0.0
 10
632.3963760687
 20
174.2227376385
 30
0.0
 10
632.301536065
 20
174.4788912363
 30
0.0
 10
632.2667978687
 20
174.7863828168
 30
0.0
 10
632.300984477
 20
175.2943216809
 30
0.0
 10
632.5069783075
 20
176.0322548819
 30
0.0
 10
632.9418740419
 20
176.9874829141
 30
0.0
 10
633.5604960259
 20
178.0155146682
 30
0.0
 10
634.3276922934
 20
179.0560923617
 30
0.0
 10
635.1995214104
 20
180.0486573917
 30
0.0
 10
635.8372564816
 20
180.6596055014
 30
0.0
 10
636.1653826396
 20
180.9437710899
 30
0.0
  0
SPLINE
  5
60B
100
AcDbEntity
  8
KONSTRUKTIONSELEMENTE
100
AcDbSpline
 62
7
  6
CONTINUOUS
 70
0
 71
3
 72
11
 73
7
 74
0
 42
0.0000001
 43
0.0000001
 44
0.0000000001
 40
0.0
 40
0.0
 40
0.0
 40
0.0
 40
0.2374427088
 40
0.5067456734
 40
0.7724796148
 40
1.0
 40
1.0
 40
1.0
 40
1.0
 10
576.534556217
 20
112.7786032624
 30
0.0
 10
576.8199003977
 20
113.4584131708
 30
0.0
 10
577.6038348514
 20
114.8349315123
 30
0.0
 10
579.0796779055
 20
116.7335445134
 30
0.0
 10
580.7707506406
 20
118.3989059407
 30
0.0
 10
582.0199805191
 20
119.3063931404
 30
0.0
 10
582.6425582521
 20
119.6402791484
 30
0.0
  0
SPLINE
  5
60C
100
AcDbEntity
  8
KONSTRUKTIONSELEMENTE
100
AcDbSpline
 62
7
  6
CONTINUOUS
 70
0
 71
3
 72
11
 73
7
 74
0
 42
0.0000001
 43
0.0000001
 44
0.0000000001
 40
0.0
 40
0.0
 40
0.0
 40
0.0
 40
0.3312528237
 40
0.6032079657
 40
0.8198699068
 40
1.0
 40
1.0
 40
1.0
 40
1.0
 10
617.1847172449
 20
138.1651041838
 30
0.0
 10
617.4231253532
 20
138.2929615217
 30
0.0
 10
617.8711742391
 20
138.5024990128
 30
0.0
 10
618.5209260185
 20
138.6804144649
 30
0.0
 10
619.0769060554
 20
138.6874925419
 30
0.0
 10
619.3864379953
 20
138.5471473911
 30
0.0
 10
619.4976391303
 20
138.4508380588
 30
0.0
  0
SPLINE
  5
60D
100
AcDbEntity
  8
KONSTRUKTIONSELEMENTE
100
AcDbSpline
 62
7
  6
CONTINUOUS
 70
0
 71
3
 72
11
 73
7
 74
0
 42
0.0000001
 43
0.0000001
 44
0.0000000001
 40
0.0
 40
0.0
 40
0.0
 40
0.0
 40
0.1960877347
 40
0.4356994004
 40
0.7083543662
 40
1.0
 40
1.0
 40
1.0
 40
1.0
 10
566.9080631146
 20
130.8577865368
 30
0.0
 10
566.9649178427
 20
131.2130862177
 30
0.0
 10
567.2005179468
 20
131.9841067336
 30
0.0
 10
567.7642016199
 20
133.1579743459
 30
0.0
 10
568.5490339511
 20
134.4103237136
 30
0.0
 10
569.1793540976
 20
135.2338155373
 30
0.0
 10
569.5226766093
 20
135.644345048
 30
0.0
  0
SPLINE
  5
60E
100
AcDbEntity
  8
KONSTRUKTIONSELEMENTE
100
AcDbSpline
 62
7
  6
CONTINUOUS
 70
0
 71
3
 72
14
 73
10
 74
0
 42
0.0000001
 43
0.0000001
 44
0.0000000001
 40
0.0
 40
0.0
 40
0.0
 40
0.0
 40
0.3348342454
 40
0.4904765909
 40
0.6314752165
 40
0.7538658132
 40
0.8552007529
 40
0.9356064293
 40
1.0
 40
1.0
 40
1.0
 40
1.0
 10
619.0644197673
 20
194.8841178196
 30
0.0
 10
619.6016052509
 20
195.5264598923
 30
0.0
 10
620.4525280794
 20
196.4176243126
 30
0.0
 10
621.6668109858
 20
197.4293589793
 30
0.0
 10
622.5294479761
 20
198.0273027061
 30
0.0
 10
623.3339109799
 20
198.4624638615
 30
0.0
 10
624.0541352518
 20
198.7191588833
 30
0.0
 10
624.6731148468
 20
198.7930561152
 30
0.0
 10
625.0374244585
 20
198.6896100113
 30
0.0
 10
625.1724218025
 20
198.6018117912
 30
0.0
  0
SPLINE
  5
60F
100
AcDbEntity
  8
KONSTRUKTIONSELEMENTE
100
AcDbSpline
 62
7
  6
CONTINUOUS
 70
0
 71
3
 72
9
 73
5
 74
0
 42
0.0000001
 43
0.0000001
 44
0.0000000001
 40
0.0
 40
0.0
 40
0.0
 40
0.0
 40
0.2933152047
 40
1.0
 40
1.0
 40
1.0
 40
1.0
 10
548.9437611803
 20
104.7027713374
 30
0.0
 10
548.9437611803
 20
104.6731665642
 30
0.0
 10
548.9493602219
 20
104.57317116
 30
0.0
 10
548.9921120223
 20
104.4695443778
 30
0.0
 10
549.0460305134
 20
104.4228505595
 30
0.0
  0
SPLINE
  5
610
100
AcDbEntity
  8
KONSTRUKTIONSELEMENTE
100
AcDbSpline
 62
7
  6
CONTINUOUS
 70
0
 71
3
 72
11
 73
7
 74
0
 42
0.0000001
 43
0.0000001
 44
0.0000000001
 40
0.0
 40
0.0
 40
0.0
 40
0.0
 40
0.2857886869
 40
0.5710293088
 40
0.8184092914
 40
1.0
 40
1.0
 40
1.0
 40
1.0
 10
550.3226194036
 20
113.436897587
 30
0.0
 10
550.1339432515
 20
113.2734992462
 30
0.0
 10
549.7828733544
 20
112.9168301
 30
0.0
 10
549.3505508467
 20
112.3437141681
 30
0.0
 10
549.0530725292
 20
111.7956466794
 30
0.0
 10
548.9437611803
 20
111.4263645603
 30
0.0
 10
548.9437611803
 20
111.2677713374
 30
0.0
  0
SPLINE
  5
611
100
AcDbEntity
  8
KONSTRUKTIONSELEMENTE
100
AcDbSpline
 62
7
  6
CONTINUOUS
 70
0
 71
3
 72
9
 73
5
 74
0
 42
0.0000001
 43
0.0000001
 44
0.0000000001
 40
0.0
 40
0.0
 40
0.0
 40
0.0
 40
0.2366663301
 40
1.0
 40
1.0
 40
1.0
 40
1.0
 10
567.3285374911
 20
130.2578978856
 30
0.0
 10
567.3194516113
 20
130.2176852555
 30
0.0
 10
567.2781121936
 20
130.0484411826
 30
0.0
 10
567.2259145864
 20
129.8819425538
 30
0.0
 10
567.1816267898
 20
129.7565650785
 30
0.0
  0
SPLINE
  5
612
100
AcDbEntity
  8
KONSTRUKTIONSELEMENTE
100
AcDbSpline
 62
7
  6
CONTINUOUS
 70
0
 71
3
 72
11
 73
7
 74
0
 42
0.0000001
 43
0.0000001
 44
0.0000000001
 40
0.0
 40
0.0
 40
0.0
 40
0.0
 40
0.2214501299
 40
0.4742604085
 40
0.7403367523
 40
1.0
 40
1.0
 40
1.0
 40
1.0
 10
567.1078007289
 20
129.5592243802
 30
0.0
 10
566.9537086523
 20
129.1684989311
 30
0.0
 10
566.5435684343
 20
128.3633427887
 30
0.0
 10
565.7579785645
 20
127.1966956198
 30
0.0
 10
564.809315095
 20
126.0618827791
 30
0.0
 10
564.0943304278
 20
125.3635491875
 30
0.0
 10
563.7220432852
 20
125.0411390645
 30
0.0
  0
SPLINE
  5
613
100
AcDbEntity
  8
KONSTRUKTIONSELEMENTE
100
AcDbSpline
 62
7
  6
CONTINUOUS
 70
0
 71
3
 72
12
 73
8
 74
0
 42
0.0000001
 43
0.0000001
 44
0.0000000001
 40
0.0
 40
0.0
 40
0.0
 40
0.0
 40
0.3358890466
 40
0.6331184293
 40
0.7558878341
 40
0.8575228726
 40
1.0
 40
1.0
 40
1.0
 40
1.0
 10
607.0689953899
 20
179.5928984547
 30
0.0
 10
607.2301610082
 20
179.785613002
 30
0.0
 10
607.5589911828
 20
180.1286889002
 30
0.0
 10
608.004825153
 20
180.4801373363
 30
0.0
 10
608.3511764151
 20
180.666305538
 30
0.0
 10
608.6047950847
 20
180.7593817832
 30
0.0
 10
608.8120633901
 20
180.7663058943
 30
0.0
 10
608.9013960004
 20
180.7082066461
 30
0.0
  0
SPLINE
  5
614
100
AcDbEntity
  8
KONSTRUKTIONSELEMENTE
100
AcDbSpline
 62
7
  6
CONTINUOUS
 70
0
 71
3
 72
12
 73
8
 74
0
 42
0.0000001
 43
0.0000001
 44
0.0000000001
 40
0.0
 40
0.0
 40
0.0
 40
0.0
 40
0.1424771274
 40
0.2441121659
 40
0.3668815707
 40
0.6641109534
 40
1.0
 40
1.0
 40
1.0
 40
1.0
 10
610.8438315521
 20
179.4449048713
 30
0.0
 10
610.9331641624
 20
179.3868056231
 30
0.0
 10
611.1404324678
 20
179.3937297342
 30
0.0
 10
611.3940511374
 20
179.4868059794
 30
0.0
 10
611.7404023996
 20
179.6729741811
 30
0.0
 10
612.1862363697
 20
180.0244226172
 30
0.0
 10
612.5150665444
 20
180.3674985154
 30
0.0
 10
612.6762321627
 20
180.5602130628
 30
0.0
  0
SPLINE
  5
615
100
AcDbEntity
  8
BEZUGSACHSEN
100
AcDbSpline
 62
7
  6
CONTINUOUS
 70
0
 71
3
 72
11
 73
7
 74
0
 42
0.0000001
 43
0.0000001
 44
0.0000000001
 40
0.0
 40
0.0
 40
0.0
 40
0.0
 40
0.3535251165
 40
0.508042702
 40
0.6446321057
 40
1.0
 40
1.0
 40
1.0
 40
1.0
 10
636.1653826396
 20
175.4437710899
 30
0.0
 10
635.8064910591
 20
175.1329618639
 30
0.0
 10
635.2687896678
 20
174.7133784187
 30
0.0
 10
634.5173816631
 20
174.2659750226
 30
0.0
 10
633.760644274
 20
173.9023376325
 30
0.0
 10
632.9258899666
 20
173.7236192992
 30
0.0
 10
632.5650526983
 20
174.0359620924
 30
0.0
  0
SPLINE
  5
616
100
AcDbEntity
  8
KONSTRUKTIONSELEMENTE
100
AcDbSpline
 62
7
  6
CONTINUOUS
 70
0
 71
3
 72
9
 73
5
 74
0
 42
0.0000001
 43
0.0000001
 44
0.0000000001
 40
0.0
 40
0.0
 40
0.0
 40
0.0
 40
0.5487156268
 40
1.0
 40
1.0
 40
1.0
 40
1.0
 10
570.4044519893
 20
106.5411611098
 30
0.0
 10
570.4044519893
 20
106.3551152862
 30
0.0
 10
570.4412279479
 20
106.0106023009
 30
0.0
 10
570.629806984
 20
105.7081475498
 30
0.0
 10
570.7454765657
 20
105.6079829866
 30
0.0
  0
SPLINE
  5
617
100
AcDbEntity
  8
BEZUGSACHSEN
100
AcDbSpline
 62
7
  6
CONTINUOUS
 70
0
 71
3
 72
9
 73
5
 74
0
 42
0.0000001
 43
0.0000001
 44
0.0000000001
 40
0.0
 40
0.0
 40
0.0
 40
0.0
 40
0.4460531606
 40
1.0
 40
1.0
 40
1.0
 40
1.0
 10
639.765712581
 20
182.3515800873
 30
0.0
 10
639.8711530746
 20
182.2603101959
 30
0.0
 10
640.0392234549
 20
181.9756006396
 30
0.0
 10
640.0595835314
 20
181.656618698
 30
0.0
 10
640.0529425882
 20
181.4835580996
 30
0.0
  0
SPLINE
  5
618
100
AcDbEntity
  8
BEZUGSACHSEN
100
AcDbSpline
 62
7
  6
CONTINUOUS
 70
0
 71
3
 72
9
 73
5
 74
0
 42
0.0000001
 43
0.0000001
 44
0.0000000001
 40
0.0
 40
0.0
 40
0.0
 40
0.0
 40
0.2554176355
 40
1.0
 40
1.0
 40
1.0
 40
1.0
 10
637.3319346102
 20
176.5806610938
 30
0.0
 10
637.2380766323
 20
176.4785069273
 30
0.0
 10
636.8652133392
 20
176.0835726704
 30
0.0
 10
636.4710854784
 20
175.7085175143
 30
0.0
 10
636.1653826396
 20
175.4437710899
 30
0.0
  0
SPLINE
  5
619
100
AcDbEntity
  8
KONSTRUKTIONSELEMENTE
100
AcDbSpline
 62
7
  6
CONTINUOUS
 70
0
 71
3
 72
9
 73
5
 74
0
 42
0.0000001
 43
0.0000001
 44
0.0000000001
 40
0.0
 40
0.0
 40
0.0
 40
0.0
 40
0.5486959742
 40
1.0
 40
1.0
 40
1.0
 40
1.0
 10
570.4044519893
 20
115.6856345702
 30
0.0
 10
570.4044519893
 20
115.8344617259
 30
0.0
 10
570.3750197598
 20
116.1100506498
 30
0.0
 10
570.2242021019
 20
116.3520448571
 30
0.0
 10
570.1316544336
 20
116.4321655457
 30
0.0
  0
SPLINE
  5
61A
100
AcDbEntity
  8
KONSTRUKTIONSELEMENTE
100
AcDbSpline
 62
7
  6
CONTINUOUS
 70
0
 71
3
 72
11
 73
7
 74
0
 42
0.0000001
 43
0.0000001
 44
0.0000000001
 40
0.0
 40
0.0
 40
0.0
 40
0.0
 40
0.1734515454
 40
0.3882688685
 40
0.663174106
 40
1.0
 40
1.0
 40
1.0
 40
1.0
 10
619.4976391303
 20
138.4508380588
 30
0.0
 10
619.6210217409
 20
138.3439785663
 30
0.0
 10
619.8178383861
 20
138.0115714859
 30
0.0
 10
619.8634443324
 20
137.3775898067
 30
0.0
 10
619.725476117
 20
136.6077438064
 30
0.0
 10
619.5305233418
 20
136.0636462521
 30
0.0
 10
619.4078481765
 20
135.771382388
 30
0.0
  0
SPLINE
  5
61B
100
AcDbEntity
  8
KONSTRUKTIONSELEMENTE
100
AcDbSpline
 62
7
  6
CONTINUOUS
 70
0
 71
3
 72
12
 73
8
 74
0
 42
0.0000001
 43
0.0000001
 44
0.0000000001
 40
0.0
 40
0.0
 40
0.0
 40
0.0
 40
0.285559551
 40
0.5706148512
 40
0.8178318854
 40
0.9180775674
 40
1.0
 40
1.0
 40
1.0
 40
1.0
 10
566.7274967271
 20
121.0162979046
 30
0.0
 10
567.2305949183
 20
121.4519937187
 30
0.0
 10
568.1676059531
 20
122.4038284443
 30
0.0
 10
569.3169842373
 20
123.9290520902
 30
0.0
 10
570.0291470432
 20
125.2324229654
 30
0.0
 10
570.3415604132
 20
126.1855485469
 30
0.0
 10
570.4044519893
 20
126.6097029185
 30
0.0
 10
570.4044519893
 20
126.8006345702
 30
0.0
  0
SPLINE
  5
61C
100
AcDbEntity
  8
KONSTRUKTIONSELEMENTE
100
AcDbSpline
 62
7
  6
CONTINUOUS
 70
0
 71
3
 72
12
 73
8
 74
0
 42
0.0000001
 43
0.0000001
 44
0.0000000001
 40
0.0
 40
0.0
 40
0.0
 40
0.0
 40
0.1424771274
 40
0.2441121659
 40
0.3668815707
 40
0.6641109534
 40
1.0
 40
1.0
 40
1.0
 40
1.0
 10
612.253519457
 20
174.7886864774
 30
0.0
 10
612.3428520672
 20
174.7305872293
 30
0.0
 10
612.5501203726
 20
174.7375113403
 30
0.0
 10
612.8037390423
 20
174.8305875856
 30
0.0
 10
613.1500903044
 20
175.0167557873
 30
0.0
 10
613.5959242745
 20
175.3682042234
 30
0.0
 10
613.9247544492
 20
175.7112801216
 30
0.0
 10
614.0859200675
 20
175.9039946689
 30
0.0
  0
SPLINE
  5
61D
100
AcDbEntity
  8
KONSTRUKTIONSELEMENTE
100
AcDbSpline
 62
7
  6
CONTINUOUS
 70
0
 71
3
 72
11
 73
7
 74
0
 42
0.0000001
 43
0.0000001
 44
0.0000000001
 40
0.0
 40
0.0
 40
0.0
 40
0.0
 40
0.2916456338
 40
0.5643005996
 40
0.8039122653
 40
1.0
 40
1.0
 40
1.0
 40
1.0
 10
573.0582105153
 20
132.5824828695
 30
0.0
 10
572.7148880036
 20
132.1719533588
 30
0.0
 10
572.084567857
 20
131.3484615351
 30
0.0
 10
571.2997355259
 20
130.0961121675
 30
0.0
 10
570.7360518527
 20
128.9222445551
 30
0.0
 10
570.5004517487
 20
128.1512240392
 30
0.0
 10
570.4435970205
 20
127.7959243583
 30
0.0
  0
SPLINE
  5
61E
100
AcDbEntity
  8
KONSTRUKTIONSELEMENTE
100
AcDbSpline
 62
7
  6
CONTINUOUS
 70
0
 71
3
 72
14
 73
10
 74
0
 42
0.0000001
 43
0.0000001
 44
0.0000000001
 40
0.0
 40
0.0
 40
0.0
 40
0.0
 40
0.0643929979
 40
0.1447975566
 40
0.2461315598
 40
0.3685259667
 40
0.5095271747
 40
0.6651688664
 40
1.0
 40
1.0
 40
1.0
 40
1.0
 10
628.7079557084
 20
195.5399496127
 30
0.0
 10
628.572959562
 20
195.627747054
 30
0.0
 10
628.2086547797
 20
195.7311933619
 30
0.0
 10
627.589681486
 20
195.6572989513
 30
0.0
 10
626.8694518197
 20
195.4006060043
 30
0.0
 10
626.0649765809
 20
194.9654380542
 30
0.0
 10
625.202328733
 20
194.3674847615
 30
0.0
 10
623.9880500921
 20
193.3557495444
 30
0.0
 10
623.1371341782
 20
192.4645917605
 30
0.0
 10
622.5999536733
 20
191.8222556411
 30
0.0
  0
SPLINE
  5
61F
100
AcDbEntity
  8
KONSTRUKTIONSELEMENTE
100
AcDbSpline
 62
7
  6
CONTINUOUS
 70
0
 71
3
 72
9
 73
5
 74
0
 42
0.0000001
 43
0.0000001
 44
0.0000000001
 40
0.0
 40
0.0
 40
0.0
 40
0.0
 40
0.6167870211
 40
1.0
 40
1.0
 40
1.0
 40
1.0
 10
616.8826819593
 20
129.7553738949
 30
0.0
 10
616.8604886913
 20
129.7025001918
 30
0.0
 10
616.827675963
 20
129.6162518095
 30
0.0
 10
616.8467659217
 20
129.5107651533
 30
0.0
 10
616.8736933
 20
129.4874367156
 30
0.0
  0
SPLINE
  5
620
100
AcDbEntity
  8
KONSTRUKTIONSELEMENTE
100
AcDbSpline
 62
7
  6
CONTINUOUS
 70
0
 71
3
 72
11
 73
7
 74
0
 42
0.0000001
 43
0.0000001
 44
0.0000000001
 40
0.0
 40
0.0
 40
0.0
 40
0.0
 40
0.3244592118
 40
0.6118608502
 40
0.8417534778
 40
1.0
 40
1.0
 40
1.0
 40
1.0
 10
618.4332653041
 20
186.6536180752
 30
0.0
 10
618.6041437501
 20
186.7474350157
 30
0.0
 10
618.9191808195
 20
186.9372561896
 30
0.0
 10
619.3263931044
 20
187.2413792139
 30
0.0
 10
619.6141742453
 20
187.5247242137
 30
0.0
 10
619.7429309463
 20
187.7321983211
 30
0.0
 10
619.7585890655
 20
187.8259763136
 30
0.0
  0
SPLINE
  5
621
100
AcDbEntity
  8
KONSTRUKTIONSELEMENTE
100
AcDbSpline
 62
7
  6
CONTINUOUS
 70
0
 71
3
 72
12
 73
8
 74
0
 42
0.0000001
 43
0.0000001
 44
0.0000000001
 40
0.0
 40
0.0
 40
0.0
 40
0.0
 40
0.3170063993
 40
0.6103325802
 40
0.8455669766
 40
0.9329438759
 40
1.0
 40
1.0
 40
1.0
 40
1.0
 10
620.2826556387
 20
185.051999064
 30
0.0
 10
620.3652889836
 20
185.2942163901
 30
0.0
 10
620.4981664409
 20
185.7704409324
 30
0.0
 10
620.6012129383
 20
186.4456870285
 30
0.0
 10
620.5993556951
 20
186.9494470755
 30
0.0
 10
620.5164821587
 20
187.2545625953
 30
0.0
 10
620.447079443
 20
187.3633295073
 30
0.0
 10
620.4062424093
 20
187.3988681853
 30
0.0
  0
SPLINE
  5
622
100
AcDbEntity
  8
KONSTRUKTIONSELEMENTE
100
AcDbSpline
 62
7
  6
CONTINUOUS
 70
0
 71
3
 72
12
 73
8
 74
0
 42
0.0000001
 43
0.0000001
 44
0.0000000001
 40
0.0
 40
0.0
 40
0.0
 40
0.0
 40
0.3358890466
 40
0.6331184293
 40
0.7558878341
 40
0.8575228726
 40
1.0
 40
1.0
 40
1.0
 40
1.0
 10
609.6852904803
 20
177.3271204426
 30
0.0
 10
609.8464560986
 20
177.5198349899
 30
0.0
 10
610.1752862732
 20
177.8629108881
 30
0.0
 10
610.6211202433
 20
178.2143593242
 30
0.0
 10
610.9674715055
 20
178.4005275259
 30
0.0
 10
611.2210901751
 20
178.4936037712
 30
0.0
 10
611.4283584805
 20
178.5005278822
 30
0.0
 10
611.5176910908
 20
178.4424286341
 30
0.0
  0
SPLINE
  5
623
100
AcDbEntity
  8
KONSTRUKTIONSELEMENTE
100
AcDbSpline
 62
7
  6
CONTINUOUS
 70
0
 71
3
 72
12
 73
8
 74
0
 42
0.0000001
 43
0.0000001
 44
0.0000000001
 40
0.0
 40
0.0
 40
0.0
 40
0.0
 40
0.1424771274
 40
0.2441121659
 40
0.3668815707
 40
0.6641109534
 40
1.0
 40
1.0
 40
1.0
 40
1.0
 10
613.4601266425
 20
177.1791268592
 30
0.0
 10
613.5494592528
 20
177.1210276111
 30
0.0
 10
613.7567275582
 20
177.1279517221
 30
0.0
 10
614.0103462278
 20
177.2210279673
 30
0.0
 10
614.35669749
 20
177.407196169
 30
0.0
 10
614.8025314601
 20
177.7586446052
 30
0.0
 10
615.1313616348
 20
178.1017205033
 30
0.0
 10
615.2925272531
 20
178.2944350507
 30
0.0
  0
SPLINE
  5
624
100
AcDbEntity
  8
KONSTRUKTIONSELEMENTE
100
AcDbSpline
 62
7
  6
CONTINUOUS
 70
0
 71
3
 72
12
 73
8
 74
0
 42
0.0000001
 43
0.0000001
 44
0.0000000001
 40
0.0
 40
0.0
 40
0.0
 40
0.0
 40
0.1424811492
 40
0.2441177604
 40
0.3669057908
 40
0.6640959048
 40
1.0
 40
1.0
 40
1.0
 40
1.0
 10
611.7939000492
 20
175.1867285607
 30
0.0
 10
611.8832352245
 20
175.1286276443
 30
0.0
 10
612.0905038343
 20
175.1355483215
 30
0.0
 10
612.3441527251
 20
175.2286074944
 30
0.0
 10
612.690424169
 20
175.4148944046
 30
0.0
 10
613.1363403194
 20
175.7662050538
 30
0.0
 10
613.4651277427
 20
176.1093134773
 30
0.0
 10
613.6263006597
 20
176.3020367521
 30
0.0
  0
SPLINE
  5
625
100
AcDbEntity
  8
KONSTRUKTIONSELEMENTE
100
AcDbSpline
 62
7
  6
CONTINUOUS
 70
0
 71
3
 72
11
 73
7
 74
0
 42
0.0000001
 43
0.0000001
 44
0.0000000001
 40
0.0
 40
0.0
 40
0.0
 40
0.0
 40
0.2857886869
 40
0.5710293088
 40
0.8184092914
 40
1.0
 40
1.0
 40
1.0
 40
1.0
 10
552.938914494
 20
111.1711195749
 30
0.0
 10
552.7502383419
 20
111.0077212341
 30
0.0
 10
552.3991684448
 20
110.6510520879
 30
0.0
 10
551.9668459371
 20
110.0779361561
 30
0.0
 10
551.6693676196
 20
109.5298686673
 30
0.0
 10
551.5600562707
 20
109.1605865482
 30
0.0
 10
551.5600562707
 20
109.0019933253
 30
0.0
  0
SPLINE
  5
626
100
AcDbEntity
  8
KONSTRUKTIONSELEMENTE
100
AcDbSpline
 62
7
  6
CONTINUOUS
 70
0
 71
3
 72
11
 73
7
 74
0
 42
0.0000001
 43
0.0000001
 44
0.0000000001
 40
0.0
 40
0.0
 40
0.0
 40
0.0
 40
0.2028669078
 40
0.4536008687
 40
0.7286103745
 40
1.0
 40
1.0
 40
1.0
 40
1.0
 10
569.9448325815
 20
127.9921198735
 30
0.0
 10
569.8491513064
 20
127.5686500694
 30
0.0
 10
569.4808780657
 20
126.6591816472
 30
0.0
 10
568.670859622
 20
125.3234984893
 30
0.0
 10
567.6080198785
 20
123.9835728029
 30
0.0
 10
566.7773716799
 20
123.1555750471
 30
0.0
 10
566.3383383756
 20
122.7753610524
 30
0.0
  0
SPLINE
  5
627
100
AcDbEntity
  8
KONSTRUKTIONSELEMENTE
100
AcDbSpline
 62
7
  6
CONTINUOUS
 70
0
 71
3
 72
12
 73
8
 74
0
 42
0.0000001
 43
0.0000001
 44
0.0000000001
 40
0.0
 40
0.0
 40
0.0
 40
0.0
 40
0.2855672817
 40
0.5706138983
 40
0.8178266478
 40
0.9180835819
 40
1.0
 40
1.0
 40
1.0
 40
1.0
 10
566.2678773193
 20
121.4143399878
 30
0.0
 10
566.7709888714
 20
121.8500473728
 30
0.0
 10
567.708004071
 20
122.801877542
 30
0.0
 10
568.8573410444
 20
124.3271088079
 30
0.0
 10
569.5695495448
 20
125.630456142
 30
0.0
 10
569.8819169021
 20
126.5835968204
 30
0.0
 10
569.9448325815
 20
127.0077591175
 30
0.0
 10
569.9448325815
 20
127.1986766534
 30
0.0
  0
SPLINE
  5
628
100
AcDbEntity
  8
KONSTRUKTIONSELEMENTE
100
AcDbSpline
 62
7
  6
CONTINUOUS
 70
0
 71
3
 72
9
 73
5
 74
0
 42
0.0000001
 43
0.0000001
 44
0.0000000001
 40
0.0
 40
0.0
 40
0.0
 40
0.0
 40
0.2756955256
 40
1.0
 40
1.0
 40
1.0
 40
1.0
 10
569.9448325815
 20
116.0836766534
 30
0.0
 10
569.9448325815
 20
116.1294449336
 30
0.0
 10
569.9386423948
 20
116.2951287538
 30
0.0
 10
569.9048237253
 20
116.4617237174
 30
0.0
 10
569.8571620246
 20
116.5721161585
 30
0.0
  0
SPLINE
  5
629
100
AcDbEntity
  8
KONSTRUKTIONSELEMENTE
100
AcDbSpline
 62
7
  6
CONTINUOUS
 70
0
 71
3
 72
9
 73
5
 74
0
 42
0.0000001
 43
0.0000001
 44
0.0000000001
 40
0.0
 40
0.0
 40
0.0
 40
0.0
 40
0.5486959742
 40
1.0
 40
1.0
 40
1.0
 40
1.0
 10
569.9448325815
 20
114.7836766534
 30
0.0
 10
569.9448325815
 20
114.9325038092
 30
0.0
 10
569.915400352
 20
115.208092733
 30
0.0
 10
569.7645826941
 20
115.4500869403
 30
0.0
 10
569.6720350258
 20
115.5302076289
 30
0.0
  0
SPLINE
  5
62A
100
AcDbEntity
  8
KONSTRUKTIONSELEMENTE
100
AcDbSpline
 62
7
  6
CONTINUOUS
 70
0
 71
3
 72
9
 73
5
 74
0
 42
0.0000001
 43
0.0000001
 44
0.0000000001
 40
0.0
 40
0.0
 40
0.0
 40
0.0
 40
0.2933152047
 40
1.0
 40
1.0
 40
1.0
 40
1.0
 10
551.5600562707
 20
102.4369933253
 30
0.0
 10
551.5600562707
 20
102.4073885521
 30
0.0
 10
551.5656553123
 20
102.307393148
 30
0.0
 10
551.6084071127
 20
102.2037663657
 30
0.0
 10
551.6623256038
 20
102.1570725475
 30
0.0
  0
SPLINE
  5
62B
100
AcDbEntity
  8
0
100
AcDbSpline
 62
7
  6
CONTINUOUS
 70
0
 71
3
 72
11
 73
7
 74
0
 42
0.0000001
 43
0.0000001
 44
0.0000000001
 40
0.0
 40
0.0
 40
0.0
 40
0.0
 40
0.2280974949
 40
0.4667869455
 40
0.7233157359
 40
1.0
 40
1.0
 40
1.0
 40
1.0
 10
722.1811472859
 20
333.6897569186
 30
0.0
 10
722.1811472859
 20
335.1017159752
 30
0.0
 10
722.5708184364
 20
338.0046957448
 30
0.0
 10
724.3150719746
 20
342.1791370147
 30
0.0
 10
727.2046409951
 20
346.0400920509
 30
0.0
 10
729.7571341611
 20
348.1824810221
 30
0.0
 10
731.1753464562
 20
349.142730649
 30
0.0
  0
SPLINE
  5
62C
100
AcDbEntity
  8
0
100
AcDbSpline
 62
7
  6
CONTINUOUS
 70
0
 71
3
 72
11
 73
7
 74
0
 42
0.0000001
 43
0.0000001
 44
0.0000000001
 40
0.0
 40
0.0
 40
0.0
 40
0.0
 40
0.2766834643
 40
0.533211798
 40
0.7719013868
 40
1.0
 40
1.0
 40
1.0
 40
1.0
 10
763.1882004603
 20
349.1418800859
 30
0.0
 10
764.6062319162
 20
348.1816196535
 30
0.0
 10
767.1583969614
 20
346.0392775602
 30
0.0
 10
770.0475479472
 20
342.1785111457
 30
0.0
 10
771.791539822
 20
338.0043597133
 30
0.0
 10
772.1811472859
 20
335.1016085279
 30
0.0
 10
772.1811472859
 20
333.6897569186
 30
0.0
  0
SPLINE
  5
62D
100
AcDbEntity
  8
0
100
AcDbSpline
 62
7
  6
CONTINUOUS
 70
0
 71
3
 72
15
 73
11
 74
0
 42
0.0000001
 43
0.0000001
 44
0.0000000001
 40
0.0
 40
0.0
 40
0.0
 40
0.0
 40
0.1215781036
 40
0.2435598428
 40
0.3663284208
 40
0.4902144715
 40
0.6154639991
 40
0.7422094959
 40
0.8704410331
 40
1.0
 40
1.0
 40
1.0
 40
1.0
 10
700.1811472859
 20
333.6897569186
 30
0.0
 10
700.1811472859
 20
335.8693992175
 30
0.0
 10
700.5592311648
 20
340.2451504436
 30
0.0
 10
702.2410825346
 20
346.6249288418
 30
0.0
 10
704.9850877546
 20
352.6711549018
 30
0.0
 10
708.7095209911
 20
358.2360723646
 30
0.0
 10
713.3111045653
 20
363.1960892947
 30
0.0
 10
718.6718611665
 20
367.4481176779
 30
0.0
 10
724.660771549
 20
370.9085716812
 30
0.0
 10
728.9657086858
 20
372.6382542352
 30
0.0
 10
731.1753391179
 20
373.3541965926
 30
0.0
  0
SPLINE
  5
62E
100
AcDbEntity
  8
0
100
AcDbSpline
 62
7
  6
CONTINUOUS
 70
0
 71
3
 72
15
 73
11
 74
0
 42
0.0000001
 43
0.0000001
 44
0.0000000001
 40
0.0
 40
0.0
 40
0.0
 40
0.0
 40
0.1295592315
 40
0.2577906836
 40
0.384535886
 40
0.5097850289
 40
0.6336707241
 40
0.756439124
 40
0.8784210718
 40
1.0
 40
1.0
 40
1.0
 40
1.0
 10
763.1852385536
 20
373.3547493029
 30
0.0
 10
765.3949705692
 20
372.6388530043
 30
0.0
 10
769.7001200611
 20
370.9092739279
 30
0.0
 10
775.6893329661
 20
367.4488792071
 30
0.0
 10
781.050367398
 20
363.1968550643
 30
0.0
 10
785.6522182166
 20
358.2368006101
 30
0.0
 10
789.3768690648
 20
352.6717770456
 30
0.0
 10
792.1210603456
 20
346.6253965254
 30
0.0
 10
793.8030342187
 20
340.2454037335
 30
0.0
 10
794.1811472859
 20
335.8694869132
 30
0.0
 10
794.1811472859
 20
333.6897569186
 30
0.0
  0
SPLINE
  5
62F
100
AcDbEntity
  8
0
100
AcDbSpline
 62
7
  6
CONTINUOUS
 70
0
 71
3
 72
15
 73
11
 74
0
 42
0.0000001
 43
0.0000001
 44
0.0000000001
 40
0.0
 40
0.0
 40
0.0
 40
0.0
 40
0.1210610265
 40
0.2426160233
 40
0.3651256776
 40
0.4889695023
 40
0.6143995886
 40
0.7414947701
 40
0.8701330792
 40
1.0
 40
1.0
 40
1.0
 40
1.0
 10
794.1811472859
 20
277.3981056726
 30
0.0
 10
794.1811472859
 20
274.981772861
 30
0.0
 10
793.7156502989
 20
270.12669811
 30
0.0
 10
791.6504526782
 20
263.0948688274
 30
0.0
 10
788.2974774627
 20
256.5150701438
 30
0.0
 10
783.7776418664
 20
250.5814541122
 30
0.0
 10
778.2412488749
 20
245.4512198853
 30
0.0
 10
771.857479842
 20
241.251088653
 30
0.0
 10
764.812208043
 20
238.0791079875
 30
0.0
 10
759.8155461033
 20
236.7012514463
 30
0.0
 10
757.2721303645
 20
236.2012577097
 30
0.0
  0
SPLINE
  5
630
100
AcDbEntity
  8
0
100
AcDbSpline
 62
7
  6
CONTINUOUS
 70
0
 71
3
 72
11
 73
7
 74
0
 42
0.0000001
 43
0.0000001
 44
0.0000000001
 40
0.0
 40
0.0
 40
0.0
 40
0.0
 40
0.2540583159
 40
0.5057547979
 40
0.754483655
 40
1.0
 40
1.0
 40
1.0
 40
1.0
 10
737.0927798649
 20
236.2007428105
 30
0.0
 10
734.5830060328
 20
236.6940018065
 30
0.0
 10
729.6513267883
 20
238.0483324272
 30
0.0
 10
722.6886787632
 20
241.1570354554
 30
0.0
 10
716.3667503672
 20
245.2670910464
 30
0.0
 10
712.6705178325
 20
248.6389655229
 30
0.0
 10
710.9930783503
 20
250.4544357345
 30
0.0
  0
SPLINE
  5
631
100
AcDbEntity
  8
0
100
AcDbSpline
 62
7
  6
CONTINUOUS
 70
0
 71
3
 72
11
 73
7
 74
0
 42
0.0000001
 43
0.0000001
 44
0.0000000001
 40
0.0
 40
0.0
 40
0.0
 40
0.0
 40
0.2521987722
 40
0.5025435313
 40
0.75159912
 40
1.0
 40
1.0
 40
1.0
 40
1.0
 10
707.1222276347
 20
255.3072100398
 30
0.0
 10
706.007955379
 20
256.9371265478
 30
0.0
 10
704.0163189133
 20
260.3489175113
 30
0.0
 10
701.8215199559
 20
265.8311802975
 30
0.0
 10
700.481568412
 20
271.5524747257
 30
0.0
 10
700.1811472859
 20
275.4534446088
 30
0.0
 10
700.1811472859
 20
277.3981056726
 30
0.0
  0
SPLINE
  5
632
100
AcDbEntity
  8
0
100
AcDbSpline
 62
7
  6
CONTINUOUS
 70
0
 71
3
 72
14
 73
10
 74
0
 42
0.0000001
 43
0.0000001
 44
0.0000000001
 40
0.0
 40
0.0
 40
0.0
 40
0.0
 40
0.1078259079
 40
0.2181660442
 40
0.3331577066
 40
0.454187284
 40
0.5818617131
 40
0.7160485367
 40
1.0
 40
1.0
 40
1.0
 40
1.0
 10
772.1811472859
 20
277.3981056726
 30
0.0
 10
772.1811472859
 20
276.4225932993
 30
0.0
 10
771.9990443196
 20
274.4442044286
 30
0.0
 10
771.1790946968
 20
271.5276938831
 30
0.0
 10
769.8061715001
 20
268.6930838556
 30
0.0
 10
767.8824638396
 20
266.0052360492
 30
0.0
 10
765.4272863136
 20
263.5399529976
 30
0.0
 10
761.4366099445
 20
260.6076666849
 30
0.0
 10
757.9053342225
 20
259.0723008441
 30
0.0
 10
755.4351755517
 20
258.3667775999
 30
0.0
  0
SPLINE
  5
633
100
AcDbEntity
  8
0
100
AcDbSpline
 62
7
  6
CONTINUOUS
 70
0
 71
3
 72
9
 73
5
 74
0
 42
0.0000001
 43
0.0000001
 44
0.0000000001
 40
0.0
 40
0.0
 40
0.0
 40
0.0
 40
0.516614772
 40
1.0
 40
1.0
 40
1.0
 40
1.0
 10
738.9268912406
 20
258.366846192
 30
0.0
 10
736.8286225507
 20
258.9661687177
 30
0.0
 10
732.8813752281
 20
260.5881208427
 30
0.0
 10
729.4357434072
 20
263.1210006602
 30
0.0
 10
727.9713955997
 20
264.5439259462
 30
0.0
  0
SPLINE
  5
634
100
AcDbEntity
  8
0
100
AcDbSpline
 62
7
  6
CONTINUOUS
 70
0
 71
3
 72
9
 73
5
 74
0
 42
0.0000001
 43
0.0000001
 44
0.0000000001
 40
0.0
 40
0.0
 40
0.0
 40
0.0
 40
0.5099491102
 40
1.0
 40
1.0
 40
1.0
 40
1.0
 10
724.1199925294
 20
269.6624775062
 30
0.0
 10
723.4893628479
 20
270.8736526021
 30
0.0
 10
722.5152947986
 20
273.3983263744
 30
0.0
 10
722.1811472859
 20
276.0858703773
 30
0.0
 10
722.1811472859
 20
277.3981056726
 30
0.0
  0
ELLIPSE
  5
635
100
AcDbEntity
  8
KONSTRUKTIONSELEMENTE
100
AcDbEllipse
 62
7
  6
CONTINUOUS
 10
98.2183060255
 20
188.9833858573
 30
0.0
 11
1.980963632
 21
-0.4682215726
 31
0.0
 40
0.0607989098
 41
-2.7235007144
 42
-1.1527043876
  0
ELLIPSE
  5
636
100
AcDbEntity
  8
KONSTRUKTIONSELEMENTE
100
AcDbEllipse
 62
7
  6
CONTINUOUS
 10
104.3969928483
 20
185.6145232909
 30
0.0
 11
-1.0679387289
 21
1.9951776436
 31
0.0
 40
0.7424978488
 41
4.1566475332
 42
5.72744386
  0
ELLIPSE
  5
637
100
AcDbEntity
  8
KONSTRUKTIONSELEMENTE
100
AcDbEllipse
 62
7
  6
CONTINUOUS
 10
128.2939873786
 20
145.8516505064
 30
0.0
 11
38.9711431703
 21
67.5
 31
0.0
 40
0.5773502692
 41
-0.346223333
 42
-0.1584398369
  0
ELLIPSE
  5
638
100
AcDbEntity
  8
KONSTRUKTIONSELEMENTE
100
AcDbEllipse
 62
7
  6
CONTINUOUS
 10
128.2939873786
 20
145.8516505064
 30
0.0
 11
38.9711431703
 21
67.5
 31
0.0
 40
0.5773502692
 41
0.1584398369
 42
0.346223333
  0
ELLIPSE
  5
639
100
AcDbEntity
  8
0
100
AcDbEllipse
 62
7
  6
CONTINUOUS
 10
465.1907499809
 20
145.8516505064
 30
0.0
 11
-38.9711431703
 21
67.5
 31
0.0
 40
0.5773502692
 41
-0.346223333
 42
-0.1584398369
  0
ELLIPSE
  5
63A
100
AcDbEntity
  8
0
100
AcDbEllipse
 62
7
  6
CONTINUOUS
 10
465.1907499809
 20
145.8516505064
 30
0.0
 11
-38.9711431703
 21
67.5
 31
0.0
 40
0.5773502692
 41
0.1584398369
 42
0.346223333
  0
ELLIPSE
  5
63B
100
AcDbEntity
  8
0
100
AcDbEllipse
 62
7
  6
CONTINUOUS
 10
739.7563634804
 20
233.5203626483
 30
0.0
 11
-0.7577623572
 21
19.9859496715
 31
0.0
 40
0.1499826174
 41
-2.0721294977
 42
-1.8184032029
  0
ELLIPSE
  5
63C
100
AcDbEntity
  8
0
100
AcDbEllipse
 62
7
  6
CONTINUOUS
 10
740.0496397514
 20
226.2008663576
 30
0.0
 11
-0.2160298241
 21
4.5941061937
 31
0.0
 40
0.6522685966
 41
-2.4741231321
 42
-2.0971051843
  0
ELLIPSE
  5
63D
100
AcDbEntity
  8
RUNDUNGEN
100
AcDbEllipse
 62
7
  6
CONTINUOUS
 10
754.3126548204
 20
226.2008663576
 30
0.0
 11
0.2160298241
 21
4.5941061937
 31
0.0
 40
0.6522685966
 41
-4.1860801229
 42
-3.8090621751
  0
ELLIPSE
  5
63E
100
AcDbEntity
  8
RUNDUNGEN
100
AcDbEllipse
 62
7
  6
CONTINUOUS
 10
754.6059310914
 20
233.5203626483
 30
0.0
 11
0.7577623572
 21
19.9859496715
 31
0.0
 40
0.1499826174
 41
-4.4647821042
 42
-4.2110558095
  0
ELLIPSE
  5
63F
100
AcDbEntity
  8
KONSTRUKTIONSELEMENTE
100
AcDbEllipse
 62
7
  6
CONTINUOUS
 10
617.5997225302
 20
191.9840107922
 30
0.0
 11
-0.21844181
 21
2.7146389778
 31
0.0
 40
0.2046205075
 41
1.414284035
 42
2.9366360375
  0
ELLIPSE
  5
640
100
AcDbEntity
  8
KONSTRUKTIONSELEMENTE
100
AcDbEllipse
 62
7
  6
CONTINUOUS
 10
617.7715453773
 20
188.6763854694
 30
0.0
 11
1.7851318869
 21
2.0999716065
 31
0.0
 40
0.2502772103
 41
4.7445645141
 42
4.8795928328
  0
ELLIPSE
  5
641
100
AcDbEntity
  8
KONSTRUKTIONSELEMENTE
100
AcDbEllipse
 62
7
  6
CONTINUOUS
 10
621.0645457581
 20
188.9833858573
 30
0.0
 11
2.6921229081
 21
0.2166299849
 31
0.0
 40
0.1605475814
 41
1.7760442449
 42
3.2983962474
  0
ELLIPSE
  5
642
100
AcDbEntity
  8
KONSTRUKTIONSELEMENTE
100
AcDbEllipse
 62
7
  6
CONTINUOUS
 10
621.3070792832
 20
185.6145232909
 30
0.0
 11
1.7851318869
 21
2.0999716065
 31
0.0
 40
0.2502772103
 41
-1.538620793
 42
0.0321755338
  0
ENDSEC
  0
SECTION
  2
OBJECTS
  0
DICTIONARY
  5
C
100
AcDbDictionary
280
0
281
1
  3
ACAD_GROUP
350
D
  3
ACAD_MLINESTYLE
350
17
  3
ACAD_LAYOUT
350
1A
  3
ACAD_PLOTSETTINGS
350
19
  3
ACAD_PLOTSTYLENAME
350
E
  0
DICTIONARY
  5
D
102
{ACAD_REACTORS
330
C
102
}
100
AcDbDictionary
280
0
281
1
  0
ACDBDICTIONARYWDFLT
  5
E
102
{ACAD_REACTORS
330
C
102
}
100
AcDbDictionary
281
1
  3
Normal
350
F
100
AcDbDictionaryWithDefault
340
F
  0
DICTIONARY
  5
17
102
{ACAD_REACTORS
330
C
102
}
100
AcDbDictionary
280
0
281
1
  3
Standard
350
18
  0
DICTIONARY
  5
19
102
{ACAD_REACTORS
330
C
102
}
100
AcDbDictionary
281
1
  0
DICTIONARY
  5
1A
102
{ACAD_REACTORS
330
C
102
}
100
AcDbDictionary
281
1
  3
Model
350
643
  3
Layout1
350
644
  0
ACDBPLACEHOLDER
  5
F
102
{ACAD_REACTORS
330
E
102
}
  0
MLINESTYLE
  5
18
102
{ACAD_REACTORS
330
17
102
}
100
AcDbMlineStyle
  2
STANDARD
 70
0
  3

 62
256
 51
90.0
 52
90.0
 71
2
 49
0.5
 62
256
  6
BYLAYER
 49
-0.5
 62
256
  6
BYLAYER
  0
LAYOUT
  5
643
102
{ACAD_REACTORS
330
1A
102
}
100
AcDbPlotSettings
  1

  2
none_device
  4
ISO_A0_(1189.00_x_841.00_MM)
  6

 40
0.0
 41
0.0
 42
0.0
 43
0.0
 44
1189.0
 45
841.0
 46
0.0
 47
0.0
 48
0.0
 49
0.0
140
0.0
141
0.0
142
1.0
143
1.0
 70
1024
 72
1
 73
0
 74
0
  7

 75
0
147
1.0
148
0.0
149
0.0
100
AcDbLayout
  1
Model
 70
0
 71
0
 10
0.0
 20
0.0
 11
1189.0
 21
841.0
 12
0.0
 22
0.0
 32
0.0
 14
0.0
 24
0.0
 34
0.0
 15
0.0
 25
0.0
 35
0.0
146
0.0
 13
0.0
 23
0.0
 33
0.0
 16
1.0
 26
0.0
 36
0.0
 17
0.0
 27
1.0
 37
0.0
 76
0
330
20C
345
0
346
0
  0
LAYOUT
  5
644
102
{ACAD_REACTORS
330
1A
102
}
100
AcDbPlotSettings
  1

  2
none_device
  4
ISO_A0_(1189.00_x_841.00_MM)
  6

 40
0.0
 41
0.0
 42
0.0
 43
0.0
 44
1189.0
 45
841.0
 46
0.0
 47
0.0
 48
0.0
 49
0.0
140
0.0
141
0.0
142
1.0
143
1.0
 70
0
 72
1
 73
0
 74
0
  7

 75
0
147
1.0
148
0.0
149
0.0
100
AcDbLayout
  1
Layout1
 70
0
 71
1
 10
0.0
 20
0.0
 11
1189.0
 21
841.0
 12
0.0
 22
0.0
 32
0.0
 14
0.0
 24
0.0
 34
0.0
 15
0.0
 25
0.0
 35
0.0
146
0.0
 13
0.0
 23
0.0
 33
0.0
 16
1.0
 26
0.0
 36
0.0
 17
0.0
 27
1.0
 37
0.0
 76
0
330
20D
345
0
346
0
  0
ENDSEC
  0
EOF
