999
DXF file: VSAK-2-13_140_7994073_M32393-P-4.dxf
999
Pro/ENGINEER 2010140 by Parametric Technology Corporation
  0
SECTION
  2
HEADER
  9
$ACADVER
  1
AC1015
  9
$DWGCODEPAGE
  3
ANSI_1252
  9
$EXTMAX
 10
841.0
 20
594.0
 30
0.0
  9
$EXTMIN
 10
0.0
 20
0.0
 30
0.0
  9
$LIMMIN
 10
0.0
 20
0.0
  9
$LIMMAX
 10
841.0
 20
594.0
  9
$VIEWCTR
 10
420.5
 20
297.0
  9
$VIEWSIZE
 40
594.0
  9
$CLAYER
  8
0
  9
$LTSCALE
 40
46.255
  9
$CELTYPE
  6
BYLAYER
  9
$DIMSCALE
 40
1.0
  9
$DIMASZ
 40
3.5
  9
$DIMEXO
 40
5.25625
  9
$DIMDLI
 40
31.958
  9
$DIMEXE
 40
15.138
  9
$DIMCEN
 40
7.569
  9
$DIMLFAC
 40
1.0
  9
$DIMBLK
  1
_FILLED
  9
$DIMTXT
 40
3.5
  9
$DIMTOL
 70
1
  9
$DIMLIM
 70
0
  9
$DIMTFAC
 40
1.0
  9
$DIMTP
 40
0.005
  9
$DIMTM
 40
0.005
  9
$PDMODE
 70
3
  9
$PDSIZE
 40
0.3125
  9
$HANDSEED
  5
648
  9
$TILEMODE
 70
1
  9
$MEASUREMENT
 70
1
  9
$INSUNITS
 70
4
  0
ENDSEC
  0
SECTION
  2
CLASSES
  0
CLASS
  1
ACDBDICTIONARYWDFLT
  2
AcDbDictionaryWithDefault
  3
AutoCAD 2000
 90
0
280
0
281
0
  0
CLASS
  1
ACDBPLACEHOLDER
  2
AcDbPlaceHolder
  3
AutoCAD 2000
 90
0
280
0
281
0
  0
CLASS
  1
LAYOUT
  2
AcDbLayout
  3
AutoCAD 2000
 90
0
280
0
281
0
  0
ENDSEC
  0
SECTION
  2
TABLES
  0
TABLE
  2
VPORT
  5
8
100
AcDbSymbolTable
 70
2
  0
VPORT
  5
1F4
100
AcDbSymbolTableRecord
100
AcDbViewportTableRecord
  2
*ACTIVE
 70
0
 10
0.0
 20
0.0
 11
1.0
 21
1.0
 12
420.5
 22
297.0
 13
0.0
 23
0.0
 14
1.0
 24
1.0
 15
0.0
 25
0.0
 16
0.0
 26
0.0
 36
1.0
 17
0.0
 27
0.0
 37
0.0
 40
594.0
 41
1.4158249158
 42
50.0
 43
0.0
 44
0.0
 50
0.0
 51
0.0
 71
0
 72
100
 73
1
 74
1
 75
0
 76
0
 77
0
 78
0
  0
ENDTAB
  0
TABLE
  2
LTYPE
  5
5
100
AcDbSymbolTable
 70
6
  0
LTYPE
  5
14
100
AcDbSymbolTableRecord
100
AcDbLinetypeTableRecord
  2
BYBLOCK
 70
0
  3

 72
65
 73
0
 40
0.0
  0
LTYPE
  5
15
100
AcDbSymbolTableRecord
100
AcDbLinetypeTableRecord
  2
BYLAYER
 70
0
  3

 72
65
 73
0
 40
0.0
  0
LTYPE
  5
16
100
AcDbSymbolTableRecord
100
AcDbLinetypeTableRecord
  2
CONTINUOUS
 70
64
  3
Solid line
 72
65
 73
0
 40
0.0
  0
LTYPE
  5
1F5
100
AcDbSymbolTableRecord
100
AcDbLinetypeTableRecord
  2
CENTER
 70
64
  3
____ _ ____ _ ____ _ ____ _ ____ _ ____ _ ____
 72
65
 73
4
 40
0.6
 49
0.375
 74
0
 49
-0.075
 74
0
 49
0.075
 74
0
 49
-0.075
 74
0
  0
LTYPE
  5
1F6
100
AcDbSymbolTableRecord
100
AcDbLinetypeTableRecord
  2
HIDDEN
 70
64
  3
- - - - - - - - - - - - - - - - - - - -
 72
65
 73
2
 40
0.2
 49
0.1
 74
0
 49
-0.1
 74
0
  0
LTYPE
  5
1F7
100
AcDbSymbolTableRecord
100
AcDbLinetypeTableRecord
  2
PHANTOM
 70
64
  3
_____ _ _ _____ _ _ _____ _ _ _____
 72
65
 73
6
 40
0.8
 49
0.45
 74
0
 49
-0.05
 74
0
 49
0.1
 74
0
 49
-0.05
 74
0
 49
0.1
 74
0
 49
-0.05
 74
0
  0
LTYPE
  5
1F8
100
AcDbSymbolTableRecord
100
AcDbLinetypeTableRecord
  2
DOT
 70
64
  3
. . . . . . . . . . . . . . . . . . . .
 72
65
 73
2
 40
0.2
 49
0.1
 74
0
 49
-0.1
 74
0
  0
LTYPE
  5
1F9
100
AcDbSymbolTableRecord
100
AcDbLinetypeTableRecord
  2
DASHED
 70
64
  3
- - - - - - - - - - - - - - - - - - - -
 72
65
 73
2
 40
0.2
 49
0.1
 74
0
 49
-0.1
 74
0
  0
ENDTAB
  0
TABLE
  2
LAYER
  5
2
100
AcDbSymbolTable
 70
36
  0
LAYER
  5
10
100
AcDbSymbolTableRecord
100
AcDbLayerTableRecord
  2
0
 70
0
 62
7
  6
CONTINUOUS
370
-3
390
F
  0
LAYER
  5
1FA
100
AcDbSymbolTableRecord
100
AcDbLayerTableRecord
  2
DEFAULT_1
 70
0
 62
7
  6
CENTER
370
-3
390
F
  0
LAYER
  5
1FB
100
AcDbSymbolTableRecord
100
AcDbLayerTableRecord
  2
DEFAULT_2
 70
0
 62
8
  6
HIDDEN
370
-3
390
F
  0
LAYER
  5
1FC
100
AcDbSymbolTableRecord
100
AcDbLayerTableRecord
  2
DEFAULT_3
 70
0
 62
7
  6
PHANTOM
370
-3
390
F
  0
LAYER
  5
1FD
100
AcDbSymbolTableRecord
100
AcDbLayerTableRecord
  2
AUSFORMSCHRAEGEN
 70
0
 62
7
  6
CONTINUOUS
370
-3
390
F
  0
LAYER
  5
1FE
100
AcDbSymbolTableRecord
100
AcDbLayerTableRecord
  2
BEZUGSACHSEN
 70
0
 62
7
  6
CONTINUOUS
370
-3
390
F
  0
LAYER
  5
1FF
100
AcDbSymbolTableRecord
100
AcDbLayerTableRecord
  2
BEZUGSEBENEN
 70
0
 62
7
  6
CONTINUOUS
370
-3
390
F
  0
LAYER
  5
200
100
AcDbSymbolTableRecord
100
AcDbLayerTableRecord
  2
BG_STARTBEZUEGE
 70
0
 62
7
  6
CONTINUOUS
370
-3
390
F
  0
LAYER
  5
201
100
AcDbSymbolTableRecord
100
AcDbLayerTableRecord
  2
FASEN
 70
0
 62
7
  6
CONTINUOUS
370
-3
390
F
  0
LAYER
  5
202
100
AcDbSymbolTableRecord
100
AcDbLayerTableRecord
  2
HILFEN
 70
0
 62
7
  6
CONTINUOUS
370
-3
390
F
  0
LAYER
  5
203
100
AcDbSymbolTableRecord
100
AcDbLayerTableRecord
  2
KONSTRUKTIONSELEMENTE
 70
0
 62
7
  6
CONTINUOUS
370
-3
390
F
  0
LAYER
  5
204
100
AcDbSymbolTableRecord
100
AcDbLayerTableRecord
  2
NORM
 70
0
 62
7
  6
CONTINUOUS
370
-3
390
F
  0
LAYER
  5
205
100
AcDbSymbolTableRecord
100
AcDbLayerTableRecord
  2
PLATZIERUNG
 70
0
 62
7
  6
CONTINUOUS
370
-3
390
F
  0
LAYER
  5
206
100
AcDbSymbolTableRecord
100
AcDbLayerTableRecord
  2
PLAZIERUNG
 70
0
 62
7
  6
CONTINUOUS
370
-3
390
F
  0
LAYER
  5
207
100
AcDbSymbolTableRecord
100
AcDbLayerTableRecord
  2
RUNDUNGEN
 70
0
 62
7
  6
CONTINUOUS
370
-3
390
F
  0
LAYER
  5
208
100
AcDbSymbolTableRecord
100
AcDbLayerTableRecord
  2
TEIL_STARTBEZUEGE
 70
0
 62
7
  6
CONTINUOUS
370
-3
390
F
  0
LAYER
  5
209
100
AcDbSymbolTableRecord
100
AcDbLayerTableRecord
  2
T_STARTBEZUEGE
 70
0
 62
7
  6
CONTINUOUS
370
-3
390
F
  0
ENDTAB
  0
TABLE
  2
STYLE
  5
3
100
AcDbSymbolTable
 70
1
  0
STYLE
  5
11
100
AcDbSymbolTableRecord
100
AcDbTextStyleTableRecord
  2
STANDARD
 70
0
 40
0.0
 41
0.7
 50
0.0
 71
0
 42
0.2
  3
txt
  4

  0
STYLE
  5
20A
100
AcDbSymbolTableRecord
100
AcDbTextStyleTableRecord
  2
TEXTSTYLE_1
 70
0
 40
0.0
 41
0.8
 50
0.0
 71
0
 42
0.2
  3
gdt
  4

  0
ENDTAB
  0
TABLE
  2
VIEW
  5
6
100
AcDbSymbolTable
 70
0
  0
ENDTAB
  0
TABLE
  2
UCS
  5
7
100
AcDbSymbolTable
 70
0
  0
ENDTAB
  0
TABLE
  2
APPID
  5
9
100
AcDbSymbolTable
 70
1
  0
APPID
  5
20B
100
AcDbSymbolTableRecord
100
AcDbRegAppTableRecord
  2
ACAD
 70
0
  0
ENDTAB
  0
TABLE
  2
BLOCK_RECORD
  5
1
100
AcDbSymbolTable
 70
0
  0
BLOCK_RECORD
  5
20C
100
AcDbSymbolTableRecord
100
AcDbBlockTableRecord
  2
*Model_Space
  0
BLOCK_RECORD
  5
20D
100
AcDbSymbolTableRecord
100
AcDbBlockTableRecord
  2
*Paper_Space
  0
ENDTAB
  0
TABLE
  2
DIMSTYLE
  5
A
100
AcDbSymbolTable
 70
1
100
AcDbDimStyleTable
 71
0
  0
DIMSTYLE
105
20E
100
AcDbSymbolTableRecord
100
AcDbDimStyleTableRecord
  2
STANDARD
 70
0
  3

  4

 40
1.0
 41
3.5
 42
0.0625
 43
0.38
 44
0.18
 45
0.0
 46
0.0
 47
0.005
 48
0.005
140
3.5
141
0.09
142
0.0
143
25.4
144
1.0
145
0.0
146
1.0
147
0.09
 71
1.0
 72
0.0
 73
0
 74
0
 75
0
 76
0
 77
1
 78
8
170
0
171
2
172
0
173
0
174
0
175
0
176
0
177
0
178
5
270
2
271
3
272
3
273
2
274
2
275
0
280
0
281
0
282
0
283
1
284
8
285
0
286
0
287
3
288
0
340
11
  0
ENDTAB
  0
ENDSEC
  0
SECTION
  2
BLOCKS
  0
BLOCK
  5
20
100
AcDbEntity
  8
0
100
AcDbBlockBegin
  2
*Model_Space
 70
0
 10
0.0
 20
0.0
 30
0.0
  3
*Model_Space
  1

  0
ENDBLK
  5
21
100
AcDbEntity
  8
0
100
AcDbBlockEnd
  0
BLOCK
  5
1C
100
AcDbEntity
  8
0
100
AcDbBlockBegin
  2
*Paper_Space
 70
0
 10
0.0
 20
0.0
 30
0.0
  3
*Paper_Space
  1

  0
ENDBLK
  5
1D
100
AcDbEntity
  8
0
100
AcDbBlockEnd
  0
ENDSEC
  0
SECTION
  2
ENTITIES
  0
MTEXT
  5
20F
100
AcDbEntity
  8
0
100
AcDbMText
 62
5
  6
CONTINUOUS
  7
STANDARD
 71
1
 72
1
 10
124.2726578807
 20
399.9704751373
 30
0.0
 11
0.0
 21
1.0
 31
0.0
 44
0.9
  1
RUD
 40
8.0
 41
21.3333333333
  0
MTEXT
  5
210
100
AcDbEntity
  8
0
100
AcDbMText
 62
5
  6
CONTINUOUS
  7
STANDARD
 71
1
 72
1
 10
295.6435004259
 20
370.923530843
 30
0.0
 11
0.0
 21
1.0
 31
0.0
 44
0.9
  1
VSAK 2-13/140
 40
8.0
 41
79.4285714286
  0
MTEXT
  5
211
100
AcDbEntity
  8
0
100
AcDbMText
 62
5
  6
CONTINUOUS
  7
STANDARD
 71
1
 72
1
 10
580.884852267
 20
358.2823569464
 30
0.0
 11
0.0
 21
1.0
 31
0.0
 44
0.9
  1
RUD VSAK 2-13/140
 40
8.0
 41
105.5238095238
  0
LINE
  5
212
100
AcDbEntity
  8
0
100
AcDbLine
 62
7
  6
CONTINUOUS
 10
0.0
 20
0.0
 11
0.0
 21
594.0
  0
LINE
  5
213
100
AcDbEntity
  8
0
100
AcDbLine
 62
7
  6
CONTINUOUS
 10
0.0
 20
0.0
 11
841.0
 21
0.0
  0
LINE
  5
214
100
AcDbEntity
  8
0
100
AcDbLine
 62
7
  6
CONTINUOUS
 10
0.0
 20
594.0
 11
841.0
 21
594.0
  0
LINE
  5
215
100
AcDbEntity
  8
0
100
AcDbLine
 62
7
  6
CONTINUOUS
 10
841.0
 20
0.0
 11
841.0
 21
594.0
  0
LINE
  5
216
100
AcDbEntity
  8
KONSTRUKTIONSELEMENTE
100
AcDbLine
 62
7
  6
CONTINUOUS
 10
29.8902239261
 20
43.0704363467
 11
40.1353044528
 21
37.1554363467
  0
LINE
  5
217
100
AcDbEntity
  8
KONSTRUKTIONSELEMENTE
100
AcDbLine
 62
7
  6
CONTINUOUS
 10
29.5571171175
 20
43.7934784299
 11
30.12003363
 21
43.4684784299
  0
LINE
  5
218
100
AcDbEntity
  8
KONSTRUKTIONSELEMENTE
100
AcDbLine
 62
7
  6
CONTINUOUS
 10
40.3651141567
 20
37.5534784299
 11
40.9280306692
 21
37.2284784299
  0
LINE
  5
219
100
AcDbEntity
  8
KONSTRUKTIONSELEMENTE
100
AcDbLine
 62
7
  6
CONTINUOUS
 10
53.8310247079
 20
50.4771196748
 11
69.6697173498
 21
41.3326462145
  0
LINE
  5
21A
100
AcDbEntity
  8
KONSTRUKTIONSELEMENTE
100
AcDbLine
 62
7
  6
CONTINUOUS
 10
34.5792799818
 20
61.5921196748
 11
33.2049960116
 21
62.385562895
  0
LINE
  5
21B
100
AcDbEntity
  8
KONSTRUKTIONSELEMENTE
100
AcDbLine
 62
7
  6
CONTINUOUS
 10
76.496059022
 20
41.5540798739
 11
71.1263590876
 21
47.5700883671
  0
LINE
  5
21C
100
AcDbEntity
  8
KONSTRUKTIONSELEMENTE
100
AcDbLine
 62
7
  6
CONTINUOUS
 10
78.2638259749
 20
44.6159420524
 11
72.8941260405
 21
50.6319505456
  0
LINE
  5
21D
100
AcDbEntity
  8
KONSTRUKTIONSELEMENTE
100
AcDbLine
 62
7
  6
CONTINUOUS
 10
27.2648047059
 20
111.2224638894
 11
35.1596708575
 21
109.5801715821
  0
LINE
  5
21E
100
AcDbEntity
  8
KONSTRUKTIONSELEMENTE
100
AcDbLine
 62
7
  6
CONTINUOUS
 10
27.4946144097
 20
111.6205059726
 11
35.3894805614
 21
109.9782136653
  0
LINE
  5
21F
100
AcDbEntity
  8
KONSTRUKTIONSELEMENTE
100
AcDbLine
 62
7
  6
CONTINUOUS
 10
29.1980247033
 20
113.2339137387
 11
35.2709986661
 21
111.9706119639
  0
LINE
  5
220
100
AcDbEntity
  8
KONSTRUKTIONSELEMENTE
100
AcDbLine
 62
7
  6
CONTINUOUS
 10
30.5061722484
 20
115.4996917508
 11
36.5791462113
 21
114.2363899759
  0
LINE
  5
221
100
AcDbEntity
  8
KONSTRUKTIONSELEMENTE
100
AcDbLine
 62
7
  6
CONTINUOUS
 10
29.1154948251
 20
123.4746984876
 11
35.0531148152
 21
122.2395530848
  0
LINE
  5
222
100
AcDbEntity
  8
KONSTRUKTIONSELEMENTE
100
AcDbLine
 62
7
  6
CONTINUOUS
 10
34.3902220873
 20
122.5192659172
 11
26.4953559356
 21
124.1615582245
  0
LINE
  5
223
100
AcDbEntity
  8
KONSTRUKTIONSELEMENTE
100
AcDbLine
 62
7
  6
CONTINUOUS
 10
26.4953559356
 20
124.1615582245
 11
26.5153121031
 21
124.1538614944
  0
LINE
  5
224
100
AcDbEntity
  8
KONSTRUKTIONSELEMENTE
100
AcDbLine
 62
7
  6
CONTINUOUS
 10
99.9129361408
 20
106.3314552114
 11
95.0660798195
 21
109.1297890132
  0
LINE
  5
225
100
AcDbEntity
  8
KONSTRUKTIONSELEMENTE
100
AcDbLine
 62
7
  6
CONTINUOUS
 10
64.7564540729
 20
126.6290595971
 11
59.9095977516
 21
129.4273933989
  0
LINE
  5
226
100
AcDbEntity
  8
0
100
AcDbLine
 62
7
  6
CONTINUOUS
 10
78.8624865793
 20
130.2628834237
 11
91.160047313
 21
123.1628834237
  0
LINE
  5
227
100
AcDbEntity
  8
KONSTRUKTIONSELEMENTE
100
AcDbLine
 62
7
  6
CONTINUOUS
 10
117.0482813539
 20
70.5628674927
 11
122.4179812883
 21
64.5468589995
  0
LINE
  5
228
100
AcDbEntity
  8
KONSTRUKTIONSELEMENTE
100
AcDbLine
 62
7
  6
CONTINUOUS
 10
85.9471187953
 20
114.810041999
 11
124.5007993065
 21
71.6159581149
  0
LINE
  5
229
100
AcDbEntity
  8
KONSTRUKTIONSELEMENTE
100
AcDbLine
 62
7
  6
CONTINUOUS
 10
74.2351779706
 20
121.5719341869
 11
32.1263012889
 21
130.3314347173
  0
LINE
  5
22A
100
AcDbEntity
  8
KONSTRUKTIONSELEMENTE
100
AcDbLine
 62
7
  6
CONTINUOUS
 10
76.0029449236
 20
124.6337963654
 11
75.6543929417
 21
124.706302248
  0
LINE
  5
22B
100
AcDbEntity
  8
KONSTRUKTIONSELEMENTE
100
AcDbLine
 62
7
  6
CONTINUOUS
 10
63.8244013946
 20
127.1671804618
 11
33.8940682419
 21
133.3932968958
  0
LINE
  5
22C
100
AcDbEntity
  8
0
100
AcDbLine
 62
7
  6
CONTINUOUS
 10
86.6624865793
 20
143.7728797228
 11
98.960047313
 21
136.6728797228
  0
LINE
  5
22D
100
AcDbEntity
  8
KONSTRUKTIONSELEMENTE
100
AcDbLine
 62
7
  6
CONTINUOUS
 10
126.2685662595
 20
74.6778202934
 11
95.9981324978
 21
108.5916681485
  0
LINE
  5
22E
100
AcDbEntity
  8
KONSTRUKTIONSELEMENTE
100
AcDbLine
 62
7
  6
CONTINUOUS
 10
87.9519536755
 20
117.606302248
 11
87.7148857482
 21
117.8719041775
  0
LINE
  5
22F
100
AcDbEntity
  8
KONSTRUKTIONSELEMENTE
100
AcDbLine
 62
7
  6
CONTINUOUS
 10
26.3495320644
 20
126.6137407458
 11
26.4953559356
 21
124.1615582245
  0
LINE
  5
230
100
AcDbEntity
  8
KONSTRUKTIONSELEMENTE
100
AcDbLine
 62
7
  6
CONTINUOUS
 10
27.2648047059
 20
111.2224638894
 11
29.8723420177
 21
67.3739679742
  0
LINE
  5
231
100
AcDbEntity
  8
KONSTRUKTIONSELEMENTE
100
AcDbLine
 62
7
  6
CONTINUOUS
 10
27.4946144097
 20
111.6205059726
 11
27.4649939359
 21
112.1186055472
  0
LINE
  5
232
100
AcDbEntity
  8
KONSTRUKTIONSELEMENTE
100
AcDbLine
 62
7
  6
CONTINUOUS
 10
36.3377833036
 20
120.0270178631
 11
36.8927016249
 21
110.6954797736
  0
LINE
  5
233
100
AcDbEntity
  8
RUNDUNGEN
100
AcDbLine
 62
7
  6
CONTINUOUS
 10
57.0748595609
 20
141.3897842239
 11
57.1836870076
 21
140.7725931038
  0
LINE
  5
234
100
AcDbEntity
  8
0
100
AcDbLine
 62
7
  6
CONTINUOUS
 10
57.1836870076
 20
140.7725931038
 11
58.9399822455
 21
130.8121478511
  0
LINE
  5
235
100
AcDbEntity
  8
RUNDUNGEN
100
AcDbLine
 62
7
  6
CONTINUOUS
 10
65.0088457214
 20
157.4714069292
 11
64.7734567289
 21
158.8063642425
  0
LINE
  5
236
100
AcDbEntity
  8
BEZUGSACHSEN
100
AcDbLine
 62
7
  6
CONTINUOUS
 10
145.0795315027
 20
177.2648334809
 11
145.5958983396
 21
177.1982022651
  0
LINE
  5
237
100
AcDbEntity
  8
BEZUGSACHSEN
100
AcDbLine
 62
7
  6
CONTINUOUS
 10
145.6156352572
 20
180.6620964872
 11
146.1320020941
 21
180.5954652714
  0
LINE
  5
238
100
AcDbEntity
  8
BEZUGSACHSEN
100
AcDbLine
 62
7
  6
CONTINUOUS
 10
139.0244068572
 20
188.5100206263
 11
139.6662871327
 21
188.3920661076
  0
LINE
  5
239
100
AcDbEntity
  8
BEZUGSACHSEN
100
AcDbLine
 62
7
  6
CONTINUOUS
 10
142.2844377467
 20
176.9724201655
 11
142.6734411305
 21
176.8971003893
  0
LINE
  5
23A
100
AcDbEntity
  8
BEZUGSACHSEN
100
AcDbLine
 62
7
  6
CONTINUOUS
 10
142.377244367
 20
177.4879433414
 11
142.6388834865
 21
177.4039442731
  0
LINE
  5
23B
100
AcDbEntity
  8
BEZUGSACHSEN
100
AcDbLine
 62
7
  6
CONTINUOUS
 10
145.0380624564
 20
177.8730442854
 11
145.561341012
 21
177.7050415086
  0
LINE
  5
23C
100
AcDbEntity
  8
0
100
AcDbLine
 62
7
  6
CONTINUOUS
 10
327.1255574649
 20
106.1841207774
 11
317.0324943117
 21
109.8576953377
  0
LINE
  5
23D
100
AcDbEntity
  8
0
100
AcDbLine
 62
7
  6
CONTINUOUS
 10
305.7985921526
 20
125.233166068
 11
307.0723935951
 21
124.7695402586
  0
LINE
  5
23E
100
AcDbEntity
  8
BEZUGSACHSEN
100
AcDbLine
 62
7
  6
CONTINUOUS
 10
139.2355309072
 20
189.198688212
 11
139.6043332721
 21
189.0500856222
  0
LINE
  5
23F
100
AcDbEntity
  8
BEZUGSACHSEN
100
AcDbLine
 62
7
  6
CONTINUOUS
 10
141.7691562743
 20
192.855390184
 11
142.1379585603
 21
192.706787552
  0
LINE
  5
240
100
AcDbEntity
  8
BEZUGSACHSEN
100
AcDbLine
 62
7
  6
CONTINUOUS
 10
108.57518962
 20
203.9559631571
 11
109.0158565516
 21
203.7657684036
  0
LINE
  5
241
100
AcDbEntity
  8
BEZUGSACHSEN
100
AcDbLine
 62
7
  6
CONTINUOUS
 10
144.6347692858
 20
183.2083239612
 11
145.6262185882
 21
182.7756344944
  0
LINE
  5
242
100
AcDbEntity
  8
BEZUGSACHSEN
100
AcDbLine
 62
7
  6
CONTINUOUS
 10
145.6382087589
 20
183.3983649846
 11
146.62965771
 21
182.9656754513
  0
LINE
  5
243
100
AcDbEntity
  8
BEZUGSACHSEN
100
AcDbLine
 62
7
  6
CONTINUOUS
 10
141.8885233662
 20
177.1491022283
 11
142.2844377467
 21
176.9724201655
  0
LINE
  5
244
100
AcDbEntity
  8
BEZUGSACHSEN
100
AcDbLine
 62
7
  6
CONTINUOUS
 10
144.6836168058
 20
177.4415201839
 11
145.0795315027
 21
177.2648334809
  0
LINE
  5
245
100
AcDbEntity
  8
BEZUGSACHSEN
100
AcDbLine
 62
7
  6
CONTINUOUS
 10
145.6501929012
 20
180.1552526034
 11
146.0461072817
 21
179.9785705407
  0
LINE
  5
246
100
AcDbEntity
  8
BEZUGSACHSEN
100
AcDbLine
 62
7
  6
CONTINUOUS
 10
104.4109664043
 20
208.5682208297
 11
104.9174433541
 21
208.3330038019
  0
LINE
  5
247
100
AcDbEntity
  8
BEZUGSACHSEN
100
AcDbLine
 62
7
  6
CONTINUOUS
 10
138.5092808816
 20
195.2265508813
 11
138.7975922617
 21
195.0650469269
  0
LINE
  5
248
100
AcDbEntity
  8
BEZUGSACHSEN
100
AcDbLine
 62
7
  6
CONTINUOUS
 10
138.6077412781
 20
188.7482506559
 11
139.0244068572
 21
188.5100206263
  0
LINE
  5
249
100
AcDbEntity
  8
BEZUGSACHSEN
100
AcDbLine
 62
7
  6
CONTINUOUS
 10
142.3490836664
 20
193.3954530653
 11
142.7657481204
 21
193.1572250713
  0
LINE
  5
24A
100
AcDbEntity
  8
BEZUGSACHSEN
100
AcDbLine
 62
7
  6
CONTINUOUS
 10
108.6589267026
 20
204.7439812248
 11
108.9991836709
 21
204.5382554131
  0
LINE
  5
24B
100
AcDbEntity
  8
BEZUGSACHSEN
100
AcDbLine
 62
7
  6
CONTINUOUS
 10
104.5159060722
 20
207.9304629467
 11
104.78928026
 21
207.7522838638
  0
LINE
  5
24C
100
AcDbEntity
  8
BEZUGSACHSEN
100
AcDbLine
 62
7
  6
CONTINUOUS
 10
115.4140298854
 20
209.9200501677
 11
115.8158514815
 21
209.6575614933
  0
LINE
  5
24D
100
AcDbEntity
  8
BEZUGSACHSEN
100
AcDbLine
 62
7
  6
CONTINUOUS
 10
142.1086934396
 20
177.6733139645
 11
142.377244367
 21
177.4879433414
  0
LINE
  5
24E
100
AcDbEntity
  8
BEZUGSACHSEN
100
AcDbLine
 62
7
  6
CONTINUOUS
 10
144.7695116182
 20
178.0584149146
 11
145.0380624564
 21
177.8730442854
  0
LINE
  5
24F
100
AcDbEntity
  8
BEZUGSACHSEN
100
AcDbLine
 62
7
  6
CONTINUOUS
 10
146.1320020941
 20
180.5954652714
 11
146.6691037705
 21
180.224724013
  0
LINE
  5
250
100
AcDbEntity
  8
BEZUGSACHSEN
100
AcDbLine
 62
7
  6
CONTINUOUS
 10
104.9174433541
 20
208.3330038019
 11
105.3677756478
 21
207.9445939019
  0
LINE
  5
251
100
AcDbEntity
  8
BEZUGSACHSEN
100
AcDbLine
 62
7
  6
CONTINUOUS
 10
115.2988533256
 20
209.1560157947
 11
115.5990874834
 21
208.8953295486
  0
LINE
  5
252
100
AcDbEntity
  8
BEZUGSACHSEN
100
AcDbLine
 62
7
  6
CONTINUOUS
 10
108.0954956476
 20
204.3984766536
 11
108.57518962
 21
203.9559631571
  0
LINE
  5
253
100
AcDbEntity
  8
BEZUGSACHSEN
100
AcDbLine
 62
7
  6
CONTINUOUS
 10
144.2738793045
 20
177.8209407282
 11
144.6836168058
 21
177.4415201839
  0
LINE
  5
254
100
AcDbEntity
  8
BEZUGSACHSEN
100
AcDbLine
 62
7
  6
CONTINUOUS
 10
141.6130610812
 20
177.4358397751
 11
141.8885233662
 21
177.1491022283
  0
LINE
  5
255
100
AcDbEntity
  8
BEZUGSACHSEN
100
AcDbLine
 62
7
  6
CONTINUOUS
 10
146.0461072817
 20
179.9785705407
 11
146.3215695221
 21
179.6918329908
  0
LINE
  5
256
100
AcDbEntity
  8
BEZUGSACHSEN
100
AcDbLine
 62
7
  6
CONTINUOUS
 10
108.3995653385
 20
205.0913971836
 11
108.6589267026
 21
204.7439812248
  0
LINE
  5
257
100
AcDbEntity
  8
BEZUGSACHSEN
100
AcDbLine
 62
7
  6
CONTINUOUS
 10
105.337202966
 20
205.7819722057
 11
107.1311826095
 21
203.2841886388
  0
LINE
  5
258
100
AcDbEntity
  8
BEZUGSACHSEN
100
AcDbLine
 62
7
  6
CONTINUOUS
 10
104.8392497401
 20
205.3473796622
 11
106.4562711398
 21
203.0598268666
  0
LINE
  5
259
100
AcDbEntity
  8
BEZUGSACHSEN
100
AcDbLine
 62
7
  6
CONTINUOUS
 10
104.78928026
 20
207.7522838638
 11
105.0065095158
 21
207.4209118169
  0
LINE
  5
25A
100
AcDbEntity
  8
BEZUGSACHSEN
100
AcDbLine
 62
7
  6
CONTINUOUS
 10
105.3677756478
 20
207.9445939019
 11
105.5850049037
 21
207.613221855
  0
LINE
  5
25B
100
AcDbEntity
  8
BEZUGSACHSEN
100
AcDbLine
 62
7
  6
CONTINUOUS
 10
107.8166207504
 20
204.8720520668
 11
108.0954956476
 21
204.3984766536
  0
LINE
  5
25C
100
AcDbEntity
  8
BEZUGSACHSEN
100
AcDbLine
 62
7
  6
CONTINUOUS
 10
146.3531704461
 20
177.3516727673
 11
145.8506264137
 21
177.2155701418
  0
LINE
  5
25D
100
AcDbEntity
  8
BEZUGSACHSEN
100
AcDbLine
 62
7
  6
CONTINUOUS
 10
143.6854404596
 20
177.067943372
 11
143.1828965652
 21
176.9318360941
  0
LINE
  5
25E
100
AcDbEntity
  8
0
100
AcDbLine
 62
7
  6
CONTINUOUS
 10
306.4096880126
 20
213.3211133392
 11
318.9328068393
 21
215.9829844184
  0
LINE
  5
25F
100
AcDbEntity
  8
BEZUGSACHSEN
100
AcDbLine
 62
7
  6
CONTINUOUS
 10
146.7430974295
 20
182.3667000808
 11
140.8478918865
 21
181.250209326
  0
LINE
  5
260
100
AcDbEntity
  8
BEZUGSACHSEN
100
AcDbLine
 62
7
  6
CONTINUOUS
 10
140.734452167
 20
181.8491846966
 11
145.6262185882
 21
182.7756344944
  0
LINE
  5
261
100
AcDbEntity
  8
BEZUGSACHSEN
100
AcDbLine
 62
7
  6
CONTINUOUS
 10
144.6347692858
 20
183.2083239612
 11
145.6382087589
 21
183.3983649846
  0
LINE
  5
262
100
AcDbEntity
  8
BEZUGSACHSEN
100
AcDbLine
 62
7
  6
CONTINUOUS
 10
141.1610453393
 20
193.4521155236
 11
141.7072034303
 21
193.5134076051
  0
LINE
  5
263
100
AcDbEntity
  8
BEZUGSACHSEN
100
AcDbLine
 62
7
  6
CONTINUOUS
 10
143.1828965652
 20
176.9318360941
 11
142.6734411305
 21
176.8971003893
  0
LINE
  5
264
100
AcDbEntity
  8
BEZUGSACHSEN
100
AcDbLine
 62
7
  6
CONTINUOUS
 10
145.8506264137
 20
177.2155701418
 11
145.5958983396
 21
177.1982022651
  0
LINE
  5
265
100
AcDbEntity
  8
BEZUGSACHSEN
100
AcDbLine
 62
7
  6
CONTINUOUS
 10
143.1483389212
 20
177.438679978
 11
142.6388834865
 21
177.4039442731
  0
LINE
  5
266
100
AcDbEntity
  8
BEZUGSACHSEN
100
AcDbLine
 62
7
  6
CONTINUOUS
 10
145.8160690861
 20
177.7224093854
 11
145.561341012
 21
177.7050415086
  0
LINE
  5
267
100
AcDbEntity
  8
BEZUGSACHSEN
100
AcDbLine
 62
7
  6
CONTINUOUS
 10
143.9362134947
 20
179.0199944848
 11
144.4456689293
 21
179.0547301896
  0
LINE
  5
268
100
AcDbEntity
  8
BEZUGSACHSEN
100
AcDbLine
 62
7
  6
CONTINUOUS
 10
141.335607402
 20
192.854231584
 11
141.7691562743
 21
192.855390184
  0
LINE
  5
269
100
AcDbEntity
  8
BEZUGSACHSEN
100
AcDbLine
 62
7
  6
CONTINUOUS
 10
138.7975922617
 20
195.0650469269
 11
139.1238940615
 21
195.0622161705
  0
LINE
  5
26A
100
AcDbEntity
  8
BEZUGSACHSEN
100
AcDbLine
 62
7
  6
CONTINUOUS
 10
104.1863872283
 20
207.9554491574
 11
104.5159060722
 21
207.9304629467
  0
LINE
  5
26B
100
AcDbEntity
  8
BEZUGSACHSEN
100
AcDbLine
 62
7
  6
CONTINUOUS
 10
109.0158565516
 20
203.7657684036
 11
109.5374190705
 21
203.7172639078
  0
LINE
  5
26C
100
AcDbEntity
  8
BEZUGSACHSEN
100
AcDbLine
 62
7
  6
CONTINUOUS
 10
108.9991836709
 20
204.5382554131
 11
109.4203362162
 21
204.4742199255
  0
LINE
  5
26D
100
AcDbEntity
  8
BEZUGSACHSEN
100
AcDbLine
 62
7
  6
CONTINUOUS
 10
141.7072034303
 20
193.5134076051
 11
142.3490836664
 21
193.3954530653
  0
LINE
  5
26E
100
AcDbEntity
  8
0
100
AcDbLine
 62
7
  6
CONTINUOUS
 10
122.3128458797
 20
213.3211133392
 11
109.789727053
 21
215.9829844184
  0
LINE
  5
26F
100
AcDbEntity
  8
BEZUGSACHSEN
100
AcDbLine
 62
7
  6
CONTINUOUS
 10
114.9083550287
 20
210.0567018206
 11
115.4140298854
 21
209.9200501677
  0
LINE
  5
270
100
AcDbEntity
  8
BEZUGSACHSEN
100
AcDbLine
 62
7
  6
CONTINUOUS
 10
114.8947670697
 20
209.2908649987
 11
115.2988533256
 21
209.1560157947
  0
LINE
  5
271
100
AcDbEntity
  8
BEZUGSACHSEN
100
AcDbLine
 62
7
  6
CONTINUOUS
 10
138.3573163384
 20
194.5918617538
 11
138.8087793346
 21
194.4289415052
  0
LINE
  5
272
100
AcDbEntity
  8
BEZUGSACHSEN
100
AcDbLine
 62
7
  6
CONTINUOUS
 10
138.9314759875
 20
189.4970498561
 11
139.2355309072
 21
189.198688212
  0
LINE
  5
273
100
AcDbEntity
  8
BEZUGSACHSEN
100
AcDbLine
 62
7
  6
CONTINUOUS
 10
142.1379585603
 20
192.706787552
 11
142.442015671
 21
192.4084218053
  0
LINE
  5
274
100
AcDbEntity
  8
BEZUGSACHSEN
100
AcDbLine
 62
7
  6
CONTINUOUS
 10
138.255825276
 20
189.1362356054
 11
138.6077412781
 21
188.7482506559
  0
LINE
  5
275
100
AcDbEntity
  8
BEZUGSACHSEN
100
AcDbLine
 62
7
  6
CONTINUOUS
 10
142.7657481204
 20
193.1572250713
 11
143.1176663036
 21
192.7692360138
  0
LINE
  5
276
100
AcDbEntity
  8
0
100
AcDbLine
 62
7
  6
CONTINUOUS
 10
149.9322121525
 20
192.8067098403
 11
141.365404763
 21
202.3211133392
  0
LINE
  5
277
100
AcDbEntity
  8
BEZUGSACHSEN
100
AcDbLine
 62
7
  6
CONTINUOUS
 10
136.1693438425
 20
192.6233176494
 11
136.607403733
 21
192.0630099231
  0
LINE
  5
278
100
AcDbEntity
  8
BEZUGSACHSEN
100
AcDbLine
 62
7
  6
CONTINUOUS
 10
137.3830532154
 20
195.4234781252
 11
137.780693578
 21
194.9148696625
  0
LINE
  5
279
100
AcDbEntity
  8
BEZUGSACHSEN
100
AcDbLine
 62
7
  6
CONTINUOUS
 10
137.7960536736
 20
196.1388159023
 11
138.5092808816
 21
195.2265508813
  0
LINE
  5
27A
100
AcDbEntity
  8
BEZUGSACHSEN
100
AcDbLine
 62
7
  6
CONTINUOUS
 10
138.828823659
 20
197.9268170619
 11
140.0178464311
 21
196.4059778789
  0
LINE
  5
27B
100
AcDbEntity
  8
BEZUGSACHSEN
100
AcDbLine
 62
7
  6
CONTINUOUS
 10
139.1727220605
 20
198.5232754936
 11
140.4581209221
 21
196.8791648841
  0
LINE
  5
27C
100
AcDbEntity
  8
BEZUGSACHSEN
100
AcDbLine
 62
7
  6
CONTINUOUS
 10
115.8158514815
 20
209.6575614933
 11
116.2131437579
 21
209.1397938783
  0
LINE
  5
27D
100
AcDbEntity
  8
BEZUGSACHSEN
100
AcDbLine
 62
7
  6
CONTINUOUS
 10
141.3306870887
 20
177.8239488836
 11
141.6130610812
 21
177.4358397751
  0
LINE
  5
27E
100
AcDbEntity
  8
BEZUGSACHSEN
100
AcDbLine
 62
7
  6
CONTINUOUS
 10
141.9675064601
 20
177.8673685199
 11
142.1086934396
 21
177.6733139645
  0
LINE
  5
27F
100
AcDbEntity
  8
BEZUGSACHSEN
100
AcDbLine
 62
7
  6
CONTINUOUS
 10
146.6691037705
 20
180.224724013
 11
146.9514774132
 21
179.8366195425
  0
LINE
  5
280
100
AcDbEntity
  8
BEZUGSACHSEN
100
AcDbLine
 62
7
  6
CONTINUOUS
 10
137.8250690506
 20
189.9428577099
 11
138.255825276
 21
189.1362356054
  0
LINE
  5
281
100
AcDbEntity
  8
BEZUGSACHSEN
100
AcDbLine
 62
7
  6
CONTINUOUS
 10
138.500719762
 20
190.3036719605
 11
138.9314759875
 21
189.4970498561
  0
LINE
  5
282
100
AcDbEntity
  8
BEZUGSACHSEN
100
AcDbLine
 62
7
  6
CONTINUOUS
 10
140.4601311034
 20
190.4285772158
 11
140.8908873288
 21
189.6219551114
  0
LINE
  5
283
100
AcDbEntity
  8
BEZUGSACHSEN
100
AcDbLine
 62
7
  6
CONTINUOUS
 10
141.135781736
 20
190.7893914244
 11
141.8537087784
 21
189.4450212503
  0
LINE
  5
284
100
AcDbEntity
  8
BEZUGSACHSEN
100
AcDbLine
 62
7
  6
CONTINUOUS
 10
142.5800139104
 20
190.5239906327
 11
142.8671847273
 21
189.9862425631
  0
LINE
  5
285
100
AcDbEntity
  8
BEZUGSACHSEN
100
AcDbLine
 62
7
  6
CONTINUOUS
 10
115.5990874834
 20
208.8953295486
 11
115.7954695367
 21
208.5088059029
  0
LINE
  5
286
100
AcDbEntity
  8
BEZUGSACHSEN
100
AcDbLine
 62
7
  6
CONTINUOUS
 10
144.4733148547
 20
178.6492578667
 11
144.7695116182
 21
178.0584149146
  0
LINE
  5
287
100
AcDbEntity
  8
BEZUGSACHSEN
100
AcDbLine
 62
7
  6
CONTINUOUS
 10
116.2131437579
 20
209.1397938783
 11
116.4072611577
 21
208.6256311199
  0
LINE
  5
288
100
AcDbEntity
  8
BEZUGSACHSEN
100
AcDbLine
 62
7
  6
CONTINUOUS
 10
108.2211007141
 20
205.5805035557
 11
108.3995653385
 21
205.0913971836
  0
LINE
  5
289
100
AcDbEntity
  8
BEZUGSACHSEN
100
AcDbLine
 62
7
  6
CONTINUOUS
 10
103.4673783946
 20
202.0662250337
 11
101.5746341211
 21
207.7598635114
  0
LINE
  5
28A
100
AcDbEntity
  8
BEZUGSACHSEN
100
AcDbLine
 62
7
  6
CONTINUOUS
 10
104.0458737824
 20
202.2585350718
 11
103.2001795206
 21
204.8025012362
  0
LINE
  5
28B
100
AcDbEntity
  8
BEZUGSACHSEN
100
AcDbLine
 62
7
  6
CONTINUOUS
 10
102.9585526209
 20
205.5293486148
 11
102.3544852587
 21
207.3464674007
  0
LINE
  5
28C
100
AcDbEntity
  8
BEZUGSACHSEN
100
AcDbLine
 62
7
  6
CONTINUOUS
 10
105.0065095158
 20
207.4209118169
 11
105.1273230785
 21
207.0574877883
  0
LINE
  5
28D
100
AcDbEntity
  8
BEZUGSACHSEN
100
AcDbLine
 62
7
  6
CONTINUOUS
 10
105.5850049037
 20
207.613221855
 11
105.7460896163
 21
207.1286565966
  0
LINE
  5
28E
100
AcDbEntity
  8
BEZUGSACHSEN
100
AcDbLine
 62
7
  6
CONTINUOUS
 10
107.6186417446
 20
205.4873176716
 11
107.8166207504
 21
204.8720520668
  0
LINE
  5
28F
100
AcDbEntity
  8
BEZUGSACHSEN
100
AcDbLine
 62
7
  6
CONTINUOUS
 10
107.6186417446
 20
205.4873176716
 11
107.0137136527
 21
209.3982571697
  0
LINE
  5
290
100
AcDbEntity
  8
BEZUGSACHSEN
100
AcDbLine
 62
7
  6
CONTINUOUS
 10
108.2211007141
 20
205.5805035557
 11
107.6161726222
 21
209.4914430538
  0
LINE
  5
291
100
AcDbEntity
  8
BEZUGSACHSEN
100
AcDbLine
 62
7
  6
CONTINUOUS
 10
105.1517207224
 20
206.6620124565
 11
105.1273230785
 21
207.0574877883
  0
LINE
  5
292
100
AcDbEntity
  8
BEZUGSACHSEN
100
AcDbLine
 62
7
  6
CONTINUOUS
 10
105.7704872601
 20
206.7331812648
 11
105.7460896163
 21
207.1286565966
  0
LINE
  5
293
100
AcDbEntity
  8
0
100
AcDbLine
 62
7
  6
CONTINUOUS
 10
112.3612669462
 20
470.7536553828
 11
112.3612669462
 21
350.7536553828
  0
LINE
  5
294
100
AcDbEntity
  8
BEZUGSACHSEN
100
AcDbLine
 62
7
  6
CONTINUOUS
 10
111.2305531872
 20
205.4001051435
 11
111.2333941252
 21
206.0464327542
  0
LINE
  5
295
100
AcDbEntity
  8
BEZUGSACHSEN
100
AcDbLine
 62
7
  6
CONTINUOUS
 10
112.3638081848
 20
204.100904444
 11
112.4702472092
 21
210.0999602642
  0
LINE
  5
296
100
AcDbEntity
  8
BEZUGSACHSEN
100
AcDbLine
 62
7
  6
CONTINUOUS
 10
112.9869231002
 20
204.8559267444
 11
113.0661862052
 21
209.3233088314
  0
LINE
  5
297
100
AcDbEntity
  8
BEZUGSACHSEN
100
AcDbLine
 62
7
  6
CONTINUOUS
 10
110.6085806982
 20
205.4330786254
 11
110.630935443
 21
205.9532469145
  0
LINE
  5
298
100
AcDbEntity
  8
BEZUGSACHSEN
100
AcDbLine
 62
7
  6
CONTINUOUS
 10
139.6043332721
 20
189.0500856222
 11
139.9900196609
 21
189.1408694157
  0
LINE
  5
299
100
AcDbEntity
  8
BEZUGSACHSEN
100
AcDbLine
 62
7
  6
CONTINUOUS
 10
109.5374190705
 20
203.7172639078
 11
109.9390583835
 21
203.7793878306
  0
LINE
  5
29A
100
AcDbEntity
  8
BEZUGSACHSEN
100
AcDbLine
 62
7
  6
CONTINUOUS
 10
109.4203362162
 20
204.4742199255
 11
109.8219755292
 21
204.5363438482
  0
LINE
  5
29B
100
AcDbEntity
  8
BEZUGSACHSEN
100
AcDbLine
 62
7
  6
CONTINUOUS
 10
138.8087793346
 20
194.4289415052
 11
139.3988037683
 21
194.5033229064
  0
LINE
  5
29C
100
AcDbEntity
  8
BEZUGSACHSEN
100
AcDbLine
 62
7
  6
CONTINUOUS
 10
103.8886156725
 20
208.5291036638
 11
104.4109664043
 21
208.5682208297
  0
LINE
  5
29D
100
AcDbEntity
  8
BEZUGSACHSEN
100
AcDbLine
 62
7
  6
CONTINUOUS
 10
112.3638081848
 20
204.100904444
 11
114.8019160043
 21
204.0576460004
  0
LINE
  5
29E
100
AcDbEntity
  8
BEZUGSACHSEN
100
AcDbLine
 62
7
  6
CONTINUOUS
 10
112.9869231002
 20
204.8559267444
 11
114.8155039648
 21
204.8234829117
  0
LINE
  5
29F
100
AcDbEntity
  8
BEZUGSACHSEN
100
AcDbLine
 62
7
  6
CONTINUOUS
 10
113.0661862052
 20
209.3233088314
 11
114.8947670697
 21
209.2908649987
  0
LINE
  5
2A0
100
AcDbEntity
  8
BEZUGSACHSEN
100
AcDbLine
 62
7
  6
CONTINUOUS
 10
112.4702472092
 20
210.0999602642
 11
114.9083550287
 21
210.0567018206
  0
LINE
  5
2A1
100
AcDbEntity
  8
BEZUGSACHSEN
100
AcDbLine
 62
7
  6
CONTINUOUS
 10
142.442015671
 20
192.4084218053
 11
142.8727718965
 21
191.6017997008
  0
LINE
  5
2A2
100
AcDbEntity
  8
BEZUGSACHSEN
100
AcDbLine
 62
7
  6
CONTINUOUS
 10
143.1176663036
 20
192.7692360138
 11
143.5484225291
 21
191.9626139094
  0
LINE
  5
2A3
100
AcDbEntity
  8
BEZUGSACHSEN
100
AcDbLine
 62
7
  6
CONTINUOUS
 10
140.4581209221
 20
196.8791648841
 11
140.6704500306
 21
196.4003163661
  0
LINE
  5
2A4
100
AcDbEntity
  8
BEZUGSACHSEN
100
AcDbLine
 62
7
  6
CONTINUOUS
 10
141.1756772935
 20
178.2207372795
 11
141.3306870887
 21
177.8239488836
  0
LINE
  5
2A5
100
AcDbEntity
  8
BEZUGSACHSEN
100
AcDbLine
 62
7
  6
CONTINUOUS
 10
141.8055852738
 20
178.3655238372
 11
141.9675064601
 21
177.8673685199
  0
LINE
  5
2A6
100
AcDbEntity
  8
BEZUGSACHSEN
100
AcDbLine
 62
7
  6
CONTINUOUS
 10
146.3215695221
 20
179.6918329908
 11
146.4834910247
 21
179.1936730332
  0
LINE
  5
2A7
100
AcDbEntity
  8
BEZUGSACHSEN
100
AcDbLine
 62
7
  6
CONTINUOUS
 10
140.0178464311
 20
196.4059778789
 11
140.1050157755
 21
196.087217021
  0
LINE
  5
2A8
100
AcDbEntity
  8
BEZUGSACHSEN
100
AcDbLine
 62
7
  6
CONTINUOUS
 10
137.6983677548
 20
190.4511181755
 11
137.8250690506
 21
189.9428577099
  0
LINE
  5
2A9
100
AcDbEntity
  8
BEZUGSACHSEN
100
AcDbLine
 62
7
  6
CONTINUOUS
 10
115.7954695367
 20
208.5088059029
 11
115.8879983357
 21
207.9964455933
  0
LINE
  5
2AA
100
AcDbEntity
  8
BEZUGSACHSEN
100
AcDbLine
 62
7
  6
CONTINUOUS
 10
110.0260073511
 20
209.8641864126
 11
110.630935443
 21
205.9532469145
  0
LINE
  5
2AB
100
AcDbEntity
  8
BEZUGSACHSEN
100
AcDbLine
 62
7
  6
CONTINUOUS
 10
110.6284660333
 20
209.9573722523
 11
111.2333941252
 21
206.0464327542
  0
LINE
  5
2AC
100
AcDbEntity
  8
BEZUGSACHSEN
100
AcDbLine
 62
7
  6
CONTINUOUS
 10
116.4072611577
 20
208.6256311199
 11
116.4975252906
 21
207.9856309824
  0
LINE
  5
2AD
100
AcDbEntity
  8
BEZUGSACHSEN
100
AcDbLine
 62
7
  6
CONTINUOUS
 10
141.1203851264
 20
179.0316865656
 11
141.1756772935
 21
178.2207372795
  0
LINE
  5
2AE
100
AcDbEntity
  8
BEZUGSACHSEN
100
AcDbLine
 62
7
  6
CONTINUOUS
 10
141.7641162276
 20
178.9737346417
 11
141.8055852738
 21
178.3655238372
  0
LINE
  5
2AF
100
AcDbEntity
  8
BEZUGSACHSEN
100
AcDbLine
 62
7
  6
CONTINUOUS
 10
142.4246268532
 20
180.5463652163
 11
142.4591841808
 21
180.0395259727
  0
LINE
  5
2B0
100
AcDbEntity
  8
BEZUGSACHSEN
100
AcDbLine
 62
7
  6
CONTINUOUS
 10
143.9362134947
 20
179.0199944848
 11
143.96385942
 21
178.6145221619
  0
LINE
  5
2B1
100
AcDbEntity
  8
BEZUGSACHSEN
100
AcDbLine
 62
7
  6
CONTINUOUS
 10
144.4456689293
 20
179.0547301896
 11
144.4733148547
 21
178.6492578667
  0
LINE
  5
2B2
100
AcDbEntity
  8
BEZUGSACHSEN
100
AcDbLine
 62
7
  6
CONTINUOUS
 10
145.6156352572
 20
180.6620964872
 11
145.6501929012
 21
180.1552526034
  0
LINE
  5
2B3
100
AcDbEntity
  8
BEZUGSACHSEN
100
AcDbLine
 62
7
  6
CONTINUOUS
 10
146.4834910247
 20
179.1936730332
 11
146.5111369501
 21
178.7882007103
  0
LINE
  5
2B4
100
AcDbEntity
  8
BEZUGSACHSEN
100
AcDbLine
 62
7
  6
CONTINUOUS
 10
115.8879983357
 20
207.9964455933
 11
115.8540284352
 21
206.0818533597
  0
LINE
  5
2B5
100
AcDbEntity
  8
BEZUGSACHSEN
100
AcDbLine
 62
7
  6
CONTINUOUS
 10
116.4975252906
 20
207.9856309824
 11
116.46355539
 21
206.0710387488
  0
LINE
  5
2B6
100
AcDbEntity
  8
BEZUGSACHSEN
100
AcDbLine
 62
7
  6
CONTINUOUS
 10
116.3506446526
 20
205.4346438255
 11
116.46355539
 21
206.0710387488
  0
LINE
  5
2B7
100
AcDbEntity
  8
BEZUGSACHSEN
100
AcDbLine
 62
7
  6
CONTINUOUS
 10
105.642324166
 20
206.1524613267
 11
105.7704872601
 21
206.7331812648
  0
LINE
  5
2B8
100
AcDbEntity
  8
BEZUGSACHSEN
100
AcDbLine
 62
7
  6
CONTINUOUS
 10
111.1077890587
 20
204.8644058521
 11
111.2305531872
 21
205.4001051435
  0
LINE
  5
2B9
100
AcDbEntity
  8
RUNDUNGEN
100
AcDbLine
 62
7
  6
CONTINUOUS
 10
64.7734567289
 20
158.8063642425
 11
75.3430699999
 21
184.9670750952
  0
LINE
  5
2BA
100
AcDbEntity
  8
KONSTRUKTIONSELEMENTE
100
AcDbLine
 62
7
  6
CONTINUOUS
 10
26.7933409026
 20
128.6004389709
 11
28.5611078556
 21
131.6623011494
  0
LINE
  5
2BB
100
AcDbEntity
  8
BEZUGSACHSEN
100
AcDbLine
 62
7
  6
CONTINUOUS
 10
114.8019160043
 20
204.0576460004
 11
115.3121201808
 21
204.1762732993
  0
LINE
  5
2BC
100
AcDbEntity
  8
BEZUGSACHSEN
100
AcDbLine
 62
7
  6
CONTINUOUS
 10
107.0137136527
 20
209.3982571697
 11
107.6161726222
 21
209.4914430538
  0
LINE
  5
2BD
100
AcDbEntity
  8
BEZUGSACHSEN
100
AcDbLine
 62
7
  6
CONTINUOUS
 10
110.0260073511
 20
209.8641864126
 11
110.6284660333
 21
209.9573722523
  0
LINE
  5
2BE
100
AcDbEntity
  8
BEZUGSACHSEN
100
AcDbLine
 62
7
  6
CONTINUOUS
 10
146.9514774132
 20
179.8366195425
 11
147.1272217203
 21
179.1357257435
  0
LINE
  5
2BF
100
AcDbEntity
  8
BEZUGSACHSEN
100
AcDbLine
 62
7
  6
CONTINUOUS
 10
143.5484225291
 20
191.9626139094
 11
143.6751216438
 21
191.4543575517
  0
LINE
  5
2C0
100
AcDbEntity
  8
BEZUGSACHSEN
100
AcDbLine
 62
7
  6
CONTINUOUS
 10
140.734452167
 20
181.8491846966
 11
140.8478918865
 21
181.250209326
  0
LINE
  5
2C1
100
AcDbEntity
  8
BEZUGSACHSEN
100
AcDbLine
 62
7
  6
CONTINUOUS
 10
146.62965771
 20
182.9656754513
 11
146.7430974295
 21
182.3667000808
  0
LINE
  5
2C2
100
AcDbEntity
  8
BEZUGSACHSEN
100
AcDbLine
 62
7
  6
CONTINUOUS
 10
138.4218795289
 20
190.7223091102
 11
138.500719762
 21
190.3036719605
  0
LINE
  5
2C3
100
AcDbEntity
  8
BEZUGSACHSEN
100
AcDbLine
 62
7
  6
CONTINUOUS
 10
142.8727718965
 20
191.6017997008
 11
142.9516099387
 21
191.1831666539
  0
LINE
  5
2C4
100
AcDbEntity
  8
0
100
AcDbLine
 62
7
  6
CONTINUOUS
 10
152.4794638925
 20
168.5712284298
 11
149.9322121525
 21
192.8067098403
  0
LINE
  5
2C5
100
AcDbEntity
  8
BEZUGSACHSEN
100
AcDbLine
 62
7
  6
CONTINUOUS
 10
147.1272217203
 20
179.1357257435
 11
147.1410448412
 21
178.9329872619
  0
LINE
  5
2C6
100
AcDbEntity
  8
0
100
AcDbLine
 62
7
  6
CONTINUOUS
 10
144.3612669462
 20
470.7536553828
 11
144.3612669462
 21
350.7536553828
  0
LINE
  5
2C7
100
AcDbEntity
  8
BEZUGSACHSEN
100
AcDbLine
 62
7
  6
CONTINUOUS
 10
137.7321370854
 20
190.929888991
 11
137.6983677548
 21
190.4511181755
  0
LINE
  5
2C8
100
AcDbEntity
  8
BEZUGSACHSEN
100
AcDbLine
 62
7
  6
CONTINUOUS
 10
143.6751216438
 20
191.4543575517
 11
143.6413534382
 21
190.9755847006
  0
LINE
  5
2C9
100
AcDbEntity
  8
BEZUGSACHSEN
100
AcDbLine
 62
7
  6
CONTINUOUS
 10
140.6704500306
 20
196.4003163661
 11
140.6190579376
 21
195.8442538584
  0
LINE
  5
2CA
100
AcDbEntity
  8
BEZUGSACHSEN
100
AcDbLine
 62
7
  6
CONTINUOUS
 10
115.7433823576
 20
205.5730979067
 11
115.8540284352
 21
206.0818533597
  0
LINE
  5
2CB
100
AcDbEntity
  8
BEZUGSACHSEN
100
AcDbLine
 62
7
  6
CONTINUOUS
 10
110.4663027493
 20
205.0235387438
 11
110.6085806982
 21
205.4330786254
  0
LINE
  5
2CC
100
AcDbEntity
  8
BEZUGSACHSEN
100
AcDbLine
 62
7
  6
CONTINUOUS
 10
105.0394311344
 20
206.3556266204
 11
105.1517207224
 21
206.6620124565
  0
LINE
  5
2CD
100
AcDbEntity
  8
KONSTRUKTIONSELEMENTE
100
AcDbLine
 62
7
  6
CONTINUOUS
 10
27.5981365874
 20
112.7146150148
 11
28.9062841326
 21
114.9803930269
  0
LINE
  5
2CE
100
AcDbEntity
  8
KONSTRUKTIONSELEMENTE
100
AcDbLine
 62
7
  6
CONTINUOUS
 10
27.2648047059
 20
111.2224638894
 11
27.4946144097
 21
111.6205059726
  0
LINE
  5
2CF
100
AcDbEntity
  8
0
100
AcDbLine
 62
7
  6
CONTINUOUS
 10
87.5275586086
 20
206.0712284298
 11
75.3430699999
 21
184.9670750952
  0
LINE
  5
2D0
100
AcDbEntity
  8
RUNDUNGEN
100
AcDbLine
 62
7
  6
CONTINUOUS
 10
57.3124242593
 20
142.7370805793
 11
73.2352584181
 21
170.3162383427
  0
LINE
  5
2D1
100
AcDbEntity
  8
BEZUGSACHSEN
100
AcDbLine
 62
7
  6
CONTINUOUS
 10
147.1410448412
 20
178.9329872619
 11
147.062061431
 21
178.2147256106
  0
LINE
  5
2D2
100
AcDbEntity
  8
BEZUGSACHSEN
100
AcDbLine
 62
7
  6
CONTINUOUS
 10
143.96385942
 20
178.6145221619
 11
143.8779646076
 21
177.9976274312
  0
LINE
  5
2D3
100
AcDbEntity
  8
BEZUGSACHSEN
100
AcDbLine
 62
7
  6
CONTINUOUS
 10
141.8569224422
 20
179.4892624518
 11
141.7641162276
 21
178.9737346417
  0
LINE
  5
2D4
100
AcDbEntity
  8
BEZUGSACHSEN
100
AcDbLine
 62
7
  6
CONTINUOUS
 10
146.5111369501
 20
178.7882007103
 11
146.4183307354
 21
178.2726729002
  0
LINE
  5
2D5
100
AcDbEntity
  8
BEZUGSACHSEN
100
AcDbLine
 62
7
  6
CONTINUOUS
 10
138.5035110768
 20
191.11145459
 11
138.4218795289
 21
190.7223091102
  0
LINE
  5
2D6
100
AcDbEntity
  8
BEZUGSACHSEN
100
AcDbLine
 62
7
  6
CONTINUOUS
 10
142.9516099387
 20
191.1831666539
 11
142.8699784696
 21
190.7940212162
  0
LINE
  5
2D7
100
AcDbEntity
  8
BEZUGSACHSEN
100
AcDbLine
 62
7
  6
CONTINUOUS
 10
140.1050157755
 20
196.087217021
 11
140.0290335039
 21
195.7698724572
  0
LINE
  5
2D8
100
AcDbEntity
  8
BEZUGSACHSEN
100
AcDbLine
 62
7
  6
CONTINUOUS
 10
141.2201030709
 20
179.4458428155
 11
141.1203851264
 21
179.0316865656
  0
LINE
  5
2D9
100
AcDbEntity
  8
BEZUGSACHSEN
100
AcDbLine
 62
7
  6
CONTINUOUS
 10
116.1384099726
 20
204.927690732
 11
116.3506446526
 21
205.4346438255
  0
LINE
  5
2DA
100
AcDbEntity
  8
BEZUGSACHSEN
100
AcDbLine
 62
7
  6
CONTINUOUS
 10
115.533412339
 20
205.1937843729
 11
115.7433823576
 21
205.5730979067
  0
LINE
  5
2DB
100
AcDbEntity
  8
BEZUGSACHSEN
100
AcDbLine
 62
7
  6
CONTINUOUS
 10
110.7842049796
 20
204.2976445989
 11
111.1077890587
 21
204.8644058521
  0
LINE
  5
2DC
100
AcDbEntity
  8
KONSTRUKTIONSELEMENTE
100
AcDbLine
 62
7
  6
CONTINUOUS
 10
76.4900121929
 20
149.092290965
 11
72.594945655
 21
142.3458378226
  0
LINE
  5
2DD
100
AcDbEntity
  8
0
100
AcDbLine
 62
7
  6
CONTINUOUS
 10
175.3349875045
 20
305.1581565595
 11
106.8349875045
 21
186.512676241
  0
LINE
  5
2DE
100
AcDbEntity
  8
0
100
AcDbLine
 62
7
  6
CONTINUOUS
 10
318.9328068393
 20
215.9829844184
 11
341.1949752837
 21
206.0712284298
  0
LINE
  5
2DF
100
AcDbEntity
  8
0
100
AcDbLine
 62
7
  6
CONTINUOUS
 10
288.4275586086
 20
147.4670750952
 11
305.7985921526
 21
125.233166068
  0
LINE
  5
2E0
100
AcDbEntity
  8
BEZUGSACHSEN
100
AcDbLine
 62
7
  6
CONTINUOUS
 10
140.6190579376
 20
195.8442538584
 11
140.4045142285
 21
195.2896076449
  0
LINE
  5
2E1
100
AcDbEntity
  8
BEZUGSACHSEN
100
AcDbLine
 62
7
  6
CONTINUOUS
 10
144.2738793045
 20
177.8209407282
 11
144.0537092311
 21
177.296728992
  0
LINE
  5
2E2
100
AcDbEntity
  8
BEZUGSACHSEN
100
AcDbLine
 62
7
  6
CONTINUOUS
 10
137.9911243989
 20
191.5289291633
 11
137.7321370854
 21
190.929888991
  0
LINE
  5
2E3
100
AcDbEntity
  8
BEZUGSACHSEN
100
AcDbLine
 62
7
  6
CONTINUOUS
 10
143.6413534382
 20
190.9755847006
 11
143.3823661641
 21
190.3765445494
  0
LINE
  5
2E4
100
AcDbEntity
  8
KONSTRUKTIONSELEMENTE
100
AcDbLine
 62
7
  6
CONTINUOUS
 10
35.2575086326
 20
57.5668461571
 11
28.5577966918
 21
45.9626046796
  0
LINE
  5
2E5
100
AcDbEntity
  8
0
100
AcDbLine
 62
7
  6
CONTINUOUS
 10
75.2508535727
 20
124.007351558
 11
82.5276740793
 21
136.611174393
  0
LINE
  5
2E6
100
AcDbEntity
  8
KONSTRUKTIONSELEMENTE
100
AcDbLine
 62
7
  6
CONTINUOUS
 10
82.5276740793
 20
136.611174393
 11
91.4624865793
 21
152.0867235991
  0
LINE
  5
2E7
100
AcDbEntity
  8
KONSTRUKTIONSELEMENTE
100
AcDbLine
 62
7
  6
CONTINUOUS
 10
29.8902239261
 20
43.0704363467
 11
37.2441344504
 21
55.8077830092
  0
LINE
  5
2E8
100
AcDbEntity
  8
KONSTRUKTIONSELEMENTE
100
AcDbLine
 62
7
  6
CONTINUOUS
 10
103.7530135666
 20
166.174540793
 11
103.0813073162
 21
165.0111114395
  0
LINE
  5
2E9
100
AcDbEntity
  8
KONSTRUKTIONSELEMENTE
100
AcDbLine
 62
7
  6
CONTINUOUS
 10
108.8414158989
 20
172.9879121617
 11
104.1305243569
 21
164.8284086622
  0
LINE
  5
2EA
100
AcDbEntity
  8
KONSTRUKTIONSELEMENTE
100
AcDbLine
 62
7
  6
CONTINUOUS
 10
82.8462034367
 20
127.9628834237
 11
75.3159230236
 21
114.920055153
  0
LINE
  5
2EB
100
AcDbEntity
  8
KONSTRUKTIONSELEMENTE
100
AcDbLine
 62
7
  6
CONTINUOUS
 10
99.0262534501
 20
155.487552116
 11
90.8627097877
 21
141.3478797228
  0
LINE
  5
2EC
100
AcDbEntity
  8
KONSTRUKTIONSELEMENTE
100
AcDbLine
 62
7
  6
CONTINUOUS
 10
102.9233677671
 20
153.237552116
 11
94.7598241047
 21
139.0978797228
  0
LINE
  5
2ED
100
AcDbEntity
  8
KONSTRUKTIONSELEMENTE
100
AcDbLine
 62
7
  6
CONTINUOUS
 10
113.1715429178
 20
170.4879121617
 11
108.4606513759
 21
162.3284086622
  0
LINE
  5
2EE
100
AcDbEntity
  8
KONSTRUKTIONSELEMENTE
100
AcDbLine
 62
7
  6
CONTINUOUS
 10
87.1763304556
 20
125.4628834237
 11
79.6460500425
 21
112.420055153
  0
LINE
  5
2EF
100
AcDbEntity
  8
KONSTRUKTIONSELEMENTE
100
AcDbLine
 62
7
  6
CONTINUOUS
 10
109.1434851427
 20
161.5111114395
 11
109.8151913931
 21
162.674540793
  0
LINE
  5
2F0
100
AcDbEntity
  8
KONSTRUKTIONSELEMENTE
100
AcDbLine
 62
7
  6
CONTINUOUS
 10
40.1353044528
 20
37.1554363467
 11
47.4892149772
 21
49.8927830092
  0
LINE
  5
2F1
100
AcDbEntity
  8
0
100
AcDbLine
 62
7
  6
CONTINUOUS
 10
94.825234813
 20
129.511174393
 11
87.5484143064
 21
116.907351558
  0
LINE
  5
2F2
100
AcDbEntity
  8
KONSTRUKTIONSELEMENTE
100
AcDbLine
 62
7
  6
CONTINUOUS
 10
94.825234813
 20
129.511174393
 11
103.760047313
 21
144.9867235991
  0
LINE
  5
2F3
100
AcDbEntity
  8
KONSTRUKTIONSELEMENTE
100
AcDbLine
 62
7
  6
CONTINUOUS
 10
43.3062093182
 20
37.4476046796
 11
49.9706907309
 21
48.9908250924
  0
LINE
  5
2F4
100
AcDbEntity
  8
0
100
AcDbLine
 62
7
  6
CONTINUOUS
 10
194.3875463878
 20
294.1581565595
 11
125.8875463878
 21
175.512676241
  0
LINE
  5
2F5
100
AcDbEntity
  8
BEZUGSACHSEN
100
AcDbLine
 62
7
  6
CONTINUOUS
 10
105.337202966
 20
205.7819722057
 11
105.642324166
 21
206.1524613267
  0
LINE
  5
2F6
100
AcDbEntity
  8
BEZUGSACHSEN
100
AcDbLine
 62
7
  6
CONTINUOUS
 10
115.7230004168
 20
204.4243425397
 11
116.1384099726
 21
204.927690732
  0
LINE
  5
2F7
100
AcDbEntity
  8
BEZUGSACHSEN
100
AcDbLine
 62
7
  6
CONTINUOUS
 10
110.2041010354
 20
204.7246270925
 11
110.4663027493
 21
205.0235387438
  0
LINE
  5
2F8
100
AcDbEntity
  8
0
100
AcDbLine
 62
7
  6
CONTINUOUS
 10
288.4275586086
 20
147.4670750952
 11
276.2430699999
 21
168.5712284298
  0
LINE
  5
2F9
100
AcDbEntity
  8
BEZUGSACHSEN
100
AcDbLine
 62
7
  6
CONTINUOUS
 10
141.4471848963
 20
179.8686829931
 11
141.2201030709
 21
179.4458428155
  0
LINE
  5
2FA
100
AcDbEntity
  8
BEZUGSACHSEN
100
AcDbLine
 62
7
  6
CONTINUOUS
 10
141.97046318
 20
179.7006848596
 11
141.8569224422
 21
179.4892624518
  0
LINE
  5
2FB
100
AcDbEntity
  8
BEZUGSACHSEN
100
AcDbLine
 62
7
  6
CONTINUOUS
 10
147.062061431
 20
178.2147256106
 11
146.8349799554
 21
177.791880795
  0
LINE
  5
2FC
100
AcDbEntity
  8
KONSTRUKTIONSELEMENTE
100
AcDbLine
 62
7
  6
CONTINUOUS
 10
108.6530297752
 20
130.5229641059
 11
104.7579632373
 21
123.7765109635
  0
LINE
  5
2FD
100
AcDbEntity
  8
RUNDUNGEN
100
AcDbLine
 62
7
  6
CONTINUOUS
 10
128.6608842603
 20
138.3162383427
 11
112.7380501015
 21
110.7370805793
  0
LINE
  5
2FE
100
AcDbEntity
  8
BEZUGSACHSEN
100
AcDbLine
 62
7
  6
CONTINUOUS
 10
138.7456131526
 20
191.471110367
 11
138.5035110768
 21
191.11145459
  0
LINE
  5
2FF
100
AcDbEntity
  8
BEZUGSACHSEN
100
AcDbLine
 62
7
  6
CONTINUOUS
 10
138.3573163384
 20
194.5918617538
 11
136.607403733
 21
192.0630099231
  0
LINE
  5
300
100
AcDbEntity
  8
BEZUGSACHSEN
100
AcDbLine
 62
7
  6
CONTINUOUS
 10
137.780693578
 20
194.9148696625
 11
136.1693438425
 21
192.6233176494
  0
LINE
  5
301
100
AcDbEntity
  8
BEZUGSACHSEN
100
AcDbLine
 62
7
  6
CONTINUOUS
 10
140.0290335039
 20
195.7698724572
 11
139.7899010486
 21
195.4539423557
  0
LINE
  5
302
100
AcDbEntity
  8
BEZUGSACHSEN
100
AcDbLine
 62
7
  6
CONTINUOUS
 10
140.4045142285
 20
195.2896076449
 11
140.1653817732
 21
194.9736775434
  0
LINE
  5
303
100
AcDbEntity
  8
BEZUGSACHSEN
100
AcDbLine
 62
7
  6
CONTINUOUS
 10
104.7904545904
 20
206.1383303716
 11
105.0394311344
 21
206.3556266204
  0
LINE
  5
304
100
AcDbEntity
  8
BEZUGSACHSEN
100
AcDbLine
 62
7
  6
CONTINUOUS
 10
110.4215932853
 20
203.983202
 11
110.7842049796
 21
204.2976445989
  0
LINE
  5
305
100
AcDbEntity
  8
0
100
AcDbLine
 62
7
  6
CONTINUOUS
 10
300.0616496321
 20
138.3162383427
 11
315.9844837908
 21
110.7370805793
  0
LINE
  5
306
100
AcDbEntity
  8
0
100
AcDbLine
 62
7
  6
CONTINUOUS
 10
320.0695041172
 20
130.5229641059
 11
323.964570655
 21
123.7765109635
  0
LINE
  5
307
100
AcDbEntity
  8
KONSTRUKTIONSELEMENTE
100
AcDbLine
 62
7
  6
CONTINUOUS
 10
78.3805653652
 20
44.0675443479
 11
76.6127984123
 21
41.0056821694
  0
LINE
  5
308
100
AcDbEntity
  8
0
100
AcDbLine
 62
7
  6
CONTINUOUS
 10
140.2949752837
 20
147.4670750952
 11
152.4794638925
 21
168.5712284298
  0
LINE
  5
309
100
AcDbEntity
  8
BEZUGSACHSEN
100
AcDbLine
 62
7
  6
CONTINUOUS
 10
141.6811781351
 20
180.1901562507
 11
141.4471848963
 21
179.8686829931
  0
LINE
  5
30A
100
AcDbEntity
  8
BEZUGSACHSEN
100
AcDbLine
 62
7
  6
CONTINUOUS
 10
143.8779646076
 20
177.9976274312
 11
143.6439714134
 21
177.6761541765
  0
LINE
  5
30B
100
AcDbEntity
  8
BEZUGSACHSEN
100
AcDbLine
 62
7
  6
CONTINUOUS
 10
146.4183307354
 20
178.2726729002
 11
146.1843375412
 21
177.9511996456
  0
LINE
  5
30C
100
AcDbEntity
  8
BEZUGSACHSEN
100
AcDbLine
 62
7
  6
CONTINUOUS
 10
138.3458338969
 20
191.9487227352
 11
137.9911243989
 21
191.5289291633
  0
LINE
  5
30D
100
AcDbEntity
  8
BEZUGSACHSEN
100
AcDbLine
 62
7
  6
CONTINUOUS
 10
142.8699784696
 20
190.7940212162
 11
142.5800139104
 21
190.5239906327
  0
LINE
  5
30E
100
AcDbEntity
  8
BEZUGSACHSEN
100
AcDbLine
 62
7
  6
CONTINUOUS
 10
115.2241195403
 20
204.9439126483
 11
115.533412339
 21
205.1937843729
  0
LINE
  5
30F
100
AcDbEntity
  8
BEZUGSACHSEN
100
AcDbLine
 62
7
  6
CONTINUOUS
 10
115.3121201808
 20
204.1762732993
 11
115.7230004168
 21
204.4243425397
  0
LINE
  5
310
100
AcDbEntity
  8
0
100
AcDbLine
 62
7
  6
CONTINUOUS
 10
109.789727053
 20
215.9829844184
 11
87.5275586086
 21
206.0712284298
  0
LINE
  5
311
100
AcDbEntity
  8
0
100
AcDbLine
 62
7
  6
CONTINUOUS
 10
302.8349875045
 20
175.512676241
 11
234.3349875045
 21
294.1581565595
  0
LINE
  5
312
100
AcDbEntity
  8
0
100
AcDbLine
 62
7
  6
CONTINUOUS
 10
341.1741195859
 20
116.907351558
 11
324.9624865793
 21
144.9867235991
  0
LINE
  5
313
100
AcDbEntity
  8
0
100
AcDbLine
 62
7
  6
CONTINUOUS
 10
353.4716803197
 20
124.007351558
 11
337.260047313
 21
152.0867235991
  0
LINE
  5
314
100
AcDbEntity
  8
KONSTRUKTIONSELEMENTE
100
AcDbLine
 62
7
  6
CONTINUOUS
 10
127.4359601624
 20
69.1938432483
 11
125.6681932094
 21
66.1319810698
  0
LINE
  5
315
100
AcDbEntity
  8
RUNDUNGEN
100
AcDbLine
 62
7
  6
CONTINUOUS
 10
122.9239417397
 20
125.233166068
 11
140.2949752837
 21
147.4670750952
  0
LINE
  5
316
100
AcDbEntity
  8
BEZUGSACHSEN
100
AcDbLine
 62
7
  6
CONTINUOUS
 10
142.2113681821
 20
179.9207865594
 11
141.97046318
 21
179.7006848596
  0
LINE
  5
317
100
AcDbEntity
  8
BEZUGSACHSEN
100
AcDbLine
 62
7
  6
CONTINUOUS
 10
146.8349799554
 20
177.791880795
 11
146.3531704461
 21
177.3516727673
  0
LINE
  5
318
100
AcDbEntity
  8
BEZUGSACHSEN
100
AcDbLine
 62
7
  6
CONTINUOUS
 10
139.1481858352
 20
191.8012764834
 11
138.7456131526
 21
191.471110367
  0
LINE
  5
319
100
AcDbEntity
  8
BEZUGSACHSEN
100
AcDbLine
 62
7
  6
CONTINUOUS
 10
139.7899010486
 20
195.4539423557
 11
139.4881877133
 21
195.2180567799
  0
LINE
  5
31A
100
AcDbEntity
  8
BEZUGSACHSEN
100
AcDbLine
 62
7
  6
CONTINUOUS
 10
140.1653817732
 20
194.9736775434
 11
139.7630974201
 21
194.6591635158
  0
LINE
  5
31B
100
AcDbEntity
  8
BEZUGSACHSEN
100
AcDbLine
 62
7
  6
CONTINUOUS
 10
138.8610150182
 20
192.339024553
 11
138.3458338969
 21
191.9487227352
  0
LINE
  5
31C
100
AcDbEntity
  8
BEZUGSACHSEN
100
AcDbLine
 62
7
  6
CONTINUOUS
 10
143.3823661641
 20
190.3765445494
 11
142.8671847273
 21
189.9862425631
  0
LINE
  5
31D
100
AcDbEntity
  8
BEZUGSACHSEN
100
AcDbLine
 62
7
  6
CONTINUOUS
 10
109.8219755292
 20
204.5363438482
 11
110.2041010354
 21
204.7246270925
  0
LINE
  5
31E
100
AcDbEntity
  8
BEZUGSACHSEN
100
AcDbLine
 62
7
  6
CONTINUOUS
 10
109.9390583835
 20
203.7793878306
 11
110.4215932853
 21
203.983202
  0
LINE
  5
31F
100
AcDbEntity
  8
BEZUGSACHSEN
100
AcDbLine
 62
7
  6
CONTINUOUS
 10
101.5746341211
 20
207.7598635114
 11
103.8886156725
 21
208.5291036638
  0
LINE
  5
320
100
AcDbEntity
  8
BEZUGSACHSEN
100
AcDbLine
 62
7
  6
CONTINUOUS
 10
102.3544852587
 20
207.3464674007
 11
104.1863872283
 21
207.9554491574
  0
LINE
  5
321
100
AcDbEntity
  8
BEZUGSACHSEN
100
AcDbLine
 62
7
  6
CONTINUOUS
 10
102.9585526209
 20
205.5293486148
 11
104.7904545904
 21
206.1383303716
  0
LINE
  5
322
100
AcDbEntity
  8
BEZUGSACHSEN
100
AcDbLine
 62
7
  6
CONTINUOUS
 10
103.2001795206
 20
204.8025012362
 11
104.8392497401
 21
205.3473796622
  0
LINE
  5
323
100
AcDbEntity
  8
0
100
AcDbLine
 62
7
  6
CONTINUOUS
 10
321.8875463878
 20
186.512676241
 11
253.3875463878
 21
305.1581565595
  0
LINE
  5
324
100
AcDbEntity
  8
0
100
AcDbLine
 62
7
  6
CONTINUOUS
 10
352.2325216995
 20
149.092290965
 11
356.1275882373
 21
142.3458378226
  0
LINE
  5
325
100
AcDbEntity
  8
0
100
AcDbLine
 62
7
  6
CONTINUOUS
 10
284.3612669462
 20
350.7536553828
 11
284.3612669462
 21
470.7536553828
  0
LINE
  5
326
100
AcDbEntity
  8
BEZUGSACHSEN
100
AcDbLine
 62
7
  6
CONTINUOUS
 10
142.0494465902
 20
180.4189465109
 11
141.6811781351
 21
180.1901562507
  0
LINE
  5
327
100
AcDbEntity
  8
BEZUGSACHSEN
100
AcDbLine
 62
7
  6
CONTINUOUS
 10
144.0537092311
 20
177.296728992
 11
143.6854404596
 21
177.067943372
  0
LINE
  5
328
100
AcDbEntity
  8
BEZUGSACHSEN
100
AcDbLine
 62
7
  6
CONTINUOUS
 10
146.1843375412
 20
177.9511996456
 11
145.8160690861
 21
177.7224093854
  0
LINE
  5
329
100
AcDbEntity
  8
BEZUGSACHSEN
100
AcDbLine
 62
7
  6
CONTINUOUS
 10
138.8610150182
 20
192.339024553
 11
140.5501417575
 21
193.2410601587
  0
LINE
  5
32A
100
AcDbEntity
  8
BEZUGSACHSEN
100
AcDbLine
 62
7
  6
CONTINUOUS
 10
139.1481858352
 20
191.8012764834
 11
140.8373125744
 21
192.703312089
  0
LINE
  5
32B
100
AcDbEntity
  8
BEZUGSACHSEN
100
AcDbLine
 62
7
  6
CONTINUOUS
 10
141.135781736
 20
190.7893914244
 11
140.4601311034
 21
190.4285772158
  0
LINE
  5
32C
100
AcDbEntity
  8
BEZUGSACHSEN
100
AcDbLine
 62
7
  6
CONTINUOUS
 10
140.8908873288
 20
189.6219551114
 11
139.9900196609
 21
189.1408694157
  0
LINE
  5
32D
100
AcDbEntity
  8
BEZUGSACHSEN
100
AcDbLine
 62
7
  6
CONTINUOUS
 10
141.8537087784
 20
189.4450212503
 11
140.1645820391
 21
188.5429856447
  0
LINE
  5
32E
100
AcDbEntity
  8
BEZUGSACHSEN
100
AcDbLine
 62
7
  6
CONTINUOUS
 10
139.1238940615
 20
195.0622161705
 11
139.4881877133
 21
195.2180567799
  0
LINE
  5
32F
100
AcDbEntity
  8
BEZUGSACHSEN
100
AcDbLine
 62
7
  6
CONTINUOUS
 10
139.3988037683
 20
194.5033229064
 11
139.7630974201
 21
194.6591635158
  0
LINE
  5
330
100
AcDbEntity
  8
BEZUGSACHSEN
100
AcDbLine
 62
7
  6
CONTINUOUS
 10
140.5501417575
 20
193.2410601587
 11
141.1610453393
 21
193.4521155236
  0
LINE
  5
331
100
AcDbEntity
  8
BEZUGSACHSEN
100
AcDbLine
 62
7
  6
CONTINUOUS
 10
103.4673783946
 20
202.0662250337
 11
104.0458737824
 21
202.2585350718
  0
LINE
  5
332
100
AcDbEntity
  8
BEZUGSACHSEN
100
AcDbLine
 62
7
  6
CONTINUOUS
 10
106.4562711398
 20
203.0598268666
 11
107.1311826095
 21
203.2841886388
  0
LINE
  5
333
100
AcDbEntity
  8
BEZUGSACHSEN
100
AcDbLine
 62
7
  6
CONTINUOUS
 10
114.8155039648
 20
204.8234829117
 11
115.2241195403
 21
204.9439126483
  0
LINE
  5
334
100
AcDbEntity
  8
0
100
AcDbLine
 62
7
  6
CONTINUOUS
 10
371.410109633
 20
142.7370805793
 11
355.4872754743
 21
170.3162383427
  0
LINE
  5
335
100
AcDbEntity
  8
0
100
AcDbLine
 62
7
  6
CONTINUOUS
 10
341.1949752837
 20
206.0712284298
 11
353.3794638925
 21
184.9670750952
  0
LINE
  5
336
100
AcDbEntity
  8
0
100
AcDbLine
 62
7
  6
CONTINUOUS
 10
276.2430699999
 20
168.5712284298
 11
278.7903217398
 21
192.8067098403
  0
LINE
  5
337
100
AcDbEntity
  8
BEZUGSACHSEN
100
AcDbLine
 62
7
  6
CONTINUOUS
 10
142.4591841808
 20
180.0395259727
 11
142.2113681821
 21
179.9207865594
  0
LINE
  5
338
100
AcDbEntity
  8
BEZUGSACHSEN
100
AcDbLine
 62
7
  6
CONTINUOUS
 10
143.6439714134
 20
177.6761541765
 11
143.1483389212
 21
177.438679978
  0
LINE
  5
339
100
AcDbEntity
  8
BEZUGSACHSEN
100
AcDbLine
 62
7
  6
CONTINUOUS
 10
142.4246268532
 20
180.5463652163
 11
142.0494465902
 21
180.4189465109
  0
LINE
  5
33A
100
AcDbEntity
  8
BEZUGSACHSEN
100
AcDbLine
 62
7
  6
CONTINUOUS
 10
140.8373125744
 20
192.703312089
 11
141.335607402
 21
192.854231584
  0
LINE
  5
33B
100
AcDbEntity
  8
BEZUGSACHSEN
100
AcDbLine
 62
7
  6
CONTINUOUS
 10
139.6662871327
 20
188.3920661076
 11
140.1645820391
 21
188.5429856447
  0
LINE
  5
33C
100
AcDbEntity
  8
0
100
AcDbLine
 62
7
  6
CONTINUOUS
 10
363.9490771634
 20
158.8063642425
 11
353.3794638925
 21
184.9670750952
  0
LINE
  5
33D
100
AcDbEntity
  8
0
100
AcDbLine
 62
7
  6
CONTINUOUS
 10
316.3612669462
 20
350.7536553828
 11
316.3612669462
 21
470.7536553828
  0
LINE
  5
33E
100
AcDbEntity
  8
0
100
AcDbLine
 62
7
  6
CONTINUOUS
 10
278.7903217398
 20
192.8067098403
 11
287.3571291294
 21
202.3211133392
  0
LINE
  5
33F
100
AcDbEntity
  8
RUNDUNGEN
100
AcDbLine
 62
7
  6
CONTINUOUS
 10
122.9239417397
 20
125.233166068
 11
121.6501402972
 21
124.7695402586
  0
LINE
  5
340
100
AcDbEntity
  8
KONSTRUKTIONSELEMENTE
100
AcDbLine
 62
7
  6
CONTINUOUS
 10
71.4575918982
 20
54.4317642531
 11
108.4559717211
 21
72.9565892885
  0
LINE
  5
341
100
AcDbEntity
  8
0
100
AcDbLine
 62
7
  6
CONTINUOUS
 10
101.5969764274
 20
106.1841207774
 11
111.1011226682
 21
109.6433471111
  0
LINE
  5
342
100
AcDbEntity
  8
RUNDUNGEN
100
AcDbLine
 62
7
  6
CONTINUOUS
 10
111.1011226682
 20
109.6433471111
 11
111.6900395806
 21
109.8576953377
  0
LINE
  5
343
100
AcDbEntity
  8
0
100
AcDbLine
 62
7
  6
CONTINUOUS
 10
363.713688171
 20
157.4714069292
 11
363.9490771634
 21
158.8063642425
  0
LINE
  5
344
100
AcDbEntity
  8
KONSTRUKTIONSELEMENTE
100
AcDbLine
 62
7
  6
CONTINUOUS
 10
76.0983527997
 20
40.6853682056
 11
76.4629357409
 21
40.8679122853
  0
LINE
  5
345
100
AcDbEntity
  8
KONSTRUKTIONSELEMENTE
100
AcDbLine
 62
7
  6
CONTINUOUS
 10
123.2772122516
 20
64.3074868199
 11
124.1695664959
 21
64.754282229
  0
LINE
  5
346
100
AcDbEntity
  8
0
100
AcDbLine
 62
7
  6
CONTINUOUS
 10
371.6476743315
 20
141.3897842239
 11
369.7825516468
 21
130.8121478511
  0
LINE
  5
347
100
AcDbEntity
  8
0
100
AcDbLine
 62
7
  6
CONTINUOUS
 10
342.060047313
 20
143.7728797228
 11
329.7624865793
 21
136.6728797228
  0
LINE
  5
348
100
AcDbEntity
  8
0
100
AcDbLine
 62
7
  6
CONTINUOUS
 10
349.860047313
 20
130.2628834237
 11
337.5624865793
 21
123.1628834237
  0
LINE
  5
349
100
AcDbEntity
  8
KONSTRUKTIONSELEMENTE
100
AcDbLine
 62
7
  6
CONTINUOUS
 10
328.8095977516
 20
106.3314552114
 11
333.6564540729
 21
109.1297890132
  0
LINE
  5
34A
100
AcDbEntity
  8
KONSTRUKTIONSELEMENTE
100
AcDbLine
 62
7
  6
CONTINUOUS
 10
363.9660798195
 20
126.6290595971
 11
368.8129361408
 21
129.4273933989
  0
LINE
  5
34B
100
AcDbEntity
  8
KONSTRUKTIONSELEMENTE
100
AcDbLine
 62
7
  6
CONTINUOUS
 10
386.8991143495
 20
39.2143212469
 11
389.5154094399
 21
36.9485432348
  0
LINE
  5
34C
100
AcDbEntity
  8
KONSTRUKTIONSELEMENTE
100
AcDbLine
 62
7
  6
CONTINUOUS
 10
389.8727452822
 20
37.1554363467
 11
389.4131258744
 21
37.5534784299
  0
LINE
  5
34D
100
AcDbEntity
  8
KONSTRUKTIONSELEMENTE
100
AcDbLine
 62
7
  6
CONTINUOUS
 10
386.3372113763
 20
40.2172985252
 11
386.796830784
 21
39.819256442
  0
LINE
  5
34E
100
AcDbEntity
  8
KONSTRUKTIONSELEMENTE
100
AcDbLine
 62
7
  6
CONTINUOUS
 10
389.8727452822
 20
43.0704363467
 11
389.4131258744
 21
43.4684784299
  0
LINE
  5
34F
100
AcDbEntity
  8
KONSTRUKTIONSELEMENTE
100
AcDbLine
 62
7
  6
CONTINUOUS
 10
386.3372113763
 20
46.1322985252
 11
386.796830784
 21
45.734256442
  0
LINE
  5
350
100
AcDbEntity
  8
KONSTRUKTIONSELEMENTE
100
AcDbLine
 62
7
  6
CONTINUOUS
 10
405.0629329052
 20
43.4613910758
 11
408.5984668112
 21
40.3995288974
  0
LINE
  5
351
100
AcDbEntity
  8
KONSTRUKTIONSELEMENTE
100
AcDbLine
 62
7
  6
CONTINUOUS
 10
408.257521593
 20
62.385562895
 11
407.7979021853
 21
62.7836049782
  0
LINE
  5
352
100
AcDbEntity
  8
KONSTRUKTIONSELEMENTE
100
AcDbLine
 62
7
  6
CONTINUOUS
 10
405.1816070949
 20
65.0493829903
 11
404.7219876871
 21
65.4474250735
  0
LINE
  5
353
100
AcDbEntity
  8
KONSTRUKTIONSELEMENTE
100
AcDbLine
 62
7
  6
CONTINUOUS
 10
451.1912494195
 20
67.3407650676
 11
454.7267833254
 21
64.2789028891
  0
LWPOLYLINE
  5
354
100
AcDbEntity
  8
0
100
AcDbPolyline
 62
7
  6
CONTINUOUS
 90
15
 70
0
 10
585.0342168891
 20
106.0635072098
 10
585.9774015636
 20
106.0752708333
 10
587.1310652444
 20
106.1218245744
 10
588.2900944309
 20
106.20486098
 10
589.4511469242
 20
106.3256767453
 10
590.6086348557
 20
106.4854259918
 10
591.7568439834
 20
106.6852007115
 10
592.8898809052
 20
106.9260516989
 10
594.0019946932
 20
107.2091089721
 10
595.0858715132
 20
107.5351479252
 10
596.1399671362
 20
107.9070845708
 10
597.1543603623
 20
108.3255888357
 10
598.140736344
 20
108.8023346798
 10
599.1056856376
 20
109.3538203041
 10
599.9338851237
 20
109.9167131351
  0
LWPOLYLINE
  5
355
100
AcDbEntity
  8
RUNDUNGEN
100
AcDbPolyline
 62
7
  6
CONTINUOUS
 90
15
 70
0
 10
585.0342168902
 20
106.06350721
 10
585.9743722982
 20
106.0751953206
 10
587.1272358569
 20
106.1216109684
 10
588.287974222
 20
106.2046752681
 10
589.4521312373
 20
106.3257956127
 10
590.6133390277
 20
106.4861584975
 10
591.7651406888
 20
106.6868017174
 10
592.9010018195
 20
106.9286448999
 10
594.0146481563
 20
107.2126166957
 10
595.0982347742
 20
107.5391800202
 10
596.1505221231
 20
107.9111138703
 10
597.1611834879
 20
108.3286325428
 10
598.1439604272
 20
108.8040244396
 10
599.1068632172
 20
109.3545552803
 10
599.9338868414
 20
109.9167144103
  0
LINE
  5
356
100
AcDbEntity
  8
RUNDUNGEN
100
AcDbLine
 62
7
  6
CONTINUOUS
 10
584.0927037109
 20
106.075249986
 11
585.0342168891
 21
106.06350721
  0
LINE
  5
357
100
AcDbEntity
  8
KONSTRUKTIONSELEMENTE
100
AcDbLine
 62
7
  6
CONTINUOUS
 10
447.5814228434
 20
111.2224638894
 11
450.1065890607
 21
109.5801715821
  0
LINE
  5
358
100
AcDbEntity
  8
KONSTRUKTIONSELEMENTE
100
AcDbLine
 62
7
  6
CONTINUOUS
 10
447.1218034357
 20
111.6205059726
 11
449.6469696529
 21
109.9782136653
  0
LINE
  5
359
100
AcDbEntity
  8
KONSTRUKTIONSELEMENTE
100
AcDbLine
 62
7
  6
CONTINUOUS
 10
444.0458889375
 20
114.2843260679
 11
444.5508106286
 21
113.9559401567
  0
LINE
  5
35A
100
AcDbEntity
  8
KONSTRUKTIONSELEMENTE
100
AcDbLine
 62
7
  6
CONTINUOUS
 10
449.3707606945
 20
113.2339137387
 11
451.3131962463
 21
111.9706119639
  0
LINE
  5
35B
100
AcDbEntity
  8
KONSTRUKTIONSELEMENTE
100
AcDbLine
 62
7
  6
CONTINUOUS
 10
446.7544656041
 20
115.4996917508
 11
448.6969011559
 21
114.2363899759
  0
LINE
  5
35C
100
AcDbEntity
  8
KONSTRUKTIONSELEMENTE
100
AcDbLine
 62
7
  6
CONTINUOUS
 10
456.2890871935
 20
123.4746984876
 11
458.2315227452
 21
122.2113967128
  0
LINE
  5
35D
100
AcDbEntity
  8
KONSTRUKTIONSELEMENTE
100
AcDbLine
 62
7
  6
CONTINUOUS
 10
460.9274490717
 20
122.5192659172
 11
458.4022828545
 21
124.1615582245
  0
LINE
  5
35E
100
AcDbEntity
  8
KONSTRUKTIONSELEMENTE
100
AcDbLine
 62
7
  6
CONTINUOUS
 10
456.2634224421
 20
123.4933514526
 11
456.2890871935
 21
123.4746984876
  0
LINE
  5
35F
100
AcDbEntity
  8
KONSTRUKTIONSELEMENTE
100
AcDbLine
 62
7
  6
CONTINUOUS
 10
458.2590270331
 20
122.1903516098
 11
458.2315227452
 21
122.2113967128
  0
LINE
  5
360
100
AcDbEntity
  8
KONSTRUKTIONSELEMENTE
100
AcDbLine
 62
7
  6
CONTINUOUS
 10
447.5814228434
 20
111.2224638894
 11
447.1218034357
 21
111.6205059726
  0
LINE
  5
361
100
AcDbEntity
  8
KONSTRUKTIONSELEMENTE
100
AcDbLine
 62
7
  6
CONTINUOUS
 10
444.0458889375
 20
114.2843260679
 11
444.5055083453
 21
113.8862839847
  0
LINE
  5
362
100
AcDbEntity
  8
KONSTRUKTIONSELEMENTE
100
AcDbLine
 62
7
  6
CONTINUOUS
 10
458.4022828545
 20
124.1615582245
 11
458.3348846963
 21
124.1538614944
  0
LINE
  5
363
100
AcDbEntity
  8
KONSTRUKTIONSELEMENTE
100
AcDbLine
 62
7
  6
CONTINUOUS
 10
480.0295136692
 20
121.5719341869
 11
466.5610253121
 21
130.3314347173
  0
LINE
  5
364
100
AcDbEntity
  8
KONSTRUKTIONSELEMENTE
100
AcDbLine
 62
7
  6
CONTINUOUS
 10
476.4939797632
 20
124.6337963654
 11
463.0254914062
 21
133.3932968958
  0
LINE
  5
365
100
AcDbEntity
  8
BEZUGSACHSEN
100
AcDbLine
 62
7
  6
CONTINUOUS
 10
480.2512721173
 20
121.4044063918
 11
480.0295136692
 21
121.5719341869
  0
LINE
  5
366
100
AcDbEntity
  8
BEZUGSACHSEN
100
AcDbLine
 62
7
  6
CONTINUOUS
 10
476.7157382113
 20
124.4662685703
 11
476.4939797632
 21
124.6337963654
  0
LINE
  5
367
100
AcDbEntity
  8
KONSTRUKTIONSELEMENTE
100
AcDbLine
 62
7
  6
CONTINUOUS
 10
455.5485935615
 20
124.1129218986
 11
456.2686646185
 21
123.4893220707
  0
LINE
  5
368
100
AcDbEntity
  8
BEZUGSACHSEN
100
AcDbLine
 62
7
  6
CONTINUOUS
 10
476.7147363817
 20
124.4677468951
 11
480.0419504716
 21
121.5862949694
  0
LINE
  5
369
100
AcDbEntity
  8
0
100
AcDbLine
 62
7
  6
CONTINUOUS
 10
580.6022849666
 20
158.8063642425
 11
589.4661488127
 21
158.8063642425
  0
LINE
  5
36A
100
AcDbEntity
  8
KONSTRUKTIONSELEMENTE
100
AcDbLine
 62
7
  6
CONTINUOUS
 10
386.3372113763
 20
46.1322985252
 11
386.3372113763
 21
40.2172985252
  0
LINE
  5
36B
100
AcDbEntity
  8
KONSTRUKTIONSELEMENTE
100
AcDbLine
 62
7
  6
CONTINUOUS
 10
386.796830784
 20
46.059256442
 11
386.796830784
 21
45.734256442
  0
LINE
  5
36C
100
AcDbEntity
  8
KONSTRUKTIONSELEMENTE
100
AcDbLine
 62
7
  6
CONTINUOUS
 10
386.796830784
 20
39.819256442
 11
386.796830784
 21
39.494256442
  0
LINE
  5
36D
100
AcDbEntity
  8
KONSTRUKTIONSELEMENTE
100
AcDbLine
 62
7
  6
CONTINUOUS
 10
389.4131258744
 20
43.7934784299
 11
389.4131258744
 21
43.4684784299
  0
LINE
  5
36E
100
AcDbEntity
  8
KONSTRUKTIONSELEMENTE
100
AcDbLine
 62
7
  6
CONTINUOUS
 10
389.4131258744
 20
37.5534784299
 11
389.4131258744
 21
37.2284784299
  0
LINE
  5
36F
100
AcDbEntity
  8
KONSTRUKTIONSELEMENTE
100
AcDbLine
 62
7
  6
CONTINUOUS
 10
389.8727452822
 20
43.0704363467
 11
389.8727452822
 21
37.1554363467
  0
LINE
  5
370
100
AcDbEntity
  8
0
100
AcDbLine
 62
7
  6
CONTINUOUS
 10
580.7012739722
 20
184.9670750952
 11
589.3671598071
 21
184.9670750952
  0
LWPOLYLINE
  5
371
100
AcDbEntity
  8
0
100
AcDbPolyline
 62
7
  6
CONTINUOUS
 90
15
 70
0
 10
570.1345486556
 20
109.9167131351
 10
570.9627481418
 20
109.3538203041
 10
571.9276974354
 20
108.8023346798
 10
572.9140734171
 20
108.3255888357
 10
573.9284666431
 20
107.9070845708
 10
574.9825622662
 20
107.5351479252
 10
576.0664390861
 20
107.2091089721
 10
577.1785528741
 20
106.9260516989
 10
578.3115897959
 20
106.6852007115
 10
579.4597989237
 20
106.4854259918
 10
580.6172868552
 20
106.3256767453
 10
581.7783393484
 20
106.20486098
 10
582.937368535
 20
106.1218245744
 10
584.0910322158
 20
106.0752708333
 10
585.0342168902
 20
106.0635072098
  0
LWPOLYLINE
  5
372
100
AcDbEntity
  8
RUNDUNGEN
100
AcDbPolyline
 62
7
  6
CONTINUOUS
 90
14
 70
0
 10
570.1345469379
 20
109.9167144103
 10
570.9615705621
 20
109.3545552803
 10
571.9244733521
 20
108.8040244396
 10
572.9072502914
 20
108.3286325428
 10
573.9179116562
 20
107.9111138703
 10
574.9701990051
 20
107.5391800202
 10
576.053785623
 20
107.2126166957
 10
577.1674319598
 20
106.9286448999
 10
578.3032930906
 20
106.6868017174
 10
579.4550947516
 20
106.4861584975
 10
580.616302542
 20
106.3257956127
 10
581.7804595573
 20
106.2046752681
 10
582.9411979224
 20
106.1216109684
 10
584.0927037109
 20
106.075249986
  0
LINE
  5
373
100
AcDbEntity
  8
0
100
AcDbLine
 62
7
  6
CONTINUOUS
 10
569.8460699886
 20
110.1306616841
 11
570.1350870582
 21
109.9163134575
  0
LINE
  5
374
100
AcDbEntity
  8
KONSTRUKTIONSELEMENTE
100
AcDbLine
 62
7
  6
CONTINUOUS
 10
404.7219876871
 20
44.3945083929
 11
404.7219876871
 21
49.4735718131
  0
LINE
  5
375
100
AcDbEntity
  8
KONSTRUKTIONSELEMENTE
100
AcDbLine
 62
7
  6
CONTINUOUS
 10
404.7219876871
 20
64.6539818533
 11
404.7219876871
 21
65.4474250735
  0
LINE
  5
376
100
AcDbEntity
  8
KONSTRUKTIONSELEMENTE
100
AcDbLine
 62
7
  6
CONTINUOUS
 10
407.7979021853
 20
49.575161758
 11
407.7979021853
 21
50.875161758
  0
LINE
  5
377
100
AcDbEntity
  8
KONSTRUKTIONSELEMENTE
100
AcDbLine
 62
7
  6
CONTINUOUS
 10
407.7979021853
 20
61.990161758
 11
407.7979021853
 21
62.7836049782
  0
LINE
  5
378
100
AcDbEntity
  8
KONSTRUKTIONSELEMENTE
100
AcDbLine
 62
7
  6
CONTINUOUS
 10
408.257521593
 20
50.4771196748
 11
408.257521593
 21
41.3326462145
  0
LINE
  5
379
100
AcDbEntity
  8
KONSTRUKTIONSELEMENTE
100
AcDbLine
 62
7
  6
CONTINUOUS
 10
408.257521593
 20
61.5921196748
 11
408.257521593
 21
62.385562895
  0
LINE
  5
37A
100
AcDbEntity
  8
BEZUGSACHSEN
100
AcDbLine
 62
7
  6
CONTINUOUS
 10
577.3269355094
 20
202.0662250337
 11
577.2929878378
 21
202.0662250337
  0
LINE
  5
37B
100
AcDbEntity
  8
BEZUGSACHSEN
100
AcDbLine
 62
7
  6
CONTINUOUS
 10
592.2251158815
 20
202.0662250337
 11
592.7754459416
 21
202.0662250337
  0
LINE
  5
37C
100
AcDbEntity
  8
BEZUGSACHSEN
100
AcDbLine
 62
7
  6
CONTINUOUS
 10
577.3748837872
 20
202.2585350718
 11
577.2855265245
 21
202.2585350718
  0
LINE
  5
37D
100
AcDbEntity
  8
BEZUGSACHSEN
100
AcDbLine
 62
7
  6
CONTINUOUS
 10
577.5746682701
 20
203.0598268666
 11
577.2906065446
 21
203.0598268666
  0
LINE
  5
37E
100
AcDbEntity
  8
BEZUGSACHSEN
100
AcDbLine
 62
7
  6
CONTINUOUS
 10
592.5725201881
 20
203.0598268666
 11
592.7778272348
 21
203.0598268666
  0
LINE
  5
37F
100
AcDbEntity
  8
BEZUGSACHSEN
100
AcDbLine
 62
7
  6
CONTINUOUS
 10
577.6306079427
 20
203.2841886388
 11
577.3024698481
 21
203.2841886388
  0
LINE
  5
380
100
AcDbEntity
  8
BEZUGSACHSEN
100
AcDbLine
 62
7
  6
CONTINUOUS
 10
577.7385857346
 20
203.7172639078
 11
577.2910119947
 21
203.7172639078
  0
LINE
  5
381
100
AcDbEntity
  8
BEZUGSACHSEN
100
AcDbLine
 62
7
  6
CONTINUOUS
 10
592.6423431142
 20
203.7172639078
 11
592.7774217847
 21
203.7172639078
  0
LINE
  5
382
100
AcDbEntity
  8
BEZUGSACHSEN
100
AcDbLine
 62
7
  6
CONTINUOUS
 10
592.628497564
 20
203.7657684036
 11
592.7445445555
 21
203.7657684036
  0
LINE
  5
383
100
AcDbEntity
  8
BEZUGSACHSEN
100
AcDbLine
 62
7
  6
CONTINUOUS
 10
577.7540749681
 20
203.7793878306
 11
577.2918491211
 21
203.7793878306
  0
LINE
  5
384
100
AcDbEntity
  8
BEZUGSACHSEN
100
AcDbLine
 62
7
  6
CONTINUOUS
 10
592.5741372175
 20
203.9559631571
 11
592.6784091996
 21
203.9559631571
  0
LINE
  5
385
100
AcDbEntity
  8
BEZUGSACHSEN
100
AcDbLine
 62
7
  6
CONTINUOUS
 10
577.8048915479
 20
203.983202
 11
577.326804787
 21
203.983202
  0
LINE
  5
386
100
AcDbEntity
  8
BEZUGSACHSEN
100
AcDbLine
 62
7
  6
CONTINUOUS
 10
577.8270754449
 20
204.0576460004
 11
577.3011882448
 21
204.0576460004
  0
LINE
  5
387
100
AcDbEntity
  8
BEZUGSACHSEN
100
AcDbLine
 62
7
  6
CONTINUOUS
 10
592.7257121293
 20
204.0576460004
 11
592.7672455345
 21
204.0576460004
  0
LINE
  5
388
100
AcDbEntity
  8
BEZUGSACHSEN
100
AcDbLine
 62
7
  6
CONTINUOUS
 10
592.716419154
 20
204.100904444
 11
592.7532494325
 21
204.100904444
  0
LINE
  5
389
100
AcDbEntity
  8
BEZUGSACHSEN
100
AcDbLine
 62
7
  6
CONTINUOUS
 10
577.861949931
 20
204.1762732993
 11
577.3368279759
 21
204.1762732993
  0
LINE
  5
38A
100
AcDbEntity
  8
BEZUGSACHSEN
100
AcDbLine
 62
7
  6
CONTINUOUS
 10
592.4473522151
 20
204.3984766536
 11
592.547269875
 21
204.3984766536
  0
LINE
  5
38B
100
AcDbEntity
  8
BEZUGSACHSEN
100
AcDbLine
 62
7
  6
CONTINUOUS
 10
577.9148802377
 20
204.4243425397
 11
577.4051147609
 21
204.4243425397
  0
LINE
  5
38C
100
AcDbEntity
  8
BEZUGSACHSEN
100
AcDbLine
 62
7
  6
CONTINUOUS
 10
592.5539829093
 20
204.5363438482
 11
592.5856327078
 21
204.5363438482
  0
LINE
  5
38D
100
AcDbEntity
  8
BEZUGSACHSEN
100
AcDbLine
 62
7
  6
CONTINUOUS
 10
592.4889178049
 20
204.7246270925
 11
592.5515508216
 21
204.7246270925
  0
LINE
  5
38E
100
AcDbEntity
  8
BEZUGSACHSEN
100
AcDbLine
 62
7
  6
CONTINUOUS
 10
592.3112967005
 20
204.8720520668
 11
592.417642602
 21
204.8720520668
  0
LINE
  5
38F
100
AcDbEntity
  8
BEZUGSACHSEN
100
AcDbLine
 62
7
  6
CONTINUOUS
 10
578.0403790372
 20
204.927690732
 11
577.5382848744
 21
204.927690732
  0
LINE
  5
390
100
AcDbEntity
  8
BEZUGSACHSEN
100
AcDbLine
 62
7
  6
CONTINUOUS
 10
592.4110231563
 20
205.0235387438
 11
592.4853030906
 21
205.0235387438
  0
LINE
  5
391
100
AcDbEntity
  8
BEZUGSACHSEN
100
AcDbLine
 62
7
  6
CONTINUOUS
 10
592.3026307039
 20
205.4330786254
 11
592.3877275274
 21
205.4330786254
  0
LINE
  5
392
100
AcDbEntity
  8
BEZUGSACHSEN
100
AcDbLine
 62
7
  6
CONTINUOUS
 10
578.1667766395
 20
205.4346438255
 11
577.6688155431
 21
205.4346438255
  0
LINE
  5
393
100
AcDbEntity
  8
BEZUGSACHSEN
100
AcDbLine
 62
7
  6
CONTINUOUS
 10
592.1340456871
 20
205.4873176716
 11
592.2573812668
 21
205.4873176716
  0
LINE
  5
394
100
AcDbEntity
  8
BEZUGSACHSEN
100
AcDbLine
 62
7
  6
CONTINUOUS
 10
592.1700348331
 20
205.9532469145
 11
592.2593518625
 21
205.9532469145
  0
LINE
  5
395
100
AcDbEntity
  8
BEZUGSACHSEN
100
AcDbLine
 62
7
  6
CONTINUOUS
 10
578.3254477148
 20
206.0710387488
 11
577.8293902128
 21
206.0710387488
  0
LINE
  5
396
100
AcDbEntity
  8
0
100
AcDbLine
 62
7
  6
CONTINUOUS
 10
580.8506283692
 20
206.0712284298
 11
589.2178054101
 21
206.0712284298
  0
LINE
  5
397
100
AcDbEntity
  8
BEZUGSACHSEN
100
AcDbLine
 62
7
  6
CONTINUOUS
 10
591.7641580617
 20
206.1383303716
 11
591.9253733982
 21
206.1383303716
  0
LINE
  5
398
100
AcDbEntity
  8
BEZUGSACHSEN
100
AcDbLine
 62
7
  6
CONTINUOUS
 10
591.7070960653
 20
206.3556266204
 11
591.8910331099
 21
206.3556266204
  0
LINE
  5
399
100
AcDbEntity
  8
BEZUGSACHSEN
100
AcDbLine
 62
7
  6
CONTINUOUS
 10
591.6266381788
 20
206.6620124565
 11
591.8253423633
 21
206.6620124565
  0
LINE
  5
39A
100
AcDbEntity
  8
BEZUGSACHSEN
100
AcDbLine
 62
7
  6
CONTINUOUS
 10
591.5227839703
 20
207.0574877883
 11
591.7287995356
 21
207.0574877883
  0
LINE
  5
39B
100
AcDbEntity
  8
BEZUGSACHSEN
100
AcDbLine
 62
7
  6
CONTINUOUS
 10
591.4468954788
 20
207.4209118169
 11
591.6334160031
 21
207.4209118169
  0
LINE
  5
39C
100
AcDbEntity
  8
BEZUGSACHSEN
100
AcDbLine
 62
7
  6
CONTINUOUS
 10
591.4506525033
 20
207.7522838638
 11
591.5391510648
 21
207.7522838638
  0
LINE
  5
39D
100
AcDbEntity
  8
BEZUGSACHSEN
100
AcDbLine
 62
7
  6
CONTINUOUS
 10
590.7322046321
 20
207.7598635114
 11
591.2817000857
 21
207.7598635114
  0
LINE
  5
39E
100
AcDbEntity
  8
BEZUGSACHSEN
100
AcDbLine
 62
7
  6
CONTINUOUS
 10
591.4481186211
 20
207.9304629467
 11
591.4775399244
 21
207.9304629467
  0
LINE
  5
39F
100
AcDbEntity
  8
BEZUGSACHSEN
100
AcDbLine
 62
7
  6
CONTINUOUS
 10
578.8028091727
 20
207.9856309824
 11
578.305588613
 21
207.9856309824
  0
LINE
  5
3A0
100
AcDbEntity
  8
BEZUGSACHSEN
100
AcDbLine
 62
7
  6
CONTINUOUS
 10
590.7451784107
 20
208.5291036638
 11
591.2896563792
 21
208.5291036638
  0
LINE
  5
3A1
100
AcDbEntity
  8
BEZUGSACHSEN
100
AcDbLine
 62
7
  6
CONTINUOUS
 10
590.7740949614
 20
208.5682208297
 11
591.3175592426
 21
208.5682208297
  0
LINE
  5
3A2
100
AcDbEntity
  8
BEZUGSACHSEN
100
AcDbLine
 62
7
  6
CONTINUOUS
 10
578.9623791288
 20
208.6256311199
 11
578.4626612223
 21
208.6256311199
  0
LINE
  5
3A3
100
AcDbEntity
  8
BEZUGSACHSEN
100
AcDbLine
 62
7
  6
CONTINUOUS
 10
579.0905743025
 20
209.1397938783
 11
578.586611877
 21
209.1397938783
  0
LINE
  5
3A4
100
AcDbEntity
  8
BEZUGSACHSEN
100
AcDbLine
 62
7
  6
CONTINUOUS
 10
590.733632299
 20
209.3982571697
 11
591.2719474238
 21
209.3982571697
  0
LINE
  5
3A5
100
AcDbEntity
  8
BEZUGSACHSEN
100
AcDbLine
 62
7
  6
CONTINUOUS
 10
590.7405812153
 20
209.4914430538
 11
591.2778091591
 21
209.4914430538
  0
LINE
  5
3A6
100
AcDbEntity
  8
BEZUGSACHSEN
100
AcDbLine
 62
7
  6
CONTINUOUS
 10
579.2196682678
 20
209.6575614933
 11
578.7085395264
 21
209.6575614933
  0
LINE
  5
3A7
100
AcDbEntity
  8
BEZUGSACHSEN
100
AcDbLine
 62
7
  6
CONTINUOUS
 10
590.7405812126
 20
209.8641864126
 11
591.2736863169
 21
209.8641864126
  0
LINE
  5
3A8
100
AcDbEntity
  8
BEZUGSACHSEN
100
AcDbLine
 62
7
  6
CONTINUOUS
 10
579.2936020136
 20
209.9200501677
 11
578.7682218377
 21
209.9200501677
  0
LINE
  5
3A9
100
AcDbEntity
  8
BEZUGSACHSEN
100
AcDbLine
 62
7
  6
CONTINUOUS
 10
590.733632299
 20
209.9573722523
 11
591.265768245
 21
209.9573722523
  0
LINE
  5
3AA
100
AcDbEntity
  8
BEZUGSACHSEN
100
AcDbLine
 62
7
  6
CONTINUOUS
 10
579.3229075787
 20
210.0567018206
 11
578.7968828278
 21
210.0567018206
  0
LINE
  5
3AB
100
AcDbEntity
  8
BEZUGSACHSEN
100
AcDbLine
 62
7
  6
CONTINUOUS
 10
579.3377337179
 20
210.0999602642
 11
578.8083856021
 21
210.0999602642
  0
LINE
  5
3AC
100
AcDbEntity
  8
BEZUGSACHSEN
100
AcDbLine
 62
7
  6
CONTINUOUS
 10
590.7307000615
 20
210.0999602642
 11
591.2600481773
 21
210.0999602642
  0
LINE
  5
3AD
100
AcDbEntity
  8
0
100
AcDbLine
 62
7
  6
CONTINUOUS
 10
580.8506283692
 20
215.9829844184
 11
589.2178054101
 21
215.9829844184
  0
LINE
  5
3AE
100
AcDbEntity
  8
KONSTRUKTIONSELEMENTE
100
AcDbLine
 62
7
  6
CONTINUOUS
 10
454.8700614685
 20
127.1544864293
 11
454.8667489485
 21
127.223420403
  0
LINE
  5
3AF
100
AcDbEntity
  8
0
100
AcDbLine
 62
7
  6
CONTINUOUS
 10
569.3952568639
 20
110.5955212978
 11
567.8218097502
 21
112.8590263336
  0
LINE
  5
3B0
100
AcDbEntity
  8
RUNDUNGEN
100
AcDbLine
 62
7
  6
CONTINUOUS
 10
593.1755273256
 20
172.9520452565
 11
593.1756176671
 21
172.9519546312
  0
LINE
  5
3B1
100
AcDbEntity
  8
KONSTRUKTIONSELEMENTE
100
AcDbLine
 62
7
  6
CONTINUOUS
 10
593.1756153406
 20
172.9519569651
 11
596.5753771224
 21
169.5413487442
  0
LINE
  5
3B2
100
AcDbEntity
  8
KONSTRUKTIONSELEMENTE
100
AcDbLine
 62
7
  6
CONTINUOUS
 10
593.1755269314
 20
172.952045993
 11
592.728671401
 21
173.4211859748
  0
LINE
  5
3B3
100
AcDbEntity
  8
RUNDUNGEN
100
AcDbLine
 62
7
  6
CONTINUOUS
 10
593.0014719912
 20
173.1246730612
 11
593.0004967148
 21
173.1257150924
  0
LINE
  5
3B4
100
AcDbEntity
  8
KONSTRUKTIONSELEMENTE
100
AcDbLine
 62
7
  6
CONTINUOUS
 10
592.728671401
 20
173.4211859748
 11
592.5090142982
 21
173.6699511735
  0
LINE
  5
3B5
100
AcDbEntity
  8
RUNDUNGEN
100
AcDbLine
 62
7
  6
CONTINUOUS
 10
592.5090142982
 20
173.6699511735
 11
592.5453152782
 21
173.6278540738
  0
LINE
  5
3B6
100
AcDbEntity
  8
RUNDUNGEN
100
AcDbLine
 62
7
  6
CONTINUOUS
 10
592.1384330858
 20
174.1273289548
 11
592.1938467284
 21
174.0552440626
  0
LINE
  5
3B7
100
AcDbEntity
  8
KONSTRUKTIONSELEMENTE
100
AcDbLine
 62
7
  6
CONTINUOUS
 10
592.1938467284
 20
174.0552440626
 11
591.9994271724
 21
174.3155096119
  0
LINE
  5
3B8
100
AcDbEntity
  8
KONSTRUKTIONSELEMENTE
100
AcDbLine
 62
7
  6
CONTINUOUS
 10
591.9994271724
 20
174.3155096119
 11
591.7694373046
 21
174.6574136577
  0
LINE
  5
3B9
100
AcDbEntity
  8
RUNDUNGEN
100
AcDbLine
 62
7
  6
CONTINUOUS
 10
601.6265207086
 20
159.381129543
 11
592.7701142481
 21
172.6657392337
  0
LWPOLYLINE
  5
3BA
100
AcDbEntity
  8
RUNDUNGEN
100
AcDbPolyline
 62
7
  6
CONTINUOUS
 90
7
 70
0
 10
592.7700982389
 20
172.6657544331
 10
592.6326409893
 20
172.8767845975
 10
592.4171465408
 20
173.2292192675
 10
592.2176981346
 20
173.5833080989
 10
592.0341717016
 20
173.93849121
 10
591.8665268613
 20
174.2942599956
 10
591.7757977425
 20
174.50253334
  0
LINE
  5
3BB
100
AcDbEntity
  8
RUNDUNGEN
100
AcDbLine
 62
7
  6
CONTINUOUS
 10
591.2621487289
 20
175.5705845942
 11
591.262202158
 21
175.5705010514
  0
LINE
  5
3BC
100
AcDbEntity
  8
KONSTRUKTIONSELEMENTE
100
AcDbLine
 62
7
  6
CONTINUOUS
 10
411.8624596035
 20
41.5540798739
 11
414.3876258207
 21
47.5700883671
  0
LINE
  5
3BD
100
AcDbEntity
  8
KONSTRUKTIONSELEMENTE
100
AcDbLine
 62
7
  6
CONTINUOUS
 10
591.7694373046
 20
174.6574136577
 11
591.6102107036
 21
174.9302840441
  0
LWPOLYLINE
  5
3BE
100
AcDbEntity
  8
RUNDUNGEN
100
AcDbPolyline
 62
7
  6
CONTINUOUS
 90
4
 70
0
 10
591.2332583084
 20
175.6172119306
 10
591.19411173
 20
175.6859743199
 10
591.1676388236
 20
175.7377144403
 10
591.1615510281
 20
175.7505231567
  0
LWPOLYLINE
  5
3BF
100
AcDbEntity
  8
RUNDUNGEN
100
AcDbPolyline
 62
7
  6
CONTINUOUS
 90
3
 70
0
 10
591.4290779017
 20
175.2873038954
 10
591.3450892018
 20
175.4357634613
 10
591.2332583084
 20
175.6172119306
  0
LINE
  5
3C0
100
AcDbEntity
  8
KONSTRUKTIONSELEMENTE
100
AcDbLine
 62
7
  6
CONTINUOUS
 10
591.6102107036
 20
174.9302840441
 11
591.5346853271
 21
175.0792724975
  0
LWPOLYLINE
  5
3C1
100
AcDbEntity
  8
RUNDUNGEN
100
AcDbPolyline
 62
7
  6
CONTINUOUS
 90
3
 70
0
 10
591.5342707641
 20
175.0800175277
 10
591.5069445272
 20
175.1365170221
 10
591.4290779017
 20
175.2873038954
  0
LINE
  5
3C2
100
AcDbEntity
  8
RUNDUNGEN
100
AcDbLine
 62
7
  6
CONTINUOUS
 10
591.534678597
 20
175.0792866775
 11
591.534381432
 21
175.0799124431
  0
LINE
  5
3C3
100
AcDbEntity
  8
RUNDUNGEN
100
AcDbLine
 62
7
  6
CONTINUOUS
 10
591.1636049903
 20
175.7461282412
 11
591.1615488286
 21
175.7505172789
  0
LINE
  5
3C4
100
AcDbEntity
  8
0
100
AcDbLine
 62
7
  6
CONTINUOUS
 10
538.0342168897
 20
212.1895907773
 11
538.0342168897
 21
268.4812420232
  0
LINE
  5
3C5
100
AcDbEntity
  8
KONSTRUKTIONSELEMENTE
100
AcDbLine
 62
7
  6
CONTINUOUS
 10
452.982217944
 20
71.8541957087
 11
451.2002176571
 21
67.608721178
  0
LINE
  5
3C6
100
AcDbEntity
  8
RUNDUNGEN
100
AcDbLine
 62
7
  6
CONTINUOUS
 10
591.7761944326
 20
174.5016694626
 11
591.7759018782
 21
174.5023618075
  0
LINE
  5
3C7
100
AcDbEntity
  8
RUNDUNGEN
100
AcDbLine
 62
7
  6
CONTINUOUS
 10
593.4300613845
 20
172.6966991485
 11
593.3912649278
 21
172.8036146905
  0
LINE
  5
3C8
100
AcDbEntity
  8
0
100
AcDbLine
 62
7
  6
CONTINUOUS
 10
560.0342168897
 20
212.1895907773
 11
560.0342168897
 21
268.4812420232
  0
LINE
  5
3C9
100
AcDbEntity
  8
0
100
AcDbLine
 62
7
  6
CONTINUOUS
 10
567.0342168897
 20
130.5229641059
 11
567.0342168897
 21
120.7612793839
  0
LINE
  5
3CA
100
AcDbEntity
  8
0
100
AcDbLine
 62
7
  6
CONTINUOUS
 10
567.0342168897
 20
120.4678815733
 11
567.0342168897
 21
115.3405676151
  0
LINE
  5
3CB
100
AcDbEntity
  8
0
100
AcDbLine
 62
7
  6
CONTINUOUS
 10
567.0342168897
 20
139.9198558463
 11
567.0342168897
 21
154.8076275354
  0
LINE
  5
3CC
100
AcDbEntity
  8
0
100
AcDbLine
 62
7
  6
CONTINUOUS
 10
569.0342168897
 20
556.6905469531
 11
569.0342168897
 21
264.8167638124
  0
LINE
  5
3CD
100
AcDbEntity
  8
0
100
AcDbLine
 62
7
  6
CONTINUOUS
 10
570.4805758764
 20
133.2803651115
 11
570.4805758764
 21
129.511174393
  0
LINE
  5
3CE
100
AcDbEntity
  8
KONSTRUKTIONSELEMENTE
100
AcDbLine
 62
7
  6
CONTINUOUS
 10
457.2609177803
 20
70.5628674927
 11
454.735751563
 21
64.5468589995
  0
LINE
  5
3CF
100
AcDbEntity
  8
KONSTRUKTIONSELEMENTE
100
AcDbLine
 62
7
  6
CONTINUOUS
 10
478.562904496
 20
111.3159618148
 11
461.899179988
 21
71.6159581149
  0
LINE
  5
3D0
100
AcDbEntity
  8
RUNDUNGEN
100
AcDbLine
 62
7
  6
CONTINUOUS
 10
593.3912649278
 20
172.8036146905
 11
593.3434363736
 21
172.9772929368
  0
LINE
  5
3D1
100
AcDbEntity
  8
KONSTRUKTIONSELEMENTE
100
AcDbLine
 62
7
  6
CONTINUOUS
 10
589.4879737688
 20
215.1153990695
 11
590.7380087678
 21
210.1017825294
  0
LINE
  5
3D2
100
AcDbEntity
  8
KONSTRUKTIONSELEMENTE
100
AcDbLine
 62
7
  6
CONTINUOUS
 10
592.7434850983
 20
202.0582563004
 11
593.1059912473
 21
200.6043235494
  0
LINE
  5
3D3
100
AcDbEntity
  8
RUNDUNGEN
100
AcDbLine
 62
7
  6
CONTINUOUS
 10
593.3434363736
 20
172.9772929368
 11
593.3062491048
 21
173.1792119332
  0
LWPOLYLINE
  5
3D4
100
AcDbEntity
  8
RUNDUNGEN
100
AcDbPolyline
 62
7
  6
CONTINUOUS
 90
3
 70
0
 10
593.3062491048
 20
173.1792119332
 10
593.2861038738
 20
173.4065131403
 10
593.2842174137
 20
173.4980091967
  0
LINE
  5
3D5
100
AcDbEntity
  8
0
100
AcDbLine
 62
7
  6
CONTINUOUS
 10
580.4613526982
 20
190.9549542704
 11
580.7012739722
 21
184.9670750952
  0
LINE
  5
3D6
100
AcDbEntity
  8
0
100
AcDbLine
 62
7
  6
CONTINUOUS
 10
572.0342168897
 20
164.7695852714
 11
572.0342168897
 21
166.0114501329
  0
LINE
  5
3D7
100
AcDbEntity
  8
0
100
AcDbLine
 62
7
  6
CONTINUOUS
 10
580.7012739722
 20
184.9670750952
 11
580.7012739722
 21
163.5237857749
  0
LINE
  5
3D8
100
AcDbEntity
  8
RUNDUNGEN
100
AcDbLine
 62
7
  6
CONTINUOUS
 10
589.3671598071
 20
184.9670750952
 11
589.3671598071
 21
163.5237857749
  0
LINE
  5
3D9
100
AcDbEntity
  8
0
100
AcDbLine
 62
7
  6
CONTINUOUS
 10
576.7842296836
 20
173.4978293266
 11
576.7842168897
 21
199.138713311
  0
LWPOLYLINE
  5
3DA
100
AcDbEntity
  8
0
100
AcDbPolyline
 62
7
  6
CONTINUOUS
 90
3
 70
0
 10
576.7842161499
 20
173.4978293431
 10
576.7827796499
 20
173.4185461839
 10
576.7635250583
 20
173.1890716204
  0
LINE
  5
3DB
100
AcDbEntity
  8
KONSTRUKTIONSELEMENTE
100
AcDbLine
 62
7
  6
CONTINUOUS
 10
456.9174893711
 20
129.6756029243
 11
454.8667489485
 21
127.223420403
  0
LINE
  5
3DC
100
AcDbEntity
  8
KONSTRUKTIONSELEMENTE
100
AcDbLine
 62
7
  6
CONTINUOUS
 10
444.0458889375
 20
114.2843260679
 11
407.3757462131
 21
70.4358301526
  0
LINE
  5
3DD
100
AcDbEntity
  8
KONSTRUKTIONSELEMENTE
100
AcDbLine
 62
7
  6
CONTINUOUS
 10
444.5055083453
 20
113.8862839847
 11
444.9220649936
 21
114.3843835593
  0
LINE
  5
3DE
100
AcDbEntity
  8
KONSTRUKTIONSELEMENTE
100
AcDbLine
 62
7
  6
CONTINUOUS
 10
448.7762858101
 20
114.2031552345
 11
456.2073456466
 21
123.0888800416
  0
LINE
  5
3DF
100
AcDbEntity
  8
KONSTRUKTIONSELEMENTE
100
AcDbLine
 62
7
  6
CONTINUOUS
 10
447.1218034357
 20
111.6205059726
 11
447.538360084
 21
112.1186055472
  0
LINE
  5
3E0
100
AcDbEntity
  8
KONSTRUKTIONSELEMENTE
100
AcDbLine
 62
7
  6
CONTINUOUS
 10
460.453023277
 20
126.6137407458
 11
458.4022828545
 21
124.1615582245
  0
LINE
  5
3E1
100
AcDbEntity
  8
KONSTRUKTIONSELEMENTE
100
AcDbLine
 62
7
  6
CONTINUOUS
 10
447.5814228434
 20
111.2224638894
 11
410.911280119
 21
67.3739679742
  0
LINE
  5
3E2
100
AcDbEntity
  8
KONSTRUKTIONSELEMENTE
100
AcDbLine
 62
7
  6
CONTINUOUS
 10
451.4793702635
 20
111.0935218568
 11
453.1455968568
 21
113.0859201553
  0
LINE
  5
3E3
100
AcDbEntity
  8
KONSTRUKTIONSELEMENTE
100
AcDbLine
 62
7
  6
CONTINUOUS
 10
459.7428795525
 20
120.0270178631
 11
451.9389896712
 21
110.6954797736
  0
LINE
  5
3E4
100
AcDbEntity
  8
BEZUGSACHSEN
100
AcDbLine
 62
7
  6
CONTINUOUS
 10
593.2842168897
 20
199.138713311
 11
593.2842168897
 21
185.154211046
  0
LINE
  5
3E5
100
AcDbEntity
  8
RUNDUNGEN
100
AcDbLine
 62
7
  6
CONTINUOUS
 10
593.2842168897
 20
185.1542110235
 11
593.2842168897
 21
173.5012661766
  0
LINE
  5
3E6
100
AcDbEntity
  8
KONSTRUKTIONSELEMENTE
100
AcDbLine
 62
7
  6
CONTINUOUS
 10
593.2842168897
 20
185.154211046
 11
593.2842168897
 21
173.5012755828
  0
LINE
  5
3E7
100
AcDbEntity
  8
KONSTRUKTIONSELEMENTE
100
AcDbLine
 62
7
  6
CONTINUOUS
 10
598.0342168897
 20
164.7695852714
 11
598.0342168897
 21
166.0114501329
  0
LINE
  5
3E8
100
AcDbEntity
  8
KONSTRUKTIONSELEMENTE
100
AcDbLine
 62
7
  6
CONTINUOUS
 10
599.5878579029
 20
133.2803651115
 11
599.5878579029
 21
129.511174393
  0
LINE
  5
3E9
100
AcDbEntity
  8
0
100
AcDbLine
 62
7
  6
CONTINUOUS
 10
601.0342168897
 20
556.6905469531
 11
601.0342168897
 21
264.8167638124
  0
LINE
  5
3EA
100
AcDbEntity
  8
KONSTRUKTIONSELEMENTE
100
AcDbLine
 62
7
  6
CONTINUOUS
 10
603.0342168897
 20
130.5229641059
 11
603.0342168897
 21
120.7612793839
  0
LINE
  5
3EB
100
AcDbEntity
  8
RUNDUNGEN
100
AcDbLine
 62
7
  6
CONTINUOUS
 10
603.0342168897
 20
120.4678815733
 11
603.0342168897
 21
115.3405676151
  0
LINE
  5
3EC
100
AcDbEntity
  8
RUNDUNGEN
100
AcDbLine
 62
7
  6
CONTINUOUS
 10
603.0342168897
 20
139.9198558463
 11
603.0342168897
 21
154.8076275354
  0
LINE
  5
3ED
100
AcDbEntity
  8
0
100
AcDbLine
 62
7
  6
CONTINUOUS
 10
610.0342168897
 20
268.4812420232
 11
610.0342168897
 21
212.1895907773
  0
LINE
  5
3EE
100
AcDbEntity
  8
0
100
AcDbLine
 62
7
  6
CONTINUOUS
 10
589.6070810812
 20
190.9549542704
 11
589.3671598071
 21
184.9670750952
  0
LINE
  5
3EF
100
AcDbEntity
  8
0
100
AcDbLine
 62
7
  6
CONTINUOUS
 10
576.7635250583
 20
173.1890716204
 11
576.7267349934
 21
172.9848560179
  0
LINE
  5
3F0
100
AcDbEntity
  8
BEZUGSACHSEN
100
AcDbLine
 62
7
  6
CONTINUOUS
 10
577.3014502931
 20
204.0795254205
 11
577.4872430006
 21
204.8246992691
  0
LINE
  5
3F1
100
AcDbEntity
  8
BEZUGSACHSEN
100
AcDbLine
 62
7
  6
CONTINUOUS
 10
578.6065706343
 20
209.3140772011
 11
578.7971191807
 21
210.0783256777
  0
LINE
  5
3F2
100
AcDbEntity
  8
0
100
AcDbLine
 62
7
  6
CONTINUOUS
 10
576.962442532
 20
200.6043235494
 11
580.5804600105
 21
215.1153990695
  0
LINE
  5
3F3
100
AcDbEntity
  8
0
100
AcDbLine
 62
7
  6
CONTINUOUS
 10
576.7267349934
 20
172.9848560179
 11
576.6788883055
 21
172.8089944001
  0
LINE
  5
3F4
100
AcDbEntity
  8
0
100
AcDbLine
 62
7
  6
CONTINUOUS
 10
576.6788883055
 20
172.8089944001
 11
576.6384703195
 21
172.6967973856
  0
LINE
  5
3F5
100
AcDbEntity
  8
0
100
AcDbLine
 62
7
  6
CONTINUOUS
 10
578.2922393467
 20
174.5016694626
 11
578.2925285171
 21
174.5023537984
  0
LWPOLYLINE
  5
3F6
100
AcDbEntity
  8
0
100
AcDbPolyline
 62
7
  6
CONTINUOUS
 90
7
 70
0
 10
578.292632656
 20
174.5025253394
 10
578.2068906004
 20
174.3053840675
 10
578.0386603757
 20
173.9474077605
 10
577.8543437627
 20
173.5899981603
 10
577.6539005976
 20
173.2336730057
 10
577.4372038468
 20
172.8790031828
 10
577.2983356748
 20
172.6657546346
  0
LINE
  5
3F7
100
AcDbEntity
  8
0
100
AcDbLine
 62
7
  6
CONTINUOUS
 10
578.9048287891
 20
175.7461282412
 11
578.9068864926
 21
175.7505205801
  0
LWPOLYLINE
  5
3F8
100
AcDbEntity
  8
0
100
AcDbPolyline
 62
7
  6
CONTINUOUS
 90
5
 70
0
 10
578.906884293
 20
175.7505264578
 10
578.901762703
 20
175.7397217474
 10
578.8763935242
 20
175.689838805
 10
578.8387765968
 20
175.6232433368
 10
578.7216984204
 20
175.4329766061
  0
LINE
  5
3F9
100
AcDbEntity
  8
0
100
AcDbLine
 62
7
  6
CONTINUOUS
 10
578.5337562913
 20
175.0792890132
 11
578.5340523409
 21
175.0799124296
  0
LINE
  5
3FA
100
AcDbEntity
  8
0
100
AcDbLine
 62
7
  6
CONTINUOUS
 10
578.5337495608
 20
175.0792748326
 11
578.4581702036
 21
174.9301855788
  0
LINE
  5
3FB
100
AcDbEntity
  8
KONSTRUKTIONSELEMENTE
100
AcDbLine
 62
7
  6
CONTINUOUS
 10
473.917696616
 20
126.3093335895
 11
474.1495850196
 21
126.5101548378
  0
LINE
  5
3FC
100
AcDbEntity
  8
KONSTRUKTIONSELEMENTE
100
AcDbLine
 62
7
  6
CONTINUOUS
 10
474.5031384102
 20
126.8163410557
 11
477.3315655349
 21
129.2658307984
  0
LINE
  5
3FD
100
AcDbEntity
  8
KONSTRUKTIONSELEMENTE
100
AcDbLine
 62
7
  6
CONTINUOUS
 10
528.9503605615
 20
173.9690186042
 11
531.7787876863
 21
176.418508347
  0
LINE
  5
3FE
100
AcDbEntity
  8
KONSTRUKTIONSELEMENTE
100
AcDbLine
 62
7
  6
CONTINUOUS
 10
532.1323410769
 20
176.7246945649
 11
534.9607682016
 21
179.1741843076
  0
LINE
  5
3FF
100
AcDbEntity
  8
KONSTRUKTIONSELEMENTE
100
AcDbLine
 62
7
  6
CONTINUOUS
 10
498.1781023023
 20
146.988742306
 11
508.7847040201
 21
156.1743288415
  0
LINE
  5
400
100
AcDbEntity
  8
KONSTRUKTIONSELEMENTE
100
AcDbLine
 62
7
  6
CONTINUOUS
 10
401.5751128889
 20
59.8326241692
 11
388.1756890073
 21
48.2283826916
  0
LINE
  5
401
100
AcDbEntity
  8
KONSTRUKTIONSELEMENTE
100
AcDbLine
 62
7
  6
CONTINUOUS
 10
386.3372113763
 20
46.1322985252
 11
386.9701382367
 21
46.6804292651
  0
LINE
  5
402
100
AcDbEntity
  8
KONSTRUKTIONSELEMENTE
100
AcDbLine
 62
7
  6
CONTINUOUS
 10
528.406917198
 20
169.0003809215
 11
517.8003154802
 21
159.8147943861
  0
LINE
  5
403
100
AcDbEntity
  8
KONSTRUKTIONSELEMENTE
100
AcDbLine
 62
7
  6
CONTINUOUS
 10
497.2942188258
 20
142.0559937509
 11
486.687617108
 21
132.8704072155
  0
LINE
  5
404
100
AcDbEntity
  8
KONSTRUKTIONSELEMENTE
100
AcDbLine
 62
7
  6
CONTINUOUS
 10
501.9122528541
 20
144.2696710955
 11
511.7306455383
 21
152.7726485844
  0
LINE
  5
405
100
AcDbEntity
  8
KONSTRUKTIONSELEMENTE
100
AcDbLine
 62
7
  6
CONTINUOUS
 10
478.0717890043
 20
123.2925048497
 11
480.6048338885
 21
125.4861860683
  0
LINE
  5
406
100
AcDbEntity
  8
KONSTRUKTIONSELEMENTE
100
AcDbLine
 62
7
  6
CONTINUOUS
 10
533.3801571866
 20
171.1909567375
 11
535.0520560398
 21
172.6388636169
  0
LINE
  5
407
100
AcDbEntity
  8
KONSTRUKTIONSELEMENTE
100
AcDbLine
 62
7
  6
CONTINUOUS
 10
535.4056094304
 20
172.9450498348
 11
537.5638383258
 21
174.8141308854
  0
LINE
  5
408
100
AcDbEntity
  8
KONSTRUKTIONSELEMENTE
100
AcDbLine
 62
7
  6
CONTINUOUS
 10
404.1914079793
 20
57.5668461571
 11
390.7919840977
 21
45.9626046796
  0
LINE
  5
409
100
AcDbEntity
  8
KONSTRUKTIONSELEMENTE
100
AcDbLine
 62
7
  6
CONTINUOUS
 10
389.4131258744
 20
43.4684784299
 11
404.1209469231
 21
56.2058250924
  0
LINE
  5
40A
100
AcDbEntity
  8
KONSTRUKTIONSELEMENTE
100
AcDbLine
 62
7
  6
CONTINUOUS
 10
531.3528587162
 20
165.5987006644
 11
520.7462569984
 21
156.413114129
  0
LINE
  5
40B
100
AcDbEntity
  8
KONSTRUKTIONSELEMENTE
100
AcDbLine
 62
7
  6
CONTINUOUS
 10
500.240160344
 20
138.6543134938
 11
489.6335586262
 21
129.4687269584
  0
LINE
  5
40C
100
AcDbEntity
  8
KONSTRUKTIONSELEMENTE
100
AcDbLine
 62
7
  6
CONTINUOUS
 10
389.8727452822
 20
43.0704363467
 11
404.5805663309
 21
55.8077830092
  0
LINE
  5
40D
100
AcDbEntity
  8
0
100
AcDbLine
 62
7
  6
CONTINUOUS
 10
632.0342168897
 20
268.4812420232
 11
632.0342168897
 21
212.1895907773
  0
LWPOLYLINE
  5
40E
100
AcDbEntity
  8
0
100
AcDbPolyline
 62
7
  6
CONTINUOUS
 90
3
 70
0
 10
578.6370626724
 20
175.2830579932
 10
578.5586677482
 20
175.1307768317
 10
578.5341630089
 20
175.0800175143
  0
LINE
  5
40F
100
AcDbEntity
  8
0
100
AcDbLine
 62
7
  6
CONTINUOUS
 10
578.7216984204
 20
175.4329766061
 11
578.6370626724
 21
175.2830579932
  0
LINE
  5
410
100
AcDbEntity
  8
0
100
AcDbLine
 62
7
  6
CONTINUOUS
 10
578.4581702036
 20
174.9301855788
 11
578.2988130245
 21
174.6571207577
  0
LINE
  5
411
100
AcDbEntity
  8
0
100
AcDbLine
 62
7
  6
CONTINUOUS
 10
578.806286577
 20
175.5705869804
 11
578.8062309594
 21
175.5705000162
  0
LINE
  5
412
100
AcDbEntity
  8
0
100
AcDbLine
 62
7
  6
CONTINUOUS
 10
577.2983195312
 20
172.6657392337
 11
568.4419130707
 21
159.381129543
  0
LINE
  5
413
100
AcDbEntity
  8
0
100
AcDbLine
 62
7
  6
CONTINUOUS
 10
578.2988130245
 20
174.6571207577
 11
578.0685049816
 21
174.3148095118
  0
LINE
  5
414
100
AcDbEntity
  8
0
100
AcDbLine
 62
7
  6
CONTINUOUS
 10
578.0685049816
 20
174.3148095118
 11
577.874400153
 21
174.0550034331
  0
LINE
  5
415
100
AcDbEntity
  8
0
100
AcDbLine
 62
7
  6
CONTINUOUS
 10
577.9300006936
 20
174.1273289548
 11
577.874400153
 21
174.0550034331
  0
LINE
  5
416
100
AcDbEntity
  8
0
100
AcDbLine
 62
7
  6
CONTINUOUS
 10
577.5591177747
 20
173.669599593
 11
577.5231185011
 21
173.6278540738
  0
LINE
  5
417
100
AcDbEntity
  8
0
100
AcDbLine
 62
7
  6
CONTINUOUS
 10
577.5591177747
 20
173.669599593
 11
577.3391308042
 21
173.4204901036
  0
LINE
  5
418
100
AcDbEntity
  8
0
100
AcDbLine
 62
7
  6
CONTINUOUS
 10
577.3391308042
 20
173.4204901036
 11
576.8929133178
 21
172.9520524828
  0
LINE
  5
419
100
AcDbEntity
  8
KONSTRUKTIONSELEMENTE
100
AcDbLine
 62
7
  6
CONTINUOUS
 10
543.0924961853
 20
172.1319012971
 11
537.0820885452
 21
166.9267355937
  0
LINE
  5
41A
100
AcDbEntity
  8
KONSTRUKTIONSELEMENTE
100
AcDbLine
 62
7
  6
CONTINUOUS
 10
485.4632935186
 20
122.2235477879
 11
479.4528858785
 21
117.0183820845
  0
LINE
  5
41B
100
AcDbEntity
  8
KONSTRUKTIONSELEMENTE
100
AcDbLine
 62
7
  6
CONTINUOUS
 10
516.9164320038
 20
149.132045831
 11
506.309830286
 21
139.9464592955
  0
LINE
  5
41C
100
AcDbEntity
  8
KONSTRUKTIONSELEMENTE
100
AcDbLine
 62
7
  6
CONTINUOUS
 10
491.1628760422
 20
125.0431546911
 11
500.240160344
 21
132.9043134938
  0
LINE
  5
41D
100
AcDbEntity
  8
KONSTRUKTIONSELEMENTE
100
AcDbLine
 62
7
  6
CONTINUOUS
 10
522.2394556808
 20
151.9562621209
 11
531.3528587162
 21
159.8487006644
  0
LINE
  5
41E
100
AcDbEntity
  8
KONSTRUKTIONSELEMENTE
100
AcDbLine
 62
7
  6
CONTINUOUS
 10
389.8727452822
 20
37.1554363467
 11
404.5805663309
 21
49.8927830092
  0
LINE
  5
41F
100
AcDbEntity
  8
KONSTRUKTIONSELEMENTE
100
AcDbLine
 62
7
  6
CONTINUOUS
 10
390.7919840977
 20
37.4476046796
 11
404.1209469231
 21
48.9908250924
  0
LINE
  5
420
100
AcDbEntity
  8
KONSTRUKTIONSELEMENTE
100
AcDbLine
 62
7
  6
CONTINUOUS
 10
519.8623735219
 20
145.7303655739
 11
509.2557718041
 21
136.5447790385
  0
LINE
  5
421
100
AcDbEntity
  8
KONSTRUKTIONSELEMENTE
100
AcDbLine
 62
7
  6
CONTINUOUS
 10
546.3657645388
 20
168.3522565671
 11
540.3553568987
 21
163.1470908636
  0
LINE
  5
422
100
AcDbEntity
  8
KONSTRUKTIONSELEMENTE
100
AcDbLine
 62
7
  6
CONTINUOUS
 10
488.7365618721
 20
118.4439030578
 11
482.726154232
 21
113.2387373544
  0
LINE
  5
423
100
AcDbEntity
  8
0
100
AcDbLine
 62
7
  6
CONTINUOUS
 10
573.4930566569
 20
169.5413487442
 11
576.8928184388
 21
172.9519569651
  0
LINE
  5
424
100
AcDbEntity
  8
KONSTRUKTIONSELEMENTE
100
AcDbLine
 62
7
  6
CONTINUOUS
 10
420.4956278559
 20
54.4317642531
 11
455.0377868487
 21
72.9565892885
  0
LINE
  5
425
100
AcDbEntity
  8
RUNDUNGEN
100
AcDbLine
 62
7
  6
CONTINUOUS
 10
602.2466240292
 20
112.8590263336
 11
600.6731769155
 21
110.5955212978
  0
LINE
  5
426
100
AcDbEntity
  8
KONSTRUKTIONSELEMENTE
100
AcDbLine
 62
7
  6
CONTINUOUS
 10
410.911280119
 20
40.6853682056
 11
411.2516594
 21
40.8679122853
  0
LINE
  5
427
100
AcDbEntity
  8
KONSTRUKTIONSELEMENTE
100
AcDbLine
 62
7
  6
CONTINUOUS
 10
454.9580646562
 20
64.3074868199
 11
455.7911779528
 21
64.754282229
  0
LINE
  5
428
100
AcDbEntity
  8
RUNDUNGEN
100
AcDbLine
 62
7
  6
CONTINUOUS
 10
599.9333467211
 20
109.9163134575
 11
600.2223637908
 21
110.1306616841
  0
ARC
  5
429
100
AcDbEntity
  8
KONSTRUKTIONSELEMENTE
100
AcDbCircle
 62
7
  6
CONTINUOUS
 10
59.1814544462
 20
81.9743358238
 40
45.0
100
AcDbArc
 50
69.0779339621
 51
82.8843724077
  0
ARC
  5
42A
100
AcDbEntity
  8
KONSTRUKTIONSELEMENTE
100
AcDbCircle
 62
7
  6
CONTINUOUS
 10
59.1814544462
 20
81.9743358238
 40
45.0
100
AcDbArc
 50
37.1156275923
 51
50.9220660379
  0
ARC
  5
42B
100
AcDbEntity
  8
BEZUGSACHSEN
100
AcDbCircle
 62
7
  6
CONTINUOUS
 10
113.9112669462
 20
176.7691517625
 40
16.0
100
AcDbArc
 50
103.4832507211
 51
16.5167492789
  0
ARC
  5
42C
100
AcDbEntity
  8
0
100
AcDbCircle
 62
7
  6
CONTINUOUS
 10
116.3612669462
 20
181.012676241
 40
11.0
100
AcDbArc
 50
150.0
 51
330.0
  0
ARC
  5
42D
100
AcDbEntity
  8
KONSTRUKTIONSELEMENTE
100
AcDbCircle
 62
7
  6
CONTINUOUS
 10
28.7683956286
 20
56.7052400849
 40
7.2075994746
100
AcDbArc
 50
52.0084828409
 51
54.6969256904
  0
ARC
  5
42E
100
AcDbEntity
  8
KONSTRUKTIONSELEMENTE
100
AcDbCircle
 62
7
  6
CONTINUOUS
 10
97.6112669462
 20
148.5367235991
 40
7.1
100
AcDbArc
 50
330.0
 51
150.0
  0
ARC
  5
42F
100
AcDbEntity
  8
KONSTRUKTIONSELEMENTE
100
AcDbCircle
 62
7
  6
CONTINUOUS
 10
52.9900436844
 20
44.4272616439
 40
6.0774483599
100
AcDbArc
 50
81.3149175254
 51
82.0930351415
  0
ARC
  5
430
100
AcDbEntity
  8
KONSTRUKTIONSELEMENTE
100
AcDbCircle
 62
7
  6
CONTINUOUS
 10
30.0011349571
 20
58.0557632363
 40
5.8195578378
100
AcDbArc
 50
34.748994543
 51
36.8892014811
  0
CIRCLE
  5
431
100
AcDbEntity
  8
BEZUGSACHSEN
100
AcDbCircle
 62
7
  6
CONTINUOUS
 10
108.8298512332
 20
121.9678815733
 40
3.0
  0
ARC
  5
432
100
AcDbEntity
  8
RUNDUNGEN
100
AcDbCircle
 62
7
  6
CONTINUOUS
 10
62.0544224623
 20
156.9504623962
 40
3.0
100
AcDbArc
 50
337.0803074625
 51
10.0
  0
ARC
  5
433
100
AcDbEntity
  8
RUNDUNGEN
100
AcDbCircle
 62
7
  6
CONTINUOUS
 10
122.6762007272
 20
121.9504623962
 40
3.0
100
AcDbArc
 50
110.0
 51
145.2760379204
  0
ARC
  5
434
100
AcDbEntity
  8
KONSTRUKTIONSELEMENTE
100
AcDbCircle
 62
7
  6
CONTINUOUS
 10
34.9405884944
 20
57.1305297337
 40
2.6566396129
100
AcDbArc
 50
337.9702150979
 51
339.9065806722
  0
ARC
  5
435
100
AcDbEntity
  8
KONSTRUKTIONSELEMENTE
100
AcDbCircle
 62
7
  6
CONTINUOUS
 10
34.978776334
 20
57.1145882998
 40
2.6152604962
100
AcDbArc
 50
330.0208671421
 51
337.9801551546
  0
ARC
  5
436
100
AcDbEntity
  8
KONSTRUKTIONSELEMENTE
100
AcDbCircle
 62
7
  6
CONTINUOUS
 10
77.480986533
 20
113.670055153
 40
2.5
100
AcDbArc
 50
150.0
 51
330.0
  0
ARC
  5
437
100
AcDbEntity
  8
KONSTRUKTIONSELEMENTE
100
AcDbCircle
 62
7
  6
CONTINUOUS
 10
106.2955878664
 20
163.5784086622
 40
2.5
100
AcDbArc
 50
150.0
 51
163.090119613
  0
ARC
  5
438
100
AcDbEntity
  8
KONSTRUKTIONSELEMENTE
100
AcDbCircle
 62
7
  6
CONTINUOUS
 10
106.2955878664
 20
163.5784086622
 40
2.5
100
AcDbArc
 50
316.909880387
 51
330.0
  0
ARC
  5
439
100
AcDbEntity
  8
KONSTRUKTIONSELEMENTE
100
AcDbCircle
 62
7
  6
CONTINUOUS
 10
37.0558240179
 20
116.5267296755
 40
2.3394182334
100
AcDbArc
 50
258.2431310925
 51
260.8424375544
  0
ARC
  5
43A
100
AcDbEntity
  8
0
100
AcDbCircle
 62
7
  6
CONTINUOUS
 10
60.9095976529
 20
131.1594447658
 40
2.0
100
AcDbArc
 50
190.0000162712
 51
240.0000104589
  0
ARC
  5
43B
100
AcDbEntity
  8
RUNDUNGEN
100
AcDbCircle
 62
7
  6
CONTINUOUS
 10
59.0444750669
 20
141.7370805793
 40
2.0
100
AcDbArc
 50
150.0
 51
190.0
  0
ARC
  5
43C
100
AcDbEntity
  8
0
100
AcDbCircle
 62
7
  6
CONTINUOUS
 10
100.9129389579
 20
108.0635070443
 40
2.0
100
AcDbArc
 50
239.9999447949
 51
289.999914116
  0
ARC
  5
43D
100
AcDbEntity
  8
RUNDUNGEN
100
AcDbCircle
 62
7
  6
CONTINUOUS
 10
111.005999294
 20
111.7370805793
 40
2.0
100
AcDbArc
 50
290.0
 51
330.0
  0
ARC
  5
43E
100
AcDbEntity
  8
0
100
AcDbCircle
 62
7
  6
CONTINUOUS
 10
111.005999294
 20
111.7370805793
 40
2.0
100
AcDbArc
 50
290.0
 51
329.200548064
  0
ARC
  5
43F
100
AcDbEntity
  8
0
100
AcDbCircle
 62
7
  6
CONTINUOUS
 10
184.8612669462
 20
299.6581565595
 40
11.0
100
AcDbArc
 50
330.0
 51
150.0
  0
ARC
  5
440
100
AcDbEntity
  8
KONSTRUKTIONSELEMENTE
100
AcDbCircle
 62
7
  6
CONTINUOUS
 10
369.5410794462
 20
81.9743358238
 40
45.0
100
AcDbArc
 50
97.1156275923
 51
110.9220660379
  0
ARC
  5
441
100
AcDbEntity
  8
KONSTRUKTIONSELEMENTE
100
AcDbCircle
 62
7
  6
CONTINUOUS
 10
369.5410794462
 20
81.9743358238
 40
45.0
100
AcDbArc
 50
129.0779339621
 51
142.8843724077
  0
ARC
  5
442
100
AcDbEntity
  8
0
100
AcDbCircle
 62
7
  6
CONTINUOUS
 10
314.8112669462
 20
176.7691517625
 40
16.0
100
AcDbArc
 50
163.4832507211
 51
76.5167492789
  0
ARC
  5
443
100
AcDbEntity
  8
0
100
AcDbCircle
 62
7
  6
CONTINUOUS
 10
312.3612669462
 20
181.012676241
 40
11.0
100
AcDbArc
 50
210.0
 51
30.0
  0
ARC
  5
444
100
AcDbEntity
  8
0
100
AcDbCircle
 62
7
  6
CONTINUOUS
 10
331.1112669462
 20
148.5367235991
 40
7.1
100
AcDbArc
 50
30.0
 51
210.0
  0
ARC
  5
445
100
AcDbEntity
  8
0
100
AcDbCircle
 62
7
  6
CONTINUOUS
 10
306.0463331651
 20
121.9504623962
 40
3.0
100
AcDbArc
 50
34.7239620796
 51
70.0
  0
ARC
  5
446
100
AcDbEntity
  8
0
100
AcDbCircle
 62
7
  6
CONTINUOUS
 10
366.66811143
 20
156.9504623962
 40
3.0
100
AcDbArc
 50
170.0
 51
202.9196925375
  0
CIRCLE
  5
447
100
AcDbEntity
  8
BEZUGSACHSEN
100
AcDbCircle
 62
7
  6
CONTINUOUS
 10
319.8926826591
 20
121.9678815733
 40
3.0
  0
ARC
  5
448
100
AcDbEntity
  8
RUNDUNGEN
100
AcDbCircle
 62
7
  6
CONTINUOUS
 10
317.7165345984
 20
111.7370805793
 40
2.0
100
AcDbArc
 50
210.799451936
 51
250.0
  0
ARC
  5
449
100
AcDbEntity
  8
0
100
AcDbCircle
 62
7
  6
CONTINUOUS
 10
317.7165345984
 20
111.7370805793
 40
2.0
100
AcDbArc
 50
210.0
 51
250.0
  0
ARC
  5
44A
100
AcDbEntity
  8
0
100
AcDbCircle
 62
7
  6
CONTINUOUS
 10
369.6780588254
 20
141.7370805793
 40
2.0
100
AcDbArc
 50
350.0
 51
30.0
  0
ARC
  5
44B
100
AcDbEntity
  8
0
100
AcDbCircle
 62
7
  6
CONTINUOUS
 10
367.8129362394
 20
131.1594447658
 40
2.0
100
AcDbArc
 50
299.9999895411
 51
349.9999837288
  0
ARC
  5
44C
100
AcDbEntity
  8
0
100
AcDbCircle
 62
7
  6
CONTINUOUS
 10
327.8095949344
 20
108.0635070443
 40
2.0
100
AcDbArc
 50
250.000085884
 51
300.0000552051
  0
ARC
  5
44D
100
AcDbEntity
  8
0
100
AcDbCircle
 62
7
  6
CONTINUOUS
 10
214.3612669462
 20
350.7536553828
 40
102.0
100
AcDbArc
 50
180.0
 51
233.8078703195
  0
ARC
  5
44E
100
AcDbEntity
  8
0
100
AcDbCircle
 62
7
  6
CONTINUOUS
 10
214.3612669462
 20
350.7536553828
 40
102.0
100
AcDbArc
 50
246.1912312413
 51
293.8087687587
  0
ARC
  5
44F
100
AcDbEntity
  8
0
100
AcDbCircle
 62
7
  6
CONTINUOUS
 10
214.3612669462
 20
350.7536553828
 40
102.0
100
AcDbArc
 50
306.1921296805
 51
360.0
  0
ARC
  5
450
100
AcDbEntity
  8
0
100
AcDbCircle
 62
7
  6
CONTINUOUS
 10
214.3612669462
 20
470.7536553828
 40
102.0
100
AcDbArc
 50
0.0
 51
180.0
  0
ARC
  5
451
100
AcDbEntity
  8
0
100
AcDbCircle
 62
7
  6
CONTINUOUS
 10
214.3612669462
 20
470.7536553828
 40
70.0
100
AcDbArc
 50
0.0
 51
180.0
  0
ARC
  5
452
100
AcDbEntity
  8
0
100
AcDbCircle
 62
7
  6
CONTINUOUS
 10
214.3612669462
 20
350.7536553828
 40
70.0
100
AcDbArc
 50
180.0
 51
230.9569528975
  0
ARC
  5
453
100
AcDbEntity
  8
0
100
AcDbCircle
 62
7
  6
CONTINUOUS
 10
214.3612669462
 20
350.7536553828
 40
70.0
100
AcDbArc
 50
249.042155831
 51
290.957844169
  0
ARC
  5
454
100
AcDbEntity
  8
0
100
AcDbCircle
 62
7
  6
CONTINUOUS
 10
214.3612669462
 20
350.7536553828
 40
70.0
100
AcDbArc
 50
309.0430471025
 51
360.0
  0
ARC
  5
455
100
AcDbEntity
  8
0
100
AcDbCircle
 62
7
  6
CONTINUOUS
 10
243.8612669462
 20
299.6581565595
 40
11.0
100
AcDbArc
 50
30.0
 51
210.0
  0
ARC
  5
456
100
AcDbEntity
  8
BEZUGSACHSEN
100
AcDbCircle
 62
7
  6
CONTINUOUS
 10
-34.0253601878
 20
24.6971747923
 40
651.7366688361
100
AcDbArc
 50
15.9034503118
 51
16.0475466053
  0
ARC
  5
457
100
AcDbEntity
  8
BEZUGSACHSEN
100
AcDbCircle
 62
7
  6
CONTINUOUS
 10
430.9828890221
 20
156.2780197456
 40
168.5782534416
100
AcDbArc
 50
16.4288108731
 51
16.5856762301
  0
ARC
  5
458
100
AcDbEntity
  8
KONSTRUKTIONSELEMENTE
100
AcDbCircle
 62
7
  6
CONTINUOUS
 10
502.3117943695
 20
141.7683202341
 40
6.5947824563
100
AcDbArc
 50
180.0290752758
 51
188.778086953
  0
ARC
  5
459
100
AcDbEntity
  8
KONSTRUKTIONSELEMENTE
100
AcDbCircle
 62
7
  6
CONTINUOUS
 10
471.5462935762
 20
120.9039498111
 40
6.5206902011
100
AcDbArc
 50
34.9896799423
 51
37.0084605449
  0
ARC
  5
45A
100
AcDbEntity
  8
KONSTRUKTIONSELEMENTE
100
AcDbCircle
 62
7
  6
CONTINUOUS
 10
471.7984571232
 20
121.0820812695
 40
6.2119582888
100
AcDbArc
 50
34.4531420932
 51
34.9773455113
  0
ARC
  5
45B
100
AcDbEntity
  8
KONSTRUKTIONSELEMENTE
100
AcDbCircle
 62
7
  6
CONTINUOUS
 10
399.2301629822
 20
66.6108183284
 40
6.1602839805
100
AcDbArc
 50
338.4764344793
 51
338.7941164991
  0
ARC
  5
45C
100
AcDbEntity
  8
KONSTRUKTIONSELEMENTE
100
AcDbCircle
 62
7
  6
CONTINUOUS
 10
399.5854022431
 20
66.4746227735
 40
5.7798346589
100
AcDbArc
 50
338.7790094632
 51
340.5291890327
  0
ARC
  5
45D
100
AcDbEntity
  8
0
100
AcDbCircle
 62
7
  6
CONTINUOUS
 10
586.7704803688
 20
147.9438643524
 40
5.7660129009
100
AcDbArc
 50
13.7902734958
 51
14.7240949249
  0
ARC
  5
45E
100
AcDbEntity
  8
0
100
AcDbCircle
 62
7
  6
CONTINUOUS
 10
583.2979534095
 20
147.9438643527
 40
5.7660128997
100
AcDbArc
 50
165.275905075
 51
166.2097265043
  0
ARC
  5
45F
100
AcDbEntity
  8
0
100
AcDbCircle
 62
7
  6
CONTINUOUS
 10
586.8278406079
 20
147.9571861884
 40
5.7071306245
100
AcDbArc
 50
7.6817842816
 51
13.7976528942
  0
ARC
  5
460
100
AcDbEntity
  8
0
100
AcDbCircle
 62
7
  6
CONTINUOUS
 10
583.2405931715
 20
147.9571861884
 40
5.7071306245
100
AcDbArc
 50
166.2023471058
 51
172.3182157184
  0
ARC
  5
461
100
AcDbEntity
  8
0
100
AcDbCircle
 62
7
  6
CONTINUOUS
 10
571.5352401731
 20
115.4404776059
 40
4.522549743
100
AcDbArc
 50
211.655372423
 51
214.8057205919
  0
ARC
  5
462
100
AcDbEntity
  8
KONSTRUKTIONSELEMENTE
100
AcDbCircle
 62
7
  6
CONTINUOUS
 10
503.4710764344
 20
142.7196221527
 40
3.6351988051
100
AcDbArc
 50
238.8071952045
 51
240.6860889461
  0
ARC
  5
463
100
AcDbEntity
  8
KONSTRUKTIONSELEMENTE
100
AcDbCircle
 62
7
  6
CONTINUOUS
 10
513.8598675599
 20
150.3123584265
 40
3.2537077432
100
AcDbArc
 50
125.8262786327
 51
130.8740696877
  0
ARC
  5
464
100
AcDbEntity
  8
KONSTRUKTIONSELEMENTE
100
AcDbCircle
 62
7
  6
CONTINUOUS
 10
515.4438089493
 20
150.8535327228
 40
2.3966654421
100
AcDbArc
 50
23.4830152976
 51
29.1758184914
  0
ARC
  5
465
100
AcDbEntity
  8
0
100
AcDbCircle
 62
7
  6
CONTINUOUS
 10
571.0470536698
 20
111.7463188214
 40
2.0131486851
100
AcDbArc
 50
214.8647092427
 51
233.3684037738
  0
ARC
  5
466
100
AcDbEntity
  8
BEZUGSACHSEN
100
AcDbCircle
 62
7
  6
CONTINUOUS
 10
479.3523961054
 20
185.1331190241
 40
114.5727155144
100
AcDbArc
 50
10.3828583316
 51
10.5712747642
  0
ARC
  5
467
100
AcDbEntity
  8
BEZUGSACHSEN
100
AcDbCircle
 62
7
  6
CONTINUOUS
 10
518.8318349074
 20
188.2213238544
 40
75.5717835198
100
AcDbArc
 50
12.038463946
 51
12.2823351256
  0
ARC
  5
468
100
AcDbEntity
  8
BEZUGSACHSEN
100
AcDbCircle
 62
7
  6
CONTINUOUS
 10
525.0742103739
 20
195.6849067109
 40
67.6635209247
100
AcDbArc
 50
8.8872931081
 51
9.0735777584
  0
ARC
  5
469
100
AcDbEntity
  8
BEZUGSACHSEN
100
AcDbCircle
 62
7
  6
CONTINUOUS
 10
533.1616687315
 20
185.8673419298
 40
62.257931171
100
AcDbArc
 50
17.4513653926
 51
17.6499377024
  0
ARC
  5
46A
100
AcDbEntity
  8
KONSTRUKTIONSELEMENTE
100
AcDbCircle
 62
7
  6
CONTINUOUS
 10
521.4482146618
 20
214.5891326374
 40
54.1889730929
100
AcDbArc
 50
310.925453933
 51
315.3262886149
  0
ARC
  5
46B
100
AcDbEntity
  8
KONSTRUKTIONSELEMENTE
100
AcDbCircle
 62
7
  6
CONTINUOUS
 10
522.1799314532
 20
213.7673005998
 40
47.0886993573
100
AcDbArc
 50
310.9119020465
 51
313.9221447071
  0
ARC
  5
46C
100
AcDbEntity
  8
KONSTRUKTIONSELEMENTE
100
AcDbCircle
 62
7
  6
CONTINUOUS
 10
533.2573178405
 20
168.561478885
 40
6.8544496741
100
AcDbArc
 50
180.0468621101
 51
190.0347873196
  0
ARC
  5
46D
100
AcDbEntity
  8
KONSTRUKTIONSELEMENTE
100
AcDbCircle
 62
7
  6
CONTINUOUS
 10
534.4355613143
 20
169.56703319
 40
3.4480880966
100
AcDbArc
 50
240.3855846734
 51
242.1133696713
  0
ARC
  5
46E
100
AcDbEntity
  8
0
100
AcDbCircle
 62
7
  6
CONTINUOUS
 10
563.7514735864
 20
185.8450859602
 40
18.4127752178
100
AcDbArc
 50
315.8410037999
 51
316.3114216168
  0
ARC
  5
46F
100
AcDbEntity
  8
0
100
AcDbCircle
 62
7
  6
CONTINUOUS
 10
566.1248157996
 20
183.588070458
 40
15.1375946994
100
AcDbArc
 50
316.2837932271
 51
317.8057276678
  0
ARC
  5
470
100
AcDbEntity
  8
0
100
AcDbCircle
 62
7
  6
CONTINUOUS
 10
568.0824387377
 20
181.8085623473
 40
12.4920450761
100
AcDbArc
 50
317.860601637
 51
319.0935635275
  0
ARC
  5
471
100
AcDbEntity
  8
KONSTRUKTIONSELEMENTE
100
AcDbCircle
 62
7
  6
CONTINUOUS
 10
541.7102246129
 20
173.9056065894
 40
2.2319350363
100
AcDbArc
 50
329.648099119
 51
331.3181221811
  0
ARC
  5
472
100
AcDbEntity
  8
BEZUGSACHSEN
100
AcDbCircle
 62
7
  6
CONTINUOUS
 10
544.0100199367
 20
190.1619132789
 40
50.7621456681
100
AcDbArc
 50
20.9752952194
 51
21.259900757
  0
ARC
  5
473
100
AcDbEntity
  8
BEZUGSACHSEN
100
AcDbCircle
 62
7
  6
CONTINUOUS
 10
564.407085245
 20
194.0187382838
 40
29.9669183656
100
AcDbArc
 50
18.9813080406
 51
19.3663124526
  0
ARC
  5
474
100
AcDbEntity
  8
0
100
AcDbCircle
 62
7
  6
CONTINUOUS
 10
569.7722759749
 20
180.3618780265
 40
10.2675162855
100
AcDbArc
 50
319.3267004771
 51
322.0992026384
  0
ARC
  5
475
100
AcDbEntity
  8
0
100
AcDbCircle
 62
7
  6
CONTINUOUS
 10
570.9765659514
 20
179.4185558468
 40
8.7377457424
100
AcDbArc
 50
322.7277272178
 51
323.4022764908
  0
ARC
  5
476
100
AcDbEntity
  8
0
100
AcDbCircle
 62
7
  6
CONTINUOUS
 10
571.1444049679
 20
179.2936206751
 40
8.5285122025
100
AcDbArc
 50
323.4038798149
 51
323.7100529842
  0
ARC
  5
477
100
AcDbEntity
  8
0
100
AcDbCircle
 62
7
  6
CONTINUOUS
 10
571.4340220276
 20
179.0827158994
 40
8.1702430851
100
AcDbArc
 50
323.7000939731
 51
325.5466234015
  0
ARC
  5
478
100
AcDbEntity
  8
0
100
AcDbCircle
 62
7
  6
CONTINUOUS
 10
571.7106129455
 20
178.8914288435
 40
7.8339520955
100
AcDbArc
 50
325.5558058669
 51
326.3079509576
  0
ARC
  5
479
100
AcDbEntity
  8
0
100
AcDbCircle
 62
7
  6
CONTINUOUS
 10
571.8252124861
 20
178.8149629501
 40
7.6961838663
100
AcDbArc
 50
326.3083255519
 51
327.0032565185
  0
ARC
  5
47A
100
AcDbEntity
  8
0
100
AcDbCircle
 62
7
  6
CONTINUOUS
 10
577.0340429262
 20
166.0114919882
 40
4.9998260367
100
AcDbArc
 50
135.0842008593
 51
180.0004796438
  0
ARC
  5
47B
100
AcDbEntity
  8
KONSTRUKTIONSELEMENTE
100
AcDbCircle
 62
7
  6
CONTINUOUS
 10
593.0343908532
 20
166.0114919882
 40
4.9998260367
100
AcDbArc
 50
359.9995203562
 51
44.9157991407
  0
ARC
  5
47C
100
AcDbEntity
  8
BEZUGSACHSEN
100
AcDbCircle
 62
7
  6
CONTINUOUS
 10
574.0889578693
 20
200.6791094136
 40
18.9430506478
100
AcDbArc
 50
9.5758784169
 51
10.0450478224
  0
ARC
  5
47D
100
AcDbEntity
  8
BEZUGSACHSEN
100
AcDbCircle
 62
7
  6
CONTINUOUS
 10
595.9310829321
 20
200.6875234437
 40
18.8939318949
100
AcDbArc
 50
169.9544798083
 51
170.5815729326
  0
ARC
  5
47E
100
AcDbEntity
  8
BEZUGSACHSEN
100
AcDbCircle
 62
7
  6
CONTINUOUS
 10
593.5442405924
 20
205.96432484
 40
15.3042074938
100
AcDbArc
 50
167.4459121745
 51
167.9626137434
  0
ARC
  5
47F
100
AcDbEntity
  8
BEZUGSACHSEN
100
AcDbCircle
 62
7
  6
CONTINUOUS
 10
577.8818936361
 20
208.2831196732
 40
13.4100190119
100
AcDbArc
 50
357.7637628549
 51
1.0510525728
  0
ARC
  5
480
100
AcDbEntity
  8
KONSTRUKTIONSELEMENTE
100
AcDbCircle
 62
7
  6
CONTINUOUS
 10
577.4232529475
 20
208.3690578668
 40
13.3228868008
100
AcDbArc
 50
357.3792136427
 51
0.6883019724
  0
ARC
  5
481
100
AcDbEntity
  8
BEZUGSACHSEN
100
AcDbCircle
 62
7
  6
CONTINUOUS
 10
578.307357414
 20
207.6773503219
 40
13.1437035901
100
AcDbArc
 50
358.5574691502
 51
1.2123735565
  0
ARC
  5
482
100
AcDbEntity
  8
BEZUGSACHSEN
100
AcDbCircle
 62
7
  6
CONTINUOUS
 10
579.5483899108
 20
205.8602320222
 40
12.380107388
100
AcDbArc
 50
358.468472044
 51
1.2871618599
  0
ARC
  5
483
100
AcDbEntity
  8
BEZUGSACHSEN
100
AcDbCircle
 62
7
  6
CONTINUOUS
 10
580.0462759101
 20
205.1333913433
 40
12.073196586
100
AcDbArc
 50
358.4294978781
 51
1.0155777295
  0
ARC
  5
484
100
AcDbEntity
  8
BEZUGSACHSEN
100
AcDbCircle
 62
7
  6
CONTINUOUS
 10
588.5591939135
 20
201.7077381813
 40
11.4973021213
100
AcDbArc
 50
163.6518917226
 51
164.2763436633
  0
ARC
  5
485
100
AcDbEntity
  8
BEZUGSACHSEN
100
AcDbCircle
 62
7
  6
CONTINUOUS
 10
588.3954342878
 20
202.5851449747
 40
11.1149683808
100
AcDbArc
 50
176.3941685416
 51
177.5523508331
  0
ARC
  5
486
100
AcDbEntity
  8
BEZUGSACHSEN
100
AcDbCircle
 62
7
  6
CONTINUOUS
 10
581.6729994915
 20
202.5851449747
 40
11.1149683808
100
AcDbArc
 50
2.4476491669
 51
3.6058314584
  0
ARC
  5
487
100
AcDbEntity
  8
BEZUGSACHSEN
100
AcDbCircle
 62
7
  6
CONTINUOUS
 10
588.3391530887
 20
202.5910978463
 40
11.0586282251
100
AcDbArc
 50
181.7232984256
 51
182.7204368173
  0
ARC
  5
488
100
AcDbEntity
  8
BEZUGSACHSEN
100
AcDbCircle
 62
7
  6
CONTINUOUS
 10
581.7292806906
 20
202.5910978463
 40
11.0586282251
100
AcDbArc
 50
357.2795631827
 51
358.2767015744
  0
ARC
  5
489
100
AcDbEntity
  8
BEZUGSACHSEN
100
AcDbCircle
 62
7
  6
CONTINUOUS
 10
588.831827792
 20
207.8806650464
 40
10.268167143
100
AcDbArc
 50
167.7650682888
 51
168.5441734457
  0
ARC
  5
48A
100
AcDbEntity
  8
BEZUGSACHSEN
100
AcDbCircle
 62
7
  6
CONTINUOUS
 10
584.0301208148
 20
202.1007099804
 40
7.0077194663
100
AcDbArc
 50
162.7715459293
 51
163.7842940227
  0
ARC
  5
48B
100
AcDbEntity
  8
0
100
AcDbCircle
 62
7
  6
CONTINUOUS
 10
582.7842168897
 20
199.1527921758
 40
6.0
100
AcDbArc
 50
166.0
 51
180.0
  0
ARC
  5
48C
100
AcDbEntity
  8
BEZUGSACHSEN
100
AcDbCircle
 62
7
  6
CONTINUOUS
 10
587.2842168897
 20
199.1527921758
 40
6.0
100
AcDbArc
 50
0.0
 51
14.0
  0
ARC
  5
48D
100
AcDbEntity
  8
BEZUGSACHSEN
100
AcDbCircle
 62
7
  6
CONTINUOUS
 10
588.9996679101
 20
202.6960640745
 40
4.003351601
100
AcDbArc
 50
26.3700428842
 51
27.3975786338
  0
ARC
  5
48E
100
AcDbEntity
  8
BEZUGSACHSEN
100
AcDbCircle
 62
7
  6
CONTINUOUS
 10
588.0865059159
 20
209.6402985838
 40
3.1950343768
100
AcDbArc
 50
4.018219384
 51
5.695380181
  0
ARC
  5
48F
100
AcDbEntity
  8
BEZUGSACHSEN
100
AcDbCircle
 62
7
  6
CONTINUOUS
 10
589.402364657
 20
205.5167556547
 40
3.183132935
100
AcDbArc
 50
49.3128347374
 51
50.0076231198
  0
ARC
  5
490
100
AcDbEntity
  8
BEZUGSACHSEN
100
AcDbCircle
 62
7
  6
CONTINUOUS
 10
588.107808083
 20
209.6440704915
 40
3.1736732594
100
AcDbArc
 50
355.5577701761
 51
357.2434835887
  0
ARC
  5
491
100
AcDbEntity
  8
KONSTRUKTIONSELEMENTE
100
AcDbCircle
 62
7
  6
CONTINUOUS
 10
587.58890357
 20
209.6760162836
 40
3.1572899709
100
AcDbArc
 50
3.4167742259
 51
5.1125877549
  0
ARC
  5
492
100
AcDbEntity
  8
KONSTRUKTIONSELEMENTE
100
AcDbCircle
 62
7
  6
CONTINUOUS
 10
587.5889035764
 20
209.6796131378
 40
3.1572899645
100
AcDbArc
 50
354.887412244
 51
356.5832265842
  0
ARC
  5
493
100
AcDbEntity
  8
BEZUGSACHSEN
100
AcDbCircle
 62
7
  6
CONTINUOUS
 10
589.9284135504
 20
204.4704375542
 40
2.6580363598
100
AcDbArc
 50
0.0815316106
 51
1.4208005521
  0
ARC
  5
494
100
AcDbEntity
  8
BEZUGSACHSEN
100
AcDbCircle
 62
7
  6
CONTINUOUS
 10
579.8772999775
 20
203.7134810058
 40
2.5862907494
100
AcDbArc
 50
178.5397652123
 51
179.9161948834
  0
ARC
  5
495
100
AcDbEntity
  8
BEZUGSACHSEN
100
AcDbCircle
 62
7
  6
CONTINUOUS
 10
590.1911338018
 20
203.7134810058
 40
2.5862907494
100
AcDbArc
 50
0.0838051166
 51
1.4602347877
  0
ARC
  5
496
100
AcDbEntity
  8
BEZUGSACHSEN
100
AcDbCircle
 62
7
  6
CONTINUOUS
 10
591.27950486
 20
202.7373432204
 40
1.7899719737
100
AcDbArc
 50
33.1922678756
 51
35.0679988019
  0
ARC
  5
497
100
AcDbEntity
  8
KONSTRUKTIONSELEMENTE
100
AcDbCircle
 62
7
  6
CONTINUOUS
 10
589.550532036
 20
209.4424676929
 40
1.5037997906
100
AcDbArc
 50
322.600366014
 51
324.4538474771
  0
ARC
  5
498
100
AcDbEntity
  8
BEZUGSACHSEN
100
AcDbCircle
 62
7
  6
CONTINUOUS
 10
590.1192994887
 20
209.393447205
 40
1.4549312728
100
AcDbArc
 50
323.5530242067
 51
325.4453057561
  0
ARC
  5
499
100
AcDbEntity
  8
0
100
AcDbCircle
 62
7
  6
CONTINUOUS
 10
585.0342168897
 20
264.7536553828
 40
16.0
100
AcDbArc
 50
180.0
 51
360.0
  0
ARC
  5
49A
100
AcDbEntity
  8
BEZUGSACHSEN
100
AcDbCircle
 62
7
  6
CONTINUOUS
 10
796.2969108661
 20
146.7817425594
 40
226.3543410996
100
AcDbArc
 50
165.1149756184
 51
165.246768999
  0
ARC
  5
49B
100
AcDbEntity
  8
BEZUGSACHSEN
100
AcDbCircle
 62
7
  6
CONTINUOUS
 10
779.4070639192
 20
162.1223317389
 40
206.2510503276
100
AcDbArc
 50
166.6750987499
 51
166.8191179787
  0
ARC
  5
49C
100
AcDbEntity
  8
RUNDUNGEN
100
AcDbCircle
 62
7
  6
CONTINUOUS
 10
598.5331936062
 20
115.4404776059
 40
4.522549743
100
AcDbArc
 50
325.1942794081
 51
328.344627577
  0
ARC
  5
49D
100
AcDbEntity
  8
RUNDUNGEN
100
AcDbCircle
 62
7
  6
CONTINUOUS
 10
598.5576477994
 20
115.4253673334
 40
4.4938038374
100
AcDbArc
 50
328.3449895818
 51
330.9098049252
  0
ARC
  5
49E
100
AcDbEntity
  8
RUNDUNGEN
100
AcDbCircle
 62
7
  6
CONTINUOUS
 10
599.0213801096
 20
111.7463188214
 40
2.0131486851
100
AcDbArc
 50
306.6315962262
 51
325.1352907573
  0
ARC
  5
49F
100
AcDbEntity
  8
BEZUGSACHSEN
100
AcDbCircle
 62
7
  6
CONTINUOUS
 10
666.5939794917
 20
181.3258783976
 40
92.1454585784
100
AcDbArc
 50
164.9878290197
 51
165.1085866974
  0
ARC
  5
4A0
100
AcDbEntity
  8
BEZUGSACHSEN
100
AcDbCircle
 62
7
  6
CONTINUOUS
 10
634.8085246633
 20
197.0400813617
 40
57.5013837853
100
AcDbArc
 50
167.056267262
 51
167.3244931783
  0
ARC
  5
4A1
100
AcDbEntity
  8
BEZUGSACHSEN
100
AcDbCircle
 62
7
  6
CONTINUOUS
 10
625.0629438842
 20
191.171991534
 40
49.4660841782
100
AcDbArc
 50
164.4601919222
 51
164.7582145811
  0
ARC
  5
4A2
100
AcDbEntity
  8
RUNDUNGEN
100
AcDbCircle
 62
7
  6
CONTINUOUS
 10
606.3169601916
 20
185.8450859588
 40
18.4127752158
100
AcDbArc
 50
223.6885783832
 51
224.1589962001
  0
ARC
  5
4A3
100
AcDbEntity
  8
RUNDUNGEN
100
AcDbCircle
 62
7
  6
CONTINUOUS
 10
603.9414047244
 20
183.5859912242
 40
15.1345580899
100
AcDbArc
 50
222.1916468716
 51
223.7163080056
  0
ARC
  5
4A4
100
AcDbEntity
  8
RUNDUNGEN
100
AcDbCircle
 62
7
  6
CONTINUOUS
 10
601.9744213287
 20
181.7983886941
 40
12.4766359271
100
AcDbArc
 50
220.9059300497
 51
222.117436076
  0
ARC
  5
4A5
100
AcDbEntity
  8
RUNDUNGEN
100
AcDbCircle
 62
7
  6
CONTINUOUS
 10
600.2948258196
 20
180.3607920935
 40
10.2657978868
100
AcDbArc
 50
217.8988806104
 51
220.6709705716
  0
ARC
  5
4A6
100
AcDbEntity
  8
RUNDUNGEN
100
AcDbCircle
 62
7
  6
CONTINUOUS
 10
599.0918678267
 20
179.4185558458
 40
8.7377457408
100
AcDbArc
 50
216.5977235091
 51
217.2722727822
  0
ARC
  5
4A7
100
AcDbEntity
  8
RUNDUNGEN
100
AcDbCircle
 62
7
  6
CONTINUOUS
 10
598.9236797879
 20
179.2933624668
 40
8.52807805
100
AcDbArc
 50
216.2877224517
 51
216.5961253785
  0
ARC
  5
4A8
100
AcDbEntity
  8
RUNDUNGEN
100
AcDbCircle
 62
7
  6
CONTINUOUS
 10
598.6336336941
 20
179.0821615862
 40
8.169287806
100
AcDbArc
 50
214.4490652881
 51
216.2976919749
  0
ARC
  5
4A9
100
AcDbEntity
  8
RUNDUNGEN
100
AcDbCircle
 62
7
  6
CONTINUOUS
 10
598.3574251341
 20
178.8911624532
 40
7.8334750864
100
AcDbArc
 50
213.6919706676
 51
214.4398518013
  0
ARC
  5
4AA
100
AcDbEntity
  8
RUNDUNGEN
100
AcDbCircle
 62
7
  6
CONTINUOUS
 10
598.2432165955
 20
178.8149598722
 40
7.6961782501
100
AcDbArc
 50
212.9967433098
 51
213.6916109342
  0
ARC
  5
4AB
100
AcDbEntity
  8
0
100
AcDbCircle
 62
7
  6
CONTINUOUS
 10
585.0342168897
 20
556.7536553828
 40
16.0
100
AcDbArc
 50
0.0
 51
180.0
  0
SPLINE
  5
4AC
100
AcDbEntity
  8
KONSTRUKTIONSELEMENTE
100
AcDbSpline
 62
7
  6
CONTINUOUS
 70
0
 71
3
 72
10
 73
6
 74
0
 42
0.0000001
 43
0.0000001
 44
0.0000000001
 40
0.0
 40
0.0
 40
0.0
 40
0.0
 40
0.2404326244
 40
0.4871466718
 40
1.0
 40
1.0
 40
1.0
 40
1.0
 10
98.8245684387
 20
136.7594939021
 30
0.0
 10
98.7781654448
 20
137.2065383589
 30
0.0
 10
98.5821613685
 20
138.1042970416
 30
0.0
 10
97.8295290215
 20
139.824245193
 30
0.0
 10
96.9164370512
 20
140.955117161
 30
0.0
 10
96.2127548867
 20
141.606205016
 30
0.0
  0
SPLINE
  5
4AD
100
AcDbEntity
  8
KONSTRUKTIONSELEMENTE
100
AcDbSpline
 62
7
  6
CONTINUOUS
 70
0
 71
3
 72
10
 73
6
 74
0
 42
0.0000001
 43
0.0000001
 44
0.0000000001
 40
0.0
 40
0.0
 40
0.0
 40
0.0
 40
0.5128755823
 40
0.7595782525
 40
1.0
 40
1.0
 40
1.0
 40
1.0
 10
92.3104148522
 20
143.8597200065
 30
0.0
 10
91.3943683457
 20
144.1438492917
 30
0.0
 10
89.9579207989
 20
144.3695566056
 30
0.0
 10
88.0913351352
 20
144.161431424
 30
0.0
 10
87.2155706643
 20
143.8821545325
 30
0.0
 10
86.8050727126
 20
143.698768383
 30
0.0
  0
SPLINE
  5
4AE
100
AcDbEntity
  8
KONSTRUKTIONSELEMENTE
100
AcDbSpline
 62
7
  6
CONTINUOUS
 70
0
 71
3
 72
10
 73
6
 74
0
 42
0.0000001
 43
0.0000001
 44
0.0000000001
 40
0.0
 40
0.0
 40
0.0
 40
0.0
 40
0.2405304887
 40
0.4871178604
 40
1.0
 40
1.0
 40
1.0
 40
1.0
 10
78.3048889127
 20
129.3007034197
 30
0.0
 10
78.3299054755
 20
128.8494497652
 30
0.0
 10
78.4869704575
 20
127.9387388796
 30
0.0
 10
79.1782240629
 20
126.1821519905
 30
0.0
 10
80.0636255255
 20
125.0179598936
 30
0.0
 10
80.7535316924
 20
124.3451183109
 30
0.0
  0
SPLINE
  5
4AF
100
AcDbEntity
  8
KONSTRUKTIONSELEMENTE
100
AcDbSpline
 62
7
  6
CONTINUOUS
 70
0
 71
3
 72
10
 73
6
 74
0
 42
0.0000001
 43
0.0000001
 44
0.0000000001
 40
0.0
 40
0.0
 40
0.0
 40
0.0
 40
0.5129092974
 40
0.7594793488
 40
1.0
 40
1.0
 40
1.0
 40
1.0
 10
85.0904958549
 20
121.8414563141
 30
0.0
 10
86.0190290089
 20
121.5802631551
 30
0.0
 10
87.4713383338
 20
121.3957104088
 30
0.0
 10
89.3397083943
 20
121.6766825175
 30
0.0
 10
90.2073656704
 20
121.9970637843
 30
0.0
 10
90.6108259951
 20
122.2015460803
 30
0.0
  0
SPLINE
  5
4B0
100
AcDbEntity
  8
KONSTRUKTIONSELEMENTE
100
AcDbSpline
 62
7
  6
CONTINUOUS
 70
0
 71
3
 72
10
 73
6
 74
0
 42
0.0000001
 43
0.0000001
 44
0.0000000001
 40
0.0
 40
0.0
 40
0.0
 40
0.0
 40
0.3192646009
 40
0.6086079864
 40
1.0
 40
1.0
 40
1.0
 40
1.0
 10
109.8151913931
 20
162.674540793
 30
0.0
 10
109.9010612807
 20
162.8232718012
 30
0.0
 10
109.9384976093
 20
163.1721449974
 30
0.0
 10
109.8183764774
 20
163.6957011233
 30
0.0
 10
109.6622414663
 20
164.0318430166
 30
0.0
 10
109.5566176907
 20
164.2139698728
 30
0.0
  0
SPLINE
  5
4B1
100
AcDbEntity
  8
KONSTRUKTIONSELEMENTE
100
AcDbSpline
 62
7
  6
CONTINUOUS
 70
0
 71
3
 72
10
 73
6
 74
0
 42
0.0000001
 43
0.0000001
 44
0.0000000001
 40
0.0
 40
0.0
 40
0.0
 40
0.0
 40
0.3914026107
 40
0.6807340322
 40
1.0
 40
1.0
 40
1.0
 40
1.0
 10
105.2153796002
 20
166.7203242646
 30
0.0
 10
105.0048486657
 20
166.7207284764
 30
0.0
 10
104.6357059497
 20
166.6878336984
 30
0.0
 10
104.1222467459
 20
166.5301376791
 30
0.0
 10
103.8388784595
 20
166.3232631499
 30
0.0
 10
103.7530135666
 20
166.174540793
 30
0.0
  0
SPLINE
  5
4B2
100
AcDbEntity
  8
KONSTRUKTIONSELEMENTE
100
AcDbSpline
 62
7
  6
CONTINUOUS
 70
0
 71
3
 72
13
 73
9
 74
0
 42
0.0000001
 43
0.0000001
 44
0.0000000001
 40
0.0
 40
0.0
 40
0.0
 40
0.0
 40
0.1194170292
 40
0.2394581772
 40
0.3607170904
 40
0.4836657514
 40
0.7362769235
 40
1.0
 40
1.0
 40
1.0
 40
1.0
 10
113.8996357914
 20
160.7806340967
 30
0.0
 10
114.0427454952
 20
161.0806639193
 30
0.0
 10
114.2718003779
 20
161.7118799009
 30
0.0
 10
114.429807049
 20
162.7090000698
 30
0.0
 10
114.4073273372
 20
163.727973648
 30
0.0
 10
114.143871364
 20
165.0913005531
 30
0.0
 10
113.4007357964
 20
166.7368421586
 30
0.0
 10
112.4805745498
 20
167.8614375672
 30
0.0
 10
111.9550232224
 20
168.373989569
 30
0.0
  0
SPLINE
  5
4B3
100
AcDbEntity
  8
KONSTRUKTIONSELEMENTE
100
AcDbSpline
 62
7
  6
CONTINUOUS
 70
0
 71
3
 72
13
 73
9
 74
0
 42
0.0000001
 43
0.0000001
 44
0.0000000001
 40
0.0
 40
0.0
 40
0.0
 40
0.0
 40
0.263725901
 40
0.5163199094
 40
0.6392650208
 40
0.7605061008
 40
0.88055945
 40
1.0
 40
1.0
 40
1.0
 40
1.0
 10
107.6180590599
 20
170.8776515658
 30
0.0
 10
106.9114492043
 20
171.0764184699
 30
0.0
 10
105.4776302907
 20
171.3108633892
 30
0.0
 10
103.681230942
 20
171.131587999
 30
0.0
 10
102.3691296303
 20
170.6780446377
 30
0.0
 10
101.4754891738
 20
170.1882110671
 30
0.0
 10
100.6910720604
 20
169.5527614395
 30
0.0
 10
100.2589316266
 20
169.0387784957
 30
0.0
 10
100.0706266502
 20
168.7648103705
 30
0.0
  0
SPLINE
  5
4B4
100
AcDbEntity
  8
KONSTRUKTIONSELEMENTE
100
AcDbSpline
 62
7
  6
CONTINUOUS
 70
0
 71
3
 72
9
 73
5
 74
0
 42
0.0000001
 43
0.0000001
 44
0.0000000001
 40
0.0
 40
0.0
 40
0.0
 40
0.0
 40
0.4893425855
 40
1.0
 40
1.0
 40
1.0
 40
1.0
 10
94.1394665652
 20
154.7231025091
 30
0.0
 10
94.3490215112
 20
154.0455636069
 30
0.0
 10
94.9950439125
 20
152.7235168794
 30
0.0
 10
95.9525652296
 20
151.615535441
 30
0.0
 10
96.4958000281
 20
151.1129028639
 30
0.0
  0
SPLINE
  5
4B5
100
AcDbEntity
  8
KONSTRUKTIONSELEMENTE
100
AcDbSpline
 62
7
  6
CONTINUOUS
 70
0
 71
3
 72
9
 73
5
 74
0
 42
0.0000001
 43
0.0000001
 44
0.0000000001
 40
0.0
 40
0.0
 40
0.0
 40
0.0
 40
0.5106765564
 40
1.0
 40
1.0
 40
1.0
 40
1.0
 10
100.3981400626
 20
148.8593878734
 30
0.0
 10
101.105044938
 20
148.6401278517
 30
0.0
 10
102.5432779201
 20
148.3645343745
 30
0.0
 10
104.0112413197
 20
148.4657250681
 30
0.0
 10
104.7028065612
 20
148.6228073763
 30
0.0
  0
SPLINE
  5
4B6
100
AcDbEntity
  8
KONSTRUKTIONSELEMENTE
100
AcDbSpline
 62
7
  6
CONTINUOUS
 70
0
 71
3
 72
9
 73
5
 74
0
 42
0.0000001
 43
0.0000001
 44
0.0000000001
 40
0.0
 40
0.0
 40
0.0
 40
0.0
 40
0.2404990325
 40
1.0
 40
1.0
 40
1.0
 40
1.0
 10
98.649919561
 20
155.5543129421
 30
0.0
 10
98.6652930332
 20
155.525517946
 30
0.0
 10
98.7310052439
 20
155.4067474751
 30
0.0
 10
98.8035740288
 20
155.2918043186
 30
0.0
 10
98.861843289
 20
155.2067691401
 30
0.0
  0
SPLINE
  5
4B7
100
AcDbEntity
  8
KONSTRUKTIONSELEMENTE
100
AcDbSpline
 62
7
  6
CONTINUOUS
 70
0
 71
3
 72
9
 73
5
 74
0
 42
0.0000001
 43
0.0000001
 44
0.0000000001
 40
0.0
 40
0.0
 40
0.0
 40
0.0
 40
0.2593015787
 40
1.0
 40
1.0
 40
1.0
 40
1.0
 10
102.7621415502
 20
152.9548016457
 30
0.0
 10
102.7972525284
 20
152.9520846664
 30
0.0
 10
102.9327844098
 20
152.9433648016
 30
0.0
 10
103.0688025358
 20
152.9416768373
 30
0.0
 10
103.1693418487
 20
152.9450180395
 30
0.0
  0
SPLINE
  5
4B8
100
AcDbEntity
  8
KONSTRUKTIONSELEMENTE
100
AcDbSpline
 62
7
  6
CONTINUOUS
 70
0
 71
3
 72
9
 73
5
 74
0
 42
0.0000001
 43
0.0000001
 44
0.0000000001
 40
0.0
 40
0.0
 40
0.0
 40
0.0
 40
0.231757029
 40
1.0
 40
1.0
 40
1.0
 40
1.0
 10
103.3800951239
 20
188.7936619968
 30
0.0
 10
103.468745421
 20
188.3577518586
 30
0.0
 10
103.9572950585
 20
186.4986149202
 30
0.0
 10
104.8368010346
 20
184.7542397347
 30
0.0
 10
105.6464385552
 20
183.5218364067
 30
0.0
  0
SPLINE
  5
4B9
100
AcDbEntity
  8
KONSTRUKTIONSELEMENTE
100
AcDbSpline
 62
7
  6
CONTINUOUS
 70
0
 71
3
 72
9
 73
5
 74
0
 42
0.0000001
 43
0.0000001
 44
0.0000000001
 40
0.0
 40
0.0
 40
0.0
 40
0.0
 40
0.2686941333
 40
1.0
 40
1.0
 40
1.0
 40
1.0
 10
123.8929133778
 20
172.9878666493
 30
0.0
 10
124.4077646598
 20
172.9581817722
 30
0.0
 10
126.32600347
 20
172.9255966766
 30
0.0
 10
128.2614807236
 20
173.2160835421
 30
0.0
 10
129.5924212224
 20
173.6618303826
 30
0.0
  0
SPLINE
  5
4BA
100
AcDbEntity
  8
KONSTRUKTIONSELEMENTE
100
AcDbSpline
 62
7
  6
CONTINUOUS
 70
0
 71
3
 72
9
 73
5
 74
0
 42
0.0000001
 43
0.0000001
 44
0.0000000001
 40
0.0
 40
0.0
 40
0.0
 40
0.0
 40
0.4866272252
 40
1.0
 40
1.0
 40
1.0
 40
1.0
 10
99.13088087
 20
182.8593333183
 30
0.0
 10
100.1368784972
 20
180.7916791056
 30
0.0
 10
102.865982499
 20
176.850966736
 30
0.0
 10
106.4705223265
 20
173.7219887107
 30
0.0
 10
108.4696808046
 20
172.3480364556
 30
0.0
  0
SPLINE
  5
4BB
100
AcDbEntity
  8
KONSTRUKTIONSELEMENTE
100
AcDbSpline
 62
7
  6
CONTINUOUS
 70
0
 71
3
 72
9
 73
5
 74
0
 42
0.0000001
 43
0.0000001
 44
0.0000000001
 40
0.0
 40
0.0
 40
0.0
 40
0.0
 40
0.5133870922
 40
1.0
 40
1.0
 40
1.0
 40
1.0
 10
112.8026483862
 20
169.8463267899
 30
0.0
 10
114.9932681169
 20
168.8013518028
 30
0.0
 10
119.5077628497
 20
167.2435824516
 30
0.0
 10
124.2876992282
 20
166.8511674054
 30
0.0
 10
126.5824080561
 20
167.0145311644
 30
0.0
  0
SPLINE
  5
4BC
100
AcDbEntity
  8
BEZUGSACHSEN
100
AcDbSpline
 62
7
  6
CONTINUOUS
 70
0
 71
3
 72
9
 73
5
 74
0
 42
0.0000001
 43
0.0000001
 44
0.0000000001
 40
0.0
 40
0.0
 40
0.0
 40
0.0
 40
0.4734684586
 40
1.0
 40
1.0
 40
1.0
 40
1.0
 10
82.2100261712
 20
112.0657607755
 30
0.0
 10
81.7635126953
 20
111.8656680231
 30
0.0
 10
80.7325999156
 20
111.6325194522
 30
0.0
 10
79.6891218855
 20
111.7152598538
 30
0.0
 10
79.1555442555
 20
111.8219208311
 30
0.0
  0
SPLINE
  5
4BD
100
AcDbEntity
  8
BEZUGSACHSEN
100
AcDbSpline
 62
7
  6
CONTINUOUS
 70
0
 71
3
 72
9
 73
5
 74
0
 42
0.0000001
 43
0.0000001
 44
0.0000000001
 40
0.0
 40
0.0
 40
0.0
 40
0.0
 40
0.5265315414
 40
1.0
 40
1.0
 40
1.0
 40
1.0
 10
75.0431763995
 20
114.1961975198
 30
0.0
 10
74.6840164685
 20
114.6049588136
 30
0.0
 10
74.0906221638
 20
115.4672670951
 30
0.0
 10
73.7770783592
 20
116.4766380369
 30
0.0
 10
73.7271070279
 20
116.9633764264
 30
0.0
  0
SPLINE
  5
4BE
100
AcDbEntity
  8
KONSTRUKTIONSELEMENTE
100
AcDbSpline
 62
7
  6
CONTINUOUS
 70
0
 71
3
 72
13
 73
9
 74
0
 42
0.0000001
 43
0.0000001
 44
0.0000000001
 40
0.0
 40
0.0
 40
0.0
 40
0.0
 40
0.1036865026
 40
0.2123166057
 40
0.3277694079
 40
0.450761267
 40
0.7166663069
 40
1.0
 40
1.0
 40
1.0
 40
1.0
 10
37.4355283281
 20
56.2178363245
 30
0.0
 10
37.5133443184
 20
56.4305408002
 30
0.0
 10
37.6166911545
 20
56.8883824558
 30
0.0
 10
37.6057585421
 20
57.6099043197
 30
0.0
 10
37.4355431742
 20
58.3538619273
 30
0.0
 10
36.9946600545
 20
59.3691220749
 30
0.0
 10
36.0837996286
 20
60.5502264144
 30
0.0
 10
35.1152729054
 20
61.2826640162
 30
0.0
 10
34.5792799818
 20
61.5921196748
 30
0.0
  0
SPLINE
  5
4BF
100
AcDbEntity
  8
KONSTRUKTIONSELEMENTE
100
AcDbSpline
 62
7
  6
CONTINUOUS
 70
0
 71
3
 72
9
 73
5
 74
0
 42
0.0000001
 43
0.0000001
 44
0.0000000001
 40
0.0
 40
0.0
 40
0.0
 40
0.0
 40
0.4892987036
 40
1.0
 40
1.0
 40
1.0
 40
1.0
 10
36.7594038813
 20
110.0992051238
 30
0.0
 10
36.8097968886
 20
110.1864329178
 30
0.0
 10
36.8849662873
 20
110.3820897001
 30
0.0
 10
36.8989432182
 20
110.590520784
 30
0.0
 10
36.8927016249
 20
110.6954797736
 30
0.0
  0
SPLINE
  5
4C0
100
AcDbEntity
  8
KONSTRUKTIONSELEMENTE
100
AcDbSpline
 62
7
  6
CONTINUOUS
 70
0
 71
3
 72
11
 73
7
 74
0
 42
0.0000001
 43
0.0000001
 44
0.0000000001
 40
0.0
 40
0.0
 40
0.0
 40
0.0
 40
0.2200436456
 40
0.4557793627
 40
0.7157728079
 40
1.0
 40
1.0
 40
1.0
 40
1.0
 10
28.9064392246
 20
114.9806582091
 30
0.0
 10
28.9720597707
 20
115.0942441168
 30
0.0
 10
29.1590370595
 20
115.302880425
 30
0.0
 10
29.5486948062
 20
115.4958677982
 30
0.0
 10
30.0140962957
 20
115.5671322879
 30
0.0
 10
30.3402820283
 20
115.5342002817
 30
0.0
 10
30.5061722484
 20
115.4996917508
 30
0.0
  0
SPLINE
  5
4C1
100
AcDbEntity
  8
KONSTRUKTIONSELEMENTE
100
AcDbSpline
 62
7
  6
CONTINUOUS
 70
0
 71
3
 72
11
 73
7
 74
0
 42
0.0000001
 43
0.0000001
 44
0.0000000001
 40
0.0
 40
0.0
 40
0.0
 40
0.0
 40
0.2200599668
 40
0.4557760239
 40
0.7157731965
 40
1.0
 40
1.0
 40
1.0
 40
1.0
 10
28.5611243601
 20
131.6622919766
 30
0.0
 10
28.7798499838
 20
132.0410412416
 30
0.0
 10
29.4029073669
 20
132.7368747244
 30
0.0
 10
30.7019586366
 20
133.3804578258
 30
0.0
 10
32.2535189022
 20
133.6180802312
 30
0.0
 10
33.3410067564
 20
133.5083449037
 30
0.0
 10
33.8940682419
 20
133.3932968958
 30
0.0
  0
SPLINE
  5
4C2
100
AcDbEntity
  8
KONSTRUKTIONSELEMENTE
100
AcDbSpline
 62
7
  6
CONTINUOUS
 70
0
 71
3
 72
9
 73
5
 74
0
 42
0.0000001
 43
0.0000001
 44
0.0000000001
 40
0.0
 40
0.0
 40
0.0
 40
0.0
 40
0.4891681133
 40
1.0
 40
1.0
 40
1.0
 40
1.0
 10
26.7932807377
 20
128.6002964825
 30
0.0
 10
26.6255049731
 20
128.3097395157
 30
0.0
 10
26.3751226245
 20
127.6578960648
 30
0.0
 10
26.3287329691
 20
126.963499517
 30
0.0
 10
26.3495320644
 20
126.6137407458
 30
0.0
  0
SPLINE
  5
4C3
100
AcDbEntity
  8
KONSTRUKTIONSELEMENTE
100
AcDbSpline
 62
7
  6
CONTINUOUS
 70
0
 71
3
 72
9
 73
5
 74
0
 42
0.0000001
 43
0.0000001
 44
0.0000000001
 40
0.0
 40
0.0
 40
0.0
 40
0.0
 40
0.4891683995
 40
1.0
 40
1.0
 40
1.0
 40
1.0
 10
69.9589813808
 20
53.0540557053
 30
0.0
 10
70.126721242
 20
53.3446622646
 30
0.0
 10
70.5660590338
 20
53.8874778765
 30
0.0
 10
71.1442693856
 20
54.2748859045
 30
0.0
 10
71.4575918982
 20
54.4317642531
 30
0.0
  0
SPLINE
  5
4C4
100
AcDbEntity
  8
KONSTRUKTIONSELEMENTE
100
AcDbSpline
 62
7
  6
CONTINUOUS
 70
0
 71
3
 72
9
 73
5
 74
0
 42
0.0000001
 43
0.0000001
 44
0.0000000001
 40
0.0
 40
0.0
 40
0.0
 40
0.0
 40
0.4694103614
 40
1.0
 40
1.0
 40
1.0
 40
1.0
 10
71.2758911477
 20
54.333033226
 30
0.0
 10
71.2819558005
 20
53.6909649909
 30
0.0
 10
71.6282592329
 20
52.3228499707
 30
0.0
 10
72.4108302315
 20
51.173416871
 30
0.0
 10
72.8941260405
 20
50.6319505456
 30
0.0
  0
SPLINE
  5
4C5
100
AcDbEntity
  8
KONSTRUKTIONSELEMENTE
100
AcDbSpline
 62
7
  6
CONTINUOUS
 70
0
 71
3
 72
11
 73
7
 74
0
 42
0.0000001
 43
0.0000001
 44
0.0000000001
 40
0.0
 40
0.0
 40
0.0
 40
0.0
 40
0.2094829334
 40
0.4446557434
 40
0.7120095299
 40
1.0
 40
1.0
 40
1.0
 40
1.0
 10
28.5577966918
 20
45.9626046796
 30
0.0
 10
28.466431985
 20
45.8043563654
 30
0.0
 10
28.3729755188
 20
45.4051377014
 30
0.0
 10
28.5417733592
 20
44.7887463619
 30
0.0
 10
28.9502410758
 20
44.2196993437
 30
0.0
 10
29.3395623713
 20
43.9190837212
 30
0.0
 10
29.5571171175
 20
43.7934784299
 30
0.0
  0
SPLINE
  5
4C6
100
AcDbEntity
  8
KONSTRUKTIONSELEMENTE
100
AcDbSpline
 62
7
  6
CONTINUOUS
 70
0
 71
3
 72
10
 73
6
 74
0
 42
0.0000001
 43
0.0000001
 44
0.0000000001
 40
0.0
 40
0.0
 40
0.0
 40
0.0
 40
0.2210513433
 40
0.4578290806
 40
1.0
 40
1.0
 40
1.0
 40
1.0
 10
78.3805356591
 20
44.0674970713
 30
0.0
 10
78.4024084283
 20
44.1053766845
 30
0.0
 10
78.4315186678
 20
44.1941818453
 30
0.0
 10
78.4188171572
 20
44.3950810193
 30
0.0
 10
78.3352655825
 20
44.535903821
 30
0.0
 10
78.2638259749
 20
44.6159420524
 30
0.0
  0
SPLINE
  5
4C7
100
AcDbEntity
  8
BEZUGSACHSEN
100
AcDbSpline
 62
7
  6
CONTINUOUS
 70
0
 71
3
 72
9
 73
5
 74
0
 42
0.0000001
 43
0.0000001
 44
0.0000000001
 40
0.0
 40
0.0
 40
0.0
 40
0.0
 40
0.2459387646
 40
1.0
 40
1.0
 40
1.0
 40
1.0
 10
87.7148857482
 20
117.8719041775
 30
0.0
 10
87.4767043396
 20
118.1387536095
 30
0.0
 10
86.4786791235
 20
119.1971304399
 30
0.0
 10
85.3686433759
 20
120.1489758538
 30
0.0
 10
84.4857791067
 20
120.7995634882
 30
0.0
  0
SPLINE
  5
4C8
100
AcDbEntity
  8
BEZUGSACHSEN
100
AcDbSpline
 62
7
  6
CONTINUOUS
 70
0
 71
3
 72
9
 73
5
 74
0
 42
0.0000001
 43
0.0000001
 44
0.0000000001
 40
0.0
 40
0.0
 40
0.0
 40
0.0
 40
0.2536983179
 40
1.0
 40
1.0
 40
1.0
 40
1.0
 10
80.152925581
 20
123.3011376376
 30
0.0
 10
79.8148549618
 20
123.4489304534
 30
0.0
 10
78.4680869647
 20
123.9982124856
 30
0.0
 10
77.0655747511
 20
124.4127478058
 30
0.0
 10
76.0029449236
 20
124.6337963654
 30
0.0
  0
SPLINE
  5
4C9
100
AcDbEntity
  8
BEZUGSACHSEN
100
AcDbSpline
 62
7
  6
CONTINUOUS
 70
0
 71
3
 72
11
 73
7
 74
0
 42
0.0000001
 43
0.0000001
 44
0.0000000001
 40
0.0
 40
0.0
 40
0.0
 40
0.0
 40
0.221185816
 40
0.4572071684
 40
0.716647289
 40
1.0
 40
1.0
 40
1.0
 40
1.0
 10
72.3224779492
 20
115.7352561945
 30
0.0
 10
72.5015742031
 20
116.0454600056
 30
0.0
 10
73.0059836908
 20
116.6166923526
 30
0.0
 10
74.0554477517
 20
117.1597742376
 30
0.0
 10
75.3125802383
 20
117.3822035201
 30
0.0
 10
76.1981205006
 20
117.3164588129
 30
0.0
 10
76.6498333082
 20
117.2357479702
 30
0.0
  0
SPLINE
  5
4CA
100
AcDbEntity
  8
BEZUGSACHSEN
100
AcDbSpline
 62
7
  6
CONTINUOUS
 70
0
 71
3
 72
11
 73
7
 74
0
 42
0.0000001
 43
0.0000001
 44
0.0000000001
 40
0.0
 40
0.0
 40
0.0
 40
0.0
 40
0.283352711
 40
0.5427928316
 40
0.778814184
 40
1.0
 40
1.0
 40
1.0
 40
1.0
 10
80.9845437073
 20
114.7331017544
 30
0.0
 10
81.2802977513
 20
114.3822624092
 30
0.0
 10
81.780004469
 20
113.6482343996
 30
0.0
 10
82.2159413031
 20
112.448311089
 30
0.0
 10
82.2703506248
 20
111.2679076094
 30
0.0
 10
82.0278536447
 20
110.5454600056
 30
0.0
 10
81.8487573909
 20
110.2352561945
 30
0.0
  0
SPLINE
  5
4CB
100
AcDbEntity
  8
KONSTRUKTIONSELEMENTE
100
AcDbSpline
 62
7
  6
CONTINUOUS
 70
0
 71
3
 72
9
 73
5
 74
0
 42
0.0000001
 43
0.0000001
 44
0.0000000001
 40
0.0
 40
0.0
 40
0.0
 40
0.0
 40
0.5108269807
 40
1.0
 40
1.0
 40
1.0
 40
1.0
 10
124.1695664959
 20
64.754282229
 30
0.0
 10
124.4828741134
 20
64.9111531196
 30
0.0
 10
125.0610641016
 20
65.2985484015
 30
0.0
 10
125.5003811362
 20
65.84133391
 30
0.0
 10
125.6681527368
 20
66.1319108907
 30
0.0
  0
SPLINE
  5
4CC
100
AcDbEntity
  8
KONSTRUKTIONSELEMENTE
100
AcDbSpline
 62
7
  6
CONTINUOUS
 70
0
 71
3
 72
9
 73
5
 74
0
 42
0.0000001
 43
0.0000001
 44
0.0000000001
 40
0.0
 40
0.0
 40
0.0
 40
0.0
 40
0.5322168521
 40
1.0
 40
1.0
 40
1.0
 40
1.0
 10
122.4179812883
 20
64.5468589995
 30
0.0
 10
122.528353936
 20
64.4232016641
 30
0.0
 10
122.8038254802
 20
64.2487033183
 30
0.0
 10
123.1469448916
 20
64.2422628814
 30
0.0
 10
123.2772122516
 20
64.3074868199
 30
0.0
  0
SPLINE
  5
4CD
100
AcDbEntity
  8
KONSTRUKTIONSELEMENTE
100
AcDbSpline
 62
7
  6
CONTINUOUS
 70
0
 71
3
 72
9
 73
5
 74
0
 42
0.0000001
 43
0.0000001
 44
0.0000000001
 40
0.0
 40
0.0
 40
0.0
 40
0.0
 40
0.2605100871
 40
1.0
 40
1.0
 40
1.0
 40
1.0
 10
76.4629357409
 20
40.8679122853
 30
0.0
 10
76.4788638515
 20
40.8758873767
 30
0.0
 10
76.5380017695
 20
40.9102662301
 30
0.0
 10
76.5874837887
 20
40.9618460662
 30
0.0
 10
76.6127687062
 20
41.0056348928
 30
0.0
  0
SPLINE
  5
4CE
100
AcDbEntity
  8
KONSTRUKTIONSELEMENTE
100
AcDbSpline
 62
7
  6
CONTINUOUS
 70
0
 71
3
 72
11
 73
7
 74
0
 42
0.0000001
 43
0.0000001
 44
0.0000000001
 40
0.0
 40
0.0
 40
0.0
 40
0.0
 40
0.2729767978
 40
0.5353848362
 40
0.7789285996
 40
1.0
 40
1.0
 40
1.0
 40
1.0
 10
69.6697173498
 20
41.3326462145
 30
0.0
 10
70.1974539875
 20
41.0279573246
 30
0.0
 10
71.2947834435
 20
40.5310411174
 30
0.0
 10
73.0048069059
 20
40.1493994692
 30
0.0
 10
74.6433301734
 20
40.1651716052
 30
0.0
 10
75.6570689624
 20
40.4644205339
 30
0.0
 10
76.0983527997
 20
40.6853682056
 30
0.0
  0
SPLINE
  5
4CF
100
AcDbEntity
  8
KONSTRUKTIONSELEMENTE
100
AcDbSpline
 62
7
  6
CONTINUOUS
 70
0
 71
3
 72
13
 73
9
 74
0
 42
0.0000001
 43
0.0000001
 44
0.0000000001
 40
0.0
 40
0.0
 40
0.0
 40
0.0
 40
0.2870489256
 40
0.5535682914
 40
0.6755020148
 40
0.789331082
 40
0.8965440086
 40
1.0
 40
1.0
 40
1.0
 40
1.0
 10
53.8310247079
 20
50.4771196748
 30
0.0
 10
53.2509201484
 20
50.8120431984
 30
0.0
 10
52.0392834147
 20
51.3101800569
 30
0.0
 10
50.4399514533
 20
51.4689812648
 30
0.0
 10
49.2798071906
 20
51.2573208588
 30
0.0
 10
48.5337359353
 20
50.9486592855
 30
0.0
 10
47.9176593673
 20
50.4947466827
 30
0.0
 10
47.6099255672
 20
50.1018598841
 30
0.0
 10
47.4892149772
 20
49.8927830092
 30
0.0
  0
SPLINE
  5
4D0
100
AcDbEntity
  8
KONSTRUKTIONSELEMENTE
100
AcDbSpline
 62
7
  6
CONTINUOUS
 70
0
 71
3
 72
11
 73
7
 74
0
 42
0.0000001
 43
0.0000001
 44
0.0000000001
 40
0.0
 40
0.0
 40
0.0
 40
0.0
 40
0.220058334
 40
0.4557781708
 40
0.71578719
 40
1.0
 40
1.0
 40
1.0
 40
1.0
 10
127.4359196898
 20
69.1937730692
 30
0.0
 10
127.6546128667
 20
69.5725451784
 30
0.0
 10
127.9456682003
 20
70.4600900703
 30
0.0
 10
127.8535215602
 20
71.9069325376
 30
0.0
 10
127.2835060074
 20
73.3694636536
 30
0.0
 10
126.6447188305
 20
74.2563931952
 30
0.0
 10
126.2685662595
 20
74.6778202934
 30
0.0
  0
SPLINE
  5
4D1
100
AcDbEntity
  8
KONSTRUKTIONSELEMENTE
100
AcDbSpline
 62
7
  6
CONTINUOUS
 70
0
 71
3
 72
11
 73
7
 74
0
 42
0.0000001
 43
0.0000001
 44
0.0000000001
 40
0.0
 40
0.0
 40
0.0
 40
0.0
 40
0.2879904701
 40
0.5553442566
 40
0.7905170666
 40
1.0
 40
1.0
 40
1.0
 40
1.0
 10
40.9280306692
 20
37.2284784299
 30
0.0
 10
41.1455854154
 20
37.1028731387
 30
0.0
 10
41.600586829
 20
36.9160188177
 30
0.0
 10
42.297629861
 20
36.8467989077
 30
0.0
 10
42.9158393399
 20
37.0088113595
 30
0.0
 10
43.2148446114
 20
37.2893563654
 30
0.0
 10
43.3062093182
 20
37.4476046796
 30
0.0
  0
SPLINE
  5
4D2
100
AcDbEntity
  8
KONSTRUKTIONSELEMENTE
100
AcDbSpline
 62
7
  6
CONTINUOUS
 70
0
 71
3
 72
11
 73
7
 74
0
 42
0.0000001
 43
0.0000001
 44
0.0000000001
 40
0.0
 40
0.0
 40
0.0
 40
0.0
 40
0.2820767698
 40
0.5407553301
 40
0.7772666753
 40
1.0
 40
1.0
 40
1.0
 40
1.0
 10
53.8260875706
 20
50.446930172
 30
0.0
 10
53.4203703596
 20
50.5032723418
 30
0.0
 10
52.627982026
 20
50.5329115182
 30
0.0
 10
51.5104292488
 20
50.2982412741
 30
0.0
 10
50.5808262145
 20
49.788405388
 30
0.0
 10
50.1324090193
 20
49.2709293845
 30
0.0
 10
49.9706907309
 20
48.9908250924
 30
0.0
  0
SPLINE
  5
4D3
100
AcDbEntity
  8
KONSTRUKTIONSELEMENTE
100
AcDbSpline
 62
7
  6
CONTINUOUS
 70
0
 71
3
 72
11
 73
7
 74
0
 42
0.0000001
 43
0.0000001
 44
0.0000000001
 40
0.0
 40
0.0
 40
0.0
 40
0.0
 40
0.2801003604
 40
0.53777009
 40
0.775057129
 40
1.0
 40
1.0
 40
1.0
 40
1.0
 10
34.7828150447
 20
61.3728084526
 30
0.0
 10
34.9975038173
 20
61.0632441901
 30
0.0
 10
35.3531226677
 20
60.4257598498
 30
0.0
 10
35.6357932528
 20
59.4105101982
 30
0.0
 10
35.6245504496
 20
58.427466238
 30
0.0
 10
35.4087784781
 20
57.8288532153
 30
0.0
 10
35.2575086326
 20
57.5668461571
 30
0.0
  0
SPLINE
  5
4D4
100
AcDbEntity
  8
KONSTRUKTIONSELEMENTE
100
AcDbSpline
 62
7
  6
CONTINUOUS
 70
0
 71
3
 72
9
 73
5
 74
0
 42
0.0000001
 43
0.0000001
 44
0.0000000001
 40
0.0
 40
0.0
 40
0.0
 40
0.0
 40
0.5107012964
 40
1.0
 40
1.0
 40
1.0
 40
1.0
 10
27.4649939359
 20
112.1186055472
 30
0.0
 10
27.4587523425
 20
112.2235645369
 30
0.0
 10
27.4727292735
 20
112.4319956207
 30
0.0
 10
27.5478986722
 20
112.6276524031
 30
0.0
 10
27.5982916795
 20
112.714880197
 30
0.0
  0
SPLINE
  5
4D5
100
AcDbEntity
  8
KONSTRUKTIONSELEMENTE
100
AcDbSpline
 62
7
  6
CONTINUOUS
 70
0
 71
3
 72
11
 73
7
 74
0
 42
0.0000001
 43
0.0000001
 44
0.0000000001
 40
0.0
 40
0.0
 40
0.0
 40
0.0
 40
0.2226749471
 40
0.4655437771
 40
0.726559919
 40
1.0
 40
1.0
 40
1.0
 40
1.0
 10
29.8723420177
 20
67.3739679742
 30
0.0
 10
29.8981359936
 20
66.9402150054
 30
0.0
 10
30.0954717445
 20
66.0392339831
 30
0.0
 10
30.7394068726
 20
64.7631885092
 30
0.0
 10
31.6978811792
 20
63.5749012916
 30
0.0
 10
32.4982373939
 20
62.8957920897
 30
0.0
 10
32.933677563
 20
62.587409463
 30
0.0
  0
SPLINE
  5
4D6
100
AcDbEntity
  8
KONSTRUKTIONSELEMENTE
100
AcDbSpline
 62
7
  6
CONTINUOUS
 70
0
 71
3
 72
13
 73
9
 74
0
 42
0.0000001
 43
0.0000001
 44
0.0000000001
 40
0.0
 40
0.0
 40
0.0
 40
0.0
 40
0.2198121251
 40
0.3415455497
 40
0.4695397045
 40
0.6018885822
 40
0.736224413
 40
1.0
 40
1.0
 40
1.0
 40
1.0
 10
108.4559717211
 20
72.9565892885
 30
0.0
 10
109.0769577097
 20
73.2675125463
 30
0.0
 10
110.1694696211
 20
73.5085855514
 30
0.0
 10
111.6536768178
 20
73.4464293695
 30
0.0
 10
112.8423735519
 20
73.2062531034
 30
0.0
 10
114.0194112466
 20
72.7815387499
 30
0.0
 10
115.5047440572
 20
71.9984272012
 30
0.0
 10
116.4933406843
 20
71.1846020072
 30
0.0
 10
117.0482813539
 20
70.5628674927
 30
0.0
  0
SPLINE
  5
4D7
100
AcDbEntity
  8
KONSTRUKTIONSELEMENTE
100
AcDbSpline
 62
7
  6
CONTINUOUS
 70
0
 71
3
 72
11
 73
7
 74
0
 42
0.0000001
 43
0.0000001
 44
0.0000000001
 40
0.0
 40
0.0
 40
0.0
 40
0.0
 40
0.220058334
 40
0.4557781708
 40
0.71578719
 40
1.0
 40
1.0
 40
1.0
 40
1.0
 10
125.6681527368
 20
66.1319108907
 30
0.0
 10
125.8868459137
 20
66.5106829999
 30
0.0
 10
126.1779012473
 20
67.3982278918
 30
0.0
 10
126.0857546072
 20
68.8450703591
 30
0.0
 10
125.5157390544
 20
70.3076014751
 30
0.0
 10
124.8769518775
 20
71.1945310167
 30
0.0
 10
124.5007993065
 20
71.6159581149
 30
0.0
  0
SPLINE
  5
4D8
100
AcDbEntity
  8
KONSTRUKTIONSELEMENTE
100
AcDbSpline
 62
7
  6
CONTINUOUS
 70
0
 71
3
 72
9
 73
5
 74
0
 42
0.0000001
 43
0.0000001
 44
0.0000000001
 40
0.0
 40
0.0
 40
0.0
 40
0.0
 40
0.5328609796
 40
1.0
 40
1.0
 40
1.0
 40
1.0
 10
35.3894805614
 20
109.9782136653
 30
0.0
 10
35.6150622131
 20
109.9312881058
 30
0.0
 10
36.0546370326
 20
109.9014688135
 30
0.0
 10
36.4818058876
 20
110.0386451234
 30
0.0
 10
36.6516632052
 20
110.1479583919
 30
0.0
  0
SPLINE
  5
4D9
100
AcDbEntity
  8
KONSTRUKTIONSELEMENTE
100
AcDbSpline
 62
7
  6
CONTINUOUS
 70
0
 71
3
 72
8
 73
4
 74
0
 42
0.0000001
 43
0.0000001
 44
0.0000000001
 40
0.0
 40
0.0
 40
0.0
 40
0.0
 40
1.0
 40
1.0
 40
1.0
 40
1.0
 10
36.6516632052
 20
110.1479583919
 30
0.0
 10
36.714443151
 20
110.1883610144
 30
0.0
 10
36.7736445769
 20
110.2351448401
 30
0.0
 10
36.8267923156
 20
110.2875758553
 30
0.0
  0
SPLINE
  5
4DA
100
AcDbEntity
  8
KONSTRUKTIONSELEMENTE
100
AcDbSpline
 62
7
  6
CONTINUOUS
 70
0
 71
3
 72
11
 73
7
 74
0
 42
0.0000001
 43
0.0000001
 44
0.0000000001
 40
0.0
 40
0.0
 40
0.0
 40
0.0
 40
0.2816064552
 40
0.5417085427
 40
0.7793419382
 40
1.0
 40
1.0
 40
1.0
 40
1.0
 10
35.2709986661
 20
111.9706119639
 30
0.0
 10
35.4229229515
 20
111.9390086307
 30
0.0
 10
35.7222215657
 20
111.9062121246
 30
0.0
 10
36.1529396297
 20
111.9573727434
 30
0.0
 10
36.5244447171
 20
112.1097158811
 30
0.0
 10
36.7189612441
 20
112.2802132333
 30
0.0
 10
36.7939189543
 20
112.375951615
 30
0.0
  0
SPLINE
  5
4DB
100
AcDbEntity
  8
BEZUGSACHSEN
100
AcDbSpline
 62
7
  6
CONTINUOUS
 70
0
 71
3
 72
9
 73
5
 74
0
 42
0.0000001
 43
0.0000001
 44
0.0000000001
 40
0.0
 40
0.0
 40
0.0
 40
0.0
 40
0.2459387646
 40
1.0
 40
1.0
 40
1.0
 40
1.0
 10
85.9471187953
 20
114.810041999
 30
0.0
 10
85.7089373866
 20
115.076891431
 30
0.0
 10
84.7109121705
 20
116.1352682614
 30
0.0
 10
83.6008764229
 20
117.0871136754
 30
0.0
 10
82.7180121537
 20
117.7377013097
 30
0.0
  0
SPLINE
  5
4DC
100
AcDbEntity
  8
BEZUGSACHSEN
100
AcDbSpline
 62
7
  6
CONTINUOUS
 70
0
 71
3
 72
9
 73
5
 74
0
 42
0.0000001
 43
0.0000001
 44
0.0000000001
 40
0.0
 40
0.0
 40
0.0
 40
0.0
 40
0.2536983179
 40
1.0
 40
1.0
 40
1.0
 40
1.0
 10
78.3851586281
 20
120.2392754591
 30
0.0
 10
78.0470880088
 20
120.3870682749
 30
0.0
 10
76.7003200118
 20
120.9363503071
 30
0.0
 10
75.2978077981
 20
121.3508856273
 30
0.0
 10
74.2351779706
 20
121.5719341869
 30
0.0
  0
SPLINE
  5
4DD
100
AcDbEntity
  8
KONSTRUKTIONSELEMENTE
100
AcDbSpline
 62
7
  6
CONTINUOUS
 70
0
 71
3
 72
10
 73
6
 74
0
 42
0.0000001
 43
0.0000001
 44
0.0000000001
 40
0.0
 40
0.0
 40
0.0
 40
0.0
 40
0.2210513433
 40
0.4578290806
 40
1.0
 40
1.0
 40
1.0
 40
1.0
 10
76.6127687062
 20
41.0056348928
 30
0.0
 10
76.6346414753
 20
41.043514506
 30
0.0
 10
76.6637517148
 20
41.1323196668
 30
0.0
 10
76.6510502043
 20
41.3332188408
 30
0.0
 10
76.5674986296
 20
41.4740416425
 30
0.0
 10
76.496059022
 20
41.5540798739
 30
0.0
  0
SPLINE
  5
4DE
100
AcDbEntity
  8
BEZUGSACHSEN
100
AcDbSpline
 62
7
  6
CONTINUOUS
 70
0
 71
3
 72
19
 73
15
 74
0
 42
0.0000001
 43
0.0000001
 44
0.0000000001
 40
0.0
 40
0.0
 40
0.0
 40
0.0
 40
0.0517234907
 40
0.1053372095
 40
0.1622487312
 40
0.2232163938
 40
0.3564752704
 40
0.5
 40
0.6435247296
 40
0.7767836062
 40
0.8377512688
 40
0.8946627905
 40
0.9482765093
 40
1.0
 40
1.0
 40
1.0
 40
1.0
 10
81.8487573909
 20
110.2352561945
 30
0.0
 10
81.7210942988
 20
110.0141372328
 30
0.0
 10
81.3955665456
 20
109.5986077875
 30
0.0
 10
80.7440027137
 20
109.118437724
 30
0.0
 10
79.9548096681
 20
108.7920594569
 30
0.0
 10
78.7278731311
 20
108.5680767761
 30
0.0
 10
77.0353898229
 20
108.7365706793
 30
0.0
 10
75.0932372729
 20
109.5343521187
 30
0.0
 10
73.4312620047
 20
110.8174148453
 30
0.0
 10
72.4391003501
 20
112.198901434
 30
0.0
 10
72.0196067732
 20
113.3734509843
 30
0.0
 10
71.9076621209
 20
114.2201013439
 30
0.0
 10
71.9977196781
 20
115.0244572063
 30
0.0
 10
72.1948148572
 20
115.5141372328
 30
0.0
 10
72.3224779492
 20
115.7352561945
 30
0.0
  0
SPLINE
  5
4DF
100
AcDbEntity
  8
KONSTRUKTIONSELEMENTE
100
AcDbSpline
 62
7
  6
CONTINUOUS
 70
0
 71
3
 72
11
 73
7
 74
0
 42
0.0000001
 43
0.0000001
 44
0.0000000001
 40
0.0
 40
0.0
 40
0.0
 40
0.0
 40
0.2200436456
 40
0.4557793627
 40
0.7157728079
 40
1.0
 40
1.0
 40
1.0
 40
1.0
 10
27.5982916795
 20
112.714880197
 30
0.0
 10
27.6639122255
 20
112.8284661047
 30
0.0
 10
27.8508895143
 20
113.0371024129
 30
0.0
 10
28.240547261
 20
113.2300897861
 30
0.0
 10
28.7059487505
 20
113.3013542758
 30
0.0
 10
29.0321344831
 20
113.2684222696
 30
0.0
 10
29.1980247033
 20
113.2339137387
 30
0.0
  0
SPLINE
  5
4E0
100
AcDbEntity
  8
KONSTRUKTIONSELEMENTE
100
AcDbSpline
 62
7
  6
CONTINUOUS
 70
0
 71
3
 72
11
 73
7
 74
0
 42
0.0000001
 43
0.0000001
 44
0.0000000001
 40
0.0
 40
0.0
 40
0.0
 40
0.0
 40
0.2842240174
 40
0.5442187073
 40
0.779940343
 40
1.0
 40
1.0
 40
1.0
 40
1.0
 10
32.1263012889
 20
130.3314347173
 30
0.0
 10
31.5732311761
 20
130.4464845199
 30
0.0
 10
30.4857257257
 20
130.5562185994
 30
0.0
 10
28.93412572
 20
130.3185830596
 30
0.0
 10
27.6350464272
 20
129.6749517616
 30
0.0
 10
27.0119927514
 20
128.9790657251
 30
0.0
 10
26.7932807377
 20
128.6002964825
 30
0.0
  0
SPLINE
  5
4E1
100
AcDbEntity
  8
KONSTRUKTIONSELEMENTE
100
AcDbSpline
 62
7
  6
CONTINUOUS
 70
0
 71
3
 72
11
 73
7
 74
0
 42
0.0000001
 43
0.0000001
 44
0.0000000001
 40
0.0
 40
0.0
 40
0.0
 40
0.0
 40
0.2842271921
 40
0.5442206373
 40
0.7799563544
 40
1.0
 40
1.0
 40
1.0
 40
1.0
 10
35.1596708575
 20
109.5801715821
 30
0.0
 10
35.3255610777
 20
109.5456630512
 30
0.0
 10
35.6517468102
 20
109.512731045
 30
0.0
 10
36.1171482997
 20
109.5839955347
 30
0.0
 10
36.5068060464
 20
109.7769829079
 30
0.0
 10
36.6937833353
 20
109.9856192161
 30
0.0
 10
36.7594038813
 20
110.0992051238
 30
0.0
  0
SPLINE
  5
4E2
100
AcDbEntity
  8
KONSTRUKTIONSELEMENTE
100
AcDbSpline
 62
7
  6
CONTINUOUS
 70
0
 71
3
 72
11
 73
7
 74
0
 42
0.0000001
 43
0.0000001
 44
0.0000000001
 40
0.0
 40
0.0
 40
0.0
 40
0.0
 40
0.2842268035
 40
0.5442239761
 40
0.7799400332
 40
1.0
 40
1.0
 40
1.0
 40
1.0
 10
71.1263590876
 20
47.5700883671
 30
0.0
 10
70.7501938474
 20
47.9915296594
 30
0.0
 10
70.1114163389
 20
48.8784541037
 30
0.0
 10
69.5414232457
 20
50.3409559119
 30
0.0
 10
69.4492569262
 20
51.787758863
 30
0.0
 10
69.7403377075
 20
52.6752591262
 30
0.0
 10
69.9589813808
 20
53.0540557053
 30
0.0
  0
SPLINE
  5
4E3
100
AcDbEntity
  8
KONSTRUKTIONSELEMENTE
100
AcDbSpline
 62
7
  6
CONTINUOUS
 70
0
 71
3
 72
9
 73
5
 74
0
 42
0.0000001
 43
0.0000001
 44
0.0000000001
 40
0.0
 40
0.0
 40
0.0
 40
0.0
 40
0.4954651683
 40
1.0
 40
1.0
 40
1.0
 40
1.0
 10
68.6502051497
 20
134.4457550545
 30
0.0
 10
68.8912335984
 20
134.9283106708
 30
0.0
 10
69.2369600303
 20
135.9760653972
 30
0.0
 10
69.3366473519
 20
137.0664987425
 30
0.0
 10
69.3472676434
 20
137.6156721149
 30
0.0
  0
SPLINE
  5
4E4
100
AcDbEntity
  8
KONSTRUKTIONSELEMENTE
100
AcDbSpline
 62
7
  6
CONTINUOUS
 70
0
 71
3
 72
9
 73
5
 74
0
 42
0.0000001
 43
0.0000001
 44
0.0000000001
 40
0.0
 40
0.0
 40
0.0
 40
0.0
 40
0.5045348317
 40
1.0
 40
1.0
 40
1.0
 40
1.0
 10
102.2853585762
 20
118.5988564483
 30
0.0
 10
101.8150706304
 20
118.3150723198
 30
0.0
 10
100.9205713131
 20
117.6835238942
 30
0.0
 10
100.1860523189
 20
116.8602386582
 30
0.0
 10
99.8886611209
 20
116.4102240905
 30
0.0
  0
LINE
  5
4E5
100
AcDbEntity
  8
0
100
AcDbLine
 62
7
  6
CONTINUOUS
 10
64.7595598478
 20
126.6273015011
 11
68.6502051497
 21
134.4457550545
  0
SPLINE
  5
4E6
100
AcDbEntity
  8
KONSTRUKTIONSELEMENTE
100
AcDbSpline
 62
7
  6
CONTINUOUS
 70
0
 71
3
 72
11
 73
7
 74
0
 42
0.0000001
 43
0.0000001
 44
0.0000000001
 40
0.0
 40
0.0
 40
0.0
 40
0.0
 40
0.2552525678
 40
0.5065021805
 40
0.7540277206
 40
1.0
 40
1.0
 40
1.0
 40
1.0
 10
76.4900121929
 20
149.092290965
 30
0.0
 10
76.7555613885
 20
149.5522356637
 30
0.0
 10
77.4531139341
 20
150.3757264729
 30
0.0
 10
78.8137840344
 20
151.1975733133
 30
0.0
 10
80.3091151576
 20
151.6474799101
 30
0.0
 10
81.3352766098
 20
151.7552249331
 30
0.0
 10
81.8467542532
 20
151.7730771863
 30
0.0
  0
SPLINE
  5
4E7
100
AcDbEntity
  8
KONSTRUKTIONSELEMENTE
100
AcDbSpline
 62
7
  6
CONTINUOUS
 70
0
 71
3
 72
11
 73
7
 74
0
 42
0.0000001
 43
0.0000001
 44
0.0000000001
 40
0.0
 40
0.0
 40
0.0
 40
0.0
 40
0.2459741347
 40
0.4935016246
 40
0.7447505661
 40
1.0
 40
1.0
 40
1.0
 40
1.0
 10
108.2962877148
 20
136.5024319223
 30
0.0
 10
108.5365678449
 20
136.0505497533
 30
0.0
 10
108.9563415464
 20
135.1079878597
 30
0.0
 10
109.3143743736
 20
133.5880321714
 30
0.0
 10
109.282962212
 20
131.9987379294
 30
0.0
 10
108.9185757113
 20
130.982903159
 30
0.0
 10
108.6530297752
 20
130.5229641059
 30
0.0
  0
LINE
  5
4E8
100
AcDbEntity
  8
0
100
AcDbLine
 62
7
  6
CONTINUOUS
 10
99.8886611209
 20
116.4102240905
 11
95.0630043762
 21
109.1315996452
  0
SPLINE
  5
4E9
100
AcDbEntity
  8
KONSTRUKTIONSELEMENTE
100
AcDbSpline
 62
7
  6
CONTINUOUS
 70
0
 71
3
 72
10
 73
6
 74
0
 42
0.0000001
 43
0.0000001
 44
0.0000000001
 40
0.0
 40
0.0
 40
0.0
 40
0.0
 40
0.2367614757
 40
0.4842046481
 40
1.0
 40
1.0
 40
1.0
 40
1.0
 10
69.3472676434
 20
137.6156721149
 30
0.0
 10
69.3513154697
 20
137.8249844879
 30
0.0
 10
69.4069548932
 20
138.2538434866
 30
0.0
 10
69.7166036359
 20
139.0885616365
 30
0.0
 10
70.1641488766
 20
139.6271336611
 30
0.0
 10
70.5138974738
 20
139.9198558463
 30
0.0
  0
SPLINE
  5
4EA
100
AcDbEntity
  8
KONSTRUKTIONSELEMENTE
100
AcDbSpline
 62
7
  6
CONTINUOUS
 70
0
 71
3
 72
10
 73
6
 74
0
 42
0.0000001
 43
0.0000001
 44
0.0000000001
 40
0.0
 40
0.0
 40
0.0
 40
0.0
 40
0.5157953519
 40
0.7632385243
 40
1.0
 40
1.0
 40
1.0
 40
1.0
 10
103.6975253074
 20
120.7612793839
 30
0.0
 10
103.6188947573
 20
120.3120271211
 30
0.0
 10
103.3762503226
 20
119.6551555611
 30
0.0
 10
102.8081875711
 20
118.9696328087
 30
0.0
 10
102.4646044954
 20
118.7070181552
 30
0.0
 10
102.2853585762
 20
118.5988564483
 30
0.0
  0
SPLINE
  5
4EB
100
AcDbEntity
  8
KONSTRUKTIONSELEMENTE
100
AcDbSpline
 62
7
  6
CONTINUOUS
 70
0
 71
3
 72
9
 73
5
 74
0
 42
0.0000001
 43
0.0000001
 44
0.0000000001
 40
0.0
 40
0.0
 40
0.0
 40
0.0
 40
0.5000928141
 40
1.0
 40
1.0
 40
1.0
 40
1.0
 10
70.5138974738
 20
139.9198558463
 30
0.0
 10
70.9240907293
 20
140.263167205
 30
0.0
 10
71.6983311248
 20
141.0082749226
 30
0.0
 10
72.3275934407
 20
141.8827702039
 30
0.0
 10
72.594945655
 20
142.3458378226
 30
0.0
  0
SPLINE
  5
4EC
100
AcDbEntity
  8
KONSTRUKTIONSELEMENTE
100
AcDbSpline
 62
7
  6
CONTINUOUS
 70
0
 71
3
 72
9
 73
5
 74
0
 42
0.0000001
 43
0.0000001
 44
0.0000000001
 40
0.0
 40
0.0
 40
0.0
 40
0.0
 40
0.4999071859
 40
1.0
 40
1.0
 40
1.0
 40
1.0
 10
104.7579632373
 20
123.7765109635
 30
0.0
 10
104.490611023
 20
123.3134433448
 30
0.0
 10
104.0479070519
 20
122.3312385529
 30
0.0
 10
103.7897450377
 20
121.2881728429
 30
0.0
 10
103.6975253074
 20
120.7612793839
 30
0.0
  0
LINE
  5
4ED
100
AcDbEntity
  8
0
100
AcDbLine
 62
7
  6
CONTINUOUS
 10
333.6595295161
 20
109.1315996452
 11
328.8338727715
 21
116.4102240905
  0
LINE
  5
4EE
100
AcDbEntity
  8
0
100
AcDbLine
 62
7
  6
CONTINUOUS
 10
360.0723287426
 20
134.4457550545
 11
363.9629740445
 21
126.6273015011
  0
SPLINE
  5
4EF
100
AcDbEntity
  8
0
100
AcDbSpline
 62
7
  6
CONTINUOUS
 70
0
 71
3
 72
10
 73
6
 74
0
 42
0.0000001
 43
0.0000001
 44
0.0000000001
 40
0.0
 40
0.0
 40
0.0
 40
0.0
 40
0.5157953519
 40
0.7632385243
 40
1.0
 40
1.0
 40
1.0
 40
1.0
 10
325.0250085849
 20
120.7612793839
 30
0.0
 10
325.103639135
 20
120.3120271211
 30
0.0
 10
325.3462835697
 20
119.6551555611
 30
0.0
 10
325.9143463212
 20
118.9696328087
 30
0.0
 10
326.2579293969
 20
118.7070181552
 30
0.0
 10
326.4371753161
 20
118.5988564483
 30
0.0
  0
SPLINE
  5
4F0
100
AcDbEntity
  8
0
100
AcDbSpline
 62
7
  6
CONTINUOUS
 70
0
 71
3
 72
10
 73
6
 74
0
 42
0.0000001
 43
0.0000001
 44
0.0000000001
 40
0.0
 40
0.0
 40
0.0
 40
0.0
 40
0.2367614757
 40
0.4842046481
 40
1.0
 40
1.0
 40
1.0
 40
1.0
 10
359.375266249
 20
137.6156721149
 30
0.0
 10
359.3712184227
 20
137.8249844879
 30
0.0
 10
359.3155789991
 20
138.2538434866
 30
0.0
 10
359.0059302564
 20
139.0885616365
 30
0.0
 10
358.5583850158
 20
139.6271336611
 30
0.0
 10
358.2086364185
 20
139.9198558463
 30
0.0
  0
SPLINE
  5
4F1
100
AcDbEntity
  8
0
100
AcDbSpline
 62
7
  6
CONTINUOUS
 70
0
 71
3
 72
11
 73
7
 74
0
 42
0.0000001
 43
0.0000001
 44
0.0000000001
 40
0.0
 40
0.0
 40
0.0
 40
0.0
 40
0.2459741347
 40
0.4935016246
 40
0.7447505661
 40
1.0
 40
1.0
 40
1.0
 40
1.0
 10
320.4262461775
 20
136.5024319223
 30
0.0
 10
320.1859660475
 20
136.0505497533
 30
0.0
 10
319.7661923459
 20
135.1079878597
 30
0.0
 10
319.4081595188
 20
133.5880321714
 30
0.0
 10
319.4395716804
 20
131.9987379294
 30
0.0
 10
319.803958181
 20
130.982903159
 30
0.0
 10
320.0695041172
 20
130.5229641059
 30
0.0
  0
SPLINE
  5
4F2
100
AcDbEntity
  8
0
100
AcDbSpline
 62
7
  6
CONTINUOUS
 70
0
 71
3
 72
11
 73
7
 74
0
 42
0.0000001
 43
0.0000001
 44
0.0000000001
 40
0.0
 40
0.0
 40
0.0
 40
0.0
 40
0.2552525678
 40
0.5065021805
 40
0.7540277206
 40
1.0
 40
1.0
 40
1.0
 40
1.0
 10
352.2325216995
 20
149.092290965
 30
0.0
 10
351.9669725038
 20
149.5522356637
 30
0.0
 10
351.2694199582
 20
150.3757264729
 30
0.0
 10
349.908749858
 20
151.1975733133
 30
0.0
 10
348.4134187348
 20
151.6474799101
 30
0.0
 10
347.3872572826
 20
151.7552249331
 30
0.0
 10
346.8757796391
 20
151.7730771863
 30
0.0
  0
SPLINE
  5
4F3
100
AcDbEntity
  8
0
100
AcDbSpline
 62
7
  6
CONTINUOUS
 70
0
 71
3
 72
9
 73
5
 74
0
 42
0.0000001
 43
0.0000001
 44
0.0000000001
 40
0.0
 40
0.0
 40
0.0
 40
0.0
 40
0.4954651683
 40
1.0
 40
1.0
 40
1.0
 40
1.0
 10
360.0723287426
 20
134.4457550545
 30
0.0
 10
359.831300294
 20
134.9283106708
 30
0.0
 10
359.4855738621
 20
135.9760653972
 30
0.0
 10
359.3858865405
 20
137.0664987425
 30
0.0
 10
359.375266249
 20
137.6156721149
 30
0.0
  0
SPLINE
  5
4F4
100
AcDbEntity
  8
0
100
AcDbSpline
 62
7
  6
CONTINUOUS
 70
0
 71
3
 72
9
 73
5
 74
0
 42
0.0000001
 43
0.0000001
 44
0.0000000001
 40
0.0
 40
0.0
 40
0.0
 40
0.0
 40
0.5045348317
 40
1.0
 40
1.0
 40
1.0
 40
1.0
 10
326.4371753161
 20
118.5988564483
 30
0.0
 10
326.9074632619
 20
118.3150723198
 30
0.0
 10
327.8019625793
 20
117.6835238942
 30
0.0
 10
328.5364815734
 20
116.8602386582
 30
0.0
 10
328.8338727715
 20
116.4102240905
 30
0.0
  0
SPLINE
  5
4F5
100
AcDbEntity
  8
0
100
AcDbSpline
 62
7
  6
CONTINUOUS
 70
0
 71
3
 72
9
 73
5
 74
0
 42
0.0000001
 43
0.0000001
 44
0.0000000001
 40
0.0
 40
0.0
 40
0.0
 40
0.0
 40
0.5000928141
 40
1.0
 40
1.0
 40
1.0
 40
1.0
 10
358.2086364185
 20
139.9198558463
 30
0.0
 10
357.7984431631
 20
140.263167205
 30
0.0
 10
357.0242027675
 20
141.0082749226
 30
0.0
 10
356.3949404516
 20
141.8827702039
 30
0.0
 10
356.1275882373
 20
142.3458378226
 30
0.0
  0
SPLINE
  5
4F6
100
AcDbEntity
  8
0
100
AcDbSpline
 62
7
  6
CONTINUOUS
 70
0
 71
3
 72
9
 73
5
 74
0
 42
0.0000001
 43
0.0000001
 44
0.0000000001
 40
0.0
 40
0.0
 40
0.0
 40
0.0
 40
0.4999071859
 40
1.0
 40
1.0
 40
1.0
 40
1.0
 10
323.964570655
 20
123.7765109635
 30
0.0
 10
324.2319228693
 20
123.3134433448
 30
0.0
 10
324.6746268404
 20
122.3312385529
 30
0.0
 10
324.9327888546
 20
121.2881728429
 30
0.0
 10
325.0250085849
 20
120.7612793839
 30
0.0
  0
SPLINE
  5
4F7
100
AcDbEntity
  8
KONSTRUKTIONSELEMENTE
100
AcDbSpline
 62
7
  6
CONTINUOUS
 70
0
 71
3
 72
9
 73
5
 74
0
 42
0.0000001
 43
0.0000001
 44
0.0000000001
 40
0.0
 40
0.0
 40
0.0
 40
0.0
 40
0.272606519
 40
1.0
 40
1.0
 40
1.0
 40
1.0
 10
532.0160314064
 20
176.5130428507
 30
0.0
 10
532.0208212387
 20
176.5348197392
 30
0.0
 10
532.0428878447
 20
176.613456178
 30
0.0
 10
532.0887916027
 20
176.6867916272
 30
0.0
 10
532.1338089045
 20
176.7256917534
 30
0.0
  0
SPLINE
  5
4F8
100
AcDbEntity
  8
KONSTRUKTIONSELEMENTE
100
AcDbSpline
 62
7
  6
CONTINUOUS
 70
0
 71
3
 72
9
 73
5
 74
0
 42
0.0000001
 43
0.0000001
 44
0.0000000001
 40
0.0
 40
0.0
 40
0.0
 40
0.0
 40
0.546991612
 40
1.0
 40
1.0
 40
1.0
 40
1.0
 10
535.183188816
 20
172.9977548927
 30
0.0
 10
535.183188816
 20
172.9261694542
 30
0.0
 10
535.1682835971
 20
172.7932807578
 30
0.0
 10
535.0954464036
 20
172.6766290649
 30
0.0
 10
535.0505882123
 20
172.6378664283
 30
0.0
  0
SPLINE
  5
4F9
100
AcDbEntity
  8
KONSTRUKTIONSELEMENTE
100
AcDbSpline
 62
7
  6
CONTINUOUS
 70
0
 71
3
 72
9
 73
5
 74
0
 42
0.0000001
 43
0.0000001
 44
0.0000000001
 40
0.0
 40
0.0
 40
0.0
 40
0.0
 40
0.4714729988
 40
1.0
 40
1.0
 40
1.0
 40
1.0
 10
535.4041416029
 20
172.9440526462
 30
0.0
 10
535.372770385
 20
172.9169443059
 30
0.0
 10
535.2935236245
 20
172.8732893371
 30
0.0
 10
535.2050600108
 20
172.8603416982
 30
0.0
 10
535.1586069973
 20
172.8588087397
 30
0.0
  0
SPLINE
  5
4FA
100
AcDbEntity
  8
KONSTRUKTIONSELEMENTE
100
AcDbSpline
 62
7
  6
CONTINUOUS
 70
0
 71
3
 72
9
 73
5
 74
0
 42
0.0000001
 43
0.0000001
 44
0.0000000001
 40
0.0
 40
0.0
 40
0.0
 40
0.0
 40
0.4820003923
 40
1.0
 40
1.0
 40
1.0
 40
1.0
 10
543.9138211386
 20
173.7663155638
 30
0.0
 10
543.9136349723
 20
173.610249835
 30
0.0
 10
543.8715477586
 20
173.2852841469
 30
0.0
 10
543.7487838485
 20
172.9815460357
 30
0.0
 10
543.6682967799
 20
172.8343982086
 30
0.0
  0
SPLINE
  5
4FB
100
AcDbEntity
  8
KONSTRUKTIONSELEMENTE
100
AcDbSpline
 62
7
  6
CONTINUOUS
 70
0
 71
3
 72
9
 73
5
 74
0
 42
0.0000001
 43
0.0000001
 44
0.0000000001
 40
0.0
 40
0.0
 40
0.0
 40
0.0
 40
0.2343643836
 40
1.0
 40
1.0
 40
1.0
 40
1.0
 10
543.6362465588
 20
172.7777885764
 30
0.0
 10
543.6028386232
 20
172.7207273894
 30
0.0
 10
543.4497008228
 20
172.4835398513
 30
0.0
 10
543.255784462
 20
172.2733130929
 30
0.0
 10
543.0924961853
 20
172.1319012971
 30
0.0
  0
SPLINE
  5
4FC
100
AcDbEntity
  8
KONSTRUKTIONSELEMENTE
100
AcDbSpline
 62
7
  6
CONTINUOUS
 70
0
 71
3
 72
9
 73
5
 74
0
 42
0.0000001
 43
0.0000001
 44
0.0000000001
 40
0.0
 40
0.0
 40
0.0
 40
0.0
 40
0.4959270657
 40
1.0
 40
1.0
 40
1.0
 40
1.0
 10
534.9607682016
 20
179.1741843076
 30
0.0
 10
535.5828886357
 20
179.7129564078
 30
0.0
 10
537.014123097
 20
180.6074956984
 30
0.0
 10
538.6378414055
 20
181.0544520657
 30
0.0
 10
539.4671335318
 20
181.1640734678
 30
0.0
  0
SPLINE
  5
4FD
100
AcDbEntity
  8
KONSTRUKTIONSELEMENTE
100
AcDbSpline
 62
7
  6
CONTINUOUS
 70
0
 71
3
 72
11
 73
7
 74
0
 42
0.0000001
 43
0.0000001
 44
0.0000000001
 40
0.0
 40
0.0
 40
0.0
 40
0.0
 40
0.2544415708
 40
0.5052707429
 40
0.7533584052
 40
1.0
 40
1.0
 40
1.0
 40
1.0
 10
545.4909342758
 20
179.8330942232
 30
0.0
 10
546.0054012575
 20
179.4971689158
 30
0.0
 10
546.9564756942
 20
178.7126494303
 30
0.0
 10
548.0575352977
 20
177.2423035557
 30
0.0
 10
548.7538373822
 20
175.5613968573
 30
0.0
 10
548.9129832538
 20
174.3609952592
 30
0.0
 10
548.9132546413
 20
173.7654025271
 30
0.0
  0
SPLINE
  5
4FE
100
AcDbEntity
  8
KONSTRUKTIONSELEMENTE
100
AcDbSpline
 62
7
  6
CONTINUOUS
 70
0
 71
3
 72
11
 73
7
 74
0
 42
0.0000001
 43
0.0000001
 44
0.0000000001
 40
0.0
 40
0.0
 40
0.0
 40
0.0
 40
0.2474803687
 40
0.4959793074
 40
0.7466457809
 40
1.0
 40
1.0
 40
1.0
 40
1.0
 10
548.9132546413
 20
173.7654025271
 30
0.0
 10
548.9134861705
 20
173.2572835476
 30
0.0
 10
548.7983942995
 20
172.2353514913
 30
0.0
 10
548.2912396863
 20
170.7760675662
 30
0.0
 10
547.4765482356
 20
169.4499435849
 30
0.0
 10
546.7589829324
 20
168.6927936851
 30
0.0
 10
546.3657645388
 20
168.3522565671
 30
0.0
  0
SPLINE
  5
4FF
100
AcDbEntity
  8
KONSTRUKTIONSELEMENTE
100
AcDbSpline
 62
7
  6
CONTINUOUS
 70
0
 71
3
 72
9
 73
5
 74
0
 42
0.0000001
 43
0.0000001
 44
0.0000000001
 40
0.0
 40
0.0
 40
0.0
 40
0.0
 40
0.5226045408
 40
1.0
 40
1.0
 40
1.0
 40
1.0
 10
543.61788022
 20
174.7793293807
 30
0.0
 10
543.7137414934
 20
174.6204351426
 30
0.0
 10
543.8615133605
 20
174.292441428
 30
0.0
 10
543.9140233518
 20
173.9358336164
 30
0.0
 10
543.9138211386
 20
173.7663155638
 30
0.0
  0
SPLINE
  5
500
100
AcDbEntity
  8
KONSTRUKTIONSELEMENTE
100
AcDbSpline
 62
7
  6
CONTINUOUS
 70
0
 71
3
 72
9
 73
5
 74
0
 42
0.0000001
 43
0.0000001
 44
0.0000000001
 40
0.0
 40
0.0
 40
0.0
 40
0.0
 40
0.4872963705
 40
1.0
 40
1.0
 40
1.0
 40
1.0
 10
537.0820885452
 20
166.9267355937
 30
0.0
 10
536.5342703443
 20
166.4523111151
 30
0.0
 10
535.0502174757
 20
165.8843564939
 30
0.0
 10
533.4967233663
 20
166.1626813692
 30
0.0
 10
532.8228092076
 20
166.5193550304
 30
0.0
  0
SPLINE
  5
501
100
AcDbEntity
  8
KONSTRUKTIONSELEMENTE
100
AcDbSpline
 62
7
  6
CONTINUOUS
 70
0
 71
3
 72
11
 73
7
 74
0
 42
0.0000001
 43
0.0000001
 44
0.0000000001
 40
0.0
 40
0.0
 40
0.0
 40
0.0
 40
0.2474803687
 40
0.4959793074
 40
0.7466457809
 40
1.0
 40
1.0
 40
1.0
 40
1.0
 10
526.4028704591
 20
168.5558726442
 30
0.0
 10
526.4026389298
 20
169.0639916237
 30
0.0
 10
526.5177308009
 20
170.08592368
 30
0.0
 10
527.024885414
 20
171.5452076051
 30
0.0
 10
527.8395768648
 20
172.8713315864
 30
0.0
 10
528.5571421679
 20
173.6284814861
 30
0.0
 10
528.9503605615
 20
173.9690186042
 30
0.0
  0
SPLINE
  5
502
100
AcDbEntity
  8
KONSTRUKTIONSELEMENTE
100
AcDbSpline
 62
7
  6
CONTINUOUS
 70
0
 71
3
 72
15
 73
11
 74
0
 42
0.0000001
 43
0.0000001
 44
0.0000000001
 40
0.0
 40
0.0
 40
0.0
 40
0.0
 40
0.12323614
 40
0.2480335987
 40
0.373900227
 40
0.5003927364
 40
0.6268181839
 40
0.7525256837
 40
0.877011671
 40
1.0
 40
1.0
 40
1.0
 40
1.0
 10
540.3553568987
 20
163.1470908636
 30
0.0
 10
539.9623587952
 20
162.8067445223
 30
0.0
 10
539.1016410611
 20
162.1985000183
 30
0.0
 10
537.6591770535
 20
161.5397989675
 30
0.0
 10
536.1083544359
 20
161.1476558467
 30
0.0
 10
534.5063578188
 20
161.0326838515
 30
0.0
 10
532.9094537745
 20
161.19857389
 30
0.0
 10
531.3744011174
 20
161.6405170728
 30
0.0
 10
529.9571957475
 20
162.3453803683
 30
0.0
 10
529.1201955742
 20
162.9821878119
 30
0.0
 10
528.740357609
 20
163.3356285423
 30
0.0
  0
SPLINE
  5
503
100
AcDbEntity
  8
KONSTRUKTIONSELEMENTE
100
AcDbSpline
 62
7
  6
CONTINUOUS
 70
0
 71
3
 72
9
 73
5
 74
0
 42
0.0000001
 43
0.0000001
 44
0.0000000001
 40
0.0
 40
0.0
 40
0.0
 40
0.0
 40
0.4702695548
 40
1.0
 40
1.0
 40
1.0
 40
1.0
 10
531.7802555139
 20
176.4195055356
 30
0.0
 10
531.8124328766
 20
176.4473104778
 30
0.0
 10
531.8942870457
 20
176.4917888661
 30
0.0
 10
531.9854517387
 20
176.5039726671
 30
0.0
 10
532.0333452218
 20
176.5049510658
 30
0.0
  0
SPLINE
  5
504
100
AcDbEntity
  8
KONSTRUKTIONSELEMENTE
100
AcDbSpline
 62
7
  6
CONTINUOUS
 70
0
 71
3
 72
15
 73
11
 74
0
 42
0.0000001
 43
0.0000001
 44
0.0000000001
 40
0.0
 40
0.0
 40
0.0
 40
0.0
 40
0.082699247
 40
0.1957940838
 40
0.333737466
 40
0.4862052534
 40
0.6408263759
 40
0.7848058501
 40
0.9071588123
 40
1.0
 40
1.0
 40
1.0
 40
1.0
 10
532.0333452218
 20
176.5049510658
 30
0.0
 10
532.1696693326
 20
176.5077359819
 30
0.0
 10
532.4899436729
 20
176.416638185
 30
0.0
 10
532.9684279418
 20
176.1441314312
 30
0.0
 10
533.4924004506
 20
175.7296647474
 30
0.0
 10
534.0114178937
 20
175.2092535958
 30
0.0
 10
534.4791298591
 20
174.6293605447
 30
0.0
 10
534.8534923997
 20
174.0421949484
 30
0.0
 10
535.100266064
 20
173.5030254668
 30
0.0
 10
535.183188816
 20
173.1508292376
 30
0.0
 10
535.183188816
 20
172.9977548927
 30
0.0
  0
SPLINE
  5
505
100
AcDbEntity
  8
KONSTRUKTIONSELEMENTE
100
AcDbSpline
 62
7
  6
CONTINUOUS
 70
0
 71
3
 72
19
 73
15
 74
0
 42
0.0000001
 43
0.0000001
 44
0.0000000001
 40
0.0
 40
0.0
 40
0.0
 40
0.0
 40
0.0298938292
 40
0.0650835855
 40
0.108466288
 40
0.1609985436
 40
0.2222349321
 40
0.2911550146
 40
0.4456854225
 40
0.6095823449
 40
0.7660354067
 40
0.8997960834
 40
0.9545408033
 40
1.0
 40
1.0
 40
1.0
 40
1.0
 10
532.1338089045
 20
176.7256917534
 30
0.0
 10
532.1731685558
 20
176.759703019
 30
0.0
 10
532.2798050924
 20
176.8105744907
 30
0.0
 10
532.4716389566
 20
176.816271761
 30
0.0
 10
532.695571054
 20
176.7653190325
 30
0.0
 10
532.9485648953
 20
176.6590383517
 30
0.0
 10
533.2253069535
 20
176.5014509754
 30
0.0
 10
533.630948102
 20
176.2160800319
 30
0.0
 10
534.1346693123
 20
175.7647555695
 30
0.0
 10
534.681215502
 20
175.1424363655
 30
0.0
 10
535.1294621063
 20
174.4897903207
 30
0.0
 10
535.3989107455
 20
173.9487812673
 30
0.0
 10
535.5137507619
 20
173.5573015931
 30
0.0
 10
535.5367422066
 20
173.3830453864
 30
0.0
 10
535.5367422066
 20
173.3039411106
 30
0.0
  0
SPLINE
  5
506
100
AcDbEntity
  8
KONSTRUKTIONSELEMENTE
100
AcDbSpline
 62
7
  6
CONTINUOUS
 70
0
 71
3
 72
9
 73
5
 74
0
 42
0.0000001
 43
0.0000001
 44
0.0000000001
 40
0.0
 40
0.0
 40
0.0
 40
0.0
 40
0.546991612
 40
1.0
 40
1.0
 40
1.0
 40
1.0
 10
535.5367422066
 20
173.3039411106
 30
0.0
 10
535.5367422066
 20
173.232355672
 30
0.0
 10
535.5218369877
 20
173.0994669757
 30
0.0
 10
535.4489997942
 20
172.9828152828
 30
0.0
 10
535.4041416029
 20
172.9440526462
 30
0.0
  0
SPLINE
  5
507
100
AcDbEntity
  8
KONSTRUKTIONSELEMENTE
100
AcDbSpline
 62
7
  6
CONTINUOUS
 70
0
 71
3
 72
9
 73
5
 74
0
 42
0.0000001
 43
0.0000001
 44
0.0000000001
 40
0.0
 40
0.0
 40
0.0
 40
0.0
 40
0.272606519
 40
1.0
 40
1.0
 40
1.0
 40
1.0
 10
474.3868287397
 20
126.6046893415
 30
0.0
 10
474.391618572
 20
126.62646623
 30
0.0
 10
474.413685178
 20
126.7051026688
 30
0.0
 10
474.459588936
 20
126.7784381179
 30
0.0
 10
474.5046062378
 20
126.8173382442
 30
0.0
  0
SPLINE
  5
508
100
AcDbEntity
  8
KONSTRUKTIONSELEMENTE
100
AcDbSpline
 62
7
  6
CONTINUOUS
 70
0
 71
3
 72
10
 73
6
 74
0
 42
0.0000001
 43
0.0000001
 44
0.0000000001
 40
0.0
 40
0.0
 40
0.0
 40
0.0
 40
0.2209805831
 40
0.4552103493
 40
1.0
 40
1.0
 40
1.0
 40
1.0
 10
486.2846184719
 20
123.8579620546
 30
0.0
 10
486.2844534505
 20
123.7196223576
 30
0.0
 10
486.2514915604
 20
123.4336142353
 30
0.0
 10
486.0414792223
 20
122.8394873933
 30
0.0
 10
485.7211053467
 20
122.4468193805
 30
0.0
 10
485.4632935186
 20
122.2235477879
 30
0.0
  0
SPLINE
  5
509
100
AcDbEntity
  8
KONSTRUKTIONSELEMENTE
100
AcDbSpline
 62
7
  6
CONTINUOUS
 70
0
 71
3
 72
11
 73
7
 74
0
 42
0.0000001
 43
0.0000001
 44
0.0000000001
 40
0.0
 40
0.0
 40
0.0
 40
0.0
 40
0.2461895079
 40
0.4959709919
 40
0.7479193338
 40
1.0
 40
1.0
 40
1.0
 40
1.0
 10
477.3315655349
 20
129.2658307984
 30
0.0
 10
477.8344166877
 20
129.701312671
 30
0.0
 10
478.962532784
 20
130.4533693433
 30
0.0
 10
480.8762162355
 20
131.1547018702
 30
0.0
 10
482.9136252768
 20
131.4103934013
 30
0.0
 10
484.2823227449
 20
131.2745795364
 30
0.0
 10
484.9481946878
 20
131.1312290945
 30
0.0
  0
SPLINE
  5
50A
100
AcDbEntity
  8
KONSTRUKTIONSELEMENTE
100
AcDbSpline
 62
7
  6
CONTINUOUS
 70
0
 71
3
 72
11
 73
7
 74
0
 42
0.0000001
 43
0.0000001
 44
0.0000000001
 40
0.0
 40
0.0
 40
0.0
 40
0.0
 40
0.2529702904
 40
0.5034560777
 40
0.7521726717
 40
1.0
 40
1.0
 40
1.0
 40
1.0
 10
489.0784302837
 20
128.951689595
 30
0.0
 10
489.4221445717
 20
128.6165387071
 30
0.0
 10
490.0461479323
 20
127.8841401302
 30
0.0
 10
490.7490151415
 20
126.6313700683
 30
0.0
 10
491.1851718609
 20
125.2724964832
 30
0.0
 10
491.2838376741
 20
124.327357394
 30
0.0
 10
491.2840519746
 20
123.8570490179
 30
0.0
  0
SPLINE
  5
50B
100
AcDbEntity
  8
KONSTRUKTIONSELEMENTE
100
AcDbSpline
 62
7
  6
CONTINUOUS
 70
0
 71
3
 72
11
 73
7
 74
0
 42
0.0000001
 43
0.0000001
 44
0.0000000001
 40
0.0
 40
0.0
 40
0.0
 40
0.0
 40
0.2474803687
 40
0.4959793074
 40
0.7466457809
 40
1.0
 40
1.0
 40
1.0
 40
1.0
 10
491.2840519746
 20
123.8570490179
 30
0.0
 10
491.2842835038
 20
123.3489300384
 30
0.0
 10
491.1691916328
 20
122.3269979821
 30
0.0
 10
490.6620370196
 20
120.867714057
 30
0.0
 10
489.8473455689
 20
119.5415900757
 30
0.0
 10
489.1297802657
 20
118.7844401759
 30
0.0
 10
488.7365618721
 20
118.4439030578
 30
0.0
  0
SPLINE
  5
50C
100
AcDbEntity
  8
KONSTRUKTIONSELEMENTE
100
AcDbSpline
 62
7
  6
CONTINUOUS
 70
0
 71
3
 72
9
 73
5
 74
0
 42
0.0000001
 43
0.0000001
 44
0.0000000001
 40
0.0
 40
0.0
 40
0.0
 40
0.0
 40
0.2332763521
 40
1.0
 40
1.0
 40
1.0
 40
1.0
 10
480.6048338885
 20
125.4861860683
 30
0.0
 10
480.7011604875
 20
125.5696073502
 30
0.0
 10
481.1373687441
 20
125.8999741412
 30
0.0
 10
481.6550501374
 20
126.1177340376
 30
0.0
 10
482.061761401
 20
126.2177389016
 30
0.0
  0
SPLINE
  5
50D
100
AcDbEntity
  8
KONSTRUKTIONSELEMENTE
100
AcDbSpline
 62
7
  6
CONTINUOUS
 70
0
 71
3
 72
9
 73
5
 74
0
 42
0.0000001
 43
0.0000001
 44
0.0000000001
 40
0.0
 40
0.0
 40
0.0
 40
0.0
 40
0.4874080123
 40
1.0
 40
1.0
 40
1.0
 40
1.0
 10
479.4528858785
 20
117.0183820845
 30
0.0
 10
478.9039900041
 20
116.5430243133
 30
0.0
 10
477.4166972713
 20
115.9748583521
 30
0.0
 10
475.8605331321
 20
116.2560243296
 30
0.0
 10
475.1864287784
 20
116.6148111051
 30
0.0
  0
SPLINE
  5
50E
100
AcDbEntity
  8
KONSTRUKTIONSELEMENTE
100
AcDbSpline
 62
7
  6
CONTINUOUS
 70
0
 71
3
 72
11
 73
7
 74
0
 42
0.0000001
 43
0.0000001
 44
0.0000000001
 40
0.0
 40
0.0
 40
0.0
 40
0.0
 40
0.2475804796
 40
0.4995487547
 40
0.7518058018
 40
1.0
 40
1.0
 40
1.0
 40
1.0
 10
482.726154232
 20
113.2387373544
 30
0.0
 10
481.9780671255
 20
112.590874916
 30
0.0
 10
480.2085613614
 20
111.5613212195
 30
0.0
 10
477.2007738937
 20
111.0042391394
 30
0.0
 10
474.1718042049
 20
111.446629598
 30
0.0
 10
472.3596421511
 20
112.4049816721
 30
0.0
 10
471.5827061296
 20
113.021902978
 30
0.0
  0
SPLINE
  5
50F
100
AcDbEntity
  8
KONSTRUKTIONSELEMENTE
100
AcDbSpline
 62
7
  6
CONTINUOUS
 70
0
 71
3
 72
9
 73
5
 74
0
 42
0.0000001
 43
0.0000001
 44
0.0000000001
 40
0.0
 40
0.0
 40
0.0
 40
0.0
 40
0.4702695548
 40
1.0
 40
1.0
 40
1.0
 40
1.0
 10
474.1510528472
 20
126.5111520264
 30
0.0
 10
474.1832302099
 20
126.5389569686
 30
0.0
 10
474.265084379
 20
126.5834353569
 30
0.0
 10
474.356249072
 20
126.5956191578
 30
0.0
 10
474.404142555
 20
126.5965975566
 30
0.0
  0
SPLINE
  5
510
100
AcDbEntity
  8
KONSTRUKTIONSELEMENTE
100
AcDbSpline
 62
7
  6
CONTINUOUS
 70
0
 71
3
 72
12
 73
8
 74
0
 42
0.0000001
 43
0.0000001
 44
0.0000000001
 40
0.0
 40
0.0
 40
0.0
 40
0.0
 40
0.0756075419
 40
0.1692610425
 40
0.407301719
 40
0.6950186639
 40
1.0
 40
1.0
 40
1.0
 40
1.0
 10
474.404142555
 20
126.5965975566
 30
0.0
 10
474.4799612588
 20
126.5981464296
 30
0.0
 10
474.650088471
 20
126.5711581281
 30
0.0
 10
475.0329359146
 20
126.4247816409
 30
0.0
 10
475.5586417833
 20
126.0829056578
 30
0.0
 10
476.1799217097
 20
125.5253666501
 30
0.0
 10
476.5692940803
 20
125.0732822713
 30
0.0
 10
476.7533687923
 20
124.8289680777
 30
0.0
  0
SPLINE
  5
511
100
AcDbEntity
  8
KONSTRUKTIONSELEMENTE
100
AcDbSpline
 62
7
  6
CONTINUOUS
 70
0
 71
3
 72
9
 73
5
 74
0
 42
0.0000001
 43
0.0000001
 44
0.0000000001
 40
0.0
 40
0.0
 40
0.0
 40
0.0
 40
0.2622844894
 40
1.0
 40
1.0
 40
1.0
 40
1.0
 10
476.9207704291
 20
124.5963852089
 30
0.0
 10
476.9566484463
 20
124.5440895108
 30
0.0
 10
477.0903131903
 20
124.3426095244
 30
0.0
 10
477.2117128308
 20
124.1327505448
 30
0.0
 10
477.2910899507
 20
123.9730070766
 30
0.0
  0
SPLINE
  5
512
100
AcDbEntity
  8
KONSTRUKTIONSELEMENTE
100
AcDbSpline
 62
7
  6
CONTINUOUS
 70
0
 71
3
 72
19
 73
15
 74
0
 42
0.0000001
 43
0.0000001
 44
0.0000000001
 40
0.0
 40
0.0
 40
0.0
 40
0.0
 40
0.0297607081
 40
0.0646910296
 40
0.1076488542
 40
0.1596116649
 40
0.2201829782
 40
0.2883869803
 40
0.4416194445
 40
0.604814501
 40
0.7616246012
 40
0.8970232306
 40
0.9530397135
 40
1.0
 40
1.0
 40
1.0
 40
1.0
 10
474.5046062378
 20
126.8173382442
 30
0.0
 10
474.5434920127
 20
126.8509400262
 30
0.0
 10
474.6484188586
 20
126.9014432246
 30
0.0
 10
474.8372952161
 20
126.908275654
 30
0.0
 10
475.0577252787
 20
126.859622207
 30
0.0
 10
475.3067703453
 20
126.7567648239
 30
0.0
 10
475.579336098
 20
126.603571833
 30
0.0
 10
475.9796559696
 20
126.3252665125
 30
0.0
 10
476.4783763417
 20
125.8831466607
 30
0.0
 10
477.0225308606
 20
125.2710153742
 30
0.0
 10
477.4736612583
 20
124.6249962765
 30
0.0
 10
477.7498076598
 20
124.0865866729
 30
0.0
 10
477.8741195751
 20
123.6933389534
 30
0.0
 10
477.90307781
 20
123.5166741991
 30
0.0
 10
477.906639937
 20
123.4356588414
 30
0.0
  0
SPLINE
  5
513
100
AcDbEntity
  8
KONSTRUKTIONSELEMENTE
100
AcDbSpline
 62
7
  6
CONTINUOUS
 70
0
 71
3
 72
9
 73
5
 74
0
 42
0.0000001
 43
0.0000001
 44
0.0000000001
 40
0.0
 40
0.0
 40
0.0
 40
0.0
 40
0.244567645
 40
1.0
 40
1.0
 40
1.0
 40
1.0
 10
531.3528587162
 20
159.8487006644
 30
0.0
 10
531.4789589425
 20
159.9579066638
 30
0.0
 10
531.9872822525
 20
160.412795288
 30
0.0
 10
532.4678126073
 20
160.898556723
 30
0.0
 10
532.8146556014
 20
161.2796065473
 30
0.0
  0
SPLINE
  5
514
100
AcDbEntity
  8
KONSTRUKTIONSELEMENTE
100
AcDbSpline
 62
7
  6
CONTINUOUS
 70
0
 71
3
 72
13
 73
9
 74
0
 42
0.0000001
 43
0.0000001
 44
0.0000000001
 40
0.0
 40
0.0
 40
0.0
 40
0.0
 40
0.2450798975
 40
0.4867641821
 40
0.6110076878
 40
0.7383847014
 40
0.8684495212
 40
1.0
 40
1.0
 40
1.0
 40
1.0
 10
535.9161254082
 20
166.2808551289
 30
0.0
 10
536.0266611286
 20
166.6332804753
 30
0.0
 10
536.1972904238
 20
167.3508458719
 30
0.0
 10
536.2132950031
 20
168.2824602675
 30
0.0
 10
536.0636573355
 20
169.0137842937
 30
0.0
 10
535.8523305301
 20
169.5521386897
 30
0.0
 10
535.540579233
 20
170.052700193
 30
0.0
 10
535.2673485373
 20
170.3413421891
 30
0.0
 10
535.117529136
 20
170.4711868374
 30
0.0
  0
SPLINE
  5
515
100
AcDbEntity
  8
KONSTRUKTIONSELEMENTE
100
AcDbSpline
 62
7
  6
CONTINUOUS
 70
0
 71
3
 72
24
 73
20
 74
0
 42
0.0000001
 43
0.0000001
 44
0.0000000001
 40
0.0
 40
0.0
 40
0.0
 40
0.0
 40
0.0399684528
 40
0.0656722898
 40
0.0749868115
 40
0.0817678249
 40
0.0908545801
 40
0.1035924024
 40
0.1198773536
 40
0.1395387897
 40
0.1623831141
 40
0.1882178473
 40
0.2480971592
 40
0.3177404014
 40
0.3960771619
 40
0.4821888571
 40
0.5751564087
 40
0.7783595522
 40
1.0
 40
1.0
 40
1.0
 40
1.0
 10
532.9394739085
 20
166.7249142853
 30
0.0
 10
532.9695850649
 20
166.7220881408
 30
0.0
 10
533.0260255034
 20
166.7207945259
 30
0.0
 10
533.065253108
 20
166.719757508
 30
0.0
 10
533.1194293266
 20
166.7266379775
 30
0.0
 10
533.0901470843
 20
166.7207726672
 30
0.0
 10
533.0729103517
 20
166.7158425956
 30
0.0
 10
533.043740227
 20
166.7072525016
 30
0.0
 10
533.0095073752
 20
166.6953447073
 30
0.0
 10
532.9676723698
 20
166.6795887237
 30
0.0
 10
532.9198461675
 20
166.6600934007
 30
0.0
 10
532.8444835839
 20
166.6273225022
 30
0.0
 10
532.7383617424
 20
166.5766844989
 30
0.0
 10
532.599523471
 20
166.5026678847
 30
0.0
 10
532.4465154907
 20
166.4133512887
 30
0.0
 10
532.2816749815
 20
166.3095167007
 30
0.0
 10
532.0419083675
 20
166.1476127127
 30
0.0
 10
531.7275342565
 20
165.9133840661
 30
0.0
 10
531.479636921
 20
165.7084938105
 30
0.0
 10
531.3528587162
 20
165.5987006644
 30
0.0
  0
SPLINE
  5
516
100
AcDbEntity
  8
KONSTRUKTIONSELEMENTE
100
AcDbSpline
 62
7
  6
CONTINUOUS
 70
0
 71
3
 72
14
 73
10
 74
0
 42
0.0000001
 43
0.0000001
 44
0.0000000001
 40
0.0
 40
0.0
 40
0.0
 40
0.0
 40
0.1261639273
 40
0.2490859875
 40
0.3675996524
 40
0.4838289665
 40
0.6024561707
 40
0.7271761049
 40
1.0
 40
1.0
 40
1.0
 40
1.0
 10
535.117529136
 20
170.4711868374
 30
0.0
 10
534.8796549342
 20
170.6773463321
 30
0.0
 10
534.3401897866
 20
171.0102400235
 30
0.0
 10
533.4390734063
 20
171.238054767
 30
0.0
 10
532.5382932381
 20
171.2197117914
 30
0.0
 10
531.6749467547
 20
171.0190555397
 30
0.0
 10
530.8421342944
 20
170.6778143781
 30
0.0
 10
529.7148071683
 20
170.0510838222
 30
0.0
 10
528.9214748625
 20
169.4460009307
 30
0.0
 10
528.406917198
 20
169.0003809215
 30
0.0
  0
SPLINE
  5
517
100
AcDbEntity
  8
KONSTRUKTIONSELEMENTE
100
AcDbSpline
 62
7
  6
CONTINUOUS
 70
0
 71
3
 72
11
 73
7
 74
0
 42
0.0000001
 43
0.0000001
 44
0.0000000001
 40
0.0
 40
0.0
 40
0.0
 40
0.0
 40
0.2560606671
 40
0.5094317095
 40
0.7578652676
 40
1.0
 40
1.0
 40
1.0
 40
1.0
 10
514.0356450604
 20
149.1923082132
 30
0.0
 10
514.1820860991
 20
149.0653915055
 30
0.0
 10
514.4988555581
 20
148.8404226628
 30
0.0
 10
515.0255200189
 20
148.6051866635
 30
0.0
 10
515.5748051481
 20
148.4694630512
 30
0.0
 10
515.9469507892
 20
148.4427929315
 30
0.0
 10
516.1301967349
 20
148.4432182614
 30
0.0
  0
SPLINE
  5
518
100
AcDbEntity
  8
KONSTRUKTIONSELEMENTE
100
AcDbSpline
 62
7
  6
CONTINUOUS
 70
0
 71
3
 72
14
 73
10
 74
0
 42
0.0000001
 43
0.0000001
 44
0.0000000001
 40
0.0
 40
0.0
 40
0.0
 40
0.0
 40
0.3076593044
 40
0.4655740208
 40
0.6174499256
 40
0.7563299601
 40
0.8741882754
 40
0.9604979356
 40
1.0
 40
1.0
 40
1.0
 40
1.0
 10
520.7462569984
 20
156.413114129
 30
0.0
 10
520.2959955998
 20
156.0231763194
 30
0.0
 10
519.6593050939
 20
155.3798238444
 30
0.0
 10
518.9014423724
 20
154.4548446772
 30
0.0
 10
518.3963761382
 20
153.7470892931
 30
0.0
 10
517.9848229875
 20
153.0707972573
 30
0.0
 10
517.6869840905
 20
152.4755274903
 30
0.0
 10
517.5232959206
 20
152.0328568974
 30
0.0
 10
517.4643502766
 20
151.7947261764
 30
0.0
 10
517.4580684737
 20
151.7185071401
 30
0.0
  0
SPLINE
  5
519
100
AcDbEntity
  8
KONSTRUKTIONSELEMENTE
100
AcDbSpline
 62
7
  6
CONTINUOUS
 70
0
 71
3
 72
17
 73
13
 74
0
 42
0.0000001
 43
0.0000001
 44
0.0000000001
 40
0.0
 40
0.0
 40
0.0
 40
0.0
 40
0.1381799396
 40
0.2793498645
 40
0.4167408576
 40
0.5447967012
 40
0.6614058717
 40
0.770730898
 40
0.825836819
 40
0.8824126798
 40
0.9407184285
 40
1.0
 40
1.0
 40
1.0
 40
1.0
 10
517.8003154802
 20
159.8147943861
 30
0.0
 10
517.3654892747
 20
159.4382238459
 30
0.0
 10
516.5275595306
 20
158.6285365729
 30
0.0
 10
515.3976321288
 20
157.3090365243
 30
0.0
 10
514.4220782579
 20
155.9223613565
 30
0.0
 10
513.6502535695
 20
154.5272113041
 30
0.0
 10
513.1179148818
 20
153.1474157035
 30
0.0
 10
512.9224177899
 20
151.9791171818
 30
0.0
 10
512.9893758082
 20
151.0569417399
 30
0.0
 10
513.1753841091
 20
150.3688071046
 30
0.0
 10
513.5179418404
 20
149.7224953409
 30
0.0
 10
513.8491570493
 20
149.3539326089
 30
0.0
 10
514.0356450604
 20
149.1923082132
 30
0.0
  0
SPLINE
  5
51A
100
AcDbEntity
  8
KONSTRUKTIONSELEMENTE
100
AcDbSpline
 62
7
  6
CONTINUOUS
 70
0
 71
3
 72
9
 73
5
 74
0
 42
0.0000001
 43
0.0000001
 44
0.0000000001
 40
0.0
 40
0.0
 40
0.0
 40
0.0
 40
0.2442277043
 40
1.0
 40
1.0
 40
1.0
 40
1.0
 10
500.240160344
 20
132.9043134938
 30
0.0
 10
500.3959094086
 20
133.0391961404
 30
0.0
 10
501.022506162
 20
133.6042335621
 30
0.0
 10
501.6070691957
 20
134.2155612879
 30
0.0
 10
502.0237107042
 20
134.6981884918
 30
0.0
  0
SPLINE
  5
51B
100
AcDbEntity
  8
KONSTRUKTIONSELEMENTE
100
AcDbSpline
 62
7
  6
CONTINUOUS
 70
0
 71
3
 72
13
 73
9
 74
0
 42
0.0000001
 43
0.0000001
 44
0.0000000001
 40
0.0
 40
0.0
 40
0.0
 40
0.0
 40
0.2465994456
 40
0.4878359344
 40
0.611665412
 40
0.738649883
 40
0.8685336703
 40
1.0
 40
1.0
 40
1.0
 40
1.0
 10
504.7465876454
 20
139.1625930861
 30
0.0
 10
504.8710425655
 20
139.52864783
 30
0.0
 10
505.0669855905
 20
140.2721300092
 30
0.0
 10
505.1091238285
 20
141.2417167145
 30
0.0
 10
504.970634883
 20
142.0040073213
 30
0.0
 10
504.7614519579
 20
142.5666897173
 30
0.0
 10
504.4434792662
 20
143.0904543879
 30
0.0
 10
504.1605932509
 20
143.3918042978
 30
0.0
 10
504.0048307638
 20
143.5267996668
 30
0.0
  0
SPLINE
  5
51C
100
AcDbEntity
  8
KONSTRUKTIONSELEMENTE
100
AcDbSpline
 62
7
  6
CONTINUOUS
 70
0
 71
3
 72
24
 73
20
 74
0
 42
0.0000001
 43
0.0000001
 44
0.0000000001
 40
0.0
 40
0.0
 40
0.0
 40
0.0
 40
0.0399684528
 40
0.0656722898
 40
0.0749868115
 40
0.0817678249
 40
0.0908545801
 40
0.1035924024
 40
0.1198773536
 40
0.1395387897
 40
0.1623831141
 40
0.1882178473
 40
0.2480971592
 40
0.3177404014
 40
0.3960771619
 40
0.4821888571
 40
0.5751564087
 40
0.7783595522
 40
1.0
 40
1.0
 40
1.0
 40
1.0
 10
501.8267755363
 20
139.7805271146
 30
0.0
 10
501.8568866927
 20
139.7777009702
 30
0.0
 10
501.9133271312
 20
139.7764073553
 30
0.0
 10
501.9525547358
 20
139.7753703374
 30
0.0
 10
502.0067309544
 20
139.7822508069
 30
0.0
 10
501.9774487121
 20
139.7763854966
 30
0.0
 10
501.9602119795
 20
139.771455425
 30
0.0
 10
501.9310418548
 20
139.7628653309
 30
0.0
 10
501.896809003
 20
139.7509575367
 30
0.0
 10
501.8549739976
 20
139.7352015531
 30
0.0
 10
501.8071477953
 20
139.7157062301
 30
0.0
 10
501.7317852117
 20
139.6829353315
 30
0.0
 10
501.6256633701
 20
139.6322973283
 30
0.0
 10
501.4868250988
 20
139.5582807141
 30
0.0
 10
501.3338171184
 20
139.4689641181
 30
0.0
 10
501.1689766093
 20
139.36512953
 30
0.0
 10
500.9292099953
 20
139.2032255421
 30
0.0
 10
500.6148358843
 20
138.9689968955
 30
0.0
 10
500.3669385488
 20
138.7641066398
 30
0.0
 10
500.240160344
 20
138.6543134938
 30
0.0
  0
SPLINE
  5
51D
100
AcDbEntity
  8
KONSTRUKTIONSELEMENTE
100
AcDbSpline
 62
7
  6
CONTINUOUS
 70
0
 71
3
 72
14
 73
10
 74
0
 42
0.0000001
 43
0.0000001
 44
0.0000000001
 40
0.0
 40
0.0
 40
0.0
 40
0.0
 40
0.1261639273
 40
0.2490859875
 40
0.3675996524
 40
0.4838289665
 40
0.6024561707
 40
0.7271761049
 40
1.0
 40
1.0
 40
1.0
 40
1.0
 10
504.0048307638
 20
143.5267996668
 30
0.0
 10
503.7669565619
 20
143.7329591615
 30
0.0
 10
503.2274914144
 20
144.0658528529
 30
0.0
 10
502.3263750341
 20
144.2936675964
 30
0.0
 10
501.4255948659
 20
144.2753246208
 30
0.0
 10
500.5622483825
 20
144.0746683691
 30
0.0
 10
499.7294359222
 20
143.7334272075
 30
0.0
 10
498.602108796
 20
143.1066966516
 30
0.0
 10
497.8087764903
 20
142.5016137601
 30
0.0
 10
497.2942188258
 20
142.0559937509
 30
0.0
  0
SPLINE
  5
51E
100
AcDbEntity
  8
KONSTRUKTIONSELEMENTE
100
AcDbSpline
 62
7
  6
CONTINUOUS
 70
0
 71
3
 72
9
 73
5
 74
0
 42
0.0000001
 43
0.0000001
 44
0.0000000001
 40
0.0
 40
0.0
 40
0.0
 40
0.0
 40
0.5068172679
 40
1.0
 40
1.0
 40
1.0
 40
1.0
 10
482.9229466882
 20
122.2479210425
 30
0.0
 10
483.166702272
 20
122.0366643044
 30
0.0
 10
483.7207076367
 20
121.697769565
 30
0.0
 10
484.3492206191
 20
121.5462236939
 30
0.0
 10
484.6616052416
 20
121.5155775644
 30
0.0
  0
SPLINE
  5
51F
100
AcDbEntity
  8
KONSTRUKTIONSELEMENTE
100
AcDbSpline
 62
7
  6
CONTINUOUS
 70
0
 71
3
 72
14
 73
10
 74
0
 42
0.0000001
 43
0.0000001
 44
0.0000000001
 40
0.0
 40
0.0
 40
0.0
 40
0.0
 40
0.3076593044
 40
0.4655740208
 40
0.6174499256
 40
0.7563299601
 40
0.8741882754
 40
0.9604979356
 40
1.0
 40
1.0
 40
1.0
 40
1.0
 10
489.6335586262
 20
129.4687269584
 30
0.0
 10
489.1832972276
 20
129.0787891488
 30
0.0
 10
488.5466067217
 20
128.4354366738
 30
0.0
 10
487.7887440002
 20
127.5104575066
 30
0.0
 10
487.283677766
 20
126.8027021225
 30
0.0
 10
486.8721246153
 20
126.1264100867
 30
0.0
 10
486.5742857183
 20
125.5311403197
 30
0.0
 10
486.4105975484
 20
125.0884697268
 30
0.0
 10
486.3516519044
 20
124.8503390058
 30
0.0
 10
486.3453701015
 20
124.7741199695
 30
0.0
  0
SPLINE
  5
520
100
AcDbEntity
  8
KONSTRUKTIONSELEMENTE
100
AcDbSpline
 62
7
  6
CONTINUOUS
 70
0
 71
3
 72
17
 73
13
 74
0
 42
0.0000001
 43
0.0000001
 44
0.0000000001
 40
0.0
 40
0.0
 40
0.0
 40
0.0
 40
0.1381799396
 40
0.2793498645
 40
0.4167408576
 40
0.5447967012
 40
0.6614058717
 40
0.770730898
 40
0.825836819
 40
0.8824126798
 40
0.9407184285
 40
1.0
 40
1.0
 40
1.0
 40
1.0
 10
486.687617108
 20
132.8704072155
 30
0.0
 10
486.2527909025
 20
132.4938366752
 30
0.0
 10
485.4148611584
 20
131.6841494023
 30
0.0
 10
484.2849337565
 20
130.3646493537
 30
0.0
 10
483.3093798857
 20
128.9779741859
 30
0.0
 10
482.5375551972
 20
127.5828241334
 30
0.0
 10
482.0052165096
 20
126.2030285329
 30
0.0
 10
481.8097194177
 20
125.0347300111
 30
0.0
 10
481.876677436
 20
124.1125545693
 30
0.0
 10
482.0626857369
 20
123.424419934
 30
0.0
 10
482.4052434682
 20
122.7781081702
 30
0.0
 10
482.7364586771
 20
122.4095454383
 30
0.0
 10
482.9229466882
 20
122.2479210425
 30
0.0
  0
SPLINE
  5
521
100
AcDbEntity
  8
KONSTRUKTIONSELEMENTE
100
AcDbSpline
 62
7
  6
CONTINUOUS
 70
0
 71
3
 72
11
 73
7
 74
0
 42
0.0000001
 43
0.0000001
 44
0.0000000001
 40
0.0
 40
0.0
 40
0.0
 40
0.0
 40
0.247258039
 40
0.4956520534
 40
0.7463451021
 40
1.0
 40
1.0
 40
1.0
 40
1.0
 10
495.7170127623
 20
141.7649736506
 30
0.0
 10
495.7168172954
 20
142.25497893
 30
0.0
 10
495.827893095
 20
143.2407292315
 30
0.0
 10
496.3178046046
 20
144.6485036987
 30
0.0
 10
497.1048443195
 20
145.9285925754
 30
0.0
 10
497.7981101728
 20
146.6596594686
 30
0.0
 10
498.1781023023
 20
146.988742306
 30
0.0
  0
SPLINE
  5
522
100
AcDbEntity
  8
KONSTRUKTIONSELEMENTE
100
AcDbSpline
 62
7
  6
CONTINUOUS
 70
0
 71
3
 72
11
 73
7
 74
0
 42
0.0000001
 43
0.0000001
 44
0.0000000001
 40
0.0
 40
0.0
 40
0.0
 40
0.0
 40
0.247258039
 40
0.4956520534
 40
0.7463451021
 40
1.0
 40
1.0
 40
1.0
 40
1.0
 10
522.323463062
 20
150.9541342293
 30
0.0
 10
522.3236585288
 20
150.4641289499
 30
0.0
 10
522.2125827293
 20
149.4783786484
 30
0.0
 10
521.7226712196
 20
148.0706041812
 30
0.0
 10
520.9356315047
 20
146.7905153045
 30
0.0
 10
520.2423656515
 20
146.0594484113
 30
0.0
 10
519.8623735219
 20
145.7303655739
 30
0.0
  0
SPLINE
  5
523
100
AcDbEntity
  8
KONSTRUKTIONSELEMENTE
100
AcDbSpline
 62
7
  6
CONTINUOUS
 70
0
 71
3
 72
9
 73
5
 74
0
 42
0.0000001
 43
0.0000001
 44
0.0000000001
 40
0.0
 40
0.0
 40
0.0
 40
0.0
 40
0.2390508737
 40
1.0
 40
1.0
 40
1.0
 40
1.0
 10
511.955376086
 20
152.9504498396
 30
0.0
 10
512.0510205538
 20
153.0196314305
 30
0.0
 10
512.4658646308
 20
153.288383824
 30
0.0
 10
512.9347143887
 20
153.4711519617
 30
0.0
 10
513.2997977942
 20
153.5600590073
 30
0.0
  0
SPLINE
  5
524
100
AcDbEntity
  8
KONSTRUKTIONSELEMENTE
100
AcDbSpline
 62
7
  6
CONTINUOUS
 70
0
 71
3
 72
9
 73
5
 74
0
 42
0.0000001
 43
0.0000001
 44
0.0000000001
 40
0.0
 40
0.0
 40
0.0
 40
0.0
 40
0.2598514407
 40
1.0
 40
1.0
 40
1.0
 40
1.0
 10
517.6419783386
 20
151.8085492552
 30
0.0
 10
517.6722597007
 20
151.738713505
 30
0.0
 10
517.7755634231
 20
151.4644697543
 30
0.0
 10
517.8240137506
 20
151.1691551089
 30
0.0
 10
517.8240259767
 20
150.9523433925
 30
0.0
  0
SPLINE
  5
525
100
AcDbEntity
  8
KONSTRUKTIONSELEMENTE
100
AcDbSpline
 62
7
  6
CONTINUOUS
 70
0
 71
3
 72
9
 73
5
 74
0
 42
0.0000001
 43
0.0000001
 44
0.0000000001
 40
0.0
 40
0.0
 40
0.0
 40
0.0
 40
0.4614411915
 40
1.0
 40
1.0
 40
1.0
 40
1.0
 10
517.8240259767
 20
150.9523433925
 30
0.0
 10
517.8240440374
 20
150.6320612103
 30
0.0
 10
517.6525502159
 20
149.9316009789
 30
0.0
 10
517.1990049167
 20
149.376761152
 30
0.0
 10
516.9164320038
 20
149.132045831
 30
0.0
  0
SPLINE
  5
526
100
AcDbEntity
  8
KONSTRUKTIONSELEMENTE
100
AcDbSpline
 62
7
  6
CONTINUOUS
 70
0
 71
3
 72
9
 73
5
 74
0
 42
0.0000001
 43
0.0000001
 44
0.0000000001
 40
0.0
 40
0.0
 40
0.0
 40
0.0
 40
0.4898470903
 40
1.0
 40
1.0
 40
1.0
 40
1.0
 10
506.309830286
 20
139.9464592955
 30
0.0
 10
505.7121213568
 20
139.4288281788
 30
0.0
 10
504.0955016657
 20
138.8162845564
 30
0.0
 10
502.4093128045
 20
139.1467103112
 30
0.0
 10
501.6913042918
 20
139.5499089996
 30
0.0
  0
SPLINE
  5
527
100
AcDbEntity
  8
KONSTRUKTIONSELEMENTE
100
AcDbSpline
 62
7
  6
CONTINUOUS
 70
0
 71
3
 72
11
 73
7
 74
0
 42
0.0000001
 43
0.0000001
 44
0.0000000001
 40
0.0
 40
0.0
 40
0.0
 40
0.0
 40
0.245958326
 40
0.4956468363
 40
0.7476883331
 40
1.0
 40
1.0
 40
1.0
 40
1.0
 10
508.7847040201
 20
156.1743288415
 30
0.0
 10
509.2623979736
 20
156.5880239404
 30
0.0
 10
510.332147689
 20
157.3049648668
 30
0.0
 10
512.1458701344
 20
157.9842380013
 30
0.0
 10
514.0801194219
 20
158.2500677818
 30
0.0
 10
515.383805291
 20
158.1425114437
 30
0.0
 10
516.0200331108
 20
158.0182287585
 30
0.0
  0
SPLINE
  5
528
100
AcDbEntity
  8
KONSTRUKTIONSELEMENTE
100
AcDbSpline
 62
7
  6
CONTINUOUS
 70
0
 71
3
 72
11
 73
7
 74
0
 42
0.0000001
 43
0.0000001
 44
0.0000000001
 40
0.0
 40
0.0
 40
0.0
 40
0.0
 40
0.2532343944
 40
0.50377714
 40
0.752387739
 40
1.0
 40
1.0
 40
1.0
 40
1.0
 10
520.1790831458
 20
155.8839966918
 30
0.0
 10
520.5132067986
 20
155.5599349067
 30
0.0
 10
521.1197987681
 20
154.8516422495
 30
0.0
 10
521.803488481
 20
153.6393724381
 30
0.0
 10
522.2274610749
 20
152.3241241485
 30
0.0
 10
522.323281508
 20
151.409262102
 30
0.0
 10
522.323463062
 20
150.9541342293
 30
0.0
  0
SPLINE
  5
529
100
AcDbEntity
  8
KONSTRUKTIONSELEMENTE
100
AcDbSpline
 62
7
  6
CONTINUOUS
 70
0
 71
3
 72
13
 73
9
 74
0
 42
0.0000001
 43
0.0000001
 44
0.0000000001
 40
0.0
 40
0.0
 40
0.0
 40
0.0
 40
0.1233769833
 40
0.2483733747
 40
0.5003778919
 40
0.7521575176
 40
0.8768774439
 40
1.0
 40
1.0
 40
1.0
 40
1.0
 10
509.2557718041
 20
136.5447790385
 30
0.0
 10
508.8752638799
 20
136.2152495097
 30
0.0
 10
508.0415515624
 20
135.6260440365
 30
0.0
 10
506.1764689123
 20
134.7732986384
 30
0.0
 10
503.5876005787
 20
134.3560641416
 30
0.0
 10
501.0125099407
 20
134.8470821368
 30
0.0
 10
499.176532416
 20
135.7541740817
 30
0.0
 10
498.3634639046
 20
136.3681332714
 30
0.0
 10
497.9945425078
 20
136.7090570908
 30
0.0
  0
SPLINE
  5
52A
100
AcDbEntity
  8
KONSTRUKTIONSELEMENTE
100
AcDbSpline
 62
7
  6
CONTINUOUS
 70
0
 71
3
 72
13
 73
9
 74
0
 42
0.0000001
 43
0.0000001
 44
0.0000000001
 40
0.0
 40
0.0
 40
0.0
 40
0.0
 40
0.26659376
 40
0.391849532
 40
0.5137546273
 40
0.754429033
 40
0.876709446
 40
1.0
 40
1.0
 40
1.0
 40
1.0
 10
571.9346861976
 20
195.0499523893
 30
0.0
 10
572.1563124907
 20
195.8651114791
 30
0.0
 10
572.4076615734
 20
197.0884248819
 30
0.0
 10
572.500136216
 20
198.7168830307
 30
0.0
 10
572.4128454106
 20
200.2619417127
 30
0.0
 10
572.0015469416
 20
201.776313377
 30
0.0
 10
571.1958782123
 20
203.0999325926
 30
0.0
 10
570.660145585
 20
203.6738053121
 30
0.0
 10
570.3645700846
 20
203.9292592974
 30
0.0
  0
SPLINE
  5
52B
100
AcDbEntity
  8
KONSTRUKTIONSELEMENTE
100
AcDbSpline
 62
7
  6
CONTINUOUS
 70
0
 71
3
 72
19
 73
15
 74
0
 42
0.0000001
 43
0.0000001
 44
0.0000000001
 40
0.0
 40
0.0
 40
0.0
 40
0.0
 40
0.1463712
 40
0.2968003233
 40
0.4441138256
 40
0.5815946947
 40
0.6450087779
 40
0.7043267543
 40
0.7594923199
 40
0.8108474075
 40
0.8592559102
 40
0.9060360039
 40
0.9526828682
 40
1.0
 40
1.0
 40
1.0
 40
1.0
 10
553.0182176771
 20
198.6815490982
 30
0.0
 10
551.7122382979
 20
197.550537779
 30
0.0
 10
549.1789551775
 20
195.1222465126
 30
0.0
 10
545.7206431139
 20
191.1747673434
 30
0.0
 10
542.6787637391
 20
187.0271813773
 30
0.0
 10
540.5685071598
 20
183.4901145052
 30
0.0
 10
539.2396445789
 20
180.7189778012
 30
0.0
 10
538.4644379653
 20
178.7653833109
 30
0.0
 10
537.8953104762
 20
176.8896974115
 30
0.0
 10
537.5454847436
 20
175.090710763
 30
0.0
 10
537.4408655248
 20
173.3578548878
 30
0.0
 10
537.6289665011
 20
171.6834717281
 30
0.0
 10
538.1792446616
 20
170.0989292476
 30
0.0
 10
538.8247806992
 20
169.1737485853
 30
0.0
 10
539.2100334912
 20
168.7694030965
 30
0.0
  0
SPLINE
  5
52C
100
AcDbEntity
  8
KONSTRUKTIONSELEMENTE
100
AcDbSpline
 62
7
  6
CONTINUOUS
 70
0
 71
3
 72
29
 73
25
 74
0
 42
0.0000001
 43
0.0000001
 44
0.0000000001
 40
0.0
 40
0.0
 40
0.0
 40
0.0
 40
0.0038425111
 40
0.006877826
 40
0.0083401759
 40
0.0090978557
 40
0.0122169244
 40
0.0179337516
 40
0.0265411311
 40
0.0382974786
 40
0.0531437932
 40
0.0709517797
 40
0.0916105212
 40
0.1150179064
 40
0.1410570151
 40
0.1696072658
 40
0.2337651466
 40
0.3066512757
 40
0.3874470915
 40
0.475421617
 40
0.5698903892
 40
0.6702089349
 40
0.7757710248
 40
1.0
 40
1.0
 40
1.0
 40
1.0
 10
566.4475145471
 20
199.3917923087
 30
0.0
 10
566.458912176
 20
199.3830982119
 30
0.0
 10
566.4824255485
 20
199.3665151433
 30
0.0
 10
566.4989183085
 20
199.3528245194
 30
0.0
 10
566.5289213404
 20
199.3343122682
 30
0.0
 10
566.5020022702
 20
199.3404865852
 30
0.0
 10
566.4739541958
 20
199.3491679802
 30
0.0
 10
566.4055127489
 20
199.3606609419
 30
0.0
 10
566.310591012
 20
199.3694027019
 30
0.0
 10
566.178267347
 20
199.3713665297
 30
0.0
 10
566.013006918
 20
199.3637670646
 30
0.0
 10
565.8149236079
 20
199.3435748818
 30
0.0
 10
565.586817719
 20
199.307755192
 30
0.0
 10
565.3307605249
 20
199.25394441
 30
0.0
 10
565.0488387943
 20
199.1815893769
 30
0.0
 10
564.6244282065
 20
199.054214093
 30
0.0
 10
564.0437333166
 20
198.8417436656
 30
0.0
 10
563.2992758271
 20
198.514720488
 30
0.0
 10
562.4948320807
 20
198.1068205962
 30
0.0
 10
561.641241608
 20
197.6205381118
 30
0.0
 10
560.7477874266
 20
197.0591672232
 30
0.0
 10
559.8228166877
 20
196.4262772024
 30
0.0
 10
558.5314494705
 20
195.4734688771
 30
0.0
 10
557.5784880279
 20
194.693605137
 30
0.0
 10
556.9461397014
 20
194.1459754221
 30
0.0
  0
SPLINE
  5
52D
100
AcDbEntity
  8
KONSTRUKTIONSELEMENTE
100
AcDbSpline
 62
7
  6
CONTINUOUS
 70
0
 71
3
 72
9
 73
5
 74
0
 42
0.0000001
 43
0.0000001
 44
0.0000000001
 40
0.0
 40
0.0
 40
0.0
 40
0.0
 40
0.2986960379
 40
1.0
 40
1.0
 40
1.0
 40
1.0
 10
566.4776793682
 20
198.7580353225
 30
0.0
 10
566.4772564076
 20
198.8049390853
 30
0.0
 10
566.4731205235
 20
198.9619036312
 30
0.0
 10
566.4575097607
 20
199.1187485829
 30
0.0
 10
566.4381153484
 20
199.2271565165
 30
0.0
  0
SPLINE
  5
52E
100
AcDbEntity
  8
KONSTRUKTIONSELEMENTE
100
AcDbSpline
 62
7
  6
CONTINUOUS
 70
0
 71
3
 72
9
 73
5
 74
0
 42
0.0000001
 43
0.0000001
 44
0.0000000001
 40
0.0
 40
0.0
 40
0.0
 40
0.0
 40
0.2922909709
 40
1.0
 40
1.0
 40
1.0
 40
1.0
 10
566.4381153484
 20
199.2271565165
 30
0.0
 10
566.4356113207
 20
199.2411531494
 30
0.0
 10
566.4265354902
 20
199.2889445185
 30
0.0
 10
566.4156176314
 20
199.3364007414
 30
0.0
 10
566.4065510716
 20
199.3696128208
 30
0.0
  0
SPLINE
  5
52F
100
AcDbEntity
  8
KONSTRUKTIONSELEMENTE
100
AcDbSpline
 62
7
  6
CONTINUOUS
 70
0
 71
3
 72
9
 73
5
 74
0
 42
0.0000001
 43
0.0000001
 44
0.0000000001
 40
0.0
 40
0.0
 40
0.0
 40
0.0
 40
0.2129668983
 40
1.0
 40
1.0
 40
1.0
 40
1.0
 10
543.5374143258
 20
172.9708978331
 30
0.0
 10
543.5447158392
 20
172.9697823831
 30
0.0
 10
543.5790658569
 20
172.9649746748
 30
0.0
 10
543.6136531701
 20
172.9619284196
 30
0.0
 10
543.6409009651
 20
172.960302216
 30
0.0
  0
SPLINE
  5
530
100
AcDbEntity
  8
KONSTRUKTIONSELEMENTE
100
AcDbSpline
 62
7
  6
CONTINUOUS
 70
0
 71
3
 72
9
 73
5
 74
0
 42
0.0000001
 43
0.0000001
 44
0.0000000001
 40
0.0
 40
0.0
 40
0.0
 40
0.0
 40
0.23512902
 40
1.0
 40
1.0
 40
1.0
 40
1.0
 10
543.6409009651
 20
172.960302216
 30
0.0
 10
543.6461460924
 20
172.9599891761
 30
0.0
 10
543.6684608908
 20
172.9587822127
 30
0.0
 10
543.6908008236
 20
172.9580565382
 30
0.0
 10
543.7078903138
 20
172.9577265109
 30
0.0
  0
SPLINE
  5
531
100
AcDbEntity
  8
KONSTRUKTIONSELEMENTE
100
AcDbSpline
 62
7
  6
CONTINUOUS
 70
0
 71
3
 72
9
 73
5
 74
0
 42
0.0000001
 43
0.0000001
 44
0.0000000001
 40
0.0
 40
0.0
 40
0.0
 40
0.0
 40
0.4751668021
 40
1.0
 40
1.0
 40
1.0
 40
1.0
 10
548.7821728849
 20
174.9975460419
 30
0.0
 10
549.4930712242
 20
175.4448819553
 30
0.0
 10
550.9444129973
 20
176.4580223927
 30
0.0
 10
552.3169233232
 20
177.5742103723
 30
0.0
 10
553.0182176771
 20
178.1815490982
 30
0.0
  0
SPLINE
  5
532
100
AcDbEntity
  8
KONSTRUKTIONSELEMENTE
100
AcDbSpline
 62
7
  6
CONTINUOUS
 70
0
 71
3
 72
17
 73
13
 74
0
 42
0.0000001
 43
0.0000001
 44
0.0000000001
 40
0.0
 40
0.0
 40
0.0
 40
0.0
 40
0.054272456
 40
0.1081063965
 40
0.1614219537
 40
0.2144031746
 40
0.3216905582
 40
0.4354499083
 40
0.5594736346
 40
0.6952881283
 40
0.8426555219
 40
1.0
 40
1.0
 40
1.0
 40
1.0
 10
570.3645700846
 20
203.9292592974
 30
0.0
 10
570.0970442437
 20
204.1604710931
 30
0.0
 10
569.5192974698
 20
204.5721409493
 30
0.0
 10
568.5581364217
 20
205.0123673442
 30
0.0
 10
567.5450279227
 20
205.2806035308
 30
0.0
 10
566.156318842
 20
205.4244276678
 30
0.0
 10
564.3619991957
 20
205.2511423746
 30
0.0
 10
562.1981983965
 20
204.6098212509
 30
0.0
 10
559.9757301073
 20
203.6030926353
 30
0.0
 10
557.6830727761
 20
202.2607310256
 30
0.0
 10
555.3337436984
 20
200.607391389
 30
0.0
 10
553.7931402886
 20
199.3526517658
 30
0.0
 10
553.0182176771
 20
198.6815490982
 30
0.0
  0
SPLINE
  5
533
100
AcDbEntity
  8
KONSTRUKTIONSELEMENTE
100
AcDbSpline
 62
7
  6
CONTINUOUS
 70
0
 71
3
 72
22
 73
18
 74
0
 42
0.0000001
 43
0.0000001
 44
0.0000000001
 40
0.0
 40
0.0
 40
0.0
 40
0.0
 40
0.162321669
 40
0.3306247035
 40
0.4967012546
 40
0.6523451692
 40
0.7237421349
 40
0.7894880903
 40
0.848533679
 40
0.8997486967
 40
0.941866517
 40
0.9590746233
 40
0.9734537589
 40
0.9848015971
 40
0.9930216311
 40
0.9980486857
 40
1.0
 40
1.0
 40
1.0
 40
1.0
 10
556.9461397014
 20
194.1459754221
 30
0.0
 10
555.8919482292
 20
193.2330188268
 30
0.0
 10
553.8301153341
 20
191.2733601577
 30
0.0
 10
550.9770624174
 20
188.0944983198
 30
0.0
 10
548.4149051735
 20
184.7485934707
 30
0.0
 10
546.5880501109
 20
181.901687509
 30
0.0
 10
545.3935133009
 20
179.6867474209
 30
0.0
 10
544.6779145516
 20
178.1595539363
 30
0.0
 10
544.1262478488
 20
176.7501888021
 30
0.0
 10
543.7454523336
 20
175.4962262297
 30
0.0
 10
543.556065904
 20
174.563222434
 30
0.0
 10
543.4929958024
 20
173.9327140557
 30
0.0
 10
543.4819271144
 20
173.5635998001
 30
0.0
 10
543.4983008858
 20
173.2720834213
 30
0.0
 10
543.5302845557
 20
173.0626476152
 30
0.0
 10
543.562989308
 20
172.9363695778
 30
0.0
 10
543.5820660207
 20
172.879133624
 30
0.0
 10
543.5898868669
 20
172.8643052369
 30
0.0
  0
SPLINE
  5
534
100
AcDbEntity
  8
KONSTRUKTIONSELEMENTE
100
AcDbSpline
 62
7
  6
CONTINUOUS
 70
0
 71
3
 72
11
 73
7
 74
0
 42
0.0000001
 43
0.0000001
 44
0.0000000001
 40
0.0
 40
0.0
 40
0.0
 40
0.0
 40
0.2097914905
 40
0.4448755675
 40
0.7092742741
 40
1.0
 40
1.0
 40
1.0
 40
1.0
 10
544.8491613442
 20
167.0260162817
 30
0.0
 10
545.8178430366
 20
167.1450088715
 30
0.0
 10
547.8350250415
 20
167.6992559213
 30
0.0
 10
550.8144106247
 20
169.1386315915
 30
0.0
 10
553.9033877161
 20
171.1460420869
 30
0.0
 10
555.9237655729
 20
172.7605734547
 30
0.0
 10
556.9461397014
 20
173.6459754221
 30
0.0
  0
SPLINE
  5
535
100
AcDbEntity
  8
BEZUGSACHSEN
100
AcDbSpline
 62
7
  6
CONTINUOUS
 70
0
 71
3
 72
8
 73
4
 74
0
 42
0.0000001
 43
0.0000001
 44
0.0000000001
 40
0.0
 40
0.0
 40
0.0
 40
0.0
 40
1.0
 40
1.0
 40
1.0
 40
1.0
 10
578.6059390551
 20
209.3115439687
 30
0.0
 10
578.6042711168
 20
209.304855823
 30
0.0
 10
578.6042705611
 20
209.2975533795
 30
0.0
 10
578.6059375567
 20
209.2908649987
 30
0.0
  0
LINE
  5
536
100
AcDbEntity
  8
BEZUGSACHSEN
100
AcDbLine
 62
7
  6
CONTINUOUS
 10
577.426022221
 20
203.7172768069
 11
577.4158384137
 21
203.6816250647
  0
LINE
  5
537
100
AcDbEntity
  8
BEZUGSACHSEN
100
AcDbLine
 62
7
  6
CONTINUOUS
 10
577.4158384137
 20
203.6816250647
 11
577.3024698481
 21
203.2841886388
  0
LINE
  5
538
100
AcDbEntity
  8
BEZUGSACHSEN
100
AcDbLine
 62
7
  6
CONTINUOUS
 10
577.2855265245
 20
202.2585350718
 11
577.4826718816
 21
203.0093969749
  0
LINE
  5
539
100
AcDbEntity
  8
BEZUGSACHSEN
100
AcDbLine
 62
7
  6
CONTINUOUS
 10
577.4826718816
 20
203.0093969749
 11
577.4959130045
 21
203.0598270053
  0
LINE
  5
53A
100
AcDbEntity
  8
BEZUGSACHSEN
100
AcDbLine
 62
7
  6
CONTINUOUS
 10
577.326804787
 20
203.983202
 11
577.3427194821
 21
204.0576461998
  0
SPLINE
  5
53B
100
AcDbEntity
  8
BEZUGSACHSEN
100
AcDbSpline
 62
7
  6
CONTINUOUS
 70
0
 71
3
 72
8
 73
4
 74
0
 42
0.0000001
 43
0.0000001
 44
0.0000000001
 40
0.0
 40
0.0
 40
0.0
 40
0.0
 40
1.0
 40
1.0
 40
1.0
 40
1.0
 10
578.8083856021
 20
210.0999602642
 30
0.0
 10
578.8032617212
 20
210.0933460646
 30
0.0
 10
578.7989673249
 20
210.0857381596
 30
0.0
 10
578.7969432326
 20
210.0776199798
 30
0.0
  0
LINE
  5
53C
100
AcDbEntity
  8
BEZUGSACHSEN
100
AcDbLine
 62
7
  6
CONTINUOUS
 10
578.5765461853
 20
209.1560157947
 11
578.5459218801
 21
209.0254547577
  0
LINE
  5
53D
100
AcDbEntity
  8
BEZUGSACHSEN
100
AcDbLine
 62
7
  6
CONTINUOUS
 10
577.5933693759
 20
205.1937843729
 11
577.691184227
 21
205.5730979067
  0
LINE
  5
53E
100
AcDbEntity
  8
BEZUGSACHSEN
100
AcDbLine
 62
7
  6
CONTINUOUS
 10
577.5267358517
 20
204.9439126483
 11
577.5432626321
 21
205.0061521171
  0
SPLINE
  5
53F
100
AcDbEntity
  8
BEZUGSACHSEN
100
AcDbSpline
 62
7
  6
CONTINUOUS
 70
0
 71
3
 72
9
 73
5
 74
0
 42
0.0000001
 43
0.0000001
 44
0.0000000001
 40
0.0
 40
0.0
 40
0.0
 40
0.0
 40
0.5113161758
 40
1.0
 40
1.0
 40
1.0
 40
1.0
 10
577.4974481172
 20
204.8559267444
 30
0.0
 10
577.4966351531
 20
204.8546080082
 30
0.0
 10
577.4951471829
 20
204.8519640957
 30
0.0
 10
577.4939030574
 20
204.8491958426
 30
0.0
 10
577.4933644318
 20
204.8478166761
 30
0.0
  0
LINE
  5
540
100
AcDbEntity
  8
BEZUGSACHSEN
100
AcDbLine
 62
7
  6
CONTINUOUS
 10
577.4933644318
 20
204.8478166761
 11
577.4917449545
 21
204.8427555236
  0
LINE
  5
541
100
AcDbEntity
  8
BEZUGSACHSEN
100
AcDbLine
 62
7
  6
CONTINUOUS
 10
577.4974481172
 20
204.8559267444
 11
577.5197984527
 21
204.94564101
  0
LINE
  5
542
100
AcDbEntity
  8
BEZUGSACHSEN
100
AcDbLine
 62
7
  6
CONTINUOUS
 10
577.5197984527
 20
204.94564101
 11
577.5823053324
 21
205.1965408336
  0
LINE
  5
543
100
AcDbEntity
  8
BEZUGSACHSEN
100
AcDbLine
 62
7
  6
CONTINUOUS
 10
577.5823053324
 20
205.1965408336
 11
577.6769996533
 21
205.5766318065
  0
LINE
  5
544
100
AcDbEntity
  8
BEZUGSACHSEN
100
AcDbLine
 62
7
  6
CONTINUOUS
 10
577.6769996533
 20
205.5766318065
 11
577.7718013599
 21
205.9571446953
  0
LINE
  5
545
100
AcDbEntity
  8
BEZUGSACHSEN
100
AcDbLine
 62
7
  6
CONTINUOUS
 10
577.7718013599
 20
205.9571446953
 11
577.8038529849
 21
206.08579076
  0
LINE
  5
546
100
AcDbEntity
  8
BEZUGSACHSEN
100
AcDbLine
 62
7
  6
CONTINUOUS
 10
577.8038529849
 20
206.08579076
 11
578.2808782573
 21
208.0003237272
  0
LINE
  5
547
100
AcDbEntity
  8
BEZUGSACHSEN
100
AcDbLine
 62
7
  6
CONTINUOUS
 10
578.2808782573
 20
208.0003237272
 11
578.3283487877
 21
208.1908354148
  0
LINE
  5
548
100
AcDbEntity
  8
BEZUGSACHSEN
100
AcDbLine
 62
7
  6
CONTINUOUS
 10
578.3283487877
 20
208.1908354148
 11
578.4084448239
 21
208.5122778219
  0
LINE
  5
549
100
AcDbEntity
  8
BEZUGSACHSEN
100
AcDbLine
 62
7
  6
CONTINUOUS
 10
578.4084448239
 20
208.5122778219
 11
578.504577682
 21
208.8980729704
  0
LINE
  5
54A
100
AcDbEntity
  8
BEZUGSACHSEN
100
AcDbLine
 62
7
  6
CONTINUOUS
 10
578.504577682
 20
208.8980729704
 11
578.5693028605
 21
209.1578207024
  0
LINE
  5
54B
100
AcDbEntity
  8
BEZUGSACHSEN
100
AcDbLine
 62
7
  6
CONTINUOUS
 10
578.5693028605
 20
209.1578207024
 11
578.6026593185
 21
209.2916818774
  0
SPLINE
  5
54C
100
AcDbEntity
  8
BEZUGSACHSEN
100
AcDbSpline
 62
7
  6
CONTINUOUS
 70
0
 71
3
 72
8
 73
4
 74
0
 42
0.0000001
 43
0.0000001
 44
0.0000000001
 40
0.0
 40
0.0
 40
0.0
 40
0.0
 40
1.0
 40
1.0
 40
1.0
 40
1.0
 10
578.7969432326
 20
210.0776199798
 30
0.0
 10
578.7952563699
 20
210.070854352
 30
0.0
 10
578.7952327777
 20
210.0634765207
 30
0.0
 10
578.7968828278
 20
210.0567018206
 30
0.0
  0
SPLINE
  5
54D
100
AcDbEntity
  8
BEZUGSACHSEN
100
AcDbSpline
 62
7
  6
CONTINUOUS
 70
0
 71
3
 72
8
 73
4
 74
0
 42
0.0000001
 43
0.0000001
 44
0.0000000001
 40
0.0
 40
0.0
 40
0.0
 40
0.0
 40
1.0
 40
1.0
 40
1.0
 40
1.0
 10
577.4917449545
 20
204.8427555236
 30
0.0
 10
577.4908407609
 20
204.8391300414
 30
0.0
 10
577.4904681313
 20
204.8353241111
 30
0.0
 10
577.4906997071
 20
204.8315947599
 30
0.0
  0
SPLINE
  5
54E
100
AcDbEntity
  8
BEZUGSACHSEN
100
AcDbSpline
 62
7
  6
CONTINUOUS
 70
0
 71
3
 72
9
 73
5
 74
0
 42
0.0000001
 43
0.0000001
 44
0.0000000001
 40
0.0
 40
0.0
 40
0.0
 40
0.0
 40
0.4952047052
 40
1.0
 40
1.0
 40
1.0
 40
1.0
 10
577.4906997071
 20
204.8315947599
 30
0.0
 10
577.4907840857
 20
204.8302359077
 30
0.0
 10
577.4911108397
 20
204.8274995173
 30
0.0
 10
577.4917368968
 20
204.8248163802
 30
0.0
 10
577.4921215435
 20
204.8234829117
 30
0.0
  0
LINE
  5
54F
100
AcDbEntity
  8
BEZUGSACHSEN
100
AcDbLine
 62
7
  6
CONTINUOUS
 10
577.5382848744
 20
204.927690732
 11
577.6688155431
 21
205.4346438255
  0
LINE
  5
550
100
AcDbEntity
  8
BEZUGSACHSEN
100
AcDbLine
 62
7
  6
CONTINUOUS
 10
577.6688155431
 20
205.4346438255
 11
577.8293902128
 21
206.0710387488
  0
LINE
  5
551
100
AcDbEntity
  8
BEZUGSACHSEN
100
AcDbLine
 62
7
  6
CONTINUOUS
 10
578.305588613
 20
207.9856309824
 11
577.8293902128
 21
206.0710387488
  0
LINE
  5
552
100
AcDbEntity
  8
BEZUGSACHSEN
100
AcDbLine
 62
7
  6
CONTINUOUS
 10
578.4626612223
 20
208.6256311199
 11
578.305588613
 21
207.9856309824
  0
LINE
  5
553
100
AcDbEntity
  8
BEZUGSACHSEN
100
AcDbLine
 62
7
  6
CONTINUOUS
 10
578.586611877
 20
209.1397938783
 11
578.4626612223
 21
208.6256311199
  0
LINE
  5
554
100
AcDbEntity
  8
BEZUGSACHSEN
100
AcDbLine
 62
7
  6
CONTINUOUS
 10
578.589688666
 20
209.1529340917
 11
578.586611877
 21
209.1397938783
  0
SPLINE
  5
555
100
AcDbEntity
  8
KONSTRUKTIONSELEMENTE
100
AcDbSpline
 62
7
  6
CONTINUOUS
 70
0
 71
3
 72
9
 73
5
 74
0
 42
0.0000001
 43
0.0000001
 44
0.0000000001
 40
0.0
 40
0.0
 40
0.0
 40
0.0
 40
0.2415875307
 40
1.0
 40
1.0
 40
1.0
 40
1.0
 10
600.4554203281
 20
134.4457550545
 30
0.0
 10
600.6205542852
 20
134.6916001491
 30
0.0
 10
601.2850756467
 20
135.7220263768
 30
0.0
 10
601.8843171192
 20
136.7932352837
 30
0.0
 10
602.3178845115
 20
137.6156721149
 30
0.0
  0
SPLINE
  5
556
100
AcDbEntity
  8
0
100
AcDbSpline
 62
7
  6
CONTINUOUS
 70
0
 71
3
 72
13
 73
9
 74
0
 42
0.0000001
 43
0.0000001
 44
0.0000000001
 40
0.0
 40
0.0
 40
0.0
 40
0.0
 40
0.1163022989
 40
0.2340384143
 40
0.3543787598
 40
0.4780390196
 40
0.7344045068
 40
1.0
 40
1.0
 40
1.0
 40
1.0
 10
592.5342167072
 20
149.4677205046
 30
0.0
 10
592.5342103725
 20
149.0426211593
 30
0.0
 10
592.4360331416
 20
148.1840953359
 30
0.0
 10
592.0018837842
 20
146.9530407507
 30
0.0
 10
591.2989347304
 20
145.8211843445
 30
0.0
 10
590.0297374032
 20
144.4890157756
 30
0.0
 10
587.9284469775
 20
143.2948277508
 30
0.0
 10
586.0050014001
 20
142.9726910449
 30
0.0
 10
585.0342168897
 20
142.9726910449
 30
0.0
  0
SPLINE
  5
557
100
AcDbEntity
  8
BEZUGSACHSEN
100
AcDbSpline
 62
7
  6
CONTINUOUS
 70
0
 71
3
 72
8
 73
4
 74
0
 42
0.0000001
 43
0.0000001
 44
0.0000000001
 40
0.0
 40
0.0
 40
0.0
 40
0.0
 40
1.0
 40
1.0
 40
1.0
 40
1.0
 10
592.767693761
 20
204.0766764986
 30
0.0
 10
592.7692288452
 20
204.070519728
 30
0.0
 10
592.7690490208
 20
204.063729564
 30
0.0
 10
592.7672455345
 20
204.0576460004
 30
0.0
  0
SPLINE
  5
558
100
AcDbEntity
  8
0
100
AcDbSpline
 62
7
  6
CONTINUOUS
 70
0
 71
3
 72
13
 73
9
 74
0
 42
0.0000001
 43
0.0000001
 44
0.0000000001
 40
0.0
 40
0.0
 40
0.0
 40
0.0
 40
0.2655954932
 40
0.5219609804
 40
0.6456212402
 40
0.7659615857
 40
0.8836977011
 40
1.0
 40
1.0
 40
1.0
 40
1.0
 10
585.0342168897
 20
142.9726910449
 30
0.0
 10
584.0634323793
 20
142.9726910449
 30
0.0
 10
582.1399868018
 20
143.2948277508
 30
0.0
 10
580.0386963761
 20
144.4890157756
 30
0.0
 10
578.769499049
 20
145.8211843445
 30
0.0
 10
578.0665499952
 20
146.9530407507
 30
0.0
 10
577.6324006377
 20
148.1840953359
 30
0.0
 10
577.5342234068
 20
149.0426211593
 30
0.0
 10
577.5342170722
 20
149.4677205046
 30
0.0
  0
SPLINE
  5
559
100
AcDbEntity
  8
KONSTRUKTIONSELEMENTE
100
AcDbSpline
 62
7
  6
CONTINUOUS
 70
0
 71
3
 72
10
 73
6
 74
0
 42
0.0000001
 43
0.0000001
 44
0.0000000001
 40
0.0
 40
0.0
 40
0.0
 40
0.0
 40
0.4958514465
 40
0.7559167494
 40
1.0
 40
1.0
 40
1.0
 40
1.0
 10
601.7010525787
 20
136.4834285816
 30
0.0
 10
602.0325666175
 20
135.5257955081
 30
0.0
 10
602.5094120488
 20
134.0530480082
 30
0.0
 10
602.9350793306
 20
132.0521481519
 30
0.0
 10
603.0342168897
 20
131.0218069203
 30
0.0
 10
603.0342168897
 20
130.5229641059
 30
0.0
  0
SPLINE
  5
55A
100
AcDbEntity
  8
KONSTRUKTIONSELEMENTE
100
AcDbSpline
 62
7
  6
CONTINUOUS
 70
0
 71
3
 72
9
 73
5
 74
0
 42
0.0000001
 43
0.0000001
 44
0.0000000001
 40
0.0
 40
0.0
 40
0.0
 40
0.0
 40
0.554631862
 40
1.0
 40
1.0
 40
1.0
 40
1.0
 10
602.3178845115
 20
137.6156721149
 30
0.0
 10
602.5273032093
 20
138.012919817
 30
0.0
 10
602.8607372783
 20
138.7529755154
 30
0.0
 10
603.0342168897
 20
139.5592553781
 30
0.0
 10
603.0342168897
 20
139.9198558463
 30
0.0
  0
LINE
  5
55B
100
AcDbEntity
  8
0
100
AcDbLine
 62
7
  6
CONTINUOUS
 10
577.3454732871
 20
173.4271912709
 11
577.339831958
 21
173.4209575025
  0
SPLINE
  5
55C
100
AcDbEntity
  8
0
100
AcDbSpline
 62
7
  6
CONTINUOUS
 70
0
 71
3
 72
9
 73
5
 74
0
 42
0.0000001
 43
0.0000001
 44
0.0000000001
 40
0.0
 40
0.0
 40
0.0
 40
0.0
 40
0.498849579
 40
1.0
 40
1.0
 40
1.0
 40
1.0
 10
567.0342168897
 20
115.3405676151
 30
0.0
 10
567.0342168897
 20
114.9435046994
 30
0.0
 10
567.1472451427
 20
114.1435801074
 30
0.0
 10
567.4762216243
 20
113.4065568014
 30
0.0
 10
567.6855547468
 20
113.067003718
 30
0.0
  0
SPLINE
  5
55D
100
AcDbEntity
  8
0
100
AcDbSpline
 62
7
  6
CONTINUOUS
 70
0
 71
3
 72
9
 73
5
 74
0
 42
0.0000001
 43
0.0000001
 44
0.0000000001
 40
0.0
 40
0.0
 40
0.0
 40
0.0
 40
0.5028158989
 40
1.0
 40
1.0
 40
1.0
 40
1.0
 10
568.4419130707
 20
159.381129543
 30
0.0
 10
567.9921427674
 20
158.706474088
 30
0.0
 10
567.2807641975
 20
157.2310855511
 30
0.0
 10
567.0342168897
 20
155.6093807107
 30
0.0
 10
567.0342168897
 20
154.8076275354
 30
0.0
  0
SPLINE
  5
55E
100
AcDbEntity
  8
0
100
AcDbSpline
 62
7
  6
CONTINUOUS
 70
0
 71
3
 72
9
 73
5
 74
0
 42
0.0000001
 43
0.0000001
 44
0.0000000001
 40
0.0
 40
0.0
 40
0.0
 40
0.0
 40
0.2470538753
 40
1.0
 40
1.0
 40
1.0
 40
1.0
 10
580.5785050645
 20
215.1075561631
 30
0.0
 10
580.5967793492
 20
215.1808291689
 30
0.0
 10
580.6751732448
 20
215.4763043188
 30
0.0
 10
580.7706538365
 20
215.7671716183
 30
0.0
 10
580.8506283692
 20
215.9829844184
 30
0.0
  0
LINE
  5
55F
100
AcDbEntity
  8
RUNDUNGEN
100
AcDbLine
 62
7
  6
CONTINUOUS
 10
592.7196048331
 20
173.4309030687
 11
592.7281725225
 21
173.4214316095
  0
SPLINE
  5
560
100
AcDbEntity
  8
RUNDUNGEN
100
AcDbSpline
 62
7
  6
CONTINUOUS
 70
0
 71
3
 72
9
 73
5
 74
0
 42
0.0000001
 43
0.0000001
 44
0.0000000001
 40
0.0
 40
0.0
 40
0.0
 40
0.0
 40
0.4990356833
 40
1.0
 40
1.0
 40
1.0
 40
1.0
 10
603.0342168897
 20
115.3405676151
 30
0.0
 10
603.0342168897
 20
114.976531972
 30
0.0
 10
602.9394558824
 20
114.2440018826
 30
0.0
 10
602.6622464209
 20
113.5598926244
 30
0.0
 10
602.4845827108
 20
113.240543512
 30
0.0
  0
SPLINE
  5
561
100
AcDbEntity
  8
0
100
AcDbSpline
 62
7
  6
CONTINUOUS
 70
0
 71
3
 72
9
 73
5
 74
0
 42
0.0000001
 43
0.0000001
 44
0.0000000001
 40
0.0
 40
0.0
 40
0.0
 40
0.0
 40
0.4955964812
 40
1.0
 40
1.0
 40
1.0
 40
1.0
 10
569.6130134513
 20
134.4457550545
 30
0.0
 10
570.104463237
 20
133.7141034841
 30
0.0
 10
571.2207051033
 20
132.3182193368
 30
0.0
 10
572.5441623777
 20
131.118111844
 30
0.0
 10
573.2526804865
 20
130.5679355004
 30
0.0
  0
SPLINE
  5
562
100
AcDbEntity
  8
RUNDUNGEN
100
AcDbSpline
 62
7
  6
CONTINUOUS
 70
0
 71
3
 72
9
 73
5
 74
0
 42
0.0000001
 43
0.0000001
 44
0.0000000001
 40
0.0
 40
0.0
 40
0.0
 40
0.0
 40
0.5028158989
 40
1.0
 40
1.0
 40
1.0
 40
1.0
 10
601.6265207086
 20
159.381129543
 30
0.0
 10
602.076291012
 20
158.706474088
 30
0.0
 10
602.7876695818
 20
157.2310855511
 30
0.0
 10
603.0342168897
 20
155.6093807107
 30
0.0
 10
603.0342168897
 20
154.8076275354
 30
0.0
  0
SPLINE
  5
563
100
AcDbEntity
  8
0
100
AcDbSpline
 62
7
  6
CONTINUOUS
 70
0
 71
3
 72
17
 73
13
 74
0
 42
0.0000001
 43
0.0000001
 44
0.0000000001
 40
0.0
 40
0.0
 40
0.0
 40
0.0
 40
0.0585571697
 40
0.1182880329
 40
0.2413577215
 40
0.3692515158
 40
0.5
 40
0.6307484842
 40
0.7586422785
 40
0.8817119671
 40
0.9414428303
 40
1.0
 40
1.0
 40
1.0
 40
1.0
 10
571.3723062231
 20
132.2671592542
 30
0.0
 10
571.6290152017
 20
131.661716202
 30
0.0
 10
572.2535165537
 20
130.480770247
 30
0.0
 10
573.8989628374
 20
128.314692245
 30
0.0
 10
576.6473989368
 20
126.0719725595
 30
0.0
 10
580.6479525716
 20
124.3906375709
 30
0.0
 10
585.0342168897
 20
123.8135933469
 30
0.0
 10
589.4204812077
 20
124.3906375709
 30
0.0
 10
593.4210348426
 20
126.0719725595
 30
0.0
 10
596.1694709419
 20
128.314692245
 30
0.0
 10
597.8149172257
 20
130.480770247
 30
0.0
 10
598.4394185776
 20
131.661716202
 30
0.0
 10
598.6961275563
 20
132.2671592542
 30
0.0
  0
SPLINE
  5
564
100
AcDbEntity
  8
0
100
AcDbSpline
 62
7
  6
CONTINUOUS
 70
0
 71
3
 72
9
 73
5
 74
0
 42
0.0000001
 43
0.0000001
 44
0.0000000001
 40
0.0
 40
0.0
 40
0.0
 40
0.0
 40
0.5044066751
 40
1.0
 40
1.0
 40
1.0
 40
1.0
 10
596.8125653303
 20
130.5654605795
 30
0.0
 10
597.5217484814
 20
131.1158925908
 30
0.0
 10
598.8464245894
 20
132.3166786869
 30
0.0
 10
599.9636030596
 20
133.71355639
 30
0.0
 10
600.4554203281
 20
134.4457550545
 30
0.0
  0
SPLINE
  5
565
100
AcDbEntity
  8
0
100
AcDbSpline
 62
7
  6
CONTINUOUS
 70
0
 71
3
 72
9
 73
5
 74
0
 42
0.0000001
 43
0.0000001
 44
0.0000000001
 40
0.0
 40
0.0
 40
0.0
 40
0.0
 40
0.2470538752
 40
1.0
 40
1.0
 40
1.0
 40
1.0
 10
589.4899287148
 20
215.1075561631
 30
0.0
 10
589.4716544302
 20
215.1808291689
 30
0.0
 10
589.3932605346
 20
215.4763043188
 30
0.0
 10
589.2977799429
 20
215.7671716183
 30
0.0
 10
589.2178054101
 20
215.9829844184
 30
0.0
  0
SPLINE
  5
566
100
AcDbEntity
  8
0
100
AcDbSpline
 62
7
  6
CONTINUOUS
 70
0
 71
3
 72
9
 73
5
 74
0
 42
0.0000001
 43
0.0000001
 44
0.0000000001
 40
0.0
 40
0.0
 40
0.0
 40
0.0
 40
0.2415875307
 40
1.0
 40
1.0
 40
1.0
 40
1.0
 10
569.6130134513
 20
134.4457550545
 30
0.0
 10
569.4478794942
 20
134.6916001491
 30
0.0
 10
568.7833581327
 20
135.7220263768
 30
0.0
 10
568.1841166602
 20
136.7932352837
 30
0.0
 10
567.7505492679
 20
137.6156721149
 30
0.0
  0
SPLINE
  5
567
100
AcDbEntity
  8
0
100
AcDbSpline
 62
7
  6
CONTINUOUS
 70
0
 71
3
 72
10
 73
6
 74
0
 42
0.0000001
 43
0.0000001
 44
0.0000000001
 40
0.0
 40
0.0
 40
0.0
 40
0.0
 40
0.4958514465
 40
0.7559167494
 40
1.0
 40
1.0
 40
1.0
 40
1.0
 10
568.3673812007
 20
136.4834285816
 30
0.0
 10
568.0358671618
 20
135.5257955081
 30
0.0
 10
567.5590217306
 20
134.0530480082
 30
0.0
 10
567.1333544488
 20
132.0521481519
 30
0.0
 10
567.0342168897
 20
131.0218069203
 30
0.0
 10
567.0342168897
 20
130.5229641059
 30
0.0
  0
SPLINE
  5
568
100
AcDbEntity
  8
0
100
AcDbSpline
 62
7
  6
CONTINUOUS
 70
0
 71
3
 72
9
 73
5
 74
0
 42
0.0000001
 43
0.0000001
 44
0.0000000001
 40
0.0
 40
0.0
 40
0.0
 40
0.0
 40
0.554631862
 40
1.0
 40
1.0
 40
1.0
 40
1.0
 10
567.7505492679
 20
137.6156721149
 30
0.0
 10
567.5411305701
 20
138.012919817
 30
0.0
 10
567.2076965011
 20
138.7529755154
 30
0.0
 10
567.0342168897
 20
139.5592553781
 30
0.0
 10
567.0342168897
 20
139.9198558463
 30
0.0
  0
LINE
  5
569
100
AcDbEntity
  8
BEZUGSACHSEN
100
AcDbLine
 62
7
  6
CONTINUOUS
 10
592.0490331565
 20
205.7819722057
 11
592.1435925318
 21
205.4544810176
  0
LINE
  5
56A
100
AcDbEntity
  8
BEZUGSACHSEN
100
AcDbLine
 62
7
  6
CONTINUOUS
 10
592.1435925318
 20
205.4544810176
 11
592.1701139054
 21
205.3625316005
  0
LINE
  5
56B
100
AcDbEntity
  8
BEZUGSACHSEN
100
AcDbLine
 62
7
  6
CONTINUOUS
 10
592.1701139054
 20
205.3625316005
 11
592.2344079289
 21
205.1394432796
  0
LINE
  5
56C
100
AcDbEntity
  8
BEZUGSACHSEN
100
AcDbLine
 62
7
  6
CONTINUOUS
 10
592.2344079289
 20
205.1394432796
 11
592.3148439182
 21
204.8599740212
  0
LINE
  5
56D
100
AcDbEntity
  8
BEZUGSACHSEN
100
AcDbLine
 62
7
  6
CONTINUOUS
 10
591.9805204328
 20
206.1524613267
 11
591.8489095523
 21
206.7331812648
  0
LINE
  5
56E
100
AcDbEntity
  8
BEZUGSACHSEN
100
AcDbLine
 62
7
  6
CONTINUOUS
 10
591.8489095523
 20
206.7331812648
 11
591.7519761654
 21
207.1286565966
  0
LINE
  5
56F
100
AcDbEntity
  8
BEZUGSACHSEN
100
AcDbLine
 62
7
  6
CONTINUOUS
 10
591.6249351904
 20
207.613221855
 11
591.7519761654
 21
207.1286565966
  0
LINE
  5
570
100
AcDbEntity
  8
BEZUGSACHSEN
100
AcDbLine
 62
7
  6
CONTINUOUS
 10
591.5312426321
 20
207.9445939019
 11
591.5547520956
 21
207.8614858337
  0
LINE
  5
571
100
AcDbEntity
  8
BEZUGSACHSEN
100
AcDbLine
 62
7
  6
CONTINUOUS
 10
591.5547520956
 20
207.8614858337
 11
591.6249351904
 21
207.613221855
  0
LINE
  5
572
100
AcDbEntity
  8
BEZUGSACHSEN
100
AcDbLine
 62
7
  6
CONTINUOUS
 10
591.4084049518
 20
208.3330038019
 11
591.5206116036
 21
207.9783152326
  0
LINE
  5
573
100
AcDbEntity
  8
BEZUGSACHSEN
100
AcDbLine
 62
7
  6
CONTINUOUS
 10
591.5206116036
 20
207.9783152326
 11
591.5312426321
 21
207.9445939019
  0
LINE
  5
574
100
AcDbEntity
  8
BEZUGSACHSEN
100
AcDbLine
 62
7
  6
CONTINUOUS
 10
592.7829072549
 20
202.2585350718
 11
592.1149372916
 21
204.8025012362
  0
LINE
  5
575
100
AcDbEntity
  8
BEZUGSACHSEN
100
AcDbLine
 62
7
  6
CONTINUOUS
 10
591.9240747447
 20
205.5293486148
 11
591.4468954788
 21
207.3464674007
  0
LINE
  5
576
100
AcDbEntity
  8
BEZUGSACHSEN
100
AcDbLine
 62
7
  6
CONTINUOUS
 10
591.2883071781
 20
209.867868051
 11
591.3768180637
 21
209.5163742348
  0
LINE
  5
577
100
AcDbEntity
  8
BEZUGSACHSEN
100
AcDbLine
 62
7
  6
CONTINUOUS
 10
591.3768180637
 20
209.5163742348
 11
591.6589002876
 21
208.3960722202
  0
LINE
  5
578
100
AcDbEntity
  8
BEZUGSACHSEN
100
AcDbLine
 62
7
  6
CONTINUOUS
 10
591.6589002876
 20
208.3960722202
 11
591.7581822312
 21
208.0017315943
  0
LINE
  5
579
100
AcDbEntity
  8
BEZUGSACHSEN
100
AcDbLine
 62
7
  6
CONTINUOUS
 10
591.7581822312
 20
208.0017315943
 11
591.8422204594
 21
207.6679215549
  0
LINE
  5
57A
100
AcDbEntity
  8
BEZUGSACHSEN
100
AcDbLine
 62
7
  6
CONTINUOUS
 10
591.8422204594
 20
207.6679215549
 11
591.9645063555
 21
207.1821592492
  0
LINE
  5
57B
100
AcDbEntity
  8
BEZUGSACHSEN
100
AcDbLine
 62
7
  6
CONTINUOUS
 10
591.9645063555
 20
207.1821592492
 11
592.0639027532
 21
206.7872966364
  0
LINE
  5
57C
100
AcDbEntity
  8
BEZUGSACHSEN
100
AcDbLine
 62
7
  6
CONTINUOUS
 10
592.0639027532
 20
206.7872966364
 11
592.2092055488
 21
206.2100230625
  0
LINE
  5
57D
100
AcDbEntity
  8
BEZUGSACHSEN
100
AcDbLine
 62
7
  6
CONTINUOUS
 10
592.2092055488
 20
206.2100230625
 11
592.2503796688
 21
206.0464327542
  0
LINE
  5
57E
100
AcDbEntity
  8
BEZUGSACHSEN
100
AcDbLine
 62
7
  6
CONTINUOUS
 10
592.3920863939
 20
205.0913971836
 11
592.4889178049
 21
204.7439812248
  0
LINE
  5
57F
100
AcDbEntity
  8
BEZUGSACHSEN
100
AcDbLine
 62
7
  6
CONTINUOUS
 10
592.2640245267
 20
205.5805035557
 11
592.3920863939
 21
205.0913971836
  0
LINE
  5
580
100
AcDbEntity
  8
BEZUGSACHSEN
100
AcDbLine
 62
7
  6
CONTINUOUS
 10
592.2640245267
 20
205.5805035557
 11
592.2034081438
 21
205.8208988709
  0
LINE
  5
581
100
AcDbEntity
  8
BEZUGSACHSEN
100
AcDbLine
 62
7
  6
CONTINUOUS
 10
592.2034081438
 20
205.8208988709
 11
592.1114762352
 21
206.1854826885
  0
LINE
  5
582
100
AcDbEntity
  8
BEZUGSACHSEN
100
AcDbLine
 62
7
  6
CONTINUOUS
 10
592.1114762352
 20
206.1854826885
 11
592.0201089106
 21
206.5478227395
  0
LINE
  5
583
100
AcDbEntity
  8
BEZUGSACHSEN
100
AcDbLine
 62
7
  6
CONTINUOUS
 10
592.0201089106
 20
206.5478227395
 11
591.965927861
 21
206.7626891222
  0
LINE
  5
584
100
AcDbEntity
  8
BEZUGSACHSEN
100
AcDbLine
 62
7
  6
CONTINUOUS
 10
591.965927861
 20
206.7626891222
 11
591.8663700245
 21
207.1575026603
  0
LINE
  5
585
100
AcDbEntity
  8
BEZUGSACHSEN
100
AcDbLine
 62
7
  6
CONTINUOUS
 10
591.8663700245
 20
207.1575026603
 11
591.7744341147
 21
207.5220856279
  0
LINE
  5
586
100
AcDbEntity
  8
BEZUGSACHSEN
100
AcDbLine
 62
7
  6
CONTINUOUS
 10
591.7744341147
 20
207.5220856279
 11
591.7438881311
 21
207.6432184879
  0
LINE
  5
587
100
AcDbEntity
  8
BEZUGSACHSEN
100
AcDbLine
 62
7
  6
CONTINUOUS
 10
591.7438881311
 20
207.6432184879
 11
591.6597200355
 21
207.976992338
  0
LINE
  5
588
100
AcDbEntity
  8
BEZUGSACHSEN
100
AcDbLine
 62
7
  6
CONTINUOUS
 10
591.6597200355
 20
207.976992338
 11
591.5602850307
 21
208.3713037475
  0
LINE
  5
589
100
AcDbEntity
  8
BEZUGSACHSEN
100
AcDbLine
 62
7
  6
CONTINUOUS
 10
591.5602850307
 20
208.3713037475
 11
591.5270007042
 21
208.5032923599
  0
LINE
  5
58A
100
AcDbEntity
  8
BEZUGSACHSEN
100
AcDbLine
 62
7
  6
CONTINUOUS
 10
591.5270007042
 20
208.5032923599
 11
591.4990834321
 21
208.6139975936
  0
LINE
  5
58B
100
AcDbEntity
  8
BEZUGSACHSEN
100
AcDbLine
 62
7
  6
CONTINUOUS
 10
591.4990834321
 20
208.6139975936
 11
591.2995534192
 21
209.4052188474
  0
LINE
  5
58C
100
AcDbEntity
  8
BEZUGSACHSEN
100
AcDbLine
 62
7
  6
CONTINUOUS
 10
591.2995534192
 20
209.4052188474
 11
591.2778091591
 21
209.4914430538
  0
LINE
  5
58D
100
AcDbEntity
  8
BEZUGSACHSEN
100
AcDbLine
 62
7
  6
CONTINUOUS
 10
592.7765846582
 20
203.7793878306
 11
592.7680590709
 21
203.8303545874
  0
LINE
  5
58E
100
AcDbEntity
  8
BEZUGSACHSEN
100
AcDbLine
 62
7
  6
CONTINUOUS
 10
592.673871551
 20
204.2976445989
 11
592.6080559999
 21
204.579468894
  0
LINE
  5
58F
100
AcDbEntity
  8
BEZUGSACHSEN
100
AcDbLine
 62
7
  6
CONTINUOUS
 10
592.6080559999
 20
204.579468894
 11
592.5747570018
 21
204.7215483058
  0
LINE
  5
590
100
AcDbEntity
  8
BEZUGSACHSEN
100
AcDbLine
 62
7
  6
CONTINUOUS
 10
592.5747570018
 20
204.7215483058
 11
592.5652808652
 21
204.7619199161
  0
LINE
  5
591
100
AcDbEntity
  8
BEZUGSACHSEN
100
AcDbLine
 62
7
  6
CONTINUOUS
 10
592.5652808652
 20
204.7619199161
 11
592.5411969528
 21
204.8644058521
  0
LINE
  5
592
100
AcDbEntity
  8
BEZUGSACHSEN
100
AcDbLine
 62
7
  6
CONTINUOUS
 10
592.5411969528
 20
204.8644058521
 11
592.4762838937
 21
205.1313823129
  0
LINE
  5
593
100
AcDbEntity
  8
BEZUGSACHSEN
100
AcDbLine
 62
7
  6
CONTINUOUS
 10
592.4762838937
 20
205.1313823129
 11
592.4436445885
 21
205.2655254255
  0
LINE
  5
594
100
AcDbEntity
  8
BEZUGSACHSEN
100
AcDbLine
 62
7
  6
CONTINUOUS
 10
592.4436445885
 20
205.2655254255
 11
592.410883508
 21
205.4001051435
  0
LINE
  5
595
100
AcDbEntity
  8
BEZUGSACHSEN
100
AcDbLine
 62
7
  6
CONTINUOUS
 10
592.410883508
 20
205.4001051435
 11
592.360159486
 21
205.6043764167
  0
LINE
  5
596
100
AcDbEntity
  8
BEZUGSACHSEN
100
AcDbLine
 62
7
  6
CONTINUOUS
 10
592.360159486
 20
205.6043764167
 11
592.3307916842
 21
205.7226385291
  0
LINE
  5
597
100
AcDbEntity
  8
BEZUGSACHSEN
100
AcDbLine
 62
7
  6
CONTINUOUS
 10
592.3307916842
 20
205.7226385291
 11
592.2503796688
 21
206.0464327542
  0
SPLINE
  5
598
100
AcDbEntity
  8
0
100
AcDbSpline
 62
7
  6
CONTINUOUS
 70
0
 71
3
 72
11
 73
7
 74
0
 42
0.0000001
 43
0.0000001
 44
0.0000000001
 40
0.0
 40
0.0
 40
0.0
 40
0.0
 40
0.2642372364
 40
0.5182086343
 40
0.7622007161
 40
1.0
 40
1.0
 40
1.0
 40
1.0
 10
587.9545426013
 20
155.4504623962
 30
0.0
 10
588.6157998074
 20
155.2083737628
 30
0.0
 10
589.8586379335
 20
154.5620797405
 30
0.0
 10
591.3500341212
 20
153.1412728694
 30
0.0
 10
592.3114512695
 20
151.3952070942
 30
0.0
 10
592.5342261506
 20
150.1014436437
 30
0.0
 10
592.5342167072
 20
149.4677205046
 30
0.0
  0
SPLINE
  5
599
100
AcDbEntity
  8
KONSTRUKTIONSELEMENTE
100
AcDbSpline
 62
7
  6
CONTINUOUS
 70
0
 71
3
 72
9
 73
5
 74
0
 42
0.0000001
 43
0.0000001
 44
0.0000000001
 40
0.0
 40
0.0
 40
0.0
 40
0.0
 40
0.2218857587
 40
1.0
 40
1.0
 40
1.0
 40
1.0
 10
602.3178845115
 20
118.5988564483
 30
0.0
 10
602.165989403
 20
118.4499654787
 30
0.0
 10
601.4957134087
 20
117.7643942388
 30
0.0
 10
600.8913587618
 20
117.0154667303
 30
0.0
 10
600.4554203281
 20
116.4102240905
 30
0.0
  0
SPLINE
  5
59A
100
AcDbEntity
  8
0
100
AcDbSpline
 62
7
  6
CONTINUOUS
 70
0
 71
3
 72
9
 73
5
 74
0
 42
0.0000001
 43
0.0000001
 44
0.0000000001
 40
0.0
 40
0.0
 40
0.0
 40
0.0
 40
0.5000000002
 40
1.0
 40
1.0
 40
1.0
 40
1.0
 10
580.8506283692
 20
215.9829844184
 30
0.0
 10
580.5417257627
 20
214.35225671
 30
0.0
 10
580.1972079564
 20
211.0271064233
 30
0.0
 10
580.5417257629
 20
207.7019561368
 30
0.0
 10
580.8506283692
 20
206.0712284298
 30
0.0
  0
SPLINE
  5
59B
100
AcDbEntity
  8
0
100
AcDbSpline
 62
7
  6
CONTINUOUS
 70
0
 71
3
 72
9
 73
5
 74
0
 42
0.0000001
 43
0.0000001
 44
0.0000000001
 40
0.0
 40
0.0
 40
0.0
 40
0.0
 40
0.5001080858
 40
1.0
 40
1.0
 40
1.0
 40
1.0
 10
580.8506283692
 20
206.0712284298
 30
0.0
 10
580.6271304739
 20
203.5590490471
 30
0.0
 10
580.324759417
 20
198.521301419
 30
0.0
 10
580.3604222477
 20
193.4739444881
 30
0.0
 10
580.4613526982
 20
190.9549542704
 30
0.0
  0
SPLINE
  5
59C
100
AcDbEntity
  8
0
100
AcDbSpline
 62
7
  6
CONTINUOUS
 70
0
 71
3
 72
21
 73
17
 74
0
 42
0.0000001
 43
0.0000001
 44
0.0000000001
 40
0.0
 40
0.0
 40
0.0
 40
0.0
 40
0.0580894532
 40
0.116890925
 40
0.1769961556
 40
0.2387585136
 40
0.3022670717
 40
0.367347063
 40
0.5
 40
0.632652937
 40
0.6977329283
 40
0.7612414864
 40
0.8230038444
 40
0.883109075
 40
0.9419105468
 40
1.0
 40
1.0
 40
1.0
 40
1.0
 10
599.5878579029
 20
129.511174393
 30
0.0
 10
599.5878579029
 20
128.6862389368
 30
0.0
 10
599.3974517706
 20
127.0202633754
 30
0.0
 10
598.5548469686
 20
124.631352182
 30
0.0
 10
597.1912203747
 20
122.4351193984
 30
0.0
 10
595.3629203743
 20
120.5169051664
 30
0.0
 10
593.1419169648
 20
118.9471316876
 30
0.0
 10
589.7565840794
 20
117.3874913387
 30
0.0
 10
585.0342168897
 20
116.5852405539
 30
0.0
 10
580.3118496999
 20
117.3874913387
 30
0.0
 10
576.9265168145
 20
118.9471316876
 30
0.0
 10
574.705513405
 20
120.5169051664
 30
0.0
 10
572.8772134047
 20
122.4351193984
 30
0.0
 10
571.5135868107
 20
124.631352182
 30
0.0
 10
570.6709820088
 20
127.0202633754
 30
0.0
 10
570.4805758764
 20
128.6862389368
 30
0.0
 10
570.4805758764
 20
129.511174393
 30
0.0
  0
SPLINE
  5
59D
100
AcDbEntity
  8
0
100
AcDbSpline
 62
7
  6
CONTINUOUS
 70
0
 71
3
 72
9
 73
5
 74
0
 42
0.0000001
 43
0.0000001
 44
0.0000000001
 40
0.0
 40
0.0
 40
0.0
 40
0.0
 40
0.5073891696
 40
1.0
 40
1.0
 40
1.0
 40
1.0
 10
585.0342168897
 20
123.1628834237
 30
0.0
 10
584.1173423152
 20
123.1628834237
 30
0.0
 10
582.2990544762
 20
123.4393728354
 30
0.0
 10
580.6523826803
 20
124.2703788691
 30
0.0
 10
579.93923959
 20
124.8031345435
 30
0.0
  0
SPLINE
  5
59E
100
AcDbEntity
  8
0
100
AcDbSpline
 62
7
  6
CONTINUOUS
 70
0
 71
3
 72
15
 73
11
 74
0
 42
0.0000001
 43
0.0000001
 44
0.0000000001
 40
0.0
 40
0.0
 40
0.0
 40
0.0
 40
0.1179972678
 40
0.2414548469
 40
0.3694525932
 40
0.5
 40
0.6305474068
 40
0.7585451531
 40
0.8820027322
 40
1.0
 40
1.0
 40
1.0
 40
1.0
 10
600.4554203281
 20
116.4102240905
 30
0.0
 10
599.6440035509
 20
115.2836796196
 30
0.0
 10
597.6489451506
 20
113.2060648399
 30
0.0
 10
593.9181551109
 20
110.8993303084
 30
0.0
 10
589.6211832044
 20
109.4570722548
 30
0.0
 10
585.0342168897
 20
108.9672585054
 30
0.0
 10
580.4472505749
 20
109.4570722548
 30
0.0
 10
576.1502786684
 20
110.8993303084
 30
0.0
 10
572.4194886288
 20
113.2060648399
 30
0.0
 10
570.4244302284
 20
115.2836796196
 30
0.0
 10
569.6130134513
 20
116.4102240905
 30
0.0
  0
SPLINE
  5
59F
100
AcDbEntity
  8
0
100
AcDbSpline
 62
7
  6
CONTINUOUS
 70
0
 71
3
 72
11
 73
7
 74
0
 42
0.0000001
 43
0.0000001
 44
0.0000000001
 40
0.0
 40
0.0
 40
0.0
 40
0.0
 40
0.2377992839
 40
0.4817913657
 40
0.7357627636
 40
1.0
 40
1.0
 40
1.0
 40
1.0
 10
577.5342170722
 20
149.4677205046
 30
0.0
 10
577.5342076287
 20
150.1014436437
 30
0.0
 10
577.7569825098
 20
151.3952070942
 30
0.0
 10
578.7183996582
 20
153.1412728694
 30
0.0
 10
580.2097958459
 20
154.5620797405
 30
0.0
 10
581.452633972
 20
155.2083737628
 30
0.0
 10
582.1138911781
 20
155.4504623962
 30
0.0
  0
SPLINE
  5
5A0
100
AcDbEntity
  8
0
100
AcDbSpline
 62
7
  6
CONTINUOUS
 70
0
 71
3
 72
13
 73
9
 74
0
 42
0.0000001
 43
0.0000001
 44
0.0000000001
 40
0.0
 40
0.0
 40
0.0
 40
0.0
 40
0.1227483014
 40
0.2475201384
 40
0.4999963308
 40
0.7524745832
 40
0.8772487664
 40
1.0
 40
1.0
 40
1.0
 40
1.0
 10
573.2526804865
 20
130.5679355004
 30
0.0
 10
574.0678840789
 20
129.9349160671
 30
0.0
 10
575.8279065291
 20
128.800864527
 30
0.0
 10
579.7073675772
 20
127.1406553243
 30
0.0
 10
585.0320892554
 20
126.2841080356
 30
0.0
 10
590.3570057012
 20
127.1395442194
 30
0.0
 10
594.2368836949
 20
128.7989327624
 30
0.0
 10
595.9971970608
 20
129.9326130621
 30
0.0
 10
596.8125653303
 20
130.5654605795
 30
0.0
  0
SPLINE
  5
5A1
100
AcDbEntity
  8
KONSTRUKTIONSELEMENTE
100
AcDbSpline
 62
7
  6
CONTINUOUS
 70
0
 71
3
 72
10
 73
6
 74
0
 42
0.0000001
 43
0.0000001
 44
0.0000000001
 40
0.0
 40
0.0
 40
0.0
 40
0.0
 40
0.2883793501
 40
0.5560775973
 40
1.0
 40
1.0
 40
1.0
 40
1.0
 10
603.0342168897
 20
120.7612793839
 30
0.0
 10
603.0342168897
 20
120.5376392366
 30
0.0
 10
603.0076615954
 20
120.1049298109
 30
0.0
 10
602.8410826716
 20
119.347205031
 30
0.0
 10
602.5637355621
 20
118.8398451257
 30
0.0
 10
602.3178845115
 20
118.5988564483
 30
0.0
  0
SPLINE
  5
5A2
100
AcDbEntity
  8
0
100
AcDbSpline
 62
7
  6
CONTINUOUS
 70
0
 71
3
 72
9
 73
5
 74
0
 42
0.0000001
 43
0.0000001
 44
0.0000000001
 40
0.0
 40
0.0
 40
0.0
 40
0.0
 40
0.5019420666
 40
1.0
 40
1.0
 40
1.0
 40
1.0
 10
585.0342168897
 20
155.9925584397
 30
0.0
 10
585.5331280265
 20
155.9925584397
 30
0.0
 10
586.5292981651
 20
155.8948738887
 30
0.0
 10
587.4896669036
 20
155.6206550555
 30
0.0
 10
587.9545426013
 20
155.4504623962
 30
0.0
  0
SPLINE
  5
5A3
100
AcDbEntity
  8
0
100
AcDbSpline
 62
7
  6
CONTINUOUS
 70
0
 71
3
 72
9
 73
5
 74
0
 42
0.0000001
 43
0.0000001
 44
0.0000000001
 40
0.0
 40
0.0
 40
0.0
 40
0.0
 40
0.4980582343
 40
1.0
 40
1.0
 40
1.0
 40
1.0
 10
582.1138911781
 20
155.4504623962
 30
0.0
 10
582.5787671565
 20
155.6206551583
 30
0.0
 10
583.5391359204
 20
155.8948739301
 30
0.0
 10
584.5353060521
 20
155.9925584397
 30
0.0
 10
585.0342168897
 20
155.9925584397
 30
0.0
  0
SPLINE
  5
5A4
100
AcDbEntity
  8
0
100
AcDbSpline
 62
7
  6
CONTINUOUS
 70
0
 71
3
 72
9
 73
5
 74
0
 42
0.0000001
 43
0.0000001
 44
0.0000000001
 40
0.0
 40
0.0
 40
0.0
 40
0.0
 40
0.5078964165
 40
1.0
 40
1.0
 40
1.0
 40
1.0
 10
579.9272687587
 20
157.4714069292
 30
0.0
 10
579.647458266
 20
157.0989908904
 30
0.0
 10
579.0539639829
 20
156.397389191
 30
0.0
 10
578.4007015263
 20
155.7517572423
 30
0.0
 10
578.0646590449
 20
155.4504623962
 30
0.0
  0
SPLINE
  5
5A5
100
AcDbEntity
  8
RUNDUNGEN
100
AcDbSpline
 62
7
  6
CONTINUOUS
 70
0
 71
3
 72
9
 73
5
 74
0
 42
0.0000001
 43
0.0000001
 44
0.0000000001
 40
0.0
 40
0.0
 40
0.0
 40
0.0
 40
0.5078964165
 40
1.0
 40
1.0
 40
1.0
 40
1.0
 10
590.1411650207
 20
157.4714069292
 30
0.0
 10
590.4209755133
 20
157.0989908904
 30
0.0
 10
591.0144697964
 20
156.397389191
 30
0.0
 10
591.667732253
 20
155.7517572423
 30
0.0
 10
592.0037747345
 20
155.4504623962
 30
0.0
  0
SPLINE
  5
5A6
100
AcDbEntity
  8
0
100
AcDbSpline
 62
7
  6
CONTINUOUS
 70
0
 71
3
 72
9
 73
5
 74
0
 42
0.0000001
 43
0.0000001
 44
0.0000000001
 40
0.0
 40
0.0
 40
0.0
 40
0.0
 40
0.4926108304
 40
1.0
 40
1.0
 40
1.0
 40
1.0
 10
590.1291941894
 20
124.8031345435
 30
0.0
 10
589.416051099
 20
124.2703788691
 30
0.0
 10
587.7693793032
 20
123.4393728354
 30
0.0
 10
585.9510914641
 20
123.1628834237
 30
0.0
 10
585.0342168897
 20
123.1628834237
 30
0.0
  0
LINE
  5
5A7
100
AcDbEntity
  8
BEZUGSACHSEN
100
AcDbLine
 62
7
  6
CONTINUOUS
 10
592.1175759562
 20
205.3473796622
 11
592.2630566626
 21
204.8454211858
  0
LINE
  5
5A8
100
AcDbEntity
  8
BEZUGSACHSEN
100
AcDbLine
 62
7
  6
CONTINUOUS
 10
592.2630566626
 20
204.8454211858
 11
592.2874682608
 21
204.7610858884
  0
SPLINE
  5
5A9
100
AcDbEntity
  8
BEZUGSACHSEN
100
AcDbSpline
 62
7
  6
CONTINUOUS
 70
0
 71
3
 72
8
 73
4
 74
0
 42
0.0000001
 43
0.0000001
 44
0.0000000001
 40
0.0
 40
0.0
 40
0.0
 40
0.0
 40
1.0
 40
1.0
 40
1.0
 40
1.0
 10
592.2874682608
 20
204.7610858884
 30
0.0
 10
592.4312496137
 20
204.2642683819
 30
0.0
 10
592.5745936391
 20
203.7673240125
 30
0.0
 10
592.7174119195
 20
203.2702287993
 30
0.0
  0
LINE
  5
5AA
100
AcDbEntity
  8
BEZUGSACHSEN
100
AcDbLine
 62
7
  6
CONTINUOUS
 10
592.7174119195
 20
203.2702287993
 11
592.7778272348
 21
203.0598268666
  0
SPLINE
  5
5AB
100
AcDbEntity
  8
0
100
AcDbSpline
 62
7
  6
CONTINUOUS
 70
0
 71
3
 72
9
 73
5
 74
0
 42
0.0000001
 43
0.0000001
 44
0.0000000001
 40
0.0
 40
0.0
 40
0.0
 40
0.0
 40
0.2218857587
 40
1.0
 40
1.0
 40
1.0
 40
1.0
 10
567.7505492679
 20
118.5988564483
 30
0.0
 10
567.9024443764
 20
118.4499654787
 30
0.0
 10
568.5727203706
 20
117.7643942388
 30
0.0
 10
569.1770750175
 20
117.0154667303
 30
0.0
 10
569.6130134513
 20
116.4102240905
 30
0.0
  0
LINE
  5
5AC
100
AcDbEntity
  8
BEZUGSACHSEN
100
AcDbLine
 62
7
  6
CONTINUOUS
 10
592.7754459416
 20
202.0662250337
 11
592.7287349687
 21
202.2443263828
  0
LINE
  5
5AD
100
AcDbEntity
  8
BEZUGSACHSEN
100
AcDbLine
 62
7
  6
CONTINUOUS
 10
592.7287349687
 20
202.2443263828
 11
592.061370366
 21
204.7884483043
  0
LINE
  5
5AE
100
AcDbEntity
  8
BEZUGSACHSEN
100
AcDbLine
 62
7
  6
CONTINUOUS
 10
592.061370366
 20
204.7884483043
 11
592.039481825
 21
204.8718793071
  0
LINE
  5
5AF
100
AcDbEntity
  8
BEZUGSACHSEN
100
AcDbLine
 62
7
  6
CONTINUOUS
 10
592.039481825
 20
204.8718793071
 11
591.9277925696
 21
205.2975864038
  0
LINE
  5
5B0
100
AcDbEntity
  8
BEZUGSACHSEN
100
AcDbLine
 62
7
  6
CONTINUOUS
 10
591.9277925696
 20
205.2975864038
 11
591.8706619361
 21
205.5153347129
  0
LINE
  5
5B1
100
AcDbEntity
  8
BEZUGSACHSEN
100
AcDbLine
 62
7
  6
CONTINUOUS
 10
591.8706619361
 20
205.5153347129
 11
591.3938367625
 21
207.3325440071
  0
LINE
  5
5B2
100
AcDbEntity
  8
BEZUGSACHSEN
100
AcDbLine
 62
7
  6
CONTINUOUS
 10
591.3938367625
 20
207.3325440071
 11
591.2817000857
 21
207.7598635114
  0
SPLINE
  5
5B3
100
AcDbEntity
  8
KONSTRUKTIONSELEMENTE
100
AcDbSpline
 62
7
  6
CONTINUOUS
 70
0
 71
3
 72
8
 73
4
 74
0
 42
0.0000001
 43
0.0000001
 44
0.0000000001
 40
0.0
 40
0.0
 40
0.0
 40
0.0
 40
1.0
 40
1.0
 40
1.0
 40
1.0
 10
590.7322046321
 20
207.7598635114
 30
0.0
 10
591.2300130254
 20
205.8620289458
 30
0.0
 10
591.7276876051
 20
203.9641592645
 30
0.0
 10
592.2251158815
 20
202.0662250337
 30
0.0
  0
LINE
  5
5B4
100
AcDbEntity
  8
BEZUGSACHSEN
100
AcDbLine
 62
7
  6
CONTINUOUS
 10
591.4775399244
 20
207.9304629467
 11
591.5084665324
 21
207.841148655
  0
LINE
  5
5B5
100
AcDbEntity
  8
BEZUGSACHSEN
100
AcDbLine
 62
7
  6
CONTINUOUS
 10
591.5084665324
 20
207.841148655
 11
591.5238390382
 21
207.7966600698
  0
LINE
  5
5B6
100
AcDbEntity
  8
BEZUGSACHSEN
100
AcDbLine
 62
7
  6
CONTINUOUS
 10
591.5238390382
 20
207.7966600698
 11
591.5391510648
 21
207.7522838638
  0
LINE
  5
5B7
100
AcDbEntity
  8
BEZUGSACHSEN
100
AcDbLine
 62
7
  6
CONTINUOUS
 10
591.5391510648
 20
207.7522838638
 11
591.5863939511
 21
207.5862572704
  0
LINE
  5
5B8
100
AcDbEntity
  8
BEZUGSACHSEN
100
AcDbLine
 62
7
  6
CONTINUOUS
 10
591.5863939511
 20
207.5862572704
 11
591.6334160031
 21
207.4209118169
  0
LINE
  5
5B9
100
AcDbEntity
  8
BEZUGSACHSEN
100
AcDbLine
 62
7
  6
CONTINUOUS
 10
591.6334160031
 20
207.4209118169
 11
591.7287995356
 21
207.0574877883
  0
LINE
  5
5BA
100
AcDbEntity
  8
BEZUGSACHSEN
100
AcDbLine
 62
7
  6
CONTINUOUS
 10
591.8253423633
 20
206.6620124565
 11
591.7287995356
 21
207.0574877883
  0
LINE
  5
5BB
100
AcDbEntity
  8
BEZUGSACHSEN
100
AcDbLine
 62
7
  6
CONTINUOUS
 10
591.8910331099
 20
206.3556266204
 11
591.8253423633
 21
206.6620124565
  0
SPLINE
  5
5BC
100
AcDbEntity
  8
0
100
AcDbSpline
 62
7
  6
CONTINUOUS
 70
0
 71
3
 72
9
 73
5
 74
0
 42
0.0000001
 43
0.0000001
 44
0.0000000001
 40
0.0
 40
0.0
 40
0.0
 40
0.0
 40
0.5001080858
 40
1.0
 40
1.0
 40
1.0
 40
1.0
 10
589.2178054101
 20
206.0712284298
 30
0.0
 10
589.4413033054
 20
203.5590490471
 30
0.0
 10
589.7436743623
 20
198.521301419
 30
0.0
 10
589.7080115317
 20
193.4739444881
 30
0.0
 10
589.6070810812
 20
190.9549542704
 30
0.0
  0
LINE
  5
5BD
100
AcDbEntity
  8
BEZUGSACHSEN
100
AcDbLine
 62
7
  6
CONTINUOUS
 10
591.2736863169
 20
209.8641864126
 11
591.3622726256
 21
209.5127322637
  0
LINE
  5
5BE
100
AcDbEntity
  8
BEZUGSACHSEN
100
AcDbLine
 62
7
  6
CONTINUOUS
 10
591.3622726256
 20
209.5127322637
 11
591.6446129363
 21
208.3925367254
  0
LINE
  5
5BF
100
AcDbEntity
  8
BEZUGSACHSEN
100
AcDbLine
 62
7
  6
CONTINUOUS
 10
591.6446129363
 20
208.3925367254
 11
591.7439952078
 21
207.9982152216
  0
LINE
  5
5C0
100
AcDbEntity
  8
BEZUGSACHSEN
100
AcDbLine
 62
7
  6
CONTINUOUS
 10
591.7439952078
 20
207.9982152216
 11
591.8281187633
 21
207.6644280672
  0
LINE
  5
5C1
100
AcDbEntity
  8
BEZUGSACHSEN
100
AcDbLine
 62
7
  6
CONTINUOUS
 10
591.8281187633
 20
207.6644280672
 11
591.9505329728
 21
207.1786967711
  0
LINE
  5
5C2
100
AcDbEntity
  8
BEZUGSACHSEN
100
AcDbLine
 62
7
  6
CONTINUOUS
 10
591.9505329728
 20
207.1786967711
 11
592.016005264
 21
206.9189002294
  0
LINE
  5
5C3
100
AcDbEntity
  8
BEZUGSACHSEN
100
AcDbLine
 62
7
  6
CONTINUOUS
 10
592.016005264
 20
206.9189002294
 11
592.0500353745
 21
206.7838654939
  0
LINE
  5
5C4
100
AcDbEntity
  8
BEZUGSACHSEN
100
AcDbLine
 62
7
  6
CONTINUOUS
 10
592.0500353745
 20
206.7838654939
 11
592.1954989533
 21
206.2066364704
  0
LINE
  5
5C5
100
AcDbEntity
  8
BEZUGSACHSEN
100
AcDbLine
 62
7
  6
CONTINUOUS
 10
592.1954989533
 20
206.2066364704
 11
592.2367360591
 21
206.0429945239
  0
LINE
  5
5C6
100
AcDbEntity
  8
BEZUGSACHSEN
100
AcDbLine
 62
7
  6
CONTINUOUS
 10
592.2367360591
 20
206.0429945239
 11
592.2593518625
 21
205.9532469145
  0
LINE
  5
5C7
100
AcDbEntity
  8
KONSTRUKTIONSELEMENTE
100
AcDbLine
 62
7
  6
CONTINUOUS
 10
590.8345579678
 20
209.4914433035
 11
590.8289414714
 21
209.5137203612
  0
LINE
  5
5C8
100
AcDbEntity
  8
KONSTRUKTIONSELEMENTE
100
AcDbLine
 62
7
  6
CONTINUOUS
 10
590.8289414714
 20
209.5137203612
 11
590.7405812126
 21
209.8641864126
  0
LINE
  5
5C9
100
AcDbEntity
  8
BEZUGSACHSEN
100
AcDbLine
 62
7
  6
CONTINUOUS
 10
592.3877275274
 20
205.4330786254
 11
592.3236745148
 21
205.6926421154
  0
LINE
  5
5CA
100
AcDbEntity
  8
BEZUGSACHSEN
100
AcDbLine
 62
7
  6
CONTINUOUS
 10
592.3236745148
 20
205.6926421154
 11
592.291546883
 21
205.8228143487
  0
LINE
  5
5CB
100
AcDbEntity
  8
BEZUGSACHSEN
100
AcDbLine
 62
7
  6
CONTINUOUS
 10
592.291546883
 20
205.8228143487
 11
592.2593518625
 21
205.9532469145
  0
LINE
  5
5CC
100
AcDbEntity
  8
BEZUGSACHSEN
100
AcDbLine
 62
7
  6
CONTINUOUS
 10
592.4853030906
 20
205.0235387438
 11
592.4610512705
 21
205.1254454086
  0
LINE
  5
5CD
100
AcDbEntity
  8
BEZUGSACHSEN
100
AcDbLine
 62
7
  6
CONTINUOUS
 10
592.4610512705
 20
205.1254454086
 11
592.4122634747
 21
205.3302153464
  0
LINE
  5
5CE
100
AcDbEntity
  8
BEZUGSACHSEN
100
AcDbLine
 62
7
  6
CONTINUOUS
 10
592.4122634747
 20
205.3302153464
 11
592.3877275274
 21
205.4330786254
  0
LINE
  5
5CF
100
AcDbEntity
  8
BEZUGSACHSEN
100
AcDbLine
 62
7
  6
CONTINUOUS
 10
592.5515508216
 20
204.7246270925
 11
592.5351198427
 21
204.7990865291
  0
LINE
  5
5D0
100
AcDbEntity
  8
BEZUGSACHSEN
100
AcDbLine
 62
7
  6
CONTINUOUS
 10
592.5351198427
 20
204.7990865291
 11
592.5186015683
 21
204.8737249507
  0
LINE
  5
5D1
100
AcDbEntity
  8
BEZUGSACHSEN
100
AcDbLine
 62
7
  6
CONTINUOUS
 10
592.5186015683
 20
204.8737249507
 11
592.5019959876
 21
204.948542356
  0
LINE
  5
5D2
100
AcDbEntity
  8
BEZUGSACHSEN
100
AcDbLine
 62
7
  6
CONTINUOUS
 10
592.5019959876
 20
204.948542356
 11
592.4853030906
 21
205.0235387438
  0
LINE
  5
5D3
100
AcDbEntity
  8
BEZUGSACHSEN
100
AcDbLine
 62
7
  6
CONTINUOUS
 10
592.5856327078
 20
204.5363438482
 11
592.5687698079
 21
204.6304880435
  0
LINE
  5
5D4
100
AcDbEntity
  8
BEZUGSACHSEN
100
AcDbLine
 62
7
  6
CONTINUOUS
 10
592.5687698079
 20
204.6304880435
 11
592.5602046616
 21
204.6775582054
  0
LINE
  5
5D5
100
AcDbEntity
  8
BEZUGSACHSEN
100
AcDbLine
 62
7
  6
CONTINUOUS
 10
592.5602046616
 20
204.6775582054
 11
592.5515508216
 21
204.7246270925
  0
SPLINE
  5
5D6
100
AcDbEntity
  8
0
100
AcDbSpline
 62
7
  6
CONTINUOUS
 70
0
 71
3
 72
9
 73
5
 74
0
 42
0.0000001
 43
0.0000001
 44
0.0000000001
 40
0.0
 40
0.0
 40
0.0
 40
0.0
 40
0.5000000002
 40
1.0
 40
1.0
 40
1.0
 40
1.0
 10
589.2178054101
 20
215.9829844184
 30
0.0
 10
589.5267080167
 20
214.35225671
 30
0.0
 10
589.871225823
 20
211.0271064233
 30
0.0
 10
589.5267080164
 20
207.7019561368
 30
0.0
 10
589.2178054101
 20
206.0712284298
 30
0.0
  0
LINE
  5
5D7
100
AcDbEntity
  8
BEZUGSACHSEN
100
AcDbLine
 62
7
  6
CONTINUOUS
 10
592.2573812668
 20
205.4873176716
 11
592.2357028531
 21
205.5733682518
  0
LINE
  5
5D8
100
AcDbEntity
  8
BEZUGSACHSEN
100
AcDbLine
 62
7
  6
CONTINUOUS
 10
592.2357028531
 20
205.5733682518
 11
592.1751447699
 21
205.8137444657
  0
LINE
  5
5D9
100
AcDbEntity
  8
BEZUGSACHSEN
100
AcDbLine
 62
7
  6
CONTINUOUS
 10
592.1751447699
 20
205.8137444657
 11
592.0832863917
 21
206.1783519352
  0
LINE
  5
5DA
100
AcDbEntity
  8
BEZUGSACHSEN
100
AcDbLine
 62
7
  6
CONTINUOUS
 10
592.0832863917
 20
206.1783519352
 11
591.9378517765
 21
206.7555909894
  0
LINE
  5
5DB
100
AcDbEntity
  8
BEZUGSACHSEN
100
AcDbLine
 62
7
  6
CONTINUOUS
 10
591.9378517765
 20
206.7555909894
 11
591.838369807
 21
207.1504241868
  0
LINE
  5
5DC
100
AcDbEntity
  8
BEZUGSACHSEN
100
AcDbLine
 62
7
  6
CONTINUOUS
 10
591.838369807
 20
207.1504241868
 11
591.7691219496
 21
207.4252536748
  0
LINE
  5
5DD
100
AcDbEntity
  8
BEZUGSACHSEN
100
AcDbLine
 62
7
  6
CONTINUOUS
 10
591.7691219496
 20
207.4252536748
 11
591.7159788073
 21
207.6361628959
  0
LINE
  5
5DE
100
AcDbEntity
  8
BEZUGSACHSEN
100
AcDbLine
 62
7
  6
CONTINUOUS
 10
591.7159788073
 20
207.6361628959
 11
591.6318720035
 21
207.9699503456
  0
LINE
  5
5DF
100
AcDbEntity
  8
BEZUGSACHSEN
100
AcDbLine
 62
7
  6
CONTINUOUS
 10
591.6318720035
 20
207.9699503456
 11
591.53250834
 21
208.3642752093
  0
LINE
  5
5E0
100
AcDbEntity
  8
BEZUGSACHSEN
100
AcDbLine
 62
7
  6
CONTINUOUS
 10
591.53250834
 20
208.3642752093
 11
591.5216484868
 21
208.4073718379
  0
LINE
  5
5E1
100
AcDbEntity
  8
BEZUGSACHSEN
100
AcDbLine
 62
7
  6
CONTINUOUS
 10
591.5216484868
 20
208.4073718379
 11
591.4713501095
 21
208.6069759053
  0
LINE
  5
5E2
100
AcDbEntity
  8
BEZUGSACHSEN
100
AcDbLine
 62
7
  6
CONTINUOUS
 10
591.4713501095
 20
208.6069759053
 11
591.2719474238
 21
209.3982571697
  0
LINE
  5
5E3
100
AcDbEntity
  8
KONSTRUKTIONSELEMENTE
100
AcDbLine
 62
7
  6
CONTINUOUS
 10
590.733632299
 20
209.3982571697
 11
590.9326599747
 21
208.608163727
  0
LINE
  5
5E4
100
AcDbEntity
  8
KONSTRUKTIONSELEMENTE
100
AcDbLine
 62
7
  6
CONTINUOUS
 10
590.9326599747
 20
208.608163727
 11
590.9427212943
 21
208.5682210426
  0
LINE
  5
5E5
100
AcDbEntity
  8
BEZUGSACHSEN
100
AcDbLine
 62
7
  6
CONTINUOUS
 10
592.2573812668
 20
205.4873176716
 11
592.417642602
 21
204.8720520668
  0
LINE
  5
5E6
100
AcDbEntity
  8
BEZUGSACHSEN
100
AcDbLine
 62
7
  6
CONTINUOUS
 10
592.417642602
 20
204.8720520668
 11
592.547269875
 21
204.3984766536
  0
SPLINE
  5
5E7
100
AcDbEntity
  8
0
100
AcDbSpline
 62
7
  6
CONTINUOUS
 70
0
 71
3
 72
10
 73
6
 74
0
 42
0.0000001
 43
0.0000001
 44
0.0000000001
 40
0.0
 40
0.0
 40
0.0
 40
0.0
 40
0.2883793501
 40
0.5560775973
 40
1.0
 40
1.0
 40
1.0
 40
1.0
 10
567.0342168897
 20
120.7612793839
 30
0.0
 10
567.0342168897
 20
120.5376392366
 30
0.0
 10
567.0607721839
 20
120.1049298109
 30
0.0
 10
567.2273511077
 20
119.347205031
 30
0.0
 10
567.5046982173
 20
118.8398451257
 30
0.0
 10
567.7505492679
 20
118.5988564483
 30
0.0
  0
SPLINE
  5
5E8
100
AcDbEntity
  8
0
100
AcDbSpline
 62
7
  6
CONTINUOUS
 70
0
 71
3
 72
11
 73
7
 74
0
 42
0.0000001
 43
0.0000001
 44
0.0000000001
 40
0.0
 40
0.0
 40
0.0
 40
0.0
 40
0.2635270784
 40
0.5201066425
 40
0.7654740308
 40
1.0
 40
1.0
 40
1.0
 40
1.0
 10
585.0342168897
 20
154.4630721016
 30
0.0
 10
585.8692035987
 20
154.4630721016
 30
0.0
 10
587.5276262771
 20
154.2232939173
 30
0.0
 10
589.7545184395
 20
153.1717963906
 30
0.0
 10
591.4759672843
 20
151.5334860307
 30
0.0
 10
592.1582766831
 20
150.1280759415
 30
0.0
 10
592.3471429007
 20
149.4093812502
 30
0.0
  0
SPLINE
  5
5E9
100
AcDbEntity
  8
0
100
AcDbSpline
 62
7
  6
CONTINUOUS
 70
0
 71
3
 72
11
 73
7
 74
0
 42
0.0000001
 43
0.0000001
 44
0.0000000001
 40
0.0
 40
0.0
 40
0.0
 40
0.0
 40
0.2635270784
 40
0.5201066425
 40
0.7654740308
 40
1.0
 40
1.0
 40
1.0
 40
1.0
 10
585.0342168897
 20
154.4630721016
 30
0.0
 10
584.1992301807
 20
154.4630721016
 30
0.0
 10
582.5408075023
 20
154.2232939173
 30
0.0
 10
580.3139153399
 20
153.1717963906
 30
0.0
 10
578.592466495
 20
151.5334860307
 30
0.0
 10
577.9101570962
 20
150.1280759415
 30
0.0
 10
577.7212908786
 20
149.4093812502
 30
0.0
  0
LINE
  5
5EA
100
AcDbEntity
  8
BEZUGSACHSEN
100
AcDbLine
 62
7
  6
CONTINUOUS
 10
592.7532494325
 20
204.100904444
 11
592.7025245424
 21
204.3047742196
  0
LINE
  5
5EB
100
AcDbEntity
  8
BEZUGSACHSEN
100
AcDbLine
 62
7
  6
CONTINUOUS
 10
592.7025245424
 20
204.3047742196
 11
592.6560538832
 21
204.4915399013
  0
LINE
  5
5EC
100
AcDbEntity
  8
BEZUGSACHSEN
100
AcDbLine
 62
7
  6
CONTINUOUS
 10
592.6560538832
 20
204.4915399013
 11
592.6391565739
 21
204.5594488697
  0
LINE
  5
5ED
100
AcDbEntity
  8
BEZUGSACHSEN
100
AcDbLine
 62
7
  6
CONTINUOUS
 10
592.6391565739
 20
204.5594488697
 11
592.5871572128
 21
204.7684257834
  0
LINE
  5
5EE
100
AcDbEntity
  8
BEZUGSACHSEN
100
AcDbLine
 62
7
  6
CONTINUOUS
 10
592.5871572128
 20
204.7684257834
 11
592.5619868573
 21
204.869578929
  0
LINE
  5
5EF
100
AcDbEntity
  8
BEZUGSACHSEN
100
AcDbLine
 62
7
  6
CONTINUOUS
 10
592.5619868573
 20
204.869578929
 11
592.5108051377
 21
205.0752602919
  0
LINE
  5
5F0
100
AcDbEntity
  8
BEZUGSACHSEN
100
AcDbLine
 62
7
  6
CONTINUOUS
 10
592.5108051377
 20
205.0752602919
 11
592.5001005288
 21
205.1182775657
  0
LINE
  5
5F1
100
AcDbEntity
  8
BEZUGSACHSEN
100
AcDbLine
 62
7
  6
CONTINUOUS
 10
592.5001005288
 20
205.1182775657
 11
592.4288546946
 21
205.4045774501
  0
LINE
  5
5F2
100
AcDbEntity
  8
BEZUGSACHSEN
100
AcDbLine
 62
7
  6
CONTINUOUS
 10
592.4288546946
 20
205.4045774501
 11
592.3780143777
 21
205.6088710535
  0
LINE
  5
5F3
100
AcDbEntity
  8
BEZUGSACHSEN
100
AcDbLine
 62
7
  6
CONTINUOUS
 10
592.3780143777
 20
205.6088710535
 11
592.318261174
 21
205.8489722516
  0
LINE
  5
5F4
100
AcDbEntity
  8
BEZUGSACHSEN
100
AcDbLine
 62
7
  6
CONTINUOUS
 10
592.318261174
 20
205.8489722516
 11
592.2680254622
 21
206.0508240838
  0
LINE
  5
5F5
100
AcDbEntity
  8
BEZUGSACHSEN
100
AcDbLine
 62
7
  6
CONTINUOUS
 10
592.2680254622
 20
206.0508240838
 11
592.2274349204
 21
206.2139167715
  0
LINE
  5
5F6
100
AcDbEntity
  8
BEZUGSACHSEN
100
AcDbLine
 62
7
  6
CONTINUOUS
 10
592.2274349204
 20
206.2139167715
 11
592.0836523471
 21
206.7916072527
  0
LINE
  5
5F7
100
AcDbEntity
  8
BEZUGSACHSEN
100
AcDbLine
 62
7
  6
CONTINUOUS
 10
592.0836523471
 20
206.7916072527
 11
591.9853017835
 21
207.1867368734
  0
LINE
  5
5F8
100
AcDbEntity
  8
BEZUGSACHSEN
100
AcDbLine
 62
7
  6
CONTINUOUS
 10
591.9853017835
 20
207.1867368734
 11
591.8643090021
 21
207.6728076704
  0
LINE
  5
5F9
100
AcDbEntity
  8
BEZUGSACHSEN
100
AcDbLine
 62
7
  6
CONTINUOUS
 10
591.8643090021
 20
207.6728076704
 11
591.4037505461
 21
209.5227995786
  0
LINE
  5
5FA
100
AcDbEntity
  8
BEZUGSACHSEN
100
AcDbLine
 62
7
  6
CONTINUOUS
 10
591.4037505461
 20
209.5227995786
 11
591.2938121864
 21
209.9643545522
  0
LINE
  5
5FB
100
AcDbEntity
  8
BEZUGSACHSEN
100
AcDbLine
 62
7
  6
CONTINUOUS
 10
591.2938121864
 20
209.9643545522
 11
591.2600481773
 21
210.0999602642
  0
LINE
  5
5FC
100
AcDbEntity
  8
KONSTRUKTIONSELEMENTE
100
AcDbLine
 62
7
  6
CONTINUOUS
 10
590.7307000615
 20
210.0999602642
 11
590.7642912491
 21
209.9650029769
  0
SPLINE
  5
5FD
100
AcDbEntity
  8
BEZUGSACHSEN
100
AcDbSpline
 62
7
  6
CONTINUOUS
 70
0
 71
3
 72
8
 73
4
 74
0
 42
0.0000001
 43
0.0000001
 44
0.0000000001
 40
0.0
 40
0.0
 40
0.0
 40
0.0
 40
1.0
 40
1.0
 40
1.0
 40
1.0
 10
592.7532494325
 20
204.100904444
 30
0.0
 10
592.7596974775
 20
204.0940614719
 30
0.0
 10
592.7654190946
 20
204.0857995159
 30
0.0
 10
592.767693761
 20
204.0766764986
 30
0.0
  0
SPLINE
  5
5FE
100
AcDbEntity
  8
KONSTRUKTIONSELEMENTE
100
AcDbSpline
 62
7
  6
CONTINUOUS
 70
0
 71
3
 72
15
 73
11
 74
0
 42
0.0000001
 43
0.0000001
 44
0.0000000001
 40
0.0
 40
0.0
 40
0.0
 40
0.0
 40
0.0715051056
 40
0.1527101127
 40
0.249801528
 40
0.3654136809
 40
0.4998429995
 40
0.6519018592
 40
0.8195872462
 40
1.0
 40
1.0
 40
1.0
 40
1.0
 10
407.9847240373
 20
51.2236506503
 30
0.0
 10
407.9149665241
 20
51.2840413667
 30
0.0
 10
407.7355924123
 20
51.3800779104
 30
0.0
 10
407.410552112
 20
51.4184089012
 30
0.0
 10
407.0321720274
 20
51.3662001729
 30
0.0
 10
406.604582712
 20
51.2274070471
 30
0.0
 10
406.1345605994
 20
51.0052206119
 30
0.0
 10
405.6310447744
 20
50.7039094429
 30
0.0
 10
405.1046790446
 20
50.3295468658
 30
0.0
 10
404.7565434821
 20
50.0451836927
 30
0.0
 10
404.5805663309
 20
49.8927830092
 30
0.0
  0
SPLINE
  5
5FF
100
AcDbEntity
  8
KONSTRUKTIONSELEMENTE
100
AcDbSpline
 62
7
  6
CONTINUOUS
 70
0
 71
3
 72
9
 73
5
 74
0
 42
0.0000001
 43
0.0000001
 44
0.0000000001
 40
0.0
 40
0.0
 40
0.0
 40
0.0
 40
0.5612670596
 40
1.0
 40
1.0
 40
1.0
 40
1.0
 10
404.2380857626
 20
62.9456692134
 30
0.0
 10
404.3814331893
 20
63.2473490761
 30
0.0
 10
404.6052562508
 20
63.8001059032
 30
0.0
 10
404.7219876871
 20
64.3928959455
 30
0.0
 10
404.7219876871
 20
64.6539818533
 30
0.0
  0
SPLINE
  5
600
100
AcDbEntity
  8
KONSTRUKTIONSELEMENTE
100
AcDbSpline
 62
7
  6
CONTINUOUS
 70
0
 71
3
 72
9
 73
5
 74
0
 42
0.0000001
 43
0.0000001
 44
0.0000000001
 40
0.0
 40
0.0
 40
0.0
 40
0.0
 40
0.5487156268
 40
1.0
 40
1.0
 40
1.0
 40
1.0
 10
404.7219876871
 20
44.3945083929
 30
0.0
 10
404.7219876871
 20
44.2084625693
 30
0.0
 10
404.7587636457
 20
43.863949584
 30
0.0
 10
404.9473426819
 20
43.561494833
 30
0.0
 10
405.0630122635
 20
43.4613302697
 30
0.0
  0
SPLINE
  5
601
100
AcDbEntity
  8
KONSTRUKTIONSELEMENTE
100
AcDbSpline
 62
7
  6
CONTINUOUS
 70
0
 71
3
 72
15
 73
11
 74
0
 42
0.0000001
 43
0.0000001
 44
0.0000000001
 40
0.0
 40
0.0
 40
0.0
 40
0.0
 40
0.0715051056
 40
0.1527101127
 40
0.249801528
 40
0.3654136809
 40
0.4998429995
 40
0.6519018592
 40
0.8195872462
 40
1.0
 40
1.0
 40
1.0
 40
1.0
 10
407.5251046295
 20
50.3216927336
 30
0.0
 10
407.4553471164
 20
50.3820834499
 30
0.0
 10
407.2759730046
 20
50.4781199936
 30
0.0
 10
406.9509327042
 20
50.5164509844
 30
0.0
 10
406.5725526197
 20
50.4642422561
 30
0.0
 10
406.1449633042
 20
50.3254491303
 30
0.0
 10
405.6749411916
 20
50.1032626951
 30
0.0
 10
405.1714253666
 20
49.8019515261
 30
0.0
 10
404.6450596368
 20
49.427588949
 30
0.0
 10
404.2969240743
 20
49.1432257759
 30
0.0
 10
404.1209469231
 20
48.9908250924
 30
0.0
  0
SPLINE
  5
602
100
AcDbEntity
  8
KONSTRUKTIONSELEMENTE
100
AcDbSpline
 62
7
  6
CONTINUOUS
 70
0
 71
3
 72
10
 73
6
 74
0
 42
0.0000001
 43
0.0000001
 44
0.0000000001
 40
0.0
 40
0.0
 40
0.0
 40
0.0
 40
0.3401098209
 40
0.6176924174
 40
1.0
 40
1.0
 40
1.0
 40
1.0
 10
451.2002176571
 20
67.608721178
 30
0.0
 10
451.1879508227
 20
67.5794964168
 30
0.0
 10
451.1687346148
 20
67.5245071263
 30
0.0
 10
451.1510181064
 20
67.4347561562
 30
0.0
 10
451.1643016195
 20
67.3641124364
 30
0.0
 10
451.1912289978
 20
67.3407839988
 30
0.0
  0
SPLINE
  5
603
100
AcDbEntity
  8
KONSTRUKTIONSELEMENTE
100
AcDbSpline
 62
7
  6
CONTINUOUS
 70
0
 71
3
 72
10
 73
6
 74
0
 42
0.0000001
 43
0.0000001
 44
0.0000000001
 40
0.0
 40
0.0
 40
0.0
 40
0.0
 40
0.1889346049
 40
0.5351285558
 40
1.0
 40
1.0
 40
1.0
 40
1.0
 10
389.5153952075
 20
36.9485576521
 30
0.0
 10
389.5446769073
 20
36.9231994802
 30
0.0
 10
389.6468392671
 20
36.8725135035
 30
0.0
 10
389.8591772601
 20
36.8836028496
 30
0.0
 10
390.0158921459
 20
36.9415017891
 30
0.0
 10
390.1025549861
 20
36.9811667861
 30
0.0
  0
SPLINE
  5
604
100
AcDbEntity
  8
KONSTRUKTIONSELEMENTE
100
AcDbSpline
 62
7
  6
CONTINUOUS
 70
0
 71
3
 72
9
 73
5
 74
0
 42
0.0000001
 43
0.0000001
 44
0.0000000001
 40
0.0
 40
0.0
 40
0.0
 40
0.0
 40
0.4593994969
 40
1.0
 40
1.0
 40
1.0
 40
1.0
 10
390.1025549861
 20
36.9811667861
 30
0.0
 10
390.2187316917
 20
37.03434008
 30
0.0
 10
390.4590772812
 20
37.1772394969
 30
0.0
 10
390.6783297988
 20
37.3491771695
 30
0.0
 10
390.7919840977
 20
37.4476046796
 30
0.0
  0
SPLINE
  5
605
100
AcDbEntity
  8
KONSTRUKTIONSELEMENTE
100
AcDbSpline
 62
7
  6
CONTINUOUS
 70
0
 71
3
 72
11
 73
7
 74
0
 42
0.0000001
 43
0.0000001
 44
0.0000000001
 40
0.0
 40
0.0
 40
0.0
 40
0.0
 40
0.1801343243
 40
0.3968155518
 40
0.6687400903
 40
1.0
 40
1.0
 40
1.0
 40
1.0
 10
408.5985461695
 20
40.3994680913
 30
0.0
 10
408.7097459612
 20
40.3031741615
 30
0.0
 10
409.0193270378
 20
40.1629473906
 30
0.0
 10
409.5752226351
 20
40.1701072877
 30
0.0
 10
410.2249095609
 20
40.347998374
 30
0.0
 10
410.6728904975
 20
40.5575207821
 30
0.0
 10
410.911280119
 20
40.6853682056
 30
0.0
  0
SPLINE
  5
606
100
AcDbEntity
  8
BEZUGSACHSEN
100
AcDbSpline
 62
7
  6
CONTINUOUS
 70
0
 71
3
 72
15
 73
11
 74
0
 42
0.0000001
 43
0.0000001
 44
0.0000000001
 40
0.0
 40
0.0
 40
0.0
 40
0.0
 40
0.1803671637
 40
0.3480918951
 40
0.5001474142
 40
0.6345604171
 40
0.7501843696
 40
0.8472874255
 40
0.9284935803
 40
1.0
 40
1.0
 40
1.0
 40
1.0
 10
474.0184522434
 20
115.7352561945
 30
0.0
 10
474.2045221747
 20
115.8963974819
 30
0.0
 10
474.572725994
 20
116.1971209356
 30
0.0
 10
475.1293831594
 20
116.5930818502
 30
0.0
 10
475.6619169607
 20
116.9118028367
 30
0.0
 10
476.159030966
 20
117.1467474553
 30
0.0
 10
476.6112380211
 20
117.2936017419
 30
0.0
 10
477.0114507914
 20
117.3489246339
 30
0.0
 10
477.3552239612
 20
117.3083937298
 30
0.0
 10
477.5449995846
 20
117.2069318306
 30
0.0
 10
477.6187821848
 20
117.143065192
 30
0.0
  0
SPLINE
  5
607
100
AcDbEntity
  8
BEZUGSACHSEN
100
AcDbSpline
 62
7
  6
CONTINUOUS
 70
0
 71
3
 72
11
 73
7
 74
0
 42
0.0000001
 43
0.0000001
 44
0.0000000001
 40
0.0
 40
0.0
 40
0.0
 40
0.0
 40
0.3015812786
 40
0.5624690806
 40
0.7906401043
 40
1.0
 40
1.0
 40
1.0
 40
1.0
 10
481.0493758571
 20
118.4008973943
 30
0.0
 10
481.0842267376
 20
118.7230114963
 30
0.0
 10
481.1120660856
 20
119.3293366595
 30
0.0
 10
480.9996599442
 20
120.1771808568
 30
0.0
 10
480.7244389826
 20
120.8849464415
 30
0.0
 10
480.4213972871
 20
121.257280799
 30
0.0
 10
480.2515385921
 20
121.404714004
 30
0.0
  0
SPLINE
  5
608
100
AcDbEntity
  8
KONSTRUKTIONSELEMENTE
100
AcDbSpline
 62
7
  6
CONTINUOUS
 70
0
 71
3
 72
13
 73
9
 74
0
 42
0.0000001
 43
0.0000001
 44
0.0000000001
 40
0.0
 40
0.0
 40
0.0
 40
0.0
 40
0.1071822666
 40
0.2276802358
 40
0.4932739715
 40
0.7624373183
 40
0.8872035516
 40
1.0
 40
1.0
 40
1.0
 40
1.0
 10
455.7911779528
 20
64.754282229
 30
0.0
 10
456.0846235578
 20
64.9116559615
 30
0.0
 10
456.6852136439
 20
65.2887719442
 30
0.0
 10
457.8993784654
 20
66.2263301446
 30
0.0
 10
459.3535911825
 20
67.6617320701
 30
0.0
 10
460.6169539475
 20
69.2837433321
 30
0.0
 10
461.4366346708
 20
70.6294246294
 30
0.0
 10
461.7635558438
 20
71.2928443344
 30
0.0
 10
461.899179988
 20
71.6159581149
 30
0.0
  0
SPLINE
  5
609
100
AcDbEntity
  8
KONSTRUKTIONSELEMENTE
100
AcDbSpline
 62
7
  6
CONTINUOUS
 70
0
 71
3
 72
11
 73
7
 74
0
 42
0.0000001
 43
0.0000001
 44
0.0000000001
 40
0.0
 40
0.0
 40
0.0
 40
0.0
 40
0.2275180559
 40
0.493253217
 40
0.7625598897
 40
1.0
 40
1.0
 40
1.0
 40
1.0
 10
411.2516594
 20
40.8679122853
 30
0.0
 10
411.3139165359
 20
40.9013005443
 30
0.0
 10
411.438839323
 20
40.9920489145
 30
0.0
 10
411.6079473361
 20
41.1585854781
 30
0.0
 10
411.7555320305
 20
41.3484474315
 30
0.0
 10
411.8339254976
 20
41.486099627
 30
0.0
 10
411.8624596035
 20
41.5540798739
 30
0.0
  0
SPLINE
  5
60A
100
AcDbEntity
  8
KONSTRUKTIONSELEMENTE
100
AcDbSpline
 62
7
  6
CONTINUOUS
 70
0
 71
3
 72
10
 73
6
 74
0
 42
0.0000001
 43
0.0000001
 44
0.0000000001
 40
0.0
 40
0.0
 40
0.0
 40
0.0
 40
0.1805529782
 40
0.5248657058
 40
1.0
 40
1.0
 40
1.0
 40
1.0
 10
454.7267629037
 20
64.2789218203
 30
0.0
 10
454.7378822588
 20
64.2692886069
 30
0.0
 10
454.7787911689
 20
64.2509343333
 30
0.0
 10
454.8628250753
 20
64.262015618
 30
0.0
 10
454.9239464194
 20
64.2891893427
 30
0.0
 10
454.9580646562
 20
64.3074868199
 30
0.0
  0
SPLINE
  5
60B
100
AcDbEntity
  8
BEZUGSACHSEN
100
AcDbSpline
 62
7
  6
CONTINUOUS
 70
0
 71
3
 72
17
 73
13
 74
0
 42
0.0000001
 43
0.0000001
 44
0.0000000001
 40
0.0
 40
0.0
 40
0.0
 40
0.0
 40
0.0291579765
 40
0.0611213738
 40
0.0979231462
 40
0.1406918411
 40
0.2452305574
 40
0.373688919
 40
0.5209585942
 40
0.6799306931
 40
0.8424232186
 40
1.0
 40
1.0
 40
1.0
 40
1.0
 10
470.418122302
 20
108.8274471971
 30
0.0
 10
470.3573932908
 20
108.8800145749
 30
0.0
 10
470.2494456724
 20
109.0142227432
 30
0.0
 10
470.1546056687
 20
109.2703763409
 30
0.0
 10
470.1198674724
 20
109.5778679215
 30
0.0
 10
470.1540540808
 20
110.0858067855
 30
0.0
 10
470.3600479112
 20
110.8237399865
 30
0.0
 10
470.7949436457
 20
111.7789680188
 30
0.0
 10
471.4135656297
 20
112.8069997728
 30
0.0
 10
472.1807618972
 20
113.8475774664
 30
0.0
 10
473.0525910141
 20
114.8401424963
 30
0.0
 10
473.6903260854
 20
115.451090606
 30
0.0
 10
474.0184522434
 20
115.7352561945
 30
0.0
  0
SPLINE
  5
60C
100
AcDbEntity
  8
KONSTRUKTIONSELEMENTE
100
AcDbSpline
 62
7
  6
CONTINUOUS
 70
0
 71
3
 72
13
 73
9
 74
0
 42
0.0000001
 43
0.0000001
 44
0.0000000001
 40
0.0
 40
0.0
 40
0.0
 40
0.0
 40
0.1127926537
 40
0.2375654572
 40
0.5067249414
 40
0.7723173039
 40
0.8928214444
 40
1.0
 40
1.0
 40
1.0
 40
1.0
 10
414.3876258207
 20
47.5700883671
 30
0.0
 10
414.5232454158
 20
47.8931913098
 30
0.0
 10
414.8501702209
 20
48.5566187399
 30
0.0
 10
415.6698442166
 20
49.90230065
 30
0.0
 10
416.9332132347
 20
51.5243123637
 30
0.0
 10
418.3874240904
 20
52.9597206825
 30
0.0
 10
419.6015957525
 20
53.8972762227
 30
0.0
 10
420.2021923813
 20
54.2743959535
 30
0.0
 10
420.4956278559
 20
54.4317642531
 30
0.0
  0
SPLINE
  5
60D
100
AcDbEntity
  8
KONSTRUKTIONSELEMENTE
100
AcDbSpline
 62
7
  6
CONTINUOUS
 70
0
 71
3
 72
11
 73
7
 74
0
 42
0.0000001
 43
0.0000001
 44
0.0000000001
 40
0.0
 40
0.0
 40
0.0
 40
0.0
 40
0.3312528237
 40
0.6032079657
 40
0.8198699068
 40
1.0
 40
1.0
 40
1.0
 40
1.0
 10
455.0377868487
 20
72.9565892885
 30
0.0
 10
455.276194957
 20
73.0844466264
 30
0.0
 10
455.7242438429
 20
73.2939841174
 30
0.0
 10
456.3739956222
 20
73.4718995696
 30
0.0
 10
456.9299756592
 20
73.4789776466
 30
0.0
 10
457.239507599
 20
73.3386324957
 30
0.0
 10
457.350708734
 20
73.2423231634
 30
0.0
  0
SPLINE
  5
60E
100
AcDbEntity
  8
KONSTRUKTIONSELEMENTE
100
AcDbSpline
 62
7
  6
CONTINUOUS
 70
0
 71
3
 72
11
 73
7
 74
0
 42
0.0000001
 43
0.0000001
 44
0.0000000001
 40
0.0
 40
0.0
 40
0.0
 40
0.0
 40
0.1960877347
 40
0.4356994004
 40
0.7083543662
 40
1.0
 40
1.0
 40
1.0
 40
1.0
 10
404.7611327183
 20
65.6492716414
 30
0.0
 10
404.8179874465
 20
66.0045713223
 30
0.0
 10
405.0535875505
 20
66.7755918382
 30
0.0
 10
405.6172712237
 20
67.9494594506
 30
0.0
 10
406.4021035548
 20
69.2018088182
 30
0.0
 10
407.0324237014
 20
70.0253006419
 30
0.0
 10
407.3757462131
 20
70.4358301526
 30
0.0
  0
SPLINE
  5
60F
100
AcDbEntity
  8
KONSTRUKTIONSELEMENTE
100
AcDbSpline
 62
7
  6
CONTINUOUS
 70
0
 71
3
 72
15
 73
11
 74
0
 42
0.0000001
 43
0.0000001
 44
0.0000000001
 40
0.0
 40
0.0
 40
0.0
 40
0.0
 40
0.1696224697
 40
0.33497449
 40
0.4905840196
 40
0.6315529168
 40
0.7539177085
 40
0.8552312826
 40
0.9356200061
 40
1.0
 40
1.0
 40
1.0
 40
1.0
 10
456.9174893711
 20
129.6756029243
 30
0.0
 10
457.1896776114
 20
130.0010732949
 30
0.0
 10
457.7495417502
 20
130.6255191742
 30
0.0
 10
458.6311163756
 20
131.4805773657
 30
0.0
 10
459.5199550594
 20
132.2208479859
 30
0.0
 10
460.3825011384
 20
132.8187869493
 30
0.0
 10
461.1869839668
 20
133.2539491434
 30
0.0
 10
461.9072042037
 20
133.5106439538
 30
0.0
 10
462.5261845824
 20
133.5845412268
 30
0.0
 10
462.8904940623
 20
133.481095116
 30
0.0
 10
463.0254914062
 20
133.3932968958
 30
0.0
  0
SPLINE
  5
610
100
AcDbEntity
  8
KONSTRUKTIONSELEMENTE
100
AcDbSpline
 62
7
  6
CONTINUOUS
 70
0
 71
3
 72
9
 73
5
 74
0
 42
0.0000001
 43
0.0000001
 44
0.0000000001
 40
0.0
 40
0.0
 40
0.0
 40
0.0
 40
0.2565752457
 40
1.0
 40
1.0
 40
1.0
 40
1.0
 10
404.7219876871
 20
65.4474250735
 30
0.0
 10
404.7258635184
 20
65.4645788742
 30
0.0
 10
404.7404779024
 20
65.5315450831
 30
0.0
 10
404.7530812311
 20
65.5989558466
 30
0.0
 10
404.7611327183
 20
65.6492716414
 30
0.0
  0
SPLINE
  5
611
100
AcDbEntity
  8
KONSTRUKTIONSELEMENTE
100
AcDbSpline
 62
7
  6
CONTINUOUS
 70
0
 71
3
 72
9
 73
5
 74
0
 42
0.0000001
 43
0.0000001
 44
0.0000000001
 40
0.0
 40
0.0
 40
0.0
 40
0.0
 40
0.5484587228
 40
1.0
 40
1.0
 40
1.0
 40
1.0
 10
386.796830784
 20
39.494256442
 30
0.0
 10
386.796830784
 20
39.4384805575
 30
0.0
 10
386.8079211379
 20
39.3351767138
 30
0.0
 10
386.8643877047
 20
39.244396874
 30
0.0
 10
386.8991001171
 20
39.2143356642
 30
0.0
  0
SPLINE
  5
612
100
AcDbEntity
  8
KONSTRUKTIONSELEMENTE
100
AcDbSpline
 62
7
  6
CONTINUOUS
 70
0
 71
3
 72
12
 73
8
 74
0
 42
0.0000001
 43
0.0000001
 44
0.0000000001
 40
0.0
 40
0.0
 40
0.0
 40
0.0
 40
0.285581653
 40
0.5706156379
 40
0.817816411
 40
0.9180971044
 40
1.0
 40
1.0
 40
1.0
 40
1.0
 10
388.1756890073
 20
48.2283826916
 30
0.0
 10
387.9870128553
 20
48.0649843509
 30
0.0
 10
387.6356329957
 20
47.7080442074
 30
0.0
 10
387.2046415151
 20
47.1360919798
 30
0.0
 10
386.9375429817
 20
46.6473418423
 30
0.0
 10
386.8204499275
 20
46.2899042181
 30
0.0
 10
386.796830784
 20
46.1308386331
 30
0.0
 10
386.796830784
 20
46.059256442
 30
0.0
  0
SPLINE
  5
613
100
AcDbEntity
  8
KONSTRUKTIONSELEMENTE
100
AcDbSpline
 62
7
  6
CONTINUOUS
 70
0
 71
3
 72
9
 73
5
 74
0
 42
0.0000001
 43
0.0000001
 44
0.0000000001
 40
0.0
 40
0.0
 40
0.0
 40
0.0
 40
0.2366663301
 40
1.0
 40
1.0
 40
1.0
 40
1.0
 10
405.1816070949
 20
65.0493829903
 30
0.0
 10
405.1725212151
 20
65.0091703601
 30
0.0
 10
405.1311817973
 20
64.8399262873
 30
0.0
 10
405.0789841902
 20
64.6734276585
 30
0.0
 10
405.0346963936
 20
64.5480501832
 30
0.0
  0
SPLINE
  5
614
100
AcDbEntity
  8
KONSTRUKTIONSELEMENTE
100
AcDbSpline
 62
7
  6
CONTINUOUS
 70
0
 71
3
 72
11
 73
7
 74
0
 42
0.0000001
 43
0.0000001
 44
0.0000000001
 40
0.0
 40
0.0
 40
0.0
 40
0.0
 40
0.2214501299
 40
0.4742604085
 40
0.7403367523
 40
1.0
 40
1.0
 40
1.0
 40
1.0
 10
404.9608703327
 20
64.3507094848
 30
0.0
 10
404.8067782561
 20
63.9599840358
 30
0.0
 10
404.3966380381
 20
63.1548278934
 30
0.0
 10
403.6110481683
 20
61.9881807245
 30
0.0
 10
402.6623846988
 20
60.8533678837
 30
0.0
 10
401.9474000315
 20
60.1550342922
 30
0.0
 10
401.5751128889
 20
59.8326241692
 30
0.0
  0
SPLINE
  5
615
100
AcDbEntity
  8
KONSTRUKTIONSELEMENTE
100
AcDbSpline
 62
7
  6
CONTINUOUS
 70
0
 71
3
 72
12
 73
8
 74
0
 42
0.0000001
 43
0.0000001
 44
0.0000000001
 40
0.0
 40
0.0
 40
0.0
 40
0.0
 40
0.3358890466
 40
0.6331184293
 40
0.7558878341
 40
0.8575228726
 40
1.0
 40
1.0
 40
1.0
 40
1.0
 10
444.9220649936
 20
114.3843835593
 30
0.0
 10
445.0832306119
 20
114.5770981067
 30
0.0
 10
445.4120607866
 20
114.9201740048
 30
0.0
 10
445.8578947567
 20
115.271622441
 30
0.0
 10
446.2042460188
 20
115.4577906427
 30
0.0
 10
446.4578646885
 20
115.5508668879
 30
0.0
 10
446.6651329939
 20
115.5577909989
 30
0.0
 10
446.7544656041
 20
115.4996917508
 30
0.0
  0
SPLINE
  5
616
100
AcDbEntity
  8
KONSTRUKTIONSELEMENTE
100
AcDbSpline
 62
7
  6
CONTINUOUS
 70
0
 71
3
 72
12
 73
8
 74
0
 42
0.0000001
 43
0.0000001
 44
0.0000000001
 40
0.0
 40
0.0
 40
0.0
 40
0.0
 40
0.1424771274
 40
0.2441121659
 40
0.3668815707
 40
0.6641109534
 40
1.0
 40
1.0
 40
1.0
 40
1.0
 10
448.6969011559
 20
114.2363899759
 30
0.0
 10
448.7862337662
 20
114.1782907278
 30
0.0
 10
448.9935020716
 20
114.1852148388
 30
0.0
 10
449.2471207412
 20
114.2782910841
 30
0.0
 10
449.5934720033
 20
114.4644592858
 30
0.0
 10
450.0393059735
 20
114.8159077219
 30
0.0
 10
450.3681361481
 20
115.1589836201
 30
0.0
 10
450.5293017664
 20
115.3516981674
 30
0.0
  0
SPLINE
  5
617
100
AcDbEntity
  8
BEZUGSACHSEN
100
AcDbSpline
 62
7
  6
CONTINUOUS
 70
0
 71
3
 72
15
 73
11
 74
0
 42
0.0000001
 43
0.0000001
 44
0.0000000001
 40
0.0
 40
0.0
 40
0.0
 40
0.0
 40
0.1803671637
 40
0.3480918951
 40
0.5001474142
 40
0.6345604171
 40
0.7501843696
 40
0.8472874255
 40
0.9284935803
 40
1.0
 40
1.0
 40
1.0
 40
1.0
 10
474.0184522434
 20
110.2352561945
 30
0.0
 10
473.8323823121
 20
110.0741149072
 30
0.0
 10
473.4641784928
 20
109.7733914535
 30
0.0
 10
472.9075213274
 20
109.3774305389
 30
0.0
 10
472.374987526
 20
109.0587095524
 30
0.0
 10
471.8778735208
 20
108.8237649338
 30
0.0
 10
471.4256664656
 20
108.6769106472
 30
0.0
 10
471.0254536953
 20
108.6215877552
 30
0.0
 10
470.6816805256
 20
108.6621186592
 30
0.0
 10
470.4919049022
 20
108.7635805584
 30
0.0
 10
470.418122302
 20
108.8274471971
 30
0.0
  0
SPLINE
  5
618
100
AcDbEntity
  8
KONSTRUKTIONSELEMENTE
100
AcDbSpline
 62
7
  6
CONTINUOUS
 70
0
 71
3
 72
9
 73
5
 74
0
 42
0.0000001
 43
0.0000001
 44
0.0000000001
 40
0.0
 40
0.0
 40
0.0
 40
0.0
 40
0.5487156268
 40
1.0
 40
1.0
 40
1.0
 40
1.0
 10
408.257521593
 20
41.3326462145
 30
0.0
 10
408.257521593
 20
41.1466003908
 30
0.0
 10
408.2942975517
 20
40.8020874055
 30
0.0
 10
408.4828765878
 20
40.4996326545
 30
0.0
 10
408.5985461695
 20
40.3994680913
 30
0.0
  0
SPLINE
  5
619
100
AcDbEntity
  8
BEZUGSACHSEN
100
AcDbSpline
 62
7
  6
CONTINUOUS
 70
0
 71
3
 72
9
 73
5
 74
0
 42
0.0000001
 43
0.0000001
 44
0.0000000001
 40
0.0
 40
0.0
 40
0.0
 40
0.0
 40
0.4460531606
 40
1.0
 40
1.0
 40
1.0
 40
1.0
 10
477.6187821848
 20
117.143065192
 30
0.0
 10
477.7242226784
 20
117.0517953006
 30
0.0
 10
477.8922930587
 20
116.7670857442
 30
0.0
 10
477.9126531351
 20
116.4481038027
 30
0.0
 10
477.9060121919
 20
116.2750432043
 30
0.0
  0
SPLINE
  5
61A
100
AcDbEntity
  8
BEZUGSACHSEN
100
AcDbSpline
 62
7
  6
CONTINUOUS
 70
0
 71
3
 72
9
 73
5
 74
0
 42
0.0000001
 43
0.0000001
 44
0.0000000001
 40
0.0
 40
0.0
 40
0.0
 40
0.0
 40
0.2554176355
 40
1.0
 40
1.0
 40
1.0
 40
1.0
 10
475.1850042139
 20
111.3721461985
 30
0.0
 10
475.091146236
 20
111.269992032
 30
0.0
 10
474.7182829429
 20
110.875057775
 30
0.0
 10
474.3241550822
 20
110.5000026189
 30
0.0
 10
474.0184522434
 20
110.2352561945
 30
0.0
  0
SPLINE
  5
61B
100
AcDbEntity
  8
KONSTRUKTIONSELEMENTE
100
AcDbSpline
 62
7
  6
CONTINUOUS
 70
0
 71
3
 72
9
 73
5
 74
0
 42
0.0000001
 43
0.0000001
 44
0.0000000001
 40
0.0
 40
0.0
 40
0.0
 40
0.0
 40
0.5486959742
 40
1.0
 40
1.0
 40
1.0
 40
1.0
 10
408.257521593
 20
50.4771196748
 30
0.0
 10
408.257521593
 20
50.6259468306
 30
0.0
 10
408.2280893635
 20
50.9015357545
 30
0.0
 10
408.0772717056
 20
51.1435299618
 30
0.0
 10
407.9847240373
 20
51.2236506503
 30
0.0
  0
SPLINE
  5
61C
100
AcDbEntity
  8
KONSTRUKTIONSELEMENTE
100
AcDbSpline
 62
7
  6
CONTINUOUS
 70
0
 71
3
 72
13
 73
9
 74
0
 42
0.0000001
 43
0.0000001
 44
0.0000000001
 40
0.0
 40
0.0
 40
0.0
 40
0.0
 40
0.0843625955
 40
0.1746175943
 40
0.2754204456
 40
0.3897531286
 40
0.6639913559
 40
1.0
 40
1.0
 40
1.0
 40
1.0
 10
457.350708734
 20
73.2423231634
 30
0.0
 10
457.4108649813
 20
73.1902229038
 30
0.0
 10
457.5195805382
 20
73.0628792064
 30
0.0
 10
457.6288736829
 20
72.824310452
 30
0.0
 10
457.6877555353
 20
72.5403461227
 30
0.0
 10
457.7012288554
 20
72.077143133
 30
0.0
 10
457.5778675353
 20
71.3985700287
 30
0.0
 10
457.3835929456
 20
70.8551313568
 30
0.0
 10
457.2609177803
 20
70.5628674927
 30
0.0
  0
SPLINE
  5
61D
100
AcDbEntity
  8
KONSTRUKTIONSELEMENTE
100
AcDbSpline
 62
7
  6
CONTINUOUS
 70
0
 71
3
 72
13
 73
9
 74
0
 42
0.0000001
 43
0.0000001
 44
0.0000000001
 40
0.0
 40
0.0
 40
0.0
 40
0.0
 40
0.2854781235
 40
0.5704521399
 40
0.700966491
 40
0.8178838308
 40
0.9181009276
 40
1.0
 40
1.0
 40
1.0
 40
1.0
 10
404.5805663309
 20
55.8077830092
 30
0.0
 10
405.083664522
 20
56.2434788234
 30
0.0
 10
406.0198698457
 20
57.1950542822
 30
0.0
 10
407.0082535309
 20
58.503656163
 30
0.0
 10
407.6350786996
 20
59.5764683913
 30
0.0
 10
407.9774999875
 20
60.3129091295
 30
0.0
 10
408.1945219274
 20
60.9770673441
 30
0.0
 10
408.257521593
 20
61.4011880231
 30
0.0
 10
408.257521593
 20
61.5921196748
 30
0.0
  0
SPLINE
  5
61E
100
AcDbEntity
  8
KONSTRUKTIONSELEMENTE
100
AcDbSpline
 62
7
  6
CONTINUOUS
 70
0
 71
3
 72
12
 73
8
 74
0
 42
0.0000001
 43
0.0000001
 44
0.0000000001
 40
0.0
 40
0.0
 40
0.0
 40
0.0
 40
0.1424771274
 40
0.2441121659
 40
0.3668815707
 40
0.6641109534
 40
1.0
 40
1.0
 40
1.0
 40
1.0
 10
450.1065890607
 20
109.5801715821
 30
0.0
 10
450.195921671
 20
109.522072334
 30
0.0
 10
450.4031899764
 20
109.528996445
 30
0.0
 10
450.656808646
 20
109.6220726902
 30
0.0
 10
451.0031599082
 20
109.8082408919
 30
0.0
 10
451.4489938783
 20
110.159689328
 30
0.0
 10
451.7778240529
 20
110.5027652262
 30
0.0
 10
451.9389896712
 20
110.6954797736
 30
0.0
  0
SPLINE
  5
61F
100
AcDbEntity
  8
KONSTRUKTIONSELEMENTE
100
AcDbSpline
 62
7
  6
CONTINUOUS
 70
0
 71
3
 72
11
 73
7
 74
0
 42
0.0000001
 43
0.0000001
 44
0.0000000001
 40
0.0
 40
0.0
 40
0.0
 40
0.0
 40
0.2916456338
 40
0.5643005996
 40
0.8039122653
 40
1.0
 40
1.0
 40
1.0
 40
1.0
 10
410.911280119
 20
67.3739679742
 30
0.0
 10
410.5679576073
 20
66.9634384634
 30
0.0
 10
409.9376374608
 20
66.1399466397
 30
0.0
 10
409.1528051296
 20
64.8875972721
 30
0.0
 10
408.5891214564
 20
63.7137296597
 30
0.0
 10
408.3535213524
 20
62.9427091439
 30
0.0
 10
408.2966666243
 20
62.587409463
 30
0.0
  0
SPLINE
  5
620
100
AcDbEntity
  8
KONSTRUKTIONSELEMENTE
100
AcDbSpline
 62
7
  6
CONTINUOUS
 70
0
 71
3
 72
15
 73
11
 74
0
 42
0.0000001
 43
0.0000001
 44
0.0000000001
 40
0.0
 40
0.0
 40
0.0
 40
0.0
 40
0.0643794215
 40
0.1447670279
 40
0.2460796662
 40
0.3684482679
 40
0.5094197477
 40
0.6650286244
 40
0.8303788796
 40
1.0
 40
1.0
 40
1.0
 40
1.0
 10
466.5610253121
 20
130.3314347173
 30
0.0
 10
466.4260291657
 20
130.4192321587
 30
0.0
 10
466.0617245153
 20
130.5226784735
 30
0.0
 10
465.442750438
 20
130.4487840216
 30
0.0
 10
464.722524806
 20
130.1920912869
 30
0.0
 10
463.9180297458
 20
129.756922294
 30
0.0
 10
463.0554727935
 20
129.1589737831
 30
0.0
 10
462.1666353312
 20
128.418701035
 30
0.0
 10
461.285067955
 20
127.5636489304
 30
0.0
 10
460.7252093578
 20
126.9392085341
 30
0.0
 10
460.453023277
 20
126.6137407458
 30
0.0
  0
SPLINE
  5
621
100
AcDbEntity
  8
KONSTRUKTIONSELEMENTE
100
AcDbSpline
 62
7
  6
CONTINUOUS
 70
0
 71
3
 72
10
 73
6
 74
0
 42
0.0000001
 43
0.0000001
 44
0.0000000001
 40
0.0
 40
0.0
 40
0.0
 40
0.0
 40
0.3401098209
 40
0.6176924174
 40
1.0
 40
1.0
 40
1.0
 40
1.0
 10
454.735751563
 20
64.5468589995
 30
0.0
 10
454.7234847286
 20
64.5176342383
 30
0.0
 10
454.7042685207
 20
64.4626449478
 30
0.0
 10
454.6865520123
 20
64.3728939777
 30
0.0
 10
454.6998355254
 20
64.3022502579
 30
0.0
 10
454.7267629037
 20
64.2789218203
 30
0.0
  0
SPLINE
  5
622
100
AcDbEntity
  8
KONSTRUKTIONSELEMENTE
100
AcDbSpline
 62
7
  6
CONTINUOUS
 70
0
 71
3
 72
9
 73
5
 74
0
 42
0.0000001
 43
0.0000001
 44
0.0000000001
 40
0.0
 40
0.0
 40
0.0
 40
0.0
 40
0.2434438841
 40
1.0
 40
1.0
 40
1.0
 40
1.0
 10
408.2966666243
 20
62.587409463
 30
0.0
 10
408.2940300537
 20
62.570932862
 30
0.0
 10
408.2826177337
 20
62.503345312
 30
0.0
 10
408.2689501842
 20
62.4361439858
 30
0.0
 10
408.257521593
 20
62.385562895
 30
0.0
  0
SPLINE
  5
623
100
AcDbEntity
  8
KONSTRUKTIONSELEMENTE
100
AcDbSpline
 62
7
  6
CONTINUOUS
 70
0
 71
3
 72
11
 73
7
 74
0
 42
0.0000001
 43
0.0000001
 44
0.0000000001
 40
0.0
 40
0.0
 40
0.0
 40
0.0
 40
0.3244592118
 40
0.6118608502
 40
0.8417534778
 40
1.0
 40
1.0
 40
1.0
 40
1.0
 10
456.2863349079
 20
121.4451031799
 30
0.0
 10
456.4572133538
 20
121.5389201204
 30
0.0
 10
456.7722504232
 20
121.7287412943
 30
0.0
 10
457.1794627081
 20
122.0328643186
 30
0.0
 10
457.467243849
 20
122.3162093184
 30
0.0
 10
457.59600055
 20
122.5236834258
 30
0.0
 10
457.6116586692
 20
122.6174614183
 30
0.0
  0
SPLINE
  5
624
100
AcDbEntity
  8
KONSTRUKTIONSELEMENTE
100
AcDbSpline
 62
7
  6
CONTINUOUS
 70
0
 71
3
 72
13
 73
9
 74
0
 42
0.0000001
 43
0.0000001
 44
0.0000000001
 40
0.0
 40
0.0
 40
0.0
 40
0.0
 40
0.3168637478
 40
0.6100579332
 40
0.7371323552
 40
0.8456364708
 40
0.9329740508
 40
1.0
 40
1.0
 40
1.0
 40
1.0
 10
458.1357252424
 20
119.8434841686
 30
0.0
 10
458.2183585874
 20
120.0857014948
 30
0.0
 10
458.350754718
 20
120.561418084
 30
0.0
 10
458.4422849539
 20
121.1520859226
 30
0.0
 10
458.4513832742
 20
121.5796882106
 30
0.0
 10
458.4258155195
 20
121.8402521608
 30
0.0
 10
458.3694870795
 20
122.0460230948
 30
0.0
 10
458.3001490468
 20
122.154814612
 30
0.0
 10
458.259312013
 20
122.1903532899
 30
0.0
  0
SPLINE
  5
625
100
AcDbEntity
  8
KONSTRUKTIONSELEMENTE
100
AcDbSpline
 62
7
  6
CONTINUOUS
 70
0
 71
3
 72
12
 73
8
 74
0
 42
0.0000001
 43
0.0000001
 44
0.0000000001
 40
0.0
 40
0.0
 40
0.0
 40
0.0
 40
0.3358890466
 40
0.6331184293
 40
0.7558878341
 40
0.8575228726
 40
1.0
 40
1.0
 40
1.0
 40
1.0
 10
447.538360084
 20
112.1186055472
 30
0.0
 10
447.6995257023
 20
112.3113200946
 30
0.0
 10
448.028355877
 20
112.6543959928
 30
0.0
 10
448.4741898471
 20
113.0058444289
 30
0.0
 10
448.8205411092
 20
113.1920126306
 30
0.0
 10
449.0741597789
 20
113.2850888758
 30
0.0
 10
449.2814280842
 20
113.2920129869
 30
0.0
 10
449.3707606945
 20
113.2339137387
 30
0.0
  0
SPLINE
  5
626
100
AcDbEntity
  8
KONSTRUKTIONSELEMENTE
100
AcDbSpline
 62
7
  6
CONTINUOUS
 70
0
 71
3
 72
12
 73
8
 74
0
 42
0.0000001
 43
0.0000001
 44
0.0000000001
 40
0.0
 40
0.0
 40
0.0
 40
0.0
 40
0.1424771274
 40
0.2441121659
 40
0.3668815707
 40
0.6641109534
 40
1.0
 40
1.0
 40
1.0
 40
1.0
 10
451.3131962463
 20
111.9706119639
 30
0.0
 10
451.4025288566
 20
111.9125127157
 30
0.0
 10
451.609797162
 20
111.9194368268
 30
0.0
 10
451.8634158316
 20
112.012513072
 30
0.0
 10
452.2097670937
 20
112.1986812737
 30
0.0
 10
452.6556010639
 20
112.5501297098
 30
0.0
 10
452.9844312385
 20
112.893205608
 30
0.0
 10
453.1455968568
 20
113.0859201553
 30
0.0
  0
SPLINE
  5
627
100
AcDbEntity
  8
KONSTRUKTIONSELEMENTE
100
AcDbSpline
 62
7
  6
CONTINUOUS
 70
0
 71
3
 72
13
 73
9
 74
0
 42
0.0000001
 43
0.0000001
 44
0.0000000001
 40
0.0
 40
0.0
 40
0.0
 40
0.0
 40
0.1424374923
 40
0.2440429614
 40
0.3667933689
 40
0.5081503164
 40
0.6641988276
 40
1.0
 40
1.0
 40
1.0
 40
1.0
 10
449.6469696529
 20
109.9782136653
 30
0.0
 10
449.7363048283
 20
109.9201127489
 30
0.0
 10
449.9435907226
 20
109.9270227355
 30
0.0
 10
450.1971765723
 20
110.0201209
 30
0.0
 10
450.4402996025
 20
110.1506016117
 30
0.0
 10
450.6985099373
 20
110.3299303267
 30
0.0
 10
451.0630076143
 20
110.6334460156
 30
0.0
 10
451.3181973464
 20
110.9007985819
 30
0.0
 10
451.4793702635
 20
111.0935218568
 30
0.0
  0
SPLINE
  5
628
100
AcDbEntity
  8
KONSTRUKTIONSELEMENTE
100
AcDbSpline
 62
7
  6
CONTINUOUS
 70
0
 71
3
 72
12
 73
8
 74
0
 42
0.0000001
 43
0.0000001
 44
0.0000000001
 40
0.0
 40
0.0
 40
0.0
 40
0.0
 40
0.285581653
 40
0.5706156379
 40
0.817816411
 40
0.9180971044
 40
1.0
 40
1.0
 40
1.0
 40
1.0
 10
390.7919840977
 20
45.9626046796
 30
0.0
 10
390.6033079457
 20
45.7992063388
 30
0.0
 10
390.2519280861
 20
45.4422661954
 30
0.0
 10
389.8209366055
 20
44.8703139678
 30
0.0
 10
389.5538380721
 20
44.3815638303
 30
0.0
 10
389.4367450179
 20
44.0241262061
 30
0.0
 10
389.4131258744
 20
43.865060621
 30
0.0
 10
389.4131258744
 20
43.7934784299
 30
0.0
  0
SPLINE
  5
629
100
AcDbEntity
  8
KONSTRUKTIONSELEMENTE
100
AcDbSpline
 62
7
  6
CONTINUOUS
 70
0
 71
3
 72
12
 73
8
 74
0
 42
0.0000001
 43
0.0000001
 44
0.0000000001
 40
0.0
 40
0.0
 40
0.0
 40
0.0
 40
0.0944564975
 40
0.2031284265
 40
0.4537801281
 40
0.7286994104
 40
1.0
 40
1.0
 40
1.0
 40
1.0
 10
407.7979021853
 20
62.7836049782
 30
0.0
 10
407.7533375776
 20
62.5863692534
 30
0.0
 10
407.6228039894
 20
62.1699665389
 30
0.0
 10
407.2315807385
 20
61.2794931626
 30
0.0
 10
406.523024025
 20
60.11442057
 30
0.0
 10
405.461354504
 20
58.7752227479
 30
0.0
 10
404.6304412836
 20
57.9470601517
 30
0.0
 10
404.1914079793
 20
57.5668461571
 30
0.0
  0
SPLINE
  5
62A
100
AcDbEntity
  8
KONSTRUKTIONSELEMENTE
100
AcDbSpline
 62
7
  6
CONTINUOUS
 70
0
 71
3
 72
13
 73
9
 74
0
 42
0.0000001
 43
0.0000001
 44
0.0000000001
 40
0.0
 40
0.0
 40
0.0
 40
0.0
 40
0.2854859153
 40
0.5704513138
 40
0.7009656111
 40
0.8178785543
 40
0.9181069222
 40
1.0
 40
1.0
 40
1.0
 40
1.0
 10
404.1209469231
 20
56.2058250924
 30
0.0
 10
404.6240584751
 20
56.6415324774
 30
0.0
 10
405.560259277
 20
57.5931071221
 30
0.0
 10
406.5486442695
 20
58.9017081644
 30
0.0
 10
407.1754217201
 20
59.9745085882
 30
0.0
 10
407.5178962607
 20
60.7109435355
 30
0.0
 10
407.7348767481
 20
61.3751162607
 30
0.0
 10
407.7979021853
 20
61.7992442222
 30
0.0
 10
407.7979021853
 20
61.990161758
 30
0.0
  0
SPLINE
  5
62B
100
AcDbEntity
  8
KONSTRUKTIONSELEMENTE
100
AcDbSpline
 62
7
  6
CONTINUOUS
 70
0
 71
3
 72
9
 73
5
 74
0
 42
0.0000001
 43
0.0000001
 44
0.0000000001
 40
0.0
 40
0.0
 40
0.0
 40
0.0
 40
0.2756955256
 40
1.0
 40
1.0
 40
1.0
 40
1.0
 10
407.7979021853
 20
50.875161758
 30
0.0
 10
407.7979021853
 20
50.9209300382
 30
0.0
 10
407.7917119986
 20
51.0866138585
 30
0.0
 10
407.757893329
 20
51.2532088221
 30
0.0
 10
407.7102316284
 20
51.3636012632
 30
0.0
  0
SPLINE
  5
62C
100
AcDbEntity
  8
KONSTRUKTIONSELEMENTE
100
AcDbSpline
 62
7
  6
CONTINUOUS
 70
0
 71
3
 72
9
 73
5
 74
0
 42
0.0000001
 43
0.0000001
 44
0.0000000001
 40
0.0
 40
0.0
 40
0.0
 40
0.0
 40
0.5486959742
 40
1.0
 40
1.0
 40
1.0
 40
1.0
 10
407.7979021853
 20
49.575161758
 30
0.0
 10
407.7979021853
 20
49.7239889138
 30
0.0
 10
407.7684699558
 20
49.9995778377
 30
0.0
 10
407.6176522979
 20
50.241572045
 30
0.0
 10
407.5251046295
 20
50.3216927336
 30
0.0
  0
SPLINE
  5
62D
100
AcDbEntity
  8
KONSTRUKTIONSELEMENTE
100
AcDbSpline
 62
7
  6
CONTINUOUS
 70
0
 71
3
 72
9
 73
5
 74
0
 42
0.0000001
 43
0.0000001
 44
0.0000000001
 40
0.0
 40
0.0
 40
0.0
 40
0.0
 40
0.5484587228
 40
1.0
 40
1.0
 40
1.0
 40
1.0
 10
389.4131258744
 20
37.2284784299
 30
0.0
 10
389.4131258744
 20
37.1727025454
 30
0.0
 10
389.4242162282
 20
37.0693987017
 30
0.0
 10
389.4806827951
 20
36.9786188619
 30
0.0
 10
389.5153952075
 20
36.9485576521
 30
0.0
  0
SPLINE
  5
62E
100
AcDbEntity
  8
0
100
AcDbSpline
 62
7
  6
CONTINUOUS
 70
0
 71
3
 72
11
 73
7
 74
0
 42
0.0000001
 43
0.0000001
 44
0.0000000001
 40
0.0
 40
0.0
 40
0.0
 40
0.0
 40
0.2280974949
 40
0.4667869455
 40
0.7233157359
 40
1.0
 40
1.0
 40
1.0
 40
1.0
 10
560.0342168897
 20
268.4812420232
 30
0.0
 10
560.0342168897
 20
269.8932010799
 30
0.0
 10
560.4238880402
 20
272.7961808495
 30
0.0
 10
562.1681415784
 20
276.9706221193
 30
0.0
 10
565.0577105988
 20
280.8315771556
 30
0.0
 10
567.6102037648
 20
282.9739661267
 30
0.0
 10
569.0284160599
 20
283.9342157537
 30
0.0
  0
SPLINE
  5
62F
100
AcDbEntity
  8
0
100
AcDbSpline
 62
7
  6
CONTINUOUS
 70
0
 71
3
 72
11
 73
7
 74
0
 42
0.0000001
 43
0.0000001
 44
0.0000000001
 40
0.0
 40
0.0
 40
0.0
 40
0.0
 40
0.2766834643
 40
0.533211798
 40
0.7719013868
 40
1.0
 40
1.0
 40
1.0
 40
1.0
 10
601.0412700641
 20
283.9333651905
 30
0.0
 10
602.45930152
 20
282.9731047581
 30
0.0
 10
605.0114665652
 20
280.8307626649
 30
0.0
 10
607.900617551
 20
276.9699962504
 30
0.0
 10
609.6446094258
 20
272.795844818
 30
0.0
 10
610.0342168897
 20
269.8930936325
 30
0.0
 10
610.0342168897
 20
268.4812420232
 30
0.0
  0
SPLINE
  5
630
100
AcDbEntity
  8
0
100
AcDbSpline
 62
7
  6
CONTINUOUS
 70
0
 71
3
 72
15
 73
11
 74
0
 42
0.0000001
 43
0.0000001
 44
0.0000000001
 40
0.0
 40
0.0
 40
0.0
 40
0.0
 40
0.1215781036
 40
0.2435598428
 40
0.3663284208
 40
0.4902144715
 40
0.6154639991
 40
0.7422094959
 40
0.8704410331
 40
1.0
 40
1.0
 40
1.0
 40
1.0
 10
538.0342168897
 20
268.4812420232
 30
0.0
 10
538.0342168897
 20
270.6608843222
 30
0.0
 10
538.4123007686
 20
275.0366355483
 30
0.0
 10
540.0941521384
 20
281.4164139464
 30
0.0
 10
542.8381573584
 20
287.4626400064
 30
0.0
 10
546.5625905948
 20
293.0275574693
 30
0.0
 10
551.164174169
 20
297.9875743993
 30
0.0
 10
556.5249307702
 20
302.2396027826
 30
0.0
 10
562.5138411528
 20
305.7000567858
 30
0.0
 10
566.8187782896
 20
307.4297393398
 30
0.0
 10
569.0284087217
 20
308.1456816973
 30
0.0
  0
SPLINE
  5
631
100
AcDbEntity
  8
0
100
AcDbSpline
 62
7
  6
CONTINUOUS
 70
0
 71
3
 72
15
 73
11
 74
0
 42
0.0000001
 43
0.0000001
 44
0.0000000001
 40
0.0
 40
0.0
 40
0.0
 40
0.0
 40
0.1295592315
 40
0.2577906836
 40
0.384535886
 40
0.5097850289
 40
0.6336707241
 40
0.756439124
 40
0.8784210718
 40
1.0
 40
1.0
 40
1.0
 40
1.0
 10
601.0383081574
 20
308.1462344075
 30
0.0
 10
603.248040173
 20
307.430338109
 30
0.0
 10
607.5531896649
 20
305.7007590325
 30
0.0
 10
613.5424025698
 20
302.2403643118
 30
0.0
 10
618.9034370018
 20
297.988340169
 30
0.0
 10
623.5052878203
 20
293.0282857147
 30
0.0
 10
627.2299386686
 20
287.4632621502
 30
0.0
 10
629.9741299494
 20
281.41688163
 30
0.0
 10
631.6561038224
 20
275.0368888382
 30
0.0
 10
632.0342168897
 20
270.6609720178
 30
0.0
 10
632.0342168897
 20
268.4812420232
 30
0.0
  0
SPLINE
  5
632
100
AcDbEntity
  8
0
100
AcDbSpline
 62
7
  6
CONTINUOUS
 70
0
 71
3
 72
16
 73
12
 74
0
 42
0.0000001
 43
0.0000001
 44
0.0000000001
 40
0.0
 40
0.0
 40
0.0
 40
0.0
 40
0.1210491015
 40
0.2425921246
 40
0.3650897112
 40
0.4889213368
 40
0.6143390677
 40
0.7414217298
 40
0.8056069841
 40
0.8701458716
 40
1.0
 40
1.0
 40
1.0
 40
1.0
 10
632.0342168897
 20
212.1895907773
 30
0.0
 10
632.0342168897
 20
209.7732579657
 30
0.0
 10
631.5687220089
 20
204.918184368
 30
0.0
 10
629.5035148528
 20
197.8863498639
 30
0.0
 10
626.1505750258
 20
191.3065705588
 30
0.0
 10
621.6306053517
 20
185.3728811069
 30
0.0
 10
616.0947222614
 20
180.2429260991
 30
0.0
 10
610.7887019757
 20
176.7520657932
 30
0.0
 10
606.2159237003
 20
174.469314463
 30
0.0
 10
601.4283967453
 20
172.5297389993
 30
0.0
 10
597.6686157071
 20
171.492736551
 30
0.0
 10
595.1251999683
 20
170.9927428144
 30
0.0
  0
SPLINE
  5
633
100
AcDbEntity
  8
0
100
AcDbSpline
 62
7
  6
CONTINUOUS
 70
0
 71
3
 72
11
 73
7
 74
0
 42
0.0000001
 43
0.0000001
 44
0.0000000001
 40
0.0
 40
0.0
 40
0.0
 40
0.0
 40
0.2540583159
 40
0.5057547979
 40
0.754483655
 40
1.0
 40
1.0
 40
1.0
 40
1.0
 10
574.9458494686
 20
170.9922279151
 30
0.0
 10
572.4360756366
 20
171.4854869112
 30
0.0
 10
567.5043963921
 20
172.8398175318
 30
0.0
 10
560.5417483669
 20
175.9485205601
 30
0.0
 10
554.2198199709
 20
180.0585761511
 30
0.0
 10
550.5235874363
 20
183.4304506276
 30
0.0
 10
548.846147954
 20
185.2459208391
 30
0.0
  0
SPLINE
  5
634
100
AcDbEntity
  8
0
100
AcDbSpline
 62
7
  6
CONTINUOUS
 70
0
 71
3
 72
11
 73
7
 74
0
 42
0.0000001
 43
0.0000001
 44
0.0000000001
 40
0.0
 40
0.0
 40
0.0
 40
0.0
 40
0.2521987722
 40
0.5025435313
 40
0.75159912
 40
1.0
 40
1.0
 40
1.0
 40
1.0
 10
544.9752972384
 20
190.0986951444
 30
0.0
 10
543.8610249827
 20
191.7286116525
 30
0.0
 10
541.8693885171
 20
195.140402616
 30
0.0
 10
539.6745895596
 20
200.6226654022
 30
0.0
 10
538.3346380157
 20
206.3439598303
 30
0.0
 10
538.0342168897
 20
210.2449297134
 30
0.0
 10
538.0342168897
 20
212.1895907773
 30
0.0
  0
SPLINE
  5
635
100
AcDbEntity
  8
0
100
AcDbSpline
 62
7
  6
CONTINUOUS
 70
0
 71
3
 72
14
 73
10
 74
0
 42
0.0000001
 43
0.0000001
 44
0.0000000001
 40
0.0
 40
0.0
 40
0.0
 40
0.0
 40
0.1078259079
 40
0.2181660442
 40
0.3331577066
 40
0.454187284
 40
0.5818617131
 40
0.7160485367
 40
1.0
 40
1.0
 40
1.0
 40
1.0
 10
610.0342168897
 20
212.1895907773
 30
0.0
 10
610.0342168897
 20
211.2140784039
 30
0.0
 10
609.8521139234
 20
209.2356895332
 30
0.0
 10
609.0321643006
 20
206.3191789877
 30
0.0
 10
607.6592411039
 20
203.4845689603
 30
0.0
 10
605.7355334434
 20
200.7967211538
 30
0.0
 10
603.2803559173
 20
198.3314381023
 30
0.0
 10
599.2896795483
 20
195.3991517896
 30
0.0
 10
595.7584038263
 20
193.8637859488
 30
0.0
 10
593.2882451555
 20
193.1582627046
 30
0.0
  0
SPLINE
  5
636
100
AcDbEntity
  8
0
100
AcDbSpline
 62
7
  6
CONTINUOUS
 70
0
 71
3
 72
9
 73
5
 74
0
 42
0.0000001
 43
0.0000001
 44
0.0000000001
 40
0.0
 40
0.0
 40
0.0
 40
0.0
 40
0.516614772
 40
1.0
 40
1.0
 40
1.0
 40
1.0
 10
576.7799608443
 20
193.1583312966
 30
0.0
 10
574.6816921544
 20
193.7576538224
 30
0.0
 10
570.7344448318
 20
195.3796059474
 30
0.0
 10
567.2888130109
 20
197.9124857648
 30
0.0
 10
565.8244652035
 20
199.3354110508
 30
0.0
  0
SPLINE
  5
637
100
AcDbEntity
  8
0
100
AcDbSpline
 62
7
  6
CONTINUOUS
 70
0
 71
3
 72
9
 73
5
 74
0
 42
0.0000001
 43
0.0000001
 44
0.0000000001
 40
0.0
 40
0.0
 40
0.0
 40
0.0
 40
0.5099491102
 40
1.0
 40
1.0
 40
1.0
 40
1.0
 10
561.9730621332
 20
204.4539626109
 30
0.0
 10
561.3424324516
 20
205.6651377068
 30
0.0
 10
560.3683644023
 20
208.189811479
 30
0.0
 10
560.0342168897
 20
210.8773554819
 30
0.0
 10
560.0342168897
 20
212.1895907773
 30
0.0
  0
ELLIPSE
  5
638
100
AcDbEntity
  8
KONSTRUKTIONSELEMENTE
100
AcDbEllipse
 62
7
  6
CONTINUOUS
 10
28.337204292
 20
123.7748709619
 30
0.0
 11
1.980963632
 21
-0.4682215726
 31
0.0
 40
0.0607989098
 41
-2.7235007144
 42
-1.1527043876
  0
ELLIPSE
  5
639
100
AcDbEntity
  8
KONSTRUKTIONSELEMENTE
100
AcDbEllipse
 62
7
  6
CONTINUOUS
 10
34.5158911147
 20
120.4060083956
 30
0.0
 11
-1.0679387289
 21
1.9951776436
 31
0.0
 40
0.7424978488
 41
4.1566475332
 42
5.72744386
  0
ELLIPSE
  5
63A
100
AcDbEntity
  8
KONSTRUKTIONSELEMENTE
100
AcDbEllipse
 62
7
  6
CONTINUOUS
 10
58.412885645
 20
80.6431356111
 30
0.0
 11
38.9711431703
 21
67.5
 31
0.0
 40
0.5773502692
 41
-0.346223333
 42
-0.1584398369
  0
ELLIPSE
  5
63B
100
AcDbEntity
  8
KONSTRUKTIONSELEMENTE
100
AcDbEllipse
 62
7
  6
CONTINUOUS
 10
58.412885645
 20
80.6431356111
 30
0.0
 11
38.9711431703
 21
67.5
 31
0.0
 40
0.5773502692
 41
0.1584398369
 42
0.346223333
  0
ELLIPSE
  5
63C
100
AcDbEntity
  8
0
100
AcDbEllipse
 62
7
  6
CONTINUOUS
 10
370.3096482473
 20
80.6431356111
 30
0.0
 11
-38.9711431703
 21
67.5
 31
0.0
 40
0.5773502692
 41
-0.346223333
 42
-0.1584398369
  0
ELLIPSE
  5
63D
100
AcDbEntity
  8
0
100
AcDbEllipse
 62
7
  6
CONTINUOUS
 10
370.3096482473
 20
80.6431356111
 30
0.0
 11
-38.9711431703
 21
67.5
 31
0.0
 40
0.5773502692
 41
0.1584398369
 42
0.346223333
  0
ELLIPSE
  5
63E
100
AcDbEntity
  8
0
100
AcDbEllipse
 62
7
  6
CONTINUOUS
 10
577.6094330842
 20
168.3118477529
 30
0.0
 11
-0.7577623572
 21
19.9859496715
 31
0.0
 40
0.1499826174
 41
-2.0721294977
 42
-1.8184032029
  0
ELLIPSE
  5
63F
100
AcDbEntity
  8
0
100
AcDbEllipse
 62
7
  6
CONTINUOUS
 10
577.9027093552
 20
160.9923514622
 30
0.0
 11
-0.2160298241
 21
4.5941061937
 31
0.0
 40
0.6522685966
 41
-2.4741231321
 42
-2.0971051843
  0
ELLIPSE
  5
640
100
AcDbEntity
  8
RUNDUNGEN
100
AcDbEllipse
 62
7
  6
CONTINUOUS
 10
592.1657244242
 20
160.9923514622
 30
0.0
 11
0.2160298241
 21
4.5941061937
 31
0.0
 40
0.6522685966
 41
-4.1860801229
 42
-3.8090621751
  0
ELLIPSE
  5
641
100
AcDbEntity
  8
RUNDUNGEN
100
AcDbEllipse
 62
7
  6
CONTINUOUS
 10
592.4590006952
 20
168.3118477529
 30
0.0
 11
0.7577623572
 21
19.9859496715
 31
0.0
 40
0.1499826174
 41
-4.4647821042
 42
-4.2110558095
  0
ELLIPSE
  5
642
100
AcDbEntity
  8
KONSTRUKTIONSELEMENTE
100
AcDbEllipse
 62
7
  6
CONTINUOUS
 10
455.452792134
 20
126.7754958968
 30
0.0
 11
-0.21844181
 21
2.7146389778
 31
0.0
 40
0.2046205075
 41
1.414284035
 42
2.9366360375
  0
ELLIPSE
  5
643
100
AcDbEntity
  8
KONSTRUKTIONSELEMENTE
100
AcDbEllipse
 62
7
  6
CONTINUOUS
 10
455.6246149811
 20
123.4678705741
 30
0.0
 11
1.7851318869
 21
2.0999716065
 31
0.0
 40
0.2502772103
 41
4.7445645141
 42
4.8795928328
  0
ELLIPSE
  5
644
100
AcDbEntity
  8
KONSTRUKTIONSELEMENTE
100
AcDbEllipse
 62
7
  6
CONTINUOUS
 10
458.9176153618
 20
123.7748709619
 30
0.0
 11
2.6921229081
 21
0.2166299849
 31
0.0
 40
0.1605475814
 41
1.7760442449
 42
3.2983962474
  0
ELLIPSE
  5
645
100
AcDbEntity
  8
KONSTRUKTIONSELEMENTE
100
AcDbEllipse
 62
7
  6
CONTINUOUS
 10
459.160148887
 20
120.4060083956
 30
0.0
 11
1.7851318869
 21
2.0999716065
 31
0.0
 40
0.2502772103
 41
-1.538620793
 42
0.0321755338
  0
ENDSEC
  0
SECTION
  2
OBJECTS
  0
DICTIONARY
  5
C
100
AcDbDictionary
280
0
281
1
  3
ACAD_GROUP
350
D
  3
ACAD_MLINESTYLE
350
17
  3
ACAD_LAYOUT
350
1A
  3
ACAD_PLOTSETTINGS
350
19
  3
ACAD_PLOTSTYLENAME
350
E
  0
DICTIONARY
  5
D
102
{ACAD_REACTORS
330
C
102
}
100
AcDbDictionary
280
0
281
1
  0
ACDBDICTIONARYWDFLT
  5
E
102
{ACAD_REACTORS
330
C
102
}
100
AcDbDictionary
281
1
  3
Normal
350
F
100
AcDbDictionaryWithDefault
340
F
  0
DICTIONARY
  5
17
102
{ACAD_REACTORS
330
C
102
}
100
AcDbDictionary
280
0
281
1
  3
Standard
350
18
  0
DICTIONARY
  5
19
102
{ACAD_REACTORS
330
C
102
}
100
AcDbDictionary
281
1
  0
DICTIONARY
  5
1A
102
{ACAD_REACTORS
330
C
102
}
100
AcDbDictionary
281
1
  3
Model
350
646
  3
Layout1
350
647
  0
ACDBPLACEHOLDER
  5
F
102
{ACAD_REACTORS
330
E
102
}
  0
MLINESTYLE
  5
18
102
{ACAD_REACTORS
330
17
102
}
100
AcDbMlineStyle
  2
STANDARD
 70
0
  3

 62
256
 51
90.0
 52
90.0
 71
2
 49
0.5
 62
256
  6
BYLAYER
 49
-0.5
 62
256
  6
BYLAYER
  0
LAYOUT
  5
646
102
{ACAD_REACTORS
330
1A
102
}
100
AcDbPlotSettings
  1

  2
none_device
  4
ISO_A1_(594.00_x_841.00_MM)
  6

 40
0.0
 41
0.0
 42
0.0
 43
0.0
 44
841.0
 45
594.0
 46
0.0
 47
0.0
 48
0.0
 49
0.0
140
0.0
141
0.0
142
1.0
143
1.0
 70
1024
 72
1
 73
0
 74
0
  7

 75
0
147
1.0
148
0.0
149
0.0
100
AcDbLayout
  1
Model
 70
0
 71
0
 10
0.0
 20
0.0
 11
841.0
 21
594.0
 12
0.0
 22
0.0
 32
0.0
 14
0.0
 24
0.0
 34
0.0
 15
0.0
 25
0.0
 35
0.0
146
0.0
 13
0.0
 23
0.0
 33
0.0
 16
1.0
 26
0.0
 36
0.0
 17
0.0
 27
1.0
 37
0.0
 76
0
330
20C
345
0
346
0
  0
LAYOUT
  5
647
102
{ACAD_REACTORS
330
1A
102
}
100
AcDbPlotSettings
  1

  2
none_device
  4
ISO_A1_(594.00_x_841.00_MM)
  6

 40
0.0
 41
0.0
 42
0.0
 43
0.0
 44
841.0
 45
594.0
 46
0.0
 47
0.0
 48
0.0
 49
0.0
140
0.0
141
0.0
142
1.0
143
1.0
 70
0
 72
1
 73
0
 74
0
  7

 75
0
147
1.0
148
0.0
149
0.0
100
AcDbLayout
  1
Layout1
 70
0
 71
1
 10
0.0
 20
0.0
 11
841.0
 21
594.0
 12
0.0
 22
0.0
 32
0.0
 14
0.0
 24
0.0
 34
0.0
 15
0.0
 25
0.0
 35
0.0
146
0.0
 13
0.0
 23
0.0
 33
0.0
 16
1.0
 26
0.0
 36
0.0
 17
0.0
 27
1.0
 37
0.0
 76
0
330
20D
345
0
346
0
  0
ENDSEC
  0
EOF
