999
DXF file: VSAK-2-10_250_7994079_M32395-P-1.dxf
999
Pro/ENGINEER 2010140 by Parametric Technology Corporation
  0
SECTION
  2
HEADER
  9
$ACADVER
  1
AC1015
  9
$DWGCODEPAGE
  3
ANSI_1252
  9
$EXTMAX
 10
1189.0
 20
841.0
 30
0.0
  9
$EXTMIN
 10
0.0
 20
0.0
 30
0.0
  9
$LIMMIN
 10
0.0
 20
0.0
  9
$LIMMAX
 10
1189.0
 20
841.0
  9
$VIEWCTR
 10
594.5
 20
420.5
  9
$VIEWSIZE
 40
841.0
  9
$CLAYER
  8
0
  9
$LTSCALE
 40
65.395
  9
$CELTYPE
  6
BYLAYER
  9
$DIMSCALE
 40
1.0
  9
$DIMASZ
 40
3.5
  9
$DIMEXO
 40
7.43125
  9
$DIMDLI
 40
45.182
  9
$DIMEXE
 40
21.402
  9
$DIMCEN
 40
10.701
  9
$DIMLFAC
 40
1.0
  9
$DIMBLK
  1
_FILLED
  9
$DIMTXT
 40
3.5
  9
$DIMTOL
 70
1
  9
$DIMLIM
 70
0
  9
$DIMTFAC
 40
1.0
  9
$DIMTP
 40
0.005
  9
$DIMTM
 40
0.005
  9
$PDMODE
 70
3
  9
$PDSIZE
 40
0.3125
  9
$HANDSEED
  5
5F0
  9
$TILEMODE
 70
1
  9
$MEASUREMENT
 70
1
  9
$INSUNITS
 70
4
  0
ENDSEC
  0
SECTION
  2
CLASSES
  0
CLASS
  1
ACDBDICTIONARYWDFLT
  2
AcDbDictionaryWithDefault
  3
AutoCAD 2000
 90
0
280
0
281
0
  0
CLASS
  1
ACDBPLACEHOLDER
  2
AcDbPlaceHolder
  3
AutoCAD 2000
 90
0
280
0
281
0
  0
CLASS
  1
LAYOUT
  2
AcDbLayout
  3
AutoCAD 2000
 90
0
280
0
281
0
  0
ENDSEC
  0
SECTION
  2
TABLES
  0
TABLE
  2
VPORT
  5
8
100
AcDbSymbolTable
 70
2
  0
VPORT
  5
1F4
100
AcDbSymbolTableRecord
100
AcDbViewportTableRecord
  2
*ACTIVE
 70
0
 10
0.0
 20
0.0
 11
1.0
 21
1.0
 12
594.5
 22
420.5
 13
0.0
 23
0.0
 14
1.0
 24
1.0
 15
0.0
 25
0.0
 16
0.0
 26
0.0
 36
1.0
 17
0.0
 27
0.0
 37
0.0
 40
841.0
 41
1.4137931034
 42
50.0
 43
0.0
 44
0.0
 50
0.0
 51
0.0
 71
0
 72
100
 73
1
 74
1
 75
0
 76
0
 77
0
 78
0
  0
ENDTAB
  0
TABLE
  2
LTYPE
  5
5
100
AcDbSymbolTable
 70
6
  0
LTYPE
  5
14
100
AcDbSymbolTableRecord
100
AcDbLinetypeTableRecord
  2
BYBLOCK
 70
0
  3

 72
65
 73
0
 40
0.0
  0
LTYPE
  5
15
100
AcDbSymbolTableRecord
100
AcDbLinetypeTableRecord
  2
BYLAYER
 70
0
  3

 72
65
 73
0
 40
0.0
  0
LTYPE
  5
16
100
AcDbSymbolTableRecord
100
AcDbLinetypeTableRecord
  2
CONTINUOUS
 70
64
  3
Solid line
 72
65
 73
0
 40
0.0
  0
LTYPE
  5
1F5
100
AcDbSymbolTableRecord
100
AcDbLinetypeTableRecord
  2
CENTER
 70
64
  3
____ _ ____ _ ____ _ ____ _ ____ _ ____ _ ____
 72
65
 73
4
 40
0.6
 49
0.375
 74
0
 49
-0.075
 74
0
 49
0.075
 74
0
 49
-0.075
 74
0
  0
LTYPE
  5
1F6
100
AcDbSymbolTableRecord
100
AcDbLinetypeTableRecord
  2
HIDDEN
 70
64
  3
- - - - - - - - - - - - - - - - - - - -
 72
65
 73
2
 40
0.2
 49
0.1
 74
0
 49
-0.1
 74
0
  0
LTYPE
  5
1F7
100
AcDbSymbolTableRecord
100
AcDbLinetypeTableRecord
  2
PHANTOM
 70
64
  3
_____ _ _ _____ _ _ _____ _ _ _____
 72
65
 73
6
 40
0.8
 49
0.45
 74
0
 49
-0.05
 74
0
 49
0.1
 74
0
 49
-0.05
 74
0
 49
0.1
 74
0
 49
-0.05
 74
0
  0
LTYPE
  5
1F8
100
AcDbSymbolTableRecord
100
AcDbLinetypeTableRecord
  2
DOT
 70
64
  3
. . . . . . . . . . . . . . . . . . . .
 72
65
 73
2
 40
0.2
 49
0.1
 74
0
 49
-0.1
 74
0
  0
LTYPE
  5
1F9
100
AcDbSymbolTableRecord
100
AcDbLinetypeTableRecord
  2
DASHED
 70
64
  3
- - - - - - - - - - - - - - - - - - - -
 72
65
 73
2
 40
0.2
 49
0.1
 74
0
 49
-0.1
 74
0
  0
ENDTAB
  0
TABLE
  2
LAYER
  5
2
100
AcDbSymbolTable
 70
36
  0
LAYER
  5
10
100
AcDbSymbolTableRecord
100
AcDbLayerTableRecord
  2
0
 70
0
 62
7
  6
CONTINUOUS
370
-3
390
F
  0
LAYER
  5
1FA
100
AcDbSymbolTableRecord
100
AcDbLayerTableRecord
  2
DEFAULT_1
 70
0
 62
7
  6
CENTER
370
-3
390
F
  0
LAYER
  5
1FB
100
AcDbSymbolTableRecord
100
AcDbLayerTableRecord
  2
DEFAULT_2
 70
0
 62
8
  6
HIDDEN
370
-3
390
F
  0
LAYER
  5
1FC
100
AcDbSymbolTableRecord
100
AcDbLayerTableRecord
  2
DEFAULT_3
 70
0
 62
7
  6
PHANTOM
370
-3
390
F
  0
LAYER
  5
1FD
100
AcDbSymbolTableRecord
100
AcDbLayerTableRecord
  2
AUSFORMSCHRAEGEN
 70
0
 62
7
  6
CONTINUOUS
370
-3
390
F
  0
LAYER
  5
1FE
100
AcDbSymbolTableRecord
100
AcDbLayerTableRecord
  2
BEZUGSACHSEN
 70
0
 62
7
  6
CONTINUOUS
370
-3
390
F
  0
LAYER
  5
1FF
100
AcDbSymbolTableRecord
100
AcDbLayerTableRecord
  2
BEZUGSEBENEN
 70
0
 62
7
  6
CONTINUOUS
370
-3
390
F
  0
LAYER
  5
200
100
AcDbSymbolTableRecord
100
AcDbLayerTableRecord
  2
BG_STARTBEZUEGE
 70
0
 62
7
  6
CONTINUOUS
370
-3
390
F
  0
LAYER
  5
201
100
AcDbSymbolTableRecord
100
AcDbLayerTableRecord
  2
FASEN
 70
0
 62
7
  6
CONTINUOUS
370
-3
390
F
  0
LAYER
  5
202
100
AcDbSymbolTableRecord
100
AcDbLayerTableRecord
  2
FLAECHEN
 70
0
 62
7
  6
CONTINUOUS
370
-3
390
F
  0
LAYER
  5
203
100
AcDbSymbolTableRecord
100
AcDbLayerTableRecord
  2
HILFEN
 70
0
 62
7
  6
CONTINUOUS
370
-3
390
F
  0
LAYER
  5
204
100
AcDbSymbolTableRecord
100
AcDbLayerTableRecord
  2
KONSTRUKTIONSELEMENTE
 70
0
 62
7
  6
CONTINUOUS
370
-3
390
F
  0
LAYER
  5
205
100
AcDbSymbolTableRecord
100
AcDbLayerTableRecord
  2
NORM
 70
0
 62
7
  6
CONTINUOUS
370
-3
390
F
  0
LAYER
  5
206
100
AcDbSymbolTableRecord
100
AcDbLayerTableRecord
  2
PLATZIERUNG
 70
0
 62
7
  6
CONTINUOUS
370
-3
390
F
  0
LAYER
  5
207
100
AcDbSymbolTableRecord
100
AcDbLayerTableRecord
  2
PLAZIERUNG
 70
0
 62
7
  6
CONTINUOUS
370
-3
390
F
  0
LAYER
  5
208
100
AcDbSymbolTableRecord
100
AcDbLayerTableRecord
  2
RUNDUNGEN
 70
0
 62
7
  6
CONTINUOUS
370
-3
390
F
  0
LAYER
  5
209
100
AcDbSymbolTableRecord
100
AcDbLayerTableRecord
  2
TEIL_STARTBEZUEGE
 70
0
 62
7
  6
CONTINUOUS
370
-3
390
F
  0
LAYER
  5
20A
100
AcDbSymbolTableRecord
100
AcDbLayerTableRecord
  2
T_STARTBEZUEGE
 70
0
 62
7
  6
CONTINUOUS
370
-3
390
F
  0
ENDTAB
  0
TABLE
  2
STYLE
  5
3
100
AcDbSymbolTable
 70
1
  0
STYLE
  5
11
100
AcDbSymbolTableRecord
100
AcDbTextStyleTableRecord
  2
STANDARD
 70
0
 40
0.0
 41
0.7
 50
0.0
 71
0
 42
0.2
  3
txt
  4

  0
STYLE
  5
20B
100
AcDbSymbolTableRecord
100
AcDbTextStyleTableRecord
  2
TEXTSTYLE_1
 70
0
 40
0.0
 41
0.8
 50
0.0
 71
0
 42
0.2
  3
gdt
  4

  0
ENDTAB
  0
TABLE
  2
VIEW
  5
6
100
AcDbSymbolTable
 70
0
  0
ENDTAB
  0
TABLE
  2
UCS
  5
7
100
AcDbSymbolTable
 70
0
  0
ENDTAB
  0
TABLE
  2
APPID
  5
9
100
AcDbSymbolTable
 70
1
  0
APPID
  5
20C
100
AcDbSymbolTableRecord
100
AcDbRegAppTableRecord
  2
ACAD
 70
0
  0
ENDTAB
  0
TABLE
  2
BLOCK_RECORD
  5
1
100
AcDbSymbolTable
 70
0
  0
BLOCK_RECORD
  5
20D
100
AcDbSymbolTableRecord
100
AcDbBlockTableRecord
  2
*Model_Space
  0
BLOCK_RECORD
  5
20E
100
AcDbSymbolTableRecord
100
AcDbBlockTableRecord
  2
*Paper_Space
  0
ENDTAB
  0
TABLE
  2
DIMSTYLE
  5
A
100
AcDbSymbolTable
 70
1
100
AcDbDimStyleTable
 71
0
  0
DIMSTYLE
105
20F
100
AcDbSymbolTableRecord
100
AcDbDimStyleTableRecord
  2
STANDARD
 70
0
  3

  4

 40
1.0
 41
3.5
 42
0.0625
 43
0.38
 44
0.18
 45
0.0
 46
0.0
 47
0.005
 48
0.005
140
3.5
141
0.09
142
0.0
143
25.4
144
1.0
145
0.0
146
1.0
147
0.09
 71
1.0
 72
0.0
 73
0
 74
0
 75
0
 76
0
 77
1
 78
8
170
0
171
2
172
0
173
0
174
0
175
0
176
0
177
0
178
5
270
2
271
3
272
3
273
2
274
2
275
0
280
0
281
0
282
0
283
1
284
8
285
0
286
0
287
3
288
0
340
11
  0
ENDTAB
  0
ENDSEC
  0
SECTION
  2
BLOCKS
  0
BLOCK
  5
20
100
AcDbEntity
  8
0
100
AcDbBlockBegin
  2
*Model_Space
 70
0
 10
0.0
 20
0.0
 30
0.0
  3
*Model_Space
  1

  0
ENDBLK
  5
21
100
AcDbEntity
  8
0
100
AcDbBlockEnd
  0
BLOCK
  5
1C
100
AcDbEntity
  8
0
100
AcDbBlockBegin
  2
*Paper_Space
 70
0
 10
0.0
 20
0.0
 30
0.0
  3
*Paper_Space
  1

  0
ENDBLK
  5
1D
100
AcDbEntity
  8
0
100
AcDbBlockEnd
  0
ENDSEC
  0
SECTION
  2
ENTITIES
  0
MTEXT
  5
210
100
AcDbEntity
  8
0
100
AcDbMText
 62
5
  6
CONTINUOUS
  7
STANDARD
 71
1
 72
1
 10
148.9387850662
 20
461.744858271
 30
0.0
 11
0.0
 21
1.0
 31
0.0
 44
0.9
  1
RUD
 40
8.0
 41
21.3333333333
  0
MTEXT
  5
211
100
AcDbEntity
  8
0
100
AcDbMText
 62
5
  6
CONTINUOUS
  7
STANDARD
 71
1
 72
1
 10
434.3940006328
 20
432.475747704
 30
0.0
 11
0.0
 21
1.0
 31
0.0
 44
0.9
  1
VSAK 2-10/250
 40
8.0
 41
81.1428571429
  0
MTEXT
  5
212
100
AcDbEntity
  8
0
100
AcDbMText
 62
5
  6
CONTINUOUS
  7
STANDARD
 71
1
 72
1
 10
729.7966326459
 20
444.5186334915
 30
0.0
 11
0.0
 21
1.0
 31
0.0
 44
0.9
  1
RUD VSAK 2-10/250
 40
8.0
 41
107.2380952381
  0
LINE
  5
213
100
AcDbEntity
  8
0
100
AcDbLine
 62
7
  6
CONTINUOUS
 10
0.0
 20
0.0
 11
0.0
 21
841.0
  0
LINE
  5
214
100
AcDbEntity
  8
0
100
AcDbLine
 62
7
  6
CONTINUOUS
 10
0.0
 20
0.0
 11
1189.0
 21
0.0
  0
LINE
  5
215
100
AcDbEntity
  8
0
100
AcDbLine
 62
7
  6
CONTINUOUS
 10
0.0
 20
841.0
 11
1189.0
 21
841.0
  0
LINE
  5
216
100
AcDbEntity
  8
0
100
AcDbLine
 62
7
  6
CONTINUOUS
 10
1189.0
 20
0.0
 11
1189.0
 21
841.0
  0
LINE
  5
217
100
AcDbEntity
  8
KONSTRUKTIONSELEMENTE
100
AcDbLine
 62
7
  6
CONTINUOUS
 10
110.0701868321
 20
57.8562201445
 11
117.9510180066
 21
53.3062201445
  0
LINE
  5
218
100
AcDbEntity
  8
KONSTRUKTIONSELEMENTE
100
AcDbLine
 62
7
  6
CONTINUOUS
 10
109.8139508255
 20
58.4124063624
 11
110.2469635274
 21
58.1624063624
  0
LINE
  5
219
100
AcDbEntity
  8
KONSTRUKTIONSELEMENTE
100
AcDbLine
 62
7
  6
CONTINUOUS
 10
118.1277947019
 20
53.6124063624
 11
118.5608074037
 21
53.3624063624
  0
LINE
  5
21A
100
AcDbEntity
  8
KONSTRUKTIONSELEMENTE
100
AcDbLine
 62
7
  6
CONTINUOUS
 10
113.6771530288
 20
72.1036688584
 11
112.7672909664
 21
72.6289779651
  0
LINE
  5
21B
100
AcDbEntity
  8
KONSTRUKTIONSELEMENTE
100
AcDbLine
 62
7
  6
CONTINUOUS
 10
128.4861874336
 20
63.5536688584
 11
140.4466392907
 21
56.6482987591
  0
LINE
  5
21C
100
AcDbEntity
  8
KONSTRUKTIONSELEMENTE
100
AcDbLine
 62
7
  6
CONTINUOUS
 10
108.2625952322
 20
110.340292749
 11
114.335569195
 21
109.0769909741
  0
LINE
  5
21D
100
AcDbEntity
  8
KONSTRUKTIONSELEMENTE
100
AcDbLine
 62
7
  6
CONTINUOUS
 10
108.4393719275
 20
110.6464789668
 11
114.5123458903
 21
109.383177192
  0
LINE
  5
21E
100
AcDbEntity
  8
KONSTRUKTIONSELEMENTE
100
AcDbLine
 62
7
  6
CONTINUOUS
 10
109.7496875379
 20
111.8875618638
 11
114.4212059708
 21
110.9157912678
  0
LINE
  5
21F
100
AcDbEntity
  8
KONSTRUKTIONSELEMENTE
100
AcDbLine
 62
7
  6
CONTINUOUS
 10
111.1639011003
 20
114.3370516066
 11
115.4600329633
 21
113.4433690319
  0
LINE
  5
220
100
AcDbEntity
  8
KONSTRUKTIONSELEMENTE
100
AcDbLine
 62
7
  6
CONTINUOUS
 10
109.8493815042
 20
120.0477220256
 11
114.30400626
 21
119.1210697141
  0
LINE
  5
221
100
AcDbEntity
  8
KONSTRUKTIONSELEMENTE
100
AcDbLine
 62
7
  6
CONTINUOUS
 10
113.7226532365
 20
119.383820634
 11
107.6496792737
 21
120.6471224088
  0
LINE
  5
222
100
AcDbEntity
  8
KONSTRUKTIONSELEMENTE
100
AcDbLine
 62
7
  6
CONTINUOUS
 10
107.6496792737
 20
120.6471224088
 11
107.8492409488
 21
120.5701551077
  0
LINE
  5
223
100
AcDbEntity
  8
KONSTRUKTIONSELEMENTE
100
AcDbLine
 62
7
  6
CONTINUOUS
 10
145.8399204918
 20
56.8898554764
 11
141.7093820808
 21
61.5175543173
  0
LINE
  5
224
100
AcDbEntity
  8
KONSTRUKTIONSELEMENTE
100
AcDbLine
 62
7
  6
CONTINUOUS
 10
147.6076874448
 20
59.9517176549
 11
143.4771490337
 21
64.5794164958
  0
LINE
  5
225
100
AcDbEntity
  8
KONSTRUKTIONSELEMENTE
100
AcDbLine
 62
7
  6
CONTINUOUS
 10
142.6264144827
 20
118.6690449138
 11
112.0022079884
 21
125.0395010782
  0
LINE
  5
226
100
AcDbEntity
  8
KONSTRUKTIONSELEMENTE
100
AcDbLine
 62
7
  6
CONTINUOUS
 10
144.3941814357
 20
121.7309070923
 11
113.7699749414
 21
128.1013632566
  0
LINE
  5
227
100
AcDbEntity
  8
KONSTRUKTIONSELEMENTE
100
AcDbLine
 62
7
  6
CONTINUOUS
 10
173.0740376766
 20
122.33381598
 11
170.0250807885
 21
124.0941320601
  0
LINE
  5
228
100
AcDbEntity
  8
KONSTRUKTIONSELEMENTE
100
AcDbLine
 62
7
  6
CONTINUOUS
 10
145.3372854409
 20
138.3476373497
 11
142.2883285528
 21
140.1079534298
  0
LINE
  5
229
100
AcDbEntity
  8
0
100
AcDbLine
 62
7
  6
CONTINUOUS
 10
156.8064408535
 20
140.905786665
 11
166.5059253759
 21
135.305786665
  0
LINE
  5
22A
100
AcDbEntity
  8
KONSTRUKTIONSELEMENTE
100
AcDbLine
 62
7
  6
CONTINUOUS
 10
177.0603386834
 20
79.2175262899
 11
181.1908770945
 21
74.5898274491
  0
LINE
  5
22B
100
AcDbEntity
  8
KONSTRUKTIONSELEMENTE
100
AcDbLine
 62
7
  6
CONTINUOUS
 10
154.3383553074
 20
111.9071527259
 11
182.7930448008
 21
80.0275959994
  0
LINE
  5
22C
100
AcDbEntity
  8
KONSTRUKTIONSELEMENTE
100
AcDbLine
 62
7
  6
CONTINUOUS
 10
184.5608117538
 20
83.0894581779
 11
156.1061222603
 21
114.9690149044
  0
LINE
  5
22D
100
AcDbEntity
  8
0
100
AcDbLine
 62
7
  6
CONTINUOUS
 10
162.8564408535
 20
151.3846940508
 11
172.5559253759
 21
145.7846940508
  0
LINE
  5
22E
100
AcDbEntity
  8
KONSTRUKTIONSELEMENTE
100
AcDbLine
 62
7
  6
CONTINUOUS
 10
206.9332365137
 20
174.4235679176
 11
207.5648335408
 21
174.2992550265
  0
LINE
  5
22F
100
AcDbEntity
  8
KONSTRUKTIONSELEMENTE
100
AcDbLine
 62
7
  6
CONTINUOUS
 10
208.447660632
 20
176.4134015965
 11
209.0792572644
 21
176.2890849083
  0
LINE
  5
230
100
AcDbEntity
  8
KONSTRUKTIONSELEMENTE
100
AcDbLine
 62
7
  6
CONTINUOUS
 10
206.9063721231
 20
174.0077707358
 11
207.4318072863
 21
173.8903130724
  0
LINE
  5
231
100
AcDbEntity
  8
KONSTRUKTIONSELEMENTE
100
AcDbLine
 62
7
  6
CONTINUOUS
 10
208.5806866405
 20
176.8223397439
 11
209.106121901
 21
176.7048858968
  0
LINE
  5
232
100
AcDbEntity
  8
KONSTRUKTIONSELEMENTE
100
AcDbLine
 62
7
  6
CONTINUOUS
 10
206.5932600984
 20
174.111506514
 11
206.9063721231
 21
174.0077707358
  0
LINE
  5
233
100
AcDbEntity
  8
KONSTRUKTIONSELEMENTE
100
AcDbLine
 62
7
  6
CONTINUOUS
 10
209.106121901
 20
176.7048858968
 11
209.4192342231
 21
176.6011500994
  0
LINE
  5
234
100
AcDbEntity
  8
KONSTRUKTIONSELEMENTE
100
AcDbLine
 62
7
  6
CONTINUOUS
 10
206.1793594564
 20
174.3052638132
 11
206.5932600984
 21
174.111506514
  0
LINE
  5
235
100
AcDbEntity
  8
KONSTRUKTIONSELEMENTE
100
AcDbLine
 62
7
  6
CONTINUOUS
 10
209.4192342231
 20
176.6011500994
 11
209.8331347908
 21
176.407392805
  0
LINE
  5
236
100
AcDbEntity
  8
KONSTRUKTIONSELEMENTE
100
AcDbLine
 62
7
  6
CONTINUOUS
 10
206.3177585398
 20
174.7973644423
 11
206.9332365137
 21
174.4235679176
  0
LINE
  5
237
100
AcDbEntity
  8
BEZUGSACHSEN
100
AcDbLine
 62
7
  6
CONTINUOUS
 10
400.8220497963
 20
205.9613680244
 11
410.4759380966
 21
208.0133653282
  0
LINE
  5
238
100
AcDbEntity
  8
KONSTRUKTIONSELEMENTE
100
AcDbLine
 62
7
  6
CONTINUOUS
 10
209.2473009915
 20
173.9400306251
 11
208.9234430115
 21
173.8774490725
  0
LINE
  5
239
100
AcDbEntity
  8
KONSTRUKTIONSELEMENTE
100
AcDbLine
 62
7
  6
CONTINUOUS
 10
208.9234430115
 20
173.8774490725
 11
208.3872618472
 21
173.8285817628
  0
LINE
  5
23A
100
AcDbEntity
  8
KONSTRUKTIONSELEMENTE
100
AcDbLine
 62
7
  6
CONTINUOUS
 10
207.6252320796
 20
176.8840710535
 11
207.0890510126
 21
176.8352075601
  0
LINE
  5
23B
100
AcDbEntity
  8
KONSTRUKTIONSELEMENTE
100
AcDbLine
 62
7
  6
CONTINUOUS
 10
208.9503074022
 20
174.2932462543
 11
208.3079648659
 21
174.2512417857
  0
LINE
  5
23C
100
AcDbEntity
  8
KONSTRUKTIONSELEMENTE
100
AcDbLine
 62
7
  6
CONTINUOUS
 10
207.7045293068
 20
176.4614148373
 11
207.0621863759
 21
176.4194065716
  0
LINE
  5
23D
100
AcDbEntity
  8
KONSTRUKTIONSELEMENTE
100
AcDbLine
 62
7
  6
CONTINUOUS
 10
210.5390088327
 20
177.9807307858
 11
205.5478602312
 21
177.6833494855
  0
LINE
  5
23E
100
AcDbEntity
  8
KONSTRUKTIONSELEMENTE
100
AcDbLine
 62
7
  6
CONTINUOUS
 10
205.5181221011
 20
178.1824643457
 11
209.6597135951
 21
178.4292275583
  0
LINE
  5
23F
100
AcDbEntity
  8
KONSTRUKTIONSELEMENTE
100
AcDbLine
 62
7
  6
CONTINUOUS
 10
208.8866126986
 20
178.8840515741
 11
209.7361701036
 21
178.9346696794
  0
LINE
  5
240
100
AcDbEntity
  8
KONSTRUKTIONSELEMENTE
100
AcDbLine
 62
7
  6
CONTINUOUS
 10
205.1967197843
 20
188.6563353798
 11
205.6901077588
 21
188.6684049273
  0
LINE
  5
241
100
AcDbEntity
  8
KONSTRUKTIONSELEMENTE
100
AcDbLine
 62
7
  6
CONTINUOUS
 10
207.0567561788
 20
187.6251283652
 11
207.513760961
 21
187.6260908935
  0
LINE
  5
242
100
AcDbEntity
  8
KONSTRUKTIONSELEMENTE
100
AcDbLine
 62
7
  6
CONTINUOUS
 10
177.5230781312
 20
198.1732890351
 11
177.872780514
 21
198.1616066513
  0
LINE
  5
243
100
AcDbEntity
  8
KONSTRUKTIONSELEMENTE
100
AcDbLine
 62
7
  6
CONTINUOUS
 10
208.3872618472
 20
173.8285817628
 11
207.4318072863
 21
173.8903130724
  0
LINE
  5
244
100
AcDbEntity
  8
KONSTRUKTIONSELEMENTE
100
AcDbLine
 62
7
  6
CONTINUOUS
 10
208.3079648659
 20
174.2512417857
 11
207.5648335408
 21
174.2992550265
  0
LINE
  5
245
100
AcDbEntity
  8
KONSTRUKTIONSELEMENTE
100
AcDbLine
 62
7
  6
CONTINUOUS
 10
207.7045293068
 20
176.4614148373
 11
208.447660632
 21
176.4134015965
  0
LINE
  5
246
100
AcDbEntity
  8
KONSTRUKTIONSELEMENTE
100
AcDbLine
 62
7
  6
CONTINUOUS
 10
207.6252320796
 20
176.8840710535
 11
208.5806866405
 21
176.8223397439
  0
LINE
  5
247
100
AcDbEntity
  8
KONSTRUKTIONSELEMENTE
100
AcDbLine
 62
7
  6
CONTINUOUS
 10
207.1411051551
 20
187.1209432315
 11
207.4991357615
 21
187.0829008297
  0
LINE
  5
248
100
AcDbEntity
  8
KONSTRUKTIONSELEMENTE
100
AcDbLine
 62
7
  6
CONTINUOUS
 10
205.2480723241
 20
189.1786677516
 11
205.5167454491
 21
189.1493028843
  0
LINE
  5
249
100
AcDbEntity
  8
KONSTRUKTIONSELEMENTE
100
AcDbLine
 62
7
  6
CONTINUOUS
 10
181.8150830257
 20
203.3108938873
 11
182.2401101685
 21
203.2454672919
  0
LINE
  5
24A
100
AcDbEntity
  8
0
100
AcDbLine
 62
7
  6
CONTINUOUS
 10
190.4403164331
 20
205.9613680244
 11
180.7864281328
 21
208.0133653282
  0
LINE
  5
24B
100
AcDbEntity
  8
KONSTRUKTIONSELEMENTE
100
AcDbLine
 62
7
  6
CONTINUOUS
 10
181.8770547281
 20
202.6756115998
 11
182.2191415962
 21
202.6020941917
  0
LINE
  5
24C
100
AcDbEntity
  8
KONSTRUKTIONSELEMENTE
100
AcDbLine
 62
7
  6
CONTINUOUS
 10
204.7988790927
 20
183.7794719443
 11
205.3169922781
 21
183.6253733082
  0
LINE
  5
24D
100
AcDbEntity
  8
KONSTRUKTIONSELEMENTE
100
AcDbLine
 62
7
  6
CONTINUOUS
 10
207.513760961
 20
187.6260908935
 11
208.0318755104
 21
187.4719886947
  0
LINE
  5
24E
100
AcDbEntity
  8
KONSTRUKTIONSELEMENTE
100
AcDbLine
 62
7
  6
CONTINUOUS
 10
177.2378998085
 20
197.6504486203
 11
177.6165455785
 21
197.5363962128
  0
LINE
  5
24F
100
AcDbEntity
  8
KONSTRUKTIONSELEMENTE
100
AcDbLine
 62
7
  6
CONTINUOUS
 10
173.3273190437
 20
201.0327309585
 11
173.766280421
 21
200.8903231407
  0
LINE
  5
250
100
AcDbEntity
  8
BEZUGSACHSEN
100
AcDbLine
 62
7
  6
CONTINUOUS
 10
408.8645883067
 20
124.9671049299
 11
416.5042882661
 21
122.186481546
  0
LINE
  5
251
100
AcDbEntity
  8
KONSTRUKTIONSELEMENTE
100
AcDbLine
 62
7
  6
CONTINUOUS
 10
177.2246224435
 20
198.310013488
 11
177.5230781312
 21
198.1732890351
  0
LINE
  5
252
100
AcDbEntity
  8
KONSTRUKTIONSELEMENTE
100
AcDbLine
 62
7
  6
CONTINUOUS
 10
204.8401341331
 20
188.8272923296
 11
205.1967197843
 21
188.6563353798
  0
LINE
  5
253
100
AcDbEntity
  8
KONSTRUKTIONSELEMENTE
100
AcDbLine
 62
7
  6
CONTINUOUS
 10
173.4836232627
 20
200.5175156165
 11
173.7262383825
 21
200.39841461
  0
LINE
  5
254
100
AcDbEntity
  8
KONSTRUKTIONSELEMENTE
100
AcDbLine
 62
7
  6
CONTINUOUS
 10
182.2401101685
 20
203.2454672919
 11
182.5925256537
 21
203.0660695025
  0
LINE
  5
255
100
AcDbEntity
  8
KONSTRUKTIONSELEMENTE
100
AcDbLine
 62
7
  6
CONTINUOUS
 10
205.0420067181
 20
184.3231432859
 11
205.331617547
 21
184.1685633993
  0
LINE
  5
256
100
AcDbEntity
  8
KONSTRUKTIONSELEMENTE
100
AcDbLine
 62
7
  6
CONTINUOUS
 10
207.4991357615
 20
187.0829008297
 11
207.7887465211
 21
186.9283209158
  0
LINE
  5
257
100
AcDbEntity
  8
KONSTRUKTIONSELEMENTE
100
AcDbLine
 62
7
  6
CONTINUOUS
 10
208.8866126986
 20
178.8840515741
 11
209.6597135951
 21
178.4292275583
  0
LINE
  5
258
100
AcDbEntity
  8
KONSTRUKTIONSELEMENTE
100
AcDbLine
 62
7
  6
CONTINUOUS
 10
209.7361701036
 20
178.9346696794
 11
210.5092707026
 21
178.4798456459
  0
LINE
  5
259
100
AcDbEntity
  8
KONSTRUKTIONSELEMENTE
100
AcDbLine
 62
7
  6
CONTINUOUS
 10
209.0792572644
 20
176.2890849083
 11
209.6947357073
 21
175.9152921759
  0
LINE
  5
25A
100
AcDbEntity
  8
KONSTRUKTIONSELEMENTE
100
AcDbLine
 62
7
  6
CONTINUOUS
 10
173.766280421
 20
200.8903231407
 11
174.1764716411
 21
200.6158772801
  0
LINE
  5
25B
100
AcDbEntity
  8
KONSTRUKTIONSELEMENTE
100
AcDbLine
 62
7
  6
CONTINUOUS
 10
182.2191415962
 20
202.6020941917
 11
182.4886177559
 21
202.4146056821
  0
LINE
  5
25C
100
AcDbEntity
  8
KONSTRUKTIONSELEMENTE
100
AcDbLine
 62
7
  6
CONTINUOUS
 10
205.0258222294
 20
189.3349438881
 11
205.2480723241
 21
189.1786677516
  0
LINE
  5
25D
100
AcDbEntity
  8
KONSTRUKTIONSELEMENTE
100
AcDbLine
 62
7
  6
CONTINUOUS
 10
204.4787134236
 20
184.0115842115
 11
204.7988790927
 21
183.7794719443
  0
LINE
  5
25E
100
AcDbEntity
  8
KONSTRUKTIONSELEMENTE
100
AcDbLine
 62
7
  6
CONTINUOUS
 10
208.0318755104
 20
187.4719886947
 11
208.3520397549
 21
187.2398799663
  0
LINE
  5
25F
100
AcDbEntity
  8
KONSTRUKTIONSELEMENTE
100
AcDbLine
 62
7
  6
CONTINUOUS
 10
176.8013686533
 20
197.9692414195
 11
177.2378998085
 21
197.6504486203
  0
LINE
  5
260
100
AcDbEntity
  8
KONSTRUKTIONSELEMENTE
100
AcDbLine
 62
7
  6
CONTINUOUS
 10
205.8769932983
 20
174.5753207506
 11
206.1793594564
 21
174.3052638132
  0
LINE
  5
261
100
AcDbEntity
  8
KONSTRUKTIONSELEMENTE
100
AcDbLine
 62
7
  6
CONTINUOUS
 10
209.8331347908
 20
176.407392805
 11
210.1355009116
 21
176.13733587
  0
LINE
  5
262
100
AcDbEntity
  8
KONSTRUKTIONSELEMENTE
100
AcDbLine
 62
7
  6
CONTINUOUS
 10
182.5925256537
 20
203.0660695025
 11
182.965598373
 21
202.6749109506
  0
LINE
  5
263
100
AcDbEntity
  8
KONSTRUKTIONSELEMENTE
100
AcDbLine
 62
7
  6
CONTINUOUS
 10
176.9774134913
 20
198.5717798665
 11
177.2246224435
 21
198.310013488
  0
LINE
  5
264
100
AcDbEntity
  8
KONSTRUKTIONSELEMENTE
100
AcDbLine
 62
7
  6
CONTINUOUS
 10
174.3914980707
 20
198.8294618153
 11
176.1310269854
 21
196.9523866774
  0
LINE
  5
265
100
AcDbEntity
  8
KONSTRUKTIONSELEMENTE
100
AcDbLine
 62
7
  6
CONTINUOUS
 10
174.0338020002
 20
198.4204104955
 11
175.6057547073
 21
196.6986801597
  0
LINE
  5
266
100
AcDbEntity
  8
KONSTRUKTIONSELEMENTE
100
AcDbLine
 62
7
  6
CONTINUOUS
 10
173.7262383825
 20
200.39841461
 11
173.9400831305
 21
200.1472754571
  0
LINE
  5
267
100
AcDbEntity
  8
KONSTRUKTIONSELEMENTE
100
AcDbLine
 62
7
  6
CONTINUOUS
 10
174.1764716411
 20
200.6158772801
 11
174.390316389
 21
200.3647381272
  0
LINE
  5
268
100
AcDbEntity
  8
KONSTRUKTIONSELEMENTE
100
AcDbLine
 62
7
  6
CONTINUOUS
 10
176.5252169895
 20
198.3333780611
 11
176.8013686533
 21
197.9692414195
  0
LINE
  5
269
100
AcDbEntity
  8
KONSTRUKTIONSELEMENTE
100
AcDbLine
 62
7
  6
CONTINUOUS
 10
107.5585393542
 20
122.1797364846
 11
107.6496792737
 21
120.6471224088
  0
LINE
  5
26A
100
AcDbEntity
  8
KONSTRUKTIONSELEMENTE
100
AcDbLine
 62
7
  6
CONTINUOUS
 10
108.2625952322
 20
110.340292749
 11
110.2795893853
 21
76.4224042185
  0
LINE
  5
26B
100
AcDbEntity
  8
KONSTRUKTIONSELEMENTE
100
AcDbLine
 62
7
  6
CONTINUOUS
 10
108.4393719275
 20
110.6464789668
 11
108.4165869476
 21
111.0296324858
  0
LINE
  5
26C
100
AcDbEntity
  8
KONSTRUKTIONSELEMENTE
100
AcDbLine
 62
7
  6
CONTINUOUS
 10
115.220777249
 20
117.4667067462
 11
115.6686697853
 21
109.9349203522
  0
LINE
  5
26D
100
AcDbEntity
  8
KONSTRUKTIONSELEMENTE
100
AcDbLine
 62
7
  6
CONTINUOUS
 10
206.5313287523
 20
187.5076354229
 11
207.0567561788
 21
187.6251283652
  0
LINE
  5
26E
100
AcDbEntity
  8
KONSTRUKTIONSELEMENTE
100
AcDbLine
 62
7
  6
CONTINUOUS
 10
207.0890510126
 20
176.8352075601
 11
206.76519333
 21
176.7726259884
  0
LINE
  5
26F
100
AcDbEntity
  8
KONSTRUKTIONSELEMENTE
100
AcDbLine
 62
7
  6
CONTINUOUS
 10
205.3169922781
 20
183.6253733082
 11
205.7434436448
 21
183.7038646783
  0
LINE
  5
270
100
AcDbEntity
  8
KONSTRUKTIONSELEMENTE
100
AcDbLine
 62
7
  6
CONTINUOUS
 10
206.714652459
 20
187.0424554377
 11
207.1411051551
 21
187.1209432315
  0
LINE
  5
271
100
AcDbEntity
  8
KONSTRUKTIONSELEMENTE
100
AcDbLine
 62
7
  6
CONTINUOUS
 10
205.331617547
 20
184.1685633993
 11
205.6590943912
 21
184.2080497028
  0
LINE
  5
272
100
AcDbEntity
  8
KONSTRUKTIONSELEMENTE
100
AcDbLine
 62
7
  6
CONTINUOUS
 10
180.3099766803
 20
198.1403373516
 11
182.3005280851
 21
198.3345153754
  0
LINE
  5
273
100
AcDbEntity
  8
KONSTRUKTIONSELEMENTE
100
AcDbLine
 62
7
  6
CONTINUOUS
 10
180.745642822
 20
198.8241642192
 11
182.2385563756
 21
198.969797737
  0
LINE
  5
274
100
AcDbEntity
  8
KONSTRUKTIONSELEMENTE
100
AcDbLine
 62
7
  6
CONTINUOUS
 10
180.3841411745
 20
202.529978082
 11
181.8770547281
 21
202.6756115998
  0
LINE
  5
275
100
AcDbEntity
  8
KONSTRUKTIONSELEMENTE
100
AcDbLine
 62
7
  6
CONTINUOUS
 10
179.824531621
 20
203.1167158636
 11
181.8150830257
 21
203.3108938873
  0
LINE
  5
276
100
AcDbEntity
  8
KONSTRUKTIONSELEMENTE
100
AcDbLine
 62
7
  6
CONTINUOUS
 10
173.2122379857
 20
200.5045785803
 11
173.4836232627
 21
200.5175156165
  0
LINE
  5
277
100
AcDbEntity
  8
KONSTRUKTIONSELEMENTE
100
AcDbLine
 62
7
  6
CONTINUOUS
 10
177.6165455785
 20
197.5363962128
 11
178.0464380588
 21
197.5473858205
  0
LINE
  5
278
100
AcDbEntity
  8
0
100
AcDbLine
 62
7
  6
CONTINUOUS
 10
212.632799645
 20
189.6268541629
 11
206.0287737012
 21
196.9613680244
  0
LINE
  5
279
100
AcDbEntity
  8
KONSTRUKTIONSELEMENTE
100
AcDbLine
 62
7
  6
CONTINUOUS
 10
204.8208169267
 20
184.5942570536
 11
205.0420067181
 21
184.3231432859
  0
LINE
  5
27A
100
AcDbEntity
  8
KONSTRUKTIONSELEMENTE
100
AcDbLine
 62
7
  6
CONTINUOUS
 10
207.7887465211
 20
186.9283209158
 11
208.0099377111
 21
186.6572035991
  0
LINE
  5
27B
100
AcDbEntity
  8
KONSTRUKTIONSELEMENTE
100
AcDbLine
 62
7
  6
CONTINUOUS
 10
206.1215540368
 20
175.0605623429
 11
206.3177585398
 21
174.7973644423
  0
LINE
  5
27C
100
AcDbEntity
  8
KONSTRUKTIONSELEMENTE
100
AcDbLine
 62
7
  6
CONTINUOUS
 10
209.6947357073
 20
175.9152921759
 11
209.8909402103
 21
175.6520942753
  0
LINE
  5
27D
100
AcDbEntity
  8
KONSTRUKTIONSELEMENTE
100
AcDbLine
 62
7
  6
CONTINUOUS
 10
204.2269701386
 20
184.3602267903
 11
204.4787134236
 21
184.0115842115
  0
LINE
  5
27E
100
AcDbEntity
  8
KONSTRUKTIONSELEMENTE
100
AcDbLine
 62
7
  6
CONTINUOUS
 10
208.3520397549
 20
187.2398799663
 11
208.6037844298
 21
186.891233835
  0
LINE
  5
27F
100
AcDbEntity
  8
KONSTRUKTIONSELEMENTE
100
AcDbLine
 62
7
  6
CONTINUOUS
 10
205.5853728075
 20
175.0116950374
 11
205.8769932983
 21
174.5753207506
  0
LINE
  5
280
100
AcDbEntity
  8
KONSTRUKTIONSELEMENTE
100
AcDbLine
 62
7
  6
CONTINUOUS
 10
210.1355009116
 20
176.13733587
 11
210.4271211286
 21
175.7009577783
  0
LINE
  5
281
100
AcDbEntity
  8
KONSTRUKTIONSELEMENTE
100
AcDbLine
 62
7
  6
CONTINUOUS
 10
182.4886177559
 20
202.4146056821
 11
182.6854832361
 21
202.1131457746
  0
LINE
  5
282
100
AcDbEntity
  8
KONSTRUKTIONSELEMENTE
100
AcDbLine
 62
7
  6
CONTINUOUS
 10
201.6349136925
 20
189.3509792478
 11
201.7503999859
 21
189.1649768033
  0
LINE
  5
283
100
AcDbEntity
  8
KONSTRUKTIONSELEMENTE
100
AcDbLine
 62
7
  6
CONTINUOUS
 10
202.849322661
 20
187.3950498461
 11
203.1570225393
 21
186.8994678351
  0
LINE
  5
284
100
AcDbEntity
  8
KONSTRUKTIONSELEMENTE
100
AcDbLine
 62
7
  6
CONTINUOUS
 10
176.7814521722
 20
198.9585885017
 11
176.9774134913
 21
198.5717798665
  0
LINE
  5
285
100
AcDbEntity
  8
KONSTRUKTIONSELEMENTE
100
AcDbLine
 62
7
  6
CONTINUOUS
 10
173.2795496098
 20
195.5751230651
 11
171.1049229082
 21
200.0774556504
  0
LINE
  5
286
100
AcDbEntity
  8
KONSTRUKTIONSELEMENTE
100
AcDbLine
 62
7
  6
CONTINUOUS
 10
173.7297828684
 20
195.7925857353
 11
172.7581411368
 21
197.8042662807
  0
LINE
  5
287
100
AcDbEntity
  8
KONSTRUKTIONSELEMENTE
100
AcDbLine
 62
7
  6
CONTINUOUS
 10
172.4805292506
 20
198.3790320741
 11
171.7864994053
 21
199.815946826
  0
LINE
  5
288
100
AcDbEntity
  8
KONSTRUKTIONSELEMENTE
100
AcDbLine
 62
7
  6
CONTINUOUS
 10
173.9400831305
 20
200.1472754571
 11
174.0788892033
 21
199.859892292
  0
LINE
  5
289
100
AcDbEntity
  8
KONSTRUKTIONSELEMENTE
100
AcDbLine
 62
7
  6
CONTINUOUS
 10
174.390316389
 20
200.3647381272
 11
174.5753911095
 21
199.9815606632
  0
LINE
  5
28A
100
AcDbEntity
  8
KONSTRUKTIONSELEMENTE
100
AcDbLine
 62
7
  6
CONTINUOUS
 10
176.3003122908
 20
198.8225566931
 11
176.5252169895
 21
198.3333780611
  0
LINE
  5
28B
100
AcDbEntity
  8
BEZUGSACHSEN
100
AcDbLine
 62
7
  6
CONTINUOUS
 10
141.3187130467
 20
141.4927078821
 11
140.035609668
 21
148.7695487464
  0
LINE
  5
28C
100
AcDbEntity
  8
RUNDUNGEN
100
AcDbLine
 62
7
  6
CONTINUOUS
 10
140.035609668
 20
148.7695487464
 11
139.9069535559
 21
149.4991938161
  0
LINE
  5
28D
100
AcDbEntity
  8
KONSTRUKTIONSELEMENTE
100
AcDbLine
 62
7
  6
CONTINUOUS
 10
178.0464380588
 20
197.5473858205
 11
178.3671979797
 21
197.6380736929
  0
LINE
  5
28E
100
AcDbEntity
  8
KONSTRUKTIONSELEMENTE
100
AcDbLine
 62
7
  6
CONTINUOUS
 10
177.872780514
 20
198.1616066513
 11
178.193540435
 21
198.2522945237
  0
LINE
  5
28F
100
AcDbEntity
  8
KONSTRUKTIONSELEMENTE
100
AcDbLine
 62
7
  6
CONTINUOUS
 10
175.403081626
 20
201.9960310452
 11
175.8842215074
 21
202.1320628538
  0
LINE
  5
290
100
AcDbEntity
  8
KONSTRUKTIONSELEMENTE
100
AcDbLine
 62
7
  6
CONTINUOUS
 10
177.8087801153
 20
202.6761898287
 11
178.2899197672
 21
202.8122215725
  0
LINE
  5
291
100
AcDbEntity
  8
KONSTRUKTIONSELEMENTE
100
AcDbLine
 62
7
  6
CONTINUOUS
 10
172.9058559423
 20
200.9473063311
 11
173.3273190437
 21
201.0327309585
  0
LINE
  5
292
100
AcDbEntity
  8
KONSTRUKTIONSELEMENTE
100
AcDbLine
 62
7
  6
CONTINUOUS
 10
203.6483653977
 20
190.3433967483
 11
204.3956339436
 21
189.1398446026
  0
LINE
  5
293
100
AcDbEntity
  8
KONSTRUKTIONSELEMENTE
100
AcDbLine
 62
7
  6
CONTINUOUS
 10
204.1906411573
 20
190.6800881163
 11
205.0258222294
 21
189.3349438881
  0
LINE
  5
294
100
AcDbEntity
  8
KONSTRUKTIONSELEMENTE
100
AcDbLine
 62
7
  6
CONTINUOUS
 10
205.5463308094
 20
191.5218166933
 11
206.3815118816
 21
190.1766724652
  0
LINE
  5
295
100
AcDbEntity
  8
KONSTRUKTIONSELEMENTE
100
AcDbLine
 62
7
  6
CONTINUOUS
 10
205.7344856728
 20
192.2271755623
 11
206.7894520848
 21
190.5280446463
  0
LINE
  5
296
100
AcDbEntity
  8
KONSTRUKTIONSELEMENTE
100
AcDbLine
 62
7
  6
CONTINUOUS
 10
182.965598373
 20
202.6749109506
 11
183.1727924413
 21
202.2675709584
  0
LINE
  5
297
100
AcDbEntity
  8
KONSTRUKTIONSELEMENTE
100
AcDbLine
 62
7
  6
CONTINUOUS
 10
182.6854832361
 20
202.1131457746
 11
182.8097370298
 21
201.6977149697
  0
LINE
  5
298
100
AcDbEntity
  8
KONSTRUKTIONSELEMENTE
100
AcDbLine
 62
7
  6
CONTINUOUS
 10
176.3003122908
 20
198.8225566931
 11
175.403081626
 21
201.9960310452
  0
LINE
  5
299
100
AcDbEntity
  8
KONSTRUKTIONSELEMENTE
100
AcDbLine
 62
7
  6
CONTINUOUS
 10
176.7814521722
 20
198.9585885017
 11
175.8842215074
 21
202.1320628538
  0
LINE
  5
29A
100
AcDbEntity
  8
KONSTRUKTIONSELEMENTE
100
AcDbLine
 62
7
  6
CONTINUOUS
 10
177.8087801153
 20
202.6761898287
 11
178.7060107801
 21
199.5027154767
  0
LINE
  5
29B
100
AcDbEntity
  8
KONSTRUKTIONSELEMENTE
100
AcDbLine
 62
7
  6
CONTINUOUS
 10
178.2899197672
 20
202.8122215725
 11
179.1871504321
 21
199.6387472204
  0
LINE
  5
29C
100
AcDbEntity
  8
0
100
AcDbLine
 62
7
  6
CONTINUOUS
 10
134.6311831147
 20
580.157293609
 11
134.6311831147
 21
370.157293609
  0
LINE
  5
29D
100
AcDbEntity
  8
KONSTRUKTIONSELEMENTE
100
AcDbLine
 62
7
  6
CONTINUOUS
 10
203.9519845786
 20
185.057996768
 11
204.2269701386
 21
184.3602267903
  0
LINE
  5
29E
100
AcDbEntity
  8
KONSTRUKTIONSELEMENTE
100
AcDbLine
 62
7
  6
CONTINUOUS
 10
204.5458313666
 20
185.2920270313
 11
204.8208169267
 21
184.5942570536
  0
LINE
  5
29F
100
AcDbEntity
  8
KONSTRUKTIONSELEMENTE
100
AcDbLine
 62
7
  6
CONTINUOUS
 10
206.1759045948
 20
185.2178600497
 11
206.4508901548
 21
184.520090072
  0
LINE
  5
2A0
100
AcDbEntity
  8
KONSTRUKTIONSELEMENTE
100
AcDbLine
 62
7
  6
CONTINUOUS
 10
206.7697513135
 20
185.4518902857
 11
207.2280605803
 21
184.2889403229
  0
LINE
  5
2A1
100
AcDbEntity
  8
KONSTRUKTIONSELEMENTE
100
AcDbLine
 62
7
  6
CONTINUOUS
 10
207.9355069517
 20
185.105165662
 11
208.1188306584
 21
184.6399856769
  0
LINE
  5
2A2
100
AcDbEntity
  8
KONSTRUKTIONSELEMENTE
100
AcDbLine
 62
7
  6
CONTINUOUS
 10
208.0099377111
 20
186.6572035991
 11
208.2849232712
 21
185.9594336214
  0
LINE
  5
2A3
100
AcDbEntity
  8
KONSTRUKTIONSELEMENTE
100
AcDbLine
 62
7
  6
CONTINUOUS
 10
208.6037844298
 20
186.891233835
 11
208.8787699899
 21
186.1934638573
  0
LINE
  5
2A4
100
AcDbEntity
  8
KONSTRUKTIONSELEMENTE
100
AcDbLine
 62
7
  6
CONTINUOUS
 10
206.7894520848
 20
190.5280446463
 11
206.9188581314
 21
190.1179427306
  0
LINE
  5
2A5
100
AcDbEntity
  8
KONSTRUKTIONSELEMENTE
100
AcDbLine
 62
7
  6
CONTINUOUS
 10
183.1727924413
 20
202.2675709584
 11
183.307374881
 21
201.7462594757
  0
LINE
  5
2A6
100
AcDbEntity
  8
KONSTRUKTIONSELEMENTE
100
AcDbLine
 62
7
  6
CONTINUOUS
 10
174.1426563415
 20
199.5362656515
 11
174.0788892033
 21
199.859892292
  0
LINE
  5
2A7
100
AcDbEntity
  8
KONSTRUKTIONSELEMENTE
100
AcDbLine
 62
7
  6
CONTINUOUS
 10
174.6391582478
 20
199.6579340227
 11
174.5753911095
 21
199.9815606632
  0
LINE
  5
2A8
100
AcDbEntity
  8
KONSTRUKTIONSELEMENTE
100
AcDbLine
 62
7
  6
CONTINUOUS
 10
179.2516749409
 20
199.1042245873
 11
179.1871504321
 21
199.6387472204
  0
LINE
  5
2A9
100
AcDbEntity
  8
KONSTRUKTIONSELEMENTE
100
AcDbLine
 62
7
  6
CONTINUOUS
 10
180.3099766803
 20
198.1403373516
 11
179.824531621
 21
203.1167158636
  0
LINE
  5
2AA
100
AcDbEntity
  8
KONSTRUKTIONSELEMENTE
100
AcDbLine
 62
7
  6
CONTINUOUS
 10
180.745642822
 20
198.8241642192
 11
180.3841411745
 21
202.529978082
  0
LINE
  5
2AB
100
AcDbEntity
  8
KONSTRUKTIONSELEMENTE
100
AcDbLine
 62
7
  6
CONTINUOUS
 10
182.8097370298
 20
201.6977149697
 11
182.9646663001
 21
200.1095091027
  0
LINE
  5
2AC
100
AcDbEntity
  8
KONSTRUKTIONSELEMENTE
100
AcDbLine
 62
7
  6
CONTINUOUS
 10
183.307374881
 20
201.7462594757
 11
183.4623041513
 21
200.1580536086
  0
LINE
  5
2AD
100
AcDbEntity
  8
KONSTRUKTIONSELEMENTE
100
AcDbLine
 62
7
  6
CONTINUOUS
 10
178.7415923681
 20
199.0705629701
 11
178.7060107801
 21
199.5027154767
  0
LINE
  5
2AE
100
AcDbEntity
  8
0
100
AcDbLine
 62
7
  6
CONTINUOUS
 10
170.6311831147
 20
580.157293609
 11
170.6311831147
 21
370.157293609
  0
LINE
  5
2AF
100
AcDbEntity
  8
BEZUGSACHSEN
100
AcDbLine
 62
7
  6
CONTINUOUS
 10
410.4759380966
 20
208.0133653282
 11
428.1372583958
 21
200.1500389106
  0
LINE
  5
2B0
100
AcDbEntity
  8
KONSTRUKTIONSELEMENTE
100
AcDbLine
 62
7
  6
CONTINUOUS
 10
206.0422568096
 20
175.4832185591
 11
206.1215540368
 21
175.0605623429
  0
LINE
  5
2B1
100
AcDbEntity
  8
KONSTRUKTIONSELEMENTE
100
AcDbLine
 62
7
  6
CONTINUOUS
 10
209.8909402103
 20
175.6520942753
 11
209.9702371916
 21
175.2294342524
  0
LINE
  5
2B2
100
AcDbEntity
  8
KONSTRUKTIONSELEMENTE
100
AcDbLine
 62
7
  6
CONTINUOUS
 10
206.3815118816
 20
190.1766724652
 11
206.4230033898
 21
189.9081658727
  0
LINE
  5
2B3
100
AcDbEntity
  8
KONSTRUKTIONSELEMENTE
100
AcDbLine
 62
7
  6
CONTINUOUS
 10
205.5114486458
 20
175.5175137359
 11
205.5853728075
 21
175.0116950374
  0
LINE
  5
2B4
100
AcDbEntity
  8
KONSTRUKTIONSELEMENTE
100
AcDbLine
 62
7
  6
CONTINUOUS
 10
210.4271211286
 20
175.7009577783
 11
210.501045281
 21
175.1951390804
  0
LINE
  5
2B5
100
AcDbEntity
  8
KONSTRUKTIONSELEMENTE
100
AcDbLine
 62
7
  6
CONTINUOUS
 10
203.8981888186
 20
185.4846529814
 11
203.9519845786
 21
185.057996768
  0
LINE
  5
2B6
100
AcDbEntity
  8
0
100
AcDbLine
 62
7
  6
CONTINUOUS
 10
214.6536193587
 20
170.4000389106
 11
212.632799645
 21
189.6268541629
  0
LINE
  5
2B7
100
AcDbEntity
  8
KONSTRUKTIONSELEMENTE
100
AcDbLine
 62
7
  6
CONTINUOUS
 10
204.5225890829
 20
185.6411544267
 11
204.5458313666
 21
185.2920270313
  0
LINE
  5
2B8
100
AcDbEntity
  8
KONSTRUKTIONSELEMENTE
100
AcDbLine
 62
7
  6
CONTINUOUS
 10
208.2849232712
 20
185.9594336214
 11
208.3081641563
 21
185.610309775
  0
LINE
  5
2B9
100
AcDbEntity
  8
KONSTRUKTIONSELEMENTE
100
AcDbLine
 62
7
  6
CONTINUOUS
 10
205.5181221011
 20
178.1824643457
 11
205.5478602312
 21
177.6833494855
  0
LINE
  5
2BA
100
AcDbEntity
  8
KONSTRUKTIONSELEMENTE
100
AcDbLine
 62
7
  6
CONTINUOUS
 10
210.5092707026
 20
178.4798456459
 11
210.5390088327
 21
177.9807307858
  0
LINE
  5
2BB
100
AcDbEntity
  8
KONSTRUKTIONSELEMENTE
100
AcDbLine
 62
7
  6
CONTINUOUS
 10
183.431007911
 20
199.6205609823
 11
183.4623041513
 21
200.1580536086
  0
LINE
  5
2BC
100
AcDbEntity
  8
KONSTRUKTIONSELEMENTE
100
AcDbLine
 62
7
  6
CONTINUOUS
 10
174.5991162094
 20
199.166025492
 11
174.6391582478
 21
199.6579340227
  0
LINE
  5
2BD
100
AcDbEntity
  8
KONSTRUKTIONSELEMENTE
100
AcDbLine
 62
7
  6
CONTINUOUS
 10
182.9230414428
 20
199.6778968576
 11
182.9646663001
 21
200.1095091027
  0
LINE
  5
2BE
100
AcDbEntity
  8
KONSTRUKTIONSELEMENTE
100
AcDbLine
 62
7
  6
CONTINUOUS
 10
179.2070669131
 20
198.6494001382
 11
179.2516749409
 21
199.1042245873
  0
LINE
  5
2BF
100
AcDbEntity
  8
BEZUGSACHSEN
100
AcDbLine
 62
7
  6
CONTINUOUS
 10
386.2751078336
 20
153.6574105985
 11
399.6584532497
 21
139.7985507201
  0
LINE
  5
2C0
100
AcDbEntity
  8
KONSTRUKTIONSELEMENTE
100
AcDbLine
 62
7
  6
CONTINUOUS
 10
208.8787699899
 20
186.1934638573
 11
208.9325643599
 21
185.7668111964
  0
LINE
  5
2C1
100
AcDbEntity
  8
KONSTRUKTIONSELEMENTE
100
AcDbLine
 62
7
  6
CONTINUOUS
 10
178.6680413994
 20
198.7181087192
 11
178.7415923681
 21
199.0705629701
  0
LINE
  5
2C2
100
AcDbEntity
  8
KONSTRUKTIONSELEMENTE
100
AcDbLine
 62
7
  6
CONTINUOUS
 10
174.0851158126
 20
199.2721894624
 11
174.1426563415
 21
199.5362656515
  0
LINE
  5
2C3
100
AcDbEntity
  8
RUNDUNGEN
100
AcDbLine
 62
7
  6
CONTINUOUS
 10
148.1482948566
 20
164.8876635413
 11
153.4587468706
 21
183.4074105985
  0
LINE
  5
2C4
100
AcDbEntity
  8
KONSTRUKTIONSELEMENTE
100
AcDbLine
 62
7
  6
CONTINUOUS
 10
203.9739224126
 20
185.8727818773
 11
203.8981888186
 21
185.4846529814
  0
LINE
  5
2C5
100
AcDbEntity
  8
KONSTRUKTIONSELEMENTE
100
AcDbLine
 62
7
  6
CONTINUOUS
 10
208.9325643599
 20
185.7668111964
 11
208.8568321906
 21
185.3786787617
  0
LINE
  5
2C6
100
AcDbEntity
  8
KONSTRUKTIONSELEMENTE
100
AcDbLine
 62
7
  6
CONTINUOUS
 10
206.9188581314
 20
190.1179427306
 11
206.8235473162
 21
189.6664096409
  0
LINE
  5
2C7
100
AcDbEntity
  8
KONSTRUKTIONSELEMENTE
100
AcDbLine
 62
7
  6
CONTINUOUS
 10
183.3064427864
 20
199.1808578503
 11
183.431007911
 21
199.6205609823
  0
LINE
  5
2C8
100
AcDbEntity
  8
BEZUGSACHSEN
100
AcDbLine
 62
7
  6
CONTINUOUS
 10
386.2751078336
 20
153.6574105985
 11
376.6087468706
 21
170.4000389106
  0
LINE
  5
2C9
100
AcDbEntity
  8
BEZUGSACHSEN
100
AcDbLine
 62
7
  6
CONTINUOUS
 10
394.0573929539
 20
149.6780973711
 11
407.8165777858
 21
125.8464901715
  0
LINE
  5
2CA
100
AcDbEntity
  8
KONSTRUKTIONSELEMENTE
100
AcDbLine
 62
7
  6
CONTINUOUS
 10
205.6498477386
 20
176.0096143644
 11
205.5114486458
 21
175.5175137359
  0
LINE
  5
2CB
100
AcDbEntity
  8
KONSTRUKTIONSELEMENTE
100
AcDbLine
 62
7
  6
CONTINUOUS
 10
210.501045281
 20
175.1951390804
 11
210.3626461975
 21
174.7030384513
  0
LINE
  5
2CC
100
AcDbEntity
  8
KONSTRUKTIONSELEMENTE
100
AcDbLine
 62
7
  6
CONTINUOUS
 10
206.1752830641
 20
175.8921605132
 11
206.0422568096
 21
175.4832185591
  0
LINE
  5
2CD
100
AcDbEntity
  8
KONSTRUKTIONSELEMENTE
100
AcDbLine
 62
7
  6
CONTINUOUS
 10
209.9702371916
 20
175.2294342524
 11
209.837211183
 21
174.8204961051
  0
LINE
  5
2CE
100
AcDbEntity
  8
KONSTRUKTIONSELEMENTE
100
AcDbLine
 62
7
  6
CONTINUOUS
 10
204.6288762051
 20
185.9517545253
 11
204.5225890829
 21
185.6411544267
  0
LINE
  5
2CF
100
AcDbEntity
  8
KONSTRUKTIONSELEMENTE
100
AcDbLine
 62
7
  6
CONTINUOUS
 10
208.3081641563
 20
185.610309775
 11
208.2018771034
 21
185.2997097037
  0
LINE
  5
2D0
100
AcDbEntity
  8
KONSTRUKTIONSELEMENTE
100
AcDbLine
 62
7
  6
CONTINUOUS
 10
206.4230033898
 20
189.9081658727
 11
206.3301593417
 21
189.6543400934
  0
LINE
  5
2D1
100
AcDbEntity
  8
KONSTRUKTIONSELEMENTE
100
AcDbLine
 62
7
  6
CONTINUOUS
 10
182.7881476938
 20
199.344074181
 11
182.9230414428
 21
199.6778968576
  0
LINE
  5
2D2
100
AcDbEntity
  8
KONSTRUKTIONSELEMENTE
100
AcDbLine
 62
7
  6
CONTINUOUS
 10
179.0020786853
 20
198.1492317239
 11
179.2070669131
 21
198.6494001382
  0
LINE
  5
2D3
100
AcDbEntity
  8
KONSTRUKTIONSELEMENTE
100
AcDbLine
 62
7
  6
CONTINUOUS
 10
107.8999307682
 20
123.7079658886
 11
109.6676977212
 21
126.7698280671
  0
LINE
  5
2D4
100
AcDbEntity
  8
KONSTRUKTIONSELEMENTE
100
AcDbLine
 62
7
  6
CONTINUOUS
 10
108.5190043718
 20
111.488101307
 11
109.9332179342
 21
113.9375910497
  0
LINE
  5
2D5
100
AcDbEntity
  8
KONSTRUKTIONSELEMENTE
100
AcDbLine
 62
7
  6
CONTINUOUS
 10
108.2625952322
 20
110.340292749
 11
108.4393719275
 21
110.6464789668
  0
LINE
  5
2D6
100
AcDbEntity
  8
0
100
AcDbLine
 62
7
  6
CONTINUOUS
 10
163.1251078336
 20
200.1500389106
 11
153.4587468706
 21
183.4074105985
  0
LINE
  5
2D7
100
AcDbEntity
  8
RUNDUNGEN
100
AcDbLine
 62
7
  6
CONTINUOUS
 10
140.1445182543
 20
150.8464901715
 11
153.9037030863
 21
174.6780973711
  0
LINE
  5
2D8
100
AcDbEntity
  8
BEZUGSACHSEN
100
AcDbLine
 62
7
  6
CONTINUOUS
 10
421.2372854409
 20
124.0941320601
 11
417.9353986484
 21
129.8131677455
  0
LINE
  5
2D9
100
AcDbEntity
  8
BEZUGSACHSEN
100
AcDbLine
 62
7
  6
CONTINUOUS
 10
410.907158422
 20
141.9864369055
 11
414.2372854409
 21
136.2184877131
  0
LINE
  5
2DA
100
AcDbEntity
  8
0
100
AcDbLine
 62
7
  6
CONTINUOUS
 10
397.3369544806
 20
175.9977301802
 11
345.8369544806
 21
265.19834677
  0
LINE
  5
2DB
100
AcDbEntity
  8
BEZUGSACHSEN
100
AcDbLine
 62
7
  6
CONTINUOUS
 10
415.0314408535
 20
152.1499807686
 11
427.4795992976
 21
130.5891378827
  0
LINE
  5
2DC
100
AcDbEntity
  8
KONSTRUKTIONSELEMENTE
100
AcDbLine
 62
7
  6
CONTINUOUS
 10
155.6674124598
 20
156.2399421951
 11
152.3372854409
 21
150.4719930027
  0
LINE
  5
2DD
100
AcDbEntity
  8
BEZUGSACHSEN
100
AcDbLine
 62
7
  6
CONTINUOUS
 10
145.3372854409
 20
138.3476373497
 11
148.6391722333
 21
144.0666730351
  0
LINE
  5
2DE
100
AcDbEntity
  8
0
100
AcDbLine
 62
7
  6
CONTINUOUS
 10
229.8083420428
 20
274.148788574
 11
178.3655669184
 21
185.0472883762
  0
LINE
  5
2DF
100
AcDbEntity
  8
KONSTRUKTIONSELEMENTE
100
AcDbLine
 62
7
  6
CONTINUOUS
 10
151.765721177
 20
136.9750040787
 11
147.0339323261
 21
128.7793053781
  0
LINE
  5
2E0
100
AcDbEntity
  8
KONSTRUKTIONSELEMENTE
100
AcDbLine
 62
7
  6
CONTINUOUS
 10
114.2121776791
 20
69.0303587359
 11
109.0452428057
 21
60.0809650159
  0
LINE
  5
2E1
100
AcDbEntity
  8
BEZUGSACHSEN
100
AcDbLine
 62
7
  6
CONTINUOUS
 10
159.8314408535
 20
146.1452403579
 11
154.0832824094
 21
136.1891378827
  0
LINE
  5
2E2
100
AcDbEntity
  8
KONSTRUKTIONSELEMENTE
100
AcDbLine
 62
7
  6
CONTINUOUS
 10
159.8314408535
 20
146.1452403579
 11
166.5314408535
 21
157.7499807686
  0
LINE
  5
2E3
100
AcDbEntity
  8
KONSTRUKTIONSELEMENTE
100
AcDbLine
 62
7
  6
CONTINUOUS
 10
110.0701868321
 20
57.8562201445
 11
115.7270410816
 21
67.6541791156
  0
LINE
  5
2E4
100
AcDbEntity
  8
KONSTRUKTIONSELEMENTE
100
AcDbLine
 62
7
  6
CONTINUOUS
 10
170.5310129242
 20
160.4774428036
 11
166.4873958292
 21
153.4736925488
  0
LINE
  5
2E5
100
AcDbEntity
  8
KONSTRUKTIONSELEMENTE
100
AcDbLine
 62
7
  6
CONTINUOUS
 10
156.234347502
 20
135.7148919136
 11
150.9310466431
 21
126.5293053781
  0
LINE
  5
2E6
100
AcDbEntity
  8
KONSTRUKTIONSELEMENTE
100
AcDbLine
 62
7
  6
CONTINUOUS
 10
179.6463528815
 20
174.2656747378
 11
175.3871167913
 21
166.8884614282
  0
LINE
  5
2E7
100
AcDbEntity
  8
KONSTRUKTIONSELEMENTE
100
AcDbLine
 62
7
  6
CONTINUOUS
 10
152.2855866604
 20
126.875437509
 11
143.5303828404
 21
111.710979662
  0
LINE
  5
2E8
100
AcDbEntity
  8
KONSTRUKTIONSELEMENTE
100
AcDbLine
 62
7
  6
CONTINUOUS
 10
167.9700538498
 20
153.5417315706
 11
165.7576259562
 21
149.7096940508
  0
LINE
  5
2E9
100
AcDbEntity
  8
KONSTRUKTIONSELEMENTE
100
AcDbLine
 62
7
  6
CONTINUOUS
 10
159.7076259562
 20
139.230786665
 11
156.9167529909
 21
134.3968528917
  0
LINE
  5
2EA
100
AcDbEntity
  8
KONSTRUKTIONSELEMENTE
100
AcDbLine
 62
7
  6
CONTINUOUS
 10
171.8671681668
 20
151.2917315706
 11
169.6547402732
 21
147.4596940508
  0
LINE
  5
2EB
100
AcDbEntity
  8
KONSTRUKTIONSELEMENTE
100
AcDbLine
 62
7
  6
CONTINUOUS
 10
163.6047402732
 20
136.980786665
 11
160.8138673079
 21
132.1468528917
  0
LINE
  5
2EC
100
AcDbEntity
  8
KONSTRUKTIONSELEMENTE
100
AcDbLine
 62
7
  6
CONTINUOUS
 10
183.9764799004
 20
171.7656747378
 11
179.7172438102
 21
164.3884614282
  0
LINE
  5
2ED
100
AcDbEntity
  8
KONSTRUKTIONSELEMENTE
100
AcDbLine
 62
7
  6
CONTINUOUS
 10
156.6157136793
 20
124.375437509
 11
147.8605098593
 21
109.210979662
  0
LINE
  5
2EE
100
AcDbEntity
  8
KONSTRUKTIONSELEMENTE
100
AcDbLine
 62
7
  6
CONTINUOUS
 10
156.9932244696
 20
123.0293053781
 11
162.2965253285
 21
132.2148919136
  0
LINE
  5
2EF
100
AcDbEntity
  8
KONSTRUKTIONSELEMENTE
100
AcDbLine
 62
7
  6
CONTINUOUS
 10
172.5495736557
 20
149.9736925488
 11
176.5931907507
 21
156.9774428036
  0
LINE
  5
2F0
100
AcDbEntity
  8
KONSTRUKTIONSELEMENTE
100
AcDbLine
 62
7
  6
CONTINUOUS
 10
174.3914980707
 20
198.8294618153
 11
174.5991162094
 21
199.166025492
  0
LINE
  5
2F1
100
AcDbEntity
  8
KONSTRUKTIONSELEMENTE
100
AcDbLine
 62
7
  6
CONTINUOUS
 10
183.0159990071
 20
198.7249733151
 11
183.3064427864
 21
199.1808578503
  0
LINE
  5
2F2
100
AcDbEntity
  8
KONSTRUKTIONSELEMENTE
100
AcDbLine
 62
7
  6
CONTINUOUS
 10
178.4853574351
 20
198.4453525226
 11
178.6680413994
 21
198.7181087192
  0
LINE
  5
2F3
100
AcDbEntity
  8
BEZUGSACHSEN
100
AcDbLine
 62
7
  6
CONTINUOUS
 10
424.7309253759
 20
157.7499807686
 11
437.17908382
 21
136.1891378827
  0
LINE
  5
2F4
100
AcDbEntity
  8
0
100
AcDbLine
 62
7
  6
CONTINUOUS
 10
412.9254117487
 20
184.9977301802
 11
361.4254117487
 21
274.19834677
  0
LINE
  5
2F5
100
AcDbEntity
  8
BEZUGSACHSEN
100
AcDbLine
 62
7
  6
CONTINUOUS
 10
435.5949537696
 20
156.2399421951
 11
438.9250807885
 21
150.4719930027
  0
LINE
  5
2F6
100
AcDbEntity
  8
BEZUGSACHSEN
100
AcDbLine
 62
7
  6
CONTINUOUS
 10
442.623193996
 20
144.0666730351
 11
445.9250807885
 21
138.3476373497
  0
LINE
  5
2F7
100
AcDbEntity
  8
BEZUGSACHSEN
100
AcDbLine
 62
7
  6
CONTINUOUS
 10
451.117847975
 20
150.8464901715
 11
437.3586631431
 21
174.6780973711
  0
LINE
  5
2F8
100
AcDbEntity
  8
BEZUGSACHSEN
100
AcDbLine
 62
7
  6
CONTINUOUS
 10
428.1372583958
 20
200.1500389106
 11
437.8036193587
 21
183.4074105985
  0
LINE
  5
2F9
100
AcDbEntity
  8
KONSTRUKTIONSELEMENTE
100
AcDbLine
 62
7
  6
CONTINUOUS
 10
206.8235473162
 20
189.6664096409
 11
206.5939009447
 21
189.2295573644
  0
LINE
  5
2FA
100
AcDbEntity
  8
KONSTRUKTIONSELEMENTE
100
AcDbLine
 62
7
  6
CONTINUOUS
 10
117.9510180066
 20
53.3062201445
 11
123.607872256
 21
63.1041791156
  0
LINE
  5
2FB
100
AcDbEntity
  8
BEZUGSACHSEN
100
AcDbLine
 62
7
  6
CONTINUOUS
 10
163.7827669317
 20
130.5891378827
 11
169.5309253759
 21
140.5452403579
  0
LINE
  5
2FC
100
AcDbEntity
  8
KONSTRUKTIONSELEMENTE
100
AcDbLine
 62
7
  6
CONTINUOUS
 10
169.5309253759
 20
140.5452403579
 11
176.2309253759
 21
152.1499807686
  0
LINE
  5
2FD
100
AcDbEntity
  8
KONSTRUKTIONSELEMENTE
100
AcDbLine
 62
7
  6
CONTINUOUS
 10
120.3901755953
 20
53.5309650159
 11
125.5166997589
 21
62.4103653335
  0
LINE
  5
2FE
100
AcDbEntity
  8
KONSTRUKTIONSELEMENTE
100
AcDbLine
 62
7
  6
CONTINUOUS
 10
160.8903387866
 20
120.7793053781
 11
165.6221276376
 21
128.9750040787
  0
LINE
  5
2FF
100
AcDbEntity
  8
0
100
AcDbLine
 62
7
  6
CONTINUOUS
 10
245.396799311
 20
265.148788574
 11
193.9540241865
 21
176.0472883762
  0
LINE
  5
300
100
AcDbEntity
  8
KONSTRUKTIONSELEMENTE
100
AcDbLine
 62
7
  6
CONTINUOUS
 10
180.3552078074
 20
141.9864369055
 11
177.0250807885
 21
136.2184877131
  0
LINE
  5
301
100
AcDbEntity
  8
BEZUGSACHSEN
100
AcDbLine
 62
7
  6
CONTINUOUS
 10
173.3269675809
 20
129.8131677455
 11
170.0250807885
 21
124.0941320601
  0
LINE
  5
302
100
AcDbEntity
  8
RUNDUNGEN
100
AcDbLine
 62
7
  6
CONTINUOUS
 10
183.4457884436
 20
125.8464901715
 11
197.2049732755
 21
149.6780973711
  0
LINE
  5
303
100
AcDbEntity
  8
KONSTRUKTIONSELEMENTE
100
AcDbLine
 62
7
  6
CONTINUOUS
 10
147.6974869758
 20
59.5298732668
 11
145.9297200228
 21
56.4680110883
  0
LINE
  5
304
100
AcDbEntity
  8
KONSTRUKTIONSELEMENTE
100
AcDbLine
 62
7
  6
CONTINUOUS
 10
204.2476035228
 20
186.3389244044
 11
203.9739224126
 21
185.8727818773
  0
LINE
  5
305
100
AcDbEntity
  8
KONSTRUKTIONSELEMENTE
100
AcDbLine
 62
7
  6
CONTINUOUS
 10
208.8568321906
 20
185.3786787617
 11
208.5831497163
 21
184.9125397973
  0
LINE
  5
306
100
AcDbEntity
  8
KONSTRUKTIONSELEMENTE
100
AcDbLine
 62
7
  6
CONTINUOUS
 10
173.906267831
 20
199.0676638284
 11
174.0851158126
 21
199.2721894624
  0
LINE
  5
307
100
AcDbEntity
  8
0
100
AcDbLine
 62
7
  6
CONTINUOUS
 10
204.9872583958
 20
153.6574105985
 11
214.6536193587
 21
170.4000389106
  0
LINE
  5
308
100
AcDbEntity
  8
KONSTRUKTIONSELEMENTE
100
AcDbLine
 62
7
  6
CONTINUOUS
 10
185.4588070637
 20
78.871014297
 11
183.6910401107
 21
75.8091521185
  0
LINE
  5
309
100
AcDbEntity
  8
KONSTRUKTIONSELEMENTE
100
AcDbLine
 62
7
  6
CONTINUOUS
 10
204.8646925946
 20
186.2238272723
 11
204.6288762051
 21
185.9517545253
  0
LINE
  5
30A
100
AcDbEntity
  8
KONSTRUKTIONSELEMENTE
100
AcDbLine
 62
7
  6
CONTINUOUS
 10
204.8401341331
 20
188.8272923296
 11
203.1570225393
 21
186.8994678351
  0
LINE
  5
30B
100
AcDbEntity
  8
KONSTRUKTIONSELEMENTE
100
AcDbLine
 62
7
  6
CONTINUOUS
 10
204.3956339436
 20
189.1398446026
 11
202.849322661
 21
187.3950498461
  0
LINE
  5
30C
100
AcDbEntity
  8
KONSTRUKTIONSELEMENTE
100
AcDbLine
 62
7
  6
CONTINUOUS
 10
178.7392046135
 20
197.8538035716
 11
179.0020786853
 21
198.1492317239
  0
LINE
  5
30D
100
AcDbEntity
  8
KONSTRUKTIONSELEMENTE
100
AcDbLine
 62
7
  6
CONTINUOUS
 10
182.5599860096
 20
199.1080410914
 11
182.7881476938
 21
199.344074181
  0
LINE
  5
30E
100
AcDbEntity
  8
KONSTRUKTIONSELEMENTE
100
AcDbLine
 62
7
  6
CONTINUOUS
 10
205.9951972567
 20
176.4048382479
 11
205.6498477386
 21
176.0096143644
  0
LINE
  5
30F
100
AcDbEntity
  8
KONSTRUKTIONSELEMENTE
100
AcDbLine
 62
7
  6
CONTINUOUS
 10
210.3626461975
 20
174.7030384513
 11
210.0172969533
 21
174.3078183727
  0
LINE
  5
310
100
AcDbEntity
  8
KONSTRUKTIONSELEMENTE
100
AcDbLine
 62
7
  6
CONTINUOUS
 10
206.3301593417
 20
189.6543400934
 11
206.102977725
 21
189.4151983682
  0
LINE
  5
311
100
AcDbEntity
  8
KONSTRUKTIONSELEMENTE
100
AcDbLine
 62
7
  6
CONTINUOUS
 10
206.5939009447
 20
189.2295573644
 11
206.366719328
 21
188.9904156392
  0
LINE
  5
312
100
AcDbEntity
  8
KONSTRUKTIONSELEMENTE
100
AcDbLine
 62
7
  6
CONTINUOUS
 10
206.4037250326
 20
176.1279222761
 11
206.1752830641
 21
175.8921605132
  0
LINE
  5
313
100
AcDbEntity
  8
KONSTRUKTIONSELEMENTE
100
AcDbLine
 62
7
  6
CONTINUOUS
 10
209.837211183
 20
174.8204961051
 11
209.6087692145
 21
174.5847343421
  0
LINE
  5
314
100
AcDbEntity
  8
KONSTRUKTIONSELEMENTE
100
AcDbLine
 62
7
  6
CONTINUOUS
 10
204.5823944348
 20
186.6500022181
 11
204.2476035228
 21
186.3389244044
  0
LINE
  5
315
100
AcDbEntity
  8
KONSTRUKTIONSELEMENTE
100
AcDbLine
 62
7
  6
CONTINUOUS
 10
182.7048979929
 20
198.4808495517
 11
183.0159990071
 21
198.7249733151
  0
LINE
  5
316
100
AcDbEntity
  8
BEZUGSACHSEN
100
AcDbLine
 62
7
  6
CONTINUOUS
 10
443.1140713728
 20
164.8876635413
 11
437.8036193587
 21
183.4074105985
  0
LINE
  5
317
100
AcDbEntity
  8
BEZUGSACHSEN
100
AcDbLine
 62
7
  6
CONTINUOUS
 10
376.6087468706
 20
170.4000389106
 11
378.6295665843
 21
189.6268541629
  0
LINE
  5
318
100
AcDbEntity
  8
RUNDUNGEN
100
AcDbLine
 62
7
  6
CONTINUOUS
 10
191.6039129797
 20
139.7985507201
 11
204.9872583958
 21
153.6574105985
  0
LINE
  5
319
100
AcDbEntity
  8
KONSTRUKTIONSELEMENTE
100
AcDbLine
 62
7
  6
CONTINUOUS
 10
208.2018771034
 20
185.2997097037
 11
207.9355069517
 21
185.105165662
  0
LINE
  5
31A
100
AcDbEntity
  8
KONSTRUKTIONSELEMENTE
100
AcDbLine
 62
7
  6
CONTINUOUS
 10
178.193540435
 20
198.2522945237
 11
178.4853574351
 21
198.4453525226
  0
LINE
  5
31B
100
AcDbEntity
  8
KONSTRUKTIONSELEMENTE
100
AcDbLine
 62
7
  6
CONTINUOUS
 10
178.3671979797
 20
197.6380736929
 11
178.7392046135
 21
197.8538035716
  0
LINE
  5
31C
100
AcDbEntity
  8
KONSTRUKTIONSELEMENTE
100
AcDbLine
 62
7
  6
CONTINUOUS
 10
171.1049229082
 20
200.0774556504
 11
172.9058559423
 21
200.9473063311
  0
LINE
  5
31D
100
AcDbEntity
  8
KONSTRUKTIONSELEMENTE
100
AcDbLine
 62
7
  6
CONTINUOUS
 10
171.7864994053
 20
199.815946826
 11
173.2122379857
 21
200.5045785803
  0
LINE
  5
31E
100
AcDbEntity
  8
KONSTRUKTIONSELEMENTE
100
AcDbLine
 62
7
  6
CONTINUOUS
 10
172.4805292506
 20
198.3790320741
 11
173.906267831
 21
199.0676638284
  0
LINE
  5
31F
100
AcDbEntity
  8
KONSTRUKTIONSELEMENTE
100
AcDbLine
 62
7
  6
CONTINUOUS
 10
172.7581411368
 20
197.8042662807
 11
174.0338020002
 21
198.4204104955
  0
LINE
  5
320
100
AcDbEntity
  8
0
100
AcDbLine
 62
7
  6
CONTINUOUS
 10
180.7864281328
 20
208.0133653282
 11
163.1251078336
 21
200.1500389106
  0
LINE
  5
321
100
AcDbEntity
  8
0
100
AcDbLine
 62
7
  6
CONTINUOUS
 10
420.6311831147
 20
370.157293609
 11
420.6311831147
 21
580.157293609
  0
LINE
  5
322
100
AcDbEntity
  8
KONSTRUKTIONSELEMENTE
100
AcDbLine
 62
7
  6
CONTINUOUS
 10
206.3298008803
 20
176.633740974
 11
205.9951972567
 21
176.4048382479
  0
LINE
  5
323
100
AcDbEntity
  8
KONSTRUKTIONSELEMENTE
100
AcDbLine
 62
7
  6
CONTINUOUS
 10
210.0172969533
 20
174.3078183727
 11
209.6826933668
 21
174.0789156442
  0
LINE
  5
324
100
AcDbEntity
  8
KONSTRUKTIONSELEMENTE
100
AcDbLine
 62
7
  6
CONTINUOUS
 10
205.2300355236
 20
186.4573797932
 11
204.8646925946
 21
186.2238272723
  0
LINE
  5
325
100
AcDbEntity
  8
KONSTRUKTIONSELEMENTE
100
AcDbLine
 62
7
  6
CONTINUOUS
 10
201.9326461976
 20
189.8666670738
 11
205.7344856728
 21
192.2271755623
  0
LINE
  5
326
100
AcDbEntity
  8
KONSTRUKTIONSELEMENTE
100
AcDbLine
 62
7
  6
CONTINUOUS
 10
201.7503999859
 20
189.1649768033
 11
203.6483653977
 21
190.3433967483
  0
LINE
  5
327
100
AcDbEntity
  8
KONSTRUKTIONSELEMENTE
100
AcDbLine
 62
7
  6
CONTINUOUS
 10
204.1906411573
 20
190.6800881163
 11
205.5463308094
 21
191.5218166933
  0
LINE
  5
328
100
AcDbEntity
  8
KONSTRUKTIONSELEMENTE
100
AcDbLine
 62
7
  6
CONTINUOUS
 10
206.102977725
 20
189.4151983682
 11
205.831839592
 21
189.2468525271
  0
LINE
  5
329
100
AcDbEntity
  8
KONSTRUKTIONSELEMENTE
100
AcDbLine
 62
7
  6
CONTINUOUS
 10
206.366719328
 20
188.9904156392
 11
206.0052019017
 21
188.7659545701
  0
LINE
  5
32A
100
AcDbEntity
  8
KONSTRUKTIONSELEMENTE
100
AcDbLine
 62
7
  6
CONTINUOUS
 10
205.0467118169
 20
186.9225597783
 11
204.5823944348
 21
186.6500022181
  0
LINE
  5
32B
100
AcDbEntity
  8
KONSTRUKTIONSELEMENTE
100
AcDbLine
 62
7
  6
CONTINUOUS
 10
208.5831497163
 20
184.9125397973
 11
208.1188306584
 21
184.6399856769
  0
LINE
  5
32C
100
AcDbEntity
  8
KONSTRUKTIONSELEMENTE
100
AcDbLine
 62
7
  6
CONTINUOUS
 10
173.2795496098
 20
195.5751230651
 11
173.7297828684
 21
195.7925857353
  0
LINE
  5
32D
100
AcDbEntity
  8
KONSTRUKTIONSELEMENTE
100
AcDbLine
 62
7
  6
CONTINUOUS
 10
175.6057547073
 20
196.6986801597
 11
176.1310269854
 21
196.9523866774
  0
LINE
  5
32E
100
AcDbEntity
  8
KONSTRUKTIONSELEMENTE
100
AcDbLine
 62
7
  6
CONTINUOUS
 10
182.2385563756
 20
198.969797737
 11
182.5599860096
 21
199.1080410914
  0
LINE
  5
32F
100
AcDbEntity
  8
KONSTRUKTIONSELEMENTE
100
AcDbLine
 62
7
  6
CONTINUOUS
 10
182.3005280851
 20
198.3345153754
 11
182.7048979929
 21
198.4808495517
  0
LINE
  5
330
100
AcDbEntity
  8
0
100
AcDbLine
 62
7
  6
CONTINUOUS
 10
456.6311831147
 20
370.157293609
 11
456.6311831147
 21
580.157293609
  0
LINE
  5
331
100
AcDbEntity
  8
KONSTRUKTIONSELEMENTE
100
AcDbLine
 62
7
  6
CONTINUOUS
 10
207.0621863759
 20
176.4194065716
 11
206.4037250326
 21
176.1279222761
  0
LINE
  5
332
100
AcDbEntity
  8
KONSTRUKTIONSELEMENTE
100
AcDbLine
 62
7
  6
CONTINUOUS
 10
209.6087692145
 20
174.5847343421
 11
208.9503074022
 21
174.2932462543
  0
LINE
  5
333
100
AcDbEntity
  8
KONSTRUKTIONSELEMENTE
100
AcDbLine
 62
7
  6
CONTINUOUS
 10
205.0467118169
 20
186.9225597783
 11
206.5313287523
 21
187.5076354229
  0
LINE
  5
334
100
AcDbEntity
  8
KONSTRUKTIONSELEMENTE
100
AcDbLine
 62
7
  6
CONTINUOUS
 10
205.2300355236
 20
186.4573797932
 11
206.714652459
 21
187.0424554377
  0
LINE
  5
335
100
AcDbEntity
  8
KONSTRUKTIONSELEMENTE
100
AcDbLine
 62
7
  6
CONTINUOUS
 10
206.7697513135
 20
185.4518902857
 11
206.1759045948
 21
185.2178600497
  0
LINE
  5
336
100
AcDbEntity
  8
KONSTRUKTIONSELEMENTE
100
AcDbLine
 62
7
  6
CONTINUOUS
 10
206.4508901548
 20
184.520090072
 11
205.6590943912
 21
184.2080497028
  0
LINE
  5
337
100
AcDbEntity
  8
KONSTRUKTIONSELEMENTE
100
AcDbLine
 62
7
  6
CONTINUOUS
 10
207.2280605803
 20
184.2889403229
 11
205.7434436448
 21
183.7038646783
  0
LINE
  5
338
100
AcDbEntity
  8
KONSTRUKTIONSELEMENTE
100
AcDbLine
 62
7
  6
CONTINUOUS
 10
205.5167454491
 20
189.1493028843
 11
205.831839592
 21
189.2468525271
  0
LINE
  5
339
100
AcDbEntity
  8
KONSTRUKTIONSELEMENTE
100
AcDbLine
 62
7
  6
CONTINUOUS
 10
205.6901077588
 20
188.6684049273
 11
206.0052019017
 21
188.7659545701
  0
LINE
  5
33A
100
AcDbEntity
  8
KONSTRUKTIONSELEMENTE
100
AcDbLine
 62
7
  6
CONTINUOUS
 10
206.76519333
 20
176.7726259884
 11
206.3298008803
 21
176.633740974
  0
LINE
  5
33B
100
AcDbEntity
  8
KONSTRUKTIONSELEMENTE
100
AcDbLine
 62
7
  6
CONTINUOUS
 10
209.6826933668
 20
174.0789156442
 11
209.2473009915
 21
173.9400306251
  0
LINE
  5
33C
100
AcDbEntity
  8
BEZUGSACHSEN
100
AcDbLine
 62
7
  6
CONTINUOUS
 10
449.9436531826
 20
141.4927078821
 11
451.3554126735
 21
149.4991938161
  0
LINE
  5
33D
100
AcDbEntity
  8
BEZUGSACHSEN
100
AcDbLine
 62
7
  6
CONTINUOUS
 10
378.6295665843
 20
189.6268541629
 11
385.2335925281
 21
196.9613680244
  0
LINE
  5
33E
100
AcDbEntity
  8
KONSTRUKTIONSELEMENTE
100
AcDbLine
 62
7
  6
CONTINUOUS
 10
141.9641765505
 20
66.7957665373
 11
170.4508697351
 21
81.0588507483
  0
LINE
  5
33F
100
AcDbEntity
  8
RUNDUNGEN
100
AcDbLine
 62
7
  6
CONTINUOUS
 10
182.3977779226
 20
124.9671049299
 11
181.7015587005
 21
124.7137018565
  0
LINE
  5
340
100
AcDbEntity
  8
BEZUGSACHSEN
100
AcDbLine
 62
7
  6
CONTINUOUS
 10
181.7015587005
 20
124.7137018565
 11
174.7580779633
 21
122.186481546
  0
LINE
  5
341
100
AcDbEntity
  8
KONSTRUKTIONSELEMENTE
100
AcDbLine
 62
7
  6
CONTINUOUS
 10
145.391743483
 20
56.1503925984
 11
145.8144410449
 21
56.3620342544
  0
LINE
  5
342
100
AcDbEntity
  8
KONSTRUKTIONSELEMENTE
100
AcDbLine
 62
7
  6
CONTINUOUS
 10
181.8518239893
 20
74.4056950032
 11
182.5382503311
 21
74.7493837794
  0
LINE
  5
343
100
AcDbEntity
  8
0
100
AcDbLine
 62
7
  6
CONTINUOUS
 10
428.4059253759
 20
151.3846940508
 11
418.7064408535
 21
145.7846940508
  0
LINE
  5
344
100
AcDbEntity
  8
0
100
AcDbLine
 62
7
  6
CONTINUOUS
 10
434.4559253759
 20
140.905786665
 11
424.7564408535
 21
135.305786665
  0
LINE
  5
345
100
AcDbEntity
  8
KONSTRUKTIONSELEMENTE
100
AcDbLine
 62
7
  6
CONTINUOUS
 10
418.1883285528
 20
122.33381598
 11
421.2372854409
 21
124.0941320601
  0
LINE
  5
346
100
AcDbEntity
  8
KONSTRUKTIONSELEMENTE
100
AcDbLine
 62
7
  6
CONTINUOUS
 10
445.9250807885
 20
138.3476373497
 11
448.9740376766
 21
140.1079534298
  0
LINE
  5
347
100
AcDbEntity
  8
KONSTRUKTIONSELEMENTE
100
AcDbLine
 62
7
  6
CONTINUOUS
 10
560.8738837808
 20
55.5965613397
 11
563.7023109056
 21
53.1470715969
  0
LINE
  5
348
100
AcDbEntity
  8
KONSTRUKTIONSELEMENTE
100
AcDbLine
 62
7
  6
CONTINUOUS
 10
563.9771846304
 20
53.3062201445
 11
563.6236312398
 21
53.6124063624
  0
LINE
  5
349
100
AcDbEntity
  8
KONSTRUKTIONSELEMENTE
100
AcDbLine
 62
7
  6
CONTINUOUS
 10
560.4416507245
 20
56.368082323
 11
560.7952041151
 21
56.0618961051
  0
LINE
  5
34A
100
AcDbEntity
  8
KONSTRUKTIONSELEMENTE
100
AcDbLine
 62
7
  6
CONTINUOUS
 10
563.9771846304
 20
57.8562201445
 11
563.6236312398
 21
58.1624063624
  0
LINE
  5
34B
100
AcDbEntity
  8
KONSTRUKTIONSELEMENTE
100
AcDbLine
 62
7
  6
CONTINUOUS
 10
560.4416507245
 20
60.918082323
 11
560.7952041151
 21
60.6118961051
  0
LINE
  5
34C
100
AcDbEntity
  8
KONSTRUKTIONSELEMENTE
100
AcDbLine
 62
7
  6
CONTINUOUS
 10
574.8460519006
 20
58.9923783859
 11
578.3815858066
 21
55.9305162074
  0
LINE
  5
34D
100
AcDbEntity
  8
KONSTRUKTIONSELEMENTE
100
AcDbLine
 62
7
  6
CONTINUOUS
 10
578.1193202542
 20
72.6289779651
 11
577.7657668636
 21
72.9351641829
  0
LINE
  5
34E
100
AcDbEntity
  8
KONSTRUKTIONSELEMENTE
100
AcDbLine
 62
7
  6
CONTINUOUS
 10
574.9373397388
 20
75.3846539257
 11
574.5837863482
 21
75.6908401436
  0
LINE
  5
34F
100
AcDbEntity
  8
KONSTRUKTIONSELEMENTE
100
AcDbLine
 62
7
  6
CONTINUOUS
 10
617.1454473387
 20
120.6471224088
 11
616.471465757
 21
120.5701551077
  0
LWPOLYLINE
  5
350
100
AcDbEntity
  8
BEZUGSACHSEN
100
AcDbPolyline
 62
7
  6
CONTINUOUS
 90
14
 70
0
 10
734.3929025994
 20
122.0746184785
 10
735.2593889621
 20
122.10905844
 10
736.133993668
 20
122.1708019924
 10
737.0126032374
 20
122.2609622974
 10
737.8905908315
 20
122.3805346608
 10
738.7632654976
 20
122.5304171622
 10
739.6258721466
 20
122.7114342502
 10
740.4738715363
 20
122.92443945
 10
741.3014953921
 20
123.1699496605
 10
742.1082210647
 20
123.4503155515
 10
742.8865133984
 20
123.7659942801
 10
743.6476835212
 20
124.1267712216
 10
744.3990556417
 20
124.5465142441
 10
745.0380623342
 20
124.9685528225
  0
LINE
  5
351
100
AcDbEntity
  8
BEZUGSACHSEN
100
AcDbLine
 62
7
  6
CONTINUOUS
 10
733.6828121151
 20
122.0658683437
 11
734.3929025994
 21
122.0746184785
  0
LWPOLYLINE
  5
352
100
AcDbEntity
  8
RUNDUNGEN
100
AcDbPolyline
 62
7
  6
CONTINUOUS
 90
15
 70
0
 10
733.6828121153
 20
122.0658683436
 10
734.3939108664
 20
122.0746309029
 10
735.2616730638
 20
122.1091841351
 10
736.1351844946
 20
122.1709048731
 10
737.0118389261
 20
122.2608712664
 10
737.8874878074
 20
122.3800581782
 10
738.7578985213
 20
122.5293961194
 10
739.618712784
 20
122.7097890595
 10
740.4657205213
 20
122.9222140969
 10
741.2934915585
 20
123.1673812317
 10
742.1013242986
 20
123.4477283179
 10
742.8819418434
 20
123.7639937874
 10
743.6454088505
 20
124.1256045738
 10
744.3981736021
 20
124.5459773699
 10
745.0380611173
 20
124.9685519484
  0
LINE
  5
353
100
AcDbEntity
  8
KONSTRUKTIONSELEMENTE
100
AcDbLine
 62
7
  6
CONTINUOUS
 10
608.525929
 20
110.340292749
 11
610.4683645518
 21
109.0769909741
  0
LINE
  5
354
100
AcDbEntity
  8
KONSTRUKTIONSELEMENTE
100
AcDbLine
 62
7
  6
CONTINUOUS
 10
608.1723756094
 20
110.6464789668
 11
610.1148111612
 21
109.383177192
  0
LINE
  5
355
100
AcDbEntity
  8
KONSTRUKTIONSELEMENTE
100
AcDbLine
 62
7
  6
CONTINUOUS
 10
604.9903950941
 20
113.4021549274
 11
605.3787963949
 21
113.1495503804
  0
LINE
  5
356
100
AcDbEntity
  8
KONSTRUKTIONSELEMENTE
100
AcDbLine
 62
7
  6
CONTINUOUS
 10
609.9023427316
 20
111.8875618638
 11
611.3965239253
 21
110.9157912678
  0
LINE
  5
357
100
AcDbEntity
  8
KONSTRUKTIONSELEMENTE
100
AcDbLine
 62
7
  6
CONTINUOUS
 10
607.0739156069
 20
114.3370516066
 11
608.5680968005
 21
113.3652810106
  0
LINE
  5
358
100
AcDbEntity
  8
KONSTRUKTIONSELEMENTE
100
AcDbLine
 62
7
  6
CONTINUOUS
 10
610.486826234
 20
77.4455695426
 11
614.02236014
 21
74.3837073641
  0
LINE
  5
359
100
AcDbEntity
  8
KONSTRUKTIONSELEMENTE
100
AcDbLine
 62
7
  6
CONTINUOUS
 10
614.8977753703
 20
120.0477220256
 11
616.3919565639
 21
119.0759514296
  0
LINE
  5
35A
100
AcDbEntity
  8
KONSTRUKTIONSELEMENTE
100
AcDbLine
 62
7
  6
CONTINUOUS
 10
619.0878828904
 20
119.383820634
 11
617.1454473387
 21
120.6471224088
  0
LINE
  5
35B
100
AcDbEntity
  8
KONSTRUKTIONSELEMENTE
100
AcDbLine
 62
7
  6
CONTINUOUS
 10
632.9207495818
 20
118.6690449138
 11
623.1256232067
 21
125.0395010782
  0
LINE
  5
35C
100
AcDbEntity
  8
KONSTRUKTIONSELEMENTE
100
AcDbLine
 62
7
  6
CONTINUOUS
 10
629.3852156759
 20
121.7309070923
 11
619.5900893008
 21
128.1013632566
  0
LINE
  5
35D
100
AcDbEntity
  8
KONSTRUKTIONSELEMENTE
100
AcDbLine
 62
7
  6
CONTINUOUS
 10
614.8780332901
 20
120.062070637
 11
614.8977753703
 21
120.0477220256
  0
LINE
  5
35E
100
AcDbEntity
  8
BEZUGSACHSEN
100
AcDbLine
 62
7
  6
CONTINUOUS
 10
633.1425080299
 20
118.5015171187
 11
632.9207495818
 21
118.6690449138
  0
LINE
  5
35F
100
AcDbEntity
  8
BEZUGSACHSEN
100
AcDbLine
 62
7
  6
CONTINUOUS
 10
629.606974124
 20
121.5633792972
 11
629.3852156759
 21
121.7309070923
  0
LINE
  5
360
100
AcDbEntity
  8
KONSTRUKTIONSELEMENTE
100
AcDbLine
 62
7
  6
CONTINUOUS
 10
616.4131137084
 20
119.0597628888
 11
616.3919565639
 21
119.0759514296
  0
LINE
  5
361
100
AcDbEntity
  8
KONSTRUKTIONSELEMENTE
100
AcDbLine
 62
7
  6
CONTINUOUS
 10
608.525929
 20
110.340292749
 11
608.1723756094
 21
110.6464789668
  0
LINE
  5
362
100
AcDbEntity
  8
KONSTRUKTIONSELEMENTE
100
AcDbLine
 62
7
  6
CONTINUOUS
 10
604.9903950941
 20
113.4021549274
 11
605.3439484847
 21
113.0959687096
  0
LINE
  5
363
100
AcDbEntity
  8
KONSTRUKTIONSELEMENTE
100
AcDbLine
 62
7
  6
CONTINUOUS
 10
614.1649855897
 20
120.6799805253
 11
614.8820665037
 21
120.0589702372
  0
LINE
  5
364
100
AcDbEntity
  8
BEZUGSACHSEN
100
AcDbLine
 62
7
  6
CONTINUOUS
 10
731.3547716591
 20
183.4074105985
 11
736.0108525713
 21
183.4074105985
  0
LINE
  5
365
100
AcDbEntity
  8
BEZUGSACHSEN
100
AcDbLine
 62
7
  6
CONTINUOUS
 10
629.6059722943
 20
121.564857622
 11
632.9331863843
 21
118.6834056963
  0
LINE
  5
366
100
AcDbEntity
  8
KONSTRUKTIONSELEMENTE
100
AcDbLine
 62
7
  6
CONTINUOUS
 10
739.1256769652
 20
195.5751230651
 11
739.6523112669
 21
195.5751230651
  0
LINE
  5
367
100
AcDbEntity
  8
KONSTRUKTIONSELEMENTE
100
AcDbLine
 62
7
  6
CONTINUOUS
 10
739.3301622033
 20
196.6986801597
 11
739.663879457
 21
196.6986801597
  0
LINE
  5
368
100
AcDbEntity
  8
KONSTRUKTIONSELEMENTE
100
AcDbLine
 62
7
  6
CONTINUOUS
 10
727.7407076975
 20
196.9523866774
 11
727.7133129635
 21
196.9523866774
  0
LINE
  5
369
100
AcDbEntity
  8
KONSTRUKTIONSELEMENTE
100
AcDbLine
 62
7
  6
CONTINUOUS
 10
727.9338504767
 20
197.5363962128
 11
727.7318443839
 21
197.5363962128
  0
LINE
  5
36A
100
AcDbEntity
  8
KONSTRUKTIONSELEMENTE
100
AcDbLine
 62
7
  6
CONTINUOUS
 10
739.4061980398
 20
197.5363962128
 11
739.6337798465
 21
197.5363962128
  0
LINE
  5
36B
100
AcDbEntity
  8
KONSTRUKTIONSELEMENTE
100
AcDbLine
 62
7
  6
CONTINUOUS
 10
727.9374849437
 20
197.5473858205
 11
727.6942714414
 21
197.5473858205
  0
LINE
  5
36C
100
AcDbEntity
  8
KONSTRUKTIONSELEMENTE
100
AcDbLine
 62
7
  6
CONTINUOUS
 10
727.9674771042
 20
197.6380736929
 11
727.6942714407
 21
197.6380736929
  0
LINE
  5
36D
100
AcDbEntity
  8
KONSTRUKTIONSELEMENTE
100
AcDbLine
 62
7
  6
CONTINUOUS
 10
739.3579952491
 20
197.6504486203
 11
739.5596526097
 21
197.6504486203
  0
LINE
  5
36E
100
AcDbEntity
  8
KONSTRUKTIONSELEMENTE
100
AcDbLine
 62
7
  6
CONTINUOUS
 10
728.0388229741
 20
197.8538035716
 11
727.7318443818
 21
197.8538035716
  0
LINE
  5
36F
100
AcDbEntity
  8
KONSTRUKTIONSELEMENTE
100
AcDbLine
 62
7
  6
CONTINUOUS
 10
739.223116487
 20
197.9692414195
 11
739.4136807439
 21
197.9692414195
  0
LINE
  5
370
100
AcDbEntity
  8
KONSTRUKTIONSELEMENTE
100
AcDbLine
 62
7
  6
CONTINUOUS
 10
728.1335850067
 20
198.1403373516
 11
727.7153900444
 21
198.1403373516
  0
LINE
  5
371
100
AcDbEntity
  8
KONSTRUKTIONSELEMENTE
100
AcDbLine
 62
7
  6
CONTINUOUS
 10
739.559652613
 20
198.1403373516
 11
739.650234186
 21
198.1403373516
  0
LINE
  5
372
100
AcDbEntity
  8
KONSTRUKTIONSELEMENTE
100
AcDbLine
 62
7
  6
CONTINUOUS
 10
739.3815504832
 20
198.2522945237
 11
739.4602620111
 21
198.2522945237
  0
LINE
  5
373
100
AcDbEntity
  8
KONSTRUKTIONSELEMENTE
100
AcDbLine
 62
7
  6
CONTINUOUS
 10
739.0686724845
 20
198.3333780611
 11
739.2699307409
 21
198.3333780611
  0
LINE
  5
374
100
AcDbEntity
  8
KONSTRUKTIONSELEMENTE
100
AcDbLine
 62
7
  6
CONTINUOUS
 10
728.1978032786
 20
198.3345153754
 11
727.6949123209
 21
198.3345153754
  0
LINE
  5
375
100
AcDbEntity
  8
KONSTRUKTIONSELEMENTE
100
AcDbLine
 62
7
  6
CONTINUOUS
 10
739.2952404284
 20
198.4453525226
 11
739.4234284921
 21
198.4453525226
  0
LINE
  5
376
100
AcDbEntity
  8
KONSTRUKTIONSELEMENTE
100
AcDbLine
 62
7
  6
CONTINUOUS
 10
728.2461987034
 20
198.4808495517
 11
727.7335442918
 21
198.4808495517
  0
LINE
  5
377
100
AcDbEntity
  8
KONSTRUKTIONSELEMENTE
100
AcDbLine
 62
7
  6
CONTINUOUS
 10
739.1896550311
 20
198.7181087192
 11
739.3507803474
 21
198.7181087192
  0
LINE
  5
378
100
AcDbEntity
  8
KONSTRUKTIONSELEMENTE
100
AcDbLine
 62
7
  6
CONTINUOUS
 10
728.3351294651
 20
198.7249733151
 11
727.8084951634
 21
198.7249733151
  0
LINE
  5
379
100
AcDbEntity
  8
KONSTRUKTIONSELEMENTE
100
AcDbLine
 62
7
  6
CONTINUOUS
 10
738.857567617
 20
198.8225566931
 11
739.0926224674
 21
198.8225566931
  0
LINE
  5
37A
100
AcDbEntity
  8
KONSTRUKTIONSELEMENTE
100
AcDbLine
 62
7
  6
CONTINUOUS
 10
739.4019817703
 20
198.969797737
 11
739.4596396064
 21
198.969797737
  0
LINE
  5
37B
100
AcDbEntity
  8
KONSTRUKTIONSELEMENTE
100
AcDbLine
 62
7
  6
CONTINUOUS
 10
738.4609963005
 20
199.0676638284
 11
738.7199342216
 21
199.0676638284
  0
LINE
  5
37C
100
AcDbEntity
  8
KONSTRUKTIONSELEMENTE
100
AcDbLine
 62
7
  6
CONTINUOUS
 10
739.063068426
 20
199.0705629701
 11
739.2432745612
 21
199.0705629701
  0
LINE
  5
37D
100
AcDbEntity
  8
KONSTRUKTIONSELEMENTE
100
AcDbLine
 62
7
  6
CONTINUOUS
 10
739.3561060561
 20
199.1080410914
 11
739.4219835686
 21
199.1080410914
  0
LINE
  5
37E
100
AcDbEntity
  8
KONSTRUKTIONSELEMENTE
100
AcDbLine
 62
7
  6
CONTINUOUS
 10
728.4818756915
 20
199.1808578503
 11
727.9552413898
 21
199.1808578503
  0
LINE
  5
37F
100
AcDbEntity
  8
KONSTRUKTIONSELEMENTE
100
AcDbLine
 62
7
  6
CONTINUOUS
 10
738.385947957
 20
199.2721894624
 11
738.6826484798
 21
199.2721894624
  0
LINE
  5
380
100
AcDbEntity
  8
KONSTRUKTIONSELEMENTE
100
AcDbLine
 62
7
  6
CONTINUOUS
 10
739.2777790608
 20
199.344074181
 11
739.3487364309
 21
199.344074181
  0
LINE
  5
381
100
AcDbEntity
  8
KONSTRUKTIONSELEMENTE
100
AcDbLine
 62
7
  6
CONTINUOUS
 10
738.9146779616
 20
199.5027154767
 11
739.1015176809
 21
199.5027154767
  0
LINE
  5
382
100
AcDbEntity
  8
KONSTRUKTIONSELEMENTE
100
AcDbLine
 62
7
  6
CONTINUOUS
 10
738.2890469714
 20
199.5362656515
 11
738.6104563486
 21
199.5362656515
  0
LINE
  5
383
100
AcDbEntity
  8
KONSTRUKTIONSELEMENTE
100
AcDbLine
 62
7
  6
CONTINUOUS
 10
728.6259668744
 20
199.6205609823
 11
728.0993325728
 21
199.6205609823
  0
LINE
  5
384
100
AcDbEntity
  8
KONSTRUKTIONSELEMENTE
100
AcDbLine
 62
7
  6
CONTINUOUS
 10
739.1670008337
 20
199.6778968576
 11
739.2408568861
 21
199.6778968576
  0
LINE
  5
385
100
AcDbEntity
  8
KONSTRUKTIONSELEMENTE
100
AcDbLine
 62
7
  6
CONTINUOUS
 10
738.186417779
 20
199.859892292
 11
738.503924391
 21
199.859892292
  0
LINE
  5
386
100
AcDbEntity
  8
KONSTRUKTIONSELEMENTE
100
AcDbLine
 62
7
  6
CONTINUOUS
 10
737.475710113
 20
200.0774556504
 11
738.0023444146
 21
200.0774556504
  0
LINE
  5
387
100
AcDbEntity
  8
KONSTRUKTIONSELEMENTE
100
AcDbLine
 62
7
  6
CONTINUOUS
 10
739.0237597146
 20
200.1095091027
 11
739.0989468993
 21
200.1095091027
  0
LINE
  5
388
100
AcDbEntity
  8
KONSTRUKTIONSELEMENTE
100
AcDbLine
 62
7
  6
CONTINUOUS
 10
738.1931601667
 20
200.1472754571
 11
738.3984590412
 21
200.1472754571
  0
LINE
  5
389
100
AcDbEntity
  8
BEZUGSACHSEN
100
AcDbLine
 62
7
  6
CONTINUOUS
 10
731.455450502
 20
200.1500389106
 11
735.9101737284
 21
200.1500389106
  0
LINE
  5
38A
100
AcDbEntity
  8
KONSTRUKTIONSELEMENTE
100
AcDbLine
 62
7
  6
CONTINUOUS
 10
728.8033887268
 20
200.1580536086
 11
728.2767544251
 21
200.1580536086
  0
LINE
  5
38B
100
AcDbEntity
  8
KONSTRUKTIONSELEMENTE
100
AcDbLine
 62
7
  6
CONTINUOUS
 10
738.1932346715
 20
200.39841461
 11
738.294020734
 21
200.39841461
  0
LINE
  5
38C
100
AcDbEntity
  8
KONSTRUKTIONSELEMENTE
100
AcDbLine
 62
7
  6
CONTINUOUS
 10
737.4902561802
 20
200.9473063311
 11
738.0168904819
 21
200.9473063311
  0
LINE
  5
38D
100
AcDbEntity
  8
KONSTRUKTIONSELEMENTE
100
AcDbLine
 62
7
  6
CONTINUOUS
 10
737.5221725637
 20
201.0327309585
 11
738.0488068654
 21
201.0327309585
  0
LINE
  5
38E
100
AcDbEntity
  8
KONSTRUKTIONSELEMENTE
100
AcDbLine
 62
7
  6
CONTINUOUS
 10
738.4966329116
 20
201.6977149697
 11
738.5718276874
 21
201.6977149697
  0
LINE
  5
38F
100
AcDbEntity
  8
KONSTRUKTIONSELEMENTE
100
AcDbLine
 62
7
  6
CONTINUOUS
 10
729.329861726
 20
201.7462594757
 11
728.8032274244
 21
201.7462594757
  0
LINE
  5
390
100
AcDbEntity
  8
KONSTRUKTIONSELEMENTE
100
AcDbLine
 62
7
  6
CONTINUOUS
 10
737.4773107295
 20
201.9960310452
 11
738.0039450311
 21
201.9960310452
  0
LINE
  5
391
100
AcDbEntity
  8
KONSTRUKTIONSELEMENTE
100
AcDbLine
 62
7
  6
CONTINUOUS
 10
738.3587351436
 20
202.1131457746
 11
738.4324772667
 21
202.1131457746
  0
LINE
  5
392
100
AcDbEntity
  8
KONSTRUKTIONSELEMENTE
100
AcDbLine
 62
7
  6
CONTINUOUS
 10
737.4851016906
 20
202.1320628538
 11
738.0117359922
 21
202.1320628538
  0
LINE
  5
393
100
AcDbEntity
  8
KONSTRUKTIONSELEMENTE
100
AcDbLine
 62
7
  6
CONTINUOUS
 10
729.5036237968
 20
202.2675709584
 11
728.9769894952
 21
202.2675709584
  0
LINE
  5
394
100
AcDbEntity
  8
KONSTRUKTIONSELEMENTE
100
AcDbLine
 62
7
  6
CONTINUOUS
 10
738.2586687837
 20
202.4146056821
 11
738.3291810134
 21
202.4146056821
  0
LINE
  5
395
100
AcDbEntity
  8
KONSTRUKTIONSELEMENTE
100
AcDbLine
 62
7
  6
CONTINUOUS
 10
738.2203721619
 20
202.6020941917
 11
738.2614004468
 21
202.6020941917
  0
LINE
  5
396
100
AcDbEntity
  8
KONSTRUKTIONSELEMENTE
100
AcDbLine
 62
7
  6
CONTINUOUS
 10
729.6408806939
 20
202.6749109506
 11
729.1142463922
 21
202.6749109506
  0
LINE
  5
397
100
AcDbEntity
  8
KONSTRUKTIONSELEMENTE
100
AcDbLine
 62
7
  6
CONTINUOUS
 10
737.4851016876
 20
202.6761898287
 11
738.0117359893
 21
202.6761898287
  0
LINE
  5
398
100
AcDbEntity
  8
KONSTRUKTIONSELEMENTE
100
AcDbLine
 62
7
  6
CONTINUOUS
 10
737.4773107295
 20
202.8122215725
 11
738.0039450311
 21
202.8122215725
  0
LINE
  5
399
100
AcDbEntity
  8
KONSTRUKTIONSELEMENTE
100
AcDbLine
 62
7
  6
CONTINUOUS
 10
729.7626159378
 20
203.0660695025
 11
729.2495114355
 21
203.0660695025
  0
LINE
  5
39A
100
AcDbEntity
  8
KONSTRUKTIONSELEMENTE
100
AcDbLine
 62
7
  6
CONTINUOUS
 10
737.474023295
 20
203.1167158636
 11
738.0006575967
 21
203.1167158636
  0
LINE
  5
39B
100
AcDbEntity
  8
KONSTRUKTIONSELEMENTE
100
AcDbLine
 62
7
  6
CONTINUOUS
 10
729.8219461123
 20
203.2454672919
 11
729.3159910935
 21
203.2454672919
  0
LINE
  5
39C
100
AcDbEntity
  8
KONSTRUKTIONSELEMENTE
100
AcDbLine
 62
7
  6
CONTINUOUS
 10
729.8435839002
 20
203.3108938873
 11
729.3483437906
 21
203.3108938873
  0
LINE
  5
39D
100
AcDbEntity
  8
KONSTRUKTIONSELEMENTE
100
AcDbLine
 62
7
  6
CONTINUOUS
 10
737.4906461381
 20
203.3108938873
 11
738.0172804398
 21
203.3108938873
  0
LINE
  5
39E
100
AcDbEntity
  8
BEZUGSACHSEN
100
AcDbLine
 62
7
  6
CONTINUOUS
 10
731.455450502
 20
208.0133653282
 11
735.9101737284
 21
208.0133653282
  0
LWPOLYLINE
  5
39F
100
AcDbEntity
  8
RUNDUNGEN
100
AcDbPolyline
 62
7
  6
CONTINUOUS
 90
15
 70
0
 10
722.3275631131
 20
124.9685519484
 10
722.9674506283
 20
124.5459773699
 10
723.7202153799
 20
124.1256045738
 10
724.483682387
 20
123.7639937874
 10
725.2642999318
 20
123.4477283179
 10
726.072132672
 20
123.1673812317
 10
726.8999037091
 20
122.9222140969
 10
727.7469114464
 20
122.7097890595
 10
728.6077257091
 20
122.5293961194
 10
729.478136423
 20
122.3800581782
 10
730.3537853043
 20
122.2608712664
 10
731.2304397358
 20
122.1709048731
 10
732.1039511667
 20
122.1091841351
 10
732.971713364
 20
122.0746309029
 10
733.6828121151
 20
122.0658683436
  0
LWPOLYLINE
  5
3A0
100
AcDbEntity
  8
BEZUGSACHSEN
100
AcDbPolyline
 62
7
  6
CONTINUOUS
 90
15
 70
0
 10
722.3275618962
 20
124.9685528225
 10
722.9665685887
 20
124.5465142441
 10
723.7179407092
 20
124.1267712216
 10
724.479110832
 20
123.7659942801
 10
725.2574031657
 20
123.4503155515
 10
726.0641288383
 20
123.1699496605
 10
726.8917526941
 20
122.92443945
 10
727.7397520838
 20
122.7114342502
 10
728.6023587329
 20
122.5304171622
 10
729.4750333989
 20
122.3805346608
 10
730.353020993
 20
122.2609622974
 10
731.2316305624
 20
122.1708019924
 10
732.1062352683
 20
122.10905844
 10
732.9735424762
 20
122.0745858526
 10
733.6828121153
 20
122.0658683437
  0
LINE
  5
3A1
100
AcDbEntity
  8
BEZUGSACHSEN
100
AcDbLine
 62
7
  6
CONTINUOUS
 10
722.3281468184
 20
124.9681327825
 11
721.5346108464
 21
125.5375345609
  0
LWPOLYLINE
  5
3A2
100
AcDbEntity
  8
RUNDUNGEN
100
AcDbPolyline
 62
7
  6
CONTINUOUS
 90
7
 70
0
 10
720.7381838904
 20
126.3376567985
 10
720.8057024593
 20
126.2467527511
 10
720.9678938868
 20
126.0504309393
 10
721.1388239376
 20
125.8707884391
 10
721.316691581
 20
125.708223486
 10
721.4995323451
 20
125.5630121489
 10
721.5373110032
 20
125.5355359755
  0
LWPOLYLINE
  5
3A3
100
AcDbEntity
  8
BEZUGSACHSEN
100
AcDbPolyline
 62
7
  6
CONTINUOUS
 90
7
 70
0
 10
720.7381838904
 20
126.3376567985
 10
720.8057024593
 20
126.2467527511
 10
720.9678938868
 20
126.0504309393
 10
721.1388239376
 20
125.8707884391
 10
721.316691581
 20
125.708223486
 10
721.4995323451
 20
125.5630121489
 10
721.5373110032
 20
125.5355359755
  0
LINE
  5
3A4
100
AcDbEntity
  8
KONSTRUKTIONSELEMENTE
100
AcDbLine
 62
7
  6
CONTINUOUS
 10
560.4416507245
 20
60.918082323
 11
560.4416507245
 21
56.368082323
  0
LINE
  5
3A5
100
AcDbEntity
  8
KONSTRUKTIONSELEMENTE
100
AcDbLine
 62
7
  6
CONTINUOUS
 10
560.7952041151
 20
60.8618961051
 11
560.7952041151
 21
60.6118961051
  0
LINE
  5
3A6
100
AcDbEntity
  8
KONSTRUKTIONSELEMENTE
100
AcDbLine
 62
7
  6
CONTINUOUS
 10
560.7952041151
 20
56.0618961051
 11
560.7952041151
 21
55.8118961051
  0
LINE
  5
3A7
100
AcDbEntity
  8
KONSTRUKTIONSELEMENTE
100
AcDbLine
 62
7
  6
CONTINUOUS
 10
563.6236312398
 20
58.4124063624
 11
563.6236312398
 21
58.1624063624
  0
LINE
  5
3A8
100
AcDbEntity
  8
KONSTRUKTIONSELEMENTE
100
AcDbLine
 62
7
  6
CONTINUOUS
 10
563.6236312398
 20
53.6124063624
 11
563.6236312398
 21
53.3624063624
  0
LINE
  5
3A9
100
AcDbEntity
  8
KONSTRUKTIONSELEMENTE
100
AcDbLine
 62
7
  6
CONTINUOUS
 10
563.9771846304
 20
57.8562201445
 11
563.9771846304
 21
53.3062201445
  0
LINE
  5
3AA
100
AcDbEntity
  8
RUNDUNGEN
100
AcDbLine
 62
7
  6
CONTINUOUS
 10
738.0465894068
 20
176.7325405781
 11
738.0466864101
 21
176.7324452124
  0
LINE
  5
3AB
100
AcDbEntity
  8
KONSTRUKTIONSELEMENTE
100
AcDbLine
 62
7
  6
CONTINUOUS
 10
741.239566581
 20
172.0090367196
 11
742.9653017001
 21
170.2777958968
  0
LINE
  5
3AC
100
AcDbEntity
  8
RUNDUNGEN
100
AcDbLine
 62
7
  6
CONTINUOUS
 10
738.1154990187
 20
176.6611724014
 11
738.0466732769
 21
176.732458127
  0
LWPOLYLINE
  5
3AD
100
AcDbEntity
  8
RUNDUNGEN
100
AcDbPolyline
 62
7
  6
CONTINUOUS
 90
5
 70
0
 10
738.0465572986
 20
176.7325718854
 10
737.9882701493
 20
176.7935095761
 10
737.9358734147
 20
176.8558982925
 10
737.8993074008
 20
176.9056711061
 10
737.8774661099
 20
176.9394076159
  0
LINE
  5
3AE
100
AcDbEntity
  8
BEZUGSACHSEN
100
AcDbLine
 62
7
  6
CONTINUOUS
 10
720.738271069
 20
126.3375647071
 11
720.4744665528
 21
126.7047348346
  0
LINE
  5
3AF
100
AcDbEntity
  8
KONSTRUKTIONSELEMENTE
100
AcDbLine
 62
7
  6
CONTINUOUS
 10
574.5837863482
 20
59.7101609375
 11
574.5837863482
 21
62.1041791156
  0
LINE
  5
3B0
100
AcDbEntity
  8
KONSTRUKTIONSELEMENTE
100
AcDbLine
 62
7
  6
CONTINUOUS
 10
574.5837863482
 20
75.1655310369
 11
574.5837863482
 21
75.6908401436
  0
LINE
  5
3B1
100
AcDbEntity
  8
KONSTRUKTIONSELEMENTE
100
AcDbLine
 62
7
  6
CONTINUOUS
 10
577.7657668636
 20
62.8598550763
 11
577.7657668636
 21
63.8598550763
  0
LINE
  5
3B2
100
AcDbEntity
  8
KONSTRUKTIONSELEMENTE
100
AcDbLine
 62
7
  6
CONTINUOUS
 10
577.7657668636
 20
72.4098550763
 11
577.7657668636
 21
72.9351641829
  0
LINE
  5
3B3
100
AcDbEntity
  8
KONSTRUKTIONSELEMENTE
100
AcDbLine
 62
7
  6
CONTINUOUS
 10
578.1193202542
 20
63.5536688584
 11
578.1193202542
 21
56.6482987591
  0
LINE
  5
3B4
100
AcDbEntity
  8
KONSTRUKTIONSELEMENTE
100
AcDbLine
 62
7
  6
CONTINUOUS
 10
578.1193202542
 20
72.1036688584
 11
578.1193202542
 21
72.6289779651
  0
LINE
  5
3B5
100
AcDbEntity
  8
RUNDUNGEN
100
AcDbLine
 62
7
  6
CONTINUOUS
 10
738.1978646924
 20
176.564992886
 11
738.1154990187
 21
176.6611724014
  0
LINE
  5
3B6
100
AcDbEntity
  8
KONSTRUKTIONSELEMENTE
100
AcDbLine
 62
7
  6
CONTINUOUS
 10
613.6430386323
 20
123.0196448505
 11
613.6099134327
 21
123.7089845873
  0
LWPOLYLINE
  5
3B7
100
AcDbEntity
  8
RUNDUNGEN
100
AcDbPolyline
 62
7
  6
CONTINUOUS
 90
5
 70
0
 10
746.9789640247
 20
163.3999405541
 10
738.4346221769
 20
176.2165419383
 10
738.3870137683
 20
176.2890528281
 10
738.3400583464
 20
176.3618371909
 10
738.3164063068
 20
176.3989931709
  0
LWPOLYLINE
  5
3B8
100
AcDbEntity
  8
RUNDUNGEN
100
AcDbPolyline
 62
7
  6
CONTINUOUS
 90
3
 70
0
 10
738.3163383296
 20
176.3989910546
 10
738.2729870087
 20
176.4642846289
 10
738.1978646924
 20
176.564992886
  0
LINE
  5
3B9
100
AcDbEntity
  8
KONSTRUKTIONSELEMENTE
100
AcDbLine
 62
7
  6
CONTINUOUS
 10
736.194537271
 20
207.3248904139
 11
737.5189451345
 21
203.32025289
  0
LINE
  5
3BA
100
AcDbEntity
  8
KONSTRUKTIONSELEMENTE
100
AcDbLine
 62
7
  6
CONTINUOUS
 10
739.4317737537
 20
197.5363962128
 11
739.5246491457
 21
197.2555671041
  0
LINE
  5
3BB
100
AcDbEntity
  8
KONSTRUKTIONSELEMENTE
100
AcDbLine
 62
7
  6
CONTINUOUS
 10
739.6573615438
 20
196.854282074
 11
739.6799392812
 21
196.7860133353
  0
LINE
  5
3BC
100
AcDbEntity
  8
BEZUGSACHSEN
100
AcDbLine
 62
7
  6
CONTINUOUS
 10
731.1009005632
 20
187.2357913257
 11
731.3547716591
 21
183.4074105985
  0
LINE
  5
3BD
100
AcDbEntity
  8
0
100
AcDbLine
 62
7
  6
CONTINUOUS
 10
695.6828121152
 20
205.61246689
 11
695.6828121152
 21
244.5836100603
  0
LINE
  5
3BE
100
AcDbEntity
  8
0
100
AcDbLine
 62
7
  6
CONTINUOUS
 10
713.6828121152
 20
205.61246689
 11
713.6828121152
 21
244.5836100603
  0
LINE
  5
3BF
100
AcDbEntity
  8
0
100
AcDbLine
 62
7
  6
CONTINUOUS
 10
715.6828121152
 20
723.0944932298
 11
715.6828121152
 21
227.2200939883
  0
LWPOLYLINE
  5
3C0
100
AcDbEntity
  8
KONSTRUKTIONSELEMENTE
100
AcDbPolyline
 62
7
  6
CONTINUOUS
 90
9
 70
0
 10
743.6828003683
 20
168.596976335
 10
743.6727228218
 20
168.8103828009
 10
743.6353928615
 20
169.05792399
 10
743.5710927244
 20
169.3002616768
 10
743.4797176402
 20
169.5371603577
 10
743.360768869
 20
169.7675755509
 10
743.2139042846
 20
169.9895670771
 10
743.0376731255
 20
170.2023029851
 10
742.9668632283
 20
170.2762191147
  0
LWPOLYLINE
  5
3C1
100
AcDbEntity
  8
BEZUGSACHSEN
100
AcDbPolyline
 62
7
  6
CONTINUOUS
 90
9
 70
0
 10
743.6828003673
 20
168.596974516
 10
743.6727274707
 20
168.8103336739
 10
743.6353888917
 20
169.0579431097
 10
743.5710315033
 20
169.3004503499
 10
743.479509886
 20
169.5376227235
 10
743.3601774401
 20
169.7685835002
 10
743.2129709539
 20
169.9908253347
 10
743.0369262144
 20
170.2031129746
 10
742.966810883
 20
170.2762718566
  0
LINE
  5
3C2
100
AcDbEntity
  8
RUNDUNGEN
100
AcDbLine
 62
7
  6
CONTINUOUS
 10
736.0108525713
 20
183.4074105985
 11
736.3320686666
 21
170.0231039292
  0
LINE
  5
3C3
100
AcDbEntity
  8
BEZUGSACHSEN
100
AcDbLine
 62
7
  6
CONTINUOUS
 10
719.6828121152
 20
141.9864369055
 11
719.6828121152
 21
129.118317891
  0
LINE
  5
3C4
100
AcDbEntity
  8
BEZUGSACHSEN
100
AcDbLine
 62
7
  6
CONTINUOUS
 10
719.6828121152
 20
148.5107380386
 11
719.6828121152
 21
161.1131895503
  0
LINE
  5
3C5
100
AcDbEntity
  8
BEZUGSACHSEN
100
AcDbLine
 62
7
  6
CONTINUOUS
 10
722.1864952269
 20
143.5711695566
 11
722.1864952269
 21
140.5452403579
  0
LINE
  5
3C6
100
AcDbEntity
  8
BEZUGSACHSEN
100
AcDbLine
 62
7
  6
CONTINUOUS
 10
723.6828121152
 20
168.3441684183
 11
723.6828121152
 21
168.597459922
  0
LINE
  5
3C7
100
AcDbEntity
  8
BEZUGSACHSEN
100
AcDbLine
 62
7
  6
CONTINUOUS
 10
727.4328121152
 20
195.132237432
 11
727.4328121152
 21
173.9691684183
  0
LINE
  5
3C8
100
AcDbEntity
  8
BEZUGSACHSEN
100
AcDbLine
 62
7
  6
CONTINUOUS
 10
739.9328121152
 20
195.132237432
 11
739.9328121152
 21
183.1669089908
  0
LINE
  5
3C9
100
AcDbEntity
  8
KONSTRUKTIONSELEMENTE
100
AcDbLine
 62
7
  6
CONTINUOUS
 10
739.9328121152
 20
183.1669089908
 11
739.9328121152
 21
173.9691684183
  0
LINE
  5
3CA
100
AcDbEntity
  8
RUNDUNGEN
100
AcDbLine
 62
7
  6
CONTINUOUS
 10
739.9328121152
 20
183.1669089766
 11
739.9328121152
 21
173.9691684183
  0
LINE
  5
3CB
100
AcDbEntity
  8
BEZUGSACHSEN
100
AcDbLine
 62
7
  6
CONTINUOUS
 10
731.3547716591
 20
183.4074105985
 11
731.0335555638
 21
170.0231039292
  0
LINE
  5
3CC
100
AcDbEntity
  8
KONSTRUKTIONSELEMENTE
100
AcDbLine
 62
7
  6
CONTINUOUS
 10
581.0251551084
 20
56.8898554764
 11
582.9675906602
 21
61.5175543173
  0
LINE
  5
3CD
100
AcDbEntity
  8
KONSTRUKTIONSELEMENTE
100
AcDbLine
 62
7
  6
CONTINUOUS
 10
611.2447401417
 20
79.4409240042
 11
610.4937248784
 21
77.6516896275
  0
LINE
  5
3CE
100
AcDbEntity
  8
KONSTRUKTIONSELEMENTE
100
AcDbLine
 62
7
  6
CONTINUOUS
 10
743.6828121152
 20
168.3441684183
 11
743.6828121152
 21
168.597459922
  0
LINE
  5
3CF
100
AcDbEntity
  8
KONSTRUKTIONSELEMENTE
100
AcDbLine
 62
7
  6
CONTINUOUS
 10
745.1791290035
 20
143.5711695566
 11
745.1791290035
 21
140.5452403579
  0
LINE
  5
3D0
100
AcDbEntity
  8
KONSTRUKTIONSELEMENTE
100
AcDbLine
 62
7
  6
CONTINUOUS
 10
747.6828121152
 20
141.9864369055
 11
747.6828121152
 21
133.7258977434
  0
LINE
  5
3D1
100
AcDbEntity
  8
RUNDUNGEN
100
AcDbLine
 62
7
  6
CONTINUOUS
 10
747.6828121152
 20
133.7258977434
 11
747.6828121152
 21
129.118317891
  0
LINE
  5
3D2
100
AcDbEntity
  8
RUNDUNGEN
100
AcDbLine
 62
7
  6
CONTINUOUS
 10
747.6828121152
 20
148.5107380386
 11
747.6828121152
 21
161.1131895503
  0
LINE
  5
3D3
100
AcDbEntity
  8
0
100
AcDbLine
 62
7
  6
CONTINUOUS
 10
751.6828121152
 20
723.0944932298
 11
751.6828121152
 21
227.2200939883
  0
LINE
  5
3D4
100
AcDbEntity
  8
0
100
AcDbLine
 62
7
  6
CONTINUOUS
 10
753.6828121152
 20
244.5836100603
 11
753.6828121152
 21
205.61246689
  0
LINE
  5
3D5
100
AcDbEntity
  8
0
100
AcDbLine
 62
7
  6
CONTINUOUS
 10
736.2647236672
 20
187.2357913257
 11
736.0108525713
 21
183.4074105985
  0
LINE
  5
3D6
100
AcDbEntity
  8
KONSTRUKTIONSELEMENTE
100
AcDbLine
 62
7
  6
CONTINUOUS
 10
615.971694336
 20
79.2175262899
 11
614.0292587843
 21
74.5898274491
  0
LINE
  5
3D7
100
AcDbEntity
  8
KONSTRUKTIONSELEMENTE
100
AcDbLine
 62
7
  6
CONTINUOUS
 10
631.3409865677
 20
108.1434924785
 11
619.5395883419
 21
80.0275959994
  0
LINE
  5
3D8
100
AcDbEntity
  8
0
100
AcDbLine
 62
7
  6
CONTINUOUS
 10
771.6828121152
 20
244.5836100603
 11
771.6828121152
 21
205.61246689
  0
LINE
  5
3D9
100
AcDbEntity
  8
BEZUGSACHSEN
100
AcDbLine
 62
7
  6
CONTINUOUS
 10
727.6856849492
 20
196.7860133353
 11
731.1710869594
 21
207.3248904139
  0
LWPOLYLINE
  5
3DA
100
AcDbEntity
  8
BEZUGSACHSEN
100
AcDbPolyline
 62
7
  6
CONTINUOUS
 90
5
 70
0
 10
723.8861143445
 20
169.5376227235
 10
723.7945927271
 20
169.3004503499
 10
723.7302353387
 20
169.0579431097
 10
723.6928967597
 20
168.8103336739
 10
723.6828238631
 20
168.596974516
  0
LINE
  5
3DB
100
AcDbEntity
  8
KONSTRUKTIONSELEMENTE
100
AcDbLine
 62
7
  6
CONTINUOUS
 10
614.8916261968
 20
125.2415986631
 11
613.6099134327
 21
123.7089845873
  0
LINE
  5
3DC
100
AcDbEntity
  8
KONSTRUKTIONSELEMENTE
100
AcDbLine
 62
7
  6
CONTINUOUS
 10
604.9903950941
 20
113.4021549274
 11
576.6251390605
 21
79.484266397
  0
LINE
  5
3DD
100
AcDbEntity
  8
KONSTRUKTIONSELEMENTE
100
AcDbLine
 62
7
  6
CONTINUOUS
 10
605.3439484847
 20
113.0959687096
 11
605.6643766757
 21
113.4791222285
  0
LINE
  5
3DE
100
AcDbEntity
  8
KONSTRUKTIONSELEMENTE
100
AcDbLine
 62
7
  6
CONTINUOUS
 10
608.6291619192
 20
113.3397158249
 11
614.5145754718
 21
120.3772268065
  0
LINE
  5
3DF
100
AcDbEntity
  8
KONSTRUKTIONSELEMENTE
100
AcDbLine
 62
7
  6
CONTINUOUS
 10
608.1723756094
 20
110.6464789668
 11
608.4928038004
 21
111.0296324858
  0
LINE
  5
3E0
100
AcDbEntity
  8
KONSTRUKTIONSELEMENTE
100
AcDbLine
 62
7
  6
CONTINUOUS
 10
618.4271601028
 20
122.1797364846
 11
617.1454473387
 21
120.6471224088
  0
LINE
  5
3E1
100
AcDbEntity
  8
KONSTRUKTIONSELEMENTE
100
AcDbLine
 62
7
  6
CONTINUOUS
 10
608.525929
 20
110.340292749
 11
580.1606729664
 21
76.4224042185
  0
LINE
  5
3E2
100
AcDbEntity
  8
KONSTRUKTIONSELEMENTE
100
AcDbLine
 62
7
  6
CONTINUOUS
 10
611.5243500923
 20
110.24110657
 11
612.8060628565
 21
111.7737206458
  0
LINE
  5
3E3
100
AcDbEntity
  8
KONSTRUKTIONSELEMENTE
100
AcDbLine
 62
7
  6
CONTINUOUS
 10
618.1766755679
 20
117.4667067462
 11
611.8779034829
 21
109.9349203522
  0
LWPOLYLINE
  5
3E4
100
AcDbEntity
  8
BEZUGSACHSEN
100
AcDbPolyline
 62
7
  6
CONTINUOUS
 90
6
 70
0
 10
729.4980279659
 20
176.9566121085
 10
729.4969878162
 20
176.9546725109
 10
729.4863453962
 20
176.9364324341
 10
729.4635630698
 20
176.9016777572
 10
729.427026151
 20
176.8524287395
 10
729.3761549182
 20
176.7921758277
  0
LWPOLYLINE
  5
3E5
100
AcDbEntity
  8
BEZUGSACHSEN
100
AcDbPolyline
 62
7
  6
CONTINUOUS
 90
4
 70
0
 10
729.0492179236
 20
176.3989931709
 10
729.025565884
 20
176.3618371909
 10
728.9786104621
 20
176.2890528281
 10
728.9310020535
 20
176.2165419383
  0
LINE
  5
3E6
100
AcDbEntity
  8
BEZUGSACHSEN
100
AcDbLine
 62
7
  6
CONTINUOUS
 10
728.9310020535
 20
176.2165419383
 11
720.3866602057
 21
163.3999405541
  0
LWPOLYLINE
  5
3E7
100
AcDbEntity
  8
BEZUGSACHSEN
100
AcDbPolyline
 62
7
  6
CONTINUOUS
 90
4
 70
0
 10
729.2501252117
 20
176.6611724014
 10
729.167759538
 20
176.564992886
 10
729.0926372217
 20
176.4642846289
 10
729.0492859008
 20
176.3989910546
  0
LINE
  5
3E8
100
AcDbEntity
  8
KONSTRUKTIONSELEMENTE
100
AcDbLine
 62
7
  6
CONTINUOUS
 10
627.0408209322
 20
123.6072655647
 11
629.869248057
 21
126.0567553075
  0
LINE
  5
3E9
100
AcDbEntity
  8
KONSTRUKTIONSELEMENTE
100
AcDbLine
 62
7
  6
CONTINUOUS
 10
681.134489693
 20
170.4537568954
 11
683.9629168178
 21
172.9032466382
  0
LINE
  5
3EA
100
AcDbEntity
  8
KONSTRUKTIONSELEMENTE
100
AcDbLine
 62
7
  6
CONTINUOUS
 10
684.3164702083
 20
173.2094328561
 11
687.1448973331
 21
175.6589225988
  0
LINE
  5
3EB
100
AcDbEntity
  8
KONSTRUKTIONSELEMENTE
100
AcDbLine
 62
7
  6
CONTINUOUS
 10
650.3622314338
 20
143.4734805972
 11
660.9688331516
 21
152.6590671327
  0
LINE
  5
3EC
100
AcDbEntity
  8
KONSTRUKTIONSELEMENTE
100
AcDbLine
 62
7
  6
CONTINUOUS
 10
680.5910463295
 20
165.4851192127
 11
669.9844446117
 21
156.2995326773
  0
LINE
  5
3ED
100
AcDbEntity
  8
KONSTRUKTIONSELEMENTE
100
AcDbLine
 62
7
  6
CONTINUOUS
 10
649.4783479573
 20
138.5407320421
 11
638.8717462395
 21
129.3551455067
  0
LINE
  5
3EE
100
AcDbEntity
  8
KONSTRUKTIONSELEMENTE
100
AcDbLine
 62
7
  6
CONTINUOUS
 10
572.1897340336
 20
71.4798484787
 11
561.8558642869
 21
62.5304547587
  0
LINE
  5
3EF
100
AcDbEntity
  8
KONSTRUKTIONSELEMENTE
100
AcDbLine
 62
7
  6
CONTINUOUS
 10
560.4416507245
 20
60.918082323
 11
560.9285175402
 21
61.3397213537
  0
LINE
  5
3F0
100
AcDbEntity
  8
KONSTRUKTIONSELEMENTE
100
AcDbLine
 62
7
  6
CONTINUOUS
 10
654.0963819855
 20
140.7544093867
 11
663.9147746698
 21
149.2573868756
  0
LINE
  5
3F1
100
AcDbEntity
  8
KONSTRUKTIONSELEMENTE
100
AcDbLine
 62
7
  6
CONTINUOUS
 10
630.9630249169
 20
120.3896155766
 11
633.1425164105
 21
122.2771105774
  0
LINE
  5
3F2
100
AcDbEntity
  8
KONSTRUKTIONSELEMENTE
100
AcDbLine
 62
7
  6
CONTINUOUS
 10
685.5642863181
 20
167.6756950287
 11
687.2361851713
 21
169.1236019081
  0
LINE
  5
3F3
100
AcDbEntity
  8
KONSTRUKTIONSELEMENTE
100
AcDbLine
 62
7
  6
CONTINUOUS
 10
687.5897385619
 20
169.429788126
 11
689.7479674573
 21
171.2988691766
  0
LINE
  5
3F4
100
AcDbEntity
  8
KONSTRUKTIONSELEMENTE
100
AcDbLine
 62
7
  6
CONTINUOUS
 10
575.0181611583
 20
69.0303587359
 11
564.6842914116
 21
60.0809650159
  0
LINE
  5
3F5
100
AcDbEntity
  8
KONSTRUKTIONSELEMENTE
100
AcDbLine
 62
7
  6
CONTINUOUS
 10
683.5369878477
 20
162.0834389556
 11
672.9303861299
 21
152.8978524202
  0
LINE
  5
3F6
100
AcDbEntity
  8
KONSTRUKTIONSELEMENTE
100
AcDbLine
 62
7
  6
CONTINUOUS
 10
652.4242894755
 20
135.139051785
 11
641.8176877577
 21
125.9534652496
  0
LINE
  5
3F7
100
AcDbEntity
  8
KONSTRUKTIONSELEMENTE
100
AcDbLine
 62
7
  6
CONTINUOUS
 10
563.6236312398
 20
58.1624063624
 11
574.9373397388
 21
67.9603653335
  0
LINE
  5
3F8
100
AcDbEntity
  8
KONSTRUKTIONSELEMENTE
100
AcDbLine
 62
7
  6
CONTINUOUS
 10
563.9771846304
 20
57.8562201445
 11
575.2908931294
 21
67.6541791156
  0
LINE
  5
3F9
100
AcDbEntity
  8
KONSTRUKTIONSELEMENTE
100
AcDbLine
 62
7
  6
CONTINUOUS
 10
695.2766253167
 20
168.6166395883
 11
689.2662176767
 21
163.4114738849
  0
LINE
  5
3FA
100
AcDbEntity
  8
KONSTRUKTIONSELEMENTE
100
AcDbLine
 62
7
  6
CONTINUOUS
 10
638.0009760406
 20
119.014472297
 11
631.9905684005
 21
113.8093065936
  0
LINE
  5
3FB
100
AcDbEntity
  8
KONSTRUKTIONSELEMENTE
100
AcDbLine
 62
7
  6
CONTINUOUS
 10
669.1005611352
 20
145.6167841222
 11
658.4939594174
 21
136.4311975867
  0
LINE
  5
3FC
100
AcDbEntity
  8
KONSTRUKTIONSELEMENTE
100
AcDbLine
 62
7
  6
CONTINUOUS
 10
563.9771846304
 20
53.3062201445
 11
575.2908931294
 21
63.1041791156
  0
LINE
  5
3FD
100
AcDbEntity
  8
KONSTRUKTIONSELEMENTE
100
AcDbLine
 62
7
  6
CONTINUOUS
 10
564.6842914116
 20
53.5309650159
 11
574.9373397388
 21
62.4103653335
  0
LINE
  5
3FE
100
AcDbEntity
  8
KONSTRUKTIONSELEMENTE
100
AcDbLine
 62
7
  6
CONTINUOUS
 10
643.7005585643
 20
121.8340792001
 11
652.4242894755
 21
129.389051785
  0
LINE
  5
3FF
100
AcDbEntity
  8
KONSTRUKTIONSELEMENTE
100
AcDbLine
 62
7
  6
CONTINUOUS
 10
674.4235848123
 20
148.4410004121
 11
683.5369878477
 21
156.3334389556
  0
LWPOLYLINE
  5
400
100
AcDbEntity
  8
KONSTRUKTIONSELEMENTE
100
AcDbPolyline
 62
7
  6
CONTINUOUS
 90
9
 70
0
 10
724.3987610021
 20
170.2762191147
 10
724.3279511049
 20
170.2023029851
 10
724.1517199458
 20
169.9895670771
 10
724.0048553614
 20
169.7675755509
 10
723.8859065902
 20
169.5371603577
 10
723.794531506
 20
169.3002616768
 10
723.730231369
 20
169.05792399
 10
723.6929014086
 20
168.8103828009
 10
723.6828238621
 20
168.596976335
  0
LWPOLYLINE
  5
401
100
AcDbEntity
  8
BEZUGSACHSEN
100
AcDbPolyline
 62
7
  6
CONTINUOUS
 90
5
 70
0
 10
724.3988133474
 20
170.2762718566
 10
724.328698016
 20
170.2031129746
 10
724.1526532766
 20
169.9908253347
 10
724.0054467903
 20
169.7685835002
 10
723.8861143445
 20
169.5376227235
  0
LINE
  5
402
100
AcDbEntity
  8
BEZUGSACHSEN
100
AcDbLine
 62
7
  6
CONTINUOUS
 10
729.3761549182
 20
176.7921758277
 11
729.2501252117
 21
176.6611724014
  0
LINE
  5
403
100
AcDbEntity
  8
BEZUGSACHSEN
100
AcDbLine
 62
7
  6
CONTINUOUS
 10
724.3988099441
 20
170.2762752368
 11
726.1260576494
 21
172.0090367196
  0
LINE
  5
404
100
AcDbEntity
  8
BEZUGSACHSEN
100
AcDbLine
 62
7
  6
CONTINUOUS
 10
729.3190529012
 20
176.7325583377
 11
729.3189378203
 21
176.7324452124
  0
LINE
  5
405
100
AcDbEntity
  8
KONSTRUKTIONSELEMENTE
100
AcDbLine
 62
7
  6
CONTINUOUS
 10
672.0465026534
 20
142.2151038651
 11
661.4399009356
 21
133.0295173297
  0
LINE
  5
406
100
AcDbEntity
  8
KONSTRUKTIONSELEMENTE
100
AcDbLine
 62
7
  6
CONTINUOUS
 10
698.5498936703
 20
164.8369948583
 11
692.5394860302
 21
159.6318291548
  0
LINE
  5
407
100
AcDbEntity
  8
KONSTRUKTIONSELEMENTE
100
AcDbLine
 62
7
  6
CONTINUOUS
 10
641.2742443942
 20
115.2348275669
 11
635.2638367541
 21
110.0296618635
  0
LINE
  5
408
100
AcDbEntity
  8
RUNDUNGEN
100
AcDbLine
 62
7
  6
CONTINUOUS
 10
746.8911576777
 20
126.7047348346
 11
746.6273531614
 21
126.3375647071
  0
LWPOLYLINE
  5
409
100
AcDbEntity
  8
BEZUGSACHSEN
100
AcDbPolyline
 62
7
  6
CONTINUOUS
 90
7
 70
0
 10
745.8283132272
 20
125.5355359755
 10
745.8660918853
 20
125.5630121489
 10
746.0489326494
 20
125.708223486
 10
746.2268002928
 20
125.8707884391
 10
746.3977303436
 20
126.0504309393
 10
746.5599217711
 20
126.2467527511
 10
746.62744034
 20
126.3376567985
  0
LWPOLYLINE
  5
40A
100
AcDbEntity
  8
RUNDUNGEN
100
AcDbPolyline
 62
7
  6
CONTINUOUS
 90
7
 70
0
 10
745.8283132272
 20
125.5355359755
 10
745.8660918853
 20
125.5630121489
 10
746.0489326494
 20
125.708223486
 10
746.2268002928
 20
125.8707884391
 10
746.3977303436
 20
126.0504309393
 10
746.5599217711
 20
126.2467527511
 10
746.62744034
 20
126.3376567985
  0
LINE
  5
40B
100
AcDbEntity
  8
KONSTRUKTIONSELEMENTE
100
AcDbLine
 62
7
  6
CONTINUOUS
 10
587.6660537641
 20
66.7957665373
 11
614.2615936194
 21
81.0588507483
  0
LINE
  5
40C
100
AcDbEntity
  8
KONSTRUKTIONSELEMENTE
100
AcDbLine
 62
7
  6
CONTINUOUS
 10
580.1606729664
 20
56.1503925984
 11
580.555308798
 21
56.3620342544
  0
LINE
  5
40D
100
AcDbEntity
  8
KONSTRUKTIONSELEMENTE
100
AcDbLine
 62
7
  6
CONTINUOUS
 10
614.200268856
 20
74.4056950032
 11
614.841125238
 21
74.7493837794
  0
LINE
  5
40E
100
AcDbEntity
  8
RUNDUNGEN
100
AcDbLine
 62
7
  6
CONTINUOUS
 10
745.831013384
 20
125.5375345609
 11
745.037477412
 21
124.9681327825
  0
ARC
  5
40F
100
AcDbEntity
  8
KONSTRUKTIONSELEMENTE
100
AcDbCircle
 62
7
  6
CONTINUOUS
 10
141.1521360538
 20
102.5917353948
 40
36.0
100
AcDbArc
 50
68.9490180653
 51
83.3240322405
  0
ARC
  5
410
100
AcDbEntity
  8
KONSTRUKTIONSELEMENTE
100
AcDbCircle
 62
7
  6
CONTINUOUS
 10
141.1521360538
 20
102.5917353948
 40
36.0
100
AcDbArc
 50
36.6759677595
 51
51.0509819347
  0
ARC
  5
411
100
AcDbEntity
  8
KONSTRUKTIONSELEMENTE
100
AcDbCircle
 62
7
  6
CONTINUOUS
 10
173.0957085731
 20
158.2716515533
 40
9.4443260734
100
AcDbArc
 50
74.2723032266
 51
80.4100277385
  0
ARC
  5
412
100
AcDbEntity
  8
KONSTRUKTIONSELEMENTE
100
AcDbCircle
 62
7
  6
CONTINUOUS
 10
159.4279984945
 20
132.2124642884
 40
7.5304602267
100
AcDbArc
 50
23.6440041601
 51
25.6848988335
  0
ARC
  5
413
100
AcDbEntity
  8
KONSTRUKTIONSELEMENTE
100
AcDbCircle
 62
7
  6
CONTINUOUS
 10
157.6617488755
 20
133.2839855875
 40
7.4757411256
100
AcDbArc
 50
94.2340700793
 51
97.5664239914
  0
ARC
  5
414
100
AcDbEntity
  8
KONSTRUKTIONSELEMENTE
100
AcDbCircle
 62
7
  6
CONTINUOUS
 10
159.5753003389
 20
132.2773650789
 40
7.3694950105
100
AcDbArc
 50
22.3884586971
 51
23.6410739397
  0
ARC
  5
415
100
AcDbEntity
  8
KONSTRUKTIONSELEMENTE
100
AcDbCircle
 62
7
  6
CONTINUOUS
 10
171.3811831147
 20
154.9499807686
 40
5.6
100
AcDbArc
 50
330.0
 51
150.0
  0
ARC
  5
416
100
AcDbEntity
  8
KONSTRUKTIONSELEMENTE
100
AcDbCircle
 62
7
  6
CONTINUOUS
 10
109.2535491646
 20
68.41091287
 40
5.4898501433
100
AcDbArc
 50
50.2049516589
 51
53.5150100898
  0
ARC
  5
417
100
AcDbEntity
  8
KONSTRUKTIONSELEMENTE
100
AcDbCircle
 62
7
  6
CONTINUOUS
 10
127.8392789539
 20
58.8999319118
 40
4.6749602766
100
AcDbArc
 50
81.3149175254
 51
82.0930351416
  0
ARC
  5
418
100
AcDbEntity
  8
KONSTRUKTIONSELEMENTE
100
AcDbCircle
 62
7
  6
CONTINUOUS
 10
154.4506501699
 20
125.625437509
 40
2.5
100
AcDbArc
 50
330.0
 51
150.0
  0
ARC
  5
419
100
AcDbEntity
  8
KONSTRUKTIONSELEMENTE
100
AcDbCircle
 62
7
  6
CONTINUOUS
 10
145.6954463498
 20
110.460979662
 40
2.5
100
AcDbArc
 50
150.0
 51
330.0
  0
ARC
  5
41A
100
AcDbEntity
  8
KONSTRUKTIONSELEMENTE
100
AcDbCircle
 62
7
  6
CONTINUOUS
 10
158.8653101494
 20
133.2718528917
 40
2.25
100
AcDbArc
 50
150.0
 51
330.0
  0
ARC
  5
41B
100
AcDbEntity
  8
KONSTRUKTIONSELEMENTE
100
AcDbCircle
 62
7
  6
CONTINUOUS
 10
169.9186110083
 20
152.4167315706
 40
2.25
100
AcDbArc
 50
330.0
 51
150.0
  0
ARC
  5
41C
100
AcDbEntity
  8
KONSTRUKTIONSELEMENTE
100
AcDbCircle
 62
7
  6
CONTINUOUS
 10
113.9550826538
 20
68.6716765961
 40
2.0435689331
100
AcDbArc
 50
337.9702150979
 51
339.9065806721
  0
ARC
  5
41D
100
AcDbEntity
  8
KONSTRUKTIONSELEMENTE
100
AcDbCircle
 62
7
  6
CONTINUOUS
 10
113.9844579152
 20
68.6594139546
 40
2.0117388432
100
AcDbArc
 50
330.0208671421
 51
337.9801551546
  0
ARC
  5
41E
100
AcDbEntity
  8
BEZUGSACHSEN
100
AcDbCircle
 62
7
  6
CONTINUOUS
 10
143.2883284008
 20
141.840005099
 40
2.0
100
AcDbArc
 50
190.0000250634
 51
240.0000161105
  0
ARC
  5
41F
100
AcDbEntity
  8
RUNDUNGEN
100
AcDbCircle
 62
7
  6
CONTINUOUS
 10
141.8765690619
 20
149.8464901715
 40
2.0
100
AcDbArc
 50
150.0
 51
190.0
  0
ARC
  5
420
100
AcDbEntity
  8
RUNDUNGEN
100
AcDbCircle
 62
7
  6
CONTINUOUS
 10
145.2645097688
 20
165.7145756088
 40
3.0
100
AcDbArc
 50
330.0
 51
344.0
  0
ARC
  5
421
100
AcDbEntity
  8
KONSTRUKTIONSELEMENTE
100
AcDbCircle
 62
7
  6
CONTINUOUS
 10
173.4736318474
 20
158.1633324897
 40
9.3448730039
100
AcDbArc
 50
39.5234235979
 51
45.7644531001
  0
ARC
  5
422
100
AcDbEntity
  8
RUNDUNGEN
100
AcDbCircle
 62
7
  6
CONTINUOUS
 10
193.7619323807
 20
137.7145756088
 40
3.0
100
AcDbArc
 50
136.0
 51
150.0
  0
ARC
  5
423
100
AcDbEntity
  8
KONSTRUKTIONSELEMENTE
100
AcDbCircle
 62
7
  6
CONTINUOUS
 10
174.3332709879
 20
160.0631469534
 40
2.5
100
AcDbArc
 50
169.3908042464
 51
310.6091957536
  0
CIRCLE
  5
424
100
AcDbEntity
  8
BEZUGSACHSEN
100
AcDbCircle
 62
7
  6
CONTINUOUS
 10
180.0098327617
 20
134.4952403579
 40
2.5
  0
ARC
  5
425
100
AcDbEntity
  8
BEZUGSACHSEN
100
AcDbCircle
 62
7
  6
CONTINUOUS
 10
174.0740411961
 20
124.0658680685
 40
2.0
100
AcDbArc
 50
239.9999310313
 51
289.9998927033
  0
ARC
  5
426
100
AcDbEntity
  8
RUNDUNGEN
100
AcDbCircle
 62
7
  6
CONTINUOUS
 10
181.713737636
 20
126.8464901715
 40
2.0
100
AcDbArc
 50
290.0
 51
329.9755144818
  0
ARC
  5
427
100
AcDbEntity
  8
BEZUGSACHSEN
100
AcDbCircle
 62
7
  6
CONTINUOUS
 10
184.0561831147
 20
176.9037247545
 40
13.25
100
AcDbArc
 50
102.844678999
 51
17.1553210011
  0
ARC
  5
428
100
AcDbEntity
  8
0
100
AcDbCircle
 62
7
  6
CONTINUOUS
 10
237.6311831147
 20
269.69834677
 40
9.0
100
AcDbArc
 50
330.0
 51
150.0
  0
ARC
  5
429
100
AcDbEntity
  8
0
100
AcDbCircle
 62
7
  6
CONTINUOUS
 10
186.1311831147
 20
180.4977301802
 40
9.0
100
AcDbArc
 50
150.0
 51
330.0
  0
ARC
  5
42A
100
AcDbEntity
  8
KONSTRUKTIONSELEMENTE
100
AcDbCircle
 62
7
  6
CONTINUOUS
 10
450.1102301755
 20
102.5917353948
 40
36.0
100
AcDbArc
 50
96.6759677595
 51
111.0509819347
  0
ARC
  5
42B
100
AcDbEntity
  8
KONSTRUKTIONSELEMENTE
100
AcDbCircle
 62
7
  6
CONTINUOUS
 10
450.1102301755
 20
102.5917353948
 40
36.0
100
AcDbArc
 50
128.9490180653
 51
143.3240322405
  0
ARC
  5
42C
100
AcDbEntity
  8
BEZUGSACHSEN
100
AcDbCircle
 62
7
  6
CONTINUOUS
 10
407.2061831147
 20
176.9037247545
 40
13.25
100
AcDbArc
 50
162.844678999
 51
77.1553210011
  0
ARC
  5
42D
100
AcDbEntity
  8
0
100
AcDbCircle
 62
7
  6
CONTINUOUS
 10
353.6311831147
 20
269.69834677
 40
9.0
100
AcDbArc
 50
30.0
 51
210.0
  0
ARC
  5
42E
100
AcDbEntity
  8
0
100
AcDbCircle
 62
7
  6
CONTINUOUS
 10
405.1311831147
 20
180.4977301802
 40
9.0
100
AcDbArc
 50
210.0
 51
30.0
  0
ARC
  5
42F
100
AcDbEntity
  8
BEZUGSACHSEN
100
AcDbCircle
 62
7
  6
CONTINUOUS
 10
419.8811831147
 20
154.9499807686
 40
5.6
100
AcDbArc
 50
30.0
 51
210.0
  0
ARC
  5
430
100
AcDbEntity
  8
BEZUGSACHSEN
100
AcDbCircle
 62
7
  6
CONTINUOUS
 10
397.5004338487
 20
137.7145756088
 40
3.0
100
AcDbArc
 50
30.0
 51
44.0
  0
ARC
  5
431
100
AcDbEntity
  8
BEZUGSACHSEN
100
AcDbCircle
 62
7
  6
CONTINUOUS
 10
445.9978564606
 20
165.7145756088
 40
3.0
100
AcDbArc
 50
196.0
 51
210.0
  0
CIRCLE
  5
432
100
AcDbEntity
  8
BEZUGSACHSEN
100
AcDbCircle
 62
7
  6
CONTINUOUS
 10
411.2525334677
 20
134.4952403579
 40
2.5
  0
ARC
  5
433
100
AcDbEntity
  8
BEZUGSACHSEN
100
AcDbCircle
 62
7
  6
CONTINUOUS
 10
409.5486285934
 20
126.8464901715
 40
2.0
100
AcDbArc
 50
210.0244855182
 51
250.0
  0
ARC
  5
434
100
AcDbEntity
  8
BEZUGSACHSEN
100
AcDbCircle
 62
7
  6
CONTINUOUS
 10
449.3857971675
 20
149.8464901715
 40
2.0
100
AcDbArc
 50
350.0
 51
30.0
  0
ARC
  5
435
100
AcDbEntity
  8
BEZUGSACHSEN
100
AcDbCircle
 62
7
  6
CONTINUOUS
 10
417.1883250333
 20
124.0658680685
 40
2.0
100
AcDbArc
 50
250.0001072967
 51
300.0000689687
  0
ARC
  5
436
100
AcDbEntity
  8
BEZUGSACHSEN
100
AcDbCircle
 62
7
  6
CONTINUOUS
 10
447.9740378285
 20
141.840005099
 40
2.0
100
AcDbArc
 50
299.9999838895
 51
349.9999749366
  0
ARC
  5
437
100
AcDbEntity
  8
0
100
AcDbCircle
 62
7
  6
CONTINUOUS
 10
295.6311831147
 20
370.157293609
 40
161.0
100
AcDbArc
 50
180.0
 51
236.7950607775
  0
ARC
  5
438
100
AcDbEntity
  8
0
100
AcDbCircle
 62
7
  6
CONTINUOUS
 10
295.6311831147
 20
370.157293609
 40
161.0
100
AcDbArc
 50
243.2047227328
 51
296.7952772672
  0
ARC
  5
439
100
AcDbEntity
  8
0
100
AcDbCircle
 62
7
  6
CONTINUOUS
 10
295.6311831147
 20
370.157293609
 40
161.0
100
AcDbArc
 50
303.2049392225
 51
360.0
  0
ARC
  5
43A
100
AcDbEntity
  8
0
100
AcDbCircle
 62
7
  6
CONTINUOUS
 10
295.6311831147
 20
580.157293609
 40
161.0
100
AcDbArc
 50
0.0
 51
180.0
  0
ARC
  5
43B
100
AcDbEntity
  8
0
100
AcDbCircle
 62
7
  6
CONTINUOUS
 10
295.6311831147
 20
580.157293609
 40
125.0
100
AcDbArc
 50
0.0
 51
180.0
  0
ARC
  5
43C
100
AcDbEntity
  8
0
100
AcDbCircle
 62
7
  6
CONTINUOUS
 10
295.6311831147
 20
370.157293609
 40
125.0
100
AcDbArc
 50
180.0
 51
235.8710642247
  0
ARC
  5
43D
100
AcDbEntity
  8
0
100
AcDbCircle
 62
7
  6
CONTINUOUS
 10
295.6311831147
 20
370.157293609
 40
125.0
100
AcDbArc
 50
244.1293282584
 51
295.8706717416
  0
ARC
  5
43E
100
AcDbEntity
  8
0
100
AcDbCircle
 62
7
  6
CONTINUOUS
 10
295.6311831147
 20
370.157293609
 40
125.0
100
AcDbArc
 50
304.1289357753
 51
360.0
  0
ARC
  5
43F
100
AcDbEntity
  8
KONSTRUKTIONSELEMENTE
100
AcDbCircle
 62
7
  6
CONTINUOUS
 10
387.8676087931
 20
49.0926848191
 40
381.595293902
100
AcDbArc
 50
22.7976510038
 51
23.0109611436
  0
ARC
  5
440
100
AcDbEntity
  8
KONSTRUKTIONSELEMENTE
100
AcDbCircle
 62
7
  6
CONTINUOUS
 10
630.322241912
 20
165.5712787378
 40
114.1287778538
100
AcDbArc
 50
18.975922028
 51
19.1796104302
  0
ARC
  5
441
100
AcDbEntity
  8
KONSTRUKTIONSELEMENTE
100
AcDbCircle
 62
7
  6
CONTINUOUS
 10
638.0249237759
 20
150.9459307917
 40
111.8905211419
100
AcDbArc
 50
26.3539792552
 51
26.5109215748
  0
ARC
  5
442
100
AcDbEntity
  8
KONSTRUKTIONSELEMENTE
100
AcDbCircle
 62
7
  6
CONTINUOUS
 10
570.12335235
 20
76.7985031809
 40
5.0213396453
100
AcDbArc
 50
337.4729368824
 51
338.0391898129
  0
ARC
  5
443
100
AcDbEntity
  8
KONSTRUKTIONSELEMENTE
100
AcDbCircle
 62
7
  6
CONTINUOUS
 10
636.6971339064
 20
120.5495139066
 40
2.1406419652
100
AcDbArc
 50
21.3128499485
 51
27.3434746478
  0
ARC
  5
444
100
AcDbEntity
  8
KONSTRUKTIONSELEMENTE
100
AcDbCircle
 62
7
  6
CONTINUOUS
 10
636.7720791934
 20
120.5797109159
 40
2.0598469891
100
AcDbArc
 50
18.6815072043
 51
21.288032893
  0
ARC
  5
445
100
AcDbEntity
  8
KONSTRUKTIONSELEMENTE
100
AcDbCircle
 62
7
  6
CONTINUOUS
 10
648.8787757128
 20
174.4749926657
 40
93.6638259873
100
AcDbArc
 50
14.8280515728
 51
15.0007181914
  0
ARC
  5
446
100
AcDbEntity
  8
KONSTRUKTIONSELEMENTE
100
AcDbCircle
 62
7
  6
CONTINUOUS
 10
655.2856856328
 20
159.2551024517
 40
92.6083371918
100
AcDbArc
 50
24.4940812219
 51
24.7110081494
  0
ARC
  5
447
100
AcDbEntity
  8
BEZUGSACHSEN
100
AcDbCircle
 62
7
  6
CONTINUOUS
 10
720.3879614938
 20
172.1901024809
 40
12.0852294804
100
AcDbArc
 50
318.7046996512
 51
322.8254710605
  0
ARC
  5
448
100
AcDbEntity
  8
RUNDUNGEN
100
AcDbCircle
 62
7
  6
CONTINUOUS
 10
746.9776627367
 20
172.1901024811
 40
12.0852294807
100
AcDbArc
 50
217.1745289395
 51
221.2953003487
  0
ARC
  5
449
100
AcDbEntity
  8
KONSTRUKTIONSELEMENTE
100
AcDbCircle
 62
7
  6
CONTINUOUS
 10
685.4414469719
 20
165.0462171762
 40
6.8544496741
100
AcDbArc
 50
180.0468621101
 51
190.0347873196
  0
ARC
  5
44A
100
AcDbEntity
  8
KONSTRUKTIONSELEMENTE
100
AcDbCircle
 62
7
  6
CONTINUOUS
 10
654.495923501
 20
138.2530585253
 40
6.5947824563
100
AcDbArc
 50
180.0290752758
 51
188.778086953
  0
ARC
  5
44B
100
AcDbEntity
  8
BEZUGSACHSEN
100
AcDbCircle
 62
7
  6
CONTINUOUS
 10
724.0430966661
 20
129.2687809466
 40
4.3942523084
100
AcDbArc
 50
214.0513847632
 51
215.6970906589
  0
ARC
  5
44C
100
AcDbEntity
  8
RUNDUNGEN
100
AcDbCircle
 62
7
  6
CONTINUOUS
 10
743.3225275643
 20
129.2687809466
 40
4.3942523084
100
AcDbArc
 50
324.3029093411
 51
325.9486152368
  0
ARC
  5
44D
100
AcDbEntity
  8
0
100
AcDbCircle
 62
7
  6
CONTINUOUS
 10
735.0641606624
 20
154.838864314
 40
4.3689961288
100
AcDbArc
 50
6.4018497207
 51
13.0211258668
  0
ARC
  5
44E
100
AcDbEntity
  8
0
100
AcDbCircle
 62
7
  6
CONTINUOUS
 10
732.301463568
 20
154.838864314
 40
4.3689961288
100
AcDbArc
 50
166.9788741331
 51
173.5981502793
  0
ARC
  5
44F
100
AcDbEntity
  8
KONSTRUKTIONSELEMENTE
100
AcDbCircle
 62
7
  6
CONTINUOUS
 10
655.6552055658
 20
139.2043604437
 40
3.6351988049
100
AcDbArc
 50
238.8071952044
 51
240.6860889462
  0
ARC
  5
450
100
AcDbEntity
  8
KONSTRUKTIONSELEMENTE
100
AcDbCircle
 62
7
  6
CONTINUOUS
 10
686.619690446
 20
166.0517714815
 40
3.448088097
100
AcDbArc
 50
240.3855846735
 51
242.1133696712
  0
ARC
  5
451
100
AcDbEntity
  8
KONSTRUKTIONSELEMENTE
100
AcDbCircle
 62
7
  6
CONTINUOUS
 10
666.0584126068
 20
146.7788758307
 40
3.2769193772
100
AcDbArc
 50
125.8441677694
 51
130.856180551
  0
ARC
  5
452
100
AcDbEntity
  8
KONSTRUKTIONSELEMENTE
100
AcDbCircle
 62
7
  6
CONTINUOUS
 10
667.6365298326
 20
147.3425228123
 40
2.3870910771
100
AcDbArc
 50
23.4715892295
 51
29.1872445595
  0
ARC
  5
453
100
AcDbEntity
  8
KONSTRUKTIONSELEMENTE
100
AcDbCircle
 62
7
  6
CONTINUOUS
 10
693.8943537451
 20
170.3903448802
 40
2.2319350355
100
AcDbArc
 50
329.6480991187
 51
331.3181221815
  0
ARC
  5
454
100
AcDbEntity
  8
KONSTRUKTIONSELEMENTE
100
AcDbCircle
 62
7
  6
CONTINUOUS
 10
695.9224327407
 20
171.1058813307
 40
1.6636945382
100
AcDbArc
 50
266.6436425957
 51
268.9525417715
  0
ARC
  5
455
100
AcDbEntity
  8
KONSTRUKTIONSELEMENTE
100
AcDbCircle
 62
7
  6
CONTINUOUS
 10
656.4916748454
 20
180.680399988
 40
84.3417378127
100
AcDbArc
 50
12.4263706198
 51
12.6605988968
  0
ARC
  5
456
100
AcDbEntity
  8
KONSTRUKTIONSELEMENTE
100
AcDbCircle
 62
7
  6
CONTINUOUS
 10
682.178844862
 20
183.5945356163
 40
59.1979414924
100
AcDbArc
 50
13.9381532118
 51
14.2329525231
  0
ARC
  5
457
100
AcDbEntity
  8
KONSTRUKTIONSELEMENTE
100
AcDbCircle
 62
7
  6
CONTINUOUS
 10
686.4452675038
 20
189.6434698832
 40
53.1173814488
100
AcDbArc
 50
10.2196365389
 51
10.4438870617
  0
ARC
  5
458
100
AcDbEntity
  8
KONSTRUKTIONSELEMENTE
100
AcDbCircle
 62
7
  6
CONTINUOUS
 10
698.7895832566
 20
186.0749548553
 40
42.6850765307
100
AcDbArc
 50
16.89614117
 51
17.2389229938
  0
ARC
  5
459
100
AcDbEntity
  8
KONSTRUKTIONSELEMENTE
100
AcDbCircle
 62
7
  6
CONTINUOUS
 10
712.1562392718
 20
183.7726095799
 40
30.8363288483
100
AcDbArc
 50
27.8399748911
 51
28.1276527745
  0
ARC
  5
45A
100
AcDbEntity
  8
KONSTRUKTIONSELEMENTE
100
AcDbCircle
 62
7
  6
CONTINUOUS
 10
712.9807301908
 20
193.8536366817
 40
26.7704384934
100
AcDbArc
 50
20.1285185796
 51
20.5379932818
  0
ARC
  5
45B
100
AcDbEntity
  8
KONSTRUKTIONSELEMENTE
100
AcDbCircle
 62
7
  6
CONTINUOUS
 10
717.764934771
 20
186.5010354926
 40
24.9520668534
100
AcDbArc
 50
35.2171712226
 51
35.618426755
  0
ARC
  5
45C
100
AcDbEntity
  8
KONSTRUKTIONSELEMENTE
100
AcDbCircle
 62
7
  6
CONTINUOUS
 10
728.1455266525
 20
190.1508347474
 40
13.6574697367
100
AcDbArc
 50
32.7361291107
 51
33.306783149
  0
ARC
  5
45D
100
AcDbEntity
  8
KONSTRUKTIONSELEMENTE
100
AcDbCircle
 62
7
  6
CONTINUOUS
 10
721.4826127987
 20
194.5813394776
 40
18.4438034722
100
AcDbArc
 50
9.5397786686
 51
10.2200372259
  0
ARC
  5
45E
100
AcDbEntity
  8
0
100
AcDbCircle
 62
7
  6
CONTINUOUS
 10
722.2967343987
 20
200.766332848
 40
15.1945995514
100
AcDbArc
 50
357.4014919109
 51
0.6824307488
  0
ARC
  5
45F
100
AcDbEntity
  8
KONSTRUKTIONSELEMENTE
100
AcDbCircle
 62
7
  6
CONTINUOUS
 10
722.8233687004
 20
200.766332848
 40
15.1945995514
100
AcDbArc
 50
357.4014919109
 51
0.6824307488
  0
ARC
  5
460
100
AcDbEntity
  8
KONSTRUKTIONSELEMENTE
100
AcDbCircle
 62
7
  6
CONTINUOUS
 10
723.3236903894
 20
200.2871581786
 40
14.8701952103
100
AcDbArc
 50
358.1840895948
 51
0.8377640722
  0
ARC
  5
461
100
AcDbEntity
  8
KONSTRUKTIONSELEMENTE
100
AcDbCircle
 62
7
  6
CONTINUOUS
 10
724.7630140954
 20
198.8502491233
 40
13.9586134184
100
AcDbArc
 50
358.0654325759
 51
0.8924560318
  0
ARC
  5
462
100
AcDbEntity
  8
KONSTRUKTIONSELEMENTE
100
AcDbCircle
 62
7
  6
CONTINUOUS
 10
725.3383456067
 20
198.2755204951
 40
13.594379581
100
AcDbArc
 50
358.0134225249
 51
0.610674628
  0
ARC
  5
463
100
AcDbEntity
  8
KONSTRUKTIONSELEMENTE
100
AcDbCircle
 62
7
  6
CONTINUOUS
 10
726.8530740862
 20
195.6101519271
 40
13.0465594768
100
AcDbArc
 50
14.9224849348
 51
15.5517228053
  0
ARC
  5
464
100
AcDbEntity
  8
KONSTRUKTIONSELEMENTE
100
AcDbCircle
 62
7
  6
CONTINUOUS
 10
727.2434761344
 20
196.259340254
 40
12.4281737472
100
AcDbArc
 50
2.6112193226
 51
3.1967081122
  0
ARC
  5
465
100
AcDbEntity
  8
KONSTRUKTIONSELEMENTE
100
AcDbCircle
 62
7
  6
CONTINUOUS
 10
727.2606878418
 20
196.2672846849
 40
12.4109394817
100
AcDbArc
 50
356.8029393247
 51
357.8079917044
  0
ARC
  5
466
100
AcDbEntity
  8
KONSTRUKTIONSELEMENTE
100
AcDbCircle
 62
7
  6
CONTINUOUS
 10
727.2910091637
 20
196.2615177713
 40
12.3805908684
100
AcDbArc
 50
2.0235518614
 51
2.6111743489
  0
ARC
  5
467
100
AcDbEntity
  8
KONSTRUKTIONSELEMENTE
100
AcDbCircle
 62
7
  6
CONTINUOUS
 10
736.4327527879
 20
196.1060069924
 40
9.0175443242
100
AcDbArc
 50
164.730591508
 51
165.692237472
  0
ARC
  5
468
100
AcDbEntity
  8
KONSTRUKTIONSELEMENTE
100
AcDbCircle
 62
7
  6
CONTINUOUS
 10
730.9328714425
 20
196.1060069924
 40
9.0175443242
100
AcDbArc
 50
14.307762528
 51
15.269408492
  0
ARC
  5
469
100
AcDbEntity
  8
0
100
AcDbCircle
 62
7
  6
CONTINUOUS
 10
731.5104317601
 20
202.4022410065
 40
5.9809471407
100
AcDbArc
 50
2.6252706238
 51
3.9305799697
  0
ARC
  5
46A
100
AcDbEntity
  8
KONSTRUKTIONSELEMENTE
100
AcDbCircle
 62
7
  6
CONTINUOUS
 10
732.0370660629
 20
202.4022410065
 40
5.9809471396
100
AcDbArc
 50
2.6252706237
 51
3.9305799698
  0
ARC
  5
46B
100
AcDbEntity
  8
0
100
AcDbCircle
 62
7
  6
CONTINUOUS
 10
731.51043177
 20
202.4060116106
 40
5.9809471308
100
AcDbArc
 50
356.0694200296
 51
357.3747299996
  0
ARC
  5
46C
100
AcDbEntity
  8
KONSTRUKTIONSELEMENTE
100
AcDbCircle
 62
7
  6
CONTINUOUS
 10
732.0370660727
 20
202.4060116105
 40
5.9809471297
100
AcDbArc
 50
356.0694200295
 51
357.3747299998
  0
ARC
  5
46D
100
AcDbEntity
  8
BEZUGSACHSEN
100
AcDbCircle
 62
7
  6
CONTINUOUS
 10
732.4328121152
 20
195.2160503835
 40
5.0
100
AcDbArc
 50
161.6999918899
 51
180.0
  0
ARC
  5
46E
100
AcDbEntity
  8
BEZUGSACHSEN
100
AcDbCircle
 62
7
  6
CONTINUOUS
 10
734.9328121152
 20
195.2160503835
 40
5.0
100
AcDbArc
 50
0.0
 51
18.3000081101
  0
ARC
  5
46F
100
AcDbEntity
  8
KONSTRUKTIONSELEMENTE
100
AcDbCircle
 62
7
  6
CONTINUOUS
 10
734.5053493012
 20
198.2069508373
 40
4.9551201855
100
AcDbArc
 50
359.4756803774
 51
0.2621527334
  0
ARC
  5
470
100
AcDbEntity
  8
KONSTRUKTIONSELEMENTE
100
AcDbCircle
 62
7
  6
CONTINUOUS
 10
733.7355045103
 20
200.6122485818
 40
4.9440084526
100
AcDbArc
 50
23.7330676574
 51
24.6671534526
  0
ARC
  5
471
100
AcDbEntity
  8
KONSTRUKTIONSELEMENTE
100
AcDbCircle
 62
7
  6
CONTINUOUS
 10
732.5064654945
 20
197.5927297891
 40
4.8124076802
100
AcDbArc
 50
179.4601345254
 51
180.5398662468
  0
ARC
  5
472
100
AcDbEntity
  8
KONSTRUKTIONSELEMENTE
100
AcDbCircle
 62
7
  6
CONTINUOUS
 10
734.8592950239
 20
197.5927300197
 40
4.8122714005
100
AcDbArc
 50
359.4601157195
 51
0.2699344475
  0
ARC
  5
473
100
AcDbEntity
  8
0
100
AcDbCircle
 62
7
  6
CONTINUOUS
 10
733.7182886669
 20
202.4052649612
 40
4.0439315386
100
AcDbArc
 50
338.8672514137
 51
340.1593208942
  0
ARC
  5
474
100
AcDbEntity
  8
KONSTRUKTIONSELEMENTE
100
AcDbCircle
 62
7
  6
CONTINUOUS
 10
734.2449229686
 20
202.4052649612
 40
4.0439315386
100
AcDbArc
 50
338.8672514137
 51
340.1593208942
  0
ARC
  5
475
100
AcDbEntity
  8
KONSTRUKTIONSELEMENTE
100
AcDbCircle
 62
7
  6
CONTINUOUS
 10
738.5315223012
 20
195.2972805823
 40
3.0111328893
100
AcDbArc
 50
72.035039653
 51
72.7703194807
  0
ARC
  5
476
100
AcDbEntity
  8
KONSTRUKTIONSELEMENTE
100
AcDbCircle
 62
7
  6
CONTINUOUS
 10
731.762076451
 20
202.0766186001
 40
2.7110036593
100
AcDbArc
 50
152.9168221487
 51
154.4594483624
  0
ARC
  5
477
100
AcDbEntity
  8
KONSTRUKTIONSELEMENTE
100
AcDbCircle
 62
7
  6
CONTINUOUS
 10
735.6035477794
 20
202.0766186001
 40
2.7110036593
100
AcDbArc
 50
25.5405516376
 51
27.0831778513
  0
ARC
  5
478
100
AcDbEntity
  8
KONSTRUKTIONSELEMENTE
100
AcDbCircle
 62
7
  6
CONTINUOUS
 10
728.2930671093
 20
199.5249146829
 40
2.0661985998
100
AcDbArc
 50
253.1536895065
 51
254.2392573021
  0
ARC
  5
479
100
AcDbEntity
  8
KONSTRUKTIONSELEMENTE
100
AcDbCircle
 62
7
  6
CONTINUOUS
 10
739.0725571211
 20
199.5249146829
 40
2.0661985998
100
AcDbArc
 50
285.7607426979
 51
286.8463104935
  0
ARC
  5
47A
100
AcDbEntity
  8
KONSTRUKTIONSELEMENTE
100
AcDbCircle
 62
7
  6
CONTINUOUS
 10
737.4826626593
 20
202.6434777016
 40
0.746389626
100
AcDbArc
 50
351.2533938921
 51
2.4674860408
  0
ARC
  5
47B
100
AcDbEntity
  8
KONSTRUKTIONSELEMENTE
100
AcDbCircle
 62
7
  6
CONTINUOUS
 10
739.0217730112
 20
198.3064980044
 40
0.6500560059
100
AcDbArc
 50
345.1902813399
 51
353.8986003332
  0
ARC
  5
47C
100
AcDbEntity
  8
KONSTRUKTIONSELEMENTE
100
AcDbCircle
 62
7
  6
CONTINUOUS
 10
738.8186401212
 20
198.937746459
 40
0.6418002995
100
AcDbArc
 50
349.8064219642
 51
2.8625214759
  0
ARC
  5
47D
100
AcDbEntity
  8
KONSTRUKTIONSELEMENTE
100
AcDbCircle
 62
7
  6
CONTINUOUS
 10
739.055019952
 20
198.3021899528
 40
0.6165399577
100
AcDbArc
 50
353.9682880517
 51
3.0054173659
  0
ARC
  5
47E
100
AcDbEntity
  8
KONSTRUKTIONSELEMENTE
100
AcDbCircle
 62
7
  6
CONTINUOUS
 10
768.5760409738
 20
186.0749548553
 40
42.6850765307
100
AcDbArc
 50
162.7610770062
 51
163.10385883
  0
ARC
  5
47F
100
AcDbEntity
  8
KONSTRUKTIONSELEMENTE
100
AcDbCircle
 62
7
  6
CONTINUOUS
 10
754.3848940396
 20
193.8536366817
 40
26.7704384934
100
AcDbArc
 50
159.4620067182
 51
159.8714814204
  0
ARC
  5
480
100
AcDbEntity
  8
KONSTRUKTIONSELEMENTE
100
AcDbCircle
 62
7
  6
CONTINUOUS
 10
745.8830114317
 20
194.5813394776
 40
18.4438034722
100
AcDbArc
 50
169.7799627741
 51
170.4602213314
  0
ARC
  5
481
100
AcDbEntity
  8
0
100
AcDbCircle
 62
7
  6
CONTINUOUS
 10
733.6828121152
 20
227.157293609
 40
18.0
100
AcDbArc
 50
180.0
 51
360.0
  0
ARC
  5
482
100
AcDbEntity
  8
KONSTRUKTIONSELEMENTE
100
AcDbCircle
 62
7
  6
CONTINUOUS
 10
736.6498913619
 20
204.5092958767
 40
4.2914767636
100
AcDbArc
 50
291.0640382609
 51
291.5394944151
  0
ARC
  5
483
100
AcDbEntity
  8
KONSTRUKTIONSELEMENTE
100
AcDbCircle
 62
7
  6
CONTINUOUS
 10
888.4585929083
 20
147.2643265422
 40
168.6909958229
100
AcDbArc
 50
162.075642595
 51
162.2383077778
  0
ARC
  5
484
100
AcDbEntity
  8
KONSTRUKTIONSELEMENTE
100
AcDbCircle
 62
7
  6
CONTINUOUS
 10
836.9888469534
 20
165.5901747892
 40
114.0710616344
100
AcDbArc
 50
160.8203547421
 51
161.0282421353
  0
ARC
  5
485
100
AcDbEntity
  8
KONSTRUKTIONSELEMENTE
100
AcDbCircle
 62
7
  6
CONTINUOUS
 10
785.0860145562
 20
183.6197175677
 40
59.0940778824
100
AcDbArc
 50
165.7965924338
 51
166.0620104893
  0
ARC
  5
486
100
AcDbEntity
  8
0
100
AcDbCircle
 62
7
  6
CONTINUOUS
 10
733.6828121152
 20
723.157293609
 40
18.0
100
AcDbArc
 50
0.0
 51
180.0
  0
SPLINE
  5
487
100
AcDbEntity
  8
KONSTRUKTIONSELEMENTE
100
AcDbSpline
 62
7
  6
CONTINUOUS
 70
0
 71
3
 72
10
 73
6
 74
0
 42
0.0000001
 43
0.0000001
 44
0.0000000001
 40
0.0
 40
0.0
 40
0.0
 40
0.0
 40
0.3116645009
 40
0.6060899939
 40
1.0
 40
1.0
 40
1.0
 40
1.0
 10
162.2965253285
 20
132.2148919136
 30
0.0
 10
162.3951027517
 20
132.3856330191
 30
0.0
 10
162.4183613552
 20
132.800975215
 30
0.0
 10
162.2392477949
 20
133.4053799676
 30
0.0
 10
162.0252476624
 20
133.7915234898
 30
0.0
 10
161.8843947473
 20
133.997077031
 30
0.0
  0
SPLINE
  5
488
100
AcDbEntity
  8
KONSTRUKTIONSELEMENTE
100
AcDbSpline
 62
7
  6
CONTINUOUS
 70
0
 71
3
 72
10
 73
6
 74
0
 42
0.0000001
 43
0.0000001
 44
0.0000000001
 40
0.0
 40
0.0
 40
0.0
 40
0.0
 40
0.3939255147
 40
0.6883533687
 40
1.0
 40
1.0
 40
1.0
 40
1.0
 10
157.9840964861
 20
136.2490445254
 30
0.0
 10
157.7356121782
 20
136.2682728913
 30
0.0
 10
157.2941312359
 20
136.260530512
 30
0.0
 10
156.6810363892
 20
136.1135021229
 30
0.0
 10
156.332933154
 20
135.8856472716
 30
0.0
 10
156.234347502
 20
135.7148919136
 30
0.0
  0
SPLINE
  5
489
100
AcDbEntity
  8
KONSTRUKTIONSELEMENTE
100
AcDbSpline
 62
7
  6
CONTINUOUS
 70
0
 71
3
 72
13
 73
9
 74
0
 42
0.0000001
 43
0.0000001
 44
0.0000000001
 40
0.0
 40
0.0
 40
0.0
 40
0.0
 40
0.1197290731
 40
0.2397365246
 40
0.3609040964
 40
0.4836831257
 40
0.7359942557
 40
1.0
 40
1.0
 40
1.0
 40
1.0
 10
147.0339323261
 20
128.7793053781
 30
0.0
 10
146.859325475
 20
128.4768774408
 30
0.0
 10
146.5710985252
 20
127.833446476
 30
0.0
 10
146.3416325867
 20
126.7994291423
 30
0.0
 10
146.3134825647
 20
125.7319047907
 30
0.0
 10
146.5367377323
 20
124.2949930269
 30
0.0
 10
147.2809663696
 20
122.552252308
 30
0.0
 10
148.2399496665
 20
121.3674864017
 30
0.0
 10
148.7912148139
 20
120.8298566021
 30
0.0
  0
SPLINE
  5
48A
100
AcDbEntity
  8
KONSTRUKTIONSELEMENTE
100
AcDbSpline
 62
7
  6
CONTINUOUS
 70
0
 71
3
 72
13
 73
9
 74
0
 42
0.0000001
 43
0.0000001
 44
0.0000000001
 40
0.0
 40
0.0
 40
0.0
 40
0.0
 40
0.2640112835
 40
0.5163080567
 40
0.6390830379
 40
0.7602378991
 40
0.8802701562
 40
1.0
 40
1.0
 40
1.0
 40
1.0
 10
153.1281789764
 20
118.3261946053
 30
0.0
 10
153.869372318
 20
118.1176994865
 30
0.0
 10
155.3747295731
 20
117.8797018533
 30
0.0
 10
157.2558417435
 20
118.1067035728
 30
0.0
 10
158.6116098359
 20
118.6317822372
 30
0.0
 10
159.5219939527
 20
119.1898319503
 30
0.0
 10
160.3026024849
 20
119.9056121507
 30
0.0
 10
160.7157493879
 20
120.4769076691
 30
0.0
 10
160.8903387866
 20
120.7793053781
 30
0.0
  0
SPLINE
  5
48B
100
AcDbEntity
  8
KONSTRUKTIONSELEMENTE
100
AcDbSpline
 62
7
  6
CONTINUOUS
 70
0
 71
3
 72
10
 73
6
 74
0
 42
0.0000001
 43
0.0000001
 44
0.0000000001
 40
0.0
 40
0.0
 40
0.0
 40
0.0
 40
0.3192646009
 40
0.6086079864
 40
1.0
 40
1.0
 40
1.0
 40
1.0
 10
150.9310466431
 20
126.5293053781
 30
0.0
 10
150.8451767555
 20
126.38057437
 30
0.0
 10
150.807740427
 20
126.0317011737
 30
0.0
 10
150.9278615588
 20
125.5081450478
 30
0.0
 10
151.08399657
 20
125.1720031545
 30
0.0
 10
151.1896203456
 20
124.9898762983
 30
0.0
  0
SPLINE
  5
48C
100
AcDbEntity
  8
KONSTRUKTIONSELEMENTE
100
AcDbSpline
 62
7
  6
CONTINUOUS
 70
0
 71
3
 72
10
 73
6
 74
0
 42
0.0000001
 43
0.0000001
 44
0.0000000001
 40
0.0
 40
0.0
 40
0.0
 40
0.0
 40
0.3914026107
 40
0.6807340322
 40
1.0
 40
1.0
 40
1.0
 40
1.0
 10
155.5308584361
 20
122.4835219066
 30
0.0
 10
155.7413893705
 20
122.4831176947
 30
0.0
 10
156.1105320866
 20
122.5160124727
 30
0.0
 10
156.6239912903
 20
122.673708492
 30
0.0
 10
156.9073595768
 20
122.8805830212
 30
0.0
 10
156.9932244696
 20
123.0293053781
 30
0.0
  0
SPLINE
  5
48D
100
AcDbEntity
  8
KONSTRUKTIONSELEMENTE
100
AcDbSpline
 62
7
  6
CONTINUOUS
 70
0
 71
3
 72
10
 73
6
 74
0
 42
0.0000001
 43
0.0000001
 44
0.0000000001
 40
0.0
 40
0.0
 40
0.0
 40
0.0
 40
0.3116645009
 40
0.6060899939
 40
1.0
 40
1.0
 40
1.0
 40
1.0
 10
166.4873958292
 20
153.4736925488
 30
0.0
 10
166.388818406
 20
153.3029514433
 30
0.0
 10
166.3655598026
 20
152.8876092473
 30
0.0
 10
166.5446733628
 20
152.2832044947
 30
0.0
 10
166.7586734953
 20
151.8970609726
 30
0.0
 10
166.8995264104
 20
151.6915074313
 30
0.0
  0
SPLINE
  5
48E
100
AcDbEntity
  8
KONSTRUKTIONSELEMENTE
100
AcDbSpline
 62
7
  6
CONTINUOUS
 70
0
 71
3
 72
10
 73
6
 74
0
 42
0.0000001
 43
0.0000001
 44
0.0000000001
 40
0.0
 40
0.0
 40
0.0
 40
0.0
 40
0.3939255147
 40
0.6883533687
 40
1.0
 40
1.0
 40
1.0
 40
1.0
 10
170.7998246717
 20
149.4395399369
 30
0.0
 10
171.0483089795
 20
149.4203115711
 30
0.0
 10
171.4897899218
 20
149.4280539503
 30
0.0
 10
172.1028847686
 20
149.5750823394
 30
0.0
 10
172.4509880038
 20
149.8029371907
 30
0.0
 10
172.5495736557
 20
149.9736925488
 30
0.0
  0
SPLINE
  5
48F
100
AcDbEntity
  8
KONSTRUKTIONSELEMENTE
100
AcDbSpline
 62
7
  6
CONTINUOUS
 70
0
 71
3
 72
9
 73
5
 74
0
 42
0.0000001
 43
0.0000001
 44
0.0000000001
 40
0.0
 40
0.0
 40
0.0
 40
0.0
 40
0.4741296724
 40
1.0
 40
1.0
 40
1.0
 40
1.0
 10
172.1932529765
 20
182.7891721306
 30
0.0
 10
172.8940566682
 20
181.1104757939
 30
0.0
 10
175.0028794803
 20
177.8262250647
 30
0.0
 10
177.876990627
 20
175.2220970972
 30
0.0
 10
179.5185089539
 20
174.0489765605
 30
0.0
  0
SPLINE
  5
490
100
AcDbEntity
  8
KONSTRUKTIONSELEMENTE
100
AcDbSpline
 62
7
  6
CONTINUOUS
 70
0
 71
3
 72
9
 73
5
 74
0
 42
0.0000001
 43
0.0000001
 44
0.0000000001
 40
0.0
 40
0.0
 40
0.0
 40
0.0
 40
0.5258549163
 40
1.0
 40
1.0
 40
1.0
 40
1.0
 10
183.8524212516
 20
171.5467452012
 30
0.0
 10
185.6886770314
 20
170.7118926485
 30
0.0
 10
189.3801114605
 20
169.5250203577
 30
0.0
 10
193.277871444
 20
169.3404080183
 30
0.0
 10
195.0817804182
 20
169.5724831592
 30
0.0
  0
SPLINE
  5
491
100
AcDbEntity
  8
KONSTRUKTIONSELEMENTE
100
AcDbSpline
 62
7
  6
CONTINUOUS
 70
0
 71
3
 72
9
 73
5
 74
0
 42
0.0000001
 43
0.0000001
 44
0.0000000001
 40
0.0
 40
0.0
 40
0.0
 40
0.0
 40
0.2468599944
 40
1.0
 40
1.0
 40
1.0
 40
1.0
 10
171.2958767141
 20
173.3475528211
 30
0.0
 10
171.6793240449
 20
172.9284192528
 30
0.0
 10
173.2832090329
 20
171.2773356033
 30
0.0
 10
175.0790469217
 20
169.8144074641
 30
0.0
 10
176.5073639261
 20
168.8327747468
 30
0.0
  0
SPLINE
  5
492
100
AcDbEntity
  8
KONSTRUKTIONSELEMENTE
100
AcDbSpline
 62
7
  6
CONTINUOUS
 70
0
 71
3
 72
9
 73
5
 74
0
 42
0.0000001
 43
0.0000001
 44
0.0000000001
 40
0.0
 40
0.0
 40
0.0
 40
0.0
 40
0.253011464
 40
1.0
 40
1.0
 40
1.0
 40
1.0
 10
180.8403315076
 20
166.3310650811
 30
0.0
 10
181.3671924891
 20
166.0797405177
 30
0.0
 10
183.4763801198
 20
165.144042475
 30
0.0
 10
185.6905387066
 20
164.4417922828
 30
0.0
 10
187.3736222757
 20
164.0711396855
 30
0.0
  0
SPLINE
  5
493
100
AcDbEntity
  8
BEZUGSACHSEN
100
AcDbSpline
 62
7
  6
CONTINUOUS
 70
0
 71
3
 72
9
 73
5
 74
0
 42
0.0000001
 43
0.0000001
 44
0.0000000001
 40
0.0
 40
0.0
 40
0.0
 40
0.0
 40
0.4740637035
 40
1.0
 40
1.0
 40
1.0
 40
1.0
 10
150.6012626833
 20
109.1628715024
 30
0.0
 10
150.1685496077
 20
108.9689630204
 30
0.0
 10
149.1732796694
 20
108.7375772113
 30
0.0
 10
148.1628902727
 20
108.8047567036
 30
0.0
 10
147.645537058
 20
108.9000641958
 30
0.0
  0
SPLINE
  5
494
100
AcDbEntity
  8
BEZUGSACHSEN
100
AcDbSpline
 62
7
  6
CONTINUOUS
 70
0
 71
3
 72
9
 73
5
 74
0
 42
0.0000001
 43
0.0000001
 44
0.0000000001
 40
0.0
 40
0.0
 40
0.0
 40
0.0
 40
0.5259362965
 40
1.0
 40
1.0
 40
1.0
 40
1.0
 10
143.3686085489
 20
111.3693500219
 30
0.0
 10
143.027393232
 20
111.7697373025
 30
0.0
 10
142.4640193868
 20
112.6111704416
 30
0.0
 10
142.1667704064
 20
113.5887923963
 30
0.0
 10
142.11834354
 20
114.0604871533
 30
0.0
  0
SPLINE
  5
495
100
AcDbEntity
  8
KONSTRUKTIONSELEMENTE
100
AcDbSpline
 62
7
  6
CONTINUOUS
 70
0
 71
3
 72
12
 73
8
 74
0
 42
0.0000001
 43
0.0000001
 44
0.0000000001
 40
0.0
 40
0.0
 40
0.0
 40
0.0
 40
0.1037926843
 40
0.2125340317
 40
0.450198811
 40
0.7163761548
 40
1.0
 40
1.0
 40
1.0
 40
1.0
 10
115.8742671413
 20
67.9696047428
 30
0.0
 10
115.9341255954
 20
68.1332235702
 30
0.0
 10
116.0136070353
 20
68.4854375813
 30
0.0
 10
116.0021736698
 20
69.2468016669
 30
0.0
 10
115.6532777426
 20
70.2426239926
 30
0.0
 10
114.8348377588
 20
71.3010560294
 30
0.0
 10
114.0894552777
 20
71.8656260441
 30
0.0
 10
113.6771530288
 20
72.1036688584
 30
0.0
  0
SPLINE
  5
496
100
AcDbEntity
  8
KONSTRUKTIONSELEMENTE
100
AcDbSpline
 62
7
  6
CONTINUOUS
 70
0
 71
3
 72
9
 73
5
 74
0
 42
0.0000001
 43
0.0000001
 44
0.0000000001
 40
0.0
 40
0.0
 40
0.0
 40
0.0
 40
0.2444736488
 40
1.0
 40
1.0
 40
1.0
 40
1.0
 10
115.5661330595
 20
109.4762475446
 30
0.0
 10
115.5854522131
 20
109.5096880404
 30
0.0
 10
115.6540791811
 20
109.652477182
 30
0.0
 10
115.6757547543
 20
109.8157791093
 30
0.0
 10
115.6686697853
 20
109.9349203522
 30
0.0
  0
SPLINE
  5
497
100
AcDbEntity
  8
KONSTRUKTIONSELEMENTE
100
AcDbSpline
 62
7
  6
CONTINUOUS
 70
0
 71
3
 72
11
 73
7
 74
0
 42
0.0000001
 43
0.0000001
 44
0.0000000001
 40
0.0
 40
0.0
 40
0.0
 40
0.0
 40
0.2200436456
 40
0.4557793627
 40
0.7157728079
 40
1.0
 40
1.0
 40
1.0
 40
1.0
 10
109.9333372358
 20
113.9377950361
 30
0.0
 10
109.9838145789
 20
114.0251688112
 30
0.0
 10
110.1276432626
 20
114.1856582791
 30
0.0
 10
110.4273799909
 20
114.3341101046
 30
0.0
 10
110.7853811366
 20
114.3889289428
 30
0.0
 10
111.0362932386
 20
114.3635966304
 30
0.0
 10
111.1639011003
 20
114.3370516066
 30
0.0
  0
SPLINE
  5
498
100
AcDbEntity
  8
KONSTRUKTIONSELEMENTE
100
AcDbSpline
 62
7
  6
CONTINUOUS
 70
0
 71
3
 72
11
 73
7
 74
0
 42
0.0000001
 43
0.0000001
 44
0.0000000001
 40
0.0
 40
0.0
 40
0.0
 40
0.0
 40
0.2200599668
 40
0.4557760239
 40
0.7157731965
 40
1.0
 40
1.0
 40
1.0
 40
1.0
 10
109.6677104169
 20
126.7698210111
 30
0.0
 10
109.8359608967
 20
127.0611665996
 30
0.0
 10
110.3152358068
 20
127.5964231247
 30
0.0
 10
111.3145060142
 20
128.091487049
 30
0.0
 10
112.5080139109
 20
128.2742735146
 30
0.0
 10
113.3445430295
 20
128.1898617242
 30
0.0
 10
113.7699749414
 20
128.1013632566
 30
0.0
  0
SPLINE
  5
499
100
AcDbEntity
  8
KONSTRUKTIONSELEMENTE
100
AcDbSpline
 62
7
  6
CONTINUOUS
 70
0
 71
3
 72
9
 73
5
 74
0
 42
0.0000001
 43
0.0000001
 44
0.0000000001
 40
0.0
 40
0.0
 40
0.0
 40
0.0
 40
0.4891681133
 40
1.0
 40
1.0
 40
1.0
 40
1.0
 10
107.8998844875
 20
123.7078562821
 30
0.0
 10
107.770826207
 20
123.484350923
 30
0.0
 10
107.5782244004
 20
122.9829328839
 30
0.0
 10
107.5425400501
 20
122.4487816933
 30
0.0
 10
107.5585393542
 20
122.1797364846
 30
0.0
  0
SPLINE
  5
49A
100
AcDbEntity
  8
KONSTRUKTIONSELEMENTE
100
AcDbSpline
 62
7
  6
CONTINUOUS
 70
0
 71
3
 72
9
 73
5
 74
0
 42
0.0000001
 43
0.0000001
 44
0.0000000001
 40
0.0
 40
0.0
 40
0.0
 40
0.0
 40
0.4891683995
 40
1.0
 40
1.0
 40
1.0
 40
1.0
 10
140.8113992294
 20
65.7359907313
 30
0.0
 10
140.9404298919
 20
65.9595342385
 30
0.0
 10
141.2783820394
 20
66.3770847092
 30
0.0
 10
141.7231592331
 20
66.6750908846
 30
0.0
 10
141.9641765505
 20
66.7957665373
 30
0.0
  0
SPLINE
  5
49B
100
AcDbEntity
  8
KONSTRUKTIONSELEMENTE
100
AcDbSpline
 62
7
  6
CONTINUOUS
 70
0
 71
3
 72
9
 73
5
 74
0
 42
0.0000001
 43
0.0000001
 44
0.0000000001
 40
0.0
 40
0.0
 40
0.0
 40
0.0
 40
0.2325067105
 40
1.0
 40
1.0
 40
1.0
 40
1.0
 10
142.2720644117
 20
66.9529207198
 30
0.0
 10
142.3041639245
 20
66.7474609908
 30
0.0
 10
142.5216811268
 20
65.8761585674
 30
0.0
 10
143.0200515825
 20
65.091531173
 30
0.0
 10
143.4771490337
 20
64.5794164958
 30
0.0
  0
SPLINE
  5
49C
100
AcDbEntity
  8
KONSTRUKTIONSELEMENTE
100
AcDbSpline
 62
7
  6
CONTINUOUS
 70
0
 71
3
 72
11
 73
7
 74
0
 42
0.0000001
 43
0.0000001
 44
0.0000000001
 40
0.0
 40
0.0
 40
0.0
 40
0.0
 40
0.2094829334
 40
0.4446557434
 40
0.7120095299
 40
1.0
 40
1.0
 40
1.0
 40
1.0
 10
109.0452428057
 20
60.0809650159
 30
0.0
 10
108.974962262
 20
59.9592355434
 30
0.0
 10
108.9030726726
 20
59.6521442635
 30
0.0
 10
109.0329171653
 20
59.1779970793
 30
0.0
 10
109.3471231011
 20
58.7402686037
 30
0.0
 10
109.6466010207
 20
58.5090258172
 30
0.0
 10
109.8139508255
 20
58.4124063624
 30
0.0
  0
SPLINE
  5
49D
100
AcDbEntity
  8
KONSTRUKTIONSELEMENTE
100
AcDbSpline
 62
7
  6
CONTINUOUS
 70
0
 71
3
 72
9
 73
5
 74
0
 42
0.0000001
 43
0.0000001
 44
0.0000000001
 40
0.0
 40
0.0
 40
0.0
 40
0.0
 40
0.4535493247
 40
1.0
 40
1.0
 40
1.0
 40
1.0
 10
147.697464125
 20
59.5298369002
 30
0.0
 10
147.7317154231
 20
59.5891538488
 30
0.0
 10
147.7461472642
 20
59.7554800967
 30
0.0
 10
147.6626409891
 20
59.8901497846
 30
0.0
 10
147.6076874448
 20
59.9517176549
 30
0.0
  0
SPLINE
  5
49E
100
AcDbEntity
  8
BEZUGSACHSEN
100
AcDbSpline
 62
7
  6
CONTINUOUS
 70
0
 71
3
 72
9
 73
5
 74
0
 42
0.0000001
 43
0.0000001
 44
0.0000000001
 40
0.0
 40
0.0
 40
0.0
 40
0.0
 40
0.2459387646
 40
1.0
 40
1.0
 40
1.0
 40
1.0
 10
156.1061222603
 20
114.9690149044
 30
0.0
 10
155.8679408517
 20
115.2358643364
 30
0.0
 10
154.8699156356
 20
116.2942411668
 30
0.0
 10
153.759879888
 20
117.2460865807
 30
0.0
 10
152.8770156188
 20
117.8966742151
 30
0.0
  0
SPLINE
  5
49F
100
AcDbEntity
  8
BEZUGSACHSEN
100
AcDbSpline
 62
7
  6
CONTINUOUS
 70
0
 71
3
 72
9
 73
5
 74
0
 42
0.0000001
 43
0.0000001
 44
0.0000000001
 40
0.0
 40
0.0
 40
0.0
 40
0.0
 40
0.2536983179
 40
1.0
 40
1.0
 40
1.0
 40
1.0
 10
148.5441620931
 20
120.3982483645
 30
0.0
 10
148.2060914738
 20
120.5460411803
 30
0.0
 10
146.8593234768
 20
121.0953232125
 30
0.0
 10
145.4568112632
 20
121.5098585326
 30
0.0
 10
144.3941814357
 20
121.7309070923
 30
0.0
  0
SPLINE
  5
4A0
100
AcDbEntity
  8
BEZUGSACHSEN
100
AcDbSpline
 62
7
  6
CONTINUOUS
 70
0
 71
3
 72
11
 73
7
 74
0
 42
0.0000001
 43
0.0000001
 44
0.0000000001
 40
0.0
 40
0.0
 40
0.0
 40
0.0
 40
0.221185816
 40
0.4572071684
 40
0.716647289
 40
1.0
 40
1.0
 40
1.0
 40
1.0
 10
140.7137144613
 20
112.8323669214
 30
0.0
 10
140.8928107152
 20
113.1425707325
 30
0.0
 10
141.3972202029
 20
113.7138030795
 30
0.0
 10
142.4466842637
 20
114.2568849645
 30
0.0
 10
143.7038167504
 20
114.479314247
 30
0.0
 10
144.5893570127
 20
114.4135695398
 30
0.0
 10
145.0410698203
 20
114.3328586971
 30
0.0
  0
SPLINE
  5
4A1
100
AcDbEntity
  8
BEZUGSACHSEN
100
AcDbSpline
 62
7
  6
CONTINUOUS
 70
0
 71
3
 72
11
 73
7
 74
0
 42
0.0000001
 43
0.0000001
 44
0.0000000001
 40
0.0
 40
0.0
 40
0.0
 40
0.0
 40
0.283352711
 40
0.5427928316
 40
0.778814184
 40
1.0
 40
1.0
 40
1.0
 40
1.0
 10
149.3757802194
 20
111.8302124813
 30
0.0
 10
149.6715342633
 20
111.4793731361
 30
0.0
 10
150.1712409811
 20
110.7453451265
 30
0.0
 10
150.6071778152
 20
109.5454218159
 30
0.0
 10
150.6615871368
 20
108.3650183363
 30
0.0
 10
150.4190901568
 20
107.6425707325
 30
0.0
 10
150.239993903
 20
107.3323669214
 30
0.0
  0
SPLINE
  5
4A2
100
AcDbEntity
  8
KONSTRUKTIONSELEMENTE
100
AcDbSpline
 62
7
  6
CONTINUOUS
 70
0
 71
3
 72
9
 73
5
 74
0
 42
0.0000001
 43
0.0000001
 44
0.0000000001
 40
0.0
 40
0.0
 40
0.0
 40
0.0
 40
0.5108269807
 40
1.0
 40
1.0
 40
1.0
 40
1.0
 10
182.5382503311
 20
74.7493837794
 30
0.0
 10
182.7792561907
 20
74.8700536953
 30
0.0
 10
183.2240177201
 20
75.168050066
 30
0.0
 10
183.5619539006
 20
75.5855773802
 30
0.0
 10
183.691008978
 20
75.8090981346
 30
0.0
  0
SPLINE
  5
4A3
100
AcDbEntity
  8
KONSTRUKTIONSELEMENTE
100
AcDbSpline
 62
7
  6
CONTINUOUS
 70
0
 71
3
 72
9
 73
5
 74
0
 42
0.0000001
 43
0.0000001
 44
0.0000000001
 40
0.0
 40
0.0
 40
0.0
 40
0.0
 40
0.5322168521
 40
1.0
 40
1.0
 40
1.0
 40
1.0
 10
181.1908770945
 20
74.5898274491
 30
0.0
 10
181.2757791312
 20
74.4947064218
 30
0.0
 10
181.487680319
 20
74.360476925
 30
0.0
 10
181.7516183278
 20
74.3555227428
 30
0.0
 10
181.8518239893
 20
74.4056950032
 30
0.0
  0
SPLINE
  5
4A4
100
AcDbEntity
  8
KONSTRUKTIONSELEMENTE
100
AcDbSpline
 62
7
  6
CONTINUOUS
 70
0
 71
3
 72
9
 73
5
 74
0
 42
0.0000001
 43
0.0000001
 44
0.0000000001
 40
0.0
 40
0.0
 40
0.0
 40
0.0
 40
0.2605100871
 40
1.0
 40
1.0
 40
1.0
 40
1.0
 10
145.8144410449
 20
56.3620342544
 30
0.0
 10
145.8266934376
 20
56.3681689401
 30
0.0
 10
145.8721841438
 20
56.394614212
 30
0.0
 10
145.9102472355
 20
56.434291009
 30
0.0
 10
145.929697172
 20
56.4679747217
 30
0.0
  0
SPLINE
  5
4A5
100
AcDbEntity
  8
KONSTRUKTIONSELEMENTE
100
AcDbSpline
 62
7
  6
CONTINUOUS
 70
0
 71
3
 72
11
 73
7
 74
0
 42
0.0000001
 43
0.0000001
 44
0.0000000001
 40
0.0
 40
0.0
 40
0.0
 40
0.0
 40
0.2729767978
 40
0.5353848362
 40
0.7789285996
 40
1.0
 40
1.0
 40
1.0
 40
1.0
 10
140.4466392907
 20
56.6482987591
 30
0.0
 10
140.8525905505
 20
56.4139226899
 30
0.0
 10
141.696690132
 20
56.0316794536
 30
0.0
 10
143.0120927954
 20
55.738108955
 30
0.0
 10
144.2724953089
 20
55.7502413673
 30
0.0
 10
145.0522943774
 20
55.980432851
 30
0.0
 10
145.391743483
 20
56.1503925984
 30
0.0
  0
SPLINE
  5
4A6
100
AcDbEntity
  8
KONSTRUKTIONSELEMENTE
100
AcDbSpline
 62
7
  6
CONTINUOUS
 70
0
 71
3
 72
12
 73
8
 74
0
 42
0.0000001
 43
0.0000001
 44
0.0000000001
 40
0.0
 40
0.0
 40
0.0
 40
0.0
 40
0.2874299875
 40
0.5543031619
 40
0.7890514157
 40
0.8964066692
 40
1.0
 40
1.0
 40
1.0
 40
1.0
 10
128.4861874336
 20
63.5536688584
 30
0.0
 10
128.039953157
 20
63.8113023381
 30
0.0
 10
127.1062534346
 20
64.1938809923
 30
0.0
 10
125.6778995363
 20
64.3388349142
 30
0.0
 10
124.5872619841
 20
64.0462751954
 30
0.0
 10
123.9374861707
 20
63.5672084286
 30
0.0
 10
123.7007265561
 20
63.265007481
 30
0.0
 10
123.607872256
 20
63.1041791156
 30
0.0
  0
SPLINE
  5
4A7
100
AcDbEntity
  8
KONSTRUKTIONSELEMENTE
100
AcDbSpline
 62
7
  6
CONTINUOUS
 70
0
 71
3
 72
11
 73
7
 74
0
 42
0.0000001
 43
0.0000001
 44
0.0000000001
 40
0.0
 40
0.0
 40
0.0
 40
0.0
 40
0.220058334
 40
0.4557781708
 40
0.71578719
 40
1.0
 40
1.0
 40
1.0
 40
1.0
 10
185.4587759309
 20
78.8709603131
 30
0.0
 10
185.6270014516
 20
79.1623234741
 30
0.0
 10
185.8508901697
 20
79.8450503139
 30
0.0
 10
185.7800081389
 20
80.958006058
 30
0.0
 10
185.3415346368
 20
82.0830299934
 30
0.0
 10
184.8501598853
 20
82.7652834869
 30
0.0
 10
184.5608117538
 20
83.0894581779
 30
0.0
  0
SPLINE
  5
4A8
100
AcDbEntity
  8
KONSTRUKTIONSELEMENTE
100
AcDbSpline
 62
7
  6
CONTINUOUS
 70
0
 71
3
 72
11
 73
7
 74
0
 42
0.0000001
 43
0.0000001
 44
0.0000000001
 40
0.0
 40
0.0
 40
0.0
 40
0.0
 40
0.2879904701
 40
0.5553442566
 40
0.7905170666
 40
1.0
 40
1.0
 40
1.0
 40
1.0
 10
118.5608074037
 20
53.3624063624
 30
0.0
 10
118.7281572085
 20
53.2657869075
 30
0.0
 10
119.0781582959
 20
53.1220528145
 30
0.0
 10
119.6143452436
 20
53.0688067298
 30
0.0
 10
120.0898909966
 20
53.1934316928
 30
0.0
 10
120.3198950516
 20
53.4092355434
 30
0.0
 10
120.3901755953
 20
53.5309650159
 30
0.0
  0
SPLINE
  5
4A9
100
AcDbEntity
  8
KONSTRUKTIONSELEMENTE
100
AcDbSpline
 62
7
  6
CONTINUOUS
 70
0
 71
3
 72
11
 73
7
 74
0
 42
0.0000001
 43
0.0000001
 44
0.0000000001
 40
0.0
 40
0.0
 40
0.0
 40
0.0
 40
0.2820767698
 40
0.5407553301
 40
0.7772666753
 40
1.0
 40
1.0
 40
1.0
 40
1.0
 10
128.4823896356
 20
63.5304461639
 30
0.0
 10
128.1702994733
 20
63.5737862945
 30
0.0
 10
127.5607699859
 20
63.5965856611
 30
0.0
 10
126.7011140035
 20
63.4160700886
 30
0.0
 10
125.9860347463
 20
63.0238886378
 30
0.0
 10
125.6410984423
 20
62.6258301735
 30
0.0
 10
125.5166997589
 20
62.4103653335
 30
0.0
  0
SPLINE
  5
4AA
100
AcDbEntity
  8
KONSTRUKTIONSELEMENTE
100
AcDbSpline
 62
7
  6
CONTINUOUS
 70
0
 71
3
 72
11
 73
7
 74
0
 42
0.0000001
 43
0.0000001
 44
0.0000000001
 40
0.0
 40
0.0
 40
0.0
 40
0.0
 40
0.2808713938
 40
0.5389210953
 40
0.7759033082
 40
1.0
 40
1.0
 40
1.0
 40
1.0
 10
113.7926157461
 20
72.0347247853
 30
0.0
 10
113.9683694485
 20
71.792432804
 30
0.0
 10
114.2608815711
 20
71.2918774516
 30
0.0
 10
114.4990525628
 20
70.490316942
 30
0.0
 10
114.5000358672
 20
69.7116975416
 30
0.0
 10
114.3315872851
 20
69.2371822404
 30
0.0
 10
114.2121776791
 20
69.0303587359
 30
0.0
  0
SPLINE
  5
4AB
100
AcDbEntity
  8
KONSTRUKTIONSELEMENTE
100
AcDbSpline
 62
7
  6
CONTINUOUS
 70
0
 71
3
 72
9
 73
5
 74
0
 42
0.0000001
 43
0.0000001
 44
0.0000000001
 40
0.0
 40
0.0
 40
0.0
 40
0.0
 40
0.2603055034
 40
1.0
 40
1.0
 40
1.0
 40
1.0
 10
108.4165869476
 20
111.0296324858
 30
0.0
 10
108.4141468557
 20
111.0706652112
 30
0.0
 10
108.4146752643
 20
111.2286370436
 30
0.0
 10
108.4606927255
 20
111.387164223
 30
0.0
 10
108.5191236734
 20
111.4883052933
 30
0.0
  0
SPLINE
  5
4AC
100
AcDbEntity
  8
KONSTRUKTIONSELEMENTE
100
AcDbSpline
 62
7
  6
CONTINUOUS
 70
0
 71
3
 72
10
 73
6
 74
0
 42
0.0000001
 43
0.0000001
 44
0.0000000001
 40
0.0
 40
0.0
 40
0.0
 40
0.0
 40
0.4639899091
 40
0.7256227002
 40
1.0
 40
1.0
 40
1.0
 40
1.0
 10
110.2795893853
 20
76.4224042185
 30
0.0
 10
110.319476278
 20
75.7516639585
 30
0.0
 10
110.716308186
 20
74.7183555244
 30
0.0
 10
111.6118749853
 20
73.5787781171
 30
0.0
 10
112.1984414472
 20
73.0611188677
 30
0.0
 10
112.5178809018
 20
72.8248218978
 30
0.0
  0
SPLINE
  5
4AD
100
AcDbEntity
  8
KONSTRUKTIONSELEMENTE
100
AcDbSpline
 62
7
  6
CONTINUOUS
 70
0
 71
3
 72
12
 73
8
 74
0
 42
0.0000001
 43
0.0000001
 44
0.0000000001
 40
0.0
 40
0.0
 40
0.0
 40
0.0
 40
0.2199892542
 40
0.4691122488
 40
0.6015677759
 40
0.7360118573
 40
1.0
 40
1.0
 40
1.0
 40
1.0
 10
170.4508697351
 20
81.0588507483
 30
0.0
 10
170.9285512648
 20
81.298022485
 30
0.0
 10
172.0784255276
 20
81.5515228357
 30
0.0
 10
173.5480281732
 20
81.3501647754
 30
0.0
 10
174.7303567653
 20
80.9243598106
 30
0.0
 10
175.8730507357
 20
80.3217063261
 30
0.0
 10
176.6334612452
 20
79.6957836088
 30
0.0
 10
177.0603386834
 20
79.2175262899
 30
0.0
  0
SPLINE
  5
4AE
100
AcDbEntity
  8
KONSTRUKTIONSELEMENTE
100
AcDbSpline
 62
7
  6
CONTINUOUS
 70
0
 71
3
 72
11
 73
7
 74
0
 42
0.0000001
 43
0.0000001
 44
0.0000000001
 40
0.0
 40
0.0
 40
0.0
 40
0.0
 40
0.220058334
 40
0.4557781708
 40
0.71578719
 40
1.0
 40
1.0
 40
1.0
 40
1.0
 10
183.691008978
 20
75.8090981346
 30
0.0
 10
183.8592344986
 20
76.1004612956
 30
0.0
 10
184.0831232168
 20
76.7831881355
 30
0.0
 10
184.0122411859
 20
77.8961438795
 30
0.0
 10
183.5737676838
 20
79.0211678149
 30
0.0
 10
183.0823929323
 20
79.7034213084
 30
0.0
 10
182.7930448008
 20
80.0275959994
 30
0.0
  0
SPLINE
  5
4AF
100
AcDbEntity
  8
KONSTRUKTIONSELEMENTE
100
AcDbSpline
 62
7
  6
CONTINUOUS
 70
0
 71
3
 72
9
 73
5
 74
0
 42
0.0000001
 43
0.0000001
 44
0.0000000001
 40
0.0
 40
0.0
 40
0.0
 40
0.0
 40
0.5328609796
 40
1.0
 40
1.0
 40
1.0
 40
1.0
 10
114.5123458903
 20
109.383177192
 30
0.0
 10
114.6858702378
 20
109.3470806077
 30
0.0
 10
115.0240047143
 20
109.3241426905
 30
0.0
 10
115.3525961413
 20
109.429662929
 30
0.0
 10
115.4832556163
 20
109.5137500586
 30
0.0
  0
SPLINE
  5
4B0
100
AcDbEntity
  8
KONSTRUKTIONSELEMENTE
100
AcDbSpline
 62
7
  6
CONTINUOUS
 70
0
 71
3
 72
8
 73
4
 74
0
 42
0.0000001
 43
0.0000001
 44
0.0000000001
 40
0.0
 40
0.0
 40
0.0
 40
0.0
 40
1.0
 40
1.0
 40
1.0
 40
1.0
 10
115.4832556163
 20
109.5137500586
 30
0.0
 10
115.5315478823
 20
109.5448289989
 30
0.0
 10
115.5770874407
 20
109.5808165572
 30
0.0
 10
115.6179703167
 20
109.6211481074
 30
0.0
  0
SPLINE
  5
4B1
100
AcDbEntity
  8
KONSTRUKTIONSELEMENTE
100
AcDbSpline
 62
7
  6
CONTINUOUS
 70
0
 71
3
 72
11
 73
7
 74
0
 42
0.0000001
 43
0.0000001
 44
0.0000000001
 40
0.0
 40
0.0
 40
0.0
 40
0.0
 40
0.2816064552
 40
0.5417085427
 40
0.7793419382
 40
1.0
 40
1.0
 40
1.0
 40
1.0
 10
114.4212059708
 20
110.9157912678
 30
0.0
 10
114.5380708058
 20
110.8914810115
 30
0.0
 10
114.768300509
 20
110.8662529299
 30
0.0
 10
115.0996220967
 20
110.905607252
 30
0.0
 10
115.3853952408
 20
111.0227942811
 30
0.0
 10
115.5350233386
 20
111.1539460904
 30
0.0
 10
115.5926831157
 20
111.2275909995
 30
0.0
  0
SPLINE
  5
4B2
100
AcDbEntity
  8
BEZUGSACHSEN
100
AcDbSpline
 62
7
  6
CONTINUOUS
 70
0
 71
3
 72
9
 73
5
 74
0
 42
0.0000001
 43
0.0000001
 44
0.0000000001
 40
0.0
 40
0.0
 40
0.0
 40
0.0
 40
0.2459387646
 40
1.0
 40
1.0
 40
1.0
 40
1.0
 10
154.3383553074
 20
111.9071527259
 30
0.0
 10
154.1001738987
 20
112.1740021579
 30
0.0
 10
153.1021486826
 20
113.2323789883
 30
0.0
 10
151.992112935
 20
114.1842244023
 30
0.0
 10
151.1092486658
 20
114.8348120366
 30
0.0
  0
SPLINE
  5
4B3
100
AcDbEntity
  8
BEZUGSACHSEN
100
AcDbSpline
 62
7
  6
CONTINUOUS
 70
0
 71
3
 72
9
 73
5
 74
0
 42
0.0000001
 43
0.0000001
 44
0.0000000001
 40
0.0
 40
0.0
 40
0.0
 40
0.0
 40
0.2536983179
 40
1.0
 40
1.0
 40
1.0
 40
1.0
 10
146.7763951401
 20
117.336386186
 30
0.0
 10
146.4383245209
 20
117.4841790018
 30
0.0
 10
145.0915565239
 20
118.033461034
 30
0.0
 10
143.6890443102
 20
118.4479963542
 30
0.0
 10
142.6264144827
 20
118.6690449138
 30
0.0
  0
SPLINE
  5
4B4
100
AcDbEntity
  8
KONSTRUKTIONSELEMENTE
100
AcDbSpline
 62
7
  6
CONTINUOUS
 70
0
 71
3
 72
9
 73
5
 74
0
 42
0.0000001
 43
0.0000001
 44
0.0000000001
 40
0.0
 40
0.0
 40
0.0
 40
0.0
 40
0.4535493247
 40
1.0
 40
1.0
 40
1.0
 40
1.0
 10
145.929697172
 20
56.4679747217
 30
0.0
 10
145.9639484701
 20
56.5272916703
 30
0.0
 10
145.9783803112
 20
56.6936179182
 30
0.0
 10
145.8948740361
 20
56.8282876061
 30
0.0
 10
145.8399204918
 20
56.8898554764
 30
0.0
  0
SPLINE
  5
4B5
100
AcDbEntity
  8
BEZUGSACHSEN
100
AcDbSpline
 62
7
  6
CONTINUOUS
 70
0
 71
3
 72
19
 73
15
 74
0
 42
0.0000001
 43
0.0000001
 44
0.0000000001
 40
0.0
 40
0.0
 40
0.0
 40
0.0
 40
0.0517234907
 40
0.1053372095
 40
0.1622487312
 40
0.2232163938
 40
0.3564752704
 40
0.5
 40
0.6435247296
 40
0.7767836062
 40
0.8377512688
 40
0.8946627905
 40
0.9482765093
 40
1.0
 40
1.0
 40
1.0
 40
1.0
 10
150.239993903
 20
107.3323669214
 30
0.0
 10
150.1123308109
 20
107.1112479597
 30
0.0
 10
149.7868030577
 20
106.6957185144
 30
0.0
 10
149.1352392258
 20
106.2155484509
 30
0.0
 10
148.3460461801
 20
105.8891701838
 30
0.0
 10
147.1191096431
 20
105.665187503
 30
0.0
 10
145.426626335
 20
105.8336814062
 30
0.0
 10
143.484473785
 20
106.6314628456
 30
0.0
 10
141.8224985168
 20
107.9145255722
 30
0.0
 10
140.8303368622
 20
109.2960121609
 30
0.0
 10
140.4108432852
 20
110.4705617112
 30
0.0
 10
140.298898633
 20
111.3172120708
 30
0.0
 10
140.3889561902
 20
112.1215679332
 30
0.0
 10
140.5860513693
 20
112.6112479597
 30
0.0
 10
140.7137144613
 20
112.8323669214
 30
0.0
  0
SPLINE
  5
4B6
100
AcDbEntity
  8
KONSTRUKTIONSELEMENTE
100
AcDbSpline
 62
7
  6
CONTINUOUS
 70
0
 71
3
 72
11
 73
7
 74
0
 42
0.0000001
 43
0.0000001
 44
0.0000000001
 40
0.0
 40
0.0
 40
0.0
 40
0.0
 40
0.2200436456
 40
0.4557793627
 40
0.7157728079
 40
1.0
 40
1.0
 40
1.0
 40
1.0
 10
108.5191236734
 20
111.4883052933
 30
0.0
 10
108.5696010165
 20
111.5756790684
 30
0.0
 10
108.7134297003
 20
111.7361685363
 30
0.0
 10
109.0131664285
 20
111.8846203618
 30
0.0
 10
109.3711675743
 20
111.9394392001
 30
0.0
 10
109.6220796762
 20
111.9141068876
 30
0.0
 10
109.7496875379
 20
111.8875618638
 30
0.0
  0
SPLINE
  5
4B7
100
AcDbEntity
  8
KONSTRUKTIONSELEMENTE
100
AcDbSpline
 62
7
  6
CONTINUOUS
 70
0
 71
3
 72
11
 73
7
 74
0
 42
0.0000001
 43
0.0000001
 44
0.0000000001
 40
0.0
 40
0.0
 40
0.0
 40
0.0
 40
0.2842240174
 40
0.5442187073
 40
0.779940343
 40
1.0
 40
1.0
 40
1.0
 40
1.0
 10
112.0022079884
 20
125.0395010782
 30
0.0
 10
111.5767694401
 20
125.1280009262
 30
0.0
 10
110.740226786
 20
125.2124117567
 30
0.0
 10
109.54668832
 20
125.0296151876
 30
0.0
 10
108.5473965563
 20
124.5345141891
 30
0.0
 10
108.0681244981
 20
123.9992172379
 30
0.0
 10
107.8998844875
 20
123.7078562821
 30
0.0
  0
SPLINE
  5
4B8
100
AcDbEntity
  8
KONSTRUKTIONSELEMENTE
100
AcDbSpline
 62
7
  6
CONTINUOUS
 70
0
 71
3
 72
11
 73
7
 74
0
 42
0.0000001
 43
0.0000001
 44
0.0000000001
 40
0.0
 40
0.0
 40
0.0
 40
0.0
 40
0.2842271921
 40
0.5442206373
 40
0.7799563544
 40
1.0
 40
1.0
 40
1.0
 40
1.0
 10
114.335569195
 20
109.0769909741
 30
0.0
 10
114.4631770567
 20
109.0504459504
 30
0.0
 10
114.7140891587
 20
109.0251136379
 30
0.0
 10
115.0720903044
 20
109.0799324761
 30
0.0
 10
115.3718270327
 20
109.2283843016
 30
0.0
 10
115.5156557164
 20
109.3888737695
 30
0.0
 10
115.5661330595
 20
109.4762475446
 30
0.0
  0
SPLINE
  5
4B9
100
AcDbEntity
  8
KONSTRUKTIONSELEMENTE
100
AcDbSpline
 62
7
  6
CONTINUOUS
 70
0
 71
3
 72
11
 73
7
 74
0
 42
0.0000001
 43
0.0000001
 44
0.0000000001
 40
0.0
 40
0.0
 40
0.0
 40
0.0
 40
0.2842268035
 40
0.5442239761
 40
0.7799400332
 40
1.0
 40
1.0
 40
1.0
 40
1.0
 10
141.7093820808
 20
61.5175543173
 30
0.0
 10
141.4200242037
 20
61.8417399268
 30
0.0
 10
140.9286568895
 20
62.5239894993
 30
0.0
 10
140.4902006639
 20
63.6489908903
 30
0.0
 10
140.4193034951
 20
64.7619162373
 30
0.0
 10
140.6432117884
 20
65.4446087474
 30
0.0
 10
140.8113992294
 20
65.7359907313
 30
0.0
  0
SPLINE
  5
4BA
100
AcDbEntity
  8
KONSTRUKTIONSELEMENTE
100
AcDbSpline
 62
7
  6
CONTINUOUS
 70
0
 71
3
 72
9
 73
5
 74
0
 42
0.0000001
 43
0.0000001
 44
0.0000000001
 40
0.0
 40
0.0
 40
0.0
 40
0.0
 40
0.5037350338
 40
1.0
 40
1.0
 40
1.0
 40
1.0
 10
174.8787613986
 20
131.4382834692
 30
0.0
 10
174.5666816198
 20
131.2220638779
 30
0.0
 10
173.9793079184
 20
130.7416796061
 30
0.0
 10
173.5139844598
 20
130.1370904815
 30
0.0
 10
173.3269675809
 20
129.8131677455
 30
0.0
  0
SPLINE
  5
4BB
100
AcDbEntity
  8
KONSTRUKTIONSELEMENTE
100
AcDbSpline
 62
7
  6
CONTINUOUS
 70
0
 71
3
 72
9
 73
5
 74
0
 42
0.0000001
 43
0.0000001
 44
0.0000000001
 40
0.0
 40
0.0
 40
0.0
 40
0.0
 40
0.500127309
 40
1.0
 40
1.0
 40
1.0
 40
1.0
 10
150.5914215424
 20
148.5107380386
 30
0.0
 10
150.9372807657
 20
148.7823748603
 30
0.0
 10
151.5911282326
 20
149.3772129718
 30
0.0
 10
152.1175081174
 20
150.091327512
 30
0.0
 10
152.3372854409
 20
150.4719930027
 30
0.0
  0
SPLINE
  5
4BC
100
AcDbEntity
  8
KONSTRUKTIONSELEMENTE
100
AcDbSpline
 62
7
  6
CONTINUOUS
 70
0
 71
3
 72
9
 73
5
 74
0
 42
0.0000001
 43
0.0000001
 44
0.0000000001
 40
0.0
 40
0.0
 40
0.0
 40
0.0
 40
0.499872691
 40
1.0
 40
1.0
 40
1.0
 40
1.0
 10
177.0250807885
 20
136.2184877131
 30
0.0
 10
176.805303465
 20
135.8378222224
 30
0.0
 10
176.4500520743
 20
135.0249066
 30
0.0
 10
176.2618308921
 20
134.1612390277
 30
0.0
 10
176.1995161155
 20
133.7258977434
 30
0.0
  0
SPLINE
  5
4BD
100
AcDbEntity
  8
KONSTRUKTIONSELEMENTE
100
AcDbSpline
 62
7
  6
CONTINUOUS
 70
0
 71
3
 72
9
 73
5
 74
0
 42
0.0000001
 43
0.0000001
 44
0.0000000001
 40
0.0
 40
0.0
 40
0.0
 40
0.0
 40
0.4962649662
 40
1.0
 40
1.0
 40
1.0
 40
1.0
 10
148.6391722333
 20
144.0666730351
 30
0.0
 10
148.8261891122
 20
144.3905957712
 30
0.0
 10
149.1171169237
 20
145.0958722696
 30
0.0
 10
149.2394550559
 20
145.8447449523
 30
0.0
 10
149.2706668254
 20
146.2231237645
 30
0.0
  0
SPLINE
  5
4BE
100
AcDbEntity
  8
KONSTRUKTIONSELEMENTE
100
AcDbSpline
 62
7
  6
CONTINUOUS
 70
0
 71
3
 72
11
 73
7
 74
0
 42
0.0000001
 43
0.0000001
 44
0.0000000001
 40
0.0
 40
0.0
 40
0.0
 40
0.0
 40
0.2551631889
 40
0.5065184691
 40
0.7542163689
 40
1.0
 40
1.0
 40
1.0
 40
1.0
 10
155.6674124598
 20
156.2399421951
 30
0.0
 10
155.8003428571
 20
156.4701843971
 30
0.0
 10
156.1547026994
 20
156.8797123266
 30
0.0
 10
156.8428049361
 20
157.2795943373
 30
0.0
 10
157.5922485404
 20
157.5002685328
 30
0.0
 10
158.1051699469
 20
157.5587320827
 30
0.0
 10
158.3609350788
 20
157.5715875319
 30
0.0
  0
SPLINE
  5
4BF
100
AcDbEntity
  8
KONSTRUKTIONSELEMENTE
100
AcDbSpline
 62
7
  6
CONTINUOUS
 70
0
 71
3
 72
11
 73
7
 74
0
 42
0.0000001
 43
0.0000001
 44
0.0000000001
 40
0.0
 40
0.0
 40
0.0
 40
0.0
 40
0.2457861969
 40
0.4934867763
 40
0.7448413997
 40
1.0
 40
1.0
 40
1.0
 40
1.0
 10
180.1616851884
 20
144.9849185876
 30
0.0
 10
180.2784358265
 20
144.756989384
 30
0.0
 10
180.4842675598
 20
144.2835494663
 30
0.0
 10
180.6678786038
 20
143.5241696717
 30
0.0
 10
180.6656167955
 20
142.7283173367
 30
0.0
 10
180.4881358131
 20
142.2166749651
 30
0.0
 10
180.3552078074
 20
141.9864369055
 30
0.0
  0
SPLINE
  5
4C0
100
AcDbEntity
  8
KONSTRUKTIONSELEMENTE
100
AcDbSpline
 62
7
  6
CONTINUOUS
 70
0
 71
3
 72
9
 73
5
 74
0
 42
0.0000001
 43
0.0000001
 44
0.0000000001
 40
0.0
 40
0.0
 40
0.0
 40
0.0
 40
0.4808351629
 40
1.0
 40
1.0
 40
1.0
 40
1.0
 10
149.2706668254
 20
146.2231237645
 30
0.0
 10
149.3062277089
 20
146.6542266797
 30
0.0
 10
149.6001511447
 20
147.5408109656
 30
0.0
 10
150.2241156736
 20
148.2222570843
 30
0.0
 10
150.5914215424
 20
148.5107380386
 30
0.0
  0
SPLINE
  5
4C1
100
AcDbEntity
  8
KONSTRUKTIONSELEMENTE
100
AcDbSpline
 62
7
  6
CONTINUOUS
 70
0
 71
3
 72
9
 73
5
 74
0
 42
0.0000001
 43
0.0000001
 44
0.0000000001
 40
0.0
 40
0.0
 40
0.0
 40
0.0
 40
0.5191648371
 40
1.0
 40
1.0
 40
1.0
 40
1.0
 10
176.1995161155
 20
133.7258977434
 30
0.0
 10
176.133337215
 20
133.2635610528
 30
0.0
 10
175.8551698293
 20
132.3824688604
 30
0.0
 10
175.2343270331
 20
131.6846315553
 30
0.0
 10
174.8787613986
 20
131.4382834692
 30
0.0
  0
SPLINE
  5
4C2
100
AcDbEntity
  8
BEZUGSACHSEN
100
AcDbSpline
 62
7
  6
CONTINUOUS
 70
0
 71
3
 72
9
 73
5
 74
0
 42
0.0000001
 43
0.0000001
 44
0.0000000001
 40
0.0
 40
0.0
 40
0.0
 40
0.0
 40
0.5191648371
 40
1.0
 40
1.0
 40
1.0
 40
1.0
 10
415.0628501138
 20
133.7258977434
 30
0.0
 10
415.1290290144
 20
133.2635610528
 30
0.0
 10
415.4071964
 20
132.3824688604
 30
0.0
 10
416.0280391963
 20
131.6846315553
 30
0.0
 10
416.3836048308
 20
131.4382834692
 30
0.0
  0
SPLINE
  5
4C3
100
AcDbEntity
  8
BEZUGSACHSEN
100
AcDbSpline
 62
7
  6
CONTINUOUS
 70
0
 71
3
 72
9
 73
5
 74
0
 42
0.0000001
 43
0.0000001
 44
0.0000000001
 40
0.0
 40
0.0
 40
0.0
 40
0.0
 40
0.4808351629
 40
1.0
 40
1.0
 40
1.0
 40
1.0
 10
441.9916994039
 20
146.2231237645
 30
0.0
 10
441.9561385205
 20
146.6542266797
 30
0.0
 10
441.6622150847
 20
147.5408109656
 30
0.0
 10
441.0382505558
 20
148.2222570843
 30
0.0
 10
440.670944687
 20
148.5107380386
 30
0.0
  0
SPLINE
  5
4C4
100
AcDbEntity
  8
BEZUGSACHSEN
100
AcDbSpline
 62
7
  6
CONTINUOUS
 70
0
 71
3
 72
11
 73
7
 74
0
 42
0.0000001
 43
0.0000001
 44
0.0000000001
 40
0.0
 40
0.0
 40
0.0
 40
0.0
 40
0.2457861969
 40
0.4934867763
 40
0.7448413997
 40
1.0
 40
1.0
 40
1.0
 40
1.0
 10
411.1006810409
 20
144.9849185876
 30
0.0
 10
410.9839304029
 20
144.756989384
 30
0.0
 10
410.7780986696
 20
144.2835494663
 30
0.0
 10
410.5944876256
 20
143.5241696717
 30
0.0
 10
410.5967494339
 20
142.7283173367
 30
0.0
 10
410.7742304163
 20
142.2166749651
 30
0.0
 10
410.907158422
 20
141.9864369055
 30
0.0
  0
SPLINE
  5
4C5
100
AcDbEntity
  8
BEZUGSACHSEN
100
AcDbSpline
 62
7
  6
CONTINUOUS
 70
0
 71
3
 72
11
 73
7
 74
0
 42
0.0000001
 43
0.0000001
 44
0.0000000001
 40
0.0
 40
0.0
 40
0.0
 40
0.0
 40
0.2551631889
 40
0.5065184691
 40
0.7542163689
 40
1.0
 40
1.0
 40
1.0
 40
1.0
 10
435.5949537696
 20
156.2399421951
 30
0.0
 10
435.4620233723
 20
156.4701843971
 30
0.0
 10
435.10766353
 20
156.8797123266
 30
0.0
 10
434.4195612933
 20
157.2795943373
 30
0.0
 10
433.670117689
 20
157.5002685328
 30
0.0
 10
433.1571962824
 20
157.5587320827
 30
0.0
 10
432.9014311506
 20
157.5715875319
 30
0.0
  0
SPLINE
  5
4C6
100
AcDbEntity
  8
BEZUGSACHSEN
100
AcDbSpline
 62
7
  6
CONTINUOUS
 70
0
 71
3
 72
9
 73
5
 74
0
 42
0.0000001
 43
0.0000001
 44
0.0000000001
 40
0.0
 40
0.0
 40
0.0
 40
0.0
 40
0.499872691
 40
1.0
 40
1.0
 40
1.0
 40
1.0
 10
414.2372854409
 20
136.2184877131
 30
0.0
 10
414.4570627644
 20
135.8378222224
 30
0.0
 10
414.8123141551
 20
135.0249066
 30
0.0
 10
415.0005353373
 20
134.1612390277
 30
0.0
 10
415.0628501138
 20
133.7258977434
 30
0.0
  0
SPLINE
  5
4C7
100
AcDbEntity
  8
BEZUGSACHSEN
100
AcDbSpline
 62
7
  6
CONTINUOUS
 70
0
 71
3
 72
9
 73
5
 74
0
 42
0.0000001
 43
0.0000001
 44
0.0000000001
 40
0.0
 40
0.0
 40
0.0
 40
0.0
 40
0.500127309
 40
1.0
 40
1.0
 40
1.0
 40
1.0
 10
440.670944687
 20
148.5107380386
 30
0.0
 10
440.3250854637
 20
148.7823748603
 30
0.0
 10
439.6712379968
 20
149.3772129718
 30
0.0
 10
439.144858112
 20
150.091327512
 30
0.0
 10
438.9250807885
 20
150.4719930027
 30
0.0
  0
SPLINE
  5
4C8
100
AcDbEntity
  8
BEZUGSACHSEN
100
AcDbSpline
 62
7
  6
CONTINUOUS
 70
0
 71
3
 72
9
 73
5
 74
0
 42
0.0000001
 43
0.0000001
 44
0.0000000001
 40
0.0
 40
0.0
 40
0.0
 40
0.0
 40
0.5037350338
 40
1.0
 40
1.0
 40
1.0
 40
1.0
 10
416.3836048308
 20
131.4382834692
 30
0.0
 10
416.6956846096
 20
131.2220638779
 30
0.0
 10
417.2830583109
 20
130.7416796061
 30
0.0
 10
417.7483817696
 20
130.1370904815
 30
0.0
 10
417.9353986484
 20
129.8131677455
 30
0.0
  0
SPLINE
  5
4C9
100
AcDbEntity
  8
BEZUGSACHSEN
100
AcDbSpline
 62
7
  6
CONTINUOUS
 70
0
 71
3
 72
9
 73
5
 74
0
 42
0.0000001
 43
0.0000001
 44
0.0000000001
 40
0.0
 40
0.0
 40
0.0
 40
0.0
 40
0.4962649662
 40
1.0
 40
1.0
 40
1.0
 40
1.0
 10
442.623193996
 20
144.0666730351
 30
0.0
 10
442.4361771172
 20
144.3905957712
 30
0.0
 10
442.1452493057
 20
145.0958722696
 30
0.0
 10
442.0229111735
 20
145.8447449523
 30
0.0
 10
441.9916994039
 20
146.2231237645
 30
0.0
  0
SPLINE
  5
4CA
100
AcDbEntity
  8
KONSTRUKTIONSELEMENTE
100
AcDbSpline
 62
7
  6
CONTINUOUS
 70
0
 71
3
 72
9
 73
5
 74
0
 42
0.0000001
 43
0.0000001
 44
0.0000000001
 40
0.0
 40
0.0
 40
0.0
 40
0.0
 40
0.272606519
 40
1.0
 40
1.0
 40
1.0
 40
1.0
 10
684.2001605378
 20
172.9977811419
 30
0.0
 10
684.2049503702
 20
173.0195580304
 30
0.0
 10
684.2270169762
 20
173.0981944692
 30
0.0
 10
684.2729207341
 20
173.1715299184
 30
0.0
 10
684.3179380359
 20
173.2104300446
 30
0.0
  0
SPLINE
  5
4CB
100
AcDbEntity
  8
KONSTRUKTIONSELEMENTE
100
AcDbSpline
 62
7
  6
CONTINUOUS
 70
0
 71
3
 72
9
 73
5
 74
0
 42
0.0000001
 43
0.0000001
 44
0.0000000001
 40
0.0
 40
0.0
 40
0.0
 40
0.0
 40
0.546991612
 40
1.0
 40
1.0
 40
1.0
 40
1.0
 10
687.3673179475
 20
169.4824931839
 30
0.0
 10
687.3673179475
 20
169.4109077454
 30
0.0
 10
687.3524127286
 20
169.278019049
 30
0.0
 10
687.2795755351
 20
169.1613673561
 30
0.0
 10
687.2347173437
 20
169.1226047195
 30
0.0
  0
SPLINE
  5
4CC
100
AcDbEntity
  8
KONSTRUKTIONSELEMENTE
100
AcDbSpline
 62
7
  6
CONTINUOUS
 70
0
 71
3
 72
9
 73
5
 74
0
 42
0.0000001
 43
0.0000001
 44
0.0000000001
 40
0.0
 40
0.0
 40
0.0
 40
0.0
 40
0.2337213641
 40
1.0
 40
1.0
 40
1.0
 40
1.0
 10
687.5882707343
 20
169.4287909374
 30
0.0
 10
687.5727662213
 20
169.415393255
 30
0.0
 10
687.5006238503
 20
169.3645278512
 30
0.0
 10
687.4098818889
 20
169.3457628541
 30
0.0
 10
687.3427361287
 20
169.3435470309
 30
0.0
  0
SPLINE
  5
4CD
100
AcDbEntity
  8
KONSTRUKTIONSELEMENTE
100
AcDbSpline
 62
7
  6
CONTINUOUS
 70
0
 71
3
 72
9
 73
5
 74
0
 42
0.0000001
 43
0.0000001
 44
0.0000000001
 40
0.0
 40
0.0
 40
0.0
 40
0.0
 40
0.4820003923
 40
1.0
 40
1.0
 40
1.0
 40
1.0
 10
696.0979502701
 20
170.251053855
 30
0.0
 10
696.0977641038
 20
170.0949881262
 30
0.0
 10
696.05567689
 20
169.7700224381
 30
0.0
 10
695.93291298
 20
169.4662843269
 30
0.0
 10
695.8524259114
 20
169.3191364998
 30
0.0
  0
SPLINE
  5
4CE
100
AcDbEntity
  8
KONSTRUKTIONSELEMENTE
100
AcDbSpline
 62
7
  6
CONTINUOUS
 70
0
 71
3
 72
9
 73
5
 74
0
 42
0.0000001
 43
0.0000001
 44
0.0000000001
 40
0.0
 40
0.0
 40
0.0
 40
0.0
 40
0.2343643836
 40
1.0
 40
1.0
 40
1.0
 40
1.0
 10
695.8203756902
 20
169.2625268676
 30
0.0
 10
695.7869677547
 20
169.2054656806
 30
0.0
 10
695.6338299542
 20
168.9682781425
 30
0.0
 10
695.4399135935
 20
168.7580513841
 30
0.0
 10
695.2766253167
 20
168.6166395883
 30
0.0
  0
SPLINE
  5
4CF
100
AcDbEntity
  8
KONSTRUKTIONSELEMENTE
100
AcDbSpline
 62
7
  6
CONTINUOUS
 70
0
 71
3
 72
9
 73
5
 74
0
 42
0.0000001
 43
0.0000001
 44
0.0000000001
 40
0.0
 40
0.0
 40
0.0
 40
0.0
 40
0.4959270657
 40
1.0
 40
1.0
 40
1.0
 40
1.0
 10
687.1448973331
 20
175.6589225988
 30
0.0
 10
687.7670177672
 20
176.197694699
 30
0.0
 10
689.1982522284
 20
177.0922339896
 30
0.0
 10
690.8219705369
 20
177.5391903569
 30
0.0
 10
691.6512626633
 20
177.648811759
 30
0.0
  0
SPLINE
  5
4D0
100
AcDbEntity
  8
KONSTRUKTIONSELEMENTE
100
AcDbSpline
 62
7
  6
CONTINUOUS
 70
0
 71
3
 72
11
 73
7
 74
0
 42
0.0000001
 43
0.0000001
 44
0.0000000001
 40
0.0
 40
0.0
 40
0.0
 40
0.0
 40
0.2544415708
 40
0.5052707429
 40
0.7533584052
 40
1.0
 40
1.0
 40
1.0
 40
1.0
 10
697.6750634072
 20
176.3178325144
 30
0.0
 10
698.1895303889
 20
175.981907207
 30
0.0
 10
699.1406048256
 20
175.1973877215
 30
0.0
 10
700.2416644291
 20
173.7270418469
 30
0.0
 10
700.9379665137
 20
172.0461351485
 30
0.0
 10
701.0971123853
 20
170.8457335504
 30
0.0
 10
701.0973837728
 20
170.2501408183
 30
0.0
  0
SPLINE
  5
4D1
100
AcDbEntity
  8
KONSTRUKTIONSELEMENTE
100
AcDbSpline
 62
7
  6
CONTINUOUS
 70
0
 71
3
 72
11
 73
7
 74
0
 42
0.0000001
 43
0.0000001
 44
0.0000000001
 40
0.0
 40
0.0
 40
0.0
 40
0.0
 40
0.2474803687
 40
0.4959793074
 40
0.7466457809
 40
1.0
 40
1.0
 40
1.0
 40
1.0
 10
701.0973837728
 20
170.2501408183
 30
0.0
 10
701.097615302
 20
169.7420218388
 30
0.0
 10
700.9825234309
 20
168.7200897825
 30
0.0
 10
700.4753688178
 20
167.2608058574
 30
0.0
 10
699.660677367
 20
165.9346818761
 30
0.0
 10
698.9431120639
 20
165.1775319763
 30
0.0
 10
698.5498936703
 20
164.8369948583
 30
0.0
  0
SPLINE
  5
4D2
100
AcDbEntity
  8
KONSTRUKTIONSELEMENTE
100
AcDbSpline
 62
7
  6
CONTINUOUS
 70
0
 71
3
 72
9
 73
5
 74
0
 42
0.0000001
 43
0.0000001
 44
0.0000000001
 40
0.0
 40
0.0
 40
0.0
 40
0.0
 40
0.5226045408
 40
1.0
 40
1.0
 40
1.0
 40
1.0
 10
695.8020093515
 20
171.2640676719
 30
0.0
 10
695.8978706249
 20
171.1051734338
 30
0.0
 10
696.045642492
 20
170.7771797192
 30
0.0
 10
696.0981524833
 20
170.4205719076
 30
0.0
 10
696.0979502701
 20
170.251053855
 30
0.0
  0
SPLINE
  5
4D3
100
AcDbEntity
  8
KONSTRUKTIONSELEMENTE
100
AcDbSpline
 62
7
  6
CONTINUOUS
 70
0
 71
3
 72
9
 73
5
 74
0
 42
0.0000001
 43
0.0000001
 44
0.0000000001
 40
0.0
 40
0.0
 40
0.0
 40
0.0
 40
0.4872963705
 40
1.0
 40
1.0
 40
1.0
 40
1.0
 10
689.2662176767
 20
163.4114738849
 30
0.0
 10
688.7183994757
 20
162.9370494063
 30
0.0
 10
687.2343466072
 20
162.3690947851
 30
0.0
 10
685.6808524977
 20
162.6474196604
 30
0.0
 10
685.0069383391
 20
163.0040933216
 30
0.0
  0
SPLINE
  5
4D4
100
AcDbEntity
  8
KONSTRUKTIONSELEMENTE
100
AcDbSpline
 62
7
  6
CONTINUOUS
 70
0
 71
3
 72
11
 73
7
 74
0
 42
0.0000001
 43
0.0000001
 44
0.0000000001
 40
0.0
 40
0.0
 40
0.0
 40
0.0
 40
0.2474803687
 40
0.4959793074
 40
0.7466457809
 40
1.0
 40
1.0
 40
1.0
 40
1.0
 10
678.5869995905
 20
165.0406109354
 30
0.0
 10
678.5867680613
 20
165.5487299149
 30
0.0
 10
678.7018599323
 20
166.5706619712
 30
0.0
 10
679.2090145455
 20
168.0299458963
 30
0.0
 10
680.0237059962
 20
169.3560698776
 30
0.0
 10
680.7412712994
 20
170.1132197773
 30
0.0
 10
681.134489693
 20
170.4537568954
 30
0.0
  0
SPLINE
  5
4D5
100
AcDbEntity
  8
KONSTRUKTIONSELEMENTE
100
AcDbSpline
 62
7
  6
CONTINUOUS
 70
0
 71
3
 72
11
 73
7
 74
0
 42
0.0000001
 43
0.0000001
 44
0.0000000001
 40
0.0
 40
0.0
 40
0.0
 40
0.0
 40
0.2479799116
 40
0.5004054033
 40
0.7525977831
 40
1.0
 40
1.0
 40
1.0
 40
1.0
 10
692.5394860302
 20
159.6318291548
 30
0.0
 10
691.7519765242
 20
158.9498259169
 30
0.0
 10
689.8737162824
 20
157.8815162493
 30
0.0
 10
686.6890397647
 20
157.3788288208
 30
0.0
 10
683.5240101998
 20
157.9821771096
 30
0.0
 10
681.6853822004
 20
159.1123505957
 30
0.0
 10
680.9244867404
 20
159.8203668335
 30
0.0
  0
SPLINE
  5
4D6
100
AcDbEntity
  8
KONSTRUKTIONSELEMENTE
100
AcDbSpline
 62
7
  6
CONTINUOUS
 70
0
 71
3
 72
9
 73
5
 74
0
 42
0.0000001
 43
0.0000001
 44
0.0000000001
 40
0.0
 40
0.0
 40
0.0
 40
0.0
 40
0.2330082413
 40
1.0
 40
1.0
 40
1.0
 40
1.0
 10
683.9643846453
 20
172.9042438268
 30
0.0
 10
683.9802783333
 20
172.9179778011
 30
0.0
 10
684.0546271046
 20
172.9701073036
 30
0.0
 10
684.1483450782
 20
172.9882771399
 30
0.0
 10
684.2174743532
 20
172.989689357
 30
0.0
  0
SPLINE
  5
4D7
100
AcDbEntity
  8
KONSTRUKTIONSELEMENTE
100
AcDbSpline
 62
7
  6
CONTINUOUS
 70
0
 71
3
 72
15
 73
11
 74
0
 42
0.0000001
 43
0.0000001
 44
0.0000000001
 40
0.0
 40
0.0
 40
0.0
 40
0.0
 40
0.082699247
 40
0.1957940838
 40
0.333737466
 40
0.4862052534
 40
0.6408263759
 40
0.7848058501
 40
0.9071588123
 40
1.0
 40
1.0
 40
1.0
 40
1.0
 10
684.2174743532
 20
172.989689357
 30
0.0
 10
684.353798464
 20
172.9924742731
 30
0.0
 10
684.6740728044
 20
172.9013764762
 30
0.0
 10
685.1525570733
 20
172.6288697224
 30
0.0
 10
685.6765295821
 20
172.2144030386
 30
0.0
 10
686.1955470252
 20
171.693991887
 30
0.0
 10
686.6632589905
 20
171.1140988359
 30
0.0
 10
687.0376215312
 20
170.5269332396
 30
0.0
 10
687.2843951955
 20
169.987763758
 30
0.0
 10
687.3673179475
 20
169.6355675288
 30
0.0
 10
687.3673179475
 20
169.4824931839
 30
0.0
  0
SPLINE
  5
4D8
100
AcDbEntity
  8
KONSTRUKTIONSELEMENTE
100
AcDbSpline
 62
7
  6
CONTINUOUS
 70
0
 71
3
 72
19
 73
15
 74
0
 42
0.0000001
 43
0.0000001
 44
0.0000000001
 40
0.0
 40
0.0
 40
0.0
 40
0.0
 40
0.0298938292
 40
0.0650835855
 40
0.108466288
 40
0.1609985436
 40
0.2222349321
 40
0.2911550146
 40
0.4456854225
 40
0.6095823449
 40
0.7660354067
 40
0.8997960834
 40
0.9545408033
 40
1.0
 40
1.0
 40
1.0
 40
1.0
 10
684.3179380359
 20
173.2104300446
 30
0.0
 10
684.3572976872
 20
173.2444413102
 30
0.0
 10
684.4639342239
 20
173.2953127819
 30
0.0
 10
684.6557680881
 20
173.3010100522
 30
0.0
 10
684.8797001854
 20
173.2500573237
 30
0.0
 10
685.1326940267
 20
173.1437766429
 30
0.0
 10
685.409436085
 20
172.9861892666
 30
0.0
 10
685.8150772334
 20
172.7008183231
 30
0.0
 10
686.3187984437
 20
172.2494938607
 30
0.0
 10
686.8653446335
 20
171.6271746567
 30
0.0
 10
687.3135912377
 20
170.9745286119
 30
0.0
 10
687.583039877
 20
170.4335195585
 30
0.0
 10
687.6978798934
 20
170.0420398843
 30
0.0
 10
687.7208713381
 20
169.8677836776
 30
0.0
 10
687.7208713381
 20
169.7886794018
 30
0.0
  0
SPLINE
  5
4D9
100
AcDbEntity
  8
KONSTRUKTIONSELEMENTE
100
AcDbSpline
 62
7
  6
CONTINUOUS
 70
0
 71
3
 72
9
 73
5
 74
0
 42
0.0000001
 43
0.0000001
 44
0.0000000001
 40
0.0
 40
0.0
 40
0.0
 40
0.0
 40
0.546991612
 40
1.0
 40
1.0
 40
1.0
 40
1.0
 10
687.7208713381
 20
169.7886794018
 30
0.0
 10
687.7208713381
 20
169.7170939632
 30
0.0
 10
687.7059661191
 20
169.5842052668
 30
0.0
 10
687.6331289257
 20
169.467553574
 30
0.0
 10
687.5882707343
 20
169.4287909374
 30
0.0
  0
SPLINE
  5
4DA
100
AcDbEntity
  8
KONSTRUKTIONSELEMENTE
100
AcDbSpline
 62
7
  6
CONTINUOUS
 70
0
 71
3
 72
9
 73
5
 74
0
 42
0.0000001
 43
0.0000001
 44
0.0000000001
 40
0.0
 40
0.0
 40
0.0
 40
0.0
 40
0.272606519
 40
1.0
 40
1.0
 40
1.0
 40
1.0
 10
626.9245112617
 20
123.3956138505
 30
0.0
 10
626.9293010941
 20
123.417390739
 30
0.0
 10
626.9513677001
 20
123.4960271779
 30
0.0
 10
626.997271458
 20
123.569362627
 30
0.0
 10
627.0422887598
 20
123.6082627533
 30
0.0
  0
SPLINE
  5
4DB
100
AcDbEntity
  8
KONSTRUKTIONSELEMENTE
100
AcDbSpline
 62
7
  6
CONTINUOUS
 70
0
 71
3
 72
9
 73
5
 74
0
 42
0.0000001
 43
0.0000001
 44
0.0000000001
 40
0.0
 40
0.0
 40
0.0
 40
0.0
 40
0.4536677411
 40
1.0
 40
1.0
 40
1.0
 40
1.0
 10
638.822300994
 20
120.6488865637
 30
0.0
 10
638.8219631656
 20
120.3656804606
 30
0.0
 10
638.668963264
 20
119.7357363371
 30
0.0
 10
638.2587878688
 20
119.2377438896
 30
0.0
 10
638.0009760406
 20
119.014472297
 30
0.0
  0
SPLINE
  5
4DC
100
AcDbEntity
  8
KONSTRUKTIONSELEMENTE
100
AcDbSpline
 62
7
  6
CONTINUOUS
 70
0
 71
3
 72
11
 73
7
 74
0
 42
0.0000001
 43
0.0000001
 44
0.0000000001
 40
0.0
 40
0.0
 40
0.0
 40
0.0
 40
0.2461844042
 40
0.4959427175
 40
0.7478763938
 40
1.0
 40
1.0
 40
1.0
 40
1.0
 10
629.869248057
 20
126.0567553075
 30
0.0
 10
630.3677156044
 20
126.4884408665
 30
0.0
 10
631.4849264523
 20
127.2349832864
 30
0.0
 10
633.3794669934
 20
127.9358709409
 30
0.0
 10
635.3976469646
 20
128.1991201931
 30
0.0
 10
636.7551590812
 20
128.0737355951
 30
0.0
 10
637.4164517289
 20
127.9368136702
 30
0.0
  0
SPLINE
  5
4DD
100
AcDbEntity
  8
KONSTRUKTIONSELEMENTE
100
AcDbSpline
 62
7
  6
CONTINUOUS
 70
0
 71
3
 72
11
 73
7
 74
0
 42
0.0000001
 43
0.0000001
 44
0.0000000001
 40
0.0
 40
0.0
 40
0.0
 40
0.0
 40
0.2529889227
 40
0.5034781976
 40
0.7521869369
 40
1.0
 40
1.0
 40
1.0
 40
1.0
 10
641.6016569726
 20
125.7566731851
 30
0.0
 10
641.9474811062
 20
125.4212134411
 30
0.0
 10
642.5754341708
 20
124.6876179961
 30
0.0
 10
643.2829993731
 20
123.4315834177
 30
0.0
 10
643.7221629079
 20
122.0683608181
 30
0.0
 10
643.8215194531
 20
121.11991268
 30
0.0
 10
643.8217344967
 20
120.647973527
 30
0.0
  0
SPLINE
  5
4DE
100
AcDbEntity
  8
KONSTRUKTIONSELEMENTE
100
AcDbSpline
 62
7
  6
CONTINUOUS
 70
0
 71
3
 72
11
 73
7
 74
0
 42
0.0000001
 43
0.0000001
 44
0.0000000001
 40
0.0
 40
0.0
 40
0.0
 40
0.0
 40
0.2474803687
 40
0.4959793074
 40
0.7466457809
 40
1.0
 40
1.0
 40
1.0
 40
1.0
 10
643.8217344967
 20
120.647973527
 30
0.0
 10
643.8219660259
 20
120.1398545474
 30
0.0
 10
643.7068741548
 20
119.1179224911
 30
0.0
 10
643.1997195417
 20
117.658638566
 30
0.0
 10
642.3850280909
 20
116.3325145847
 30
0.0
 10
641.6674627878
 20
115.575364685
 30
0.0
 10
641.2742443942
 20
115.2348275669
 30
0.0
  0
SPLINE
  5
4DF
100
AcDbEntity
  8
KONSTRUKTIONSELEMENTE
100
AcDbSpline
 62
7
  6
CONTINUOUS
 70
0
 71
3
 72
9
 73
5
 74
0
 42
0.0000001
 43
0.0000001
 44
0.0000000001
 40
0.0
 40
0.0
 40
0.0
 40
0.0
 40
0.2350561603
 40
1.0
 40
1.0
 40
1.0
 40
1.0
 10
633.1425164105
 20
122.2771105774
 30
0.0
 10
633.2217392961
 20
122.3457196088
 30
0.0
 10
633.5744918166
 20
122.6192159384
 30
0.0
 10
633.9834482848
 20
122.8178488073
 30
0.0
 10
634.3073232185
 20
122.9247377248
 30
0.0
  0
SPLINE
  5
4E0
100
AcDbEntity
  8
KONSTRUKTIONSELEMENTE
100
AcDbSpline
 62
7
  6
CONTINUOUS
 70
0
 71
3
 72
9
 73
5
 74
0
 42
0.0000001
 43
0.0000001
 44
0.0000000001
 40
0.0
 40
0.0
 40
0.0
 40
0.0
 40
0.2578415756
 40
1.0
 40
1.0
 40
1.0
 40
1.0
 10
638.7234004856
 20
121.2394948448
 30
0.0
 10
638.7399237471
 20
121.1906130819
 30
0.0
 10
638.796874721
 20
120.9987086996
 30
0.0
 10
638.8224781587
 20
120.7974061333
 30
0.0
 10
638.822300994
 20
120.6488865637
 30
0.0
  0
SPLINE
  5
4E1
100
AcDbEntity
  8
KONSTRUKTIONSELEMENTE
100
AcDbSpline
 62
7
  6
CONTINUOUS
 70
0
 71
3
 72
9
 73
5
 74
0
 42
0.0000001
 43
0.0000001
 44
0.0000000001
 40
0.0
 40
0.0
 40
0.0
 40
0.0
 40
0.488259543
 40
1.0
 40
1.0
 40
1.0
 40
1.0
 10
631.9905684005
 20
113.8093065936
 30
0.0
 10
631.4336125874
 20
113.3269687106
 30
0.0
 10
629.922120158
 20
112.7573401243
 30
0.0
 10
628.3461299681
 20
113.0599608768
 30
0.0
 10
627.6709081169
 20
113.434651353
 30
0.0
  0
SPLINE
  5
4E2
100
AcDbEntity
  8
KONSTRUKTIONSELEMENTE
100
AcDbSpline
 62
7
  6
CONTINUOUS
 70
0
 71
3
 72
11
 73
7
 74
0
 42
0.0000001
 43
0.0000001
 44
0.0000000001
 40
0.0
 40
0.0
 40
0.0
 40
0.0
 40
0.2475050377
 40
0.4993831846
 40
0.7516489195
 40
1.0
 40
1.0
 40
1.0
 40
1.0
 10
635.2638367541
 20
110.0296618635
 30
0.0
 10
634.5236763126
 20
109.3886641183
 30
0.0
 10
632.7758529634
 20
108.3671024238
 30
0.0
 10
629.8036812579
 20
107.8001342797
 30
0.0
 10
626.8030639537
 20
108.2117375057
 30
0.0
 10
624.9980132893
 20
109.1366895348
 30
0.0
 10
624.2191907512
 20
109.735619056
 30
0.0
  0
SPLINE
  5
4E3
100
AcDbEntity
  8
KONSTRUKTIONSELEMENTE
100
AcDbSpline
 62
7
  6
CONTINUOUS
 70
0
 71
3
 72
8
 73
4
 74
0
 42
0.0000001
 43
0.0000001
 44
0.0000000001
 40
0.0
 40
0.0
 40
0.0
 40
0.0
 40
1.0
 40
1.0
 40
1.0
 40
1.0
 10
626.8598842328
 20
123.3797380511
 30
0.0
 10
626.8868961005
 20
123.384546884
 30
0.0
 10
626.9143942213
 20
123.3869616905
 30
0.0
 10
626.9418250771
 20
123.3875220656
 30
0.0
  0
SPLINE
  5
4E4
100
AcDbEntity
  8
KONSTRUKTIONSELEMENTE
100
AcDbSpline
 62
7
  6
CONTINUOUS
 70
0
 71
3
 72
11
 73
7
 74
0
 42
0.0000001
 43
0.0000001
 44
0.0000000001
 40
0.0
 40
0.0
 40
0.0
 40
0.0
 40
0.1694946017
 40
0.4030001049
 40
0.6876088378
 40
1.0
 40
1.0
 40
1.0
 40
1.0
 10
626.9418250771
 20
123.3875220656
 30
0.0
 10
627.0844075818
 20
123.3904348323
 30
0.0
 10
627.4203146768
 20
123.2909061094
 30
0.0
 10
627.9197118829
 20
122.9984890357
 30
0.0
 10
628.4644073481
 20
122.5559420059
 30
0.0
 10
628.8145265258
 20
122.194356684
 30
0.0
 10
628.9867736558
 20
121.9958159647
 30
0.0
  0
SPLINE
  5
4E5
100
AcDbEntity
  8
KONSTRUKTIONSELEMENTE
100
AcDbSpline
 62
7
  6
CONTINUOUS
 70
0
 71
3
 72
14
 73
10
 74
0
 42
0.0000001
 43
0.0000001
 44
0.0000000001
 40
0.0
 40
0.0
 40
0.0
 40
0.0
 40
0.0609447924
 40
0.1397404011
 40
0.2430220607
 40
0.3697848369
 40
0.5157759634
 40
0.6745307508
 40
1.0
 40
1.0
 40
1.0
 40
1.0
 10
627.0422887598
 20
123.6082627533
 30
0.0
 10
627.0970777388
 20
123.6556067325
 30
0.0
 10
627.2651167558
 20
123.7136929736
 30
0.0
 10
627.5554127868
 20
123.6685631739
 30
0.0
 10
627.8961502567
 20
123.5274854004
 30
0.0
 10
628.2778492579
 20
123.2925648141
 30
0.0
 10
628.6814472158
 20
122.9749532177
 30
0.0
 10
629.2250623526
 20
122.4591558763
 30
0.0
 10
629.5932409692
 20
122.0123677342
 30
0.0
 10
629.8120063417
 20
121.6934959358
 30
0.0
  0
SPLINE
  5
4E6
100
AcDbEntity
  8
KONSTRUKTIONSELEMENTE
100
AcDbSpline
 62
7
  6
CONTINUOUS
 70
0
 71
3
 72
9
 73
5
 74
0
 42
0.0000001
 43
0.0000001
 44
0.0000000001
 40
0.0
 40
0.0
 40
0.0
 40
0.0
 40
0.2622844894
 40
1.0
 40
1.0
 40
1.0
 40
1.0
 10
629.8120063417
 20
121.6934959358
 30
0.0
 10
629.8478843589
 20
121.6412002377
 30
0.0
 10
629.981549103
 20
121.4397202513
 30
0.0
 10
630.1029487434
 20
121.2298612717
 30
0.0
 10
630.1823258633
 20
121.0701178035
 30
0.0
  0
SPLINE
  5
4E7
100
AcDbEntity
  8
KONSTRUKTIONSELEMENTE
100
AcDbSpline
 62
7
  6
CONTINUOUS
 70
0
 71
3
 72
9
 73
5
 74
0
 42
0.0000001
 43
0.0000001
 44
0.0000000001
 40
0.0
 40
0.0
 40
0.0
 40
0.0
 40
0.244567645
 40
1.0
 40
1.0
 40
1.0
 40
1.0
 10
683.5369878477
 20
156.3334389556
 30
0.0
 10
683.663088074
 20
156.442644955
 30
0.0
 10
684.1714113839
 20
156.8975335792
 30
0.0
 10
684.6519417388
 20
157.3832950142
 30
0.0
 10
684.9987847328
 20
157.7643448385
 30
0.0
  0
SPLINE
  5
4E8
100
AcDbEntity
  8
KONSTRUKTIONSELEMENTE
100
AcDbSpline
 62
7
  6
CONTINUOUS
 70
0
 71
3
 72
11
 73
7
 74
0
 42
0.0000001
 43
0.0000001
 44
0.0000000001
 40
0.0
 40
0.0
 40
0.0
 40
0.0
 40
0.2456161378
 40
0.487829233
 40
0.7390911012
 40
1.0
 40
1.0
 40
1.0
 40
1.0
 10
688.1002545397
 20
162.7655934201
 30
0.0
 10
688.2107902601
 20
163.1180187665
 30
0.0
 10
688.3811362505
 20
163.8359090104
 30
0.0
 10
688.4017293257
 20
164.9588913231
 30
0.0
 10
688.0827702942
 20
166.0694541149
 30
0.0
 10
687.5981518571
 20
166.6989617078
 30
0.0
 10
687.3016582675
 20
166.9559251286
 30
0.0
  0
SPLINE
  5
4E9
100
AcDbEntity
  8
KONSTRUKTIONSELEMENTE
100
AcDbSpline
 62
7
  6
CONTINUOUS
 70
0
 71
3
 72
23
 73
19
 74
0
 42
0.0000001
 43
0.0000001
 44
0.0000000001
 40
0.0
 40
0.0
 40
0.0
 40
0.0
 40
0.0399693647
 40
0.0656737883
 40
0.0749885225
 40
0.0817696905
 40
0.0908566531
 40
0.1035947661
 40
0.1198800888
 40
0.1395419735
 40
0.1623868192
 40
0.1882221418
 40
0.2481028199
 40
0.3177476512
 40
0.3960861991
 40
0.5751467152
 40
0.7783544951
 40
1.0
 40
1.0
 40
1.0
 40
1.0
 10
685.12360304
 20
163.2096525765
 30
0.0
 10
685.1537141964
 20
163.206826432
 30
0.0
 10
685.2101546349
 20
163.2055328171
 30
0.0
 10
685.2493822395
 20
163.2044957992
 30
0.0
 10
685.3035584581
 20
163.2113762687
 30
0.0
 10
685.2742762158
 20
163.2055109584
 30
0.0
 10
685.2570394832
 20
163.2005808868
 30
0.0
 10
685.2278693585
 20
163.1919907928
 30
0.0
 10
685.1936365069
 20
163.1800829983
 30
0.0
 10
685.1518015001
 20
163.164327016
 30
0.0
 10
685.1039753041
 20
163.144831687
 30
0.0
 10
685.0286126808
 20
163.1120608255
 30
0.0
 10
684.9224912239
 20
163.0614224648
 30
0.0
 10
684.78365102
 20
162.9874076464
 30
0.0
 10
684.5699040609
 20
162.8626173225
 30
0.0
 10
684.2782928364
 20
162.6712474642
 30
0.0
 10
683.9116670355
 20
162.3981373208
 30
0.0
 10
683.6637660525
 20
162.1932321017
 30
0.0
 10
683.5369878477
 20
162.0834389556
 30
0.0
  0
SPLINE
  5
4EA
100
AcDbEntity
  8
KONSTRUKTIONSELEMENTE
100
AcDbSpline
 62
7
  6
CONTINUOUS
 70
0
 71
3
 72
13
 73
9
 74
0
 42
0.0000001
 43
0.0000001
 44
0.0000000001
 40
0.0
 40
0.0
 40
0.0
 40
0.0
 40
0.1263256967
 40
0.2494053695
 40
0.4831671239
 40
0.6019464337
 40
0.7268262858
 40
1.0
 40
1.0
 40
1.0
 40
1.0
 10
687.3016582675
 20
166.9559251286
 30
0.0
 10
687.0637840656
 20
167.1620846233
 30
0.0
 10
686.5242251118
 20
167.4948745268
 30
0.0
 10
685.3418646796
 20
167.7945200092
 30
0.0
 10
684.1273107732
 20
167.615029472
 30
0.0
 10
683.0269130601
 20
167.1625565372
 30
0.0
 10
681.8984989868
 20
166.5358195096
 30
0.0
 10
681.105603994
 20
165.9307392219
 30
0.0
 10
680.5910463295
 20
165.4851192127
 30
0.0
  0
SPLINE
  5
4EB
100
AcDbEntity
  8
KONSTRUKTIONSELEMENTE
100
AcDbSpline
 62
7
  6
CONTINUOUS
 70
0
 71
3
 72
9
 73
5
 74
0
 42
0.0000001
 43
0.0000001
 44
0.0000000001
 40
0.0
 40
0.0
 40
0.0
 40
0.0
 40
0.5091378895
 40
1.0
 40
1.0
 40
1.0
 40
1.0
 10
666.2197741919
 20
145.6770465044
 30
0.0
 10
666.5097529238
 20
145.4257293444
 30
0.0
 10
667.1839734817
 20
145.0421780165
 30
0.0
 10
667.944371979
 20
144.9270978573
 30
0.0
 10
668.3143258663
 20
144.9279565526
 30
0.0
  0
SPLINE
  5
4EC
100
AcDbEntity
  8
KONSTRUKTIONSELEMENTE
100
AcDbSpline
 62
7
  6
CONTINUOUS
 70
0
 71
3
 72
14
 73
10
 74
0
 42
0.0000001
 43
0.0000001
 44
0.0000000001
 40
0.0
 40
0.0
 40
0.0
 40
0.0
 40
0.3076593044
 40
0.4655740208
 40
0.6174499256
 40
0.7563299601
 40
0.8741882754
 40
0.9604979356
 40
1.0
 40
1.0
 40
1.0
 40
1.0
 10
672.9303861299
 20
152.8978524202
 30
0.0
 10
672.4801247312
 20
152.5079146106
 30
0.0
 10
671.8434342254
 20
151.8645621356
 30
0.0
 10
671.0855715039
 20
150.9395829684
 30
0.0
 10
670.5805052696
 20
150.2318275843
 30
0.0
 10
670.168952119
 20
149.5555355485
 30
0.0
 10
669.871113222
 20
148.9602657815
 30
0.0
 10
669.7074250521
 20
148.5175951886
 30
0.0
 10
669.6484794081
 20
148.2794644676
 30
0.0
 10
669.6421976052
 20
148.2032454313
 30
0.0
  0
SPLINE
  5
4ED
100
AcDbEntity
  8
KONSTRUKTIONSELEMENTE
100
AcDbSpline
 62
7
  6
CONTINUOUS
 70
0
 71
3
 72
16
 73
12
 74
0
 42
0.0000001
 43
0.0000001
 44
0.0000000001
 40
0.0
 40
0.0
 40
0.0
 40
0.0
 40
0.1382503286
 40
0.2794921658
 40
0.416953146
 40
0.5450742214
 40
0.6617427928
 40
0.7711235094
 40
0.8823527807
 40
0.9406882304
 40
1.0
 40
1.0
 40
1.0
 40
1.0
 10
669.9844446117
 20
156.2995326773
 30
0.0
 10
669.5496184061
 20
155.9229621371
 30
0.0
 10
668.711691949
 20
155.1132676269
 30
0.0
 10
667.5817496243
 20
153.7938004355
 30
0.0
 10
666.6062480956
 20
152.4070100204
 30
0.0
 10
665.8342474314
 20
151.0122474326
 30
0.0
 10
665.3024879788
 20
149.6311764682
 30
0.0
 10
665.0659878532
 20
148.2342134727
 30
0.0
 10
665.2516882077
 20
147.0555220626
 30
0.0
 10
665.7021631348
 20
146.2073655464
 30
0.0
 10
666.0332861808
 20
145.8386709001
 30
0.0
 10
666.2197741919
 20
145.6770465044
 30
0.0
  0
SPLINE
  5
4EE
100
AcDbEntity
  8
KONSTRUKTIONSELEMENTE
100
AcDbSpline
 62
7
  6
CONTINUOUS
 70
0
 71
3
 72
9
 73
5
 74
0
 42
0.0000001
 43
0.0000001
 44
0.0000000001
 40
0.0
 40
0.0
 40
0.0
 40
0.0
 40
0.2442277043
 40
1.0
 40
1.0
 40
1.0
 40
1.0
 10
652.4242894755
 20
129.389051785
 30
0.0
 10
652.5800385401
 20
129.5239344316
 30
0.0
 10
653.2066352935
 20
130.0889718533
 30
0.0
 10
653.7911983272
 20
130.7002995791
 30
0.0
 10
654.2078398357
 20
131.182926783
 30
0.0
  0
SPLINE
  5
4EF
100
AcDbEntity
  8
KONSTRUKTIONSELEMENTE
100
AcDbSpline
 62
7
  6
CONTINUOUS
 70
0
 71
3
 72
11
 73
7
 74
0
 42
0.0000001
 43
0.0000001
 44
0.0000000001
 40
0.0
 40
0.0
 40
0.0
 40
0.0
 40
0.2471730376
 40
0.4889706441
 40
0.7394164903
 40
1.0
 40
1.0
 40
1.0
 40
1.0
 10
656.9307167769
 20
135.6473313773
 30
0.0
 10
657.055171697
 20
136.0133861212
 30
0.0
 10
657.2508376121
 20
136.7572436743
 30
0.0
 10
657.3028974409
 20
137.9249379148
 30
0.0
 10
656.9959160543
 20
139.0856239997
 30
0.0
 10
656.4969851072
 20
139.7445803747
 30
0.0
 10
656.1889598953
 20
140.011537958
 30
0.0
  0
SPLINE
  5
4F0
100
AcDbEntity
  8
KONSTRUKTIONSELEMENTE
100
AcDbSpline
 62
7
  6
CONTINUOUS
 70
0
 71
3
 72
23
 73
19
 74
0
 42
0.0000001
 43
0.0000001
 44
0.0000000001
 40
0.0
 40
0.0
 40
0.0
 40
0.0
 40
0.0399693647
 40
0.0656737883
 40
0.0749885225
 40
0.0817696905
 40
0.0908566531
 40
0.1035947661
 40
0.1198800888
 40
0.1395419735
 40
0.1623868192
 40
0.1882221418
 40
0.2481028199
 40
0.3177476512
 40
0.3960861991
 40
0.5751467152
 40
0.7783544951
 40
1.0
 40
1.0
 40
1.0
 40
1.0
 10
654.0109046678
 20
136.2652654058
 30
0.0
 10
654.0410158241
 20
136.2624392614
 30
0.0
 10
654.0974562627
 20
136.2611456465
 30
0.0
 10
654.1366838673
 20
136.2601086286
 30
0.0
 10
654.1908600859
 20
136.2669890981
 30
0.0
 10
654.1615778436
 20
136.2611237878
 30
0.0
 10
654.144341111
 20
136.2561937162
 30
0.0
 10
654.1151709862
 20
136.2476036222
 30
0.0
 10
654.0809381347
 20
136.2356958277
 30
0.0
 10
654.0391031279
 20
136.2199398454
 30
0.0
 10
653.9912769319
 20
136.2004445164
 30
0.0
 10
653.9159143086
 20
136.1676736549
 30
0.0
 10
653.8097928517
 20
136.1170352941
 30
0.0
 10
653.6709526478
 20
136.0430204757
 30
0.0
 10
653.4572056887
 20
135.9182301519
 30
0.0
 10
653.1655944642
 20
135.7268602936
 30
0.0
 10
652.7989686633
 20
135.4537501502
 30
0.0
 10
652.5510676803
 20
135.248844931
 30
0.0
 10
652.4242894755
 20
135.139051785
 30
0.0
  0
SPLINE
  5
4F1
100
AcDbEntity
  8
KONSTRUKTIONSELEMENTE
100
AcDbSpline
 62
7
  6
CONTINUOUS
 70
0
 71
3
 72
13
 73
9
 74
0
 42
0.0000001
 43
0.0000001
 44
0.0000000001
 40
0.0
 40
0.0
 40
0.0
 40
0.0
 40
0.1263256967
 40
0.2494053695
 40
0.4831671239
 40
0.6019464337
 40
0.7268262858
 40
1.0
 40
1.0
 40
1.0
 40
1.0
 10
656.1889598953
 20
140.011537958
 30
0.0
 10
655.9510856934
 20
140.2176974527
 30
0.0
 10
655.4115267396
 20
140.5504873562
 30
0.0
 10
654.2291663074
 20
140.8501328386
 30
0.0
 10
653.014612401
 20
140.6706423014
 30
0.0
 10
651.9142146879
 20
140.2181693666
 30
0.0
 10
650.7858006146
 20
139.591432339
 30
0.0
 10
649.9929056218
 20
138.9863520513
 30
0.0
 10
649.4783479573
 20
138.5407320421
 30
0.0
  0
SPLINE
  5
4F2
100
AcDbEntity
  8
KONSTRUKTIONSELEMENTE
100
AcDbSpline
 62
7
  6
CONTINUOUS
 70
0
 71
3
 72
9
 73
5
 74
0
 42
0.0000001
 43
0.0000001
 44
0.0000000001
 40
0.0
 40
0.0
 40
0.0
 40
0.0
 40
0.5068172679
 40
1.0
 40
1.0
 40
1.0
 40
1.0
 10
635.1070758197
 20
118.7326593337
 30
0.0
 10
635.3508314034
 20
118.5214025956
 30
0.0
 10
635.9048367681
 20
118.1825078562
 30
0.0
 10
636.5333497505
 20
118.0309619851
 30
0.0
 10
636.8457343731
 20
118.0003158556
 30
0.0
  0
SPLINE
  5
4F3
100
AcDbEntity
  8
KONSTRUKTIONSELEMENTE
100
AcDbSpline
 62
7
  6
CONTINUOUS
 70
0
 71
3
 72
14
 73
10
 74
0
 42
0.0000001
 43
0.0000001
 44
0.0000000001
 40
0.0
 40
0.0
 40
0.0
 40
0.0
 40
0.3076593044
 40
0.4655740208
 40
0.6174499256
 40
0.7563299601
 40
0.8741882754
 40
0.9604979356
 40
1.0
 40
1.0
 40
1.0
 40
1.0
 10
641.8176877577
 20
125.9534652496
 30
0.0
 10
641.367426359
 20
125.56352744
 30
0.0
 10
640.7307358532
 20
124.920174965
 30
0.0
 10
639.9728731317
 20
123.9951957978
 30
0.0
 10
639.4678068974
 20
123.2874404137
 30
0.0
 10
639.0562537468
 20
122.6111483779
 30
0.0
 10
638.7584148498
 20
122.0158786109
 30
0.0
 10
638.5947266798
 20
121.573208018
 30
0.0
 10
638.5357810359
 20
121.335077297
 30
0.0
 10
638.529499233
 20
121.2588582607
 30
0.0
  0
SPLINE
  5
4F4
100
AcDbEntity
  8
KONSTRUKTIONSELEMENTE
100
AcDbSpline
 62
7
  6
CONTINUOUS
 70
0
 71
3
 72
16
 73
12
 74
0
 42
0.0000001
 43
0.0000001
 44
0.0000000001
 40
0.0
 40
0.0
 40
0.0
 40
0.0
 40
0.1382503286
 40
0.2794921658
 40
0.416953146
 40
0.5450742214
 40
0.6617427928
 40
0.7711235094
 40
0.8823527807
 40
0.9406882304
 40
1.0
 40
1.0
 40
1.0
 40
1.0
 10
638.8717462395
 20
129.3551455067
 30
0.0
 10
638.4369200339
 20
128.9785749664
 30
0.0
 10
637.5989935768
 20
128.1688804563
 30
0.0
 10
636.4690512521
 20
126.8494132649
 30
0.0
 10
635.4935497234
 20
125.4626228498
 30
0.0
 10
634.7215490592
 20
124.067860262
 30
0.0
 10
634.1897896066
 20
122.6867892976
 30
0.0
 10
633.953289481
 20
121.289826302
 30
0.0
 10
634.1389898355
 20
120.1111348919
 30
0.0
 10
634.5894647626
 20
119.2629783758
 30
0.0
 10
634.9205878086
 20
118.8942837295
 30
0.0
 10
635.1070758197
 20
118.7326593337
 30
0.0
  0
SPLINE
  5
4F5
100
AcDbEntity
  8
KONSTRUKTIONSELEMENTE
100
AcDbSpline
 62
7
  6
CONTINUOUS
 70
0
 71
3
 72
11
 73
7
 74
0
 42
0.0000001
 43
0.0000001
 44
0.0000000001
 40
0.0
 40
0.0
 40
0.0
 40
0.0
 40
0.247258039
 40
0.4956520534
 40
0.7463451021
 40
1.0
 40
1.0
 40
1.0
 40
1.0
 10
647.9011418937
 20
138.2497119418
 30
0.0
 10
647.9009464269
 20
138.7397172212
 30
0.0
 10
648.0120222264
 20
139.7254675227
 30
0.0
 10
648.5019337361
 20
141.1332419899
 30
0.0
 10
649.288973451
 20
142.4133308666
 30
0.0
 10
649.9822393042
 20
143.1443977598
 30
0.0
 10
650.3622314338
 20
143.4734805972
 30
0.0
  0
SPLINE
  5
4F6
100
AcDbEntity
  8
KONSTRUKTIONSELEMENTE
100
AcDbSpline
 62
7
  6
CONTINUOUS
 70
0
 71
3
 72
11
 73
7
 74
0
 42
0.0000001
 43
0.0000001
 44
0.0000000001
 40
0.0
 40
0.0
 40
0.0
 40
0.0
 40
0.247258039
 40
0.4956520534
 40
0.7463451021
 40
1.0
 40
1.0
 40
1.0
 40
1.0
 10
674.5075921934
 20
147.4388725205
 30
0.0
 10
674.5077876603
 20
146.9488672411
 30
0.0
 10
674.3967118607
 20
145.9631169396
 30
0.0
 10
673.9068003511
 20
144.5553424724
 30
0.0
 10
673.1197606362
 20
143.2752535957
 30
0.0
 10
672.4264947829
 20
142.5441867025
 30
0.0
 10
672.0465026534
 20
142.2151038651
 30
0.0
  0
SPLINE
  5
4F7
100
AcDbEntity
  8
KONSTRUKTIONSELEMENTE
100
AcDbSpline
 62
7
  6
CONTINUOUS
 70
0
 71
3
 72
9
 73
5
 74
0
 42
0.0000001
 43
0.0000001
 44
0.0000000001
 40
0.0
 40
0.0
 40
0.0
 40
0.0
 40
0.2390508737
 40
1.0
 40
1.0
 40
1.0
 40
1.0
 10
664.1395052174
 20
149.4351881308
 30
0.0
 10
664.2351496853
 20
149.5043697217
 30
0.0
 10
664.6499937623
 20
149.7731221152
 30
0.0
 10
665.1188435202
 20
149.9558902529
 30
0.0
 10
665.4839269257
 20
150.0447972985
 30
0.0
  0
SPLINE
  5
4F8
100
AcDbEntity
  8
KONSTRUKTIONSELEMENTE
100
AcDbSpline
 62
7
  6
CONTINUOUS
 70
0
 71
3
 72
9
 73
5
 74
0
 42
0.0000001
 43
0.0000001
 44
0.0000000001
 40
0.0
 40
0.0
 40
0.0
 40
0.0
 40
0.2598514407
 40
1.0
 40
1.0
 40
1.0
 40
1.0
 10
669.8261074701
 20
148.2932875464
 30
0.0
 10
669.8563888321
 20
148.2234517962
 30
0.0
 10
669.9596925545
 20
147.9492080455
 30
0.0
 10
670.0081428821
 20
147.6538934001
 30
0.0
 10
670.0081551081
 20
147.4370816837
 30
0.0
  0
SPLINE
  5
4F9
100
AcDbEntity
  8
KONSTRUKTIONSELEMENTE
100
AcDbSpline
 62
7
  6
CONTINUOUS
 70
0
 71
3
 72
9
 73
5
 74
0
 42
0.0000001
 43
0.0000001
 44
0.0000000001
 40
0.0
 40
0.0
 40
0.0
 40
0.0
 40
0.4614411915
 40
1.0
 40
1.0
 40
1.0
 40
1.0
 10
670.0081551081
 20
147.4370816837
 30
0.0
 10
670.0081731689
 20
147.1167995015
 30
0.0
 10
669.8366793474
 20
146.4163392701
 30
0.0
 10
669.3831340481
 20
145.8614994432
 30
0.0
 10
669.1005611352
 20
145.6167841222
 30
0.0
  0
SPLINE
  5
4FA
100
AcDbEntity
  8
KONSTRUKTIONSELEMENTE
100
AcDbSpline
 62
7
  6
CONTINUOUS
 70
0
 71
3
 72
9
 73
5
 74
0
 42
0.0000001
 43
0.0000001
 44
0.0000000001
 40
0.0
 40
0.0
 40
0.0
 40
0.0
 40
0.4898470903
 40
1.0
 40
1.0
 40
1.0
 40
1.0
 10
658.4939594174
 20
136.4311975867
 30
0.0
 10
657.8962504882
 20
135.91356647
 30
0.0
 10
656.2796307972
 20
135.3010228476
 30
0.0
 10
654.593441936
 20
135.6314486024
 30
0.0
 10
653.8754334232
 20
136.0346472908
 30
0.0
  0
SPLINE
  5
4FB
100
AcDbEntity
  8
KONSTRUKTIONSELEMENTE
100
AcDbSpline
 62
7
  6
CONTINUOUS
 70
0
 71
3
 72
11
 73
7
 74
0
 42
0.0000001
 43
0.0000001
 44
0.0000000001
 40
0.0
 40
0.0
 40
0.0
 40
0.0
 40
0.245958326
 40
0.4956468363
 40
0.7476883331
 40
1.0
 40
1.0
 40
1.0
 40
1.0
 10
660.9688331516
 20
152.6590671327
 30
0.0
 10
661.4465271051
 20
153.0727622316
 30
0.0
 10
662.5162768205
 20
153.789703158
 30
0.0
 10
664.3299992659
 20
154.4689762925
 30
0.0
 10
666.2642485533
 20
154.734806073
 30
0.0
 10
667.5679344225
 20
154.6272497349
 30
0.0
 10
668.2041622423
 20
154.5029670497
 30
0.0
  0
SPLINE
  5
4FC
100
AcDbEntity
  8
KONSTRUKTIONSELEMENTE
100
AcDbSpline
 62
7
  6
CONTINUOUS
 70
0
 71
3
 72
11
 73
7
 74
0
 42
0.0000001
 43
0.0000001
 44
0.0000000001
 40
0.0
 40
0.0
 40
0.0
 40
0.0
 40
0.2532343944
 40
0.50377714
 40
0.752387739
 40
1.0
 40
1.0
 40
1.0
 40
1.0
 10
672.3632122772
 20
152.368734983
 30
0.0
 10
672.69733593
 20
152.0446731979
 30
0.0
 10
673.3039278996
 20
151.3363805407
 30
0.0
 10
673.9876176125
 20
150.1241107293
 30
0.0
 10
674.4115902063
 20
148.8088624397
 30
0.0
 10
674.5074106395
 20
147.8940003932
 30
0.0
 10
674.5075921934
 20
147.4388725205
 30
0.0
  0
SPLINE
  5
4FD
100
AcDbEntity
  8
KONSTRUKTIONSELEMENTE
100
AcDbSpline
 62
7
  6
CONTINUOUS
 70
0
 71
3
 72
11
 73
7
 74
0
 42
0.0000001
 43
0.0000001
 44
0.0000000001
 40
0.0
 40
0.0
 40
0.0
 40
0.0
 40
0.2478292773
 40
0.5003854856
 40
0.75271631
 40
1.0
 40
1.0
 40
1.0
 40
1.0
 10
661.4399009356
 20
133.0295173297
 30
0.0
 10
660.6772383421
 20
132.3690321492
 30
0.0
 10
658.8574275435
 20
131.3338509265
 30
0.0
 10
655.7717550563
 20
130.8435846754
 30
0.0
 10
652.703249623
 20
131.4214643434
 30
0.0
 10
650.9180078392
 20
132.510567672
 30
0.0
 10
650.1786716392
 20
133.193795382
 30
0.0
  0
LINE
  5
4FE
100
AcDbEntity
  8
KONSTRUKTIONSELEMENTE
100
AcDbLine
 62
7
  6
CONTINUOUS
 10
727.7082225439
 20
196.8542824379
 11
727.7099337259
 21
196.8889728175
  0
LINE
  5
4FF
100
AcDbEntity
  8
KONSTRUKTIONSELEMENTE
100
AcDbLine
 62
7
  6
CONTINUOUS
 10
727.7099337259
 20
196.8889728175
 11
727.7133129635
 21
196.9523866774
  0
LINE
  5
500
100
AcDbEntity
  8
KONSTRUKTIONSELEMENTE
100
AcDbLine
 62
7
  6
CONTINUOUS
 10
727.8408949578
 20
197.2555852663
 11
727.7133129635
 21
196.9523866774
  0
LINE
  5
501
100
AcDbEntity
  8
KONSTRUKTIONSELEMENTE
100
AcDbLine
 62
7
  6
CONTINUOUS
 10
729.1142463922
 20
202.6749109506
 11
728.9769894952
 21
202.2675709584
  0
LINE
  5
502
100
AcDbEntity
  8
KONSTRUKTIONSELEMENTE
100
AcDbLine
 62
7
  6
CONTINUOUS
 10
728.9769894952
 20
202.2675709584
 11
728.8032274244
 21
201.7462594757
  0
LINE
  5
503
100
AcDbEntity
  8
KONSTRUKTIONSELEMENTE
100
AcDbLine
 62
7
  6
CONTINUOUS
 10
728.8032274244
 20
201.7462594757
 11
728.2767544251
 21
200.1580536086
  0
LINE
  5
504
100
AcDbEntity
  8
KONSTRUKTIONSELEMENTE
100
AcDbLine
 62
7
  6
CONTINUOUS
 10
728.0993325728
 20
199.6205609823
 11
728.2767544251
 21
200.1580536086
  0
LINE
  5
505
100
AcDbEntity
  8
KONSTRUKTIONSELEMENTE
100
AcDbLine
 62
7
  6
CONTINUOUS
 10
727.9552413898
 20
199.1808578503
 11
728.0993325728
 21
199.6205609823
  0
SPLINE
  5
506
100
AcDbEntity
  8
KONSTRUKTIONSELEMENTE
100
AcDbSpline
 62
7
  6
CONTINUOUS
 70
0
 71
3
 72
8
 73
4
 74
0
 42
0.0000001
 43
0.0000001
 44
0.0000000001
 40
0.0
 40
0.0
 40
0.0
 40
0.0
 40
1.0
 40
1.0
 40
1.0
 40
1.0
 10
727.7153900444
 20
198.1403373516
 30
0.0
 10
727.6988198954
 20
198.2032776351
 30
0.0
 10
727.6914802788
 20
198.2695209894
 30
0.0
 10
727.6949123209
 20
198.3345153754
 30
0.0
  0
LINE
  5
507
100
AcDbEntity
  8
KONSTRUKTIONSELEMENTE
100
AcDbLine
 62
7
  6
CONTINUOUS
 10
727.7983977851
 20
198.1193384403
 11
727.8037165969
 21
198.1403380735
  0
SPLINE
  5
508
100
AcDbEntity
  8
KONSTRUKTIONSELEMENTE
100
AcDbSpline
 62
7
  6
CONTINUOUS
 70
0
 71
3
 72
9
 73
5
 74
0
 42
0.0000001
 43
0.0000001
 44
0.0000000001
 40
0.0
 40
0.0
 40
0.0
 40
0.0
 40
0.2435395076
 40
1.0
 40
1.0
 40
1.0
 40
1.0
 10
709.1302688328
 20
170.1307137133
 30
0.0
 10
709.6341552814
 20
170.5670921784
 30
0.0
 10
711.6673976421
 20
172.399946129
 30
0.0
 10
713.5647494019
 20
174.3823739548
 30
0.0
 10
714.9198943459
 20
175.9477557209
 30
0.0
  0
SPLINE
  5
509
100
AcDbEntity
  8
KONSTRUKTIONSELEMENTE
100
AcDbSpline
 62
7
  6
CONTINUOUS
 70
0
 71
3
 72
12
 73
8
 74
0
 42
0.0000001
 43
0.0000001
 44
0.0000000001
 40
0.0
 40
0.0
 40
0.0
 40
0.0
 40
0.2668714684
 40
0.5137416128
 40
0.7544241468
 40
0.8767043086
 40
1.0
 40
1.0
 40
1.0
 40
1.0
 10
724.1105428169
 20
191.5043603474
 30
0.0
 10
724.3343590702
 20
192.3223652983
 30
0.0
 10
724.6662209411
 20
193.9288162337
 30
0.0
 10
724.7039268396
 20
196.3443128742
 30
0.0
 10
724.1892909111
 20
198.2536187717
 30
0.0
 10
723.3822444079
 20
199.5820946015
 30
0.0
 10
722.8451405778
 20
200.1577952743
 30
0.0
 10
722.5486992161
 20
200.4139975886
 30
0.0
  0
SPLINE
  5
50A
100
AcDbEntity
  8
KONSTRUKTIONSELEMENTE
100
AcDbSpline
 62
7
  6
CONTINUOUS
 70
0
 71
3
 72
18
 73
14
 74
0
 42
0.0000001
 43
0.0000001
 44
0.0000000001
 40
0.0
 40
0.0
 40
0.0
 40
0.0
 40
0.1463822488
 40
0.2968227272
 40
0.4441473494
 40
0.5816385962
 40
0.7043044355
 40
0.7594741652
 40
0.8108331293
 40
0.8592452862
 40
0.9060289111
 40
0.9526792965
 40
1.0
 40
1.0
 40
1.0
 40
1.0
 10
705.2023468086
 20
195.1662873894
 30
0.0
 10
703.8963674294
 20
194.0352760702
 30
0.0
 10
701.3630317024
 20
191.606953201
 30
0.0
 10
697.9049601554
 20
187.6596185193
 30
0.0
 10
694.8622307527
 20
183.5115219092
 30
0.0
 10
692.3957926938
 20
179.3743861415
 30
0.0
 10
690.8665222863
 20
175.9662156964
 30
0.0
 10
690.0793436112
 20
173.3744821662
 30
0.0
 10
689.7296372514
 20
171.5754377397
 30
0.0
 10
689.624988776
 20
169.8425960251
 30
0.0
 10
689.813097187
 20
168.1682092669
 30
0.0
 10
690.3633733426
 20
166.5836677569
 30
0.0
 10
691.0089098307
 20
165.6584868765
 30
0.0
 10
691.3941626227
 20
165.2541413877
 30
0.0
  0
SPLINE
  5
50B
100
AcDbEntity
  8
KONSTRUKTIONSELEMENTE
100
AcDbSpline
 62
7
  6
CONTINUOUS
 70
0
 71
3
 72
29
 73
25
 74
0
 42
0.0000001
 43
0.0000001
 44
0.0000000001
 40
0.0
 40
0.0
 40
0.0
 40
0.0
 40
0.0038425111
 40
0.006877826
 40
0.0083401759
 40
0.0090978557
 40
0.0122169244
 40
0.0179337516
 40
0.0265411311
 40
0.0382974786
 40
0.0531437932
 40
0.0709517797
 40
0.0916105212
 40
0.1150179064
 40
0.1410570151
 40
0.1696072658
 40
0.2337651466
 40
0.3066512757
 40
0.3874470915
 40
0.475421617
 40
0.5698903892
 40
0.6702089349
 40
0.7757710248
 40
1.0
 40
1.0
 40
1.0
 40
1.0
 10
718.6316436785
 20
195.8765305999
 30
0.0
 10
718.6430413075
 20
195.8678365031
 30
0.0
 10
718.66655468
 20
195.8512534345
 30
0.0
 10
718.6830474399
 20
195.8375628106
 30
0.0
 10
718.7130504719
 20
195.8190505594
 30
0.0
 10
718.6861314017
 20
195.8252248764
 30
0.0
 10
718.6580833272
 20
195.8339062714
 30
0.0
 10
718.5896418804
 20
195.8453992331
 30
0.0
 10
718.4947201434
 20
195.8541409931
 30
0.0
 10
718.3623964785
 20
195.8561048209
 30
0.0
 10
718.1971360494
 20
195.8485053558
 30
0.0
 10
717.9990527394
 20
195.828313173
 30
0.0
 10
717.7709468505
 20
195.7924934832
 30
0.0
 10
717.5148896564
 20
195.7386827012
 30
0.0
 10
717.2329679258
 20
195.6663276681
 30
0.0
 10
716.8085573379
 20
195.5389523842
 30
0.0
 10
716.227862448
 20
195.3264819568
 30
0.0
 10
715.4834049585
 20
194.9994587792
 30
0.0
 10
714.6789612122
 20
194.5915588874
 30
0.0
 10
713.8253707395
 20
194.105276403
 30
0.0
 10
712.931916558
 20
193.5439055144
 30
0.0
 10
712.0069458192
 20
192.9110154936
 30
0.0
 10
710.715578602
 20
191.9582071683
 30
0.0
 10
709.7626171594
 20
191.1783434282
 30
0.0
 10
709.1302688328
 20
190.6307137133
 30
0.0
  0
SPLINE
  5
50C
100
AcDbEntity
  8
KONSTRUKTIONSELEMENTE
100
AcDbSpline
 62
7
  6
CONTINUOUS
 70
0
 71
3
 72
9
 73
5
 74
0
 42
0.0000001
 43
0.0000001
 44
0.0000000001
 40
0.0
 40
0.0
 40
0.0
 40
0.0
 40
0.2422151737
 40
1.0
 40
1.0
 40
1.0
 40
1.0
 10
705.2023468086
 20
174.6662873894
 30
0.0
 10
705.589844893
 20
175.0018705745
 30
0.0
 10
707.1655068599
 20
176.4150795693
 30
0.0
 10
708.6492023782
 20
177.9300548104
 30
0.0
 10
709.7208214792
 20
179.1232039191
 30
0.0
  0
SPLINE
  5
50D
100
AcDbEntity
  8
KONSTRUKTIONSELEMENTE
100
AcDbSpline
 62
7
  6
CONTINUOUS
 70
0
 71
3
 72
9
 73
5
 74
0
 42
0.0000001
 43
0.0000001
 44
0.0000000001
 40
0.0
 40
0.0
 40
0.0
 40
0.0
 40
0.3088814152
 40
1.0
 40
1.0
 40
1.0
 40
1.0
 10
718.658759989
 20
195.0354844459
 30
0.0
 10
718.661317645
 20
195.1052554473
 30
0.0
 10
718.6650045382
 20
195.331170768
 30
0.0
 10
718.6497551903
 20
195.5581196259
 30
0.0
 10
718.6222444799
 20
195.7118948077
 30
0.0
  0
SPLINE
  5
50E
100
AcDbEntity
  8
KONSTRUKTIONSELEMENTE
100
AcDbSpline
 62
7
  6
CONTINUOUS
 70
0
 71
3
 72
9
 73
5
 74
0
 42
0.0000001
 43
0.0000001
 44
0.0000000001
 40
0.0
 40
0.0
 40
0.0
 40
0.0
 40
0.2922909709
 40
1.0
 40
1.0
 40
1.0
 40
1.0
 10
718.6222444799
 20
195.7118948077
 30
0.0
 10
718.6197404522
 20
195.7258914406
 30
0.0
 10
718.6106646217
 20
195.7736828097
 30
0.0
 10
718.5997467629
 20
195.8211390326
 30
0.0
 10
718.5906802031
 20
195.854351112
 30
0.0
  0
SPLINE
  5
50F
100
AcDbEntity
  8
KONSTRUKTIONSELEMENTE
100
AcDbSpline
 62
7
  6
CONTINUOUS
 70
0
 71
3
 72
9
 73
5
 74
0
 42
0.0000001
 43
0.0000001
 44
0.0000000001
 40
0.0
 40
0.0
 40
0.0
 40
0.0
 40
0.2129668983
 40
1.0
 40
1.0
 40
1.0
 40
1.0
 10
695.7215434572
 20
169.4556361243
 30
0.0
 10
695.7288449706
 20
169.4545206743
 30
0.0
 10
695.7631949883
 20
169.449712966
 30
0.0
 10
695.7977823016
 20
169.4466667108
 30
0.0
 10
695.8250300965
 20
169.4450405072
 30
0.0
  0
SPLINE
  5
510
100
AcDbEntity
  8
KONSTRUKTIONSELEMENTE
100
AcDbSpline
 62
7
  6
CONTINUOUS
 70
0
 71
3
 72
9
 73
5
 74
0
 42
0.0000001
 43
0.0000001
 44
0.0000000001
 40
0.0
 40
0.0
 40
0.0
 40
0.0
 40
0.4751668021
 40
1.0
 40
1.0
 40
1.0
 40
1.0
 10
700.9663020163
 20
171.4822843331
 30
0.0
 10
701.6772003556
 20
171.9296202465
 30
0.0
 10
703.1285421287
 20
172.9427606839
 30
0.0
 10
704.5010524547
 20
174.0589486634
 30
0.0
 10
705.2023468086
 20
174.6662873894
 30
0.0
  0
SPLINE
  5
511
100
AcDbEntity
  8
KONSTRUKTIONSELEMENTE
100
AcDbSpline
 62
7
  6
CONTINUOUS
 70
0
 71
3
 72
17
 73
13
 74
0
 42
0.0000001
 43
0.0000001
 44
0.0000000001
 40
0.0
 40
0.0
 40
0.0
 40
0.0
 40
0.054272456
 40
0.1081063965
 40
0.1614219537
 40
0.2144031746
 40
0.3216905582
 40
0.4354499083
 40
0.5594736346
 40
0.6952881283
 40
0.8426555219
 40
1.0
 40
1.0
 40
1.0
 40
1.0
 10
722.5486992161
 20
200.4139975886
 30
0.0
 10
722.2811733752
 20
200.6452093843
 30
0.0
 10
721.7034266012
 20
201.0568792405
 30
0.0
 10
720.7422655532
 20
201.4971056354
 30
0.0
 10
719.7291570542
 20
201.765341822
 30
0.0
 10
718.3404479734
 20
201.909165959
 30
0.0
 10
716.5461283272
 20
201.7358806658
 30
0.0
 10
714.382327528
 20
201.0945595421
 30
0.0
 10
712.1598592388
 20
200.0878309265
 30
0.0
 10
709.8672019075
 20
198.7454693168
 30
0.0
 10
707.5178728299
 20
197.0921296802
 30
0.0
 10
705.9772694201
 20
195.837390057
 30
0.0
 10
705.2023468086
 20
195.1662873894
 30
0.0
  0
SPLINE
  5
512
100
AcDbEntity
  8
KONSTRUKTIONSELEMENTE
100
AcDbSpline
 62
7
  6
CONTINUOUS
 70
0
 71
3
 72
21
 73
17
 74
0
 42
0.0000001
 43
0.0000001
 44
0.0000000001
 40
0.0
 40
0.0
 40
0.0
 40
0.0
 40
0.162330695
 40
0.3306430881
 40
0.496728874
 40
0.6523814433
 40
0.7894763847
 40
0.8485252566
 40
0.8997431222
 40
0.9418632845
 40
0.9590723476
 40
0.9734522828
 40
0.984800752
 40
0.993021243
 40
0.9980485772
 40
1.0
 40
1.0
 40
1.0
 40
1.0
 10
709.1302688328
 20
190.6307137133
 30
0.0
 10
708.0760773607
 20
189.717757118
 30
0.0
 10
706.0142120084
 20
187.7580862933
 30
0.0
 10
703.1613089677
 20
184.5792805857
 30
0.0
 10
700.5986164785
 20
181.2331752809
 30
0.0
 10
698.4682878602
 20
177.9112208136
 30
0.0
 10
697.0860199614
 20
175.2153352367
 30
0.0
 10
696.3103228908
 20
173.2349594874
 30
0.0
 10
695.9295927511
 20
171.9809577617
 30
0.0
 10
695.7401940035
 20
171.0479613432
 30
0.0
 10
695.6771250747
 20
170.4174522626
 30
0.0
 10
695.6660562188
 20
170.0483381076
 30
0.0
 10
695.6824300219
 20
169.7568217098
 30
0.0
 10
695.7144136866
 20
169.5473859068
 30
0.0
 10
695.7471184395
 20
169.421107869
 30
0.0
 10
695.7661951522
 20
169.3638719152
 30
0.0
 10
695.7740159983
 20
169.3490435281
 30
0.0
  0
SPLINE
  5
513
100
AcDbEntity
  8
KONSTRUKTIONSELEMENTE
100
AcDbSpline
 62
7
  6
CONTINUOUS
 70
0
 71
3
 72
11
 73
7
 74
0
 42
0.0000001
 43
0.0000001
 44
0.0000000001
 40
0.0
 40
0.0
 40
0.0
 40
0.0
 40
0.2097914905
 40
0.4448755675
 40
0.7092742741
 40
1.0
 40
1.0
 40
1.0
 40
1.0
 10
697.0332904757
 20
163.5107545729
 30
0.0
 10
698.0019721681
 20
163.6297471627
 30
0.0
 10
700.019154173
 20
164.1839942125
 30
0.0
 10
702.9985397562
 20
165.6233698827
 30
0.0
 10
706.0875168475
 20
167.6307803781
 30
0.0
 10
708.1078947043
 20
169.2453117459
 30
0.0
 10
709.1302688328
 20
170.1307137133
 30
0.0
  0
SPLINE
  5
514
100
AcDbEntity
  8
0
100
AcDbSpline
 62
7
  6
CONTINUOUS
 70
0
 71
3
 72
13
 73
9
 74
0
 42
0.0000001
 43
0.0000001
 44
0.0000000001
 40
0.0
 40
0.0
 40
0.0
 40
0.0
 40
0.1163020077
 40
0.2340377015
 40
0.3543777481
 40
0.4780373202
 40
0.7344007909
 40
1.0
 40
1.0
 40
1.0
 40
1.0
 10
727.9328411754
 20
155.8452403579
 30
0.0
 10
727.9328411754
 20
155.519327793
 30
0.0
 10
728.0080867521
 20
154.8611168113
 30
0.0
 10
728.3409146032
 20
153.9172902882
 30
0.0
 10
728.8798295208
 20
153.0495163824
 30
0.0
 10
729.8528620184
 20
152.0281582707
 30
0.0
 10
731.4638573252
 20
151.1125672835
 30
0.0
 10
732.9385247103
 20
150.8655942861
 30
0.0
 10
733.6828121152
 20
150.8655942861
 30
0.0
  0
SPLINE
  5
515
100
AcDbEntity
  8
0
100
AcDbSpline
 62
7
  6
CONTINUOUS
 70
0
 71
3
 72
13
 73
9
 74
0
 42
0.0000001
 43
0.0000001
 44
0.0000000001
 40
0.0
 40
0.0
 40
0.0
 40
0.0
 40
0.2655992091
 40
0.5219626798
 40
0.6456222519
 40
0.7659622985
 40
0.8836979923
 40
1.0
 40
1.0
 40
1.0
 40
1.0
 10
733.6828121152
 20
150.8655942861
 30
0.0
 10
734.4270995201
 20
150.8655942861
 30
0.0
 10
735.9017669052
 20
151.1125672835
 30
0.0
 10
737.512762212
 20
152.0281582707
 30
0.0
 10
738.4857947096
 20
153.0495163824
 30
0.0
 10
739.0247096272
 20
153.9172902882
 30
0.0
 10
739.3575374784
 20
154.8611168113
 30
0.0
 10
739.432783055
 20
155.519327793
 30
0.0
 10
739.432783055
 20
155.8452403579
 30
0.0
  0
SPLINE
  5
516
100
AcDbEntity
  8
KONSTRUKTIONSELEMENTE
100
AcDbSpline
 62
7
  6
CONTINUOUS
 70
0
 71
3
 72
9
 73
5
 74
0
 42
0.0000001
 43
0.0000001
 44
0.0000000001
 40
0.0
 40
0.0
 40
0.0
 40
0.0
 40
0.2398803349
 40
1.0
 40
1.0
 40
1.0
 40
1.0
 10
745.569604568
 20
144.0666730351
 30
0.0
 10
745.6885518384
 20
144.232227003
 30
0.0
 10
746.1719191397
 20
144.9313720291
 30
0.0
 10
746.6105406798
 20
145.6606058094
 30
0.0
 10
746.9280951341
 20
146.2231237645
 30
0.0
  0
SPLINE
  5
517
100
AcDbEntity
  8
KONSTRUKTIONSELEMENTE
100
AcDbSpline
 62
7
  6
CONTINUOUS
 70
0
 71
3
 72
10
 73
6
 74
0
 42
0.0000001
 43
0.0000001
 44
0.0000000001
 40
0.0
 40
0.0
 40
0.0
 40
0.0
 40
0.4956209785
 40
0.7555164176
 40
1.0
 40
1.0
 40
1.0
 40
1.0
 10
747.0129391341
 20
144.9849185876
 30
0.0
 10
747.1821824572
 20
144.5042964976
 30
0.0
 10
747.420510466
 20
143.7631645154
 30
0.0
 10
747.6327694449
 20
142.7563072027
 30
0.0
 10
747.6828121152
 20
142.2377913502
 30
0.0
 10
747.6828121152
 20
141.9864369055
 30
0.0
  0
SPLINE
  5
518
100
AcDbEntity
  8
KONSTRUKTIONSELEMENTE
100
AcDbSpline
 62
7
  6
CONTINUOUS
 70
0
 71
3
 72
9
 73
5
 74
0
 42
0.0000001
 43
0.0000001
 44
0.0000000001
 40
0.0
 40
0.0
 40
0.0
 40
0.0
 40
0.5596123079
 40
1.0
 40
1.0
 40
1.0
 40
1.0
 10
746.9280951341
 20
146.2231237645
 30
0.0
 10
747.1506503983
 20
146.6173595576
 30
0.0
 10
747.501847116
 20
147.3490994813
 30
0.0
 10
747.6828121152
 20
148.1544717384
 30
0.0
 10
747.6828121152
 20
148.5107380386
 30
0.0
  0
SPLINE
  5
519
100
AcDbEntity
  8
BEZUGSACHSEN
100
AcDbSpline
 62
7
  6
CONTINUOUS
 70
0
 71
3
 72
9
 73
5
 74
0
 42
0.0000001
 43
0.0000001
 44
0.0000000001
 40
0.0
 40
0.0
 40
0.0
 40
0.0
 40
0.4971032038
 40
1.0
 40
1.0
 40
1.0
 40
1.0
 10
719.6828121152
 20
129.118317891
 30
0.0
 10
719.6828121152
 20
128.7129072144
 30
0.0
 10
719.8089410722
 20
127.8926346884
 30
0.0
 10
720.172655811
 20
127.1480947798
 30
0.0
 10
720.4023015938
 20
126.8082800643
 30
0.0
  0
SPLINE
  5
51A
100
AcDbEntity
  8
BEZUGSACHSEN
100
AcDbSpline
 62
7
  6
CONTINUOUS
 70
0
 71
3
 72
9
 73
5
 74
0
 42
0.0000001
 43
0.0000001
 44
0.0000000001
 40
0.0
 40
0.0
 40
0.0
 40
0.0
 40
0.5028158989
 40
1.0
 40
1.0
 40
1.0
 40
1.0
 10
720.3866602057
 20
163.3999405541
 30
0.0
 10
720.1617750541
 20
163.0626128266
 30
0.0
 10
719.8060857691
 20
162.3249185582
 30
0.0
 10
719.6828121152
 20
161.5140661379
 30
0.0
 10
719.6828121152
 20
161.1131895503
 30
0.0
  0
SPLINE
  5
51B
100
AcDbEntity
  8
BEZUGSACHSEN
100
AcDbSpline
 62
7
  6
CONTINUOUS
 70
0
 71
3
 72
9
 73
5
 74
0
 42
0.0000001
 43
0.0000001
 44
0.0000000001
 40
0.0
 40
0.0
 40
0.0
 40
0.0
 40
0.245143411
 40
1.0
 40
1.0
 40
1.0
 40
1.0
 10
731.1690824953
 20
207.3188278522
 30
0.0
 10
731.1883714367
 20
207.3771368359
 30
0.0
 10
731.2715772218
 20
207.6134894562
 30
0.0
 10
731.3720250394
 20
207.843643918
 30
0.0
 10
731.455450502
 20
208.0133653282
 30
0.0
  0
SPLINE
  5
51C
100
AcDbEntity
  8
RUNDUNGEN
100
AcDbSpline
 62
7
  6
CONTINUOUS
 70
0
 71
3
 72
9
 73
5
 74
0
 42
0.0000001
 43
0.0000001
 44
0.0000000001
 40
0.0
 40
0.0
 40
0.0
 40
0.0
 40
0.4971032038
 40
1.0
 40
1.0
 40
1.0
 40
1.0
 10
747.6828121152
 20
129.118317891
 30
0.0
 10
747.6828121152
 20
128.7129072144
 30
0.0
 10
747.5566831582
 20
127.8926346884
 30
0.0
 10
747.1929684194
 20
127.1480947798
 30
0.0
 10
746.9633226366
 20
126.8082800643
 30
0.0
  0
SPLINE
  5
51D
100
AcDbEntity
  8
RUNDUNGEN
100
AcDbSpline
 62
7
  6
CONTINUOUS
 70
0
 71
3
 72
9
 73
5
 74
0
 42
0.0000001
 43
0.0000001
 44
0.0000000001
 40
0.0
 40
0.0
 40
0.0
 40
0.0
 40
0.5028158989
 40
1.0
 40
1.0
 40
1.0
 40
1.0
 10
746.9789640247
 20
163.3999405541
 30
0.0
 10
747.2038491764
 20
163.0626128266
 30
0.0
 10
747.5595384613
 20
162.3249185582
 30
0.0
 10
747.6828121152
 20
161.5140661379
 30
0.0
 10
747.6828121152
 20
161.1131895503
 30
0.0
  0
SPLINE
  5
51E
100
AcDbEntity
  8
BEZUGSACHSEN
100
AcDbSpline
 62
7
  6
CONTINUOUS
 70
0
 71
3
 72
9
 73
5
 74
0
 42
0.0000001
 43
0.0000001
 44
0.0000000001
 40
0.0
 40
0.0
 40
0.0
 40
0.0
 40
0.2541958975
 40
1.0
 40
1.0
 40
1.0
 40
1.0
 10
742.9905888299
 20
141.4152837486
 30
0.0
 10
743.2393030061
 20
141.6069934986
 30
0.0
 10
744.1913049744
 20
142.3946501817
 30
0.0
 10
745.0320106309
 20
143.3184355247
 30
0.0
 10
745.569604568
 20
144.0666730351
 30
0.0
  0
SPLINE
  5
51F
100
AcDbEntity
  8
BEZUGSACHSEN
100
AcDbSpline
 62
7
  6
CONTINUOUS
 70
0
 71
3
 72
15
 73
11
 74
0
 42
0.0000001
 43
0.0000001
 44
0.0000000001
 40
0.0
 40
0.0
 40
0.0
 40
0.0
 40
0.1179280476
 40
0.2410619478
 40
0.3690813412
 40
0.5000000021
 40
0.6309186625
 40
0.7589380548
 40
0.8820719537
 40
1.0
 40
1.0
 40
1.0
 40
1.0
 10
744.5110088737
 20
142.8005992216
 30
0.0
 10
744.1101307694
 20
141.8272818339
 30
0.0
 10
742.9335456232
 20
139.9702443379
 30
0.0
 10
740.3535888129
 20
137.8459233969
 30
0.0
 10
737.1732117249
 20
136.4958958118
 30
0.0
 10
733.6828116448
 20
136.0340415087
 30
0.0
 10
730.1924116064
 20
136.4958960555
 30
0.0
 10
727.0120346406
 20
137.8459238648
 30
0.0
 10
724.4320780246
 20
139.9702449919
 30
0.0
 10
723.2554930534
 20
141.8272825723
 30
0.0
 10
722.8546150418
 20
142.8005999861
 30
0.0
  0
SPLINE
  5
520
100
AcDbEntity
  8
0
100
AcDbSpline
 62
7
  6
CONTINUOUS
 70
0
 71
3
 72
9
 73
5
 74
0
 42
0.0000001
 43
0.0000001
 44
0.0000000001
 40
0.0
 40
0.0
 40
0.0
 40
0.0
 40
0.245143411
 40
1.0
 40
1.0
 40
1.0
 40
1.0
 10
736.1965417351
 20
207.3188278522
 30
0.0
 10
736.1772527937
 20
207.3771368359
 30
0.0
 10
736.0940470087
 20
207.6134894562
 30
0.0
 10
735.9935991911
 20
207.843643918
 30
0.0
 10
735.9101737284
 20
208.0133653282
 30
0.0
  0
SPLINE
  5
521
100
AcDbEntity
  8
BEZUGSACHSEN
100
AcDbSpline
 62
7
  6
CONTINUOUS
 70
0
 71
3
 72
9
 73
5
 74
0
 42
0.0000001
 43
0.0000001
 44
0.0000000001
 40
0.0
 40
0.0
 40
0.0
 40
0.0
 40
0.2463738429
 40
1.0
 40
1.0
 40
1.0
 40
1.0
 10
721.7960196624
 20
144.0666730351
 30
0.0
 10
721.9734487072
 20
143.8197225813
 30
0.0
 10
722.7315409106
 20
142.844981775
 30
0.0
 10
723.6356663116
 20
141.9855011282
 30
0.0
 10
724.3722134056
 20
141.417459543
 30
0.0
  0
LINE
  5
522
100
AcDbEntity
  8
KONSTRUKTIONSELEMENTE
100
AcDbLine
 62
7
  6
CONTINUOUS
 10
739.4503098919
 20
198.8241642192
 11
739.3487021182
 21
199.1303646619
  0
LINE
  5
523
100
AcDbEntity
  8
KONSTRUKTIONSELEMENTE
100
AcDbLine
 62
7
  6
CONTINUOUS
 10
739.3487021182
 20
199.1303646619
 11
739.1713276271
 21
199.6648653259
  0
LINE
  5
524
100
AcDbEntity
  8
KONSTRUKTIONSELEMENTE
100
AcDbLine
 62
7
  6
CONTINUOUS
 10
739.1713276271
 20
199.6648653259
 11
739.1477944043
 21
199.7357779211
  0
LINE
  5
525
100
AcDbEntity
  8
KONSTRUKTIONSELEMENTE
100
AcDbLine
 62
7
  6
CONTINUOUS
 10
739.1477944043
 20
199.7357779211
 11
738.2203721619
 21
202.529978082
  0
LINE
  5
526
100
AcDbEntity
  8
KONSTRUKTIONSELEMENTE
100
AcDbLine
 62
7
  6
CONTINUOUS
 10
738.2487265798
 20
202.6826225785
 11
738.2513778382
 21
202.6749109506
  0
LINE
  5
527
100
AcDbEntity
  8
KONSTRUKTIONSELEMENTE
100
AcDbLine
 62
7
  6
CONTINUOUS
 10
738.2513778382
 20
202.6749109506
 11
738.285921259
 21
202.5725273527
  0
LINE
  5
528
100
AcDbEntity
  8
KONSTRUKTIONSELEMENTE
100
AcDbLine
 62
7
  6
CONTINUOUS
 10
738.285921259
 20
202.5725273527
 11
738.3203119071
 21
202.4705094947
  0
LINE
  5
529
100
AcDbEntity
  8
KONSTRUKTIONSELEMENTE
100
AcDbLine
 62
7
  6
CONTINUOUS
 10
738.3203119071
 20
202.4705094947
 11
738.3545497453
 21
202.3688573667
  0
LINE
  5
52A
100
AcDbEntity
  8
KONSTRUKTIONSELEMENTE
100
AcDbLine
 62
7
  6
CONTINUOUS
 10
739.557129067
 20
198.7249733151
 11
739.5208856006
 21
198.837983668
  0
LINE
  5
52B
100
AcDbEntity
  8
KONSTRUKTIONSELEMENTE
100
AcDbLine
 62
7
  6
CONTINUOUS
 10
739.5208856006
 20
198.837983668
 11
739.4843468401
 21
198.9516345642
  0
LINE
  5
52C
100
AcDbEntity
  8
KONSTRUKTIONSELEMENTE
100
AcDbLine
 62
7
  6
CONTINUOUS
 10
739.4843468401
 20
198.9516345642
 11
739.4103828406
 21
199.1808578503
  0
LINE
  5
52D
100
AcDbEntity
  8
KONSTRUKTIONSELEMENTE
100
AcDbLine
 62
7
  6
CONTINUOUS
 10
739.2699307409
 20
199.1042245873
 11
739.0926224674
 21
199.6387472204
  0
SPLINE
  5
52E
100
AcDbEntity
  8
BEZUGSACHSEN
100
AcDbSpline
 62
7
  6
CONTINUOUS
 70
0
 71
3
 72
9
 73
5
 74
0
 42
0.0000001
 43
0.0000001
 44
0.0000000001
 40
0.0
 40
0.0
 40
0.0
 40
0.0
 40
0.2398803349
 40
1.0
 40
1.0
 40
1.0
 40
1.0
 10
721.7960196624
 20
144.0666730351
 30
0.0
 10
721.677072392
 20
144.232227003
 30
0.0
 10
721.1937050907
 20
144.9313720291
 30
0.0
 10
720.7550835506
 20
145.6606058094
 30
0.0
 10
720.4375290963
 20
146.2231237645
 30
0.0
  0
LINE
  5
52F
100
AcDbEntity
  8
KONSTRUKTIONSELEMENTE
100
AcDbLine
 62
7
  6
CONTINUOUS
 10
739.4136807394
 20
198.6494001382
 11
739.377952325
 21
198.7625317242
  0
LINE
  5
530
100
AcDbEntity
  8
KONSTRUKTIONSELEMENTE
100
AcDbLine
 62
7
  6
CONTINUOUS
 10
739.377952325
 20
198.7625317242
 11
739.2699307409
 21
199.1042245873
  0
LINE
  5
531
100
AcDbEntity
  8
KONSTRUKTIONSELEMENTE
100
AcDbLine
 62
7
  6
CONTINUOUS
 10
739.559652613
 20
198.1492317239
 11
739.523605435
 21
198.2732150103
  0
LINE
  5
532
100
AcDbEntity
  8
KONSTRUKTIONSELEMENTE
100
AcDbLine
 62
7
  6
CONTINUOUS
 10
739.523605435
 20
198.2732150103
 11
739.4872611735
 21
198.3979042023
  0
LINE
  5
533
100
AcDbEntity
  8
KONSTRUKTIONSELEMENTE
100
AcDbLine
 62
7
  6
CONTINUOUS
 10
739.4872611735
 20
198.3979042023
 11
739.4136807394
 21
198.6494001382
  0
LINE
  5
534
100
AcDbEntity
  8
KONSTRUKTIONSELEMENTE
100
AcDbLine
 62
7
  6
CONTINUOUS
 10
739.6715130183
 20
197.6154017247
 11
739.6713527897
 21
197.6380736929
  0
SPLINE
  5
535
100
AcDbEntity
  8
BEZUGSACHSEN
100
AcDbSpline
 62
7
  6
CONTINUOUS
 70
0
 71
3
 72
10
 73
6
 74
0
 42
0.0000001
 43
0.0000001
 44
0.0000000001
 40
0.0
 40
0.0
 40
0.0
 40
0.0
 40
0.4956209785
 40
0.7555164176
 40
1.0
 40
1.0
 40
1.0
 40
1.0
 10
720.3526850963
 20
144.9849185876
 30
0.0
 10
720.1834417732
 20
144.5042964976
 30
0.0
 10
719.9451137644
 20
143.7631645154
 30
0.0
 10
719.7328547855
 20
142.7563072027
 30
0.0
 10
719.6828121152
 20
142.2377913502
 30
0.0
 10
719.6828121152
 20
141.9864369055
 30
0.0
  0
SPLINE
  5
536
100
AcDbEntity
  8
BEZUGSACHSEN
100
AcDbSpline
 62
7
  6
CONTINUOUS
 70
0
 71
3
 72
9
 73
5
 74
0
 42
0.0000001
 43
0.0000001
 44
0.0000000001
 40
0.0
 40
0.0
 40
0.0
 40
0.0
 40
0.5596123079
 40
1.0
 40
1.0
 40
1.0
 40
1.0
 10
720.4375290963
 20
146.2231237645
 30
0.0
 10
720.2149738321
 20
146.6173595576
 30
0.0
 10
719.8637771144
 20
147.3490994813
 30
0.0
 10
719.6828121152
 20
148.1544717384
 30
0.0
 10
719.6828121152
 20
148.5107380386
 30
0.0
  0
LINE
  5
537
100
AcDbEntity
  8
KONSTRUKTIONSELEMENTE
100
AcDbLine
 62
7
  6
CONTINUOUS
 10
739.1015176843
 20
198.9585885017
 11
739.0041759093
 21
199.2420798615
  0
LINE
  5
538
100
AcDbEntity
  8
KONSTRUKTIONSELEMENTE
100
AcDbLine
 62
7
  6
CONTINUOUS
 10
739.0041759093
 20
199.2420798615
 11
738.8377968424
 21
199.7266158393
  0
LINE
  5
539
100
AcDbEntity
  8
KONSTRUKTIONSELEMENTE
100
AcDbLine
 62
7
  6
CONTINUOUS
 10
738.8377968424
 20
199.7266158393
 11
738.83251082
 21
199.7420097162
  0
LINE
  5
53A
100
AcDbEntity
  8
KONSTRUKTIONSELEMENTE
100
AcDbLine
 62
7
  6
CONTINUOUS
 10
738.83251082
 20
199.7420097162
 11
738.7271029587
 21
200.0489732795
  0
LINE
  5
53B
100
AcDbEntity
  8
KONSTRUKTIONSELEMENTE
100
AcDbLine
 62
7
  6
CONTINUOUS
 10
738.7271029587
 20
200.0489732795
 11
738.5945821333
 21
200.4348842716
  0
LINE
  5
53C
100
AcDbEntity
  8
KONSTRUKTIONSELEMENTE
100
AcDbLine
 62
7
  6
CONTINUOUS
 10
738.5945821333
 20
200.4348842716
 11
738.0527034419
 21
202.0127761664
  0
LINE
  5
53D
100
AcDbEntity
  8
KONSTRUKTIONSELEMENTE
100
AcDbLine
 62
7
  6
CONTINUOUS
 10
738.0527034419
 20
202.0127761664
 11
738.0117359922
 21
202.1320628538
  0
LINE
  5
53E
100
AcDbEntity
  8
KONSTRUKTIONSELEMENTE
100
AcDbLine
 62
7
  6
CONTINUOUS
 10
739.1015176843
 20
198.9585885017
 11
739.243274558
 21
198.5717798665
  0
LINE
  5
53F
100
AcDbEntity
  8
KONSTRUKTIONSELEMENTE
100
AcDbLine
 62
7
  6
CONTINUOUS
 10
739.243274558
 20
198.5717798665
 11
739.330934495
 21
198.3584007911
  0
LINE
  5
540
100
AcDbEntity
  8
KONSTRUKTIONSELEMENTE
100
AcDbLine
 62
7
  6
CONTINUOUS
 10
739.330934495
 20
198.3584007911
 11
739.35078035
 21
198.310013488
  0
LINE
  5
541
100
AcDbEntity
  8
KONSTRUKTIONSELEMENTE
100
AcDbLine
 62
7
  6
CONTINUOUS
 10
738.0039450311
 20
202.8122215725
 11
738.0465257587
 21
202.6881267422
  0
LINE
  5
542
100
AcDbEntity
  8
KONSTRUKTIONSELEMENTE
100
AcDbLine
 62
7
  6
CONTINUOUS
 10
738.0465257587
 20
202.6881267422
 11
738.2135601744
 21
202.2013120686
  0
LINE
  5
543
100
AcDbEntity
  8
KONSTRUKTIONSELEMENTE
100
AcDbLine
 62
7
  6
CONTINUOUS
 10
738.2135601744
 20
202.2013120686
 11
739.0926224674
 21
199.6387472204
  0
LINE
  5
544
100
AcDbEntity
  8
KONSTRUKTIONSELEMENTE
100
AcDbLine
 62
7
  6
CONTINUOUS
 10
738.7136715371
 20
198.3790320741
 11
738.186417779
 21
199.815946826
  0
LINE
  5
545
100
AcDbEntity
  8
KONSTRUKTIONSELEMENTE
100
AcDbLine
 62
7
  6
CONTINUOUS
 10
739.662545756
 20
195.7925857353
 11
738.9245546312
 21
197.8042662807
  0
LINE
  5
546
100
AcDbEntity
  8
KONSTRUKTIONSELEMENTE
100
AcDbLine
 62
7
  6
CONTINUOUS
 10
738.2865073323
 20
200.6158772801
 11
738.3125538739
 21
200.5528901496
  0
LINE
  5
547
100
AcDbEntity
  8
KONSTRUKTIONSELEMENTE
100
AcDbLine
 62
7
  6
CONTINUOUS
 10
738.3125538739
 20
200.5528901496
 11
738.3903090388
 21
200.3647381272
  0
LINE
  5
548
100
AcDbEntity
  8
KONSTRUKTIONSELEMENTE
100
AcDbLine
 62
7
  6
CONTINUOUS
 10
738.3903090388
 20
200.3647381272
 11
738.5307901029
 21
199.9815606632
  0
LINE
  5
549
100
AcDbEntity
  8
KONSTRUKTIONSELEMENTE
100
AcDbLine
 62
7
  6
CONTINUOUS
 10
738.637777074
 20
199.6579340227
 11
738.5307901029
 21
199.9815606632
  0
LINE
  5
54A
100
AcDbEntity
  8
KONSTRUKTIONSELEMENTE
100
AcDbLine
 62
7
  6
CONTINUOUS
 10
738.782685211
 20
199.166025492
 11
738.637777074
 21
199.6579340227
  0
LINE
  5
54B
100
AcDbEntity
  8
KONSTRUKTIONSELEMENTE
100
AcDbLine
 62
7
  6
CONTINUOUS
 10
738.857567617
 20
198.8294618153
 11
738.8961445736
 21
198.7389307768
  0
LINE
  5
54C
100
AcDbEntity
  8
KONSTRUKTIONSELEMENTE
100
AcDbLine
 62
7
  6
CONTINUOUS
 10
738.8961445736
 20
198.7389307768
 11
739.0164121411
 21
198.4563451082
  0
LINE
  5
54D
100
AcDbEntity
  8
KONSTRUKTIONSELEMENTE
100
AcDbLine
 62
7
  6
CONTINUOUS
 10
739.0164121411
 20
198.4563451082
 11
739.0631376597
 21
198.3464111361
  0
LINE
  5
54E
100
AcDbEntity
  8
KONSTRUKTIONSELEMENTE
100
AcDbLine
 62
7
  6
CONTINUOUS
 10
739.0631376597
 20
198.3464111361
 11
739.0993982055
 21
198.2610408279
  0
SPLINE
  5
54F
100
AcDbEntity
  8
KONSTRUKTIONSELEMENTE
100
AcDbSpline
 62
7
  6
CONTINUOUS
 70
0
 71
3
 72
9
 73
5
 74
0
 42
0.0000001
 43
0.0000001
 44
0.0000000001
 40
0.0
 40
0.0
 40
0.0
 40
0.0
 40
0.2251885309
 40
1.0
 40
1.0
 40
1.0
 40
1.0
 10
746.9280951341
 20
131.4382834692
 30
0.0
 10
746.8162920253
 20
131.32511113
 30
0.0
 10
746.3300766699
 20
130.8124111767
 30
0.0
 10
745.8889881444
 20
130.257694284
 30
0.0
 10
745.569604568
 20
129.8131677455
 30
0.0
  0
SPLINE
  5
550
100
AcDbEntity
  8
0
100
AcDbSpline
 62
7
  6
CONTINUOUS
 70
0
 71
3
 72
11
 73
7
 74
0
 42
0.0000001
 43
0.0000001
 44
0.0000000001
 40
0.0
 40
0.0
 40
0.0
 40
0.0
 40
0.2342863999
 40
0.4794400193
 40
0.7361131198
 40
1.0
 40
1.0
 40
1.0
 40
1.0
 10
739.3208170363
 20
155.8232441635
 30
0.0
 10
739.1903520327
 20
156.3875476059
 30
0.0
 10
738.685525508
 20
157.4975537859
 30
0.0
 10
737.3625524466
 20
158.7977542911
 30
0.0
 10
735.6305731411
 20
159.6340190031
 30
0.0
 10
734.3351772799
 20
159.8248864296
 30
0.0
 10
733.6828121152
 20
159.8248864296
 30
0.0
  0
SPLINE
  5
551
100
AcDbEntity
  8
0
100
AcDbSpline
 62
7
  6
CONTINUOUS
 70
0
 71
3
 72
9
 73
5
 74
0
 42
0.0000001
 43
0.0000001
 44
0.0000000001
 40
0.0
 40
0.0
 40
0.0
 40
0.0
 40
0.5001658481
 40
1.0
 40
1.0
 40
1.0
 40
1.0
 10
735.9101737284
 20
200.1500389106
 30
0.0
 10
736.162874303
 20
198.0086479807
 30
0.0
 10
736.4932555613
 20
193.7036951406
 30
0.0
 10
736.4073029044
 20
189.3858888067
 30
0.0
 10
736.2647236672
 20
187.2357913257
 30
0.0
  0
SPLINE
  5
552
100
AcDbEntity
  8
0
100
AcDbSpline
 62
7
  6
CONTINUOUS
 70
0
 71
3
 72
11
 73
7
 74
0
 42
0.0000001
 43
0.0000001
 44
0.0000000001
 40
0.0
 40
0.0
 40
0.0
 40
0.0
 40
0.2516599876
 40
0.5000000005
 40
0.7483400135
 40
1.0
 40
1.0
 40
1.0
 40
1.0
 10
735.9101737284
 20
208.0133653282
 30
0.0
 10
736.0725570672
 20
207.3670955247
 30
0.0
 10
736.3275042264
 20
206.0643840741
 30
0.0
 10
736.4607087022
 20
204.0817021151
 30
0.0
 10
736.3275042306
 20
202.0990201582
 30
0.0
 10
736.0725570665
 20
200.7963087113
 30
0.0
 10
735.9101737284
 20
200.1500389106
 30
0.0
  0
SPLINE
  5
553
100
AcDbEntity
  8
0
100
AcDbSpline
 62
7
  6
CONTINUOUS
 70
0
 71
3
 72
11
 73
7
 74
0
 42
0.0000001
 43
0.0000001
 44
0.0000000001
 40
0.0
 40
0.0
 40
0.0
 40
0.0
 40
0.2342863999
 40
0.4794400193
 40
0.7361131198
 40
1.0
 40
1.0
 40
1.0
 40
1.0
 10
728.0448071942
 20
155.8232441635
 30
0.0
 10
728.1752721977
 20
156.3875476059
 30
0.0
 10
728.6800987224
 20
157.4975537859
 30
0.0
 10
730.0030717838
 20
158.7977542911
 30
0.0
 10
731.7350510894
 20
159.6340190031
 30
0.0
 10
733.0304469505
 20
159.8248864296
 30
0.0
 10
733.6828121152
 20
159.8248864296
 30
0.0
  0
SPLINE
  5
554
100
AcDbEntity
  8
0
100
AcDbSpline
 62
7
  6
CONTINUOUS
 70
0
 71
3
 72
8
 73
4
 74
0
 42
0.0000001
 43
0.0000001
 44
0.0000000001
 40
0.0
 40
0.0
 40
0.0
 40
0.0
 40
1.0
 40
1.0
 40
1.0
 40
1.0
 10
737.475710113
 20
200.0774556504
 30
0.0
 10
738.0258995113
 20
198.576751595
 30
0.0
 10
738.5759348903
 20
197.0759910429
 30
0.0
 10
739.1256769652
 20
195.5751230651
 30
0.0
  0
LINE
  5
555
100
AcDbEntity
  8
0
100
AcDbLine
 62
7
  6
CONTINUOUS
 10
737.6719725919
 20
202.1320631609
 11
737.6522577089
 21
202.1894693433
  0
LINE
  5
556
100
AcDbEntity
  8
0
100
AcDbLine
 62
7
  6
CONTINUOUS
 10
737.6522577089
 20
202.1894693433
 11
737.4851016876
 21
202.6761898287
  0
LINE
  5
557
100
AcDbEntity
  8
0
100
AcDbLine
 62
7
  6
CONTINUOUS
 10
737.4773107295
 20
201.9960310452
 11
737.807830127
 21
201.0327314178
  0
SPLINE
  5
558
100
AcDbEntity
  8
0
100
AcDbSpline
 62
7
  6
CONTINUOUS
 70
0
 71
3
 72
9
 73
5
 74
0
 42
0.0000001
 43
0.0000001
 44
0.0000000001
 40
0.0
 40
0.0
 40
0.0
 40
0.0
 40
0.5094747824
 40
1.0
 40
1.0
 40
1.0
 40
1.0
 10
733.6828121152
 20
135.305786665
 30
0.0
 10
732.869974802
 20
135.305786665
 30
0.0
 10
731.2611835056
 20
135.5847764999
 30
0.0
 10
729.8520146221
 20
136.4251916178
 30
0.0
 10
729.2762158626
 20
136.955215594
 30
0.0
  0
SPLINE
  5
559
100
AcDbEntity
  8
BEZUGSACHSEN
100
AcDbSpline
 62
7
  6
CONTINUOUS
 70
0
 71
3
 72
11
 73
7
 74
0
 42
0.0000001
 43
0.0000001
 44
0.0000000001
 40
0.0
 40
0.0
 40
0.0
 40
0.0
 40
0.2461524283
 40
0.4999945044
 40
0.7538396543
 40
1.0
 40
1.0
 40
1.0
 40
1.0
 10
724.3722134056
 20
141.417459543
 30
0.0
 10
725.6630466041
 20
140.4219401222
 30
0.0
 10
728.6702345715
 20
138.865812261
 30
0.0
 10
733.6809133423
 20
138.0848595122
 30
0.0
 10
738.6918220349
 20
138.8646588576
 30
0.0
 10
741.6994526123
 20
140.420071472
 30
0.0
 10
742.9905888299
 20
141.4152837486
 30
0.0
  0
SPLINE
  5
55A
100
AcDbEntity
  8
BEZUGSACHSEN
100
AcDbSpline
 62
7
  6
CONTINUOUS
 70
0
 71
3
 72
15
 73
11
 74
0
 42
0.0000001
 43
0.0000001
 44
0.0000000001
 40
0.0
 40
0.0
 40
0.0
 40
0.0
 40
0.1194809811
 40
0.2432794302
 40
0.3706432098
 40
0.5
 40
0.6293567902
 40
0.7567205698
 40
0.8805190189
 40
1.0
 40
1.0
 40
1.0
 40
1.0
 10
745.569604568
 20
129.8131677455
 30
0.0
 10
744.9348886472
 20
128.9297532803
 30
0.0
 10
743.390214334
 20
127.3015744001
 30
0.0
 10
740.5099032295
 20
125.4854236022
 30
0.0
 10
737.2049026895
 20
124.3504853867
 30
0.0
 10
733.6828121152
 20
123.964960317
 30
0.0
 10
730.160721541
 20
124.3504853867
 30
0.0
 10
726.8557210009
 20
125.4854236022
 30
0.0
 10
723.9754098964
 20
127.3015744001
 30
0.0
 10
722.4307355832
 20
128.9297532803
 30
0.0
 10
721.7960196624
 20
129.8131677455
 30
0.0
  0
SPLINE
  5
55B
100
AcDbEntity
  8
BEZUGSACHSEN
100
AcDbSpline
 62
7
  6
CONTINUOUS
 70
0
 71
3
 72
19
 73
15
 74
0
 42
0.0000001
 43
0.0000001
 44
0.0000000001
 40
0.0
 40
0.0
 40
0.0
 40
0.0
 40
0.0581529382
 40
0.1170186733
 40
0.1771895919
 40
0.2390194491
 40
0.3672020887
 40
0.5
 40
0.6327979113
 40
0.7609805509
 40
0.8228104081
 40
0.8829813267
 40
0.9418470618
 40
1.0
 40
1.0
 40
1.0
 40
1.0
 10
722.1864952269
 20
140.5452403579
 30
0.0
 10
722.1864952269
 20
139.8936014032
 30
0.0
 10
722.3369235351
 20
138.5775942569
 30
0.0
 10
723.0024223229
 20
136.6905637595
 30
0.0
 10
724.0799582037
 20
134.9555654625
 30
0.0
 10
726.0250168532
 20
132.9135214526
 30
0.0
 10
729.2495611837
 20
131.0829482944
 30
0.0
 10
733.6828121152
 20
130.3378663184
 30
0.0
 10
738.1160630467
 20
131.0829482944
 30
0.0
 10
741.3406073772
 20
132.9135214526
 30
0.0
 10
743.2856660267
 20
134.9555654625
 30
0.0
 10
744.3632019075
 20
136.6905637595
 30
0.0
 10
745.0287006953
 20
138.5775942569
 30
0.0
 10
745.1791290035
 20
139.8936014032
 30
0.0
 10
745.1791290035
 20
140.5452403579
 30
0.0
  0
SPLINE
  5
55C
100
AcDbEntity
  8
0
100
AcDbSpline
 62
7
  6
CONTINUOUS
 70
0
 71
3
 72
8
 73
4
 74
0
 42
0.0000001
 43
0.0000001
 44
0.0000000001
 40
0.0
 40
0.0
 40
0.0
 40
0.0
 40
1.0
 40
1.0
 40
1.0
 40
1.0
 10
737.4906461381
 20
203.3108938873
 30
0.0
 10
737.4934268329
 20
203.245990683
 30
0.0
 10
737.487606165
 20
203.1802427386
 30
0.0
 10
737.474023295
 20
203.1167158636
 30
0.0
  0
LINE
  5
55D
100
AcDbEntity
  8
KONSTRUKTIONSELEMENTE
100
AcDbLine
 62
7
  6
CONTINUOUS
 10
739.4219835686
 20
199.1080410914
 11
739.4038279267
 21
199.1668084436
  0
LINE
  5
55E
100
AcDbEntity
  8
KONSTRUKTIONSELEMENTE
100
AcDbLine
 62
7
  6
CONTINUOUS
 10
739.4038279267
 20
199.1668084436
 11
739.367204396
 21
199.2848249945
  0
LINE
  5
55F
100
AcDbEntity
  8
KONSTRUKTIONSELEMENTE
100
AcDbLine
 62
7
  6
CONTINUOUS
 10
739.367204396
 20
199.2848249945
 11
739.3487364309
 21
199.344074181
  0
LINE
  5
560
100
AcDbEntity
  8
KONSTRUKTIONSELEMENTE
100
AcDbLine
 62
7
  6
CONTINUOUS
 10
739.3487364309
 20
199.344074181
 11
739.2408568861
 21
199.6778968576
  0
LINE
  5
561
100
AcDbEntity
  8
KONSTRUKTIONSELEMENTE
100
AcDbLine
 62
7
  6
CONTINUOUS
 10
739.2408568861
 20
199.6778968576
 11
739.2054944819
 21
199.7854658843
  0
LINE
  5
562
100
AcDbEntity
  8
KONSTRUKTIONSELEMENTE
100
AcDbLine
 62
7
  6
CONTINUOUS
 10
739.2054944819
 20
199.7854658843
 11
739.0989468993
 21
200.1095091027
  0
LINE
  5
563
100
AcDbEntity
  8
KONSTRUKTIONSELEMENTE
100
AcDbLine
 62
7
  6
CONTINUOUS
 10
738.5718276874
 20
201.6977149697
 11
739.0989468993
 21
200.1095091027
  0
LINE
  5
564
100
AcDbEntity
  8
KONSTRUKTIONSELEMENTE
100
AcDbLine
 62
7
  6
CONTINUOUS
 10
738.4324772667
 20
202.1131457746
 11
738.5718276874
 21
201.6977149697
  0
LINE
  5
565
100
AcDbEntity
  8
KONSTRUKTIONSELEMENTE
100
AcDbLine
 62
7
  6
CONTINUOUS
 10
738.3291810134
 20
202.4146056821
 11
738.4324772667
 21
202.1131457746
  0
LINE
  5
566
100
AcDbEntity
  8
KONSTRUKTIONSELEMENTE
100
AcDbLine
 62
7
  6
CONTINUOUS
 10
738.2614004468
 20
202.6020941917
 11
738.2954625552
 21
202.5081677095
  0
LINE
  5
567
100
AcDbEntity
  8
KONSTRUKTIONSELEMENTE
100
AcDbLine
 62
7
  6
CONTINUOUS
 10
738.2954625552
 20
202.5081677095
 11
738.3123647445
 21
202.4613411395
  0
LINE
  5
568
100
AcDbEntity
  8
KONSTRUKTIONSELEMENTE
100
AcDbLine
 62
7
  6
CONTINUOUS
 10
738.3123647445
 20
202.4613411395
 11
738.3291810134
 21
202.4146056821
  0
LINE
  5
569
100
AcDbEntity
  8
0
100
AcDbLine
 62
7
  6
CONTINUOUS
 10
737.474023295
 20
203.1167158636
 11
737.5653227764
 21
202.8414074967
  0
LINE
  5
56A
100
AcDbEntity
  8
0
100
AcDbLine
 62
7
  6
CONTINUOUS
 10
737.5653227764
 20
202.8414074967
 11
737.5750009946
 21
202.8122227056
  0
LINE
  5
56B
100
AcDbEntity
  8
KONSTRUKTIONSELEMENTE
100
AcDbLine
 62
7
  6
CONTINUOUS
 10
739.650234186
 20
198.1403373516
 11
739.6386193962
 21
198.175395994
  0
LINE
  5
56C
100
AcDbEntity
  8
KONSTRUKTIONSELEMENTE
100
AcDbLine
 62
7
  6
CONTINUOUS
 10
739.6386193962
 20
198.175395994
 11
739.4748567026
 21
198.669669711
  0
LINE
  5
56D
100
AcDbEntity
  8
KONSTRUKTIONSELEMENTE
100
AcDbLine
 62
7
  6
CONTINUOUS
 10
739.4748567026
 20
198.669669711
 11
739.4263011191
 21
198.8162093138
  0
LINE
  5
56E
100
AcDbEntity
  8
KONSTRUKTIONSELEMENTE
100
AcDbLine
 62
7
  6
CONTINUOUS
 10
739.4263011191
 20
198.8162093138
 11
739.383245859
 21
198.9461444871
  0
LINE
  5
56F
100
AcDbEntity
  8
KONSTRUKTIONSELEMENTE
100
AcDbLine
 62
7
  6
CONTINUOUS
 10
739.383245859
 20
198.9461444871
 11
739.3248333657
 21
199.1224190413
  0
LINE
  5
570
100
AcDbEntity
  8
KONSTRUKTIONSELEMENTE
100
AcDbLine
 62
7
  6
CONTINUOUS
 10
739.3248333657
 20
199.1224190413
 11
739.1476757067
 21
199.6569915955
  0
LINE
  5
571
100
AcDbEntity
  8
KONSTRUKTIONSELEMENTE
100
AcDbLine
 62
7
  6
CONTINUOUS
 10
739.1476757067
 20
199.6569915955
 11
739.1130626135
 21
199.7614287434
  0
LINE
  5
572
100
AcDbEntity
  8
KONSTRUKTIONSELEMENTE
100
AcDbLine
 62
7
  6
CONTINUOUS
 10
739.1130626135
 20
199.7614287434
 11
738.1977213461
 21
202.5224667695
  0
LINE
  5
573
100
AcDbEntity
  8
KONSTRUKTIONSELEMENTE
100
AcDbLine
 62
7
  6
CONTINUOUS
 10
738.1977213461
 20
202.5224667695
 11
738.1550041819
 21
202.6512857687
  0
LINE
  5
574
100
AcDbEntity
  8
KONSTRUKTIONSELEMENTE
100
AcDbLine
 62
7
  6
CONTINUOUS
 10
738.1550041819
 20
202.6512857687
 11
738.091957078
 21
202.8414074969
  0
LINE
  5
575
100
AcDbEntity
  8
KONSTRUKTIONSELEMENTE
100
AcDbLine
 62
7
  6
CONTINUOUS
 10
738.091957078
 20
202.8414074969
 11
738.0006575967
 21
203.1167158636
  0
SPLINE
  5
576
100
AcDbEntity
  8
KONSTRUKTIONSELEMENTE
100
AcDbSpline
 62
7
  6
CONTINUOUS
 70
0
 71
3
 72
8
 73
4
 74
0
 42
0.0000001
 43
0.0000001
 44
0.0000000001
 40
0.0
 40
0.0
 40
0.0
 40
0.0
 40
1.0
 40
1.0
 40
1.0
 40
1.0
 10
738.0006575967
 20
203.1167158636
 30
0.0
 10
738.0142404667
 20
203.1802427386
 30
0.0
 10
738.0200611346
 20
203.245990683
 30
0.0
 10
738.0172804398
 20
203.3108938873
 30
0.0
  0
SPLINE
  5
577
100
AcDbEntity
  8
BEZUGSACHSEN
100
AcDbSpline
 62
7
  6
CONTINUOUS
 70
0
 71
3
 72
9
 73
5
 74
0
 42
0.0000001
 43
0.0000001
 44
0.0000000001
 40
0.0
 40
0.0
 40
0.0
 40
0.0
 40
0.2251885309
 40
1.0
 40
1.0
 40
1.0
 40
1.0
 10
720.4375290963
 20
131.4382834692
 30
0.0
 10
720.5493322051
 20
131.32511113
 30
0.0
 10
721.0355475606
 20
130.8124111767
 30
0.0
 10
721.476636086
 20
130.257694284
 30
0.0
 10
721.7960196624
 20
129.8131677455
 30
0.0
  0
SPLINE
  5
578
100
AcDbEntity
  8
0
100
AcDbSpline
 62
7
  6
CONTINUOUS
 70
0
 71
3
 72
13
 73
9
 74
0
 42
0.0000001
 43
0.0000001
 44
0.0000000001
 40
0.0
 40
0.0
 40
0.0
 40
0.0
 40
0.2655992091
 40
0.5219626798
 40
0.6456222519
 40
0.7659622985
 40
0.8836979923
 40
1.0
 40
1.0
 40
1.0
 40
1.0
 10
733.6828121152
 20
160.8248864296
 30
0.0
 10
732.9385247103
 20
160.8248864296
 30
0.0
 10
731.4638573252
 20
160.5779134323
 30
0.0
 10
729.8528620184
 20
159.6623224451
 30
0.0
 10
728.8798295208
 20
158.6409643334
 30
0.0
 10
728.3409146032
 20
157.7731904276
 30
0.0
 10
728.0080867521
 20
156.8293639044
 30
0.0
 10
727.9328411754
 20
156.1711529228
 30
0.0
 10
727.9328411754
 20
155.8452403579
 30
0.0
  0
SPLINE
  5
579
100
AcDbEntity
  8
0
100
AcDbSpline
 62
7
  6
CONTINUOUS
 70
0
 71
3
 72
13
 73
9
 74
0
 42
0.0000001
 43
0.0000001
 44
0.0000000001
 40
0.0
 40
0.0
 40
0.0
 40
0.0
 40
0.1163020077
 40
0.2340377015
 40
0.3543777481
 40
0.4780373202
 40
0.7344007909
 40
1.0
 40
1.0
 40
1.0
 40
1.0
 10
739.432783055
 20
155.8452403579
 30
0.0
 10
739.432783055
 20
156.1711529228
 30
0.0
 10
739.3575374784
 20
156.8293639044
 30
0.0
 10
739.0247096272
 20
157.7731904276
 30
0.0
 10
738.4857947096
 20
158.6409643334
 30
0.0
 10
737.512762212
 20
159.6623224451
 30
0.0
 10
735.9017669052
 20
160.5779134323
 30
0.0
 10
734.4270995201
 20
160.8248864296
 30
0.0
 10
733.6828121152
 20
160.8248864296
 30
0.0
  0
LINE
  5
57A
100
AcDbEntity
  8
KONSTRUKTIONSELEMENTE
100
AcDbLine
 62
7
  6
CONTINUOUS
 10
739.2699307409
 20
198.3333780611
 11
739.3060727555
 21
198.2418953005
  0
LINE
  5
57B
100
AcDbEntity
  8
KONSTRUKTIONSELEMENTE
100
AcDbLine
 62
7
  6
CONTINUOUS
 10
739.3060727555
 20
198.2418953005
 11
739.4136807439
 21
197.9692414195
  0
SPLINE
  5
57C
100
AcDbEntity
  8
BEZUGSACHSEN
100
AcDbSpline
 62
7
  6
CONTINUOUS
 70
0
 71
3
 72
9
 73
5
 74
0
 42
0.0000001
 43
0.0000001
 44
0.0000000001
 40
0.0
 40
0.0
 40
0.0
 40
0.0
 40
0.546714193
 40
1.0
 40
1.0
 40
1.0
 40
1.0
 10
719.6828121152
 20
133.7258977434
 30
0.0
 10
719.6828121152
 20
133.278672597
 30
0.0
 10
719.7730251076
 20
132.4527808531
 30
0.0
 10
720.176935526
 20
131.7020684774
 30
0.0
 10
720.4375290963
 20
131.4382834692
 30
0.0
  0
LINE
  5
57D
100
AcDbEntity
  8
KONSTRUKTIONSELEMENTE
100
AcDbLine
 62
7
  6
CONTINUOUS
 10
739.0926224674
 20
198.8225566931
 11
739.2699307409
 21
198.3333780611
  0
LINE
  5
57E
100
AcDbEntity
  8
KONSTRUKTIONSELEMENTE
100
AcDbLine
 62
7
  6
CONTINUOUS
 10
739.0926224674
 20
198.8225566931
 11
739.0657630325
 21
198.9008711631
  0
LINE
  5
57F
100
AcDbEntity
  8
KONSTRUKTIONSELEMENTE
100
AcDbLine
 62
7
  6
CONTINUOUS
 10
739.0657630325
 20
198.9008711631
 11
739.0518145088
 21
198.941540644
  0
LINE
  5
580
100
AcDbEntity
  8
KONSTRUKTIONSELEMENTE
100
AcDbLine
 62
7
  6
CONTINUOUS
 10
739.0518145088
 20
198.941540644
 11
738.9545964002
 21
199.2249895572
  0
LINE
  5
581
100
AcDbEntity
  8
KONSTRUKTIONSELEMENTE
100
AcDbLine
 62
7
  6
CONTINUOUS
 10
738.9545964002
 20
199.2249895572
 11
738.8246548641
 21
199.6038247297
  0
LINE
  5
582
100
AcDbEntity
  8
KONSTRUKTIONSELEMENTE
100
AcDbLine
 62
7
  6
CONTINUOUS
 10
738.8246548641
 20
199.6038247297
 11
738.788374216
 21
199.7095939699
  0
LINE
  5
583
100
AcDbEntity
  8
KONSTRUKTIONSELEMENTE
100
AcDbLine
 62
7
  6
CONTINUOUS
 10
738.788374216
 20
199.7095939699
 11
738.6777847788
 21
200.0319848004
  0
LINE
  5
584
100
AcDbEntity
  8
KONSTRUKTIONSELEMENTE
100
AcDbLine
 62
7
  6
CONTINUOUS
 10
738.6777847788
 20
200.0319848004
 11
738.5538846649
 21
200.3931593479
  0
LINE
  5
585
100
AcDbEntity
  8
KONSTRUKTIONSELEMENTE
100
AcDbLine
 62
7
  6
CONTINUOUS
 10
738.5538846649
 20
200.3931593479
 11
738.5453833319
 21
200.4179403899
  0
LINE
  5
586
100
AcDbEntity
  8
KONSTRUKTIONSELEMENTE
100
AcDbLine
 62
7
  6
CONTINUOUS
 10
738.5453833319
 20
200.4179403899
 11
738.4573682193
 21
200.6744954809
  0
LINE
  5
587
100
AcDbEntity
  8
KONSTRUKTIONSELEMENTE
100
AcDbLine
 62
7
  6
CONTINUOUS
 10
738.4573682193
 20
200.6744954809
 11
738.3587599594
 21
200.9619170588
  0
LINE
  5
588
100
AcDbEntity
  8
KONSTRUKTIONSELEMENTE
100
AcDbLine
 62
7
  6
CONTINUOUS
 10
738.3587599594
 20
200.9619170588
 11
738.0039450311
 21
201.9960310452
  0
LINE
  5
589
100
AcDbEntity
  8
KONSTRUKTIONSELEMENTE
100
AcDbLine
 62
7
  6
CONTINUOUS
 10
739.4604176202
 20
198.2296225555
 11
739.4602620111
 21
198.2522945237
  0
LINE
  5
58A
100
AcDbEntity
  8
KONSTRUKTIONSELEMENTE
100
AcDbLine
 62
7
  6
CONTINUOUS
 10
739.4602620111
 20
198.2522945237
 11
739.4420508424
 21
198.348820085
  0
LINE
  5
58B
100
AcDbEntity
  8
KONSTRUKTIONSELEMENTE
100
AcDbLine
 62
7
  6
CONTINUOUS
 10
739.4420508424
 20
198.348820085
 11
739.4327908793
 21
198.3970854333
  0
LINE
  5
58C
100
AcDbEntity
  8
KONSTRUKTIONSELEMENTE
100
AcDbLine
 62
7
  6
CONTINUOUS
 10
739.4327908793
 20
198.3970854333
 11
739.4234284921
 21
198.4453525226
  0
LINE
  5
58D
100
AcDbEntity
  8
KONSTRUKTIONSELEMENTE
100
AcDbLine
 62
7
  6
CONTINUOUS
 10
739.3507803474
 20
198.7181087192
 11
739.2432745612
 21
199.0705629701
  0
LINE
  5
58E
100
AcDbEntity
  8
KONSTRUKTIONSELEMENTE
100
AcDbLine
 62
7
  6
CONTINUOUS
 10
739.2432745612
 20
199.0705629701
 11
739.1015176809
 21
199.5027154767
  0
LINE
  5
58F
100
AcDbEntity
  8
KONSTRUKTIONSELEMENTE
100
AcDbLine
 62
7
  6
CONTINUOUS
 10
738.0117359893
 20
202.6761898287
 11
738.1788920099
 21
202.1894693453
  0
LINE
  5
590
100
AcDbEntity
  8
KONSTRUKTIONSELEMENTE
100
AcDbLine
 62
7
  6
CONTINUOUS
 10
738.1788920099
 20
202.1894693453
 11
739.0587971943
 21
199.6271324314
  0
LINE
  5
591
100
AcDbEntity
  8
KONSTRUKTIONSELEMENTE
100
AcDbLine
 62
7
  6
CONTINUOUS
 10
739.0587971943
 20
199.6271324314
 11
739.1015176809
 21
199.5027154767
  0
LINE
  5
592
100
AcDbEntity
  8
KONSTRUKTIONSELEMENTE
100
AcDbLine
 62
7
  6
CONTINUOUS
 10
738.6826484798
 20
199.2721894624
 11
738.6104563486
 21
199.5362656515
  0
LINE
  5
593
100
AcDbEntity
  8
KONSTRUKTIONSELEMENTE
100
AcDbLine
 62
7
  6
CONTINUOUS
 10
738.6104563486
 20
199.5362656515
 11
738.503924391
 21
199.859892292
  0
LINE
  5
594
100
AcDbEntity
  8
KONSTRUKTIONSELEMENTE
100
AcDbLine
 62
7
  6
CONTINUOUS
 10
738.3984590412
 20
200.1472754571
 11
738.503924391
 21
199.859892292
  0
LINE
  5
595
100
AcDbEntity
  8
KONSTRUKTIONSELEMENTE
100
AcDbLine
 62
7
  6
CONTINUOUS
 10
738.294020734
 20
200.39841461
 11
738.3984590412
 21
200.1472754571
  0
LINE
  5
596
100
AcDbEntity
  8
KONSTRUKTIONSELEMENTE
100
AcDbLine
 62
7
  6
CONTINUOUS
 10
738.2254747987
 20
200.5175156165
 11
738.2769871647
 21
200.4280739107
  0
LINE
  5
597
100
AcDbEntity
  8
KONSTRUKTIONSELEMENTE
100
AcDbLine
 62
7
  6
CONTINUOUS
 10
738.2769871647
 20
200.4280739107
 11
738.294020734
 21
200.39841461
  0
SPLINE
  5
598
100
AcDbEntity
  8
KONSTRUKTIONSELEMENTE
100
AcDbSpline
 62
7
  6
CONTINUOUS
 70
0
 71
3
 72
9
 73
5
 74
0
 42
0.0000001
 43
0.0000001
 44
0.0000000001
 40
0.0
 40
0.0
 40
0.0
 40
0.0
 40
0.546714193
 40
1.0
 40
1.0
 40
1.0
 40
1.0
 10
747.6828121152
 20
133.7258977434
 30
0.0
 10
747.6828121152
 20
133.278672597
 30
0.0
 10
747.5925991229
 20
132.4527808531
 30
0.0
 10
747.1886887044
 20
131.7020684774
 30
0.0
 10
746.9280951341
 20
131.4382834692
 30
0.0
  0
LINE
  5
599
100
AcDbEntity
  8
KONSTRUKTIONSELEMENTE
100
AcDbLine
 62
7
  6
CONTINUOUS
 10
739.6523112669
 20
195.5751230651
 11
739.5832909515
 21
195.7635527003
  0
LINE
  5
59A
100
AcDbEntity
  8
KONSTRUKTIONSELEMENTE
100
AcDbLine
 62
7
  6
CONTINUOUS
 10
739.5832909515
 20
195.7635527003
 11
738.8461202859
 21
197.7755242672
  0
LINE
  5
59B
100
AcDbEntity
  8
KONSTRUKTIONSELEMENTE
100
AcDbLine
 62
7
  6
CONTINUOUS
 10
738.8461202859
 20
197.7755242672
 11
738.8412045849
 21
197.7889377449
  0
LINE
  5
59C
100
AcDbEntity
  8
KONSTRUKTIONSELEMENTE
100
AcDbLine
 62
7
  6
CONTINUOUS
 10
738.8412045849
 20
197.7889377449
 11
738.6354452253
 21
198.3503617127
  0
LINE
  5
59D
100
AcDbEntity
  8
KONSTRUKTIONSELEMENTE
100
AcDbLine
 62
7
  6
CONTINUOUS
 10
738.6354452253
 20
198.3503617127
 11
738.5646277424
 21
198.5435766633
  0
LINE
  5
59E
100
AcDbEntity
  8
KONSTRUKTIONSELEMENTE
100
AcDbLine
 62
7
  6
CONTINUOUS
 10
738.5646277424
 20
198.5435766633
 11
738.1086667695
 21
199.7874430278
  0
LINE
  5
59F
100
AcDbEntity
  8
KONSTRUKTIONSELEMENTE
100
AcDbLine
 62
7
  6
CONTINUOUS
 10
738.1086667695
 20
199.7874430278
 11
738.0023444146
 21
200.0774556504
  0
SPLINE
  5
5A0
100
AcDbEntity
  8
BEZUGSACHSEN
100
AcDbSpline
 62
7
  6
CONTINUOUS
 70
0
 71
3
 72
11
 73
7
 74
0
 42
0.0000001
 43
0.0000001
 44
0.0000000001
 40
0.0
 40
0.0
 40
0.0
 40
0.0
 40
0.2516599876
 40
0.5000000005
 40
0.7483400135
 40
1.0
 40
1.0
 40
1.0
 40
1.0
 10
731.455450502
 20
208.0133653282
 30
0.0
 10
731.2930671632
 20
207.3670955247
 30
0.0
 10
731.038120004
 20
206.0643840741
 30
0.0
 10
730.9049155282
 20
204.0817021151
 30
0.0
 10
731.0381199998
 20
202.0990201582
 30
0.0
 10
731.2930671639
 20
200.7963087113
 30
0.0
 10
731.455450502
 20
200.1500389106
 30
0.0
  0
SPLINE
  5
5A1
100
AcDbEntity
  8
BEZUGSACHSEN
100
AcDbSpline
 62
7
  6
CONTINUOUS
 70
0
 71
3
 72
9
 73
5
 74
0
 42
0.0000001
 43
0.0000001
 44
0.0000000001
 40
0.0
 40
0.0
 40
0.0
 40
0.0
 40
0.5001658481
 40
1.0
 40
1.0
 40
1.0
 40
1.0
 10
731.455450502
 20
200.1500389106
 30
0.0
 10
731.2027499274
 20
198.0086479807
 30
0.0
 10
730.8723686691
 20
193.7036951406
 30
0.0
 10
730.958321326
 20
189.3858888067
 30
0.0
 10
731.1009005632
 20
187.2357913257
 30
0.0
  0
SPLINE
  5
5A2
100
AcDbEntity
  8
0
100
AcDbSpline
 62
7
  6
CONTINUOUS
 70
0
 71
3
 72
9
 73
5
 74
0
 42
0.0000001
 43
0.0000001
 44
0.0000000001
 40
0.0
 40
0.0
 40
0.0
 40
0.0
 40
0.4905252176
 40
1.0
 40
1.0
 40
1.0
 40
1.0
 10
738.0894083678
 20
136.955215594
 30
0.0
 10
737.5136096083
 20
136.4251916178
 30
0.0
 10
736.1044407248
 20
135.5847764999
 30
0.0
 10
734.4956494284
 20
135.305786665
 30
0.0
 10
733.6828121152
 20
135.305786665
 30
0.0
  0
LINE
  5
5A3
100
AcDbEntity
  8
KONSTRUKTIONSELEMENTE
100
AcDbLine
 62
7
  6
CONTINUOUS
 10
738.9319530411
 20
198.4204104955
 11
739.1533019999
 21
197.9016333226
  0
SPLINE
  5
5A4
100
AcDbEntity
  8
KONSTRUKTIONSELEMENTE
100
AcDbSpline
 62
7
  6
CONTINUOUS
 70
0
 71
3
 72
8
 73
4
 74
0
 42
0.0000001
 43
0.0000001
 44
0.0000000001
 40
0.0
 40
0.0
 40
0.0
 40
0.0
 40
1.0
 40
1.0
 40
1.0
 40
1.0
 10
739.1533019999
 20
197.9016333226
 30
0.0
 10
739.2645262299
 20
197.6405711901
 30
0.0
 10
739.3755352378
 20
197.3794172259
 30
0.0
 10
739.4862970426
 20
197.1181585629
 30
0.0
  0
LINE
  5
5A5
100
AcDbEntity
  8
KONSTRUKTIONSELEMENTE
100
AcDbLine
 62
7
  6
CONTINUOUS
 10
739.4862970426
 20
197.1181585629
 11
739.5711000135
 21
196.9179936098
  0
LINE
  5
5A6
100
AcDbEntity
  8
KONSTRUKTIONSELEMENTE
100
AcDbLine
 62
7
  6
CONTINUOUS
 10
739.5711000135
 20
196.9179936098
 11
739.663879457
 21
196.6986801597
  0
SPLINE
  5
5A7
100
AcDbEntity
  8
KONSTRUKTIONSELEMENTE
100
AcDbSpline
 62
7
  6
CONTINUOUS
 70
0
 71
3
 72
11
 73
7
 74
0
 42
0.0000001
 43
0.0000001
 44
0.0000000001
 40
0.0
 40
0.0
 40
0.0
 40
0.0
 40
0.3553378805
 40
0.4919447206
 40
0.6464666697
 40
1.0
 40
1.0
 40
1.0
 40
1.0
 10
577.9094759805
 20
64.127923455
 30
0.0
 10
577.647070051
 20
64.3550944268
 30
0.0
 10
577.039936536
 20
64.2253429318
 30
0.0
 10
576.4895723865
 20
63.9608064129
 30
0.0
 10
575.9430140431
 20
63.6354304523
 30
0.0
 10
575.5519274497
 20
63.3302414682
 30
0.0
 10
575.2908931294
 20
63.1041791156
 30
0.0
  0
SPLINE
  5
5A8
100
AcDbEntity
  8
KONSTRUKTIONSELEMENTE
100
AcDbSpline
 62
7
  6
CONTINUOUS
 70
0
 71
3
 72
9
 73
5
 74
0
 42
0.0000001
 43
0.0000001
 44
0.0000000001
 40
0.0
 40
0.0
 40
0.0
 40
0.0
 40
0.5635000033
 40
1.0
 40
1.0
 40
1.0
 40
1.0
 10
574.1687251135
 20
73.7630946504
 30
0.0
 10
574.2911606608
 20
74.0108050317
 30
0.0
 10
574.4821553802
 20
74.4634506276
 30
0.0
 10
574.5837863482
 20
74.9514898298
 30
0.0
 10
574.5837863482
 20
75.1655310369
 30
0.0
  0
SPLINE
  5
5A9
100
AcDbEntity
  8
KONSTRUKTIONSELEMENTE
100
AcDbSpline
 62
7
  6
CONTINUOUS
 70
0
 71
3
 72
9
 73
5
 74
0
 42
0.0000001
 43
0.0000001
 44
0.0000000001
 40
0.0
 40
0.0
 40
0.0
 40
0.0
 40
0.5487156268
 40
1.0
 40
1.0
 40
1.0
 40
1.0
 10
574.5837863482
 20
59.7101609375
 30
0.0
 10
574.5837863482
 20
59.5670487655
 30
0.0
 10
574.6120755472
 20
59.3020387768
 30
0.0
 10
574.7571363442
 20
59.069381276
 30
0.0
 10
574.8461129455
 20
58.992331612
 30
0.0
  0
SPLINE
  5
5AA
100
AcDbEntity
  8
KONSTRUKTIONSELEMENTE
100
AcDbSpline
 62
7
  6
CONTINUOUS
 70
0
 71
3
 72
11
 73
7
 74
0
 42
0.0000001
 43
0.0000001
 44
0.0000000001
 40
0.0
 40
0.0
 40
0.0
 40
0.0
 40
0.3553378805
 40
0.4919447206
 40
0.6464666697
 40
1.0
 40
1.0
 40
1.0
 40
1.0
 10
577.5559225899
 20
63.4341096728
 30
0.0
 10
577.2935166604
 20
63.6612806447
 30
0.0
 10
576.6863831454
 20
63.5315291497
 30
0.0
 10
576.1360189959
 20
63.2669926307
 30
0.0
 10
575.5894606525
 20
62.9416166702
 30
0.0
 10
575.1983740591
 20
62.6364276861
 30
0.0
 10
574.9373397388
 20
62.4103653335
 30
0.0
  0
SPLINE
  5
5AB
100
AcDbEntity
  8
KONSTRUKTIONSELEMENTE
100
AcDbSpline
 62
7
  6
CONTINUOUS
 70
0
 71
3
 72
9
 73
5
 74
0
 42
0.0000001
 43
0.0000001
 44
0.0000000001
 40
0.0
 40
0.0
 40
0.0
 40
0.0
 40
0.6167870211
 40
1.0
 40
1.0
 40
1.0
 40
1.0
 10
610.4937248784
 20
77.6516896275
 30
0.0
 10
610.4766531338
 20
77.6110175483
 30
0.0
 10
610.4514125736
 20
77.5446726388
 30
0.0
 10
610.4660971571
 20
77.4635290571
 30
0.0
 10
610.486810525
 20
77.4455841051
 30
0.0
  0
SPLINE
  5
5AC
100
AcDbEntity
  8
KONSTRUKTIONSELEMENTE
100
AcDbSpline
 62
7
  6
CONTINUOUS
 70
0
 71
3
 72
10
 73
6
 74
0
 42
0.0000001
 43
0.0000001
 44
0.0000000001
 40
0.0
 40
0.0
 40
0.0
 40
0.0
 40
0.1889346049
 40
0.5351285558
 40
1.0
 40
1.0
 40
1.0
 40
1.0
 10
563.7022999576
 20
53.1470826871
 30
0.0
 10
563.7248243421
 20
53.127576401
 30
0.0
 10
563.8034107727
 20
53.0885871882
 30
0.0
 10
563.9667476903
 20
53.0971174544
 30
0.0
 10
564.0872976025
 20
53.1416551002
 30
0.0
 10
564.1539613257
 20
53.1721666363
 30
0.0
  0
SPLINE
  5
5AD
100
AcDbEntity
  8
KONSTRUKTIONSELEMENTE
100
AcDbSpline
 62
7
  6
CONTINUOUS
 70
0
 71
3
 72
9
 73
5
 74
0
 42
0.0000001
 43
0.0000001
 44
0.0000000001
 40
0.0
 40
0.0
 40
0.0
 40
0.0
 40
0.2183282735
 40
1.0
 40
1.0
 40
1.0
 40
1.0
 10
564.1539613257
 20
53.1721666363
 30
0.0
 10
564.1964143787
 20
53.191597112
 30
0.0
 10
564.3860273083
 20
53.2911075926
 30
0.0
 10
564.557932979
 20
53.4215354033
 30
0.0
 10
564.6842914116
 20
53.5309650159
 30
0.0
  0
SPLINE
  5
5AE
100
AcDbEntity
  8
KONSTRUKTIONSELEMENTE
100
AcDbSpline
 62
7
  6
CONTINUOUS
 70
0
 71
3
 72
11
 73
7
 74
0
 42
0.0000001
 43
0.0000001
 44
0.0000000001
 40
0.0
 40
0.0
 40
0.0
 40
0.0
 40
0.1801343243
 40
0.3968155518
 40
0.6687400903
 40
1.0
 40
1.0
 40
1.0
 40
1.0
 10
578.3816468514
 20
55.9304694335
 30
0.0
 10
578.4671851527
 20
55.8563971799
 30
0.0
 10
578.7053244425
 20
55.748530433
 30
0.0
 10
579.1329364404
 20
55.7540380462
 30
0.0
 10
579.6326956141
 20
55.8908773433
 30
0.0
 10
579.9772963345
 20
56.0520484265
 30
0.0
 10
580.1606729664
 20
56.1503925984
 30
0.0
  0
SPLINE
  5
5AF
100
AcDbEntity
  8
BEZUGSACHSEN
100
AcDbSpline
 62
7
  6
CONTINUOUS
 70
0
 71
3
 72
12
 73
8
 74
0
 42
0.0000001
 43
0.0000001
 44
0.0000000001
 40
0.0
 40
0.0
 40
0.0
 40
0.0
 40
0.1832504412
 40
0.3536563532
 40
0.5081425711
 40
0.6447042466
 40
1.0
 40
1.0
 40
1.0
 40
1.0
 10
626.909688156
 20
112.8323669214
 30
0.0
 10
627.0957580873
 20
112.9935082088
 30
0.0
 10
627.4644330625
 20
113.2943588647
 30
0.0
 10
628.0191542224
 20
113.6897970985
 30
0.0
 10
628.5578060007
 20
114.0101698101
 30
0.0
 10
629.3143382696
 20
114.3737952277
 30
0.0
 10
630.1491808291
 20
114.5525187121
 30
0.0
 10
630.5100180974
 20
114.2401759189
 30
0.0
  0
SPLINE
  5
5B0
100
AcDbEntity
  8
BEZUGSACHSEN
100
AcDbSpline
 62
7
  6
CONTINUOUS
 70
0
 71
3
 72
11
 73
7
 74
0
 42
0.0000001
 43
0.0000001
 44
0.0000000001
 40
0.0
 40
0.0
 40
0.0
 40
0.0
 40
0.3015812786
 40
0.5624690806
 40
0.7906401043
 40
1.0
 40
1.0
 40
1.0
 40
1.0
 10
633.9406117698
 20
115.4980081212
 30
0.0
 10
633.9754626502
 20
115.8201222232
 30
0.0
 10
634.0033019983
 20
116.4264473864
 30
0.0
 10
633.8908958569
 20
117.2742915837
 30
0.0
 10
633.6156748952
 20
117.9820571684
 30
0.0
 10
633.3126331997
 20
118.3543915259
 30
0.0
 10
633.1427745048
 20
118.5018247309
 30
0.0
  0
SPLINE
  5
5B1
100
AcDbEntity
  8
KONSTRUKTIONSELEMENTE
100
AcDbSpline
 62
7
  6
CONTINUOUS
 70
0
 71
3
 72
11
 73
7
 74
0
 42
0.0000001
 43
0.0000001
 44
0.0000000001
 40
0.0
 40
0.0
 40
0.0
 40
0.0
 40
0.22751792
 40
0.4932532384
 40
0.7625600707
 40
1.0
 40
1.0
 40
1.0
 40
1.0
 10
614.841125238
 20
74.7493837794
 30
0.0
 10
615.3200259438
 20
75.0062163585
 30
0.0
 10
616.2809688693
 20
75.7042828425
 30
0.0
 10
617.5818008049
 20
76.9853324103
 30
0.0
 10
618.7170666471
 20
78.4458098371
 30
0.0
 10
619.3200954123
 20
79.5046714807
 30
0.0
 10
619.5395883419
 20
80.0275959994
 30
0.0
  0
SPLINE
  5
5B2
100
AcDbEntity
  8
KONSTRUKTIONSELEMENTE
100
AcDbSpline
 62
7
  6
CONTINUOUS
 70
0
 71
3
 72
9
 73
5
 74
0
 42
0.0000001
 43
0.0000001
 44
0.0000000001
 40
0.0
 40
0.0
 40
0.0
 40
0.0
 40
0.4931623953
 40
1.0
 40
1.0
 40
1.0
 40
1.0
 10
580.555308798
 20
56.3620342544
 30
0.0
 10
580.6587752085
 20
56.4175228865
 30
0.0
 10
580.8370584883
 20
56.582494551
 30
0.0
 10
580.9784552922
 20
56.7785968633
 30
0.0
 10
581.0251551084
 20
56.8898554764
 30
0.0
  0
SPLINE
  5
5B3
100
AcDbEntity
  8
KONSTRUKTIONSELEMENTE
100
AcDbSpline
 62
7
  6
CONTINUOUS
 70
0
 71
3
 72
10
 73
6
 74
0
 42
0.0000001
 43
0.0000001
 44
0.0000000001
 40
0.0
 40
0.0
 40
0.0
 40
0.0
 40
0.1805529782
 40
0.5248657058
 40
1.0
 40
1.0
 40
1.0
 40
1.0
 10
614.022344431
 20
74.3837219266
 30
0.0
 10
614.0308977811
 20
74.3763117624
 30
0.0
 10
614.0623661734
 20
74.3621930904
 30
0.0
 10
614.1270076399
 20
74.3707171555
 30
0.0
 10
614.1740240584
 20
74.3916200208
 30
0.0
 10
614.200268856
 20
74.4056950032
 30
0.0
  0
SPLINE
  5
5B4
100
AcDbEntity
  8
BEZUGSACHSEN
100
AcDbSpline
 62
7
  6
CONTINUOUS
 70
0
 71
3
 72
17
 73
13
 74
0
 42
0.0000001
 43
0.0000001
 44
0.0000000001
 40
0.0
 40
0.0
 40
0.0
 40
0.0
 40
0.0291579765
 40
0.0611213738
 40
0.0979231462
 40
0.1406918411
 40
0.2452305574
 40
0.373688919
 40
0.5209585942
 40
0.6799306931
 40
0.8424232186
 40
1.0
 40
1.0
 40
1.0
 40
1.0
 10
623.3093582147
 20
105.924557924
 30
0.0
 10
623.2486292034
 20
105.9771253018
 30
0.0
 10
623.1406815851
 20
106.11133347
 30
0.0
 10
623.0458415814
 20
106.3674870678
 30
0.0
 10
623.0111033851
 20
106.6749786484
 30
0.0
 10
623.0452899934
 20
107.1829175124
 30
0.0
 10
623.2512838239
 20
107.9208507134
 30
0.0
 10
623.6861795583
 20
108.8760787457
 30
0.0
 10
624.3048015423
 20
109.9041104997
 30
0.0
 10
625.0719978098
 20
110.9446881932
 30
0.0
 10
625.9438269268
 20
111.9372532232
 30
0.0
 10
626.581561998
 20
112.5482013329
 30
0.0
 10
626.909688156
 20
112.8323669214
 30
0.0
  0
SPLINE
  5
5B5
100
AcDbEntity
  8
KONSTRUKTIONSELEMENTE
100
AcDbSpline
 62
7
  6
CONTINUOUS
 70
0
 71
3
 72
11
 73
7
 74
0
 42
0.0000001
 43
0.0000001
 44
0.0000000001
 40
0.0
 40
0.0
 40
0.0
 40
0.0
 40
0.2374427088
 40
0.5067456734
 40
0.7724796148
 40
1.0
 40
1.0
 40
1.0
 40
1.0
 10
582.9675906602
 20
61.5175543173
 30
0.0
 10
583.1870861838
 20
62.0404850161
 30
0.0
 10
583.7901126866
 20
63.0993452788
 30
0.0
 10
584.9253765744
 20
64.5598168181
 30
0.0
 10
586.2262017552
 20
65.8408640698
 30
0.0
 10
587.1871478157
 20
66.5389311465
 30
0.0
 10
587.6660537641
 20
66.7957665373
 30
0.0
  0
SPLINE
  5
5B6
100
AcDbEntity
  8
KONSTRUKTIONSELEMENTE
100
AcDbSpline
 62
7
  6
CONTINUOUS
 70
0
 71
3
 72
11
 73
7
 74
0
 42
0.0000001
 43
0.0000001
 44
0.0000000001
 40
0.0
 40
0.0
 40
0.0
 40
0.0
 40
0.3312528237
 40
0.6032079657
 40
0.8198699068
 40
1.0
 40
1.0
 40
1.0
 40
1.0
 10
614.2615936194
 20
81.0588507483
 30
0.0
 10
614.444984472
 20
81.1572025466
 30
0.0
 10
614.7896374611
 20
81.3183852321
 30
0.0
 10
615.2894465222
 20
81.4552432722
 30
0.0
 10
615.7171234736
 20
81.4606879468
 30
0.0
 10
615.9552249658
 20
81.3527301384
 30
0.0
 10
616.0407643005
 20
81.2786460367
 30
0.0
  0
SPLINE
  5
5B7
100
AcDbEntity
  8
KONSTRUKTIONSELEMENTE
100
AcDbSpline
 62
7
  6
CONTINUOUS
 70
0
 71
3
 72
10
 73
6
 74
0
 42
0.0000001
 43
0.0000001
 44
0.0000000001
 40
0.0
 40
0.0
 40
0.0
 40
0.0
 40
0.1991738367
 40
0.4396073466
 40
1.0
 40
1.0
 40
1.0
 40
1.0
 10
574.6286871368
 20
75.8866840763
 30
0.0
 10
574.6801021106
 20
76.1571504803
 30
0.0
 10
574.8687564952
 20
76.7394332496
 30
0.0
 10
575.479240007
 20
77.9817379662
 30
0.0
 10
576.1282102398
 20
78.8900614186
 30
0.0
 10
576.6251390605
 20
79.484266397
 30
0.0
  0
SPLINE
  5
5B8
100
AcDbEntity
  8
KONSTRUKTIONSELEMENTE
100
AcDbSpline
 62
7
  6
CONTINUOUS
 70
0
 71
3
 72
14
 73
10
 74
0
 42
0.0000001
 43
0.0000001
 44
0.0000000001
 40
0.0
 40
0.0
 40
0.0
 40
0.0
 40
0.3348342454
 40
0.4904765909
 40
0.6314752165
 40
0.7538658132
 40
0.8552007529
 40
0.9356064293
 40
1.0
 40
1.0
 40
1.0
 40
1.0
 10
614.8916261968
 20
125.2415986631
 30
0.0
 10
615.3048457996
 20
125.7357079498
 30
0.0
 10
615.9594018215
 20
126.4212190423
 30
0.0
 10
616.8934655957
 20
127.1994764782
 30
0.0
 10
617.5570325112
 20
127.6594331912
 30
0.0
 10
618.1758502065
 20
127.9941725415
 30
0.0
 10
618.7298688772
 20
128.1916302506
 30
0.0
 10
619.2060070272
 20
128.2484742751
 30
0.0
 10
619.48624519
 20
128.1689003491
 30
0.0
 10
619.5900893008
 20
128.1013632566
 30
0.0
  0
SPLINE
  5
5B9
100
AcDbEntity
  8
KONSTRUKTIONSELEMENTE
100
AcDbSpline
 62
7
  6
CONTINUOUS
 70
0
 71
3
 72
9
 73
5
 74
0
 42
0.0000001
 43
0.0000001
 44
0.0000000001
 40
0.0
 40
0.0
 40
0.0
 40
0.0
 40
0.257700987
 40
1.0
 40
1.0
 40
1.0
 40
1.0
 10
574.5837863482
 20
75.6908401436
 30
0.0
 10
574.5882228311
 20
75.707521875
 30
0.0
 10
574.6049052507
 20
75.7723943085
 30
0.0
 10
574.6194015078
 20
75.8378373978
 30
0.0
 10
574.6286871368
 20
75.8866840763
 30
0.0
  0
SPLINE
  5
5BA
100
AcDbEntity
  8
KONSTRUKTIONSELEMENTE
100
AcDbSpline
 62
7
  6
CONTINUOUS
 70
0
 71
3
 72
9
 73
5
 74
0
 42
0.0000001
 43
0.0000001
 44
0.0000000001
 40
0.0
 40
0.0
 40
0.0
 40
0.0
 40
0.2933152047
 40
1.0
 40
1.0
 40
1.0
 40
1.0
 10
560.7952041151
 20
55.8118961051
 30
0.0
 10
560.7952041151
 20
55.7891232027
 30
0.0
 10
560.7995110702
 20
55.712203661
 30
0.0
 10
560.8323970705
 20
55.6324907516
 30
0.0
 10
560.8738728329
 20
55.5965724299
 30
0.0
  0
SPLINE
  5
5BB
100
AcDbEntity
  8
KONSTRUKTIONSELEMENTE
100
AcDbSpline
 62
7
  6
CONTINUOUS
 70
0
 71
3
 72
11
 73
7
 74
0
 42
0.0000001
 43
0.0000001
 44
0.0000000001
 40
0.0
 40
0.0
 40
0.0
 40
0.0
 40
0.2857886869
 40
0.5710293088
 40
0.8184092914
 40
1.0
 40
1.0
 40
1.0
 40
1.0
 10
561.8558642869
 20
62.5304547587
 30
0.0
 10
561.7107287853
 20
62.4047637273
 30
0.0
 10
561.4406750183
 20
62.1304028456
 30
0.0
 10
561.1081192431
 20
61.6895444365
 30
0.0
 10
560.8792897681
 20
61.2679540605
 30
0.0
 10
560.7952041151
 20
60.983890892
 30
0.0
 10
560.7952041151
 20
60.8618961051
 30
0.0
  0
SPLINE
  5
5BC
100
AcDbEntity
  8
KONSTRUKTIONSELEMENTE
100
AcDbSpline
 62
7
  6
CONTINUOUS
 70
0
 71
3
 72
9
 73
5
 74
0
 42
0.0000001
 43
0.0000001
 44
0.0000000001
 40
0.0
 40
0.0
 40
0.0
 40
0.0
 40
0.2356745602
 40
1.0
 40
1.0
 40
1.0
 40
1.0
 10
574.9373397388
 20
75.3846539257
 30
0.0
 10
574.9274460778
 20
75.3474525209
 30
0.0
 10
574.8825499509
 20
75.1903797428
 30
0.0
 10
574.8270275038
 20
75.0364469678
 30
0.0
 10
574.7803429143
 20
74.9206611433
 30
0.0
  0
SPLINE
  5
5BD
100
AcDbEntity
  8
KONSTRUKTIONSELEMENTE
100
AcDbSpline
 62
7
  6
CONTINUOUS
 70
0
 71
3
 72
11
 73
7
 74
0
 42
0.0000001
 43
0.0000001
 44
0.0000000001
 40
0.0
 40
0.0
 40
0.0
 40
0.0
 40
0.2237292561
 40
0.476740435
 40
0.7417195398
 40
1.0
 40
1.0
 40
1.0
 40
1.0
 10
574.7615571149
 20
74.8747286638
 30
0.0
 10
574.6389873799
 20
74.5791903701
 30
0.0
 10
574.3215083584
 20
73.9727183571
 30
0.0
 10
573.7224201846
 20
73.0953475526
 30
0.0
 10
573.0061948395
 20
72.2448824845
 30
0.0
 10
572.4689421818
 20
71.721649828
 30
0.0
 10
572.1897340336
 20
71.4798484787
 30
0.0
  0
SPLINE
  5
5BE
100
AcDbEntity
  8
KONSTRUKTIONSELEMENTE
100
AcDbSpline
 62
7
  6
CONTINUOUS
 70
0
 71
3
 72
12
 73
8
 74
0
 42
0.0000001
 43
0.0000001
 44
0.0000000001
 40
0.0
 40
0.0
 40
0.0
 40
0.0
 40
0.3358890466
 40
0.6331184293
 40
0.7558878341
 40
0.8575228726
 40
1.0
 40
1.0
 40
1.0
 40
1.0
 10
605.6643766757
 20
113.4791222285
 30
0.0
 10
605.7883502282
 20
113.627364188
 30
0.0
 10
606.0412965164
 20
113.8912687251
 30
0.0
 10
606.3842457242
 20
114.161613676
 30
0.0
 10
606.650669772
 20
114.304819985
 30
0.0
 10
606.8457610564
 20
114.3764170967
 30
0.0
 10
607.0051982143
 20
114.3817433359
 30
0.0
 10
607.0739156069
 20
114.3370516066
 30
0.0
  0
SPLINE
  5
5BF
100
AcDbEntity
  8
KONSTRUKTIONSELEMENTE
100
AcDbSpline
 62
7
  6
CONTINUOUS
 70
0
 71
3
 72
12
 73
8
 74
0
 42
0.0000001
 43
0.0000001
 44
0.0000000001
 40
0.0
 40
0.0
 40
0.0
 40
0.0
 40
0.1424771274
 40
0.2441121659
 40
0.3668815707
 40
0.6641109534
 40
1.0
 40
1.0
 40
1.0
 40
1.0
 10
608.5680968005
 20
113.3652810106
 30
0.0
 10
608.6368141931
 20
113.3205892812
 30
0.0
 10
608.796251351
 20
113.3259155205
 30
0.0
 10
608.9913426354
 20
113.3975126322
 30
0.0
 10
609.2577666832
 20
113.5407189412
 30
0.0
 10
609.600715891
 20
113.8110638921
 30
0.0
 10
609.8536621792
 20
114.0749684291
 30
0.0
 10
609.9776357317
 20
114.2232103886
 30
0.0
  0
SPLINE
  5
5C0
100
AcDbEntity
  8
BEZUGSACHSEN
100
AcDbSpline
 62
7
  6
CONTINUOUS
 70
0
 71
3
 72
12
 73
8
 74
0
 42
0.0000001
 43
0.0000001
 44
0.0000000001
 40
0.0
 40
0.0
 40
0.0
 40
0.0
 40
0.1832504412
 40
0.3536563532
 40
0.5081425711
 40
0.6447042466
 40
1.0
 40
1.0
 40
1.0
 40
1.0
 10
626.909688156
 20
107.3323669214
 30
0.0
 10
626.7236182248
 20
107.1712256341
 30
0.0
 10
626.3549432495
 20
106.8703749782
 30
0.0
 10
625.8002220897
 20
106.4749367444
 30
0.0
 10
625.2615703113
 20
106.1545640328
 30
0.0
 10
624.5050380425
 20
105.7909386151
 30
0.0
 10
623.670195483
 20
105.6122151307
 30
0.0
 10
623.3093582147
 20
105.924557924
 30
0.0
  0
SPLINE
  5
5C1
100
AcDbEntity
  8
KONSTRUKTIONSELEMENTE
100
AcDbSpline
 62
7
  6
CONTINUOUS
 70
0
 71
3
 72
9
 73
5
 74
0
 42
0.0000001
 43
0.0000001
 44
0.0000000001
 40
0.0
 40
0.0
 40
0.0
 40
0.0
 40
0.5487156268
 40
1.0
 40
1.0
 40
1.0
 40
1.0
 10
578.1193202542
 20
56.6482987591
 30
0.0
 10
578.1193202542
 20
56.505186587
 30
0.0
 10
578.1476094531
 20
56.2401765984
 30
0.0
 10
578.2926702501
 20
56.0075190975
 30
0.0
 10
578.3816468514
 20
55.9304694335
 30
0.0
  0
SPLINE
  5
5C2
100
AcDbEntity
  8
BEZUGSACHSEN
100
AcDbSpline
 62
7
  6
CONTINUOUS
 70
0
 71
3
 72
11
 73
7
 74
0
 42
0.0000001
 43
0.0000001
 44
0.0000000001
 40
0.0
 40
0.0
 40
0.0
 40
0.0
 40
0.2070155551
 40
0.4340974801
 40
0.695752447
 40
1.0
 40
1.0
 40
1.0
 40
1.0
 10
630.5100180974
 20
114.2401759189
 30
0.0
 10
630.5709982389
 20
114.1873911613
 30
0.0
 10
630.6793397812
 20
114.0524759254
 30
0.0
 10
630.7741766908
 20
113.7948651249
 30
0.0
 10
630.8083725519
 20
113.4856426049
 30
0.0
 10
630.7931621672
 20
113.2647059411
 30
0.0
 10
630.7777967621
 20
113.1471724923
 30
0.0
  0
SPLINE
  5
5C3
100
AcDbEntity
  8
BEZUGSACHSEN
100
AcDbSpline
 62
7
  6
CONTINUOUS
 70
0
 71
3
 72
9
 73
5
 74
0
 42
0.0000001
 43
0.0000001
 44
0.0000000001
 40
0.0
 40
0.0
 40
0.0
 40
0.0
 40
0.2550126305
 40
1.0
 40
1.0
 40
1.0
 40
1.0
 10
627.7774313826
 20
108.1531808055
 30
0.0
 10
627.7066150784
 20
108.0803967246
 30
0.0
 10
627.4260124297
 20
107.7978336961
 30
0.0
 10
627.1339469965
 20
107.5265807743
 30
0.0
 10
626.909688156
 20
107.3323669214
 30
0.0
  0
SPLINE
  5
5C4
100
AcDbEntity
  8
KONSTRUKTIONSELEMENTE
100
AcDbSpline
 62
7
  6
CONTINUOUS
 70
0
 71
3
 72
9
 73
5
 74
0
 42
0.0000001
 43
0.0000001
 44
0.0000000001
 40
0.0
 40
0.0
 40
0.0
 40
0.0
 40
0.5486959742
 40
1.0
 40
1.0
 40
1.0
 40
1.0
 10
578.1193202542
 20
63.5536688584
 30
0.0
 10
578.1193202542
 20
63.6681512859
 30
0.0
 10
578.0966800776
 20
63.8801427658
 30
0.0
 10
577.9806664946
 20
64.0662921561
 30
0.0
 10
577.9094759805
 20
64.127923455
 30
0.0
  0
SPLINE
  5
5C5
100
AcDbEntity
  8
KONSTRUKTIONSELEMENTE
100
AcDbSpline
 62
7
  6
CONTINUOUS
 70
0
 71
3
 72
11
 73
7
 74
0
 42
0.0000001
 43
0.0000001
 44
0.0000000001
 40
0.0
 40
0.0
 40
0.0
 40
0.0
 40
0.1734515454
 40
0.3882688685
 40
0.663174106
 40
1.0
 40
1.0
 40
1.0
 40
1.0
 10
616.0407643005
 20
81.2786460367
 30
0.0
 10
616.135674001
 20
81.1964464271
 30
0.0
 10
616.2870714203
 20
80.9407486729
 30
0.0
 10
616.3221529175
 20
80.4530704582
 30
0.0
 10
616.216023521
 20
79.8608812272
 30
0.0
 10
616.0660598478
 20
79.442344647
 30
0.0
 10
615.971694336
 20
79.2175262899
 30
0.0
  0
SPLINE
  5
5C6
100
AcDbEntity
  8
KONSTRUKTIONSELEMENTE
100
AcDbSpline
 62
7
  6
CONTINUOUS
 70
0
 71
3
 72
12
 73
8
 74
0
 42
0.0000001
 43
0.0000001
 44
0.0000000001
 40
0.0
 40
0.0
 40
0.0
 40
0.0
 40
0.285559551
 40
0.5706148512
 40
0.8178318854
 40
0.9180775674
 40
1.0
 40
1.0
 40
1.0
 40
1.0
 10
575.2908931294
 20
67.6541791156
 30
0.0
 10
575.677891738
 20
67.9893297419
 30
0.0
 10
576.3986694571
 20
68.7215103
 30
0.0
 10
577.2828065988
 20
69.8947592585
 30
0.0
 10
577.8306241418
 20
70.8973522393
 30
0.0
 10
578.0709421187
 20
71.6305257636
 30
0.0
 10
578.1193202542
 20
71.9567983571
 30
0.0
 10
578.1193202542
 20
72.1036688584
 30
0.0
  0
SPLINE
  5
5C7
100
AcDbEntity
  8
KONSTRUKTIONSELEMENTE
100
AcDbSpline
 62
7
  6
CONTINUOUS
 70
0
 71
3
 72
12
 73
8
 74
0
 42
0.0000001
 43
0.0000001
 44
0.0000000001
 40
0.0
 40
0.0
 40
0.0
 40
0.0
 40
0.1424771274
 40
0.2441121659
 40
0.3668815707
 40
0.6641109534
 40
1.0
 40
1.0
 40
1.0
 40
1.0
 10
610.4683645518
 20
109.0769909741
 30
0.0
 10
610.5370819443
 20
109.0322992448
 30
0.0
 10
610.6965191023
 20
109.037625484
 30
0.0
 10
610.8916103866
 20
109.1092225958
 30
0.0
 10
611.1580344344
 20
109.2524289048
 30
0.0
 10
611.5009836422
 20
109.5227738556
 30
0.0
 10
611.7539299304
 20
109.7866783927
 30
0.0
 10
611.8779034829
 20
109.9349203522
 30
0.0
  0
SPLINE
  5
5C8
100
AcDbEntity
  8
KONSTRUKTIONSELEMENTE
100
AcDbSpline
 62
7
  6
CONTINUOUS
 70
0
 71
3
 72
10
 73
6
 74
0
 42
0.0000001
 43
0.0000001
 44
0.0000000001
 40
0.0
 40
0.0
 40
0.0
 40
0.0
 40
0.5603926534
 40
0.8008261633
 40
1.0
 40
1.0
 40
1.0
 40
1.0
 10
580.1606729664
 20
76.4224042185
 30
0.0
 10
579.6637441457
 20
75.8281992401
 30
0.0
 10
579.0147739129
 20
74.9198757877
 30
0.0
 10
578.4042904011
 20
73.6775710712
 30
0.0
 10
578.2156360165
 20
73.0952883018
 30
0.0
 10
578.1642210428
 20
72.8248218978
 30
0.0
  0
SPLINE
  5
5C9
100
AcDbEntity
  8
KONSTRUKTIONSELEMENTE
100
AcDbSpline
 62
7
  6
CONTINUOUS
 70
0
 71
3
 72
14
 73
10
 74
0
 42
0.0000001
 43
0.0000001
 44
0.0000000001
 40
0.0
 40
0.0
 40
0.0
 40
0.0
 40
0.0643929979
 40
0.1447975566
 40
0.2461315598
 40
0.3685259667
 40
0.5095271747
 40
0.6651688664
 40
1.0
 40
1.0
 40
1.0
 40
1.0
 10
623.1256232067
 20
125.0395010782
 30
0.0
 10
623.0217800172
 20
125.1070375715
 30
0.0
 10
622.7415455693
 20
125.1866116545
 30
0.0
 10
622.2654122664
 20
125.1297698001
 30
0.0
 10
621.7113894462
 20
124.9323136871
 30
0.0
 10
621.0925623394
 20
124.5975691101
 30
0.0
 10
620.4289870718
 20
124.1376050388
 30
0.0
 10
619.4949265788
 20
123.3593471795
 30
0.0
 10
618.8403758758
 20
122.6738411918
 30
0.0
 10
618.4271601028
 20
122.1797364846
 30
0.0
  0
SPLINE
  5
5CA
100
AcDbEntity
  8
KONSTRUKTIONSELEMENTE
100
AcDbSpline
 62
7
  6
CONTINUOUS
 70
0
 71
3
 72
9
 73
5
 74
0
 42
0.0000001
 43
0.0000001
 44
0.0000000001
 40
0.0
 40
0.0
 40
0.0
 40
0.0
 40
0.6167870211
 40
1.0
 40
1.0
 40
1.0
 40
1.0
 10
614.0292587843
 20
74.5898274491
 30
0.0
 10
614.0121870397
 20
74.5491553698
 30
0.0
 10
613.9869464795
 20
74.4828104603
 30
0.0
 10
614.0016310631
 20
74.4016668786
 30
0.0
 10
614.022344431
 20
74.3837219266
 30
0.0
  0
SPLINE
  5
5CB
100
AcDbEntity
  8
KONSTRUKTIONSELEMENTE
100
AcDbSpline
 62
7
  6
CONTINUOUS
 70
0
 71
3
 72
9
 73
5
 74
0
 42
0.0000001
 43
0.0000001
 44
0.0000000001
 40
0.0
 40
0.0
 40
0.0
 40
0.0
 40
0.2423077675
 40
1.0
 40
1.0
 40
1.0
 40
1.0
 10
578.1642210428
 20
72.8248218978
 30
0.0
 10
578.161189931
 20
72.8088768562
 30
0.0
 10
578.1480295942
 20
72.7431963989
 30
0.0
 10
578.1323644626
 20
72.6780258229
 30
0.0
 10
578.1193202542
 20
72.6289779651
 30
0.0
  0
SPLINE
  5
5CC
100
AcDbEntity
  8
KONSTRUKTIONSELEMENTE
100
AcDbSpline
 62
7
  6
CONTINUOUS
 70
0
 71
3
 72
11
 73
7
 74
0
 42
0.0000001
 43
0.0000001
 44
0.0000000001
 40
0.0
 40
0.0
 40
0.0
 40
0.0
 40
0.3179594006
 40
0.6021603801
 40
0.8341697945
 40
1.0
 40
1.0
 40
1.0
 40
1.0
 10
614.7324797395
 20
118.6278115817
 30
0.0
 10
614.8583855487
 20
118.6969373146
 30
0.0
 10
615.0917487496
 20
118.8371043904
 30
0.0
 10
615.3963763613
 20
119.061251718
 30
0.0
 10
615.6187616347
 20
119.2735407146
 30
0.0
 10
615.7234757263
 20
119.4265690285
 30
0.0
 10
615.7446880882
 20
119.4984144458
 30
0.0
  0
SPLINE
  5
5CD
100
AcDbEntity
  8
KONSTRUKTIONSELEMENTE
100
AcDbSpline
 62
7
  6
CONTINUOUS
 70
0
 71
3
 72
12
 73
8
 74
0
 42
0.0000001
 43
0.0000001
 44
0.0000000001
 40
0.0
 40
0.0
 40
0.0
 40
0.0
 40
0.3170063993
 40
0.6103325802
 40
0.8455669766
 40
0.9329438759
 40
1.0
 40
1.0
 40
1.0
 40
1.0
 10
616.3182661772
 20
117.2544802418
 30
0.0
 10
616.3818302887
 20
117.4408012619
 30
0.0
 10
616.4840437173
 20
117.8071278329
 30
0.0
 10
616.5633102538
 20
118.3265479068
 30
0.0
 10
616.5618816051
 20
118.7140556352
 30
0.0
 10
616.498132731
 20
118.9487598813
 30
0.0
 10
616.4447460266
 20
119.0324267366
 30
0.0
 10
616.4133329238
 20
119.0597641812
 30
0.0
  0
SPLINE
  5
5CE
100
AcDbEntity
  8
KONSTRUKTIONSELEMENTE
100
AcDbSpline
 62
7
  6
CONTINUOUS
 70
0
 71
3
 72
12
 73
8
 74
0
 42
0.0000001
 43
0.0000001
 44
0.0000000001
 40
0.0
 40
0.0
 40
0.0
 40
0.0
 40
0.3358890466
 40
0.6331184293
 40
0.7558878341
 40
0.8575228726
 40
1.0
 40
1.0
 40
1.0
 40
1.0
 10
608.4928038004
 20
111.0296324858
 30
0.0
 10
608.616777353
 20
111.1778744453
 30
0.0
 10
608.8697236412
 20
111.4417789823
 30
0.0
 10
609.212672849
 20
111.7121239332
 30
0.0
 10
609.4790968968
 20
111.8553302422
 30
0.0
 10
609.6741881811
 20
111.9269273539
 30
0.0
 10
609.8336253391
 20
111.9322535932
 30
0.0
 10
609.9023427316
 20
111.8875618638
 30
0.0
  0
SPLINE
  5
5CF
100
AcDbEntity
  8
KONSTRUKTIONSELEMENTE
100
AcDbSpline
 62
7
  6
CONTINUOUS
 70
0
 71
3
 72
12
 73
8
 74
0
 42
0.0000001
 43
0.0000001
 44
0.0000000001
 40
0.0
 40
0.0
 40
0.0
 40
0.0
 40
0.1424771274
 40
0.2441121659
 40
0.3668815707
 40
0.6641109534
 40
1.0
 40
1.0
 40
1.0
 40
1.0
 10
611.3965239253
 20
110.9157912678
 30
0.0
 10
611.4652413178
 20
110.8710995384
 30
0.0
 10
611.6246784758
 20
110.8764257777
 30
0.0
 10
611.8197697601
 20
110.9480228894
 30
0.0
 10
612.0861938079
 20
111.0912291984
 30
0.0
 10
612.4291430157
 20
111.3615741493
 30
0.0
 10
612.6820893039
 20
111.6254786863
 30
0.0
 10
612.8060628565
 20
111.7737206458
 30
0.0
  0
SPLINE
  5
5D0
100
AcDbEntity
  8
KONSTRUKTIONSELEMENTE
100
AcDbSpline
 62
7
  6
CONTINUOUS
 70
0
 71
3
 72
12
 73
8
 74
0
 42
0.0000001
 43
0.0000001
 44
0.0000000001
 40
0.0
 40
0.0
 40
0.0
 40
0.0
 40
0.1424811492
 40
0.2441177604
 40
0.3669057908
 40
0.6640959048
 40
1.0
 40
1.0
 40
1.0
 40
1.0
 10
610.1148111612
 20
109.383177192
 30
0.0
 10
610.1835305268
 20
109.3384841794
 30
0.0
 10
610.342967919
 20
109.3438077772
 30
0.0
 10
610.5380824503
 20
109.4153917564
 30
0.0
 10
610.8044450995
 20
109.5586893797
 30
0.0
 10
611.1474575229
 20
109.8289283406
 30
0.0
 10
611.4003709254
 20
110.0928578971
 30
0.0
 10
611.5243500923
 20
110.24110657
 30
0.0
  0
SPLINE
  5
5D1
100
AcDbEntity
  8
KONSTRUKTIONSELEMENTE
100
AcDbSpline
 62
7
  6
CONTINUOUS
 70
0
 71
3
 72
11
 73
7
 74
0
 42
0.0000001
 43
0.0000001
 44
0.0000000001
 40
0.0
 40
0.0
 40
0.0
 40
0.0
 40
0.2857886869
 40
0.5710293088
 40
0.8184092914
 40
1.0
 40
1.0
 40
1.0
 40
1.0
 10
564.6842914116
 20
60.0809650159
 30
0.0
 10
564.53915591
 20
59.9552739845
 30
0.0
 10
564.269102143
 20
59.6809131028
 30
0.0
 10
563.9365463679
 20
59.2400546937
 30
0.0
 10
563.7077168928
 20
58.8184643177
 30
0.0
 10
563.6236312398
 20
58.5344011493
 30
0.0
 10
563.6236312398
 20
58.4124063624
 30
0.0
  0
SPLINE
  5
5D2
100
AcDbEntity
  8
KONSTRUKTIONSELEMENTE
100
AcDbSpline
 62
7
  6
CONTINUOUS
 70
0
 71
3
 72
11
 73
7
 74
0
 42
0.0000001
 43
0.0000001
 44
0.0000000001
 40
0.0
 40
0.0
 40
0.0
 40
0.0
 40
0.2071541493
 40
0.4584326515
 40
0.7313852971
 40
1.0
 40
1.0
 40
1.0
 40
1.0
 10
577.7657668636
 20
72.9351641829
 30
0.0
 10
577.680084561
 20
72.6129879914
 30
0.0
 10
577.3873416921
 20
71.9286570405
 30
0.0
 10
576.7654867966
 20
70.9267116837
 30
0.0
 10
575.9652946083
 20
69.9290770369
 30
0.0
 10
575.3449372504
 20
69.3133551331
 30
0.0
 10
575.0181611583
 20
69.0303587359
 30
0.0
  0
SPLINE
  5
5D3
100
AcDbEntity
  8
KONSTRUKTIONSELEMENTE
100
AcDbSpline
 62
7
  6
CONTINUOUS
 70
0
 71
3
 72
12
 73
8
 74
0
 42
0.0000001
 43
0.0000001
 44
0.0000000001
 40
0.0
 40
0.0
 40
0.0
 40
0.0
 40
0.2855672817
 40
0.5706138983
 40
0.8178266478
 40
0.9180835819
 40
1.0
 40
1.0
 40
1.0
 40
1.0
 10
574.9373397388
 20
67.9603653335
 30
0.0
 10
575.324348625
 20
68.2955248604
 30
0.0
 10
576.0451295478
 20
69.0277019137
 30
0.0
 10
576.929234912
 20
70.2009567336
 30
0.0
 10
577.4770876045
 20
71.203531606
 30
0.0
 10
577.7173701871
 20
71.9367167432
 30
0.0
 10
577.7657668636
 20
72.2629954333
 30
0.0
 10
577.7657668636
 20
72.4098550763
 30
0.0
  0
SPLINE
  5
5D4
100
AcDbEntity
  8
KONSTRUKTIONSELEMENTE
100
AcDbSpline
 62
7
  6
CONTINUOUS
 70
0
 71
3
 72
9
 73
5
 74
0
 42
0.0000001
 43
0.0000001
 44
0.0000000001
 40
0.0
 40
0.0
 40
0.0
 40
0.0
 40
0.2756955256
 40
1.0
 40
1.0
 40
1.0
 40
1.0
 10
577.7657668636
 20
63.8598550763
 30
0.0
 10
577.7657668636
 20
63.8950614457
 30
0.0
 10
577.7610051815
 20
64.0225105382
 30
0.0
 10
577.7349908203
 20
64.1506605102
 30
0.0
 10
577.6983279737
 20
64.2355777725
 30
0.0
  0
SPLINE
  5
5D5
100
AcDbEntity
  8
KONSTRUKTIONSELEMENTE
100
AcDbSpline
 62
7
  6
CONTINUOUS
 70
0
 71
3
 72
9
 73
5
 74
0
 42
0.0000001
 43
0.0000001
 44
0.0000000001
 40
0.0
 40
0.0
 40
0.0
 40
0.0
 40
0.5486959742
 40
1.0
 40
1.0
 40
1.0
 40
1.0
 10
577.7657668636
 20
62.8598550763
 30
0.0
 10
577.7657668636
 20
62.9743375038
 30
0.0
 10
577.743126687
 20
63.1863289837
 30
0.0
 10
577.627113104
 20
63.3724783739
 30
0.0
 10
577.5559225899
 20
63.4341096728
 30
0.0
  0
SPLINE
  5
5D6
100
AcDbEntity
  8
KONSTRUKTIONSELEMENTE
100
AcDbSpline
 62
7
  6
CONTINUOUS
 70
0
 71
3
 72
9
 73
5
 74
0
 42
0.0000001
 43
0.0000001
 44
0.0000000001
 40
0.0
 40
0.0
 40
0.0
 40
0.0
 40
0.2933152047
 40
1.0
 40
1.0
 40
1.0
 40
1.0
 10
563.6236312398
 20
53.3624063624
 30
0.0
 10
563.6236312398
 20
53.3396334599
 30
0.0
 10
563.627938195
 20
53.2627139183
 30
0.0
 10
563.6608241952
 20
53.1830010088
 30
0.0
 10
563.7022999576
 20
53.1470826871
 30
0.0
  0
SPLINE
  5
5D7
100
AcDbEntity
  8
0
100
AcDbSpline
 62
7
  6
CONTINUOUS
 70
0
 71
3
 72
9
 73
5
 74
0
 42
0.0000001
 43
0.0000001
 44
0.0000000001
 40
0.0
 40
0.0
 40
0.0
 40
0.0
 40
0.4873003976
 40
1.0
 40
1.0
 40
1.0
 40
1.0
 10
713.6828121152
 20
244.5836100603
 30
0.0
 10
713.6828121152
 20
245.7720210347
 30
0.0
 10
714.0302066636
 20
248.2220864416
 30
0.0
 10
715.0333792088
 20
250.4807733982
 30
0.0
 10
715.6782402885
 20
251.5520056114
 30
0.0
  0
SPLINE
  5
5D8
100
AcDbEntity
  8
0
100
AcDbSpline
 62
7
  6
CONTINUOUS
 70
0
 71
3
 72
9
 73
5
 74
0
 42
0.0000001
 43
0.0000001
 44
0.0000000001
 40
0.0
 40
0.0
 40
0.0
 40
0.0
 40
0.5127034822
 40
1.0
 40
1.0
 40
1.0
 40
1.0
 10
751.6867715265
 20
251.5530227618
 30
0.0
 10
752.3318238384
 20
250.481659733
 30
0.0
 10
753.335309993
 20
248.2226667625
 30
0.0
 10
753.6828121152
 20
245.7722028438
 30
0.0
 10
753.6828121152
 20
244.5836100603
 30
0.0
  0
SPLINE
  5
5D9
100
AcDbEntity
  8
0
100
AcDbSpline
 62
7
  6
CONTINUOUS
 70
0
 71
3
 72
13
 73
9
 74
0
 42
0.0000001
 43
0.0000001
 44
0.0000000001
 40
0.0
 40
0.0
 40
0.0
 40
0.0
 40
0.1223476582
 40
0.2450054202
 40
0.3682741371
 40
0.4924221456
 40
0.743583916
 40
1.0
 40
1.0
 40
1.0
 40
1.0
 10
695.6828121152
 20
244.5836100603
 30
0.0
 10
695.6828121152
 20
246.1336591285
 30
0.0
 10
695.9186776034
 20
249.2427888856
 30
0.0
 10
696.970552179
 20
253.8054042954
 30
0.0
 10
698.6955707157
 20
258.1840518488
 30
0.0
 10
701.8465792755
 20
263.680644816
 30
0.0
 10
707.2752080334
 20
269.7061309253
 30
0.0
 10
712.7512734963
 20
273.2286491225
 30
0.0
 10
715.6778930351
 20
274.6386995236
 30
0.0
  0
SPLINE
  5
5DA
100
AcDbEntity
  8
0
100
AcDbSpline
 62
7
  6
CONTINUOUS
 70
0
 71
3
 72
13
 73
9
 74
0
 42
0.0000001
 43
0.0000001
 44
0.0000000001
 40
0.0
 40
0.0
 40
0.0
 40
0.0
 40
0.2564165753
 40
0.5075777031
 40
0.6317252921
 40
0.7549937542
 40
0.8776515804
 40
1.0
 40
1.0
 40
1.0
 40
1.0
 10
751.6829098412
 20
274.6410242681
 30
0.0
 10
754.6101474911
 20
273.2311934812
 30
0.0
 10
760.087411005
 20
269.7088144403
 30
0.0
 10
765.5173866111
 20
263.6829965458
 30
0.0
 10
768.6692160393
 20
258.1858633754
 30
0.0
 10
770.394703931
 20
253.8066955737
 30
0.0
 10
771.4468784216
 20
249.2434636114
 30
0.0
 10
771.6828121152
 20
246.1338860368
 30
0.0
 10
771.6828121152
 20
244.5836100603
 30
0.0
  0
SPLINE
  5
5DB
100
AcDbEntity
  8
0
100
AcDbSpline
 62
7
  6
CONTINUOUS
 70
0
 71
3
 72
15
 73
11
 74
0
 42
0.0000001
 43
0.0000001
 44
0.0000000001
 40
0.0
 40
0.0
 40
0.0
 40
0.0
 40
0.1210263734
 40
0.2425544432
 40
0.3650528432
 40
0.4889043809
 40
0.6143588799
 40
0.7414857592
 40
0.8701451865
 40
1.0
 40
1.0
 40
1.0
 40
1.0
 10
771.6828121152
 20
205.61246689
 30
0.0
 10
771.6828121152
 20
203.6300160414
 30
0.0
 10
771.2954929224
 20
199.6463182507
 30
0.0
 10
769.577956311
 20
193.8824886736
 30
0.0
 10
766.7915453297
 20
188.5000272826
 30
0.0
 10
763.0395997565
 20
183.6618406348
 30
0.0
 10
758.4500330789
 20
179.4992107304
 30
0.0
 10
753.1665923209
 20
176.1172954493
 30
0.0
 10
747.3468775583
 20
173.5968039354
 30
0.0
 10
743.2279450583
 20
172.5321650171
 30
0.0
 10
741.1341167991
 20
172.1576219809
 30
0.0
  0
SPLINE
  5
5DC
100
AcDbEntity
  8
0
100
AcDbSpline
 62
7
  6
CONTINUOUS
 70
0
 71
3
 72
11
 73
7
 74
0
 42
0.0000001
 43
0.0000001
 44
0.0000000001
 40
0.0
 40
0.0
 40
0.0
 40
0.0
 40
0.2543834442
 40
0.5062361032
 40
0.7548547962
 40
1.0
 40
1.0
 40
1.0
 40
1.0
 10
726.2284873475
 20
172.1581653373
 30
0.0
 10
724.0128533346
 20
172.5546761195
 30
0.0
 10
719.6585734635
 20
173.7008865736
 30
0.0
 10
713.5392627751
 20
176.4526275991
 30
0.0
 10
708.0426494413
 20
180.1589279585
 30
0.0
 10
704.8911332444
 20
183.2261623481
 30
0.0
 10
703.48525128
 20
184.8779668859
 30
0.0
  0
SPLINE
  5
5DD
100
AcDbEntity
  8
0
100
AcDbSpline
 62
7
  6
CONTINUOUS
 70
0
 71
3
 72
9
 73
5
 74
0
 42
0.0000001
 43
0.0000001
 44
0.0000000001
 40
0.0
 40
0.0
 40
0.0
 40
0.0
 40
0.5019372484
 40
1.0
 40
1.0
 40
1.0
 40
1.0
 10
699.9233184753
 20
189.9274545048
 30
0.0
 10
698.5562243357
 20
192.3042852274
 30
0.0
 10
696.4171343283
 20
197.4047559732
 30
0.0
 10
695.6828121152
 20
202.8916856996
 30
0.0
 10
695.6828121152
 20
205.61246689
 30
0.0
  0
SPLINE
  5
5DE
100
AcDbEntity
  8
0
100
AcDbSpline
 62
7
  6
CONTINUOUS
 70
0
 71
3
 72
14
 73
10
 74
0
 42
0.0000001
 43
0.0000001
 44
0.0000000001
 40
0.0
 40
0.0
 40
0.0
 40
0.0
 40
0.1072740202
 40
0.2171905397
 40
0.3319323781
 40
0.4529349831
 40
0.5807829267
 40
0.7152893391
 40
1.0
 40
1.0
 40
1.0
 40
1.0
 10
753.6828121152
 20
205.61246689
 30
0.0
 10
753.6828121152
 20
204.8238861854
 30
0.0
 10
753.5332661215
 20
203.2234737707
 30
0.0
 10
752.8601443129
 20
200.8646979523
 30
0.0
 10
751.7319925778
 20
198.5730059771
 30
0.0
 10
750.1506882141
 20
196.4027797156
 30
0.0
 10
748.1324055077
 20
194.4178825185
 30
0.0
 10
744.8537016164
 20
192.0689838238
 30
0.0
 10
741.9582520063
 20
190.8591810227
 30
0.0
 10
739.936930896
 20
190.3163832875
 30
0.0
  0
SPLINE
  5
5DF
100
AcDbEntity
  8
0
100
AcDbSpline
 62
7
  6
CONTINUOUS
 70
0
 71
3
 72
9
 73
5
 74
0
 42
0.0000001
 43
0.0000001
 44
0.0000000001
 40
0.0
 40
0.0
 40
0.0
 40
0.0
 40
0.5187603996
 40
1.0
 40
1.0
 40
1.0
 40
1.0
 10
727.4287780339
 20
190.3163645743
 30
0.0
 10
725.5696776647
 20
190.8155884545
 30
0.0
 10
722.0869918581
 20
192.2243702229
 30
0.0
 10
719.0959374515
 20
194.5150444516
 30
0.0
 10
717.8608455549
 20
195.8047703657
 30
0.0
  0
SPLINE
  5
5E0
100
AcDbEntity
  8
0
100
AcDbSpline
 62
7
  6
CONTINUOUS
 70
0
 71
3
 72
9
 73
5
 74
0
 42
0.0000001
 43
0.0000001
 44
0.0000000001
 40
0.0
 40
0.0
 40
0.0
 40
0.0
 40
0.5057276151
 40
1.0
 40
1.0
 40
1.0
 40
1.0
 10
714.503293074
 20
201.081053877
 30
0.0
 10
714.2332713717
 20
201.8121519688
 30
0.0
 10
713.8220842117
 20
203.3066446502
 30
0.0
 10
713.6828121152
 20
204.8507513043
 30
0.0
 10
713.6828121152
 20
205.61246689
 30
0.0
  0
ELLIPSE
  5
5E1
100
AcDbEntity
  8
KONSTRUKTIONSELEMENTE
100
AcDbEllipse
 62
7
  6
CONTINUOUS
 10
109.2506964787
 20
120.2786239289
 30
0.0
 11
1.5238181784
 21
-0.3601704405
 31
0.0
 40
0.0607989098
 41
-2.7235007144
 42
-1.1527043876
  0
ELLIPSE
  5
5E2
100
AcDbEntity
  8
KONSTRUKTIONSELEMENTE
100
AcDbEllipse
 62
7
  6
CONTINUOUS
 10
113.8193217191
 20
117.7582379251
 30
0.0
 11
-0.8214913299
 21
1.5347520336
 31
0.0
 40
0.7424978488
 41
4.1566475332
 42
5.72744386
  0
ELLIPSE
  5
5E3
100
AcDbEntity
  8
KONSTRUKTIONSELEMENTE
100
AcDbEllipse
 62
7
  6
CONTINUOUS
 10
140.0520338046
 20
100.6863024056
 30
0.0
 11
31.1769145362
 21
54.0
 31
0.0
 40
0.5773502692
 41
-0.3571758222
 42
-0.1561898301
  0
ELLIPSE
  5
5E4
100
AcDbEntity
  8
KONSTRUKTIONSELEMENTE
100
AcDbEllipse
 62
7
  6
CONTINUOUS
 10
140.0520338046
 20
100.6863024056
 30
0.0
 11
31.1769145362
 21
54.0
 31
0.0
 40
0.5773502692
 41
0.1561898301
 42
0.3571758222
  0
ELLIPSE
  5
5E5
100
AcDbEntity
  8
BEZUGSACHSEN
100
AcDbEllipse
 62
7
  6
CONTINUOUS
 10
451.2103324248
 20
100.6863024056
 30
0.0
 11
-31.1769145362
 21
54.0
 31
0.0
 40
0.5773502692
 41
-0.3571758222
 42
-0.1561898301
  0
ELLIPSE
  5
5E6
100
AcDbEntity
  8
BEZUGSACHSEN
100
AcDbEllipse
 62
7
  6
CONTINUOUS
 10
451.2103324248
 20
100.6863024056
 30
0.0
 11
-31.1769145362
 21
54.0
 31
0.0
 40
0.5773502692
 41
0.1561898301
 42
0.3571758222
  0
ELLIPSE
  5
5E7
100
AcDbEntity
  8
KONSTRUKTIONSELEMENTE
100
AcDbEllipse
 62
7
  6
CONTINUOUS
 10
780.7409062369
 20
100.6863024056
 30
0.0
 11
-35.0369636208
 21
56.6909980011
 31
0.0
 40
0.1458980338
 41
0.5642218358
 42
0.5889996267
  0
ELLIPSE
  5
5E8
100
AcDbEntity
  8
BEZUGSACHSEN
100
AcDbEllipse
 62
7
  6
CONTINUOUS
 10
686.6247179935
 20
100.6863024056
 30
0.0
 11
35.0369636208
 21
56.6909980011
 31
0.0
 40
0.1458980338
 41
-0.5889996267
 42
-0.5642218358
  0
ELLIPSE
  5
5E9
100
AcDbEntity
  8
RUNDUNGEN
100
AcDbEllipse
 62
7
  6
CONTINUOUS
 10
738.3796307668
 20
172.4804556105
 30
0.0
 11
0.4917496415
 21
7.9459163478
 31
0.0
 40
0.2511847582
 41
-4.3824699552
 42
-3.4256861865
  0
ELLIPSE
  5
5EA
100
AcDbEntity
  8
BEZUGSACHSEN
100
AcDbEllipse
 62
7
  6
CONTINUOUS
 10
728.9859934636
 20
172.4804556105
 30
0.0
 11
-0.4917496415
 21
7.9459163478
 31
0.0
 40
0.2511847582
 41
-2.8574991207
 42
-1.9007153519
  0
ELLIPSE
  5
5EB
100
AcDbEntity
  8
KONSTRUKTIONSELEMENTE
100
AcDbEllipse
 62
7
  6
CONTINUOUS
 10
614.0912929904
 20
122.7281136717
 30
0.0
 11
-0.1680321616
 21
2.0881838291
 31
0.0
 40
0.2046205075
 41
1.414284035
 42
2.9366355233
  0
ELLIPSE
  5
5EC
100
AcDbEntity
  8
KONSTRUKTIONSELEMENTE
100
AcDbEllipse
 62
7
  6
CONTINUOUS
 10
616.9197201151
 20
120.2786239289
 30
0.0
 11
2.0708637754
 21
0.1666384499
 31
0.0
 40
0.1605475814
 41
1.7760442449
 42
3.2983957332
  0
ELLIPSE
  5
5ED
100
AcDbEntity
  8
KONSTRUKTIONSELEMENTE
100
AcDbEllipse
 62
7
  6
CONTINUOUS
 10
617.7284212099
 20
117.7582379251
 30
0.0
 11
1.3731783745
 21
1.6153627742
 31
0.0
 40
0.2502772103
 41
-1.538620793
 42
0.0321755338
  0
ENDSEC
  0
SECTION
  2
OBJECTS
  0
DICTIONARY
  5
C
100
AcDbDictionary
280
0
281
1
  3
ACAD_GROUP
350
D
  3
ACAD_MLINESTYLE
350
17
  3
ACAD_LAYOUT
350
1A
  3
ACAD_PLOTSETTINGS
350
19
  3
ACAD_PLOTSTYLENAME
350
E
  0
DICTIONARY
  5
D
102
{ACAD_REACTORS
330
C
102
}
100
AcDbDictionary
280
0
281
1
  0
ACDBDICTIONARYWDFLT
  5
E
102
{ACAD_REACTORS
330
C
102
}
100
AcDbDictionary
281
1
  3
Normal
350
F
100
AcDbDictionaryWithDefault
340
F
  0
DICTIONARY
  5
17
102
{ACAD_REACTORS
330
C
102
}
100
AcDbDictionary
280
0
281
1
  3
Standard
350
18
  0
DICTIONARY
  5
19
102
{ACAD_REACTORS
330
C
102
}
100
AcDbDictionary
281
1
  0
DICTIONARY
  5
1A
102
{ACAD_REACTORS
330
C
102
}
100
AcDbDictionary
281
1
  3
Model
350
5EE
  3
Layout1
350
5EF
  0
ACDBPLACEHOLDER
  5
F
102
{ACAD_REACTORS
330
E
102
}
  0
MLINESTYLE
  5
18
102
{ACAD_REACTORS
330
17
102
}
100
AcDbMlineStyle
  2
STANDARD
 70
0
  3

 62
256
 51
90.0
 52
90.0
 71
2
 49
0.5
 62
256
  6
BYLAYER
 49
-0.5
 62
256
  6
BYLAYER
  0
LAYOUT
  5
5EE
102
{ACAD_REACTORS
330
1A
102
}
100
AcDbPlotSettings
  1

  2
none_device
  4
ISO_A0_(1189.00_x_841.00_MM)
  6

 40
0.0
 41
0.0
 42
0.0
 43
0.0
 44
1189.0
 45
841.0
 46
0.0
 47
0.0
 48
0.0
 49
0.0
140
0.0
141
0.0
142
1.0
143
1.0
 70
1024
 72
1
 73
0
 74
0
  7

 75
0
147
1.0
148
0.0
149
0.0
100
AcDbLayout
  1
Model
 70
0
 71
0
 10
0.0
 20
0.0
 11
1189.0
 21
841.0
 12
0.0
 22
0.0
 32
0.0
 14
0.0
 24
0.0
 34
0.0
 15
0.0
 25
0.0
 35
0.0
146
0.0
 13
0.0
 23
0.0
 33
0.0
 16
1.0
 26
0.0
 36
0.0
 17
0.0
 27
1.0
 37
0.0
 76
0
330
20D
345
0
346
0
  0
LAYOUT
  5
5EF
102
{ACAD_REACTORS
330
1A
102
}
100
AcDbPlotSettings
  1

  2
none_device
  4
ISO_A0_(1189.00_x_841.00_MM)
  6

 40
0.0
 41
0.0
 42
0.0
 43
0.0
 44
1189.0
 45
841.0
 46
0.0
 47
0.0
 48
0.0
 49
0.0
140
0.0
141
0.0
142
1.0
143
1.0
 70
0
 72
1
 73
0
 74
0
  7

 75
0
147
1.0
148
0.0
149
0.0
100
AcDbLayout
  1
Layout1
 70
0
 71
1
 10
0.0
 20
0.0
 11
1189.0
 21
841.0
 12
0.0
 22
0.0
 32
0.0
 14
0.0
 24
0.0
 34
0.0
 15
0.0
 25
0.0
 35
0.0
146
0.0
 13
0.0
 23
0.0
 33
0.0
 16
1.0
 26
0.0
 36
0.0
 17
0.0
 27
1.0
 37
0.0
 76
0
330
20E
345
0
346
0
  0
ENDSEC
  0
EOF
